  0
SECTION
  2
HEADER
  9
$ACADVER
  1
AC1018
  9
$ACADMAINTVER
 70
     0
  9
$DWGCODEPAGE
  3
ANSI_932
  9
$INSBASE
 10
0.0
 20
0.0
 30
0.0
  9
$EXTMIN
 10
-2100.0
 20
-1485.0
 30
0.0
  9
$EXTMAX
 10
2100.0
 20
1485.0
 30
0.0
  9
$LIMMIN
 10
-2100.0
 20
-1485.0
  9
$LIMMAX
 10
2100.0
 20
1485.0
  9
$ORTHOMODE
 70
     0
  9
$REGENMODE
 70
     1
  9
$FILLMODE
 70
     1
  9
$QTEXTMODE
 70
     0
  9
$MIRRTEXT
 70
     1
  9
$LTSCALE
 40
10.0
  9
$ATTMODE
 70
     1
  9
$TEXTSIZE
 40
2.5
  9
$TRACEWID
 40
1.0
  9
$TEXTSTYLE
  7
Standard
  9
$CLAYER
  8
0
  9
$CELTYPE
  6
ByLayer
  9
$CECOLOR
 62
   256
  9
$CELTSCALE
 40
1.0
  9
$DISPSILH
 70
     0
  9
$DIMSCALE
 40
1.0
  9
$DIMASZ
 40
2.5
  9
$DIMEXO
 40
0.625
  9
$DIMDLI
 40
3.75
  9
$DIMRND
 40
0.0
  9
$DIMDLE
 40
0.0
  9
$DIMEXE
 40
1.25
  9
$DIMTP
 40
0.0
  9
$DIMTM
 40
0.0
  9
$DIMTXT
 40
2.5
  9
$DIMCEN
 40
2.5
  9
$DIMTSZ
 40
0.0
  9
$DIMTOL
 70
     0
  9
$DIMLIM
 70
     0
  9
$DIMTIH
 70
     0
  9
$DIMTOH
 70
     0
  9
$DIMSE1
 70
     0
  9
$DIMSE2
 70
     0
  9
$DIMTAD
 70
     1
  9
$DIMZIN
 70
     8
  9
$DIMBLK
  1

  9
$DIMASO
 70
     1
  9
$DIMSHO
 70
     1
  9
$DIMPOST
  1

  9
$DIMAPOST
  1

  9
$DIMALT
 70
     0
  9
$DIMALTD
 70
     3
  9
$DIMALTF
 40
0.03937007874016
  9
$DIMLFAC
 40
1.0
  9
$DIMTOFL
 70
     1
  9
$DIMTVP
 40
0.0
  9
$DIMTIX
 70
     0
  9
$DIMSOXD
 70
     0
  9
$DIMSAH
 70
     0
  9
$DIMBLK1
  1

  9
$DIMBLK2
  1

  9
$DIMSTYLE
  2
ISO-25
  9
$DIMCLRD
 70
     0
  9
$DIMCLRE
 70
     0
  9
$DIMCLRT
 70
     0
  9
$DIMTFAC
 40
1.0
  9
$DIMGAP
 40
0.625
  9
$DIMJUST
 70
     0
  9
$DIMSD1
 70
     0
  9
$DIMSD2
 70
     0
  9
$DIMTOLJ
 70
     0
  9
$DIMTZIN
 70
     8
  9
$DIMALTZ
 70
     0
  9
$DIMALTTZ
 70
     0
  9
$DIMUPT
 70
     0
  9
$DIMDEC
 70
     2
  9
$DIMTDEC
 70
     2
  9
$DIMALTU
 70
     2
  9
$DIMALTTD
 70
     3
  9
$DIMTXSTY
  7
Standard
  9
$DIMAUNIT
 70
     0
  9
$DIMADEC
 70
     0
  9
$DIMALTRND
 40
0.0
  9
$DIMAZIN
 70
     0
  9
$DIMDSEP
 70
    44
  9
$DIMATFIT
 70
     3
  9
$DIMFRAC
 70
     0
  9
$DIMLDRBLK
  1

  9
$DIMLUNIT
 70
     2
  9
$DIMLWD
 70
    -2
  9
$DIMLWE
 70
    -2
  9
$DIMTMOVE
 70
     0
  9
$LUNITS
 70
     2
  9
$LUPREC
 70
     4
  9
$SKETCHINC
 40
1.0
  9
$FILLETRAD
 40
10.0
  9
$AUNITS
 70
     0
  9
$AUPREC
 70
     0
  9
$MENU
  1
.
  9
$ELEVATION
 40
0.0
  9
$PELEVATION
 40
0.0
  9
$THICKNESS
 40
0.0
  9
$LIMCHECK
 70
     0
  9
$CHAMFERA
 40
0.0
  9
$CHAMFERB
 40
0.0
  9
$CHAMFERC
 40
0.0
  9
$CHAMFERD
 40
0.0
  9
$SKPOLY
 70
     0
  9
$TDCREATE
 40
2459555.553360313
  9
$TDUCREATE
 40
2459555.178360313
  9
$TDUPDATE
 40
2459555.553360567
  9
$TDUUPDATE
 40
2459555.178360567
  9
$TDINDWG
 40
0.0000000116
  9
$TDUSRTIMER
 40
0.0000000116
  9
$USRTIMER
 70
     1
  9
$ANGBASE
 50
0.0
  9
$ANGDIR
 70
     0
  9
$PDMODE
 70
     0
  9
$PDSIZE
 40
0.0
  9
$PLINEWID
 40
0.0
  9
$SPLFRAME
 70
     0
  9
$SPLINETYPE
 70
     6
  9
$SPLINESEGS
 70
     8
  9
$HANDSEED
  5
430
  9
$SURFTAB1
 70
     6
  9
$SURFTAB2
 70
     6
  9
$SURFTYPE
 70
     6
  9
$SURFU
 70
     6
  9
$SURFV
 70
     6
  9
$UCSBASE
  2

  9
$UCSNAME
  2

  9
$UCSORG
 10
0.0
 20
0.0
 30
0.0
  9
$UCSXDIR
 10
1.0
 20
0.0
 30
0.0
  9
$UCSYDIR
 10
0.0
 20
1.0
 30
0.0
  9
$UCSORTHOREF
  2

  9
$UCSORTHOVIEW
 70
     0
  9
$UCSORGTOP
 10
0.0
 20
0.0
 30
0.0
  9
$UCSORGBOTTOM
 10
0.0
 20
0.0
 30
0.0
  9
$UCSORGLEFT
 10
0.0
 20
0.0
 30
0.0
  9
$UCSORGRIGHT
 10
0.0
 20
0.0
 30
0.0
  9
$UCSORGFRONT
 10
0.0
 20
0.0
 30
0.0
  9
$UCSORGBACK
 10
0.0
 20
0.0
 30
0.0
  9
$PUCSBASE
  2

  9
$PUCSNAME
  2

  9
$PUCSORG
 10
0.0
 20
0.0
 30
0.0
  9
$PUCSXDIR
 10
1.0
 20
0.0
 30
0.0
  9
$PUCSYDIR
 10
0.0
 20
1.0
 30
0.0
  9
$PUCSORTHOREF
  2

  9
$PUCSORTHOVIEW
 70
     0
  9
$PUCSORGTOP
 10
0.0
 20
0.0
 30
0.0
  9
$PUCSORGBOTTOM
 10
0.0
 20
0.0
 30
0.0
  9
$PUCSORGLEFT
 10
0.0
 20
0.0
 30
0.0
  9
$PUCSORGRIGHT
 10
0.0
 20
0.0
 30
0.0
  9
$PUCSORGFRONT
 10
0.0
 20
0.0
 30
0.0
  9
$PUCSORGBACK
 10
0.0
 20
0.0
 30
0.0
  9
$USERI1
 70
     0
  9
$USERI2
 70
     0
  9
$USERI3
 70
     0
  9
$USERI4
 70
     0
  9
$USERI5
 70
     0
  9
$USERR1
 40
0.0
  9
$USERR2
 40
0.0
  9
$USERR3
 40
0.0
  9
$USERR4
 40
0.0
  9
$USERR5
 40
0.0
  9
$WORLDVIEW
 70
     1
  9
$SHADEDGE
 70
     3
  9
$SHADEDIF
 70
    70
  9
$TILEMODE
 70
     1
  9
$MAXACTVP
 70
    64
  9
$PINSBASE
 10
0.0
 20
0.0
 30
0.0
  9
$PLIMCHECK
 70
     0
  9
$PEXTMIN
 10
1.000000000000000E+20
 20
1.000000000000000E+20
 30
1.000000000000000E+20
  9
$PEXTMAX
 10
-1.000000000000000E+20
 20
-1.000000000000000E+20
 30
-1.000000000000000E+20
  9
$PLIMMIN
 10
0.0
 20
0.0
  9
$PLIMMAX
 10
420.0
 20
297.0
  9
$UNITMODE
 70
     0
  9
$VISRETAIN
 70
     1
  9
$PLINEGEN
 70
     0
  9
$PSLTSCALE
 70
     1
  9
$TREEDEPTH
 70
  3020
  9
$CMLSTYLE
  2
Standard
  9
$CMLJUST
 70
     0
  9
$CMLSCALE
 40
20.0
  9
$PROXYGRAPHICS
 70
     1
  9
$MEASUREMENT
 70
     1
  9
$CELWEIGHT
370
    -1
  9
$ENDCAPS
280
     0
  9
$JOINSTYLE
280
     0
  9
$LWDISPLAY
290
     0
  9
$INSUNITS
 70
     4
  9
$HYPERLINKBASE
  1

  9
$STYLESHEET
  1

  9
$XEDIT
290
     1
  9
$CEPSNTYPE
380
     0
  9
$PSTYLEMODE
290
     1
  9
$FINGERPRINTGUID
  2
{BA769E21-B962-4CFC-B972-D2BFE8E94AEE}
  9
$VERSIONGUID
  2
{FAEB1C32-E019-11D5-929B-00C0DF256EC4}
  9
$EXTNAMES
290
     1
  9
$PSVPSCALE
 40
0.0
  9
$OLESTARTUP
290
     0
  9
$SORTENTS
280
   127
  9
$INDEXCTL
280
     0
  9
$HIDETEXT
280
     1
  9
$XCLIPFRAME
290
     0
  9
$HALOGAP
280
     0
  9
$OBSCOLOR
 70
   257
  9
$OBSLTYPE
280
     0
  9
$INTERSECTIONDISPLAY
280
     0
  9
$INTERSECTIONCOLOR
 70
   257
  9
$DIMASSOC
280
     2
  9
$PROJECTNAME
  1

  0
ENDSEC
  0
SECTION
  2
CLASSES
  0
CLASS
  1
ACDBDICTIONARYWDFLT
  2
AcDbDictionaryWithDefault
  3
ObjectDBX Classes
 90
        0
 91
        4
280
     0
281
     0
  0
CLASS
  1
VISUALSTYLE
  2
AcDbVisualStyle
  3
ObjectDBX Classes
 90
     4095
 91
        4
280
     0
281
     0
  0
CLASS
  1
MATERIAL
  2
AcDbMaterial
  3
ObjectDBX Classes
 90
     1153
 91
        4
280
     0
281
     0
  0
CLASS
  1
SCALE
  2
AcDbScale
  3
ObjectDBX Classes
 90
     1153
 91
        4
280
     0
281
     0
  0
CLASS
  1
TABLESTYLE
  2
AcDbTableStyle
  3
ObjectDBX Classes
 90
     4095
 91
        4
280
     0
281
     0
  0
CLASS
  1
MLEADERSTYLE
  2
AcDbMLeaderStyle
  3
ACDB_MLEADERSTYLE_CLASS
 90
     4095
 91
        4
280
     0
281
     0
  0
CLASS
  1
SUN
  2
AcDbSun
  3
SCENEOE
 90
     1153
 91
        4
280
     0
281
     0
  0
CLASS
  1
DICTIONARYVAR
  2
AcDbDictionaryVar
  3
ObjectDBX Classes
 90
        0
 91
        4
280
     0
281
     0
  0
CLASS
  1
CELLSTYLEMAP
  2
AcDbCellStyleMap
  3
ObjectDBX Classes
 90
     1152
 91
        4
280
     0
281
     0
  0
ENDSEC
  0
SECTION
  2
TABLES
  0
TABLE
  2
VPORT
  5
8
102
{ACAD_XDICTIONARY
360
3E7
102
}
330
0
100
AcDbSymbolTable
 70
     1
  0
VPORT
  5
29
330
8
100
AcDbSymbolTableRecord
100
AcDbViewportTableRecord
  2
*Active
 70
     0
 10
0.0
 20
0.0
 11
1.0
 21
1.0
 12
0.0
 22
0.0
 13
0.0
 23
0.0
 14
10.0
 24
10.0
 15
10.0
 25
10.0
 16
0.0
 26
0.0
 36
1.0
 17
0.0
 27
0.0
 37
0.0
 40
3267.0
 41
1.414141414141414
 42
50.0
 43
0.0
 44
0.0
 50
0.0
 51
0.0
 71
     0
 72
 10000
 73
     1
 74
     3
 75
     0
 76
     0
 77
     0
 78
     0
281
     0
 65
     1
110
0.0
120
0.0
130
0.0
111
1.0
121
0.0
131
0.0
112
0.0
122
1.0
132
0.0
 79
     0
146
0.0
  0
ENDTAB
  0
TABLE
  2
LTYPE
  5
5
330
0
100
AcDbSymbolTable
 70
     5
  0
LTYPE
  5
14
330
5
100
AcDbSymbolTableRecord
100
AcDbLinetypeTableRecord
  2
ByBlock
 70
     0
  3

 72
    65
 73
     0
 40
0.0
  0
LTYPE
  5
15
330
5
100
AcDbSymbolTableRecord
100
AcDbLinetypeTableRecord
  2
ByLayer
 70
     0
  3

 72
    65
 73
     0
 40
0.0
  0
LTYPE
  5
16
330
5
100
AcDbSymbolTableRecord
100
AcDbLinetypeTableRecord
  2
Continuous
 70
     0
  3
Solid line
 72
    65
 73
     0
 40
0.0
  0
LTYPE
  5
6F
330
5
100
AcDbSymbolTableRecord
100
AcDbLinetypeTableRecord
  2
JWW_CENTER1
 70
     0
  3
-----  --  ----------  --  -----
 72
    65
 73
     4
 40
6.773333333333333
 49
4.233333333333333
 74
     0
 49
-0.8466666666666667
 74
     0
 49
0.8466666666666667
 74
     0
 49
-0.8466666666666667
 74
     0
  0
LTYPE
  5
70
330
5
100
AcDbSymbolTableRecord
100
AcDbLinetypeTableRecord
  2
JWW_DASHED3
 70
     0
  3
---  ------  ------  ------  ---
 72
    65
 73
     2
 40
3.386666666666667
 49
2.54
 74
     0
 49
-0.8466666666666667
 74
     0
  0
LTYPE
  5
71
330
5
100
AcDbSymbolTableRecord
100
AcDbLinetypeTableRecord
  2
JWW_CENTER2
 70
     0
  3
-------------  --  -------------
 72
    65
 73
     4
 40
13.54666666666667
 49
11.00666666666667
 74
     0
 49
-0.8466666666666667
 74
     0
 49
0.8466666666666667
 74
     0
 49
-0.8466666666666667
 74
     0
  0
LTYPE
  5
72
330
5
100
AcDbSymbolTableRecord
100
AcDbLinetypeTableRecord
  2
JWW_PHANTOM1
 70
     0
  3
----  -  -  --------  -  -  ----
 72
    65
 73
     6
 40
6.773333333333333
 49
3.386666666666667
 74
     0
 49
-0.8466666666666667
 74
     0
 49
0.4233333333333333
 74
     0
 49
-0.8466666666666667
 74
     0
 49
0.4233333333333333
 74
     0
 49
-0.8466666666666667
 74
     0
  0
ENDTAB
  0
TABLE
  2
LAYER
  5
2
330
0
100
AcDbSymbolTable
 70
    15
  0
LAYER
  5
10
330
2
100
AcDbSymbolTableRecord
100
AcDbLayerTableRecord
  2
0
 70
     0
 62
     7
  6
Continuous
370
    -3
390
F
  0
LAYER
  5
73
330
2
100
AcDbSymbolTableRecord
100
AcDbLayerTableRecord
  2
C-A
 70
     0
 62
     7
  6
Continuous
370
    -3
390
F
  0
LAYER
  5
74
330
2
100
AcDbSymbolTableRecord
100
AcDbLayerTableRecord
  2
D-5_仕様文
 70
     0
 62
     7
  6
Continuous
370
    -3
390
F
  0
LAYER
  5
75
330
2
100
AcDbSymbolTableRecord
100
AcDbLayerTableRecord
  2
D-4_寸法
 70
     0
 62
     7
  6
Continuous
370
    -3
390
F
  0
LAYER
  5
76
330
2
100
AcDbSymbolTableRecord
100
AcDbLayerTableRecord
  2
D-2_蓋
 70
     0
 62
     7
  6
Continuous
370
    -3
390
F
  0
LAYER
  5
77
330
2
100
AcDbSymbolTableRecord
100
AcDbLayerTableRecord
  2
D-A
 70
     0
 62
     7
  6
Continuous
370
    -3
390
F
  0
LAYER
  5
78
330
2
100
AcDbSymbolTableRecord
100
AcDbLayerTableRecord
  2
D-9_ｸｯｼｮﾝ材
 70
     0
 62
     7
  6
Continuous
370
    -3
390
F
  0
LAYER
  5
79
330
2
100
AcDbSymbolTableRecord
100
AcDbLayerTableRecord
  2
D-6_躯体
 70
     0
 62
     7
  6
Continuous
370
    -3
390
F
  0
LAYER
  5
7A
330
2
100
AcDbSymbolTableRecord
100
AcDbLayerTableRecord
  2
D-1_ピット
 70
     0
 62
     7
  6
Continuous
370
    -3
390
F
  0
LAYER
  5
7B
330
2
100
AcDbSymbolTableRecord
100
AcDbLayerTableRecord
  2
D-0_通り芯
 70
     0
 62
     7
  6
Continuous
370
    -3
390
F
  0
LAYER
  5
7C
330
2
100
AcDbSymbolTableRecord
100
AcDbLayerTableRecord
  2
C-5_仕様文
 70
     0
 62
     7
  6
Continuous
370
    -3
390
F
  0
LAYER
  5
7D
330
2
100
AcDbSymbolTableRecord
100
AcDbLayerTableRecord
  2
C-2_蓋
 70
     0
 62
     7
  6
Continuous
370
    -3
390
F
  0
LAYER
  5
7E
330
2
100
AcDbSymbolTableRecord
100
AcDbLayerTableRecord
  2
C-4_寸法
 70
     0
 62
     7
  6
Continuous
370
    -3
390
F
  0
LAYER
  5
7F
330
2
100
AcDbSymbolTableRecord
100
AcDbLayerTableRecord
  2
C-1_ピット
 70
     0
 62
     7
  6
Continuous
370
    -3
390
F
  0
LAYER
  5
80
330
2
100
AcDbSymbolTableRecord
100
AcDbLayerTableRecord
  2
F-5ﾚｲﾔ
 70
     0
 62
     7
  6
Continuous
370
    -3
390
F
  0
ENDTAB
  0
TABLE
  2
STYLE
  5
3
330
0
100
AcDbSymbolTable
 70
     2
  0
STYLE
  5
11
330
3
100
AcDbSymbolTableRecord
100
AcDbTextStyleTableRecord
  2
Standard
 70
     0
 40
0.0
 41
1.0
 50
0.0
 71
     0
 42
2.5
  3
txt
  4

  0
STYLE
  5
6E
330
3
100
AcDbSymbolTableRecord
100
AcDbTextStyleTableRecord
  2
ＭＳ ゴシック
 70
     0
 40
1.0
 41
1.0
 50
0.0
 71
     0
 42
2.5
  3

  4

1001
ACAD
1000
MS Gothic
1071
    32817
  0
ENDTAB
  0
TABLE
  2
VIEW
  5
6
330
0
100
AcDbSymbolTable
 70
     0
  0
ENDTAB
  0
TABLE
  2
UCS
  5
7
330
0
100
AcDbSymbolTable
 70
     0
  0
ENDTAB
  0
TABLE
  2
APPID
  5
9
330
0
100
AcDbSymbolTable
 70
     2
  0
APPID
  5
12
330
9
100
AcDbSymbolTableRecord
100
AcDbRegAppTableRecord
  2
ACAD
 70
     0
  0
APPID
  5
426
330
9
100
AcDbSymbolTableRecord
100
AcDbRegAppTableRecord
  2
ACAD_MLEADERVER
 70
     0
  0
ENDTAB
  0
TABLE
  2
DIMSTYLE
  5
A
330
0
100
AcDbSymbolTable
 70
     1
100
AcDbDimStyleTable
  0
DIMSTYLE
105
27
330
A
100
AcDbSymbolTableRecord
100
AcDbDimStyleTableRecord
  2
ISO-25
 70
     0
 41
2.5
 42
0.625
 43
3.75
 44
1.25
 73
     0
 74
     0
 77
     1
 78
     8
140
2.5
141
2.5
143
0.03937007874016
147
0.625
171
     3
172
     1
178
     0
271
     2
272
     2
274
     3
278
    44
283
     0
284
     8
340
11
  0
ENDTAB
  0
TABLE
  2
BLOCK_RECORD
  5
1
330
0
100
AcDbSymbolTable
 70
     1
  0
BLOCK_RECORD
  5
1F
330
1
100
AcDbSymbolTableRecord
100
AcDbBlockTableRecord
  2
*Model_Space
340
22
  0
BLOCK_RECORD
  5
1B
330
1
100
AcDbSymbolTableRecord
100
AcDbBlockTableRecord
  2
*Paper_Space
340
1E
  0
BLOCK_RECORD
  5
23
330
1
100
AcDbSymbolTableRecord
100
AcDbBlockTableRecord
  2
*Paper_Space0
340
26
  0
ENDTAB
  0
ENDSEC
  0
SECTION
  2
BLOCKS
  0
BLOCK
  5
20
330
1F
100
AcDbEntity
  8
0
100
AcDbBlockBegin
  2
*Model_Space
 70
     0
 10
0.0
 20
0.0
 30
0.0
  3
*Model_Space
  1

  0
ENDBLK
  5
21
330
1F
100
AcDbEntity
  8
0
100
AcDbBlockEnd
  0
BLOCK
  5
1C
330
1B
100
AcDbEntity
 67
     1
  8
0
100
AcDbBlockBegin
  2
*Paper_Space
 70
     0
 10
0.0
 20
0.0
 30
0.0
  3
*Paper_Space
  1

  0
ENDBLK
  5
1D
330
1B
100
AcDbEntity
 67
     1
  8
0
100
AcDbBlockEnd
  0
BLOCK
  5
24
330
23
100
AcDbEntity
  8
0
100
AcDbBlockBegin
  2
*Paper_Space0
 70
     0
 10
0.0
 20
0.0
 30
0.0
  3
*Paper_Space0
  1

  0
ENDBLK
  5
25
330
23
100
AcDbEntity
  8
0
100
AcDbBlockEnd
  0
ENDSEC
  0
SECTION
  2
ENTITIES
  0
LINE
  5
81
330
1F
100
AcDbEntity
  8
C-A
  6
Continuous
 62
     3
370
     9
100
AcDbLine
 10
-1221.555503527096
 20
770.7548923586944
 30
0.0
 11
-1252.555488268307
 21
770.7548923586944
 31
0.0
  0
LINE
  5
82
330
1F
100
AcDbEntity
  8
C-A
  6
Continuous
 62
     3
370
     9
100
AcDbLine
 10
-1219.555411974362
 20
860.7548160647491
 30
0.0
 11
-1219.555411974362
 21
772.7551059817415
 31
0.0
  0
LINE
  5
83
330
1F
100
AcDbEntity
  8
C-A
  6
Continuous
 62
     3
370
     9
100
AcDbLine
 10
-1254.555579821042
 20
860.7548160647491
 30
0.0
 11
-1254.555579821042
 21
772.7551059817415
 31
0.0
  0
LINE
  5
84
330
1F
100
AcDbEntity
  8
C-A
  6
Continuous
 62
     3
370
     9
100
AcDbLine
 10
-1252.555488268307
 20
862.7550296877962
 30
0.0
 11
-1221.555503527096
 21
862.7550296877962
 31
0.0
  0
LINE
  5
85
330
1F
100
AcDbEntity
  8
C-A
  6
Continuous
 62
     3
370
     9
100
AcDbLine
 10
-1243.155769030026
 20
847.1549320315455
 30
0.0
 11
-1243.155769030026
 21
786.3542423342801
 31
0.0
  0
LINE
  5
86
330
1F
100
AcDbEntity
  8
C-A
  6
Continuous
 62
     3
370
     9
100
AcDbLine
 10
-1233.155479113034
 20
849.35506630889
 30
0.0
 11
-1240.955268541745
 21
849.35506630889
 31
0.0
  0
LINE
  5
87
330
1F
100
AcDbEntity
  8
C-A
  6
Continuous
 62
     3
370
     9
100
AcDbLine
 10
-1233.155479113034
 20
784.1543521975615
 30
0.0
 11
-1240.955268541745
 21
784.1543521975615
 31
0.0
  0
LINE
  5
88
330
1F
100
AcDbEntity
  8
C-A
  6
Continuous
 62
     3
370
     9
100
AcDbLine
 10
-1230.955283800534
 20
786.3542423342801
 30
0.0
 11
-1230.955283800534
 21
847.1549320315455
 31
0.0
  0
LINE
  5
89
330
1F
100
AcDbEntity
  8
C-A
  6
JWW_CENTER1
 62
     3
370
     9
100
AcDbLine
 10
-1269.555366197995
 20
816.75496865264
 30
0.0
 11
-1204.555411974362
 21
816.75496865264
 31
0.0
  0
LINE
  5
8A
330
1F
100
AcDbEntity
  8
C-A
  6
JWW_CENTER1
 62
     3
370
     9
100
AcDbLine
 10
-1237.05561033862
 20
755.755075464163
 30
0.0
 11
-1237.05561033862
 21
877.754846582327
 31
0.0
  0
ARC
  5
8B
330
1F
100
AcDbEntity
  8
C-A
  6
Continuous
 62
     3
370
     9
100
AcDbCircle
 10
-1252.555488268307
 20
772.7551059817415
 30
0.0
 40
2.0
100
AcDbArc
 50
180.0
 51
270.0
  0
ARC
  5
8C
330
1F
100
AcDbEntity
  8
C-A
  6
Continuous
 62
     3
370
     9
100
AcDbCircle
 10
-1221.555503527096
 20
772.7551059817415
 30
0.0
 40
2.0
100
AcDbArc
 50
270.0
 51
0.0
  0
ARC
  5
8D
330
1F
100
AcDbEntity
  8
C-A
  6
Continuous
 62
     3
370
     9
100
AcDbCircle
 10
-1221.555503527096
 20
860.7548160647491
 30
0.0
 40
2.0
100
AcDbArc
 50
0.0
 51
90.0
  0
ARC
  5
8E
330
1F
100
AcDbEntity
  8
C-A
  6
Continuous
 62
     3
370
     9
100
AcDbCircle
 10
-1252.555488268307
 20
860.7548160647491
 30
0.0
 40
2.0
100
AcDbArc
 50
90.0
 51
180.0
  0
ARC
  5
8F
330
1F
100
AcDbEntity
  8
C-A
  6
Continuous
 62
     3
370
     9
100
AcDbCircle
 10
-1240.955268541745
 20
786.3542423342801
 30
0.0
 40
2.200001001358032
100
AcDbArc
 50
180.0
 51
270.0
  0
ARC
  5
90
330
1F
100
AcDbEntity
  8
C-A
  6
Continuous
 62
     3
370
     9
100
AcDbCircle
 10
-1240.955268541745
 20
847.1549320315455
 30
0.0
 40
2.200001001358032
100
AcDbArc
 50
90.0
 51
180.0
  0
ARC
  5
91
330
1F
100
AcDbEntity
  8
C-A
  6
Continuous
 62
     3
370
     9
100
AcDbCircle
 10
-1233.155479113034
 20
847.1549320315455
 30
0.0
 40
2.200001001358032
100
AcDbArc
 50
0.0
 51
90.0
  0
ARC
  5
92
330
1F
100
AcDbEntity
  8
C-A
  6
Continuous
 62
     3
370
     9
100
AcDbCircle
 10
-1233.155479113034
 20
786.3542423342801
 30
0.0
 40
2.200001001358032
100
AcDbArc
 50
270.0
 51
0.0
  0
ARC
  5
93
330
1F
100
AcDbEntity
  8
C-A
  6
Continuous
 62
     3
370
     9
100
AcDbCircle
 10
-1237.05561033862
 20
816.75496865264
 30
0.0
 40
12.5
100
AcDbArc
 50
299.2091369628906
 51
60.79086303710935
  0
ARC
  5
94
330
1F
100
AcDbEntity
  8
C-A
  6
Continuous
 62
     3
370
     9
100
AcDbCircle
 10
-1237.05561033862
 20
816.75496865264
 30
0.0
 40
12.5
100
AcDbArc
 50
119.2092742919922
 51
240.7907257080078
  0
LINE
  5
95
330
1F
100
AcDbEntity
  8
D-5_仕様文
  6
Continuous
 62
     2
370
     9
100
AcDbLine
 10
-1205.637461150259
 20
-982.0308139554709
 30
0.0
 11
-1205.637461150259
 21
-917.0312335721701
 31
0.0
  0
LINE
  5
96
330
1F
100
AcDbEntity
  8
D-5_仕様文
  6
Continuous
 62
     2
370
     9
100
AcDbLine
 10
-1205.637461150259
 20
-917.0312335721701
 30
0.0
 11
-630.6368889456694
 21
-917.0312335721701
 31
0.0
  0
LINE
  5
97
330
1F
100
AcDbEntity
  8
D-5_仕様文
  6
Continuous
 62
     2
370
     9
100
AcDbLine
 10
-630.6368889456694
 20
-917.0312335721701
 30
0.0
 11
-630.6368889456694
 21
-982.0308139554709
 31
0.0
  0
LINE
  5
98
330
1F
100
AcDbEntity
  8
D-5_仕様文
  6
Continuous
 62
     2
370
     9
100
AcDbLine
 10
-630.6368889456694
 20
-982.0308139554709
 30
0.0
 11
-1205.637461150259
 21
-982.0308139554709
 31
0.0
  0
TEXT
  5
99
330
1F
100
AcDbEntity
  8
D-5_仕様文
  6
Continuous
 62
     2
370
     9
100
AcDbText
 10
-1163.137123096459
 20
-963.8911191312546
 30
0.0
 40
30.48
  1
断面詳細図　Ｓ＝１：２
 50
0.0000535263809661
 41
1.113636363636364
  7
ＭＳ ゴシック
100
AcDbText
  0
LINE
  5
9A
330
1F
100
AcDbEntity
  8
D-4_寸法
  6
Continuous
 62
     7
370
     9
100
AcDbLine
 10
-1436.310259306998
 20
51.77854273398168
 30
0.0
 11
-698.6425652152008
 21
51.77854273398168
 31
0.0
  0
LINE
  5
9B
330
1F
100
AcDbEntity
  8
D-4_寸法
  6
Continuous
 62
     7
370
     9
100
AcDbLine
 10
-1436.310259306998
 20
-167.6693942777371
 30
0.0
 11
-863.6424889212554
 21
-167.6693942777371
 31
0.0
  0
LINE
  5
9C
330
1F
100
AcDbEntity
  8
D-4_寸法
  6
Continuous
 62
     7
370
     9
100
AcDbLine
 10
-863.6424889212554
 20
-273.1334140531277
 30
0.0
 11
-863.6424889212554
 21
-164.6688297025418
 31
0.0
  0
LINE
  5
9D
330
1F
100
AcDbEntity
  8
D-4_寸法
  6
Continuous
 62
     7
370
     9
100
AcDbLine
 10
-863.6424889212554
 20
-167.6693942777371
 30
0.0
 11
-738.641649687857
 21
-167.6693942777371
 31
0.0
  0
LINE
  5
9E
330
1F
100
AcDbEntity
  8
D-4_寸法
  6
Continuous
 62
     7
370
     9
100
AcDbLine
 10
-738.641649687857
 20
-273.1334140531277
 30
0.0
 11
-738.641649687857
 21
-55.91738011758082
 31
0.0
  0
LINE
  5
9F
330
1F
100
AcDbEntity
  8
D-4_寸法
  6
Continuous
 62
     7
370
     9
100
AcDbLine
 10
-733.6414970999664
 20
-273.1334140531277
 30
0.0
 11
-733.6414970999664
 21
-55.91738011758082
 31
0.0
  0
LINE
  5
A0
330
1F
100
AcDbEntity
  8
D-4_寸法
  6
Continuous
 62
     7
370
     9
100
AcDbLine
 10
-698.6425652152008
 20
-273.1334140531277
 30
0.0
 11
-698.6425652152008
 21
54.77910730917699
 31
0.0
  0
LINE
  5
A1
330
1F
100
AcDbEntity
  8
D-4_寸法
  6
Continuous
 62
     7
370
     9
100
AcDbLine
 10
-1436.310259306998
 20
-58.91710545937769
 30
0.0
 11
-698.6425652152008
 21
-58.91710545937769
 31
0.0
  0
LINE
  5
A2
330
1F
100
AcDbEntity
  8
D-5_仕様文
  6
Continuous
 62
     7
370
     9
100
AcDbLine
 10
-709.9868263846344
 20
-286.0884311429714
 30
0.0
 11
-696.1756386404937
 21
-265.2500369779324
 31
0.0
  0
LINE
  5
A3
330
1F
100
AcDbEntity
  8
D-5_仕様文
  6
Continuous
 62
     7
370
     9
100
AcDbLine
 10
-709.9868263846344
 20
-286.0884311429714
 30
0.0
 11
-691.2526573782867
 21
-269.5338657132839
 31
0.0
  0
LINE
  5
A4
330
1F
100
AcDbEntity
  8
D-5_仕様文
  6
Continuous
 62
     7
370
     9
100
AcDbLine
 10
-588.1236900931303
 20
-375.0231006376004
 30
0.0
 11
-574.3126167899077
 21
-354.1837909452175
 31
0.0
  0
LINE
  5
A5
330
1F
100
AcDbEntity
  8
D-5_仕様文
  6
Continuous
 62
     7
370
     9
100
AcDbLine
 10
-588.1236900931303
 20
-375.0231006376004
 30
0.0
 11
-569.3895210867827
 21
-358.4686115018582
 31
0.0
  0
LINE
  5
A6
330
1F
100
AcDbEntity
  8
D-5_仕様文
  6
Continuous
 62
     7
370
     9
100
AcDbLine
 10
-805.857454741568
 20
-366.7834689847683
 30
0.0
 11
-785.0186409598297
 21
-380.5952670804714
 31
0.0
  0
LINE
  5
A7
330
1F
100
AcDbEntity
  8
D-5_仕様文
  6
Continuous
 62
     7
370
     9
100
AcDbLine
 10
-805.857454741568
 20
-366.7834689847683
 30
0.0
 11
-789.3034615164703
 21
-385.5172565213894
 31
0.0
  0
LINE
  5
A8
330
1F
100
AcDbEntity
  8
D-5_仕様文
  6
Continuous
 62
     7
370
     9
100
AcDbLine
 10
-588.1236900931303
 20
-375.0231006376004
 30
0.0
 11
-466.3772072440093
 21
-235.1424625150418
 31
0.0
  0
LINE
  5
A9
330
1F
100
AcDbEntity
  8
D-5_仕様文
  6
Continuous
 62
     7
370
     9
100
AcDbLine
 10
-739.1252388602203
 20
-424.8652866117214
 30
0.0
 11
-805.857454741568
 21
-366.7834689847683
 31
0.0
  0
LINE
  5
AA
330
1F
100
AcDbEntity
  8
D-2_蓋
  6
Continuous
 62
     3
370
     9
100
AcDbLine
 10
-1436.310259306998
 20
-441.3319232694363
 30
0.0
 11
-1436.310259306998
 21
-217.3894717923855
 31
0.0
  0
LINE
  5
AB
330
1F
100
AcDbEntity
  8
D-5_仕様文
  6
Continuous
 62
     7
370
     9
100
AcDbLine
 10
-1426.175676787466
 20
-532.1880176297879
 30
0.0
 11
-1272.719599211783
 21
-314.7550418607449
 31
0.0
  0
LINE
  5
AC
330
1F
100
AcDbEntity
  8
D-5_仕様文
  6
Continuous
 62
     7
370
     9
100
AcDbLine
 10
-1272.719599211783
 20
-314.7550418607449
 30
0.0
 11
-1284.345995390982
 21
-336.8870761625027
 31
0.0
  0
LINE
  5
AD
330
1F
100
AcDbEntity
  8
D-5_仕様文
  6
Continuous
 62
     7
370
     9
100
AcDbLine
 10
-1272.719599211783
 20
-314.7550418607449
 30
0.0
 11
-1289.677759612173
 21
-333.1240298978543
 31
0.0
  0
LINE
  5
AE
330
1F
100
AcDbEntity
  8
D-2_蓋
  6
Continuous
 62
     3
370
     9
100
AcDbLine
 10
-753.6414589529937
 20
-351.0887363187527
 30
0.0
 11
-753.6414589529937
 21
-333.5887363187527
 31
0.0
  0
LINE
  5
AF
330
1F
100
AcDbEntity
  8
D-2_蓋
  6
Continuous
 62
     3
370
     9
100
AcDbLine
 10
-753.6414589529937
 20
-323.5882022611355
 30
0.0
 11
-753.6414589529937
 21
-298.5883548490261
 31
0.0
  0
LINE
  5
B0
330
1F
100
AcDbEntity
  8
D-2_蓋
  6
Continuous
 62
     3
370
     9
100
AcDbLine
 10
-753.6414589529937
 20
-298.5883548490261
 30
0.0
 11
-763.6419930106109
 21
-298.5883548490261
 31
0.0
  0
LINE
  5
B1
330
1F
100
AcDbEntity
  8
D-2_蓋
  6
Continuous
 62
     3
370
     9
100
AcDbLine
 10
-738.641649687857
 20
-286.0882022611355
 30
0.0
 11
-738.641649687857
 21
-306.0882785550808
 31
0.0
  0
LINE
  5
B2
330
1F
100
AcDbEntity
  8
D-2_蓋
  6
Continuous
 62
     3
370
     9
100
AcDbLine
 10
-738.641649687857
 20
-306.0882785550808
 30
0.0
 11
-743.6414208060211
 21
-311.0885837308621
 31
0.0
  0
LINE
  5
B3
330
1F
100
AcDbEntity
  8
D-2_蓋
  6
Continuous
 62
     3
370
     9
100
AcDbLine
 10
-743.6414208060211
 20
-311.0885837308621
 30
0.0
 11
-743.6414208060211
 21
-338.5885837308621
 31
0.0
  0
LINE
  5
B4
330
1F
100
AcDbEntity
  8
D-2_蓋
  6
Continuous
 62
     3
370
     9
100
AcDbLine
 10
-743.6414208060211
 20
-338.5885837308621
 30
0.0
 11
-738.641649687857
 21
-343.5883167020535
 31
0.0
  0
LINE
  5
B5
330
1F
100
AcDbEntity
  8
D-2_蓋
  6
Continuous
 62
     3
370
     9
100
AcDbLine
 10
-738.641649687857
 20
-343.5883167020535
 30
0.0
 11
-738.641649687857
 21
-363.5884311429714
 31
0.0
  0
LINE
  5
B6
330
1F
100
AcDbEntity
  8
D-2_蓋
  6
Continuous
 62
     3
370
     9
100
AcDbLine
 10
-763.6419930106109
 20
-363.5884311429714
 30
0.0
 11
-763.6419930106109
 21
-351.0887363187527
 31
0.0
  0
LINE
  5
B7
330
1F
100
AcDbEntity
  8
D-2_蓋
  6
Continuous
 62
     3
370
     9
100
AcDbLine
 10
-738.641649687857
 20
-286.0882022611355
 30
0.0
 11
-1436.310259306998
 21
-286.0882022611355
 31
0.0
  0
LINE
  5
B8
330
1F
100
AcDbEntity
  8
D-2_蓋
  6
Continuous
 62
     3
370
     9
100
AcDbLine
 10
-753.6414589529937
 20
-333.5887363187527
 30
0.0
 11
-1436.310259306998
 21
-333.5887363187527
 31
0.0
  0
LINE
  5
B9
330
1F
100
AcDbEntity
  8
D-2_蓋
  6
Continuous
 62
     4
370
     9
100
AcDbLine
 10
-1436.310259306998
 20
-323.5882022611355
 30
0.0
 11
-753.6414589529937
 21
-323.5882022611355
 31
0.0
  0
LINE
  5
BA
330
1F
100
AcDbEntity
  8
D-A
  6
Continuous
 62
     2
370
     9
100
AcDbLine
 10
-1436.310259306998
 20
-289.6946933500027
 30
0.0
 11
-1432.703691924185
 21
-286.0882022611355
 31
0.0
  0
LINE
  5
BB
330
1F
100
AcDbEntity
  8
D-2_蓋
  6
Continuous
 62
     3
370
     9
100
AcDbLine
 10
-738.641649687857
 20
-363.5884311429714
 30
0.0
 11
-1436.310259306998
 21
-363.5884311429714
 31
0.0
  0
LINE
  5
BC
330
1F
100
AcDbEntity
  8
D-2_蓋
  6
Continuous
 62
     3
370
     9
100
AcDbLine
 10
-1436.310259306998
 20
-351.0887363187527
 30
0.0
 11
-753.6414589529937
 21
-351.0887363187527
 31
0.0
  0
LINE
  5
BD
330
1F
100
AcDbEntity
  8
D-5_仕様文
  6
Continuous
 62
     7
370
     9
100
AcDbLine
 10
-748.4757103568023
 20
-286.0882022611355
 30
0.0
 11
-734.7472633963531
 21
-265.195257925198
 31
0.0
  0
LINE
  5
BE
330
1F
100
AcDbEntity
  8
D-5_仕様文
  6
Continuous
 62
     7
370
     9
100
AcDbLine
 10
-748.4757103568023
 20
-286.0882022611355
 30
0.0
 11
-729.8074593192047
 21
-269.4602420560574
 31
0.0
  0
LINE
  5
BF
330
1F
100
AcDbEntity
  8
D-5_仕様文
  6
Continuous
 62
     7
370
     9
100
AcDbLine
 10
-801.1415733939117
 20
-293.5999515287136
 30
0.0
 11
-787.4121346121734
 21
-272.7070834867214
 31
0.0
  0
LINE
  5
C0
330
1F
100
AcDbEntity
  8
D-5_仕様文
  6
Continuous
 62
     7
370
     9
100
AcDbLine
 10
-801.1415733939117
 20
-293.5999515287136
 30
0.0
 11
-782.4727882986969
 21
-276.9720676175808
 31
0.0
  0
LINE
  5
C1
330
1F
100
AcDbEntity
  8
D-2_蓋
  6
Continuous
 62
     3
370
     9
100
AcDbLine
 10
-833.6416115408844
 20
-323.5882022611355
 30
0.0
 11
-833.6416115408844
 21
-333.5887363187527
 31
0.0
  0
LINE
  5
C2
330
1F
100
AcDbEntity
  8
D-2_蓋
  6
Continuous
 62
     4
370
     9
100
AcDbLine
 10
-778.6415733939117
 20
-298.5881259671902
 30
0.0
 11
-778.6415733939117
 21
-323.5882022611355
 31
0.0
  0
LINE
  5
C3
330
1F
100
AcDbEntity
  8
D-2_蓋
  6
Continuous
 62
     4
370
     9
100
AcDbLine
 10
-1436.310259306998
 20
-303.5881259671902
 30
0.0
 11
-778.6415733939117
 21
-303.5881259671902
 31
0.0
  0
LINE
  5
C4
330
1F
100
AcDbEntity
  8
D-2_蓋
  6
Continuous
 62
     4
370
     9
100
AcDbLine
 10
-1436.310259306998
 20
-308.5881259671902
 30
0.0
 11
-778.6415733939117
 21
-308.5881259671902
 31
0.0
  0
LINE
  5
C5
330
1F
100
AcDbEntity
  8
D-2_蓋
  6
Continuous
 62
     4
370
     9
100
AcDbLine
 10
-1436.310259306998
 20
-313.5882022611355
 30
0.0
 11
-778.6415733939117
 21
-313.5882022611355
 31
0.0
  0
LINE
  5
C6
330
1F
100
AcDbEntity
  8
D-2_蓋
  6
Continuous
 62
     4
370
     9
100
AcDbLine
 10
-1436.310259306998
 20
-318.5882022611355
 30
0.0
 11
-778.6415733939117
 21
-318.5882022611355
 31
0.0
  0
LINE
  5
C7
330
1F
100
AcDbEntity
  8
D-2_蓋
  6
Continuous
 62
     4
370
     9
100
AcDbLine
 10
-1436.310259306998
 20
-298.5881259671902
 30
0.0
 11
-763.6412682181304
 21
-298.5881259671902
 31
0.0
  0
LINE
  5
C8
330
1F
100
AcDbEntity
  8
D-A
  6
Continuous
 62
     2
370
     9
100
AcDbLine
 10
-766.3804878836578
 20
-298.5881259671902
 30
0.0
 11
-763.641535246939
 21
-295.8489444486355
 31
0.0
  0
LINE
  5
C9
330
1F
100
AcDbEntity
  8
D-2_蓋
  6
Continuous
 62
     3
370
     9
100
AcDbLine
 10
-763.6412682181304
 20
-298.5881259671902
 30
0.0
 11
-763.6419930106109
 21
-286.0882022611355
 31
0.0
  0
LINE
  5
CA
330
1F
100
AcDbEntity
  8
D-A
  6
Continuous
 62
     2
370
     9
100
AcDbLine
 10
-794.6645607596344
 20
-298.5881259671902
 30
0.0
 11
-782.1646370535797
 21
-286.0882022611355
 31
0.0
  0
LINE
  5
CB
330
1F
100
AcDbEntity
  8
D-A
  6
Continuous
 62
     2
370
     9
100
AcDbLine
 10
-822.948404753775
 20
-298.5881259671902
 30
0.0
 11
-810.4489388113922
 21
-286.0882022611355
 31
0.0
  0
LINE
  5
CC
330
1F
100
AcDbEntity
  8
D-A
  6
Continuous
 62
     2
370
     9
100
AcDbLine
 10
-851.233202422232
 20
-298.5881259671902
 30
0.0
 11
-838.7332787161773
 21
-286.0882022611355
 31
0.0
  0
LINE
  5
CD
330
1F
100
AcDbEntity
  8
D-A
  6
Continuous
 62
     2
370
     9
100
AcDbLine
 10
-879.5175423270172
 20
-298.5881259671902
 30
0.0
 11
-867.0176186209625
 21
-286.0882022611355
 31
0.0
  0
LINE
  5
CE
330
1F
100
AcDbEntity
  8
D-A
  6
Continuous
 62
     2
370
     9
100
AcDbLine
 10
-907.8018822318023
 20
-298.5881259671902
 30
0.0
 11
-895.3019394522613
 21
-286.0882022611355
 31
0.0
  0
LINE
  5
CF
330
1F
100
AcDbEntity
  8
D-A
  6
Continuous
 62
     2
370
     9
100
AcDbLine
 10
-936.0862030631012
 20
-298.5881259671902
 30
0.0
 11
-923.5862793570465
 21
-286.0882022611355
 31
0.0
  0
LINE
  5
D0
330
1F
100
AcDbEntity
  8
D-A
  6
Continuous
 62
     2
370
     9
100
AcDbLine
 10
-964.3705429678863
 20
-298.5881259671902
 30
0.0
 11
-951.8706001883453
 21
-286.0882022611355
 31
0.0
  0
LINE
  5
D1
330
1F
100
AcDbEntity
  8
D-A
  6
Continuous
 62
     2
370
     9
100
AcDbLine
 10
-992.6548637991851
 20
-298.5881259671902
 30
0.0
 11
-980.1549400931304
 21
-286.0882022611355
 31
0.0
  0
LINE
  5
D2
330
1F
100
AcDbEntity
  8
D-A
  6
Continuous
 62
     2
370
     9
100
AcDbLine
 10
-1020.93920370397
 20
-298.5881259671902
 30
0.0
 11
-1008.439260924429
 21
-286.0882022611355
 31
0.0
  0
LINE
  5
D3
330
1F
100
AcDbEntity
  8
D-A
  6
Continuous
 62
     2
370
     9
100
AcDbLine
 10
-1049.223524535269
 20
-298.5881259671902
 30
0.0
 11
-1036.723600829214
 21
-286.0882022611355
 31
0.0
  0
LINE
  5
D4
330
1F
100
AcDbEntity
  8
D-A
  6
Continuous
 62
     2
370
     9
100
AcDbLine
 10
-1077.507845366568
 20
-298.5881259671902
 30
0.0
 11
-1065.007921660513
 21
-286.0882022611355
 31
0.0
  0
LINE
  5
D5
330
1F
100
AcDbEntity
  8
D-A
  6
Continuous
 62
     2
370
     9
100
AcDbLine
 10
-1105.792185271353
 20
-298.5881259671902
 30
0.0
 11
-1093.292261565298
 21
-286.0882022611355
 31
0.0
  0
LINE
  5
D6
330
1F
100
AcDbEntity
  8
D-A
  6
Continuous
 62
     2
370
     9
100
AcDbLine
 10
-1134.076525176138
 20
-298.5881259671902
 30
0.0
 11
-1121.576334441275
 21
-286.0882022611355
 31
0.0
  0
LINE
  5
D7
330
1F
100
AcDbEntity
  8
D-A
  6
Continuous
 62
     2
370
     9
100
AcDbLine
 10
-1162.360865080923
 20
-298.5881259671902
 30
0.0
 11
-1149.860903227896
 21
-286.0882022611355
 31
0.0
  0
LINE
  5
D8
330
1F
100
AcDbEntity
  8
D-A
  6
Continuous
 62
     2
370
     9
100
AcDbLine
 10
-1190.645166838736
 20
-298.5881259671902
 30
0.0
 11
-1178.145243132681
 21
-286.0882022611355
 31
0.0
  0
LINE
  5
D9
330
1F
100
AcDbEntity
  8
D-A
  6
Continuous
 62
     2
370
     9
100
AcDbLine
 10
-1218.929506743521
 20
-298.5881259671902
 30
0.0
 11
-1206.429316008658
 21
-286.0882022611355
 31
0.0
  0
LINE
  5
DA
330
1F
100
AcDbEntity
  8
D-A
  6
Continuous
 62
     2
370
     9
100
AcDbLine
 10
-1247.213846648306
 20
-298.5881259671902
 30
0.0
 11
-1234.713655913443
 21
-286.0882022611355
 31
0.0
  0
LINE
  5
DB
330
1F
100
AcDbEntity
  8
D-A
  6
Continuous
 62
     2
370
     9
100
AcDbLine
 10
-1275.498186553091
 20
-298.5881259671902
 30
0.0
 11
-1262.997995818228
 21
-286.0882022611355
 31
0.0
  0
LINE
  5
DC
330
1F
100
AcDbEntity
  8
D-A
  6
Continuous
 62
     2
370
     9
100
AcDbLine
 10
-1303.782488310904
 20
-298.5881259671902
 30
0.0
 11
-1291.282335723013
 21
-286.0882022611355
 31
0.0
  0
LINE
  5
DD
330
1F
100
AcDbEntity
  8
D-A
  6
Continuous
 62
     2
370
     9
100
AcDbLine
 10
-1332.066828215689
 20
-298.5881259671902
 30
0.0
 11
-1319.566637480826
 21
-286.0882022611355
 31
0.0
  0
LINE
  5
DE
330
1F
100
AcDbEntity
  8
D-A
  6
Continuous
 62
     2
370
     9
100
AcDbLine
 10
-1360.351168120474
 20
-298.5881259671902
 30
0.0
 11
-1347.850977385611
 21
-286.0882022611355
 31
0.0
  0
LINE
  5
DF
330
1F
100
AcDbEntity
  8
D-A
  6
Continuous
 62
     2
370
     9
100
AcDbLine
 10
-1388.635469878287
 20
-298.5881259671902
 30
0.0
 11
-1376.135317290396
 21
-286.0882022611355
 31
0.0
  0
LINE
  5
E0
330
1F
100
AcDbEntity
  8
D-A
  6
Continuous
 62
     2
370
     9
100
AcDbLine
 10
-1416.919847930044
 20
-298.5881259671902
 30
0.0
 11
-1404.419390166373
 21
-286.0882022611355
 31
0.0
  0
LINE
  5
E1
330
1F
100
AcDbEntity
  8
D-5_仕様文
  6
Continuous
 62
     7
370
     9
100
AcDbLine
 10
-709.9868263846344
 20
-286.0884311429714
 30
0.0
 11
-536.3485207205717
 21
-86.58876683633082
 31
0.0
  0
LINE
  5
E2
330
1F
100
AcDbEntity
  8
D-5_仕様文
  6
Continuous
 62
     7
370
     9
100
AcDbLine
 10
-521.5285744315092
 20
-23.25311925332301
 30
0.0
 11
-748.4757103568023
 21
-286.0882022611355
 31
0.0
  0
LINE
  5
E3
330
1F
100
AcDbEntity
  8
D-5_仕様文
  6
Continuous
 62
     7
370
     9
100
AcDbLine
 10
-521.5284981375639
 20
30.22878382284887
 30
0.0
 11
-102.5374092703765
 21
30.22878382284887
 31
0.0
  0
LINE
  5
E4
330
1F
100
AcDbEntity
  8
D-5_仕様文
  6
Continuous
 62
     7
370
     9
100
AcDbLine
 10
-521.5284981375639
 20
30.22878382284887
 30
0.0
 11
-801.1415733939117
 21
-293.5999515287136
 31
0.0
  0
LWPOLYLINE
  5
E5
330
1F
100
AcDbEntity
  8
D-4_寸法
  6
Continuous
 62
     7
370
     9
100
AcDbPolyline
 90
        4
 70
     1
 43
2.0
 10
-697.6425652152009
 20
51.77854273398168
 42
0.4142135623731
 10
-698.6425652152008
 20
52.77854273398168
 42
0.4142135623731
 10
-699.6425652152006
 20
51.77854273398168
 42
0.4142135623731
 10
-698.6425652152008
 20
50.77854273398168
 42
0.4142135623731
  0
LWPOLYLINE
  5
E6
330
1F
100
AcDbEntity
  8
D-4_寸法
  6
Continuous
 62
     7
370
     9
100
AcDbPolyline
 90
        4
 70
     1
 43
2.0
 10
-737.6416496878571
 20
-58.91710545937769
 42
0.4142135623731
 10
-738.641649687857
 20
-57.91710545937769
 42
0.4142135623731
 10
-739.6416496878569
 20
-58.91710545937769
 42
0.4142135623731
 10
-738.641649687857
 20
-59.91710545937769
 42
0.4142135623731
  0
LWPOLYLINE
  5
E7
330
1F
100
AcDbEntity
  8
D-4_寸法
  6
Continuous
 62
     7
370
     9
100
AcDbPolyline
 90
        4
 70
     1
 43
2.0
 10
-732.6414970999665
 20
-58.91710545937769
 42
0.4142135623731
 10
-733.6414970999664
 20
-57.91710545937769
 42
0.4142135623731
 10
-734.6414970999663
 20
-58.91710545937769
 42
0.4142135623731
 10
-733.6414970999664
 20
-59.91710545937769
 42
0.4142135623731
  0
LWPOLYLINE
  5
E8
330
1F
100
AcDbEntity
  8
D-4_寸法
  6
Continuous
 62
     7
370
     9
100
AcDbPolyline
 90
        4
 70
     1
 43
2.0
 10
-697.6425652152009
 20
-58.91710545937769
 42
0.4142135623731
 10
-698.6425652152008
 20
-57.91710545937769
 42
0.4142135623731
 10
-699.6425652152006
 20
-58.91710545937769
 42
0.4142135623731
 10
-698.6425652152008
 20
-59.91710545937769
 42
0.4142135623731
  0
LWPOLYLINE
  5
E9
330
1F
100
AcDbEntity
  8
D-4_寸法
  6
Continuous
 62
     7
370
     9
100
AcDbPolyline
 90
        4
 70
     1
 43
2.0
 10
-862.6424889212556
 20
-167.6693942777371
 42
0.4142135623731
 10
-863.6424889212554
 20
-166.6693942777371
 42
0.4142135623731
 10
-864.6424889212553
 20
-167.6693942777371
 42
0.4142135623731
 10
-863.6424889212554
 20
-168.6693942777371
 42
0.4142135623731
  0
LWPOLYLINE
  5
EA
330
1F
100
AcDbEntity
  8
D-4_寸法
  6
Continuous
 62
     7
370
     9
100
AcDbPolyline
 90
        4
 70
     1
 43
2.0
 10
-737.6416496878571
 20
-167.6693942777371
 42
0.4142135623731
 10
-738.641649687857
 20
-166.6693942777371
 42
0.4142135623731
 10
-739.6416496878569
 20
-167.6693942777371
 42
0.4142135623731
 10
-738.641649687857
 20
-168.6693942777371
 42
0.4142135623731
  0
TEXT
  5
EB
330
1F
100
AcDbEntity
  8
D-4_寸法
  6
Continuous
 62
     2
370
     9
100
AcDbText
 10
-771.5870938712067
 20
-48.27756322506036
 30
0.0
 40
30.48
  1
1
 50
359.9984700376257
 41
0.9999999999999998
  7
ＭＳ ゴシック
100
AcDbText
  0
TEXT
  5
EC
330
1F
100
AcDbEntity
  8
D-4_寸法
  6
Continuous
 62
     2
370
     9
100
AcDbText
 10
-726.8503461295074
 20
-48.27756322506036
 30
0.0
 40
30.48
  1
7
 50
359.9984700376257
 41
0.9999999999999998
  7
ＭＳ ゴシック
100
AcDbText
  0
TEXT
  5
ED
330
1F
100
AcDbEntity
  8
D-4_寸法
  6
Continuous
 62
     2
370
     9
100
AcDbText
 10
-822.3919112953085
 20
-157.0291653963464
 30
0.0
 40
30.48
  1
25
 50
0.0007199823029009
 41
1.062500000000001
  7
ＭＳ ゴシック
100
AcDbText
  0
TEXT
  5
EE
330
1F
100
AcDbEntity
  8
D-5_仕様文
  6
Continuous
 62
     7
370
     9
100
AcDbText
 10
-465.5443944267869
 20
-228.1037009183788
 30
0.0
 40
22.86
  1
溶接用アンカ－＠５００
 50
0.0001610486688993
 41
1.151515151515151
  7
ＭＳ ゴシック
100
AcDbText
  0
TEXT
  5
EF
330
1F
100
AcDbEntity
  8
D-5_仕様文
  6
Continuous
 62
     7
370
     9
100
AcDbText
 10
-520.4197182303374
 20
38.07076807577856
 30
0.0
 40
22.86
  1
床仕上材貼り（別途工事）
 41
1.152777777777778
  7
ＭＳ ゴシック
100
AcDbText
  0
LINE
  5
F0
330
1F
100
AcDbEntity
  8
D-9_ｸｯｼｮﾝ材
  6
Continuous
 62
     2
370
     9
100
AcDbLine
 10
-733.6414923315948
 20
-368.5882022611355
 30
0.0
 11
-772.3916067725128
 21
-368.5882022611355
 31
0.0
  0
LINE
  5
F1
330
1F
100
AcDbEntity
  8
D-4_寸法
  6
Continuous
 62
     7
370
     9
100
AcDbLine
 10
-550.1258005743925
 20
-366.0891940824246
 30
0.0
 11
-472.5922503119414
 21
-366.0891940824246
 31
0.0
  0
LINE
  5
F2
330
1F
100
AcDbEntity
  8
D-4_寸法
  6
Continuous
 62
     7
370
     9
100
AcDbLine
 10
-550.1258005743925
 20
-416.0884311429714
 30
0.0
 11
-472.5922503119414
 21
-416.0884311429714
 31
0.0
  0
LINE
  5
F3
330
1F
100
AcDbEntity
  8
D-4_寸法
  6
Continuous
 62
     7
370
     9
100
AcDbLine
 10
-698.6415733939117
 20
-479.1193607084011
 30
0.0
 11
-558.6414255743925
 21
-479.1193607084011
 31
0.0
  0
LINE
  5
F4
330
1F
100
AcDbEntity
  8
D-4_寸法
  6
Continuous
 62
     7
370
     9
100
AcDbLine
 10
-558.6414255743925
 20
-427.2492435209011
 30
0.0
 11
-558.6414255743925
 21
-482.1194293729519
 31
0.0
  0
LINE
  5
F5
330
1F
100
AcDbEntity
  8
D-4_寸法
  6
Continuous
 62
     7
370
     9
100
AcDbLine
 10
-698.6415733939117
 20
-407.1738269559597
 30
0.0
 11
-698.6415733939117
 21
-482.1194293729519
 31
0.0
  0
LINE
  5
F6
330
1F
100
AcDbEntity
  8
D-4_寸法
  6
Continuous
 62
     7
370
     9
100
AcDbLine
 10
-1009.124957526297
 20
-416.0884311429714
 30
0.0
 11
-1009.124957526297
 21
-286.0882022611355
 31
0.0
  0
LINE
  5
F7
330
1F
100
AcDbEntity
  8
D-4_寸法
  6
Continuous
 62
     7
370
     9
100
AcDbLine
 10
-868.5417856818145
 20
-416.0884311429714
 30
0.0
 11
-1012.125140631766
 21
-416.0884311429714
 31
0.0
  0
LINE
  5
F8
330
1F
100
AcDbEntity
  8
D-4_寸法
  6
Continuous
 62
     7
370
     9
100
AcDbLine
 10
-750.2134337073272
 20
-286.0882022611355
 30
0.0
 11
-1012.125140631766
 21
-286.0882022611355
 31
0.0
  0
LINE
  5
F9
330
1F
100
AcDbEntity
  8
D-4_寸法
  6
Continuous
 62
     7
370
     9
100
AcDbLine
 10
-558.6417879706328
 20
-427.2492435209011
 30
0.0
 11
-558.6417879706328
 21
-482.1194293729519
 31
0.0
  0
LINE
  5
FA
330
1F
100
AcDbEntity
  8
D-6_躯体
  6
Continuous
 62
     6
370
     9
100
AcDbLine
 10
-698.6425652152008
 20
-286.0882022611355
 30
0.0
 11
-298.6417116766875
 21
-286.0882022611355
 31
0.0
  0
LINE
  5
FB
330
1F
100
AcDbEntity
  8
D-4_寸法
  6
Continuous
 62
     7
370
     9
100
AcDbLine
 10
-863.6424746161407
 20
-691.706755422756
 30
0.0
 11
-713.6428846960968
 21
-691.706755422756
 31
0.0
  0
LINE
  5
FC
330
1F
100
AcDbEntity
  8
D-4_寸法
  6
Continuous
 62
     7
370
     9
100
AcDbLine
 10
-191.9572939520781
 20
-536.0884311429714
 30
0.0
 11
-191.9572939520781
 21
-286.0882022611355
 31
0.0
  0
LINE
  5
FD
330
1F
100
AcDbEntity
  8
D-4_寸法
  6
Continuous
 62
     7
370
     9
100
AcDbLine
 10
-287.6125063544219
 20
-286.0882022611355
 30
0.0
 11
-188.9573015814727
 21
-286.0882022611355
 31
0.0
  0
LINE
  5
FE
330
1F
100
AcDbEntity
  8
D-6_躯体
  6
Continuous
 62
     6
370
     9
100
AcDbLine
 10
-713.6428846960968
 20
-536.0884311429714
 30
0.0
 11
-713.6428846960968
 21
-786.088087820217
 31
0.0
  0
LINE
  5
FF
330
1F
100
AcDbEntity
  8
D-6_躯体
  6
JWW_DASHED3
 62
     6
370
     9
100
AcDbLine
 10
-620.1414789801543
 20
-663.5878970853537
 30
0.0
 11
-620.1414789801543
 21
-536.0884311429714
 31
0.0
  0
LINE
  5
100
330
1F
100
AcDbEntity
  8
D-6_躯体
  6
JWW_DASHED3
 62
     6
370
     9
100
AcDbLine
 10
-575.1410212164824
 20
-536.0884311429714
 30
0.0
 11
-575.1410212164824
 21
-663.5878970853537
 31
0.0
  0
LINE
  5
101
330
1F
100
AcDbEntity
  8
D-6_躯体
  6
Continuous
 62
     6
370
     9
100
AcDbLine
 10
-463.6425890570586
 20
-436.0883929959988
 30
0.0
 11
-298.6417116766875
 21
-436.0883929959988
 31
0.0
  0
LINE
  5
102
330
1F
100
AcDbEntity
  8
D-6_躯体
  6
Continuous
 62
     6
370
     9
100
AcDbLine
 10
-463.6425890570586
 20
-436.0883929959988
 30
0.0
 11
-463.6425890570586
 21
-536.0884311429714
 31
0.0
  0
LINE
  5
103
330
1F
100
AcDbEntity
  8
D-6_躯体
  6
Continuous
 62
     6
370
     9
100
AcDbLine
 10
-713.6428846960968
 20
-536.0884311429714
 30
0.0
 11
-463.6425890570586
 21
-536.0884311429714
 31
0.0
  0
LINE
  5
104
330
1F
100
AcDbEntity
  8
D-6_躯体
  6
Continuous
 62
     6
370
     9
100
AcDbLine
 10
-620.1414789801543
 20
-338.5882022611355
 30
0.0
 11
-575.1410212164824
 21
-338.5882022611355
 31
0.0
  0
LINE
  5
105
330
1F
100
AcDbEntity
  8
D-6_躯体
  6
JWW_CENTER2
 62
     6
370
     9
100
AcDbLine
 10
-597.6412596350615
 20
-334.5083835355496
 30
0.0
 11
-597.6412596350615
 21
-663.5878970853537
 31
0.0
  0
LINE
  5
106
330
1F
100
AcDbEntity
  8
D-6_躯体
  6
Continuous
 62
     6
370
     9
100
AcDbLine
 10
-863.6424746161407
 20
-416.0884311429714
 30
0.0
 11
-863.6424746161407
 21
-786.088087820217
 31
0.0
  0
LINE
  5
107
330
1F
100
AcDbEntity
  8
D-4_寸法
  6
Continuous
 62
     7
370
     9
100
AcDbLine
 10
-863.6424746161407
 20
-846.1715533963888
 30
0.0
 11
-463.6417307501738
 21
-846.1715533963888
 31
0.0
  0
LINE
  5
108
330
1F
100
AcDbEntity
  8
D-4_寸法
  6
Continuous
 62
     7
370
     9
100
AcDbLine
 10
-863.6424746161407
 20
-811.087973379299
 30
0.0
 11
-863.6424746161407
 21
-849.1706302396506
 31
0.0
  0
LINE
  5
109
330
1F
100
AcDbEntity
  8
D-4_寸法
  6
Continuous
 62
     7
370
     9
100
AcDbLine
 10
-475.5924334174102
 20
-416.0884311429714
 30
0.0
 11
-475.5924334174102
 21
-286.0882022611355
 31
0.0
  0
LINE
  5
10A
330
1F
100
AcDbEntity
  8
D-6_躯体
  6
Continuous
 62
     6
370
     9
100
AcDbLine
 10
-620.1414789801543
 20
-366.0891940824246
 30
0.0
 11
-620.1414789801543
 21
-338.5882022611355
 31
0.0
  0
LINE
  5
10B
330
1F
100
AcDbEntity
  8
D-6_躯体
  6
Continuous
 62
     6
370
     9
100
AcDbLine
 10
-575.1410212164824
 20
-366.0891940824246
 30
0.0
 11
-575.1410212164824
 21
-338.5882022611355
 31
0.0
  0
LINE
  5
10C
330
1F
100
AcDbEntity
  8
D-6_躯体
  6
Continuous
 62
     6
370
     9
100
AcDbLine
 10
-575.1410212164824
 20
-536.0884311429714
 30
0.0
 11
-575.1410212164824
 21
-416.0884311429714
 31
0.0
  0
LINE
  5
10D
330
1F
100
AcDbEntity
  8
D-6_躯体
  6
Continuous
 62
     6
370
     9
100
AcDbLine
 10
-620.1414789801543
 20
-536.0884311429714
 30
0.0
 11
-620.1414789801543
 21
-416.0884311429714
 31
0.0
  0
LINE
  5
10E
330
1F
100
AcDbEntity
  8
D-4_寸法
  6
Continuous
 62
     7
370
     9
100
AcDbLine
 10
-463.6417307501738
 20
-560.4619815580105
 30
0.0
 11
-463.6417307501738
 21
-849.1706302396506
 31
0.0
  0
LINE
  5
10F
330
1F
100
AcDbEntity
  8
D-4_寸法
  6
Continuous
 62
     7
370
     9
100
AcDbLine
 10
-436.4979662543242
 20
-536.0884311429714
 30
0.0
 11
-188.9573015814727
 21
-536.0884311429714
 31
0.0
  0
LINE
  5
110
330
1F
100
AcDbEntity
  8
D-1_ピット
  6
Continuous
 62
     2
370
     9
100
AcDbLine
 10
-708.6416210776275
 20
-296.0878970853543
 30
0.0
 11
-723.6413206702179
 21
-296.0878970853543
 31
0.0
  0
LINE
  5
111
330
1F
100
AcDbEntity
  8
D-1_ピット
  6
Continuous
 62
     2
370
     9
100
AcDbLine
 10
-708.6416210776275
 20
-381.0878970853543
 30
0.0
 11
-708.6416210776275
 21
-386.0876682035183
 31
0.0
  0
LINE
  5
112
330
1F
100
AcDbEntity
  8
D-1_ピット
  6
Continuous
 62
     2
370
     9
100
AcDbLine
 10
-733.6416163092559
 20
-368.5878207914089
 30
0.0
 11
-767.3918261176055
 21
-368.5878207914089
 31
0.0
  0
LINE
  5
113
330
1F
100
AcDbEntity
  8
D-1_ピット
  6
Continuous
 62
     2
370
     9
100
AcDbLine
 10
-733.6416163092559
 20
-381.0878970853543
 30
0.0
 11
-733.6416163092559
 21
-403.5877444974636
 31
0.0
  0
LINE
  5
114
330
1F
100
AcDbEntity
  8
D-1_ピット
  6
Continuous
 62
     2
370
     9
100
AcDbLine
 10
-792.1417345648712
 20
-415.087950491116
 30
0.0
 11
-792.1417345648712
 21
-416.0884311429714
 31
0.0
  0
LINE
  5
115
330
1F
100
AcDbEntity
  8
D-1_ピット
  6
Continuous
 62
     2
370
     9
100
AcDbLine
 10
-792.1417345648712
 20
-415.087950491116
 30
0.0
 11
-795.1414217596954
 21
-415.087950491116
 31
0.0
  0
LINE
  5
116
330
1F
100
AcDbEntity
  8
D-1_ピット
  6
Continuous
 62
     2
370
     9
100
AcDbLine
 10
-795.1414217596954
 20
-415.087950491116
 30
0.0
 11
-795.1414217596954
 21
-416.0884311429714
 31
0.0
  0
LINE
  5
117
330
1F
100
AcDbEntity
  8
D-1_ピット
  6
Continuous
 62
     2
370
     9
100
AcDbLine
 10
-792.1417345648712
 20
-408.5880496732449
 30
0.0
 11
-792.1417345648712
 21
-409.5882632962918
 31
0.0
  0
LINE
  5
118
330
1F
100
AcDbEntity
  8
D-1_ピット
  6
Continuous
 62
     2
370
     9
100
AcDbLine
 10
-795.1414217596954
 20
-409.5882632962918
 30
0.0
 11
-792.1417345648712
 21
-409.5882632962918
 31
0.0
  0
LINE
  5
119
330
1F
100
AcDbEntity
  8
D-1_ピット
  6
Continuous
 62
     2
370
     9
100
AcDbLine
 10
-851.1414065009063
 20
-374.0879276029324
 30
0.0
 11
-848.6415209418243
 21
-376.8384006253933
 31
0.0
  0
LINE
  5
11A
330
1F
100
AcDbEntity
  8
D-1_ピット
  6
Continuous
 62
     2
370
     9
100
AcDbLine
 10
-848.6415209418243
 20
-379.3385150663113
 30
0.0
 11
-851.1414065009063
 21
-382.0877673856472
 31
0.0
  0
LINE
  5
11B
330
1F
100
AcDbEntity
  8
D-1_ピット
  6
Continuous
 62
     2
370
     9
100
AcDbLine
 10
-848.6415209418243
 20
-376.8384006253933
 30
0.0
 11
-848.6415209418243
 21
-379.3385150663113
 31
0.0
  0
LINE
  5
11C
330
1F
100
AcDbEntity
  8
D-1_ピット
  6
Continuous
 62
     2
370
     9
100
AcDbLine
 10
-851.1414065009063
 20
-382.0877673856472
 30
0.0
 11
-848.6415209418243
 21
-384.8377444974636
 31
0.0
  0
LINE
  5
11D
330
1F
100
AcDbEntity
  8
D-1_ピット
  6
Continuous
 62
     2
370
     9
100
AcDbLine
 10
-848.6415209418243
 20
-387.3378589383816
 30
0.0
 11
-851.1414065009063
 21
-390.0881030790066
 31
0.0
  0
LINE
  5
11E
330
1F
100
AcDbEntity
  8
D-1_ピット
  6
Continuous
 62
     2
370
     9
100
AcDbLine
 10
-848.6415209418243
 20
-384.8377444974636
 30
0.0
 11
-848.6415209418243
 21
-387.3378589383816
 31
0.0
  0
LINE
  5
11F
330
1F
100
AcDbEntity
  8
D-1_ピット
  6
Continuous
 62
     2
370
     9
100
AcDbLine
 10
-851.1414065009063
 20
-390.0881030790066
 30
0.0
 11
-848.6415209418243
 21
-392.8379276029324
 31
0.0
  0
LINE
  5
120
330
1F
100
AcDbEntity
  8
D-1_ピット
  6
Continuous
 62
     2
370
     9
100
AcDbLine
 10
-848.6415209418243
 20
-395.338080190823
 30
0.0
 11
-851.1414065009063
 21
-398.0879428617214
 31
0.0
  0
LINE
  5
121
330
1F
100
AcDbEntity
  8
D-1_ピット
  6
Continuous
 62
     2
370
     9
100
AcDbLine
 10
-848.6415209418243
 20
-392.8379276029324
 30
0.0
 11
-848.6415209418243
 21
-395.338080190823
 31
0.0
  0
LINE
  5
122
330
1F
100
AcDbEntity
  8
D-1_ピット
  6
Continuous
 62
     2
370
     9
100
AcDbLine
 10
-848.6415209418243
 20
-371.3380649320339
 30
0.0
 11
-851.1414065009063
 21
-374.0879276029324
 31
0.0
  0
LINE
  5
123
330
1F
100
AcDbEntity
  8
D-1_ピット
  6
Continuous
 62
     2
370
     9
100
AcDbLine
 10
-831.1411966925567
 20
-368.5878207914089
 30
0.0
 11
-833.641330206961
 21
-371.3380649320339
 31
0.0
  0
LINE
  5
124
330
1F
100
AcDbEntity
  8
D-1_ピット
  6
Continuous
 62
     2
370
     9
100
AcDbLine
 10
-833.641330206961
 20
-373.837836050198
 30
0.0
 11
-831.1411966925567
 21
-376.5875461332058
 31
0.0
  0
LINE
  5
125
330
1F
100
AcDbEntity
  8
D-1_ピット
  6
Continuous
 62
     2
370
     9
100
AcDbLine
 10
-833.641330206961
 20
-371.3380649320339
 30
0.0
 11
-833.641330206961
 21
-373.837836050198
 31
0.0
  0
LINE
  5
126
330
1F
100
AcDbEntity
  8
D-1_ピット
  6
Continuous
 62
     2
370
     9
100
AcDbLine
 10
-831.1411966925567
 20
-376.5875461332058
 30
0.0
 11
-833.641330206961
 21
-379.3385150663113
 31
0.0
  0
LINE
  5
127
330
1F
100
AcDbEntity
  8
D-1_ピット
  6
Continuous
 62
     2
370
     9
100
AcDbLine
 10
-833.641330206961
 20
-381.8375613919949
 30
0.0
 11
-831.1411966925567
 21
-384.5878818265652
 31
0.0
  0
LINE
  5
128
330
1F
100
AcDbEntity
  8
D-1_ピット
  6
Continuous
 62
     2
370
     9
100
AcDbLine
 10
-833.641330206961
 20
-379.3385150663113
 30
0.0
 11
-833.641330206961
 21
-381.8375613919949
 31
0.0
  0
LINE
  5
129
330
1F
100
AcDbEntity
  8
D-1_ピット
  6
Continuous
 62
     2
370
     9
100
AcDbLine
 10
-831.1411966925567
 20
-384.5878818265652
 30
0.0
 11
-833.641330206961
 21
-387.3378589383816
 31
0.0
  0
LINE
  5
12A
330
1F
100
AcDbEntity
  8
D-1_ピット
  6
Continuous
 62
     2
370
     9
100
AcDbLine
 10
-833.641330206961
 20
-389.8380115262722
 30
0.0
 11
-831.1411966925567
 21
-392.587836050198
 31
0.0
  0
LINE
  5
12B
330
1F
100
AcDbEntity
  8
D-1_ピット
  6
Continuous
 62
     2
370
     9
100
AcDbLine
 10
-833.641330206961
 20
-387.3378589383816
 30
0.0
 11
-833.641330206961
 21
-389.8380115262722
 31
0.0
  0
LINE
  5
12C
330
1F
100
AcDbEntity
  8
D-1_ピット
  6
Continuous
 62
     2
370
     9
100
AcDbLine
 10
-831.1411966925567
 20
-392.587836050198
 30
0.0
 11
-833.641330206961
 21
-395.338080190823
 31
0.0
  0
LINE
  5
12D
330
1F
100
AcDbEntity
  8
D-1_ピット
  6
Continuous
 62
     2
370
     9
100
AcDbLine
 10
-833.641330206961
 20
-397.8376987210964
 30
0.0
 11
-831.1411966925567
 21
-400.5880573026394
 31
0.0
  0
LINE
  5
12E
330
1F
100
AcDbEntity
  8
D-1_ピット
  6
Continuous
 62
     2
370
     9
100
AcDbLine
 10
-833.641330206961
 20
-395.338080190823
 30
0.0
 11
-833.641330206961
 21
-397.8376987210964
 31
0.0
  0
LINE
  5
12F
330
1F
100
AcDbEntity
  8
D-1_ピット
  6
Continuous
 62
     2
370
     9
100
AcDbLine
 10
-831.1411966925567
 20
-400.5880573026394
 30
0.0
 11
-837.3916544562286
 21
-400.5880573026394
 31
0.0
  0
LINE
  5
130
330
1F
100
AcDbEntity
  8
D-1_ピット
  6
Continuous
 62
     2
370
     9
100
AcDbLine
 10
-837.3916544562286
 20
-400.5880573026394
 30
0.0
 11
-837.3916544562286
 21
-408.5880496732449
 31
0.0
  0
LINE
  5
131
330
1F
100
AcDbEntity
  8
D-1_ピット
  6
Continuous
 62
     2
370
     9
100
AcDbLine
 10
-844.891559088797
 20
-400.5880573026394
 30
0.0
 11
-848.8691820746368
 21
-400.5880573026394
 31
0.0
  0
LINE
  5
132
330
1F
100
AcDbEntity
  8
D-1_ピット
  6
Continuous
 62
     2
370
     9
100
AcDbLine
 10
-851.1414065009063
 20
-398.0879428617214
 30
0.0
 11
-848.8691820746368
 21
-400.5880573026394
 31
0.0
  0
LINE
  5
133
330
1F
100
AcDbEntity
  8
D-1_ピット
  6
Continuous
 62
     2
370
     9
100
AcDbLine
 10
-844.891559088797
 20
-408.5880496732449
 30
0.0
 11
-837.3916544562286
 21
-408.5880496732449
 31
0.0
  0
LINE
  5
134
330
1F
100
AcDbEntity
  8
D-1_ピット
  6
Continuous
 62
     2
370
     9
100
AcDbLine
 10
-844.891559088797
 20
-400.5880573026394
 30
0.0
 11
-844.891559088797
 21
-408.5880496732449
 31
0.0
  0
LINE
  5
135
330
1F
100
AcDbEntity
  8
D-1_ピット
  6
Continuous
 62
     2
370
     9
100
AcDbLine
 10
-819.8915781622833
 20
-368.5878207914089
 30
0.0
 11
-831.1411966925567
 21
-368.5878207914089
 31
0.0
  0
LINE
  5
136
330
1F
100
AcDbEntity
  8
D-1_ピット
  6
Continuous
 62
     2
370
     9
100
AcDbLine
 10
-819.8915781622833
 20
-376.0876300565457
 30
0.0
 11
-826.1417879706329
 21
-376.0876300565457
 31
0.0
  0
LINE
  5
137
330
1F
100
AcDbEntity
  8
D-1_ピット
  6
Continuous
 62
     2
370
     9
100
AcDbLine
 10
-761.1413683539337
 20
-376.0876300565457
 30
0.0
 11
-767.3918261176055
 21
-376.0876300565457
 31
0.0
  0
LINE
  5
138
330
1F
100
AcDbEntity
  8
D-1_ピット
  6
Continuous
 62
     2
370
     9
100
AcDbLine
 10
-708.6416210776275
 20
-386.0876682035183
 30
0.0
 11
-723.6413206702179
 21
-386.0876682035183
 31
0.0
  0
LINE
  5
139
330
1F
100
AcDbEntity
  8
D-1_ピット
  6
Continuous
 62
     2
370
     9
100
AcDbLine
 10
-723.6413206702179
 20
-296.0878970853543
 30
0.0
 11
-723.6413206702179
 21
-386.0876682035183
 31
0.0
  0
LINE
  5
13A
330
1F
100
AcDbEntity
  8
D-1_ピット
  6
Continuous
 62
     2
370
     9
100
AcDbLine
 10
-795.1414217596954
 20
-408.5880496732449
 30
0.0
 11
-795.1414217596954
 21
-409.5878818265652
 31
0.0
  0
LINE
  5
13B
330
1F
100
AcDbEntity
  8
D-1_ピット
  6
Continuous
 62
     2
370
     9
100
AcDbLine
 10
-698.6415733939117
 20
-287.5881412259793
 30
0.0
 11
-698.6415733939117
 21
-301.0881259671902
 31
0.0
  0
LINE
  5
13C
330
1F
100
AcDbEntity
  8
D-1_ピット
  6
Continuous
 62
     2
370
     9
100
AcDbLine
 10
-732.1413340216583
 20
-286.0882022611355
 30
0.0
 11
-700.1416029578155
 21
-286.0882022611355
 31
0.0
  0
LINE
  5
13D
330
1F
100
AcDbEntity
  8
D-1_ピット
  6
Continuous
 62
     2
370
     9
100
AcDbLine
 10
-733.6416163092559
 20
-287.5881412259793
 30
0.0
 11
-733.6416163092559
 21
-368.5878207914089
 31
0.0
  0
LINE
  5
13E
330
1F
100
AcDbEntity
  8
D-1_ピット
  6
Continuous
 62
     2
370
     9
100
AcDbLine
 10
-698.6415733939117
 20
-394.5879581205105
 30
0.0
 11
-698.6415733939117
 21
-381.0878970853543
 31
0.0
  0
LINE
  5
13F
330
1F
100
AcDbEntity
  8
D-1_ピット
  6
Continuous
 62
     2
370
     9
100
AcDbLine
 10
-700.1416029578155
 20
-396.0882022611355
 30
0.0
 11
-723.6413206702179
 21
-396.0882022611355
 31
0.0
  0
LINE
  5
140
330
1F
100
AcDbEntity
  8
D-1_ピット
  6
Continuous
 62
     2
370
     9
100
AcDbLine
 10
-723.6413206702179
 20
-414.5881488553738
 30
0.0
 11
-723.6413206702179
 21
-396.0882022611355
 31
0.0
  0
LINE
  5
141
330
1F
100
AcDbEntity
  8
D-1_ピット
  6
Continuous
 62
     2
370
     9
100
AcDbLine
 10
-725.1415934210723
 20
-416.0884311429714
 30
0.0
 11
-792.1417345648712
 21
-416.0884311429714
 31
0.0
  0
LINE
  5
142
330
1F
100
AcDbEntity
  8
D-1_ピット
  6
Continuous
 62
     2
370
     9
100
AcDbLine
 10
-862.1415629034942
 20
-416.0884311429714
 30
0.0
 11
-795.1414217596954
 21
-416.0884311429714
 31
0.0
  0
LINE
  5
143
330
1F
100
AcDbEntity
  8
D-1_ピット
  6
Continuous
 62
     2
370
     9
100
AcDbLine
 10
-850.1413073187774
 20
-368.5878207914089
 30
0.0
 11
-859.6416773444122
 21
-368.5878207914089
 31
0.0
  0
LINE
  5
144
330
1F
100
AcDbEntity
  8
D-1_ピット
  6
Continuous
 62
     2
370
     9
100
AcDbLine
 10
-848.6415209418243
 20
-370.0881412259793
 30
0.0
 11
-848.6415209418243
 21
-371.3380649320339
 31
0.0
  0
LINE
  5
145
330
1F
100
AcDbEntity
  8
D-1_ピット
  6
Continuous
 62
     2
370
     9
100
AcDbLine
 10
-859.6416773444122
 20
-364.5883014432644
 30
0.0
 11
-859.6416773444122
 21
-368.5878207914089
 31
0.0
  0
LINE
  5
146
330
1F
100
AcDbEntity
  8
D-1_ピット
  6
Continuous
 62
     2
370
     9
100
AcDbLine
 10
-863.6415972357696
 20
-364.5883014432644
 30
0.0
 11
-859.6416773444122
 21
-364.5883014432644
 31
0.0
  0
LINE
  5
147
330
1F
100
AcDbEntity
  8
D-1_ピット
  6
Continuous
 62
     2
370
     9
100
AcDbLine
 10
-863.6415972357696
 20
-364.5883014432644
 30
0.0
 11
-863.6415972357696
 21
-414.5881488553738
 31
0.0
  0
LINE
  5
148
330
1F
100
AcDbEntity
  8
D-1_ピット
  6
Continuous
 62
     2
370
     9
100
AcDbLine
 10
-751.141444647879
 20
-408.5880496732449
 30
0.0
 11
-738.6415114050811
 21
-408.5880496732449
 31
0.0
  0
LINE
  5
149
330
1F
100
AcDbEntity
  8
D-1_ピット
  6
Continuous
 62
     2
370
     9
100
AcDbLine
 10
-756.1413492804473
 20
-381.0878970853543
 30
0.0
 11
-756.1413492804473
 21
-403.5877444974636
 31
0.0
  0
LINE
  5
14A
330
1F
100
AcDbEntity
  8
D-1_ピット
  6
Continuous
 62
     2
370
     9
100
AcDbLine
 10
-751.141444647879
 20
-376.0876300565457
 30
0.0
 11
-738.6415114050811
 21
-376.0876300565457
 31
0.0
  0
LINE
  5
14B
330
1F
100
AcDbEntity
  8
D-1_ピット
  6
Continuous
 62
     2
370
     9
100
AcDbLine
 10
-761.1413683539337
 20
-403.5877444974636
 30
0.0
 11
-761.1413683539337
 21
-376.0876300565457
 31
0.0
  0
LINE
  5
14C
330
1F
100
AcDbEntity
  8
D-1_ピット
  6
Continuous
 62
     2
370
     9
100
AcDbLine
 10
-766.1416353827423
 20
-408.5880496732449
 30
0.0
 11
-792.1417345648712
 21
-408.5880496732449
 31
0.0
  0
LINE
  5
14D
330
1F
100
AcDbEntity
  8
D-1_ピット
  6
Continuous
 62
     2
370
     9
100
AcDbLine
 10
-821.1417688971466
 20
-408.5880496732449
 30
0.0
 11
-795.1414217596954
 21
-408.5880496732449
 31
0.0
  0
LINE
  5
14E
330
1F
100
AcDbEntity
  8
D-1_ピット
  6
Continuous
 62
     2
370
     9
100
AcDbLine
 10
-826.1417879706329
 20
-403.5877444974636
 30
0.0
 11
-826.1417879706329
 21
-376.0876300565457
 31
0.0
  0
LINE
  5
14F
330
1F
100
AcDbEntity
  8
D-9_ｸｯｼｮﾝ材
  6
Continuous
 62
     4
370
     9
100
AcDbLine
 10
-778.6418261176055
 20
-368.5878207914089
 30
0.0
 11
-808.6415972357696
 21
-368.5878207914089
 31
0.0
  0
LINE
  5
150
330
1F
100
AcDbEntity
  8
D-9_ｸｯｼｮﾝ材
  6
Continuous
 62
     4
370
     9
100
AcDbLine
 10
-733.6416163092559
 20
-363.5879352323269
 30
0.0
 11
-733.6416163092559
 21
-368.5878207914089
 31
0.0
  0
LINE
  5
151
330
1F
100
AcDbEntity
  8
D-9_ｸｯｼｮﾝ材
  6
Continuous
 62
     4
370
     9
100
AcDbLine
 10
-733.6416163092559
 20
-368.5878207914089
 30
0.0
 11
-772.391854727835
 21
-368.5878207914089
 31
0.0
  0
LINE
  5
152
330
1F
100
AcDbEntity
  8
D-9_ｸｯｼｮﾝ材
  6
Continuous
 62
     4
370
     9
100
AcDbLine
 10
-814.8919214850372
 20
-368.5878207914089
 30
0.0
 11
-814.8919214850372
 21
-381.0878970853543
 31
0.0
  0
LINE
  5
153
330
1F
100
AcDbEntity
  8
D-9_ｸｯｼｮﾝ材
  6
Continuous
 62
     4
370
     9
100
AcDbLine
 10
-762.6416506415313
 20
-381.0878970853543
 30
0.0
 11
-772.391854727835
 21
-381.0878970853543
 31
0.0
  0
LINE
  5
154
330
1F
100
AcDbEntity
  8
D-9_ｸｯｼｮﾝ材
  6
Continuous
 62
     4
370
     9
100
AcDbLine
 10
-772.391854727835
 20
-368.5878207914089
 30
0.0
 11
-772.391854727835
 21
-381.0878970853543
 31
0.0
  0
LINE
  5
155
330
1F
100
AcDbEntity
  8
D-9_ｸｯｼｮﾝ材
  6
Continuous
 62
     4
370
     9
100
AcDbLine
 10
-814.8919214850372
 20
-381.0878970853543
 30
0.0
 11
-824.6417727118438
 21
-381.0878970853543
 31
0.0
  0
LINE
  5
156
330
1F
100
AcDbEntity
  8
D-9_ｸｯｼｮﾝ材
  6
Continuous
 62
     4
370
     9
100
AcDbLine
 10
-778.6418261176055
 20
-368.5878207914089
 30
0.0
 11
-778.6418261176055
 21
-385.1319339505886
 31
0.0
  0
LINE
  5
157
330
1F
100
AcDbEntity
  8
D-9_ｸｯｼｮﾝ材
  6
Continuous
 62
     4
370
     9
100
AcDbLine
 10
-808.6415972357696
 20
-368.5878207914089
 30
0.0
 11
-808.6415972357696
 21
-385.1319339505886
 31
0.0
  0
LINE
  5
158
330
1F
100
AcDbEntity
  8
D-9_ｸｯｼｮﾝ材
  6
Continuous
 62
     4
370
     9
100
AcDbLine
 10
-824.6417727118438
 20
-381.0878970853543
 30
0.0
 11
-824.6417727118438
 21
-386.0876682035183
 31
0.0
  0
LINE
  5
159
330
1F
100
AcDbEntity
  8
D-9_ｸｯｼｮﾝ材
  6
Continuous
 62
     4
370
     9
100
AcDbLine
 10
-762.6416506415313
 20
-381.0878970853543
 30
0.0
 11
-762.6416506415313
 21
-386.0876682035183
 31
0.0
  0
LINE
  5
15A
330
1F
100
AcDbEntity
  8
D-A
  6
Continuous
 62
     3
370
     9
100
AcDbLine
 10
-720.141574347586
 20
-353.5883929959988
 30
0.0
 11
-722.3916258459991
 21
-353.5883929959988
 31
0.0
  0
LINE
  5
15B
330
1F
100
AcDbEntity
  8
D-A
  6
Continuous
 62
     3
370
     9
100
AcDbLine
 10
-720.141574347586
 20
-352.3383167020535
 30
0.0
 11
-723.6419405585235
 21
-352.3383167020535
 31
0.0
  0
LINE
  5
15C
330
1F
100
AcDbEntity
  8
D-A
  6
Continuous
 62
     3
370
     9
100
AcDbLine
 10
-720.141574347586
 20
-333.588812612698
 30
0.0
 11
-722.3916258459991
 21
-333.588812612698
 31
0.0
  0
LINE
  5
15D
330
1F
100
AcDbEntity
  8
D-A
  6
Continuous
 62
     3
370
     9
100
AcDbLine
 10
-720.141574347586
 20
-334.8383548490261
 30
0.0
 11
-723.6419405585235
 21
-334.8383548490261
 31
0.0
  0
LINE
  5
15E
330
1F
100
AcDbEntity
  8
D-A
  6
Continuous
 62
     3
370
     9
100
AcDbLine
 10
-722.3916258459991
 20
-333.588812612698
 30
0.0
 11
-722.3916258459991
 21
-353.5883929959988
 31
0.0
  0
LINE
  5
15F
330
1F
100
AcDbEntity
  8
D-A
  6
Continuous
 62
     3
370
     9
100
AcDbLine
 10
-722.3916258459991
 20
-353.5883929959988
 30
0.0
 11
-723.6419405585235
 21
-352.3383167020535
 31
0.0
  0
LINE
  5
160
330
1F
100
AcDbEntity
  8
D-A
  6
Continuous
 62
     3
370
     9
100
AcDbLine
 10
-722.3916258459991
 20
-333.588812612698
 30
0.0
 11
-723.6419405585235
 21
-334.8383548490261
 31
0.0
  0
LINE
  5
161
330
1F
100
AcDbEntity
  8
D-A
  6
JWW_DASHED3
 62
     3
370
     9
100
AcDbLine
 10
-683.6415066367096
 20
-361.5887286893582
 30
0.0
 11
-683.6415066367096
 21
-341.0887363187527
 31
0.0
  0
LINE
  5
162
330
1F
100
AcDbEntity
  8
D-A
  6
JWW_CENTER2
 62
     3
370
     9
100
AcDbLine
 10
-665.6468214636749
 20
-343.5884692899441
 30
0.0
 11
-726.0650267249054
 21
-343.5884692899441
 31
0.0
  0
LINE
  5
163
330
1F
100
AcDbEntity
  8
D-A
  6
Continuous
 62
     3
370
     9
100
AcDbLine
 10
-720.141574347586
 20
-298.5888889066433
 30
0.0
 11
-720.141574347586
 21
-386.0881641141629
 31
0.0
  0
LINE
  5
164
330
1F
100
AcDbEntity
  8
D-A
  6
Continuous
 62
     3
370
     9
100
AcDbLine
 10
-648.286334479422
 20
-366.0885837308621
 30
0.0
 11
-568.6419596320097
 21
-366.0885837308621
 31
0.0
  0
LINE
  5
165
330
1F
100
AcDbEntity
  8
D-A
  6
Continuous
 62
     3
370
     9
100
AcDbLine
 10
-558.6414255743925
 20
-416.0884311429714
 30
0.0
 11
-683.6415066367096
 21
-416.0884311429714
 31
0.0
  0
LINE
  5
166
330
1F
100
AcDbEntity
  8
D-A
  6
Continuous
 62
     3
370
     9
100
AcDbLine
 10
-686.5704693442291
 20
-388.1593539945339
 30
0.0
 11
-708.6416210776275
 21
-366.0885837308621
 31
0.0
  0
LINE
  5
167
330
1F
100
AcDbEntity
  8
D-A
  6
Continuous
 62
     3
370
     9
100
AcDbLine
 10
-558.6414255743925
 20
-404.5884921781277
 30
0.0
 11
-683.6415066367096
 21
-404.5884921781277
 31
0.0
  0
LINE
  5
168
330
1F
100
AcDbEntity
  8
D-A
  6
Continuous
 62
     3
370
     9
100
AcDbLine
 10
-683.6415066367096
 20
-341.0887363187527
 30
0.0
 11
-683.6415066367096
 21
-325.5885532132839
 31
0.0
  0
LINE
  5
169
330
1F
100
AcDbEntity
  8
D-A
  6
Continuous
 62
     3
370
     9
100
AcDbLine
 10
-677.1416964178985
 20
-325.5885532132839
 30
0.0
 11
-683.6415066367096
 21
-325.5885532132839
 31
0.0
  0
LINE
  5
16A
330
1F
100
AcDbEntity
  8
D-A
  6
JWW_DASHED3
 62
     3
370
     9
100
AcDbLine
 10
-677.1416964178985
 20
-361.5887286893582
 30
0.0
 11
-683.6415066367096
 21
-361.5887286893582
 31
0.0
  0
LINE
  5
16B
330
1F
100
AcDbEntity
  8
D-A
  6
Continuous
 62
     3
370
     9
100
AcDbLine
 10
-670.6415190344757
 20
-332.0884921781277
 30
0.0
 11
-670.6415190344757
 21
-354.0883090726589
 31
0.0
  0
LINE
  5
16C
330
1F
100
AcDbEntity
  8
D-A
  6
JWW_DASHED3
 62
     3
370
     9
100
AcDbLine
 10
-670.6415190344757
 20
-355.0886752835964
 30
0.0
 11
-670.6415190344757
 21
-354.0883090726589
 31
0.0
  0
LINE
  5
16D
330
1F
100
AcDbEntity
  8
D-A
  6
Continuous
 62
     3
370
     9
100
AcDbLine
 10
-708.6416210776275
 20
-298.5888889066433
 30
0.0
 11
-720.141574347586
 21
-298.5888889066433
 31
0.0
  0
LINE
  5
16E
330
1F
100
AcDbEntity
  8
D-A
  6
Continuous
 62
     3
370
     9
100
AcDbLine
 10
-720.141574347586
 20
-386.0881641141629
 30
0.0
 11
-708.6416210776275
 21
-386.0881641141629
 31
0.0
  0
LINE
  5
16F
330
1F
100
AcDbEntity
  8
D-A
  6
Continuous
 62
     3
370
     9
100
AcDbLine
 10
-683.6415066367096
 20
-416.0884311429714
 30
0.0
 11
-683.6415066367096
 21
-395.2305820218777
 31
0.0
  0
LINE
  5
170
330
1F
100
AcDbEntity
  8
D-A
  6
Continuous
 62
     3
370
     9
100
AcDbLine
 10
-558.6414255743925
 20
-376.0886218778347
 30
0.0
 11
-558.6414255743925
 21
-416.0884311429714
 31
0.0
  0
LINE
  5
171
330
1F
100
AcDbEntity
  8
D-A
  6
Continuous
 62
     3
370
     9
100
AcDbLine
 10
-723.6419405585235
 20
-334.8383548490261
 30
0.0
 11
-723.6419405585235
 21
-352.3383167020535
 31
0.0
  0
LINE
  5
172
330
1F
100
AcDbEntity
  8
D-1_ピット
  6
Continuous
 62
     2
370
     9
100
AcDbLine
 10
-708.6416210776275
 20
-296.0878970853543
 30
0.0
 11
-708.6416210776275
 21
-301.0881259671902
 31
0.0
  0
LINE
  5
173
330
1F
100
AcDbEntity
  8
D-A
  6
Continuous
 62
     3
370
     9
100
AcDbLine
 10
-708.6416210776275
 20
-298.5888889066433
 30
0.0
 11
-708.6416210776275
 21
-316.0889652005886
 31
0.0
  0
LINE
  5
174
330
1F
100
AcDbEntity
  8
D-A
  6
Continuous
 62
     3
370
     9
100
AcDbLine
 10
-708.6416210776275
 20
-366.0885837308621
 30
0.0
 11
-708.6416210776275
 21
-386.0881641141629
 31
0.0
  0
LINE
  5
175
330
1F
100
AcDbEntity
  8
D-A
  6
JWW_DASHED3
 62
     3
370
     9
100
AcDbLine
 10
-708.6416210776275
 20
-316.0889652005886
 30
0.0
 11
-708.6416210776275
 21
-366.0885837308621
 31
0.0
  0
LINE
  5
176
330
1F
100
AcDbEntity
  8
D-A
  6
JWW_DASHED3
 62
     3
370
     9
100
AcDbLine
 10
-683.6415066367096
 20
-352.3383167020535
 30
0.0
 11
-720.141574347586
 21
-352.3383167020535
 31
0.0
  0
LINE
  5
177
330
1F
100
AcDbEntity
  8
D-A
  6
JWW_DASHED3
 62
     3
370
     9
100
AcDbLine
 10
-683.6415066367096
 20
-353.5883929959988
 30
0.0
 11
-720.141574347586
 21
-353.5883929959988
 31
0.0
  0
LINE
  5
178
330
1F
100
AcDbEntity
  8
D-A
  6
Continuous
 62
     3
370
     9
100
AcDbLine
 10
-708.6416210776275
 20
-316.0889652005886
 30
0.0
 11
-665.9639229422515
 21
-358.7665393583035
 31
0.0
  0
LINE
  5
179
330
1F
100
AcDbEntity
  8
D-A
  6
Continuous
 62
     3
370
     9
100
AcDbLine
 10
-683.6415066367096
 20
-334.8383548490261
 30
0.0
 11
-689.8915972357696
 21
-334.8383548490261
 31
0.0
  0
LINE
  5
17A
330
1F
100
AcDbEntity
  8
D-A
  6
Continuous
 62
     3
370
     9
100
AcDbLine
 10
-683.6415066367096
 20
-333.588812612698
 30
0.0
 11
-691.1415400153106
 21
-333.588812612698
 31
0.0
  0
LINE
  5
17B
330
1F
100
AcDbEntity
  8
D-A
  6
JWW_DASHED3
 62
     3
370
     9
100
AcDbLine
 10
-689.8915972357696
 20
-334.8383548490261
 30
0.0
 11
-720.141574347586
 21
-334.8383548490261
 31
0.0
  0
LINE
  5
17C
330
1F
100
AcDbEntity
  8
D-A
  6
JWW_DASHED3
 62
     3
370
     9
100
AcDbLine
 10
-691.1415400153106
 20
-333.588812612698
 30
0.0
 11
-720.141574347586
 21
-333.588812612698
 31
0.0
  0
LINE
  5
17D
330
1F
100
AcDbEntity
  8
D-9_ｸｯｼｮﾝ材
  6
Continuous
 62
     4
370
     9
100
AcDbLine
 10
-740.3002180701202
 20
-368.5882022611355
 30
0.0
 11
-740.2998461371368
 21
-368.5878207914089
 31
0.0
  0
LINE
  5
17E
330
1F
100
AcDbEntity
  8
D-9_ｸｯｼｮﾝ材
  6
Continuous
 62
     4
370
     9
100
AcDbLine
 10
-774.4196810370391
 20
-388.565504812405
 30
0.0
 11
-766.9420733099884
 21
-381.0878970853543
 31
0.0
  0
LINE
  5
17F
330
1F
100
AcDbEntity
  8
D-9_ｸｯｼｮﾝ材
  6
Continuous
 62
     4
370
     9
100
AcDbLine
 10
-754.4423784857696
 20
-368.5882022611355
 30
0.0
 11
-754.4420160895294
 21
-368.5878207914089
 31
0.0
  0
LINE
  5
180
330
1F
100
AcDbEntity
  8
D-9_ｸｯｼｮﾝ材
  6
Continuous
 62
     4
370
     9
100
AcDbLine
 10
-790.0307955389923
 20
-390.0344684354519
 30
0.0
 11
-785.8252443915313
 21
-385.828917287991
 31
0.0
  0
LINE
  5
181
330
1F
100
AcDbEntity
  8
D-9_ｸｯｼｮﾝ材
  6
Continuous
 62
     4
370
     9
100
AcDbLine
 10
-768.5845484381622
 20
-368.5882022611355
 30
0.0
 11
-768.5841765051788
 21
-368.5878207914089
 31
0.0
  0
LINE
  5
182
330
1F
100
AcDbEntity
  8
D-9_ｸｯｼｮﾝ材
  6
Continuous
 62
     4
370
     9
100
AcDbLine
 10
-803.8028444891876
 20
-389.6643283597683
 30
0.0
 11
-800.0522722845977
 21
-385.9137561551785
 31
0.0
  0
LINE
  5
183
330
1F
100
AcDbEntity
  8
D-9_ｸｯｼｮﾝ材
  6
Continuous
 62
     4
370
     9
100
AcDbLine
 10
-782.7263369208282
 20
-368.5878207914089
 30
0.0
 11
-777.726441825003
 21
-363.5879352323269
 31
0.0
  0
LINE
  5
184
330
1F
100
AcDbEntity
  8
D-9_ｸｯｼｮﾝ材
  6
Continuous
 62
     4
370
     9
100
AcDbLine
 10
-816.2563242560333
 20
-387.9756381742214
 30
0.0
 11
-808.6415972357696
 21
-380.3609302274441
 31
0.0
  0
LINE
  5
185
330
1F
100
AcDbEntity
  8
D-9_ｸｯｼｮﾝ材
  6
Continuous
 62
     4
370
     9
100
AcDbLine
 10
-796.8685068732208
 20
-368.5878207914089
 30
0.0
 11
-791.8686022406524
 21
-363.5879352323269
 31
0.0
  0
LINE
  5
186
330
1F
100
AcDbEntity
  8
D-9_ｸｯｼｮﾝ材
  6
Continuous
 62
     4
370
     9
100
AcDbLine
 10
-824.6417727118438
 20
-382.2186877958035
 30
0.0
 11
-823.5109820013946
 21
-381.0878970853543
 31
0.0
  0
LINE
  5
187
330
1F
100
AcDbEntity
  8
D-9_ｸｯｼｮﾝ材
  6
Continuous
 62
     4
370
     9
100
AcDbLine
 10
-814.8919214850372
 20
-372.4688556424832
 30
0.0
 11
-806.0110201483673
 21
-363.5879352323269
 31
0.0
  0
LINE
  5
188
330
1F
100
AcDbEntity
  8
D-9_ｸｯｼｮﾝ材
  6
Continuous
 62
     4
370
     9
100
AcDbLine
 10
-825.1530947333282
 20
-368.5878207914089
 30
0.0
 11
-820.1531901007598
 21
-363.5879352323269
 31
0.0
  0
LINE
  5
189
330
1F
100
AcDbEntity
  8
D-9_ｸｯｼｮﾝ材
  6
Continuous
 62
     4
370
     9
100
AcDbLine
 10
-778.6418261176055
 20
-378.6454990140652
 30
0.0
 11
-772.391854727835
 21
-372.3954990140652
 31
0.0
  0
LINE
  5
18A
330
1F
100
AcDbEntity
  8
D-9_ｸｯｼｮﾝ材
  6
Continuous
 62
     4
370
     9
100
AcDbLine
 10
-768.5845484381622
 20
-368.5882022611355
 30
0.0
 11
-763.5842814093536
 21
-363.5879352323269
 31
0.0
  0
LINE
  5
18B
330
1F
100
AcDbEntity
  8
D-9_ｸｯｼｮﾝ材
  6
Continuous
 62
     4
370
     9
100
AcDbLine
 10
-754.4423784857696
 20
-368.5882022611355
 30
0.0
 11
-749.442111456961
 21
-363.5879352323269
 31
0.0
  0
LINE
  5
18C
330
1F
100
AcDbEntity
  8
D-9_ｸｯｼｮﾝ材
  6
Continuous
 62
     4
370
     9
100
AcDbLine
 10
-740.3002180701202
 20
-368.5882022611355
 30
0.0
 11
-735.2999415045684
 21
-363.5879352323269
 31
0.0
  0
LINE
  5
18D
330
1F
100
AcDbEntity
  8
D-0_通り芯
  6
Continuous
 62
     7
370
     9
100
AcDbLine
 10
-436.7974772101348
 20
-307.0376041166043
 30
0.0
 11
-436.7974772101348
 21
-305.5373599759793
 31
0.0
  0
LINE
  5
18E
330
1F
100
AcDbEntity
  8
D-0_通り芯
  6
Continuous
 62
     7
370
     9
100
AcDbLine
 10
-436.7974772101348
 20
-305.5373599759793
 30
0.0
 11
-435.2976908331817
 21
-305.5373599759793
 31
0.0
  0
LINE
  5
18F
330
1F
100
AcDbEntity
  8
D-0_通り芯
  6
Continuous
 62
     7
370
     9
100
AcDbLine
 10
-435.2976908331817
 20
-305.5373599759793
 30
0.0
 11
-435.2976908331817
 21
-307.0376041166043
 31
0.0
  0
LINE
  5
190
330
1F
100
AcDbEntity
  8
D-0_通り芯
  6
Continuous
 62
     7
370
     9
100
AcDbLine
 10
-435.2976908331817
 20
-307.0376041166043
 30
0.0
 11
-436.7974772101348
 21
-307.0376041166043
 31
0.0
  0
LINE
  5
191
330
1F
100
AcDbEntity
  8
D-0_通り芯
  6
Continuous
 62
     7
370
     9
100
AcDbLine
 10
-386.0416521674102
 20
-309.744818472073
 30
0.0
 11
-386.0416521674102
 21
-308.244574331448
 31
0.0
  0
LINE
  5
192
330
1F
100
AcDbEntity
  8
D-0_通り芯
  6
Continuous
 62
     7
370
     9
100
AcDbLine
 10
-386.0416521674102
 20
-308.244574331448
 30
0.0
 11
-384.5416369086211
 21
-308.244574331448
 31
0.0
  0
LINE
  5
193
330
1F
100
AcDbEntity
  8
D-0_通り芯
  6
Continuous
 62
     7
370
     9
100
AcDbLine
 10
-384.5416369086211
 20
-308.244574331448
 30
0.0
 11
-384.5416369086211
 21
-309.744818472073
 31
0.0
  0
LINE
  5
194
330
1F
100
AcDbEntity
  8
D-0_通り芯
  6
Continuous
 62
     7
370
     9
100
AcDbLine
 10
-384.5416369086211
 20
-309.744818472073
 30
0.0
 11
-386.0416521674102
 21
-309.744818472073
 31
0.0
  0
LINE
  5
195
330
1F
100
AcDbEntity
  8
D-0_通り芯
  6
Continuous
 62
     7
370
     9
100
AcDbLine
 10
-321.0738100653594
 20
-307.7144077054714
 30
0.0
 11
-321.0738100653594
 21
-306.2141635648464
 31
0.0
  0
LINE
  5
196
330
1F
100
AcDbEntity
  8
D-0_通り芯
  6
Continuous
 62
     7
370
     9
100
AcDbLine
 10
-321.0738100653594
 20
-306.2141635648464
 30
0.0
 11
-319.5740236884063
 21
-306.2141635648464
 31
0.0
  0
LINE
  5
197
330
1F
100
AcDbEntity
  8
D-0_通り芯
  6
Continuous
 62
     7
370
     9
100
AcDbLine
 10
-319.5740236884063
 20
-306.2141635648464
 30
0.0
 11
-319.5740236884063
 21
-307.7144077054714
 31
0.0
  0
LINE
  5
198
330
1F
100
AcDbEntity
  8
D-0_通り芯
  6
Continuous
 62
     7
370
     9
100
AcDbLine
 10
-319.5740236884063
 20
-307.7144077054714
 30
0.0
 11
-321.0738100653594
 21
-307.7144077054714
 31
0.0
  0
LINE
  5
199
330
1F
100
AcDbEntity
  8
D-0_通り芯
  6
Continuous
 62
     7
370
     9
100
AcDbLine
 10
-345.436984503836
 20
-340.1983096830105
 30
0.0
 11
-345.436984503836
 21
-338.6980655423855
 31
0.0
  0
LINE
  5
19A
330
1F
100
AcDbEntity
  8
D-0_通り芯
  6
Continuous
 62
     7
370
     9
100
AcDbLine
 10
-345.436984503836
 20
-338.6980655423855
 30
0.0
 11
-343.9367022162383
 21
-338.6980655423855
 31
0.0
  0
LINE
  5
19B
330
1F
100
AcDbEntity
  8
D-0_通り芯
  6
Continuous
 62
     7
370
     9
100
AcDbLine
 10
-343.9367022162383
 20
-338.6980655423855
 30
0.0
 11
-343.9367022162383
 21
-340.1983096830105
 31
0.0
  0
LINE
  5
19C
330
1F
100
AcDbEntity
  8
D-0_通り芯
  6
Continuous
 62
     7
370
     9
100
AcDbLine
 10
-343.9367022162383
 20
-340.1983096830105
 30
0.0
 11
-345.436984503836
 21
-340.1983096830105
 31
0.0
  0
LINE
  5
19D
330
1F
100
AcDbEntity
  8
D-0_通り芯
  6
Continuous
 62
     7
370
     9
100
AcDbLine
 10
-396.002055609793
 20
-344.1293933622097
 30
0.0
 11
-396.002055609793
 21
-342.6291110746121
 31
0.0
  0
LINE
  5
19E
330
1F
100
AcDbEntity
  8
D-0_通り芯
  6
Continuous
 62
     7
370
     9
100
AcDbLine
 10
-396.002055609793
 20
-342.6291110746121
 30
0.0
 11
-394.5020403510039
 21
-342.6291110746121
 31
0.0
  0
LINE
  5
19F
330
1F
100
AcDbEntity
  8
D-0_通り芯
  6
Continuous
 62
     7
370
     9
100
AcDbLine
 10
-394.5020403510039
 20
-342.6291110746121
 30
0.0
 11
-394.5020403510039
 21
-344.1293933622097
 31
0.0
  0
LINE
  5
1A0
330
1F
100
AcDbEntity
  8
D-0_通り芯
  6
Continuous
 62
     7
370
     9
100
AcDbLine
 10
-394.5020403510039
 20
-344.1293933622097
 30
0.0
 11
-396.002055609793
 21
-344.1293933622097
 31
0.0
  0
LINE
  5
1A1
330
1F
100
AcDbEntity
  8
D-0_通り芯
  6
Continuous
 62
     7
370
     9
100
AcDbLine
 10
-413.1115831976836
 20
-378.0962589017605
 30
0.0
 11
-413.1115831976836
 21
-376.5959766141629
 31
0.0
  0
LINE
  5
1A2
330
1F
100
AcDbEntity
  8
D-0_通り芯
  6
Continuous
 62
     7
370
     9
100
AcDbLine
 10
-413.1115831976836
 20
-376.5959766141629
 30
0.0
 11
-411.611300910086
 21
-376.5959766141629
 31
0.0
  0
LINE
  5
1A3
330
1F
100
AcDbEntity
  8
D-0_通り芯
  6
Continuous
 62
     7
370
     9
100
AcDbLine
 10
-411.611300910086
 20
-376.5959766141629
 30
0.0
 11
-411.611300910086
 21
-378.0962589017605
 31
0.0
  0
LINE
  5
1A4
330
1F
100
AcDbEntity
  8
D-0_通り芯
  6
Continuous
 62
     7
370
     9
100
AcDbLine
 10
-411.611300910086
 20
-378.0962589017605
 30
0.0
 11
-413.1115831976836
 21
-378.0962589017605
 31
0.0
  0
LINE
  5
1A5
330
1F
100
AcDbEntity
  8
D-0_通り芯
  6
Continuous
 62
     7
370
     9
100
AcDbLine
 10
-444.4678225165313
 20
-363.5245349637722
 30
0.0
 11
-444.4678225165313
 21
-362.0242526761746
 31
0.0
  0
LINE
  5
1A6
330
1F
100
AcDbEntity
  8
D-0_通り芯
  6
Continuous
 62
     7
370
     9
100
AcDbLine
 10
-444.4678225165313
 20
-362.0242526761746
 30
0.0
 11
-442.9680361395781
 21
-362.0242526761746
 31
0.0
  0
LINE
  5
1A7
330
1F
100
AcDbEntity
  8
D-0_通り芯
  6
Continuous
 62
     7
370
     9
100
AcDbLine
 10
-442.9680361395781
 20
-362.0242526761746
 30
0.0
 11
-442.9680361395781
 21
-363.5245349637722
 31
0.0
  0
LINE
  5
1A8
330
1F
100
AcDbEntity
  8
D-0_通り芯
  6
Continuous
 62
     7
370
     9
100
AcDbLine
 10
-442.9680361395781
 20
-363.5245349637722
 30
0.0
 11
-444.4678225165313
 21
-363.5245349637722
 31
0.0
  0
LINE
  5
1A9
330
1F
100
AcDbEntity
  8
D-0_通り芯
  6
Continuous
 62
     7
370
     9
100
AcDbLine
 10
-455.1922526007598
 20
-404.7445514432644
 30
0.0
 11
-455.1922526007598
 21
-403.2442691556668
 31
0.0
  0
LINE
  5
1AA
330
1F
100
AcDbEntity
  8
D-0_通り芯
  6
Continuous
 62
     7
370
     9
100
AcDbLine
 10
-455.1922526007598
 20
-403.2442691556668
 30
0.0
 11
-453.6919703131621
 21
-403.2442691556668
 31
0.0
  0
LINE
  5
1AB
330
1F
100
AcDbEntity
  8
D-0_通り芯
  6
Continuous
 62
     7
370
     9
100
AcDbLine
 10
-453.6919703131621
 20
-403.2442691556668
 30
0.0
 11
-453.6919703131621
 21
-404.7445514432644
 31
0.0
  0
LINE
  5
1AC
330
1F
100
AcDbEntity
  8
D-0_通り芯
  6
Continuous
 62
     7
370
     9
100
AcDbLine
 10
-453.6919703131621
 20
-404.7445514432644
 30
0.0
 11
-455.1922526007598
 21
-404.7445514432644
 31
0.0
  0
LINE
  5
1AD
330
1F
100
AcDbEntity
  8
D-0_通り芯
  6
Continuous
 62
     7
370
     9
100
AcDbLine
 10
-417.8487505560821
 20
-413.2869174710964
 30
0.0
 11
-417.8487505560821
 21
-411.7866351834988
 31
0.0
  0
LINE
  5
1AE
330
1F
100
AcDbEntity
  8
D-0_通り芯
  6
Continuous
 62
     7
370
     9
100
AcDbLine
 10
-417.8487505560821
 20
-411.7866351834988
 30
0.0
 11
-416.3484682684844
 21
-411.7866351834988
 31
0.0
  0
LINE
  5
1AF
330
1F
100
AcDbEntity
  8
D-0_通り芯
  6
Continuous
 62
     7
370
     9
100
AcDbLine
 10
-416.3484682684844
 20
-411.7866351834988
 30
0.0
 11
-416.3484682684844
 21
-413.2869174710964
 31
0.0
  0
LINE
  5
1B0
330
1F
100
AcDbEntity
  8
D-0_通り芯
  6
Continuous
 62
     7
370
     9
100
AcDbLine
 10
-416.3484682684844
 20
-413.2869174710964
 30
0.0
 11
-417.8487505560821
 21
-413.2869174710964
 31
0.0
  0
LINE
  5
1B1
330
1F
100
AcDbEntity
  8
D-0_通り芯
  6
Continuous
 62
     7
370
     9
100
AcDbLine
 10
-365.6439318304961
 20
-418.0117252103543
 30
0.0
 11
-365.6439318304961
 21
-416.5114429227566
 31
0.0
  0
LINE
  5
1B2
330
1F
100
AcDbEntity
  8
D-0_通り芯
  6
Continuous
 62
     7
370
     9
100
AcDbLine
 10
-365.6439318304961
 20
-416.5114429227566
 30
0.0
 11
-364.1439165717071
 21
-416.5114429227566
 31
0.0
  0
LINE
  5
1B3
330
1F
100
AcDbEntity
  8
D-0_通り芯
  6
Continuous
 62
     7
370
     9
100
AcDbLine
 10
-364.1439165717071
 20
-416.5114429227566
 30
0.0
 11
-364.1439165717071
 21
-418.0117252103543
 31
0.0
  0
LINE
  5
1B4
330
1F
100
AcDbEntity
  8
D-0_通り芯
  6
Continuous
 62
     7
370
     9
100
AcDbLine
 10
-364.1439165717071
 20
-418.0117252103543
 30
0.0
 11
-365.6439318304961
 21
-418.0117252103543
 31
0.0
  0
LINE
  5
1B5
330
1F
100
AcDbEntity
  8
D-0_通り芯
  6
Continuous
 62
     7
370
     9
100
AcDbLine
 10
-310.9229006415313
 20
-411.2565067044949
 30
0.0
 11
-310.9229006415313
 21
-409.7562244168972
 31
0.0
  0
LINE
  5
1B6
330
1F
100
AcDbEntity
  8
D-0_通り芯
  6
Continuous
 62
     7
370
     9
100
AcDbLine
 10
-310.9229006415313
 20
-409.7562244168972
 30
0.0
 11
-309.4228472357696
 21
-409.7562244168972
 31
0.0
  0
LINE
  5
1B7
330
1F
100
AcDbEntity
  8
D-0_通り芯
  6
Continuous
 62
     7
370
     9
100
AcDbLine
 10
-309.4228472357696
 20
-409.7562244168972
 30
0.0
 11
-309.4228472357696
 21
-411.2565067044949
 31
0.0
  0
LINE
  5
1B8
330
1F
100
AcDbEntity
  8
D-0_通り芯
  6
Continuous
 62
     7
370
     9
100
AcDbLine
 10
-309.4228472357696
 20
-411.2565067044949
 30
0.0
 11
-310.9229006415313
 21
-411.2565067044949
 31
0.0
  0
LINE
  5
1B9
330
1F
100
AcDbEntity
  8
D-0_通り芯
  6
Continuous
 62
     7
370
     9
100
AcDbLine
 10
-323.104220831961
 20
-371.3286426297879
 30
0.0
 11
-323.104220831961
 21
-369.8283603421902
 31
0.0
  0
LINE
  5
1BA
330
1F
100
AcDbEntity
  8
D-0_通り芯
  6
Continuous
 62
     7
370
     9
100
AcDbLine
 10
-323.104220831961
 20
-369.8283603421902
 30
0.0
 11
-321.6042055731719
 21
-369.8283603421902
 31
0.0
  0
LINE
  5
1BB
330
1F
100
AcDbEntity
  8
D-0_通り芯
  6
Continuous
 62
     7
370
     9
100
AcDbLine
 10
-321.6042055731719
 20
-369.8283603421902
 30
0.0
 11
-321.6042055731719
 21
-371.3286426297879
 31
0.0
  0
LINE
  5
1BC
330
1F
100
AcDbEntity
  8
D-0_通り芯
  6
Continuous
 62
     7
370
     9
100
AcDbLine
 10
-321.6042055731719
 20
-371.3286426297879
 30
0.0
 11
-323.104220831961
 21
-371.3286426297879
 31
0.0
  0
LINE
  5
1BD
330
1F
100
AcDbEntity
  8
D-0_通り芯
  6
Continuous
 62
     7
370
     9
100
AcDbLine
 10
-683.5151590949005
 20
-300.6192996732449
 30
0.0
 11
-683.5151590949005
 21
-299.1190555326199
 31
0.0
  0
LINE
  5
1BE
330
1F
100
AcDbEntity
  8
D-0_通り芯
  6
Continuous
 62
     7
370
     9
100
AcDbLine
 10
-683.5151590949005
 20
-299.1190555326199
 30
0.0
 11
-682.0153774863189
 21
-299.1190555326199
 31
0.0
  0
LINE
  5
1BF
330
1F
100
AcDbEntity
  8
D-0_通り芯
  6
Continuous
 62
     7
370
     9
100
AcDbLine
 10
-682.0153774863189
 20
-299.1190555326199
 30
0.0
 11
-682.0153774863189
 21
-300.6192996732449
 31
0.0
  0
LINE
  5
1C0
330
1F
100
AcDbEntity
  8
D-0_通り芯
  6
Continuous
 62
     7
370
     9
100
AcDbLine
 10
-682.0153774863189
 20
-300.6192996732449
 30
0.0
 11
-683.5151590949005
 21
-300.6192996732449
 31
0.0
  0
LINE
  5
1C1
330
1F
100
AcDbEntity
  8
D-0_通り芯
  6
Continuous
 62
     7
370
     9
100
AcDbLine
 10
-664.4946112280792
 20
-317.4930026761746
 30
0.0
 11
-664.4946112280792
 21
-315.9926822416043
 31
0.0
  0
LINE
  5
1C2
330
1F
100
AcDbEntity
  8
D-0_通り芯
  6
Continuous
 62
     7
370
     9
100
AcDbLine
 10
-664.4946112280792
 20
-315.9926822416043
 30
0.0
 11
-662.994824851126
 21
-315.9926822416043
 31
0.0
  0
LINE
  5
1C3
330
1F
100
AcDbEntity
  8
D-0_通り芯
  6
Continuous
 62
     7
370
     9
100
AcDbLine
 10
-662.994824851126
 20
-315.9926822416043
 30
0.0
 11
-662.994824851126
 21
-317.4930026761746
 31
0.0
  0
LINE
  5
1C4
330
1F
100
AcDbEntity
  8
D-0_通り芯
  6
Continuous
 62
     7
370
     9
100
AcDbLine
 10
-662.994824851126
 20
-317.4930026761746
 30
0.0
 11
-664.4946112280792
 21
-317.4930026761746
 31
0.0
  0
LINE
  5
1C5
330
1F
100
AcDbEntity
  8
D-0_通り芯
  6
Continuous
 62
     7
370
     9
100
AcDbLine
 10
-638.4047140723173
 20
-353.2980563871121
 30
0.0
 11
-638.4047140723173
 21
-351.7977740995144
 31
0.0
  0
LINE
  5
1C6
330
1F
100
AcDbEntity
  8
D-0_通り芯
  6
Continuous
 62
     7
370
     9
100
AcDbLine
 10
-638.4047140723173
 20
-351.7977740995144
 30
0.0
 11
-636.9044317847197
 21
-351.7977740995144
 31
0.0
  0
LINE
  5
1C7
330
1F
100
AcDbEntity
  8
D-0_通り芯
  6
Continuous
 62
     7
370
     9
100
AcDbLine
 10
-636.9044317847197
 20
-351.7977740995144
 30
0.0
 11
-636.9044317847197
 21
-353.2980563871121
 31
0.0
  0
LINE
  5
1C8
330
1F
100
AcDbEntity
  8
D-0_通り芯
  6
Continuous
 62
     7
370
     9
100
AcDbLine
 10
-636.9044317847197
 20
-353.2980563871121
 30
0.0
 11
-638.4047140723173
 21
-353.2980563871121
 31
0.0
  0
LINE
  5
1C9
330
1F
100
AcDbEntity
  8
D-0_通り芯
  6
Continuous
 62
     7
370
     9
100
AcDbLine
 10
-602.6596083289091
 20
-311.9632175199246
 30
0.0
 11
-602.6596083289091
 21
-310.4628970853543
 31
0.0
  0
LINE
  5
1CA
330
1F
100
AcDbEntity
  8
D-0_通り芯
  6
Continuous
 62
     7
370
     9
100
AcDbLine
 10
-602.6596083289091
 20
-310.4628970853543
 30
0.0
 11
-601.1593355780547
 21
-310.4628970853543
 31
0.0
  0
LINE
  5
1CB
330
1F
100
AcDbEntity
  8
D-0_通り芯
  6
Continuous
 62
     7
370
     9
100
AcDbLine
 10
-601.1593355780547
 20
-310.4628970853543
 30
0.0
 11
-601.1593355780547
 21
-311.9632175199246
 31
0.0
  0
LINE
  5
1CC
330
1F
100
AcDbEntity
  8
D-0_通り芯
  6
Continuous
 62
     7
370
     9
100
AcDbLine
 10
-601.1593355780547
 20
-311.9632175199246
 30
0.0
 11
-602.6596083289091
 21
-311.9632175199246
 31
0.0
  0
LINE
  5
1CD
330
1F
100
AcDbEntity
  8
D-0_通り芯
  6
Continuous
 62
     7
370
     9
100
AcDbLine
 10
-548.5899653082793
 20
-303.5380008451199
 30
0.0
 11
-548.5899653082793
 21
-302.0376804105496
 31
0.0
  0
LINE
  5
1CE
330
1F
100
AcDbEntity
  8
D-0_通り芯
  6
Continuous
 62
     7
370
     9
100
AcDbLine
 10
-548.5899653082793
 20
-302.0376804105496
 30
0.0
 11
-547.0901789313261
 21
-302.0376804105496
 31
0.0
  0
LINE
  5
1CF
330
1F
100
AcDbEntity
  8
D-0_通り芯
  6
Continuous
 62
     7
370
     9
100
AcDbLine
 10
-547.0901789313261
 20
-302.0376804105496
 30
0.0
 11
-547.0901789313261
 21
-303.5380008451199
 31
0.0
  0
LINE
  5
1D0
330
1F
100
AcDbEntity
  8
D-0_通り芯
  6
Continuous
 62
     7
370
     9
100
AcDbLine
 10
-547.0901789313261
 20
-303.5380008451199
 30
0.0
 11
-548.5899653082793
 21
-303.5380008451199
 31
0.0
  0
LINE
  5
1D1
330
1F
100
AcDbEntity
  8
D-0_通り芯
  6
Continuous
 62
     7
370
     9
100
AcDbLine
 10
-568.2035936957304
 20
-332.0008304349636
 30
0.0
 11
-568.2035936957304
 21
-330.5005100003933
 31
0.0
  0
LINE
  5
1D2
330
1F
100
AcDbEntity
  8
D-0_通り芯
  6
Continuous
 62
     7
370
     9
100
AcDbLine
 10
-568.2035936957304
 20
-330.5005100003933
 30
0.0
 11
-566.7033114081328
 21
-330.5005100003933
 31
0.0
  0
LINE
  5
1D3
330
1F
100
AcDbEntity
  8
D-0_通り芯
  6
Continuous
 62
     7
370
     9
100
AcDbLine
 10
-566.7033114081328
 20
-330.5005100003933
 30
0.0
 11
-566.7033114081328
 21
-332.0008304349636
 31
0.0
  0
LINE
  5
1D4
330
1F
100
AcDbEntity
  8
D-0_通り芯
  6
Continuous
 62
     7
370
     9
100
AcDbLine
 10
-566.7033114081328
 20
-332.0008304349636
 30
0.0
 11
-568.2035936957304
 21
-332.0008304349636
 31
0.0
  0
LINE
  5
1D5
330
1F
100
AcDbEntity
  8
D-0_通り芯
  6
Continuous
 62
     7
370
     9
100
AcDbLine
 10
-540.3380694037382
 20
-356.8446185819363
 30
0.0
 11
-540.3380694037382
 21
-355.3443362943386
 31
0.0
  0
LINE
  5
1D6
330
1F
100
AcDbEntity
  8
D-0_通り芯
  6
Continuous
 62
     7
370
     9
100
AcDbLine
 10
-540.3380694037382
 20
-355.3443362943386
 30
0.0
 11
-538.8377871161406
 21
-355.3443362943386
 31
0.0
  0
LINE
  5
1D7
330
1F
100
AcDbEntity
  8
D-0_通り芯
  6
Continuous
 62
     7
370
     9
100
AcDbLine
 10
-538.8377871161406
 20
-355.3443362943386
 30
0.0
 11
-538.8377871161406
 21
-356.8446185819363
 31
0.0
  0
LINE
  5
1D8
330
1F
100
AcDbEntity
  8
D-0_通り芯
  6
Continuous
 62
     7
370
     9
100
AcDbLine
 10
-538.8377871161406
 20
-356.8446185819363
 30
0.0
 11
-540.3380694037382
 21
-356.8446185819363
 31
0.0
  0
LINE
  5
1D9
330
1F
100
AcDbEntity
  8
D-0_通り芯
  6
Continuous
 62
     7
370
     9
100
AcDbLine
 10
-536.4149393683379
 20
-395.4173496000027
 30
0.0
 11
-536.4149393683379
 21
-393.917067312405
 31
0.0
  0
LINE
  5
1DA
330
1F
100
AcDbEntity
  8
D-0_通り芯
  6
Continuous
 62
     7
370
     9
100
AcDbLine
 10
-536.4149393683379
 20
-393.917067312405
 30
0.0
 11
-534.9151529913847
 21
-393.917067312405
 31
0.0
  0
LINE
  5
1DB
330
1F
100
AcDbEntity
  8
D-0_通り芯
  6
Continuous
 62
     7
370
     9
100
AcDbLine
 10
-534.9151529913847
 20
-393.917067312405
 30
0.0
 11
-534.9151529913847
 21
-395.4173496000027
 31
0.0
  0
LINE
  5
1DC
330
1F
100
AcDbEntity
  8
D-0_通り芯
  6
Continuous
 62
     7
370
     9
100
AcDbLine
 10
-534.9151529913847
 20
-395.4173496000027
 30
0.0
 11
-536.4149393683379
 21
-395.4173496000027
 31
0.0
  0
LINE
  5
1DD
330
1F
100
AcDbEntity
  8
D-0_通り芯
  6
Continuous
 62
     7
370
     9
100
AcDbLine
 10
-364.133273566336
 20
-380.4462650052761
 30
0.0
 11
-364.133273566336
 21
-378.9459827176785
 31
0.0
  0
LINE
  5
1DE
330
1F
100
AcDbEntity
  8
D-0_通り芯
  6
Continuous
 62
     7
370
     9
100
AcDbLine
 10
-364.133273566336
 20
-378.9459827176785
 30
0.0
 11
-362.6332201605742
 21
-378.9459827176785
 31
0.0
  0
LINE
  5
1DF
330
1F
100
AcDbEntity
  8
D-0_通り芯
  6
Continuous
 62
     7
370
     9
100
AcDbLine
 10
-362.6332201605742
 20
-378.9459827176785
 30
0.0
 11
-362.6332201605742
 21
-380.4462650052761
 31
0.0
  0
LINE
  5
1E0
330
1F
100
AcDbEntity
  8
D-0_通り芯
  6
Continuous
 62
     7
370
     9
100
AcDbLine
 10
-362.6332201605742
 20
-380.4462650052761
 30
0.0
 11
-364.133273566336
 21
-380.4462650052761
 31
0.0
  0
LINE
  5
1E1
330
1F
100
AcDbEntity
  8
D-0_通り芯
  6
Continuous
 62
     7
370
     9
100
AcDbLine
 10
-303.6481585150664
 20
-340.9578922025418
 30
0.0
 11
-303.6481585150664
 21
-339.4576480619168
 31
0.0
  0
LINE
  5
1E2
330
1F
100
AcDbEntity
  8
D-0_通り芯
  6
Continuous
 62
     7
370
     9
100
AcDbLine
 10
-303.6481585150664
 20
-339.4576480619168
 30
0.0
 11
-302.1478762274688
 21
-339.4576480619168
 31
0.0
  0
LINE
  5
1E3
330
1F
100
AcDbEntity
  8
D-0_通り芯
  6
Continuous
 62
     7
370
     9
100
AcDbLine
 10
-302.1478762274688
 20
-339.4576480619168
 30
0.0
 11
-302.1478762274688
 21
-340.9578922025418
 31
0.0
  0
LINE
  5
1E4
330
1F
100
AcDbEntity
  8
D-0_通り芯
  6
Continuous
 62
     7
370
     9
100
AcDbLine
 10
-302.1478762274688
 20
-340.9578922025418
 30
0.0
 11
-303.6481585150664
 21
-340.9578922025418
 31
0.0
  0
LINE
  5
1E5
330
1F
100
AcDbEntity
  8
D-0_通り芯
  6
Continuous
 62
     7
370
     9
100
AcDbLine
 10
-457.648784125418
 20
-330.0650241605496
 30
0.0
 11
-457.648784125418
 21
-328.5647037259793
 31
0.0
  0
LINE
  5
1E6
330
1F
100
AcDbEntity
  8
D-0_通り芯
  6
Continuous
 62
     7
370
     9
100
AcDbLine
 10
-457.648784125418
 20
-328.5647037259793
 30
0.0
 11
-456.1485018378203
 21
-328.5647037259793
 31
0.0
  0
LINE
  5
1E7
330
1F
100
AcDbEntity
  8
D-0_通り芯
  6
Continuous
 62
     7
370
     9
100
AcDbLine
 10
-456.1485018378203
 20
-328.5647037259793
 30
0.0
 11
-456.1485018378203
 21
-330.0650241605496
 31
0.0
  0
LINE
  5
1E8
330
1F
100
AcDbEntity
  8
D-0_通り芯
  6
Continuous
 62
     7
370
     9
100
AcDbLine
 10
-456.1485018378203
 20
-330.0650241605496
 30
0.0
 11
-457.648784125418
 21
-330.0650241605496
 31
0.0
  0
LINE
  5
1E9
330
1F
100
AcDbEntity
  8
D-0_通り芯
  6
Continuous
 62
     7
370
     9
100
AcDbLine
 10
-535.2774729376738
 20
-453.315375112698
 30
0.0
 11
-535.2774729376738
 21
-451.8150546781277
 31
0.0
  0
LINE
  5
1EA
330
1F
100
AcDbEntity
  8
D-0_通り芯
  6
Continuous
 62
     7
370
     9
100
AcDbLine
 10
-535.2774729376738
 20
-451.8150546781277
 30
0.0
 11
-533.7771906500761
 21
-451.8150546781277
 31
0.0
  0
LINE
  5
1EB
330
1F
100
AcDbEntity
  8
D-0_通り芯
  6
Continuous
 62
     7
370
     9
100
AcDbLine
 10
-533.7771906500761
 20
-451.8150546781277
 30
0.0
 11
-533.7771906500761
 21
-453.315375112698
 31
0.0
  0
LINE
  5
1EC
330
1F
100
AcDbEntity
  8
D-0_通り芯
  6
Continuous
 62
     7
370
     9
100
AcDbLine
 10
-533.7771906500761
 20
-453.315375112698
 30
0.0
 11
-535.2774729376738
 21
-453.315375112698
 31
0.0
  0
LINE
  5
1ED
330
1F
100
AcDbEntity
  8
D-0_通り芯
  6
Continuous
 62
     7
370
     9
100
AcDbLine
 10
-485.9129252081817
 20
-461.2136295072293
 30
0.0
 11
-485.9129252081817
 21
-459.7133472196316
 31
0.0
  0
LINE
  5
1EE
330
1F
100
AcDbEntity
  8
D-0_通り芯
  6
Continuous
 62
     7
370
     9
100
AcDbLine
 10
-485.9129252081817
 20
-459.7133472196316
 30
0.0
 11
-484.412642920584
 21
-459.7133472196316
 31
0.0
  0
LINE
  5
1EF
330
1F
100
AcDbEntity
  8
D-0_通り芯
  6
Continuous
 62
     7
370
     9
100
AcDbLine
 10
-484.412642920584
 20
-459.7133472196316
 30
0.0
 11
-484.412642920584
 21
-461.2136295072293
 31
0.0
  0
LINE
  5
1F0
330
1F
100
AcDbEntity
  8
D-0_通り芯
  6
Continuous
 62
     7
370
     9
100
AcDbLine
 10
-484.412642920584
 20
-461.2136295072293
 30
0.0
 11
-485.9129252081817
 21
-461.2136295072293
 31
0.0
  0
LINE
  5
1F1
330
1F
100
AcDbEntity
  8
D-0_通り芯
  6
Continuous
 62
     7
370
     9
100
AcDbLine
 10
-502.794047797293
 20
-481.794379018948
 30
0.0
 11
-502.794047797293
 21
-480.294134878323
 31
0.0
  0
LINE
  5
1F2
330
1F
100
AcDbEntity
  8
D-0_通り芯
  6
Continuous
 62
     7
370
     9
100
AcDbLine
 10
-502.794047797293
 20
-480.294134878323
 30
0.0
 11
-501.2942614203399
 21
-480.294134878323
 31
0.0
  0
LINE
  5
1F3
330
1F
100
AcDbEntity
  8
D-0_通り芯
  6
Continuous
 62
     7
370
     9
100
AcDbLine
 10
-501.2942614203399
 20
-480.294134878323
 30
0.0
 11
-501.2942614203399
 21
-481.794379018948
 31
0.0
  0
LINE
  5
1F4
330
1F
100
AcDbEntity
  8
D-0_通り芯
  6
Continuous
 62
     7
370
     9
100
AcDbLine
 10
-501.2942614203399
 20
-481.794379018948
 30
0.0
 11
-502.794047797293
 21
-481.794379018948
 31
0.0
  0
LINE
  5
1F5
330
1F
100
AcDbEntity
  8
D-0_通り芯
  6
Continuous
 62
     7
370
     9
100
AcDbLine
 10
-551.0740008002226
 20
-516.5024783841824
 30
0.0
 11
-551.0740008002226
 21
-515.0022342435574
 31
0.0
  0
LINE
  5
1F6
330
1F
100
AcDbEntity
  8
D-0_通り芯
  6
Continuous
 62
     7
370
     9
100
AcDbLine
 10
-551.0740008002226
 20
-515.0022342435574
 30
0.0
 11
-549.5742144232695
 21
-515.0022342435574
 31
0.0
  0
LINE
  5
1F7
330
1F
100
AcDbEntity
  8
D-0_通り芯
  6
Continuous
 62
     7
370
     9
100
AcDbLine
 10
-549.5742144232695
 20
-515.0022342435574
 30
0.0
 11
-549.5742144232695
 21
-516.5024783841824
 31
0.0
  0
LINE
  5
1F8
330
1F
100
AcDbEntity
  8
D-0_通り芯
  6
Continuous
 62
     7
370
     9
100
AcDbLine
 10
-549.5742144232695
 20
-516.5024783841824
 30
0.0
 11
-551.0740008002226
 21
-516.5024783841824
 31
0.0
  0
LINE
  5
1F9
330
1F
100
AcDbEntity
  8
D-0_通り芯
  6
Continuous
 62
     7
370
     9
100
AcDbLine
 10
-479.9891008978789
 20
-514.527533315823
 30
0.0
 11
-479.9891008978789
 21
-513.027289175198
 31
0.0
  0
LINE
  5
1FA
330
1F
100
AcDbEntity
  8
D-0_通り芯
  6
Continuous
 62
     7
370
     9
100
AcDbLine
 10
-479.9891008978789
 20
-513.027289175198
 30
0.0
 11
-478.4888186102813
 21
-513.027289175198
 31
0.0
  0
LINE
  5
1FB
330
1F
100
AcDbEntity
  8
D-0_通り芯
  6
Continuous
 62
     7
370
     9
100
AcDbLine
 10
-478.4888186102813
 20
-513.027289175198
 30
0.0
 11
-478.4888186102813
 21
-514.527533315823
 31
0.0
  0
LINE
  5
1FC
330
1F
100
AcDbEntity
  8
D-0_通り芯
  6
Continuous
 62
     7
370
     9
100
AcDbLine
 10
-478.4888186102813
 20
-514.527533315823
 30
0.0
 11
-479.9891008978789
 21
-514.527533315823
 31
0.0
  0
LINE
  5
1FD
330
1F
100
AcDbEntity
  8
D-0_通り芯
  6
Continuous
 62
     7
370
     9
100
AcDbLine
 10
-846.7821612006134
 20
-446.0294940702175
 30
0.0
 11
-846.7821612006134
 21
-444.5292117826199
 31
0.0
  0
LINE
  5
1FE
330
1F
100
AcDbEntity
  8
D-0_通り芯
  6
Continuous
 62
     7
370
     9
100
AcDbLine
 10
-846.7821612006134
 20
-444.5292117826199
 30
0.0
 11
-845.2823748236602
 21
-444.5292117826199
 31
0.0
  0
LINE
  5
1FF
330
1F
100
AcDbEntity
  8
D-0_通り芯
  6
Continuous
 62
     7
370
     9
100
AcDbLine
 10
-845.2823748236602
 20
-444.5292117826199
 30
0.0
 11
-845.2823748236602
 21
-446.0294940702175
 31
0.0
  0
LINE
  5
200
330
1F
100
AcDbEntity
  8
D-0_通り芯
  6
Continuous
 62
     7
370
     9
100
AcDbLine
 10
-845.2823748236602
 20
-446.0294940702175
 30
0.0
 11
-846.7821612006134
 21
-446.0294940702175
 31
0.0
  0
LINE
  5
201
330
1F
100
AcDbEntity
  8
D-0_通り芯
  6
Continuous
 62
     7
370
     9
100
AcDbLine
 10
-781.8984140997833
 20
-540.1973178617214
 30
0.0
 11
-781.8984140997833
 21
-538.6969974271511
 31
0.0
  0
LINE
  5
202
330
1F
100
AcDbEntity
  8
D-0_通り芯
  6
Continuous
 62
     7
370
     9
100
AcDbLine
 10
-781.8984140997833
 20
-538.6969974271511
 30
0.0
 11
-780.3986277228302
 21
-538.6969974271511
 31
0.0
  0
LINE
  5
203
330
1F
100
AcDbEntity
  8
D-0_通り芯
  6
Continuous
 62
     7
370
     9
100
AcDbLine
 10
-780.3986277228302
 20
-538.6969974271511
 30
0.0
 11
-780.3986277228302
 21
-540.1973178617214
 31
0.0
  0
LINE
  5
204
330
1F
100
AcDbEntity
  8
D-0_通り芯
  6
Continuous
 62
     7
370
     9
100
AcDbLine
 10
-780.3986277228302
 20
-540.1973178617214
 30
0.0
 11
-781.8984140997833
 21
-540.1973178617214
 31
0.0
  0
LINE
  5
205
330
1F
100
AcDbEntity
  8
D-0_通り芯
  6
Continuous
 62
     7
370
     9
100
AcDbLine
 10
-795.7210077887481
 20
-599.4350650541043
 30
0.0
 11
-795.7210077887481
 21
-597.934744619534
 31
0.0
  0
LINE
  5
206
330
1F
100
AcDbEntity
  8
D-0_通り芯
  6
Continuous
 62
     7
370
     9
100
AcDbLine
 10
-795.7210077887481
 20
-597.934744619534
 30
0.0
 11
-794.2207255011505
 21
-597.934744619534
 31
0.0
  0
LINE
  5
207
330
1F
100
AcDbEntity
  8
D-0_通り芯
  6
Continuous
 62
     7
370
     9
100
AcDbLine
 10
-794.2207255011505
 20
-597.934744619534
 30
0.0
 11
-794.2207255011505
 21
-599.4350650541043
 31
0.0
  0
LINE
  5
208
330
1F
100
AcDbEntity
  8
D-0_通り芯
  6
Continuous
 62
     7
370
     9
100
AcDbLine
 10
-794.2207255011505
 20
-599.4350650541043
 30
0.0
 11
-795.7210077887481
 21
-599.4350650541043
 31
0.0
  0
LINE
  5
209
330
1F
100
AcDbEntity
  8
D-0_通り芯
  6
Continuous
 62
     7
370
     9
100
AcDbLine
 10
-826.327105963797
 20
-610.29524114053
 30
0.0
 11
-826.327105963797
 21
-608.7949588529324
 31
0.0
  0
LINE
  5
20A
330
1F
100
AcDbEntity
  8
D-0_通り芯
  6
Continuous
 62
     7
370
     9
100
AcDbLine
 10
-826.327105963797
 20
-608.7949588529324
 30
0.0
 11
-824.8268236761993
 21
-608.7949588529324
 31
0.0
  0
LINE
  5
20B
330
1F
100
AcDbEntity
  8
D-0_通り芯
  6
Continuous
 62
     7
370
     9
100
AcDbLine
 10
-824.8268236761993
 20
-608.7949588529324
 30
0.0
 11
-824.8268236761993
 21
-610.29524114053
 31
0.0
  0
LINE
  5
20C
330
1F
100
AcDbEntity
  8
D-0_通り芯
  6
Continuous
 62
     7
370
     9
100
AcDbLine
 10
-824.8268236761993
 20
-610.29524114053
 30
0.0
 11
-826.327105963797
 21
-610.29524114053
 31
0.0
  0
LINE
  5
20D
330
1F
100
AcDbEntity
  8
D-0_通り芯
  6
Continuous
 62
     7
370
     9
100
AcDbLine
 10
-849.1805948859161
 20
-544.146673940823
 30
0.0
 11
-849.1805948859161
 21
-542.6463916532254
 31
0.0
  0
LINE
  5
20E
330
1F
100
AcDbEntity
  8
D-0_通り芯
  6
Continuous
 62
     7
370
     9
100
AcDbLine
 10
-849.1805948859161
 20
-542.6463916532254
 30
0.0
 11
-847.6803125983184
 21
-542.6463916532254
 31
0.0
  0
LINE
  5
20F
330
1F
100
AcDbEntity
  8
D-0_通り芯
  6
Continuous
 62
     7
370
     9
100
AcDbLine
 10
-847.6803125983184
 20
-542.6463916532254
 30
0.0
 11
-847.6803125983184
 21
-544.146673940823
 31
0.0
  0
LINE
  5
210
330
1F
100
AcDbEntity
  8
D-0_通り芯
  6
Continuous
 62
     7
370
     9
100
AcDbLine
 10
-847.6803125983184
 20
-544.146673940823
 30
0.0
 11
-849.1805948859161
 21
-544.146673940823
 31
0.0
  0
LINE
  5
211
330
1F
100
AcDbEntity
  8
D-0_通り芯
  6
Continuous
 62
     7
370
     9
100
AcDbLine
 10
-823.3651842719024
 20
-522.4263217679714
 30
0.0
 11
-823.3651842719024
 21
-520.9260394803738
 31
0.0
  0
LINE
  5
212
330
1F
100
AcDbEntity
  8
D-0_通り芯
  6
Continuous
 62
     7
370
     9
100
AcDbLine
 10
-823.3651842719024
 20
-520.9260394803738
 30
0.0
 11
-821.8649019843048
 21
-520.9260394803738
 31
0.0
  0
LINE
  5
213
330
1F
100
AcDbEntity
  8
D-0_通り芯
  6
Continuous
 62
     7
370
     9
100
AcDbLine
 10
-821.8649019843048
 20
-520.9260394803738
 30
0.0
 11
-821.8649019843048
 21
-522.4263217679714
 31
0.0
  0
LINE
  5
214
330
1F
100
AcDbEntity
  8
D-0_通り芯
  6
Continuous
 62
     7
370
     9
100
AcDbLine
 10
-821.8649019843048
 20
-522.4263217679714
 30
0.0
 11
-823.3651842719024
 21
-522.4263217679714
 31
0.0
  0
LINE
  5
215
330
1F
100
AcDbEntity
  8
D-0_通り芯
  6
Continuous
 62
     7
370
     9
100
AcDbLine
 10
-760.1780523901886
 20
-574.9192264310574
 30
0.0
 11
-760.1780523901886
 21
-573.4189822904324
 31
0.0
  0
LINE
  5
216
330
1F
100
AcDbEntity
  8
D-0_通り芯
  6
Continuous
 62
     7
370
     9
100
AcDbLine
 10
-760.1780523901886
 20
-573.4189822904324
 30
0.0
 11
-758.6777701025909
 21
-573.4189822904324
 31
0.0
  0
LINE
  5
217
330
1F
100
AcDbEntity
  8
D-0_通り芯
  6
Continuous
 62
     7
370
     9
100
AcDbLine
 10
-758.6777701025909
 20
-573.4189822904324
 30
0.0
 11
-758.6777701025909
 21
-574.9192264310574
 31
0.0
  0
LINE
  5
218
330
1F
100
AcDbEntity
  8
D-0_通り芯
  6
Continuous
 62
     7
370
     9
100
AcDbLine
 10
-758.6777701025909
 20
-574.9192264310574
 30
0.0
 11
-760.1780523901886
 21
-574.9192264310574
 31
0.0
  0
LINE
  5
219
330
1F
100
AcDbEntity
  8
D-0_通り芯
  6
Continuous
 62
     7
370
     9
100
AcDbLine
 10
-837.1872820502227
 20
-712.798292898342
 30
0.0
 11
-837.1872820502227
 21
-711.2980106107443
 31
0.0
  0
LINE
  5
21A
330
1F
100
AcDbEntity
  8
D-0_通り芯
  6
Continuous
 62
     7
370
     9
100
AcDbLine
 10
-837.1872820502227
 20
-711.2980106107443
 30
0.0
 11
-835.6869997626251
 21
-711.2980106107443
 31
0.0
  0
LINE
  5
21B
330
1F
100
AcDbEntity
  8
D-0_通り芯
  6
Continuous
 62
     7
370
     9
100
AcDbLine
 10
-835.6869997626251
 20
-711.2980106107443
 30
0.0
 11
-835.6869997626251
 21
-712.798292898342
 31
0.0
  0
LINE
  5
21C
330
1F
100
AcDbEntity
  8
D-0_通り芯
  6
Continuous
 62
     7
370
     9
100
AcDbLine
 10
-835.6869997626251
 20
-712.798292898342
 30
0.0
 11
-837.1872820502227
 21
-712.798292898342
 31
0.0
  0
LINE
  5
21D
330
1F
100
AcDbEntity
  8
D-0_通り芯
  6
Continuous
 62
     7
370
     9
100
AcDbLine
 10
-766.797019446463
 20
-716.510336660549
 30
0.0
 11
-766.797019446463
 21
-715.0100543729513
 31
0.0
  0
LINE
  5
21E
330
1F
100
AcDbEntity
  8
D-0_通り芯
  6
Continuous
 62
     7
370
     9
100
AcDbLine
 10
-766.797019446463
 20
-715.0100543729513
 30
0.0
 11
-765.2967371588653
 21
-715.0100543729513
 31
0.0
  0
LINE
  5
21F
330
1F
100
AcDbEntity
  8
D-0_通り芯
  6
Continuous
 62
     7
370
     9
100
AcDbLine
 10
-765.2967371588653
 20
-715.0100543729513
 30
0.0
 11
-765.2967371588653
 21
-716.510336660549
 31
0.0
  0
LINE
  5
220
330
1F
100
AcDbEntity
  8
D-0_通り芯
  6
Continuous
 62
     7
370
     9
100
AcDbLine
 10
-765.2967371588653
 20
-716.510336660549
 30
0.0
 11
-766.797019446463
 21
-716.510336660549
 31
0.0
  0
LINE
  5
221
330
1F
100
AcDbEntity
  8
D-0_通り芯
  6
Continuous
 62
     7
370
     9
100
AcDbLine
 10
-742.4065794592804
 20
-742.4169376126974
 30
0.0
 11
-742.4065794592804
 21
-740.9166553250998
 31
0.0
  0
LINE
  5
222
330
1F
100
AcDbEntity
  8
D-0_通り芯
  6
Continuous
 62
     7
370
     9
100
AcDbLine
 10
-742.4065794592804
 20
-740.9166553250998
 30
0.0
 11
-740.9067930823272
 21
-740.9166553250998
 31
0.0
  0
LINE
  5
223
330
1F
100
AcDbEntity
  8
D-0_通り芯
  6
Continuous
 62
     7
370
     9
100
AcDbLine
 10
-740.9067930823272
 20
-740.9166553250998
 30
0.0
 11
-740.9067930823272
 21
-742.4169376126974
 31
0.0
  0
LINE
  5
224
330
1F
100
AcDbEntity
  8
D-0_通り芯
  6
Continuous
 62
     7
370
     9
100
AcDbLine
 10
-740.9067930823272
 20
-742.4169376126974
 30
0.0
 11
-742.4065794592804
 21
-742.4169376126974
 31
0.0
  0
LINE
  5
225
330
1F
100
AcDbEntity
  8
D-0_通り芯
  6
Continuous
 62
     7
370
     9
100
AcDbLine
 10
-736.1279978400177
 20
-780.6289508573263
 30
0.0
 11
-736.1279978400177
 21
-779.1286685697287
 31
0.0
  0
LINE
  5
226
330
1F
100
AcDbEntity
  8
D-0_通り芯
  6
Continuous
 62
     7
370
     9
100
AcDbLine
 10
-736.1279978400177
 20
-779.1286685697287
 30
0.0
 11
-734.62771555242
 21
-779.1286685697287
 31
0.0
  0
LINE
  5
227
330
1F
100
AcDbEntity
  8
D-0_通り芯
  6
Continuous
 62
     7
370
     9
100
AcDbLine
 10
-734.62771555242
 20
-779.1286685697287
 30
0.0
 11
-734.62771555242
 21
-780.6289508573263
 31
0.0
  0
LINE
  5
228
330
1F
100
AcDbEntity
  8
D-0_通り芯
  6
Continuous
 62
     7
370
     9
100
AcDbLine
 10
-734.62771555242
 20
-780.6289508573263
 30
0.0
 11
-736.1279978400177
 21
-780.6289508573263
 31
0.0
  0
LINE
  5
229
330
1F
100
AcDbEntity
  8
D-0_通り芯
  6
Continuous
 62
     7
370
     9
100
AcDbLine
 10
-810.3561510687774
 20
-786.0875537625998
 30
0.0
 11
-810.3561510687774
 21
-784.5872714750021
 31
0.0
  0
LINE
  5
22A
330
1F
100
AcDbEntity
  8
D-0_通り芯
  6
Continuous
 62
     7
370
     9
100
AcDbLine
 10
-810.3561510687774
 20
-784.5872714750021
 30
0.0
 11
-808.8563646918243
 21
-784.5872714750021
 31
0.0
  0
LINE
  5
22B
330
1F
100
AcDbEntity
  8
D-0_通り芯
  6
Continuous
 62
     7
370
     9
100
AcDbLine
 10
-808.8563646918243
 20
-784.5872714750021
 30
0.0
 11
-808.8563646918243
 21
-786.0875537625998
 31
0.0
  0
LINE
  5
22C
330
1F
100
AcDbEntity
  8
D-0_通り芯
  6
Continuous
 62
     7
370
     9
100
AcDbLine
 10
-808.8563646918243
 20
-786.0875537625998
 30
0.0
 11
-810.3561510687774
 21
-786.0875537625998
 31
0.0
  0
LINE
  5
22D
330
1F
100
AcDbEntity
  8
D-0_通り芯
  6
Continuous
 62
     7
370
     9
100
AcDbLine
 10
-845.085536444754
 20
-776.7910602323263
 30
0.0
 11
-845.085536444754
 21
-775.2907779447287
 31
0.0
  0
LINE
  5
22E
330
1F
100
AcDbEntity
  8
D-0_通り芯
  6
Continuous
 62
     7
370
     9
100
AcDbLine
 10
-845.085536444754
 20
-775.2907779447287
 30
0.0
 11
-843.5852541571563
 21
-775.2907779447287
 31
0.0
  0
LINE
  5
22F
330
1F
100
AcDbEntity
  8
D-0_通り芯
  6
Continuous
 62
     7
370
     9
100
AcDbLine
 10
-843.5852541571563
 20
-775.2907779447287
 30
0.0
 11
-843.5852541571563
 21
-776.7910602323263
 31
0.0
  0
LINE
  5
230
330
1F
100
AcDbEntity
  8
D-0_通り芯
  6
Continuous
 62
     7
370
     9
100
AcDbLine
 10
-843.5852541571563
 20
-776.7910602323263
 30
0.0
 11
-845.085536444754
 21
-776.7910602323263
 31
0.0
  0
LINE
  5
231
330
1F
100
AcDbEntity
  8
D-0_通り芯
  6
Continuous
 62
     7
370
     9
100
AcDbLine
 10
-847.2968210822052
 20
-736.4930942289084
 30
0.0
 11
-847.2968210822052
 21
-734.9928119413107
 31
0.0
  0
LINE
  5
232
330
1F
100
AcDbEntity
  8
D-0_通り芯
  6
Continuous
 62
     7
370
     9
100
AcDbLine
 10
-847.2968210822052
 20
-734.9928119413107
 30
0.0
 11
-845.797034705252
 21
-734.9928119413107
 31
0.0
  0
LINE
  5
233
330
1F
100
AcDbEntity
  8
D-0_通り芯
  6
Continuous
 62
     7
370
     9
100
AcDbLine
 10
-845.797034705252
 20
-734.9928119413107
 30
0.0
 11
-845.797034705252
 21
-736.4930942289084
 31
0.0
  0
LINE
  5
234
330
1F
100
AcDbEntity
  8
D-0_通り芯
  6
Continuous
 62
     7
370
     9
100
AcDbLine
 10
-845.797034705252
 20
-736.4930942289084
 30
0.0
 11
-847.2968210822052
 21
-736.4930942289084
 31
0.0
  0
LINE
  5
235
330
1F
100
AcDbEntity
  8
D-0_通り芯
  6
Continuous
 62
     7
370
     9
100
AcDbLine
 10
-789.7971739417022
 20
-756.2390353910178
 30
0.0
 11
-789.7971739417022
 21
-754.7387531034201
 31
0.0
  0
LINE
  5
236
330
1F
100
AcDbEntity
  8
D-0_通り芯
  6
Continuous
 62
     7
370
     9
100
AcDbLine
 10
-789.7971739417022
 20
-754.7387531034201
 30
0.0
 11
-788.2969011908477
 21
-754.7387531034201
 31
0.0
  0
LINE
  5
237
330
1F
100
AcDbEntity
  8
D-0_通り芯
  6
Continuous
 62
     7
370
     9
100
AcDbLine
 10
-788.2969011908477
 20
-754.7387531034201
 30
0.0
 11
-788.2969011908477
 21
-756.2390353910178
 31
0.0
  0
LINE
  5
238
330
1F
100
AcDbEntity
  8
D-0_通り芯
  6
Continuous
 62
     7
370
     9
100
AcDbLine
 10
-788.2969011908477
 20
-756.2390353910178
 30
0.0
 11
-789.7971739417022
 21
-756.2390353910178
 31
0.0
  0
LINE
  5
239
330
1F
100
AcDbEntity
  8
D-0_通り芯
  6
Continuous
 62
     7
370
     9
100
AcDbLine
 10
-801.6443361884063
 20
-722.6709964505881
 30
0.0
 11
-801.6443361884063
 21
-721.1707141629904
 31
0.0
  0
LINE
  5
23A
330
1F
100
AcDbEntity
  8
D-0_通り芯
  6
Continuous
 62
     7
370
     9
100
AcDbLine
 10
-801.6443361884063
 20
-721.1707141629904
 30
0.0
 11
-800.1445498114532
 21
-721.1707141629904
 31
0.0
  0
LINE
  5
23B
330
1F
100
AcDbEntity
  8
D-0_通り芯
  6
Continuous
 62
     7
370
     9
100
AcDbLine
 10
-800.1445498114532
 20
-721.1707141629904
 30
0.0
 11
-800.1445498114532
 21
-722.6709964505881
 31
0.0
  0
LINE
  5
23C
330
1F
100
AcDbEntity
  8
D-0_通り芯
  6
Continuous
 62
     7
370
     9
100
AcDbLine
 10
-800.1445498114532
 20
-722.6709964505881
 30
0.0
 11
-801.6443361884063
 21
-722.6709964505881
 31
0.0
  0
LINE
  5
23D
330
1F
100
AcDbEntity
  8
D-0_通り芯
  6
Continuous
 62
     7
370
     9
100
AcDbLine
 10
-746.3559641486114
 20
-608.4872653714871
 30
0.0
 11
-746.3559641486114
 21
-606.9869830838894
 31
0.0
  0
LINE
  5
23E
330
1F
100
AcDbEntity
  8
D-0_通り芯
  6
Continuous
 62
     7
370
     9
100
AcDbLine
 10
-746.3559641486114
 20
-606.9869830838894
 30
0.0
 11
-744.8561777716583
 21
-606.9869830838894
 31
0.0
  0
LINE
  5
23F
330
1F
100
AcDbEntity
  8
D-0_通り芯
  6
Continuous
 62
     7
370
     9
100
AcDbLine
 10
-744.8561777716583
 20
-606.9869830838894
 30
0.0
 11
-744.8561777716583
 21
-608.4872653714871
 31
0.0
  0
LINE
  5
240
330
1F
100
AcDbEntity
  8
D-0_通り芯
  6
Continuous
 62
     7
370
     9
100
AcDbLine
 10
-744.8561777716583
 20
-608.4872653714871
 30
0.0
 11
-746.3559641486114
 21
-608.4872653714871
 31
0.0
  0
LINE
  5
241
330
1F
100
AcDbEntity
  8
D-0_通り芯
  6
Continuous
 62
     7
370
     9
100
AcDbLine
 10
-734.5083155280059
 20
-508.6037280790066
 30
0.0
 11
-734.5083155280059
 21
-507.1034457914089
 31
0.0
  0
LINE
  5
242
330
1F
100
AcDbEntity
  8
D-0_通り芯
  6
Continuous
 62
     7
370
     9
100
AcDbLine
 10
-734.5083155280059
 20
-507.1034457914089
 30
0.0
 11
-733.0085291510528
 21
-507.1034457914089
 31
0.0
  0
LINE
  5
243
330
1F
100
AcDbEntity
  8
D-0_通り芯
  6
Continuous
 62
     7
370
     9
100
AcDbLine
 10
-733.0085291510528
 20
-507.1034457914089
 30
0.0
 11
-733.0085291510528
 21
-508.6037280790066
 31
0.0
  0
LINE
  5
244
330
1F
100
AcDbEntity
  8
D-0_通り芯
  6
Continuous
 62
     7
370
     9
100
AcDbLine
 10
-733.0085291510528
 20
-508.6037280790066
 30
0.0
 11
-734.5083155280059
 21
-508.6037280790066
 31
0.0
  0
LINE
  5
245
330
1F
100
AcDbEntity
  8
D-0_通り芯
  6
Continuous
 62
     7
370
     9
100
AcDbLine
 10
-639.728108847708
 20
-516.5024783841824
 30
0.0
 11
-639.728108847708
 21
-515.0022342435574
 31
0.0
  0
LINE
  5
246
330
1F
100
AcDbEntity
  8
D-0_通り芯
  6
Continuous
 62
     7
370
     9
100
AcDbLine
 10
-639.728108847708
 20
-515.0022342435574
 30
0.0
 11
-638.2283224707548
 21
-515.0022342435574
 31
0.0
  0
LINE
  5
247
330
1F
100
AcDbEntity
  8
D-0_通り芯
  6
Continuous
 62
     7
370
     9
100
AcDbLine
 10
-638.2283224707548
 20
-515.0022342435574
 30
0.0
 11
-638.2283224707548
 21
-516.5024783841824
 31
0.0
  0
LINE
  5
248
330
1F
100
AcDbEntity
  8
D-0_通り芯
  6
Continuous
 62
     7
370
     9
100
AcDbLine
 10
-638.2283224707548
 20
-516.5024783841824
 30
0.0
 11
-639.728108847708
 21
-516.5024783841824
 31
0.0
  0
LINE
  5
249
330
1F
100
AcDbEntity
  8
D-0_通り芯
  6
Continuous
 62
     7
370
     9
100
AcDbLine
 10
-694.7484268790191
 20
-517.2456958524441
 30
0.0
 11
-694.7484268790191
 21
-515.7454135648464
 31
0.0
  0
LINE
  5
24A
330
1F
100
AcDbEntity
  8
D-0_通り芯
  6
Continuous
 62
     7
370
     9
100
AcDbLine
 10
-694.7484268790191
 20
-515.7454135648464
 30
0.0
 11
-693.248149359793
 21
-515.7454135648464
 31
0.0
  0
LINE
  5
24B
330
1F
100
AcDbEntity
  8
D-0_通り芯
  6
Continuous
 62
     7
370
     9
100
AcDbLine
 10
-693.248149359793
 20
-515.7454135648464
 30
0.0
 11
-693.248149359793
 21
-517.2456958524441
 31
0.0
  0
LINE
  5
24C
330
1F
100
AcDbEntity
  8
D-0_通り芯
  6
Continuous
 62
     7
370
     9
100
AcDbLine
 10
-693.248149359793
 20
-517.2456958524441
 30
0.0
 11
-694.7484268790191
 21
-517.2456958524441
 31
0.0
  0
LINE
  5
24D
330
1F
100
AcDbEntity
  8
D-0_通り芯
  6
Continuous
 62
     7
370
     9
100
AcDbLine
 10
-537.2519030219023
 20
-482.9344775907254
 30
0.0
 11
-537.2519030219023
 21
-481.4341953031277
 31
0.0
  0
LINE
  5
24E
330
1F
100
AcDbEntity
  8
D-0_通り芯
  6
Continuous
 62
     7
370
     9
100
AcDbLine
 10
-537.2519030219023
 20
-481.4341953031277
 30
0.0
 11
-535.7521357184355
 21
-481.4341953031277
 31
0.0
  0
LINE
  5
24F
330
1F
100
AcDbEntity
  8
D-0_通り芯
  6
Continuous
 62
     7
370
     9
100
AcDbLine
 10
-535.7521357184355
 20
-481.4341953031277
 30
0.0
 11
-535.7521357184355
 21
-482.9344775907254
 31
0.0
  0
LINE
  5
250
330
1F
100
AcDbEntity
  8
D-0_通り芯
  6
Continuous
 62
     7
370
     9
100
AcDbLine
 10
-535.7521357184355
 20
-482.9344775907254
 30
0.0
 11
-537.2519030219023
 21
-482.9344775907254
 31
0.0
  0
LINE
  5
251
330
1F
100
AcDbEntity
  8
D-0_通り芯
  6
Continuous
 62
     7
370
     9
100
AcDbLine
 10
-626.8740381842558
 20
-319.0432956449246
 30
0.0
 11
-626.8740381842558
 21
-317.5430515042996
 31
0.0
  0
LINE
  5
252
330
1F
100
AcDbEntity
  8
D-0_通り芯
  6
Continuous
 62
     7
370
     9
100
AcDbLine
 10
-626.8740381842558
 20
-317.5430515042996
 30
0.0
 11
-625.3737558966582
 21
-317.5430515042996
 31
0.0
  0
LINE
  5
253
330
1F
100
AcDbEntity
  8
D-0_通り芯
  6
Continuous
 62
     7
370
     9
100
AcDbLine
 10
-625.3737558966582
 20
-317.5430515042996
 30
0.0
 11
-625.3737558966582
 21
-319.0432956449246
 31
0.0
  0
LINE
  5
254
330
1F
100
AcDbEntity
  8
D-0_通り芯
  6
Continuous
 62
     7
370
     9
100
AcDbLine
 10
-625.3737558966582
 20
-319.0432956449246
 30
0.0
 11
-626.8740381842558
 21
-319.0432956449246
 31
0.0
  0
LINE
  5
255
330
1F
100
AcDbEntity
  8
D-0_通り芯
  6
Continuous
 62
     7
370
     9
100
AcDbLine
 10
-827.3140825873321
 20
-571.7908694974636
 30
0.0
 11
-827.3140825873321
 21
-570.290587209866
 31
0.0
  0
LINE
  5
256
330
1F
100
AcDbEntity
  8
D-0_通り芯
  6
Continuous
 62
     7
370
     9
100
AcDbLine
 10
-827.3140825873321
 20
-570.290587209866
 30
0.0
 11
-825.814296210379
 21
-570.290587209866
 31
0.0
  0
LINE
  5
257
330
1F
100
AcDbEntity
  8
D-0_通り芯
  6
Continuous
 62
     7
370
     9
100
AcDbLine
 10
-825.814296210379
 20
-570.290587209866
 30
0.0
 11
-825.814296210379
 21
-571.7908694974636
 31
0.0
  0
LINE
  5
258
330
1F
100
AcDbEntity
  8
D-0_通り芯
  6
Continuous
 62
     7
370
     9
100
AcDbLine
 10
-825.814296210379
 20
-571.7908694974636
 30
0.0
 11
-827.3140825873321
 21
-571.7908694974636
 31
0.0
  0
LINE
  5
259
330
1F
100
AcDbEntity
  8
D-0_通り芯
  6
Continuous
 62
     7
370
     9
100
AcDbLine
 10
-783.8733496313995
 20
-496.7565753690457
 30
0.0
 11
-783.8733496313995
 21
-495.256293081448
 31
0.0
  0
LINE
  5
25A
330
1F
100
AcDbEntity
  8
D-0_通り芯
  6
Continuous
 62
     7
370
     9
100
AcDbLine
 10
-783.8733496313995
 20
-495.256293081448
 30
0.0
 11
-782.373076880545
 21
-495.256293081448
 31
0.0
  0
LINE
  5
25B
330
1F
100
AcDbEntity
  8
D-0_通り芯
  6
Continuous
 62
     7
370
     9
100
AcDbLine
 10
-782.373076880545
 20
-495.256293081448
 30
0.0
 11
-782.373076880545
 21
-496.7565753690457
 31
0.0
  0
LINE
  5
25C
330
1F
100
AcDbEntity
  8
D-0_通り芯
  6
Continuous
 62
     7
370
     9
100
AcDbLine
 10
-782.373076880545
 20
-496.7565753690457
 30
0.0
 11
-783.8733496313995
 21
-496.7565753690457
 31
0.0
  0
LINE
  5
25D
330
1F
100
AcDbEntity
  8
D-0_通り芯
  6
Continuous
 62
     7
370
     9
100
AcDbLine
 10
-849.0344347601837
 20
-492.8071811429714
 30
0.0
 11
-849.0344347601837
 21
-491.3069370023464
 31
0.0
  0
LINE
  5
25E
330
1F
100
AcDbEntity
  8
D-0_通り芯
  6
Continuous
 62
     7
370
     9
100
AcDbLine
 10
-849.0344347601837
 20
-491.3069370023464
 30
0.0
 11
-847.5346483832305
 21
-491.3069370023464
 31
0.0
  0
LINE
  5
25F
330
1F
100
AcDbEntity
  8
D-0_通り芯
  6
Continuous
 62
     7
370
     9
100
AcDbLine
 10
-847.5346483832305
 20
-491.3069370023464
 30
0.0
 11
-847.5346483832305
 21
-492.8071811429714
 31
0.0
  0
LINE
  5
260
330
1F
100
AcDbEntity
  8
D-0_通り芯
  6
Continuous
 62
     7
370
     9
100
AcDbLine
 10
-847.5346483832305
 20
-492.8071811429714
 30
0.0
 11
-849.0344347601837
 21
-492.8071811429714
 31
0.0
  0
LINE
  5
261
330
1F
100
AcDbEntity
  8
D-0_通り芯
  6
Continuous
 62
     7
370
     9
100
AcDbLine
 10
-740.4321398383087
 20
-541.351263784573
 30
0.0
 11
-740.4321398383087
 21
-539.8509433500027
 31
0.0
  0
LINE
  5
262
330
1F
100
AcDbEntity
  8
D-0_通り芯
  6
Continuous
 62
     7
370
     9
100
AcDbLine
 10
-740.4321398383087
 20
-539.8509433500027
 30
0.0
 11
-738.9323534613555
 21
-539.8509433500027
 31
0.0
  0
LINE
  5
263
330
1F
100
AcDbEntity
  8
D-0_通り芯
  6
Continuous
 62
     7
370
     9
100
AcDbLine
 10
-738.9323534613555
 20
-539.8509433500027
 30
0.0
 11
-738.9323534613555
 21
-541.351263784573
 31
0.0
  0
LINE
  5
264
330
1F
100
AcDbEntity
  8
D-0_通り芯
  6
Continuous
 62
     7
370
     9
100
AcDbLine
 10
-738.9323534613555
 20
-541.351263784573
 30
0.0
 11
-740.4321398383087
 21
-541.351263784573
 31
0.0
  0
LINE
  5
265
330
1F
100
AcDbEntity
  8
D-0_通り芯
  6
Continuous
 62
     7
370
     9
100
AcDbLine
 10
-799.6698870306915
 20
-563.8926151029324
 30
0.0
 11
-799.6698870306915
 21
-562.3922946683621
 31
0.0
  0
LINE
  5
266
330
1F
100
AcDbEntity
  8
D-0_通り芯
  6
Continuous
 62
     7
370
     9
100
AcDbLine
 10
-799.6698870306915
 20
-562.3922946683621
 30
0.0
 11
-798.1696047430938
 21
-562.3922946683621
 31
0.0
  0
LINE
  5
267
330
1F
100
AcDbEntity
  8
D-0_通り芯
  6
Continuous
 62
     7
370
     9
100
AcDbLine
 10
-798.1696047430938
 20
-562.3922946683621
 30
0.0
 11
-798.1696047430938
 21
-563.8926151029324
 31
0.0
  0
LINE
  5
268
330
1F
100
AcDbEntity
  8
D-0_通り芯
  6
Continuous
 62
     7
370
     9
100
AcDbLine
 10
-798.1696047430938
 20
-563.8926151029324
 30
0.0
 11
-799.6698870306915
 21
-563.8926151029324
 31
0.0
  0
LINE
  5
269
330
1F
100
AcDbEntity
  8
D-0_通り芯
  6
Continuous
 62
     7
370
     9
100
AcDbLine
 10
-787.822238410086
 20
-636.9524219266629
 30
0.0
 11
-787.822238410086
 21
-635.4521396390652
 31
0.0
  0
LINE
  5
26A
330
1F
100
AcDbEntity
  8
D-0_通り芯
  6
Continuous
 62
     7
370
     9
100
AcDbLine
 10
-787.822238410086
 20
-635.4521396390652
 30
0.0
 11
-786.3224520331329
 21
-635.4521396390652
 31
0.0
  0
LINE
  5
26B
330
1F
100
AcDbEntity
  8
D-0_通り芯
  6
Continuous
 62
     7
370
     9
100
AcDbLine
 10
-786.3224520331329
 20
-635.4521396390652
 30
0.0
 11
-786.3224520331329
 21
-636.9524219266629
 31
0.0
  0
LINE
  5
26C
330
1F
100
AcDbEntity
  8
D-0_通り芯
  6
Continuous
 62
     7
370
     9
100
AcDbLine
 10
-786.3224520331329
 20
-636.9524219266629
 30
0.0
 11
-787.822238410086
 21
-636.9524219266629
 31
0.0
  0
LINE
  5
26D
330
1F
100
AcDbEntity
  8
D-0_通り芯
  6
Continuous
 62
     7
370
     9
100
AcDbLine
 10
-836.199809516043
 20
-635.9649493924832
 30
0.0
 11
-836.199809516043
 21
-634.4646671048855
 31
0.0
  0
LINE
  5
26E
330
1F
100
AcDbEntity
  8
D-0_通り芯
  6
Continuous
 62
     7
370
     9
100
AcDbLine
 10
-836.199809516043
 20
-634.4646671048855
 30
0.0
 11
-834.6995272284454
 21
-634.4646671048855
 31
0.0
  0
LINE
  5
26F
330
1F
100
AcDbEntity
  8
D-0_通り芯
  6
Continuous
 62
     7
370
     9
100
AcDbLine
 10
-834.6995272284454
 20
-634.4646671048855
 30
0.0
 11
-834.6995272284454
 21
-635.9649493924832
 31
0.0
  0
LINE
  5
270
330
1F
100
AcDbEntity
  8
D-0_通り芯
  6
Continuous
 62
     7
370
     9
100
AcDbLine
 10
-834.6995272284454
 20
-635.9649493924832
 30
0.0
 11
-836.199809516043
 21
-635.9649493924832
 31
0.0
  0
LINE
  5
271
330
1F
100
AcDbEntity
  8
D-0_通り芯
  6
Continuous
 62
     7
370
     9
100
AcDbLine
 10
-823.2467760687774
 20
-755.0707080594748
 30
0.0
 11
-823.2467760687774
 21
-753.5704257718771
 31
0.0
  0
LINE
  5
272
330
1F
100
AcDbEntity
  8
D-0_通り芯
  6
Continuous
 62
     7
370
     9
100
AcDbLine
 10
-823.2467760687774
 20
-753.5704257718771
 30
0.0
 11
-821.7464937811798
 21
-753.5704257718771
 31
0.0
  0
LINE
  5
273
330
1F
100
AcDbEntity
  8
D-0_通り芯
  6
Continuous
 62
     7
370
     9
100
AcDbLine
 10
-821.7464937811798
 20
-753.5704257718771
 30
0.0
 11
-821.7464937811798
 21
-755.0707080594748
 31
0.0
  0
LINE
  5
274
330
1F
100
AcDbEntity
  8
D-0_通り芯
  6
Continuous
 62
     7
370
     9
100
AcDbLine
 10
-821.7464937811798
 20
-755.0707080594748
 30
0.0
 11
-823.2467760687774
 21
-755.0707080594748
 31
0.0
  0
LINE
  5
275
330
1F
100
AcDbEntity
  8
D-0_通り芯
  6
Continuous
 62
     7
370
     9
100
AcDbLine
 10
-772.7208437567657
 20
-784.5783450834006
 30
0.0
 11
-772.7208437567657
 21
-783.0780627958029
 31
0.0
  0
LINE
  5
276
330
1F
100
AcDbEntity
  8
D-0_通り芯
  6
Continuous
 62
     7
370
     9
100
AcDbLine
 10
-772.7208437567657
 20
-783.0780627958029
 30
0.0
 11
-771.2210573798126
 21
-783.0780627958029
 31
0.0
  0
LINE
  5
277
330
1F
100
AcDbEntity
  8
D-0_通り芯
  6
Continuous
 62
     7
370
     9
100
AcDbLine
 10
-771.2210573798126
 20
-783.0780627958029
 30
0.0
 11
-771.2210573798126
 21
-784.5783450834006
 31
0.0
  0
LINE
  5
278
330
1F
100
AcDbEntity
  8
D-0_通り芯
  6
Continuous
 62
     7
370
     9
100
AcDbLine
 10
-771.2210573798126
 20
-784.5783450834006
 30
0.0
 11
-772.7208437567657
 21
-784.5783450834006
 31
0.0
  0
LINE
  5
279
330
1F
100
AcDbEntity
  8
D-0_通り芯
  6
Continuous
 62
     7
370
     9
100
AcDbLine
 10
-736.4827551489776
 20
-708.8488986722678
 30
0.0
 11
-736.4827551489776
 21
-707.3486545316428
 31
0.0
  0
LINE
  5
27A
330
1F
100
AcDbEntity
  8
D-0_通り芯
  6
Continuous
 62
     7
370
     9
100
AcDbLine
 10
-736.4827551489776
 20
-707.3486545316428
 30
0.0
 11
-734.9829687720245
 21
-707.3486545316428
 31
0.0
  0
LINE
  5
27B
330
1F
100
AcDbEntity
  8
D-0_通り芯
  6
Continuous
 62
     7
370
     9
100
AcDbLine
 10
-734.9829687720245
 20
-707.3486545316428
 30
0.0
 11
-734.9829687720245
 21
-708.8488986722678
 31
0.0
  0
LINE
  5
27C
330
1F
100
AcDbEntity
  8
D-0_通り芯
  6
Continuous
 62
     7
370
     9
100
AcDbLine
 10
-734.9829687720245
 20
-708.8488986722678
 30
0.0
 11
-736.4827551489776
 21
-708.8488986722678
 31
0.0
  0
LINE
  5
27D
330
1F
100
AcDbEntity
  8
D-0_通り芯
  6
Continuous
 62
     7
370
     9
100
AcDbLine
 10
-853.5154451971954
 20
-590.7856204740261
 30
0.0
 11
-853.5154451971954
 21
-589.2853763334011
 31
0.0
  0
LINE
  5
27E
330
1F
100
AcDbEntity
  8
D-0_通り芯
  6
Continuous
 62
     7
370
     9
100
AcDbLine
 10
-853.5154451971954
 20
-589.2853763334011
 30
0.0
 11
-852.0156588202423
 21
-589.2853763334011
 31
0.0
  0
LINE
  5
27F
330
1F
100
AcDbEntity
  8
D-0_通り芯
  6
Continuous
 62
     7
370
     9
100
AcDbLine
 10
-852.0156588202423
 20
-589.2853763334011
 30
0.0
 11
-852.0156588202423
 21
-590.7856204740261
 31
0.0
  0
LINE
  5
280
330
1F
100
AcDbEntity
  8
D-0_通り芯
  6
Continuous
 62
     7
370
     9
100
AcDbLine
 10
-852.0156588202423
 20
-590.7856204740261
 30
0.0
 11
-853.5154451971954
 21
-590.7856204740261
 31
0.0
  0
LINE
  5
281
330
1F
100
AcDbEntity
  8
D-0_通り芯
  6
Continuous
 62
     7
370
     9
100
AcDbLine
 10
-505.3848375922149
 20
-439.0557697049832
 30
0.0
 11
-505.3848375922149
 21
-437.5554874173855
 31
0.0
  0
LINE
  5
282
330
1F
100
AcDbEntity
  8
D-0_通り芯
  6
Continuous
 62
     7
370
     9
100
AcDbLine
 10
-505.3848375922149
 20
-437.5554874173855
 30
0.0
 11
-503.8845743781035
 21
-437.5554874173855
 31
0.0
  0
LINE
  5
283
330
1F
100
AcDbEntity
  8
D-0_通り芯
  6
Continuous
 62
     7
370
     9
100
AcDbLine
 10
-503.8845743781035
 20
-437.5554874173855
 30
0.0
 11
-503.8845743781035
 21
-439.0557697049832
 31
0.0
  0
LINE
  5
284
330
1F
100
AcDbEntity
  8
D-0_通り芯
  6
Continuous
 62
     7
370
     9
100
AcDbLine
 10
-503.8845743781035
 20
-439.0557697049832
 30
0.0
 11
-505.3848375922149
 21
-439.0557697049832
 31
0.0
  0
LINE
  5
285
330
1F
100
AcDbEntity
  8
D-0_通り芯
  6
Continuous
 62
     7
370
     9
100
AcDbLine
 10
-736.5937342291778
 20
-634.5196750394558
 30
0.0
 11
-736.5937342291778
 21
-633.0193927518582
 31
0.0
  0
LINE
  5
286
330
1F
100
AcDbEntity
  8
D-0_通り芯
  6
Continuous
 62
     7
370
     9
100
AcDbLine
 10
-736.5937342291778
 20
-633.0193927518582
 30
0.0
 11
-735.0939573889679
 21
-633.0193927518582
 31
0.0
  0
LINE
  5
287
330
1F
100
AcDbEntity
  8
D-0_通り芯
  6
Continuous
 62
     7
370
     9
100
AcDbLine
 10
-735.0939573889679
 20
-633.0193927518582
 30
0.0
 11
-735.0939573889679
 21
-634.5196750394558
 31
0.0
  0
LINE
  5
288
330
1F
100
AcDbEntity
  8
D-0_通り芯
  6
Continuous
 62
     7
370
     9
100
AcDbLine
 10
-735.0939573889679
 20
-634.5196750394558
 30
0.0
 11
-736.5937342291778
 21
-634.5196750394558
 31
0.0
  0
LINE
  5
289
330
1F
100
AcDbEntity
  8
D-0_通り芯
  6
Continuous
 62
     7
370
     9
100
AcDbLine
 10
-761.3240732794708
 20
-757.8656604520529
 30
0.0
 11
-761.3240732794708
 21
-756.3653781644553
 31
0.0
  0
LINE
  5
28A
330
1F
100
AcDbEntity
  8
D-0_通り芯
  6
Continuous
 62
     7
370
     9
100
AcDbLine
 10
-761.3240732794708
 20
-756.3653781644553
 30
0.0
 11
-759.8242869025177
 21
-756.3653781644553
 31
0.0
  0
LINE
  5
28B
330
1F
100
AcDbEntity
  8
D-0_通り芯
  6
Continuous
 62
     7
370
     9
100
AcDbLine
 10
-759.8242869025177
 20
-756.3653781644553
 30
0.0
 11
-759.8242869025177
 21
-757.8656604520529
 31
0.0
  0
LINE
  5
28C
330
1F
100
AcDbEntity
  8
D-0_通り芯
  6
Continuous
 62
     7
370
     9
100
AcDbLine
 10
-759.8242869025177
 20
-757.8656604520529
 30
0.0
 11
-761.3240732794708
 21
-757.8656604520529
 31
0.0
  0
LINE
  5
28D
330
1F
100
AcDbEntity
  8
D-0_通り芯
  6
Continuous
 62
     7
370
     9
100
AcDbLine
 10
-514.6684374457304
 20
-510.4953983060574
 30
0.0
 11
-514.6684374457304
 21
-508.9951541654324
 31
0.0
  0
LINE
  5
28E
330
1F
100
AcDbEntity
  8
D-0_通り芯
  6
Continuous
 62
     7
370
     9
100
AcDbLine
 10
-514.6684374457304
 20
-508.9951541654324
 30
0.0
 11
-513.1681551581328
 21
-508.9951541654324
 31
0.0
  0
LINE
  5
28F
330
1F
100
AcDbEntity
  8
D-0_通り芯
  6
Continuous
 62
     7
370
     9
100
AcDbLine
 10
-513.1681551581328
 20
-508.9951541654324
 30
0.0
 11
-513.1681551581328
 21
-510.4953983060574
 31
0.0
  0
LINE
  5
290
330
1F
100
AcDbEntity
  8
D-0_通り芯
  6
Continuous
 62
     7
370
     9
100
AcDbLine
 10
-513.1681551581328
 20
-510.4953983060574
 30
0.0
 11
-514.6684374457304
 21
-510.4953983060574
 31
0.0
  0
LINE
  5
291
330
1F
100
AcDbEntity
  8
D-0_通り芯
  6
Continuous
 62
     7
370
     9
100
AcDbLine
 10
-742.0780863409942
 20
-436.8494632474636
 30
0.0
 11
-742.0780863409942
 21
-435.3491428128933
 31
0.0
  0
LINE
  5
292
330
1F
100
AcDbEntity
  8
D-0_通り芯
  6
Continuous
 62
     7
370
     9
100
AcDbLine
 10
-742.0780863409942
 20
-435.3491428128933
 30
0.0
 11
-740.5778040533966
 21
-435.3491428128933
 31
0.0
  0
LINE
  5
293
330
1F
100
AcDbEntity
  8
D-0_通り芯
  6
Continuous
 62
     7
370
     9
100
AcDbLine
 10
-740.5778040533966
 20
-435.3491428128933
 30
0.0
 11
-740.5778040533966
 21
-436.8494632474636
 31
0.0
  0
LINE
  5
294
330
1F
100
AcDbEntity
  8
D-0_通り芯
  6
Continuous
 62
     7
370
     9
100
AcDbLine
 10
-740.5778040533966
 20
-436.8494632474636
 30
0.0
 11
-742.0780863409942
 21
-436.8494632474636
 31
0.0
  0
LINE
  5
295
330
1F
100
AcDbEntity
  8
D-0_通り芯
  6
Continuous
 62
     7
370
     9
100
AcDbLine
 10
-719.0962614661163
 20
-463.8906314603543
 30
0.0
 11
-719.0962614661163
 21
-462.3903873197293
 31
0.0
  0
LINE
  5
296
330
1F
100
AcDbEntity
  8
D-0_通り芯
  6
Continuous
 62
     7
370
     9
100
AcDbLine
 10
-719.0962614661163
 20
-462.3903873197293
 30
0.0
 11
-717.5959791785186
 21
-462.3903873197293
 31
0.0
  0
LINE
  5
297
330
1F
100
AcDbEntity
  8
D-0_通り芯
  6
Continuous
 62
     7
370
     9
100
AcDbLine
 10
-717.5959791785186
 20
-462.3903873197293
 30
0.0
 11
-717.5959791785186
 21
-463.8906314603543
 31
0.0
  0
LINE
  5
298
330
1F
100
AcDbEntity
  8
D-0_通り芯
  6
Continuous
 62
     7
370
     9
100
AcDbLine
 10
-717.5959791785186
 20
-463.8906314603543
 30
0.0
 11
-719.0962614661163
 21
-463.8906314603543
 31
0.0
  0
LINE
  5
299
330
1F
100
AcDbEntity
  8
D-0_通り芯
  6
Continuous
 62
     7
370
     9
100
AcDbLine
 10
-666.177221739859
 20
-492.613470815823
 30
0.0
 11
-666.177221739859
 21
-491.1131885282254
 31
0.0
  0
LINE
  5
29A
330
1F
100
AcDbEntity
  8
D-0_通り芯
  6
Continuous
 62
     7
370
     9
100
AcDbLine
 10
-666.177221739859
 20
-491.1131885282254
 30
0.0
 11
-664.6774353629058
 21
-491.1131885282254
 31
0.0
  0
LINE
  5
29B
330
1F
100
AcDbEntity
  8
D-0_通り芯
  6
Continuous
 62
     7
370
     9
100
AcDbLine
 10
-664.6774353629058
 20
-491.1131885282254
 30
0.0
 11
-664.6774353629058
 21
-492.613470815823
 31
0.0
  0
LINE
  5
29C
330
1F
100
AcDbEntity
  8
D-0_通り芯
  6
Continuous
 62
     7
370
     9
100
AcDbLine
 10
-664.6774353629058
 20
-492.613470815823
 30
0.0
 11
-666.177221739859
 21
-492.613470815823
 31
0.0
  0
LINE
  5
29D
330
1F
100
AcDbEntity
  8
D-0_通り芯
  6
Continuous
 62
     7
370
     9
100
AcDbLine
 10
-646.1181654578155
 20
-297.5409915677761
 30
0.0
 11
-646.1181654578155
 21
-296.0406711332058
 31
0.0
  0
LINE
  5
29E
330
1F
100
AcDbEntity
  8
D-0_通り芯
  6
Continuous
 62
     7
370
     9
100
AcDbLine
 10
-646.1181654578155
 20
-296.0406711332058
 30
0.0
 11
-644.6183790808624
 21
-296.0406711332058
 31
0.0
  0
LINE
  5
29F
330
1F
100
AcDbEntity
  8
D-0_通り芯
  6
Continuous
 62
     7
370
     9
100
AcDbLine
 10
-644.6183790808624
 20
-296.0406711332058
 30
0.0
 11
-644.6183790808624
 21
-297.5409915677761
 31
0.0
  0
LINE
  5
2A0
330
1F
100
AcDbEntity
  8
D-0_通り芯
  6
Continuous
 62
     7
370
     9
100
AcDbLine
 10
-644.6183790808624
 20
-297.5409915677761
 30
0.0
 11
-646.1181654578155
 21
-297.5409915677761
 31
0.0
  0
LINE
  5
2A1
330
1F
100
AcDbEntity
  8
D-0_通り芯
  6
Continuous
 62
     7
370
     9
100
AcDbLine
 10
-579.6333231574004
 20
-300.4400851957058
 30
0.0
 11
-579.6333231574004
 21
-298.9397647611355
 31
0.0
  0
LINE
  5
2A2
330
1F
100
AcDbEntity
  8
D-0_通り芯
  6
Continuous
 62
     7
370
     9
100
AcDbLine
 10
-579.6333231574004
 20
-298.9397647611355
 30
0.0
 11
-578.1335367804472
 21
-298.9397647611355
 31
0.0
  0
LINE
  5
2A3
330
1F
100
AcDbEntity
  8
D-0_通り芯
  6
Continuous
 62
     7
370
     9
100
AcDbLine
 10
-578.1335367804472
 20
-298.9397647611355
 30
0.0
 11
-578.1335367804472
 21
-300.4400851957058
 31
0.0
  0
LINE
  5
2A4
330
1F
100
AcDbEntity
  8
D-0_通り芯
  6
Continuous
 62
     7
370
     9
100
AcDbLine
 10
-578.1335367804472
 20
-300.4400851957058
 30
0.0
 11
-579.6333231574004
 21
-300.4400851957058
 31
0.0
  0
LINE
  5
2A5
330
1F
100
AcDbEntity
  8
D-0_通り芯
  6
Continuous
 62
     7
370
     9
100
AcDbLine
 10
-528.6616053229277
 20
-333.4917667142605
 30
0.0
 11
-528.6616053229277
 21
-331.9915225736355
 31
0.0
  0
LINE
  5
2A6
330
1F
100
AcDbEntity
  8
D-0_通り芯
  6
Continuous
 62
     7
370
     9
100
AcDbLine
 10
-528.6616053229277
 20
-331.9915225736355
 30
0.0
 11
-527.16132303533
 21
-331.9915225736355
 31
0.0
  0
LINE
  5
2A7
330
1F
100
AcDbEntity
  8
D-0_通り芯
  6
Continuous
 62
     7
370
     9
100
AcDbLine
 10
-527.16132303533
 20
-331.9915225736355
 30
0.0
 11
-527.16132303533
 21
-333.4917667142605
 31
0.0
  0
LINE
  5
2A8
330
1F
100
AcDbEntity
  8
D-0_通り芯
  6
Continuous
 62
     7
370
     9
100
AcDbLine
 10
-527.16132303533
 20
-333.4917667142605
 30
0.0
 11
-528.6616053229277
 21
-333.4917667142605
 31
0.0
  0
LINE
  5
2A9
330
1F
100
AcDbEntity
  8
D-6_躯体
  6
Continuous
 62
     6
370
     9
100
AcDbLine
 10
-463.6427225714629
 20
-483.4284427396511
 30
0.0
 11
-416.3026537543242
 21
-436.0883929959988
 31
0.0
  0
LINE
  5
2AA
330
1F
100
AcDbEntity
  8
D-6_躯体
  6
Continuous
 62
     6
370
     9
100
AcDbLine
 10
-713.6423887854522
 20
-761.7075183622092
 30
0.0
 11
-488.0217661505645
 21
-536.0883548490261
 31
0.0
  0
LINE
  5
2AB
330
1F
100
AcDbEntity
  8
D-6_躯体
  6
Continuous
 62
     6
370
     9
100
AcDbLine
 10
-463.6427225714629
 20
-511.7098453275418
 30
0.0
 11
-388.0210604315703
 21
-436.0883929959988
 31
0.0
  0
LINE
  5
2AC
330
1F
100
AcDbEntity
  8
D-6_躯体
  6
Continuous
 62
     6
370
     9
100
AcDbLine
 10
-374.4702257758086
 20
-786.0880496732443
 30
0.0
 11
-298.6417116766875
 21
-710.2599933377951
 31
0.0
  0
LINE
  5
2AD
330
1F
100
AcDbEntity
  8
D-6_躯体
  6
Continuous
 62
     6
370
     9
100
AcDbLine
 10
-388.6108889227813
 20
-786.0880496732443
 30
0.0
 11
-298.6417116766875
 21
-696.1193301908224
 31
0.0
  0
LINE
  5
2AE
330
1F
100
AcDbEntity
  8
D-6_躯体
  6
Continuous
 62
     6
370
     9
100
AcDbLine
 10
-360.329562628836
 20
-786.0880496732443
 30
0.0
 11
-298.6417116766875
 21
-724.4006946317404
 31
0.0
  0
LINE
  5
2AF
330
1F
100
AcDbEntity
  8
D-6_躯体
  6
Continuous
 62
     6
370
     9
100
AcDbLine
 10
-713.6423887854522
 20
-733.4261539212912
 30
0.0
 11
-516.3031115179961
 21
-536.0883548490261
 31
0.0
  0
LINE
  5
2B0
330
1F
100
AcDbEntity
  8
D-6_躯体
  6
Continuous
 62
     6
370
     9
100
AcDbLine
 10
-713.6423887854522
 20
-747.5678088895529
 30
0.0
 11
-502.1619524603789
 21
-536.0883548490261
 31
0.0
  0
LINE
  5
2B1
330
1F
100
AcDbEntity
  8
D-6_躯体
  6
Continuous
 62
     6
370
     9
100
AcDbLine
 10
-463.6427225714629
 20
-497.5691440335964
 30
0.0
 11
-402.1619906073516
 21
-436.0883929959988
 31
0.0
  0
LINE
  5
2B2
330
1F
100
AcDbEntity
  8
D-4_寸法
  6
Continuous
 62
     7
370
     9
100
AcDbLine
 10
-698.6415733939117
 20
-479.1193607084011
 30
0.0
 11
-863.6424746161407
 21
-479.1193607084011
 31
0.0
  0
LINE
  5
2B3
330
1F
100
AcDbEntity
  8
D-9_ｸｯｼｮﾝ材
  6
Continuous
 62
     4
370
     9
100
AcDbLine
 10
-814.8919214850372
 20
-368.5878207914089
 30
0.0
 11
-831.1421885138458
 21
-368.5878207914089
 31
0.0
  0
LINE
  5
2B4
330
1F
100
AcDbEntity
  8
D-9_ｸｯｼｮﾝ材
  6
Continuous
 62
     4
370
     9
100
AcDbLine
 10
-733.6416163092559
 20
-363.5879352323269
 30
0.0
 11
-831.1421885138458
 21
-363.5879352323269
 31
0.0
  0
LINE
  5
2B5
330
1F
100
AcDbEntity
  8
D-9_ｸｯｼｮﾝ材
  6
Continuous
 62
     4
370
     9
100
AcDbLine
 10
-831.1421885138458
 20
-363.5879352323269
 30
0.0
 11
-831.1421885138458
 21
-368.5878207914089
 31
0.0
  0
ARC
  5
2B6
330
1F
100
AcDbEntity
  8
D-1_ピット
  6
Continuous
 62
     2
370
     9
100
AcDbCircle
 10
-703.6415972357696
 20
-381.0878970853543
 30
0.0
 40
5.0
100
AcDbArc
 50
0.0
 51
180.0
  0
ARC
  5
2B7
330
1F
100
AcDbEntity
  8
D-1_ピット
  6
Continuous
 62
     2
370
     9
100
AcDbCircle
 10
-703.6415972357696
 20
-301.0881259671902
 30
0.0
 40
5.0
100
AcDbArc
 50
180.0
 51
0.0
  0
ARC
  5
2B8
330
1F
100
AcDbEntity
  8
D-1_ピット
  6
Continuous
 62
     2
370
     9
100
AcDbCircle
 10
-767.3918261176055
 20
-372.3378970853543
 30
0.0
 40
3.750000298023224
100
AcDbArc
 50
90.0
 51
270.0
  0
ARC
  5
2B9
330
1F
100
AcDbEntity
  8
D-1_ピット
  6
Continuous
 62
     2
370
     9
100
AcDbCircle
 10
-738.6415114050811
 20
-403.5877444974636
 30
0.0
 40
5.0
100
AcDbArc
 50
270.0
 51
0.0
  0
ARC
  5
2BA
330
1F
100
AcDbEntity
  8
D-1_ピット
  6
Continuous
 62
     2
370
     9
100
AcDbCircle
 10
-738.6415114050811
 20
-381.0878970853543
 30
0.0
 40
5.0
100
AcDbArc
 50
0.0
 51
90.0
  0
ARC
  5
2BB
330
1F
100
AcDbEntity
  8
D-1_ピット
  6
Continuous
 62
     2
370
     9
100
AcDbCircle
 10
-819.8915781622833
 20
-372.3378970853543
 30
0.0
 40
3.750000298023224
100
AcDbArc
 50
270.0
 51
90.0
  0
ARC
  5
2BC
330
1F
100
AcDbEntity
  8
D-1_ピット
  6
Continuous
 62
     2
370
     9
100
AcDbCircle
 10
-700.1416029578155
 20
-287.5881412259793
 30
0.0
 40
1.500000059604645
100
AcDbArc
 50
0.0
 51
90.0
  0
ARC
  5
2BD
330
1F
100
AcDbEntity
  8
D-1_ピット
  6
Continuous
 62
     2
370
     9
100
AcDbCircle
 10
-732.1413340216583
 20
-287.5881412259793
 30
0.0
 40
1.500000059604645
100
AcDbArc
 50
90.0
 51
180.0
  0
ARC
  5
2BE
330
1F
100
AcDbEntity
  8
D-1_ピット
  6
Continuous
 62
     2
370
     9
100
AcDbCircle
 10
-700.1416029578155
 20
-394.5879581205105
 30
0.0
 40
1.500000059604645
100
AcDbArc
 50
270.0
 51
0.0
  0
ARC
  5
2BF
330
1F
100
AcDbEntity
  8
D-1_ピット
  6
Continuous
 62
     2
370
     9
100
AcDbCircle
 10
-725.1415934210723
 20
-414.5881488553738
 30
0.0
 40
1.500000059604645
100
AcDbArc
 50
270.0
 51
0.0
  0
ARC
  5
2C0
330
1F
100
AcDbEntity
  8
D-1_ピット
  6
Continuous
 62
     2
370
     9
100
AcDbCircle
 10
-862.1415629034942
 20
-414.5881488553738
 30
0.0
 40
1.500000059604645
100
AcDbArc
 50
180.0
 51
270.0
  0
ARC
  5
2C1
330
1F
100
AcDbEntity
  8
D-1_ピット
  6
Continuous
 62
     2
370
     9
100
AcDbCircle
 10
-850.1413073187774
 20
-370.0881412259793
 30
0.0
 40
1.500000059604645
100
AcDbArc
 50
0.0
 51
90.0
  0
ARC
  5
2C2
330
1F
100
AcDbEntity
  8
D-1_ピット
  6
Continuous
 62
     2
370
     9
100
AcDbCircle
 10
-751.141444647879
 20
-403.5877444974636
 30
0.0
 40
5.0
100
AcDbArc
 50
180.0
 51
270.0
  0
ARC
  5
2C3
330
1F
100
AcDbEntity
  8
D-1_ピット
  6
Continuous
 62
     2
370
     9
100
AcDbCircle
 10
-751.141444647879
 20
-381.0878970853543
 30
0.0
 40
5.0
100
AcDbArc
 50
90.0
 51
180.0
  0
ARC
  5
2C4
330
1F
100
AcDbEntity
  8
D-1_ピット
  6
Continuous
 62
     2
370
     9
100
AcDbCircle
 10
-766.1416353827423
 20
-403.5877444974636
 30
0.0
 40
5.0
100
AcDbArc
 50
270.0
 51
0.0
  0
ARC
  5
2C5
330
1F
100
AcDbEntity
  8
D-1_ピット
  6
Continuous
 62
     2
370
     9
100
AcDbCircle
 10
-821.1417688971466
 20
-403.5877444974636
 30
0.0
 40
5.0
100
AcDbArc
 50
180.0
 51
270.0
  0
ARC
  5
2C6
330
1F
100
AcDbEntity
  8
D-9_ｸｯｼｮﾝ材
  6
Continuous
 62
     4
370
     9
100
AcDbCircle
 10
-793.6417688971466
 20
-267.9634311429714
 30
0.0
 40
118.1243324279785
100
AcDbArc
 50
262.7046203613281
 51
277.2953796386719
  0
ARC
  5
2C7
330
1F
100
AcDbEntity
  8
D-9_ｸｯｼｮﾝ材
  6
Continuous
 62
     4
370
     9
100
AcDbCircle
 10
-793.6417688971466
 20
-267.9634311429714
 30
0.0
 40
122.1243381500244
100
AcDbArc
 50
255.295166015625
 51
284.704833984375
  0
ARC
  5
2C8
330
1F
100
AcDbEntity
  8
D-A
  6
Continuous
 62
     3
370
     9
100
AcDbCircle
 10
-648.286334479422
 20
-341.0887363187527
 30
0.0
 40
25.0
100
AcDbArc
 50
225.0
 51
270.0
  0
ARC
  5
2C9
330
1F
100
AcDbEntity
  8
D-A
  6
Continuous
 62
     3
370
     9
100
AcDbCircle
 10
-677.1416964178985
 20
-332.0884921781277
 30
0.0
 40
6.499999761581421
100
AcDbArc
 50
0.0
 51
90.0
  0
ARC
  5
2CA
330
1F
100
AcDbEntity
  8
D-A
  6
JWW_DASHED3
 62
     3
370
     9
100
AcDbCircle
 10
-677.1416964178985
 20
-355.0886752835964
 30
0.0
 40
6.499999761581421
100
AcDbArc
 50
270.0
 51
0.0
  0
ARC
  5
2CB
330
1F
100
AcDbEntity
  8
D-A
  6
Continuous
 62
     3
370
     9
100
AcDbCircle
 10
-693.6416735297149
 20
-395.2305820218777
 30
0.0
 40
10.0
100
AcDbArc
 50
0.0
 51
44.99999999999995
  0
ARC
  5
2CC
330
1F
100
AcDbEntity
  8
D-A
  6
Continuous
 62
     3
370
     9
100
AcDbCircle
 10
-568.6419596320097
 20
-376.0886218778347
 30
0.0
 40
10.0
100
AcDbArc
 50
0.0
 51
90.0
  0
LWPOLYLINE
  5
2CD
330
1F
100
AcDbEntity
  8
D-4_寸法
  6
Continuous
 62
     7
370
     9
100
AcDbPolyline
 90
        4
 70
     1
 43
2.0
 10
-474.5924334174101
 20
-286.0882022611355
 42
0.4142135623731
 10
-475.5924334174102
 20
-285.0882022611355
 42
0.4142135623731
 10
-476.5924334174102
 20
-286.0882022611355
 42
0.4142135623731
 10
-475.5924334174102
 20
-287.0882022611355
 42
0.4142135623731
  0
LWPOLYLINE
  5
2CE
330
1F
100
AcDbEntity
  8
D-4_寸法
  6
Continuous
 62
     7
370
     9
100
AcDbPolyline
 90
        4
 70
     1
 43
2.0
 10
-474.5924334174101
 20
-366.0891940824246
 42
0.4142135623731
 10
-475.5924334174102
 20
-365.0891940824246
 42
0.4142135623731
 10
-476.5924334174102
 20
-366.0891940824246
 42
0.4142135623731
 10
-475.5924334174102
 20
-367.0891940824246
 42
0.4142135623731
  0
LWPOLYLINE
  5
2CF
330
1F
100
AcDbEntity
  8
D-4_寸法
  6
Continuous
 62
     7
370
     9
100
AcDbPolyline
 90
        4
 70
     1
 43
2.0
 10
-474.5924334174101
 20
-416.0884311429714
 42
0.4142135623731
 10
-475.5924334174102
 20
-415.0884311429714
 42
0.4142135623731
 10
-476.5924334174102
 20
-416.0884311429714
 42
0.4142135623731
 10
-475.5924334174102
 20
-417.0884311429714
 42
0.4142135623731
  0
LWPOLYLINE
  5
2D0
330
1F
100
AcDbEntity
  8
D-4_寸法
  6
Continuous
 62
     7
370
     9
100
AcDbPolyline
 90
        4
 70
     1
 43
2.0
 10
-190.9572939520781
 20
-286.0882022611355
 42
0.4142135623731
 10
-191.9572939520781
 20
-285.0882022611355
 42
0.4142135623731
 10
-192.9572939520781
 20
-286.0882022611355
 42
0.4142135623731
 10
-191.9572939520781
 20
-287.0882022611355
 42
0.4142135623731
  0
LWPOLYLINE
  5
2D1
330
1F
100
AcDbEntity
  8
D-4_寸法
  6
Continuous
 62
     7
370
     9
100
AcDbPolyline
 90
        4
 70
     1
 43
2.0
 10
-190.9572939520781
 20
-536.0884311429714
 42
0.4142135623731
 10
-191.9572939520781
 20
-535.0884311429714
 42
0.4142135623731
 10
-192.9572939520781
 20
-536.0884311429714
 42
0.4142135623731
 10
-191.9572939520781
 20
-537.0884311429714
 42
0.4142135623731
  0
LWPOLYLINE
  5
2D2
330
1F
100
AcDbEntity
  8
D-4_寸法
  6
Continuous
 62
     7
370
     9
100
AcDbPolyline
 90
        4
 70
     1
 43
2.0
 10
-557.6414255743925
 20
-479.1193607084011
 42
0.4142135623731
 10
-558.6414255743925
 20
-478.1193607084011
 42
0.4142135623731
 10
-559.6414255743925
 20
-479.1193607084011
 42
0.4142135623731
 10
-558.6414255743925
 20
-480.1193607084011
 42
0.4142135623731
  0
LWPOLYLINE
  5
2D3
330
1F
100
AcDbEntity
  8
D-4_寸法
  6
Continuous
 62
     7
370
     9
100
AcDbPolyline
 90
        4
 70
     1
 43
2.0
 10
-697.6415733939118
 20
-479.1193607084011
 42
0.4142135623731
 10
-698.6415733939117
 20
-478.1193607084011
 42
0.4142135623731
 10
-699.6415733939116
 20
-479.1193607084011
 42
0.4142135623731
 10
-698.6415733939117
 20
-480.1193607084011
 42
0.4142135623731
  0
LWPOLYLINE
  5
2D4
330
1F
100
AcDbEntity
  8
D-4_寸法
  6
Continuous
 62
     7
370
     9
100
AcDbPolyline
 90
        4
 70
     1
 43
2.0
 10
-1008.124957526297
 20
-286.0882022611355
 42
0.4142135623731
 10
-1009.124957526297
 20
-285.0882022611355
 42
0.4142135623731
 10
-1010.124957526297
 20
-286.0882022611355
 42
0.4142135623731
 10
-1009.124957526297
 20
-287.0882022611355
 42
0.4142135623731
  0
LWPOLYLINE
  5
2D5
330
1F
100
AcDbEntity
  8
D-4_寸法
  6
Continuous
 62
     7
370
     9
100
AcDbPolyline
 90
        4
 70
     1
 43
2.0
 10
-1008.124957526297
 20
-416.0884311429714
 42
0.4142135623731
 10
-1009.124957526297
 20
-415.0884311429714
 42
0.4142135623731
 10
-1010.124957526297
 20
-416.0884311429714
 42
0.4142135623731
 10
-1009.124957526297
 20
-417.0884311429714
 42
0.4142135623731
  0
LWPOLYLINE
  5
2D6
330
1F
100
AcDbEntity
  8
D-4_寸法
  6
Continuous
 62
     7
370
     9
100
AcDbPolyline
 90
        4
 70
     1
 43
2.0
 10
-862.6424746161408
 20
-691.706755422756
 42
0.4142135623731
 10
-863.6424746161407
 20
-690.706755422756
 42
0.4142135623731
 10
-864.6424746161406
 20
-691.706755422756
 42
0.4142135623731
 10
-863.6424746161407
 20
-692.706755422756
 42
0.4142135623731
  0
LWPOLYLINE
  5
2D7
330
1F
100
AcDbEntity
  8
D-4_寸法
  6
Continuous
 62
     7
370
     9
100
AcDbPolyline
 90
        4
 70
     1
 43
2.0
 10
-712.6428846960969
 20
-691.706755422756
 42
0.4142135623731
 10
-713.6428846960968
 20
-690.706755422756
 42
0.4142135623731
 10
-714.6428846960966
 20
-691.706755422756
 42
0.4142135623731
 10
-713.6428846960968
 20
-692.706755422756
 42
0.4142135623731
  0
LWPOLYLINE
  5
2D8
330
1F
100
AcDbEntity
  8
D-4_寸法
  6
Continuous
 62
     7
370
     9
100
AcDbPolyline
 90
        4
 70
     1
 43
2.0
 10
-462.6417307501738
 20
-846.1715533963888
 42
0.4142135623731
 10
-463.6417307501738
 20
-845.1715533963888
 42
0.4142135623731
 10
-464.6417307501738
 20
-846.1715533963888
 42
0.4142135623731
 10
-463.6417307501738
 20
-847.1715533963888
 42
0.4142135623731
  0
LWPOLYLINE
  5
2D9
330
1F
100
AcDbEntity
  8
D-4_寸法
  6
Continuous
 62
     7
370
     9
100
AcDbPolyline
 90
        4
 70
     1
 43
2.0
 10
-862.6424746161408
 20
-846.1715533963888
 42
0.4142135623731
 10
-863.6424746161407
 20
-845.1715533963888
 42
0.4142135623731
 10
-864.6424746161406
 20
-846.1715533963888
 42
0.4142135623731
 10
-863.6424746161407
 20
-847.1715533963888
 42
0.4142135623731
  0
LWPOLYLINE
  5
2DA
330
1F
100
AcDbEntity
  8
D-4_寸法
  6
Continuous
 62
     7
370
     9
100
AcDbPolyline
 90
        4
 70
     1
 43
2.0
 10
-862.6424746161408
 20
-479.1193607084011
 42
0.4142135623731
 10
-863.6424746161407
 20
-478.1193607084011
 42
0.4142135623731
 10
-864.6424746161406
 20
-479.1193607084011
 42
0.4142135623731
 10
-863.6424746161407
 20
-480.1193607084011
 42
0.4142135623731
  0
TEXT
  5
2DB
330
1F
100
AcDbEntity
  8
D-4_寸法
  6
Continuous
 62
     2
370
     9
100
AcDbText
 10
-486.2322045355742
 20
-346.1300878836443
 30
0.0
 40
30.48
  1
16
 50
90.00000250447819
 41
1.062500000000001
  7
ＭＳ ゴシック
100
AcDbText
  0
TEXT
  5
2DC
330
1F
100
AcDbEntity
  8
D-4_寸法
  6
Continuous
 62
     2
370
     9
100
AcDbText
 10
-684.07842285788
 20
-468.480199944126
 30
0.0
 40
30.48
  1
28
 50
0.0016456738203048
 41
1.0625
  7
ＭＳ ゴシック
100
AcDbText
  0
TEXT
  5
2DD
330
1F
100
AcDbEntity
  8
D-4_寸法
  6
Continuous
 62
     2
370
     9
100
AcDbText
 10
-486.2327004462188
 20
-412.3387365652849
 30
0.0
 40
30.48
  1
10
 50
90.00000250447819
 41
1.062500000000001
  7
ＭＳ ゴシック
100
AcDbText
  0
TEXT
  5
2DE
330
1F
100
AcDbEntity
  8
D-4_寸法
  6
Continuous
 62
     2
370
     9
100
AcDbText
 10
-854.892608130545
 20
-681.0674039212912
 30
0.0
 40
30.48
  1
25～30
 41
1.104166666666667
  7
ＭＳ ゴシック
100
AcDbText
  0
TEXT
  5
2DF
330
1F
100
AcDbEntity
  8
D-4_寸法
  6
Continuous
 62
     2
370
     9
100
AcDbText
 10
-202.5975609808867
 20
-481.6011648489763
 30
0.0
 40
30.48
  1
40～50
 50
90.00000250447816
 41
1.104166666666667
  7
ＭＳ ゴシック
100
AcDbText
  0
TEXT
  5
2E0
330
1F
100
AcDbEntity
  8
D-4_寸法
  6
Continuous
 62
     2
370
     9
100
AcDbText
 10
-731.5109743720001
 20
-835.5312863675803
 30
0.0
 40
30.48
  1
75～80
 41
1.104166666666667
  7
ＭＳ ゴシック
100
AcDbText
  0
TEXT
  5
2E1
330
1F
100
AcDbEntity
  8
D-4_寸法
  6
Continuous
 62
     2
370
     9
100
AcDbText
 10
-802.3920168524688
 20
-467.4793759671902
 30
0.0
 40
30.48
  1
33
 41
1.0625
  7
ＭＳ ゴシック
100
AcDbText
  0
TEXT
  5
2E2
330
1F
100
AcDbEntity
  8
D-4_寸法
  6
Continuous
 62
     2
370
     9
100
AcDbText
 10
-1019.765262702078
 20
-415.4557179036386
 30
0.0
 40
30.48
  1
26
 50
90.00000250447809
 41
1.062500000000001
  7
ＭＳ ゴシック
100
AcDbText
  0
LINE
  5
2E3
330
1F
100
AcDbEntity
  8
D-4_寸法
  6
Continuous
 62
     7
370
     9
100
AcDbLine
 10
-1470.042404294845
 20
-286.0882022611355
 30
0.0
 11
-1470.042404294845
 21
-298.5881259671902
 31
0.0
  0
LWPOLYLINE
  5
2E4
330
1F
100
AcDbEntity
  8
D-4_寸法
  6
Continuous
 62
     7
370
     9
100
AcDbPolyline
 90
        4
 70
     1
 43
2.0
 10
-1469.042404294846
 20
-286.0882022611355
 42
0.4142135623731
 10
-1470.042404294845
 20
-285.0882022611355
 42
0.4142135623731
 10
-1471.042404294845
 20
-286.0882022611355
 42
0.4142135623731
 10
-1470.042404294845
 20
-287.0882022611355
 42
0.4142135623731
  0
LWPOLYLINE
  5
2E5
330
1F
100
AcDbEntity
  8
D-4_寸法
  6
Continuous
 62
     7
370
     9
100
AcDbPolyline
 90
        4
 70
     1
 43
2.0
 10
-1469.042404294846
 20
-298.5881259671902
 42
0.4142135623731
 10
-1470.042404294845
 20
-297.5881259671902
 42
0.4142135623731
 10
-1471.042404294845
 20
-298.5881259671902
 42
0.4142135623731
 10
-1470.042404294845
 20
-299.5881259671902
 42
0.4142135623731
  0
LINE
  5
2E6
330
1F
100
AcDbEntity
  8
D-4_寸法
  6
Continuous
 62
     7
370
     9
100
AcDbLine
 10
-1546.419710833391
 20
-286.0882022611355
 30
0.0
 11
-1446.016222441763
 21
-286.0882022611355
 31
0.0
  0
LINE
  5
2E7
330
1F
100
AcDbEntity
  8
D-4_寸法
  6
Continuous
 62
     7
370
     9
100
AcDbLine
 10
-1473.042404294846
 20
-298.5881259671902
 30
0.0
 11
-1446.016222441763
 21
-298.5881259671902
 31
0.0
  0
LINE
  5
2E8
330
1F
100
AcDbEntity
  8
D-4_寸法
  6
Continuous
 62
     7
370
     9
100
AcDbLine
 10
-1470.042404294845
 20
-298.5881259671902
 30
0.0
 11
-1470.042404294845
 21
-323.5882022611355
 31
0.0
  0
LWPOLYLINE
  5
2E9
330
1F
100
AcDbEntity
  8
D-4_寸法
  6
Continuous
 62
     7
370
     9
100
AcDbPolyline
 90
        4
 70
     1
 43
2.0
 10
-1469.042404294846
 20
-323.5882022611355
 42
0.4142135623731
 10
-1470.042404294845
 20
-322.5882022611355
 42
0.4142135623731
 10
-1471.042404294845
 20
-323.5882022611355
 42
0.4142135623731
 10
-1470.042404294845
 20
-324.5882022611355
 42
0.4142135623731
  0
LINE
  5
2EA
330
1F
100
AcDbEntity
  8
D-4_寸法
  6
Continuous
 62
     7
370
     9
100
AcDbLine
 10
-1473.042404294846
 20
-323.5882022611355
 30
0.0
 11
-1446.016222441763
 21
-323.5882022611355
 31
0.0
  0
TEXT
  5
2EB
330
1F
100
AcDbEntity
  8
D-4_寸法
  6
Continuous
 62
     2
370
   211
100
AcDbText
 10
-1481.682404294846
 20
-321.0881641141629
 30
0.0
 40
30.48
  1
5
 50
90.0
 41
0.9999999999999998
  7
ＭＳ ゴシック
100
AcDbText
  0
TEXT
  5
2EC
330
1F
100
AcDbEntity
  8
D-4_寸法
  6
Continuous
 62
     2
370
   211
100
AcDbText
 10
-1481.682404294846
 20
-277.4176365975052
 30
0.0
 40
30.48
  1
2.5
 50
90.0
 41
1.083333333333333
  7
ＭＳ ゴシック
100
AcDbText
  0
LINE
  5
2ED
330
1F
100
AcDbEntity
  8
D-4_寸法
  6
Continuous
 62
     7
370
     9
100
AcDbLine
 10
-1543.419680315812
 20
-363.5879352323269
 30
0.0
 11
-1543.419680315812
 21
-286.0882022611355
 31
0.0
  0
LINE
  5
2EE
330
1F
100
AcDbEntity
  8
D-4_寸法
  6
Continuous
 62
     7
370
     9
100
AcDbLine
 10
-1446.016222441763
 20
-363.5879352323269
 30
0.0
 11
-1546.419710833391
 21
-363.5879352323269
 31
0.0
  0
LWPOLYLINE
  5
2EF
330
1F
100
AcDbEntity
  8
D-4_寸法
  6
Continuous
 62
     7
370
     9
100
AcDbPolyline
 90
        4
 70
     1
 43
2.0
 10
-1542.419680315812
 20
-286.0882022611355
 42
0.4142135623731
 10
-1543.419680315812
 20
-285.0882022611355
 42
0.4142135623731
 10
-1544.419680315812
 20
-286.0882022611355
 42
0.4142135623731
 10
-1543.419680315812
 20
-287.0882022611355
 42
0.4142135623731
  0
LWPOLYLINE
  5
2F0
330
1F
100
AcDbEntity
  8
D-4_寸法
  6
Continuous
 62
     7
370
     9
100
AcDbPolyline
 90
        4
 70
     1
 43
2.0
 10
-1542.419680315812
 20
-363.5879352323269
 42
0.4142135623731
 10
-1543.419680315812
 20
-362.5879352323269
 42
0.4142135623731
 10
-1544.419680315812
 20
-363.5879352323269
 42
0.4142135623731
 10
-1543.419680315812
 20
-364.5879352323269
 42
0.4142135623731
  0
TEXT
  5
2F1
330
1F
100
AcDbEntity
  8
D-4_寸法
  6
Continuous
 62
     2
370
     9
100
AcDbText
 10
-1554.059909197648
 20
-368.5882025076677
 30
0.0
 40
30.48
  1
15.5
 50
90.00000250447815
 41
1.093750000000001
  7
ＭＳ ゴシック
100
AcDbText
  0
TEXT
  5
2F2
330
1F
100
AcDbEntity
  8
D-5_仕様文
  6
Continuous
 62
     7
370
     9
100
AcDbText
 10
-1381.650221272033
 20
-521.0754645292019
 30
0.0
 40
22.86
  1
蓋プレート
 41
1.133333333333333
  7
ＭＳ ゴシック
100
AcDbText
  0
LINE
  5
2F3
330
1F
100
AcDbEntity
  8
D-5_仕様文
  6
Continuous
 62
     7
370
     9
100
AcDbLine
 10
-1426.175676787466
 20
-532.1880176297879
 30
0.0
 11
-1192.84248028918
 21
-532.1880176297879
 31
0.0
  0
LINE
  5
2F4
330
1F
100
AcDbEntity
  8
D-5_仕様文
  6
Continuous
 62
     7
370
     9
100
AcDbLine
 10
-466.3772072440093
 20
-235.1424625150418
 30
0.0
 11
-72.69108021609952
 21
-235.1424625150418
 31
0.0
  0
LINE
  5
2F5
330
1F
100
AcDbEntity
  8
D-5_仕様文
  6
Continuous
 62
     7
370
     9
100
AcDbLine
 10
-524.297052825064
 20
-178.0400302640652
 30
0.0
 11
-739.1252388602203
 21
-424.8652866117214
 31
0.0
  0
TEXT
  5
2F6
330
1F
100
AcDbEntity
  8
D-5_仕様文
  6
Continuous
 62
     7
370
     9
100
AcDbText
 10
-520.4197182303374
 20
-15.95663670937769
 30
0.0
 40
22.86
  1
蓋フレーム
 41
1.133333333333333
  7
ＭＳ ゴシック
100
AcDbText
  0
TEXT
  5
2F7
330
1F
100
AcDbEntity
  8
D-5_仕様文
  6
Continuous
 62
     7
370
     9
100
AcDbText
 10
-520.8903265979129
 20
-77.59962682168238
 30
0.0
 40
22.86
  1
受枠フレーム
 41
1.138888888888889
  7
ＭＳ ゴシック
100
AcDbText
  0
LINE
  5
2F8
330
1F
100
AcDbEntity
  8
D-5_仕様文
  6
Continuous
 62
     7
370
     9
100
AcDbLine
 10
-521.5285744315092
 20
-23.25311925332301
 30
0.0
 11
-326.1621638683944
 21
-23.25311925332301
 31
0.0
  0
LINE
  5
2F9
330
1F
100
AcDbEntity
  8
D-5_仕様文
  6
Continuous
 62
     7
370
     9
100
AcDbLine
 10
-300.0491433263174
 20
-86.58876683633082
 30
0.0
 11
-536.3485207205717
 21
-86.58876683633082
 31
0.0
  0
LINE
  5
2FA
330
1F
100
AcDbEntity
  8
D-5_仕様文
  6
Continuous
 62
     7
370
     9
100
AcDbLine
 10
-524.297052825064
 20
-178.0400302640652
 30
0.0
 11
-323.2607171414969
 21
-178.0400302640652
 31
0.0
  0
TEXT
  5
2FB
330
1F
100
AcDbEntity
  8
D-5_仕様文
  6
Continuous
 62
     7
370
     9
100
AcDbText
 10
-523.3514373084284
 20
-169.025366441872
 30
0.0
 40
22.86
  1
クッション
 41
1.133333333333333
  7
ＭＳ ゴシック
100
AcDbText
  0
TEXT
  5
2FC
330
1F
100
AcDbEntity
  8
D-5_仕様文
  6
Continuous
 62
     2
370
     9
100
AcDbText
 10
333.216028894922
 20
-881.7321919713338
 30
0.0
 40
30.48
  1
クッション（軟質ポリ塩化ビニル）
 50
359.999901292753
 41
1.1171875
  7
ＭＳ ゴシック
100
AcDbText
  0
TEXT
  5
2FD
330
1F
100
AcDbEntity
  8
D-5_仕様文
  6
Continuous
 62
     2
370
     9
100
AcDbText
 10
198.2799277657563
 20
-344.5959564604865
 30
0.0
 40
30.48
  1
材質：蓋フレーム　アルミニウム合金押出形材（Ａ６０６３Ｓ－Ｔ５）
 41
1.12109375
  7
ＭＳ ゴシック
100
AcDbText
  0
TEXT
  5
2FE
330
1F
100
AcDbEntity
  8
D-5_仕様文
  6
Continuous
 62
     2
370
     9
100
AcDbText
 10
333.2160191785192
 20
-409.5962616362683
 30
0.0
 40
30.48
  1
蓋プレート　アルミニウム合金板（Ａ５０５２Ｐ）
 41
1.119565217391304
  7
ＭＳ ゴシック
100
AcDbText
  0
TEXT
  5
2FF
330
1F
100
AcDbEntity
  8
D-5_仕様文
  6
Continuous
 62
     2
370
     9
100
AcDbText
 10
198.2799277657563
 20
-474.5963379302136
 30
0.0
 40
30.48
  1
処理：蓋フレーム　陽極酸化塗装複合皮膜
 41
1.118421052631579
  7
ＭＳ ゴシック
100
AcDbText
  0
TEXT
  5
300
330
1F
100
AcDbEntity
  8
D-5_仕様文
  6
Continuous
 62
     2
370
     9
100
AcDbText
 10
333.2160191785192
 20
-539.5964142241589
 30
0.0
 40
30.48
  1
蓋プレート　陽極酸化皮膜
 41
1.114583333333333
  7
ＭＳ ゴシック
100
AcDbText
  0
TEXT
  5
301
330
1F
100
AcDbEntity
  8
D-5_仕様文
  6
Continuous
 62
     2
370
     9
100
AcDbText
 10
198.2799277657563
 20
-604.596452371131
 30
0.0
 40
30.48
  1
定尺：５９９．５
 41
1.109375
  7
ＭＳ ゴシック
100
AcDbText
  0
TEXT
  5
302
330
1F
100
AcDbEntity
  8
D-5_仕様文
  6
Continuous
 62
     2
370
     9
100
AcDbText
 10
133.381874356611
 20
-686.4024963670018
 30
0.0
 40
30.48
  1
アルミニウム製受枠　ＡＦ１５ＬＢ－Ｓ
 41
1.118055555555555
  7
ＭＳ ゴシック
100
AcDbText
  0
TEXT
  5
303
330
1F
100
AcDbEntity
  8
D-5_仕様文
  6
Continuous
 62
     2
370
     9
100
AcDbText
 10
197.8323874825531
 20
-751.4030332619969
 30
0.0
 40
30.48
  1
材質：受枠フレーム　アルミニウム合金押出形材（Ａ６０６３Ｓ－Ｔ５）
 41
1.121212121212121
  7
ＭＳ ゴシック
100
AcDbText
  0
TEXT
  5
304
330
1F
100
AcDbEntity
  8
D-5_仕様文
  6
Continuous
 62
     2
370
     9
100
AcDbText
 10
333.2160191785192
 20
-816.4021558816258
 30
0.0
 40
30.48
  1
ジョイント金具、溶接用アンカー（ＳＵＳ３０４）
 41
1.119565217391304
  7
ＭＳ ゴシック
100
AcDbText
  0
TEXT
  5
305
330
1F
100
AcDbEntity
  8
D-5_仕様文
  6
Continuous
 62
     2
370
     9
100
AcDbText
 10
197.8323874825531
 20
-1011.399943357212
 30
0.0
 40
30.48
  1
定尺：３０００
 41
1.107142857142857
  7
ＭＳ ゴシック
100
AcDbText
  0
LINE
  5
306
330
1F
100
AcDbEntity
  8
D-5_仕様文
  6
Continuous
 62
     2
370
     9
100
AcDbLine
 10
261.477864777475
 20
-155.7629568877326
 30
0.0
 11
36.47755960169377
 21
-155.7629568877326
 31
0.0
  0
LINE
  5
307
330
1F
100
AcDbEntity
  8
D-5_仕様文
  6
Continuous
 62
     2
370
     9
100
AcDbLine
 10
261.477864777475
 20
-105.7632620635138
 30
0.0
 11
261.477864777475
 21
-155.7629568877326
 31
0.0
  0
LINE
  5
308
330
1F
100
AcDbEntity
  8
D-5_仕様文
  6
Continuous
 62
     2
370
     9
100
AcDbLine
 10
36.47755960169377
 20
-105.7632620635138
 30
0.0
 11
261.477864777475
 21
-105.7632620635138
 31
0.0
  0
LINE
  5
309
330
1F
100
AcDbEntity
  8
D-5_仕様文
  6
Continuous
 62
     2
370
     9
100
AcDbLine
 10
36.47755960169377
 20
-155.7629568877326
 30
0.0
 11
36.47755960169377
 21
-105.7632620635138
 31
0.0
  0
TEXT
  5
30A
330
1F
100
AcDbEntity
  8
D-5_仕様文
  6
Continuous
 62
     2
370
     9
100
AcDbText
 10
83.9777121895844
 20
-145.1231857695685
 30
0.0
 40
30.48
  1
仕　様
 41
1.083333333333333
  7
ＭＳ ゴシック
100
AcDbText
  0
LINE
  5
30B
330
1F
100
AcDbEntity
  8
D-0_通り芯
  6
Continuous
 62
     3
370
     9
100
AcDbLine
 10
1311.357324486812
 20
1148.269582679301
 30
0.0
 11
871.3572024165001
 21
1148.269582679301
 31
0.0
  0
LINE
  5
30C
330
1F
100
AcDbEntity
  8
D-0_通り芯
  6
Continuous
 62
     3
370
     9
100
AcDbLine
 10
1321.357324486812
 20
983.2693385386762
 30
0.0
 11
1321.357324486812
 21
1138.269521644145
 31
0.0
  0
LINE
  5
30D
330
1F
100
AcDbEntity
  8
D-0_通り芯
  6
Continuous
 62
     3
370
     9
100
AcDbLine
 10
861.3572024165001
 20
983.2693385386762
 30
0.0
 11
861.3572024165001
 21
1138.269521644145
 31
0.0
  0
LINE
  5
30E
330
1F
100
AcDbEntity
  8
D-0_通り芯
  6
Continuous
 62
     3
370
     9
100
AcDbLine
 10
871.3572024165001
 20
973.2692775035201
 30
0.0
 11
1311.357324486812
 21
973.2692775035201
 31
0.0
  0
LINE
  5
30F
330
1F
100
AcDbEntity
  8
D-0_通り芯
  6
Continuous
 62
     3
370
     9
100
AcDbLine
 10
928.3574465571248
 20
1041.269155433208
 30
0.0
 11
928.3574465571248
 21
1080.269216468364
 31
0.0
  0
LINE
  5
310
330
1F
100
AcDbEntity
  8
D-0_通り芯
  6
Continuous
 62
     3
370
     9
100
AcDbLine
 10
1243.357324486813
 20
1091.269338538676
 30
0.0
 11
939.3573244868126
 21
1091.269338538676
 31
0.0
  0
LINE
  5
311
330
1F
100
AcDbEntity
  8
D-0_通り芯
  6
Continuous
 62
     3
370
     9
100
AcDbLine
 10
1254.357324486813
 20
1041.269155433208
 30
0.0
 11
1254.357324486813
 21
1080.269216468364
 31
0.0
  0
LINE
  5
312
330
1F
100
AcDbEntity
  8
D-0_通り芯
  6
Continuous
 62
     3
370
     9
100
AcDbLine
 10
1243.357324486813
 20
1030.269216468364
 30
0.0
 11
939.3573244868126
 21
1030.269216468364
 31
0.0
  0
LINE
  5
313
330
1F
100
AcDbEntity
  8
D-4_寸法
  6
Continuous
 62
     7
370
     9
100
AcDbLine
 10
861.3572024165001
 20
884.7609767222701
 30
0.0
 11
1321.357324486812
 21
884.7609767222701
 31
0.0
  0
LINE
  5
314
330
1F
100
AcDbEntity
  8
D-4_寸法
  6
Continuous
 62
     7
370
     9
100
AcDbLine
 10
861.3572024165001
 20
958.2692164683635
 30
0.0
 11
861.3572024165001
 21
881.760915687114
 31
0.0
  0
LINE
  5
315
330
1F
100
AcDbEntity
  8
D-4_寸法
  6
Continuous
 62
     7
370
     9
100
AcDbLine
 10
1321.357324486812
 20
958.2692164683635
 30
0.0
 11
1321.357324486812
 21
881.760915687114
 31
0.0
  0
LINE
  5
316
330
1F
100
AcDbEntity
  8
D-4_寸法
  6
Continuous
 62
     7
370
     9
100
AcDbLine
 10
1500.057031518063
 20
973.2692775035201
 30
0.0
 11
1500.057031518063
 21
1148.269582679301
 31
0.0
  0
LINE
  5
317
330
1F
100
AcDbEntity
  8
D-4_寸法
  6
Continuous
 62
     7
370
     9
100
AcDbLine
 10
1336.357324486812
 20
973.2692775035201
 30
0.0
 11
1503.057275658688
 21
973.2692775035201
 31
0.0
  0
LINE
  5
318
330
1F
100
AcDbEntity
  8
D-4_寸法
  6
Continuous
 62
     7
370
     9
100
AcDbLine
 10
1336.357324486812
 20
1148.269582679301
 30
0.0
 11
1503.057275658688
 21
1148.269582679301
 31
0.0
  0
LINE
  5
319
330
1F
100
AcDbEntity
  8
D-4_寸法
  6
Continuous
 62
     7
370
     9
100
AcDbLine
 10
1500.057031518063
 20
393.2702769542038
 30
0.0
 11
1500.057031518063
 21
793.2704066539105
 31
0.0
  0
LINE
  5
31A
330
1F
100
AcDbEntity
  8
D-4_寸法
  6
Continuous
 62
     7
370
     9
100
AcDbLine
 10
1191.357324486812
 20
393.2702769542038
 30
0.0
 11
1503.057275658688
 21
393.2702769542038
 31
0.0
  0
LINE
  5
31B
330
1F
100
AcDbEntity
  8
D-4_寸法
  6
Continuous
 62
     7
370
     9
100
AcDbLine
 10
1346.357568627438
 20
643.2704371714885
 30
0.0
 11
1503.057275658688
 21
643.2704371714885
 31
0.0
  0
LINE
  5
31C
330
1F
100
AcDbEntity
  8
D-4_寸法
  6
Continuous
 62
     7
370
     9
100
AcDbLine
 10
1275.857568627438
 20
793.2704066539105
 30
0.0
 11
1503.057275658688
 21
793.2704066539105
 31
0.0
  0
LINE
  5
31D
330
1F
100
AcDbEntity
  8
D-0_通り芯
  6
JWW_CENTER1
 62
     3
370
     9
100
AcDbLine
 10
1091.357324486812
 20
941.7651271128949
 30
0.0
 11
1091.357324486812
 21
1184.942190101176
 31
0.0
  0
LINE
  5
31E
330
1F
100
AcDbEntity
  8
D-0_通り芯
  6
JWW_CENTER1
 62
     3
370
     9
100
AcDbLine
 10
826.5198000727501
 20
1060.76927750352
 30
0.0
 11
1357.767969018063
 21
1060.76927750352
 31
0.0
  0
LINE
  5
31F
330
1F
100
AcDbEntity
  8
D-0_通り芯
  6
JWW_CENTER2
 62
     3
370
     9
100
AcDbLine
 10
1091.357324486812
 20
850.6166896128951
 30
0.0
 11
1091.357324486812
 21
322.6880244517622
 31
0.0
  0
LINE
  5
320
330
1F
100
AcDbEntity
  8
D-0_通り芯
  6
Continuous
 62
     3
370
     9
100
AcDbLine
 10
931.3575686274376
 20
445.7703913951218
 30
0.0
 11
1251.357324486812
 21
445.7703913951218
 31
0.0
  0
LINE
  5
321
330
1F
100
AcDbEntity
  8
D-0_通り芯
  6
Continuous
 62
     3
370
     9
100
AcDbLine
 10
931.3575686274376
 20
433.2702159190472
 30
0.0
 11
1251.357324486812
 21
433.2702159190472
 31
0.0
  0
LINE
  5
322
330
1F
100
AcDbEntity
  8
D-0_通り芯
  6
Continuous
 62
     3
370
     9
100
AcDbLine
 10
1016.357446557125
 20
452.7703761363324
 30
0.0
 11
1031.357446557125
 21
447.2704371714889
 31
0.0
  0
LINE
  5
323
330
1F
100
AcDbEntity
  8
D-0_通り芯
  6
Continuous
 62
     3
370
     9
100
AcDbLine
 10
1166.357324486812
 20
452.7703761363324
 30
0.0
 11
1151.357324486812
 21
447.2704371714889
 31
0.0
  0
LINE
  5
324
330
1F
100
AcDbEntity
  8
D-0_通り芯
  6
Continuous
 62
     3
370
     9
100
AcDbLine
 10
1031.357446557125
 20
447.2704371714889
 30
0.0
 11
1031.357446557125
 21
445.7703913951218
 31
0.0
  0
LINE
  5
325
330
1F
100
AcDbEntity
  8
D-0_通り芯
  6
Continuous
 62
     3
370
     9
100
AcDbLine
 10
1151.357324486812
 20
447.2704371714889
 30
0.0
 11
1151.357324486812
 21
445.7703913951218
 31
0.0
  0
LINE
  5
326
330
1F
100
AcDbEntity
  8
D-0_通り芯
  6
Continuous
 62
     3
370
     9
100
AcDbLine
 10
1011.357446557125
 20
398.2702998423872
 30
0.0
 11
1011.357446557125
 21
433.2702159190472
 31
0.0
  0
LINE
  5
327
330
1F
100
AcDbEntity
  8
D-0_通り芯
  6
Continuous
 62
     3
370
     9
100
AcDbLine
 10
1166.357324486812
 20
393.2702769542038
 30
0.0
 11
1016.357446557125
 21
393.2702769542038
 31
0.0
  0
LINE
  5
328
330
1F
100
AcDbEntity
  8
D-0_通り芯
  6
Continuous
 62
     3
370
     9
100
AcDbLine
 10
1171.357446557125
 20
398.2702998423872
 30
0.0
 11
1171.357446557125
 21
433.2702159190472
 31
0.0
  0
LINE
  5
329
330
1F
100
AcDbEntity
  8
D-0_通り芯
  6
Continuous
 62
     3
370
     9
100
AcDbLine
 10
931.3575686274376
 20
445.7703913951218
 30
0.0
 11
931.3575686274376
 21
423.2701701426799
 31
0.0
  0
LINE
  5
32A
330
1F
100
AcDbEntity
  8
D-0_通り芯
  6
Continuous
 62
     3
370
     9
100
AcDbLine
 10
1251.357324486812
 20
445.7703913951218
 30
0.0
 11
1251.357324486812
 21
423.2701701426799
 31
0.0
  0
LINE
  5
32B
330
1F
100
AcDbEntity
  8
D-0_通り芯
  6
Continuous
 62
     3
370
     9
100
AcDbLine
 10
931.3575686274376
 20
423.2701701426799
 30
0.0
 11
1010.107324486812
 21
423.2701701426799
 31
0.0
  0
LINE
  5
32C
330
1F
100
AcDbEntity
  8
D-0_通り芯
  6
Continuous
 62
     3
370
     9
100
AcDbLine
 10
1172.607446557125
 20
423.2701701426799
 30
0.0
 11
1251.357324486812
 21
423.2701701426799
 31
0.0
  0
LINE
  5
32D
330
1F
100
AcDbEntity
  8
D-0_通り芯
  6
Continuous
 62
     3
370
     9
100
AcDbLine
 10
1172.607446557125
 20
433.2702159190472
 30
0.0
 11
1172.607446557125
 21
423.2701701426799
 31
0.0
  0
LINE
  5
32E
330
1F
100
AcDbEntity
  8
D-0_通り芯
  6
Continuous
 62
     3
370
     9
100
AcDbLine
 10
1010.107324486812
 20
433.2702159190472
 30
0.0
 11
1010.107324486812
 21
423.2701701426799
 31
0.0
  0
LINE
  5
32F
330
1F
100
AcDbEntity
  8
D-0_通り芯
  6
Continuous
 62
     3
370
     9
100
AcDbLine
 10
1254.357324486813
 20
593.2702235484419
 30
0.0
 11
928.3574465571248
 21
593.2702235484419
 31
0.0
  0
LINE
  5
330
330
1F
100
AcDbEntity
  8
D-0_通り芯
  6
Continuous
 62
     3
370
     9
100
AcDbLine
 10
1272.308740502438
 20
624.6569422984419
 30
0.0
 11
1266.857324486813
 21
605.7704066539105
 31
0.0
  0
LINE
  5
331
330
1F
100
AcDbEntity
  8
D-0_通り芯
  6
Continuous
 62
     3
370
     9
100
AcDbLine
 10
910.4061526118124
 20
624.6569422984419
 30
0.0
 11
915.8575686274376
 21
605.7704066539105
 31
0.0
  0
LINE
  5
332
330
1F
100
AcDbEntity
  8
D-0_通り芯
  6
Continuous
 62
     3
370
     9
100
AcDbLine
 10
861.35769069775
 20
628.2703761363325
 30
0.0
 11
1321.357324486812
 21
628.2703761363325
 31
0.0
  0
LINE
  5
333
330
1F
100
AcDbEntity
  8
D-0_通り芯
  6
JWW_PHANTOM1
 62
     3
370
     9
100
AcDbLine
 10
931.8574465571251
 20
793.2704066539105
 30
0.0
 11
1250.857324486813
 21
793.2704066539105
 31
0.0
  0
LINE
  5
334
330
1F
100
AcDbEntity
  8
D-0_通り芯
  6
JWW_PHANTOM1
 62
     3
370
     9
100
AcDbLine
 10
931.8574465571251
 20
770.7701930308639
 30
0.0
 11
1250.857324486813
 21
770.7701930308639
 31
0.0
  0
LINE
  5
335
330
1F
100
AcDbEntity
  8
D-0_通り芯
  6
JWW_PHANTOM1
 62
     3
370
     9
100
AcDbLine
 10
931.8574465571251
 20
793.2704066539105
 30
0.0
 11
931.8574465571251
 21
770.7701930308639
 31
0.0
  0
LINE
  5
336
330
1F
100
AcDbEntity
  8
D-0_通り芯
  6
JWW_PHANTOM1
 62
     3
370
     9
100
AcDbLine
 10
1250.857324486813
 20
793.2704066539105
 30
0.0
 11
1250.857324486813
 21
770.7701930308639
 31
0.0
  0
LINE
  5
337
330
1F
100
AcDbEntity
  8
D-0_通り芯
  6
JWW_PHANTOM1
 62
     3
370
     9
100
AcDbLine
 10
1244.857568627438
 20
770.7701930308639
 30
0.0
 11
1244.857568627438
 21
758.2702540660199
 31
0.0
  0
LINE
  5
338
330
1F
100
AcDbEntity
  8
D-0_通り芯
  6
JWW_PHANTOM1
 62
     3
370
     9
100
AcDbLine
 10
937.8573244868124
 20
770.7701930308639
 30
0.0
 11
937.8573244868124
 21
758.2702540660199
 31
0.0
  0
LINE
  5
339
330
1F
100
AcDbEntity
  8
D-0_通り芯
  6
JWW_PHANTOM1
 62
     3
370
     9
100
AcDbLine
 10
1026.3572024165
 20
758.2702540660199
 30
0.0
 11
937.8573244868124
 21
758.2702540660199
 31
0.0
  0
LINE
  5
33A
330
1F
100
AcDbEntity
  8
D-0_通り芯
  6
JWW_PHANTOM1
 62
     3
370
     9
100
AcDbLine
 10
1156.357324486812
 20
758.2702540660199
 30
0.0
 11
1244.857568627438
 21
758.2702540660199
 31
0.0
  0
LINE
  5
33B
330
1F
100
AcDbEntity
  8
D-0_通り芯
  6
Continuous
 62
     3
370
     9
100
AcDbLine
 10
861.35769069775
 20
638.7705897593793
 30
0.0
 11
861.35769069775
 21
628.2703761363325
 31
0.0
  0
LINE
  5
33C
330
1F
100
AcDbEntity
  8
D-0_通り芯
  6
Continuous
 62
     3
370
     9
100
AcDbLine
 10
1316.857568627438
 20
643.2704371714885
 30
0.0
 11
865.8575686274376
 21
643.2704371714885
 31
0.0
  0
LINE
  5
33D
330
1F
100
AcDbEntity
  8
D-0_通り芯
  6
Continuous
 62
     3
370
     9
100
AcDbLine
 10
1321.357324486812
 20
638.7705897593793
 30
0.0
 11
1321.357324486812
 21
628.2703761363325
 31
0.0
  0
LINE
  5
33E
330
1F
100
AcDbEntity
  8
D-0_通り芯
  6
Continuous
 62
     3
370
     9
100
AcDbLine
 10
1016.357446557125
 20
518.770543983012
 30
0.0
 11
1016.357446557125
 21
452.7703761363324
 31
0.0
  0
LINE
  5
33F
330
1F
100
AcDbEntity
  8
D-0_通り芯
  6
JWW_PHANTOM1
 62
     3
370
     9
100
AcDbLine
 10
1016.35769069775
 20
671.2703761363326
 30
0.0
 11
1016.35769069775
 21
643.2704371714885
 31
0.0
  0
LINE
  5
340
330
1F
100
AcDbEntity
  8
D-0_通り芯
  6
Continuous
 62
     3
370
     9
100
AcDbLine
 10
1041.357080346188
 20
555.7701625132859
 30
0.0
 11
1041.357080346188
 21
593.2702235484419
 31
0.0
  0
LINE
  5
341
330
1F
100
AcDbEntity
  8
D-0_通り芯
  6
JWW_PHANTOM1
 62
     3
370
     9
100
AcDbLine
 10
1041.357568627438
 20
708.2704982066451
 30
0.0
 11
1041.357568627438
 21
743.2701625132859
 31
0.0
  0
LINE
  5
342
330
1F
100
AcDbEntity
  8
D-0_通り芯
  6
JWW_PHANTOM1
 62
     3
370
     9
100
AcDbLine
 10
1141.357812768063
 20
708.2704982066451
 30
0.0
 11
1141.357812768063
 21
743.2701625132859
 31
0.0
  0
LINE
  5
343
330
1F
100
AcDbEntity
  8
D-0_通り芯
  6
Continuous
 62
     3
370
     9
100
AcDbLine
 10
1166.357324486812
 20
518.6895350718794
 30
0.0
 11
1166.357324486812
 21
452.7703761363324
 31
0.0
  0
LINE
  5
344
330
1F
100
AcDbEntity
  8
D-0_通り芯
  6
Continuous
 62
     3
370
     9
100
AcDbLine
 10
1141.3572024165
 20
555.7701625132859
 30
0.0
 11
1141.3572024165
 21
593.2702235484419
 31
0.0
  0
LINE
  5
345
330
1F
100
AcDbEntity
  8
D-0_通り芯
  6
JWW_PHANTOM1
 62
     3
370
     9
100
AcDbLine
 10
1166.357568627438
 20
671.1893824839888
 30
0.0
 11
1166.357568627438
 21
643.2704371714885
 31
0.0
  0
LINE
  5
346
330
1F
100
AcDbEntity
  8
D-0_通り芯
  6
JWW_PHANTOM1
 62
     3
370
     9
100
AcDbLine
 10
1038.357446557125
 20
785.7704982066451
 30
0.0
 11
1144.357080346188
 21
785.7704982066451
 31
0.0
  0
LINE
  5
347
330
1F
100
AcDbEntity
  8
D-0_通り芯
  6
JWW_PHANTOM1
 62
     3
370
     9
100
AcDbLine
 10
1038.357446557125
 20
785.7704982066451
 30
0.0
 11
1038.357446557125
 21
770.7701930308639
 31
0.0
  0
LINE
  5
348
330
1F
100
AcDbEntity
  8
D-0_通り芯
  6
JWW_PHANTOM1
 62
     3
370
     9
100
AcDbLine
 10
1144.357080346188
 20
785.7704982066451
 30
0.0
 11
1144.357080346188
 21
770.7701930308639
 31
0.0
  0
ARC
  5
349
330
1F
100
AcDbEntity
  8
D-0_通り芯
  6
Continuous
 62
     3
370
     9
100
AcDbCircle
 10
871.3572024165001
 20
1138.269521644145
 30
0.0
 40
10.00000095367432
100
AcDbArc
 50
90.0
 51
180.0
  0
ARC
  5
34A
330
1F
100
AcDbEntity
  8
D-0_通り芯
  6
Continuous
 62
     3
370
     9
100
AcDbCircle
 10
1311.357324486812
 20
1138.269521644145
 30
0.0
 40
10.00000095367432
100
AcDbArc
 50
0.0
 51
90.0
  0
ARC
  5
34B
330
1F
100
AcDbEntity
  8
D-0_通り芯
  6
Continuous
 62
     3
370
     9
100
AcDbCircle
 10
1311.357324486812
 20
983.2693385386762
 30
0.0
 40
10.00000095367432
100
AcDbArc
 50
270.0
 51
0.0
  0
ARC
  5
34C
330
1F
100
AcDbEntity
  8
D-0_通り芯
  6
Continuous
 62
     3
370
     9
100
AcDbCircle
 10
871.3572024165001
 20
983.2693385386762
 30
0.0
 40
10.00000095367432
100
AcDbArc
 50
180.0
 51
270.0
  0
ARC
  5
34D
330
1F
100
AcDbEntity
  8
D-0_通り芯
  6
Continuous
 62
     3
370
     9
100
AcDbCircle
 10
939.3573244868126
 20
1080.269216468364
 30
0.0
 40
11.00000095367432
100
AcDbArc
 50
90.0
 51
180.0
  0
ARC
  5
34E
330
1F
100
AcDbEntity
  8
D-0_通り芯
  6
Continuous
 62
     3
370
     9
100
AcDbCircle
 10
939.3573244868126
 20
1041.269155433208
 30
0.0
 40
11.00000095367432
100
AcDbArc
 50
180.0
 51
270.0
  0
ARC
  5
34F
330
1F
100
AcDbEntity
  8
D-0_通り芯
  6
Continuous
 62
     3
370
     9
100
AcDbCircle
 10
1243.357324486813
 20
1080.269216468364
 30
0.0
 40
11.00000095367432
100
AcDbArc
 50
0.0
 51
90.0
  0
ARC
  5
350
330
1F
100
AcDbEntity
  8
D-0_通り芯
  6
Continuous
 62
     3
370
     9
100
AcDbCircle
 10
1243.357324486813
 20
1041.269155433208
 30
0.0
 40
11.00000095367432
100
AcDbArc
 50
270.0
 51
0.0
  0
ARC
  5
351
330
1F
100
AcDbEntity
  8
D-0_通り芯
  6
Continuous
 62
     3
370
     9
100
AcDbCircle
 10
1016.357446557125
 20
398.2702998423872
 30
0.0
 40
5.000000476837158
100
AcDbArc
 50
180.0
 51
270.0
  0
ARC
  5
352
330
1F
100
AcDbEntity
  8
D-0_通り芯
  6
Continuous
 62
     3
370
     9
100
AcDbCircle
 10
1166.357324486812
 20
398.2702998423872
 30
0.0
 40
5.000000476837158
100
AcDbArc
 50
270.0
 51
0.0
  0
ARC
  5
353
330
1F
100
AcDbEntity
  8
D-0_通り芯
  6
Continuous
 62
     3
370
     9
100
AcDbCircle
 10
928.3574465571248
 20
605.7704066539105
 30
0.0
 40
12.5
100
AcDbArc
 50
180.0
 51
270.0
  0
ARC
  5
354
330
1F
100
AcDbEntity
  8
D-0_通り芯
  6
Continuous
 62
     3
370
     9
100
AcDbCircle
 10
1254.357324486813
 20
605.7704066539105
 30
0.0
 40
12.5
100
AcDbArc
 50
270.0
 51
0.0
  0
ARC
  5
355
330
1F
100
AcDbEntity
  8
D-0_通り芯
  6
Continuous
 62
     3
370
     9
100
AcDbCircle
 10
1277.112451439938
 20
623.2703456187545
 30
0.0
 40
5.000000476837158
100
AcDbArc
 50
90.0
 51
163.8988037109375
  0
ARC
  5
356
330
1F
100
AcDbEntity
  8
D-0_通り芯
  6
Continuous
 62
     3
370
     9
100
AcDbCircle
 10
905.602075463375
 20
623.2703456187545
 30
0.0
 40
5.000000476837158
100
AcDbArc
 50
16.1011962890625
 51
90.0
  0
ARC
  5
357
330
1F
100
AcDbEntity
  8
D-0_通り芯
  6
JWW_PHANTOM1
 62
     3
370
     9
100
AcDbCircle
 10
1026.3572024165
 20
743.2701625132859
 30
0.0
 40
15.00000095367432
100
AcDbArc
 50
0.0
 51
90.0
  0
ARC
  5
358
330
1F
100
AcDbEntity
  8
D-0_通り芯
  6
JWW_PHANTOM1
 62
     3
370
     9
100
AcDbCircle
 10
1156.357324486812
 20
743.2701625132859
 30
0.0
 40
15.00000095367432
100
AcDbArc
 50
90.0
 51
180.0
  0
ARC
  5
359
330
1F
100
AcDbEntity
  8
D-0_通り芯
  6
Continuous
 62
     3
370
     9
100
AcDbCircle
 10
865.8575686274376
 20
638.7705897593793
 30
0.0
 40
4.500000476837158
100
AcDbArc
 50
90.0
 51
180.0
  0
ARC
  5
35A
330
1F
100
AcDbEntity
  8
D-0_通り芯
  6
Continuous
 62
     3
370
     9
100
AcDbCircle
 10
1316.857568627438
 20
638.7705897593793
 30
0.0
 40
4.500000476837158
100
AcDbArc
 50
0.0
 51
90.0
  0
ARC
  5
35B
330
1F
100
AcDbEntity
  8
D-0_通り芯
  6
Continuous
 62
     3
370
     9
100
AcDbCircle
 10
1026.3572024165
 20
555.7701625132859
 30
0.0
 40
15.00000095367432
100
AcDbArc
 50
292.0240478515625
 51
0.0000000000000254
  0
ARC
  5
35C
330
1F
100
AcDbEntity
  8
D-0_通り芯
  6
Continuous
 62
     3
370
     9
100
AcDbCircle
 10
1041.357568627438
 20
518.6895350718794
 30
0.0
 40
25.0
100
AcDbArc
 50
112.0243377685547
 51
180.0
  0
ARC
  5
35D
330
1F
100
AcDbEntity
  8
D-0_通り芯
  6
Continuous
 62
     3
370
     9
100
AcDbCircle
 10
1141.3572024165
 20
518.6895350718794
 30
0.0
 40
25.0
100
AcDbArc
 50
0.0
 51
67.97566223144531
  0
ARC
  5
35E
330
1F
100
AcDbEntity
  8
D-0_通り芯
  6
Continuous
 62
     3
370
     9
100
AcDbCircle
 10
1156.357324486812
 20
555.7701625132859
 30
0.0
 40
15.00000095367432
100
AcDbArc
 50
180.0
 51
247.9759521484375
  0
ARC
  5
35F
330
1F
100
AcDbEntity
  8
D-0_通り芯
  6
Continuous
 62
     3
370
     9
100
AcDbCircle
 10
1091.357324486812
 20
1060.76927750352
 30
0.0
 40
65.0
100
AcDbArc
 50
207.9842987060547
 51
332.0157012939453
  0
ARC
  5
360
330
1F
100
AcDbEntity
  8
D-0_通り芯
  6
Continuous
 62
     3
370
     9
100
AcDbCircle
 10
1091.357324486812
 20
1060.76927750352
 30
0.0
 40
65.0
100
AcDbArc
 50
27.98429870605469
 51
152.0157012939453
  0
ARC
  5
361
330
1F
100
AcDbEntity
  8
D-0_通り芯
  6
JWW_PHANTOM1
 62
     3
370
     9
100
AcDbCircle
 10
1156.357324486812
 20
708.2704982066451
 30
0.0
 40
15.00000095367432
100
AcDbArc
 50
180.0
 51
247.9759521484375
  0
ARC
  5
362
330
1F
100
AcDbEntity
  8
D-0_通り芯
  6
JWW_PHANTOM1
 62
     3
370
     9
100
AcDbCircle
 10
1141.357812768063
 20
671.1893824839888
 30
0.0
 40
25.0
100
AcDbArc
 50
0.0
 51
67.97628784179688
  0
ARC
  5
363
330
1F
100
AcDbEntity
  8
D-0_通り芯
  6
JWW_PHANTOM1
 62
     3
370
     9
100
AcDbCircle
 10
1026.3572024165
 20
708.2704982066451
 30
0.0
 40
15.00000095367432
100
AcDbArc
 50
292.0240478515625
 51
0.0000000000000254
  0
ARC
  5
364
330
1F
100
AcDbEntity
  8
D-0_通り芯
  6
JWW_PHANTOM1
 62
     3
370
     9
100
AcDbCircle
 10
1041.357080346188
 20
671.1893824839888
 30
0.0
 40
25.0
100
AcDbArc
 50
112.0237121582031
 51
180.0
  0
LWPOLYLINE
  5
365
330
1F
100
AcDbEntity
  8
D-4_寸法
  6
Continuous
 62
     7
370
     9
100
AcDbPolyline
 90
        4
 70
     1
 43
2.0
 10
862.3572024165001
 20
884.7609767222701
 42
0.4142135623731
 10
861.3572024165001
 20
885.76097672227
 42
0.4142135623731
 10
860.3572024165001
 20
884.7609767222701
 42
0.4142135623731
 10
861.3572024165001
 20
883.7609767222702
 42
0.4142135623731
  0
LWPOLYLINE
  5
366
330
1F
100
AcDbEntity
  8
D-4_寸法
  6
Continuous
 62
     7
370
     9
100
AcDbPolyline
 90
        4
 70
     1
 43
2.0
 10
1322.357324486812
 20
884.7609767222701
 42
0.4142135623731
 10
1321.357324486812
 20
885.76097672227
 42
0.4142135623731
 10
1320.357324486813
 20
884.7609767222701
 42
0.4142135623731
 10
1321.357324486812
 20
883.7609767222702
 42
0.4142135623731
  0
LWPOLYLINE
  5
367
330
1F
100
AcDbEntity
  8
D-4_寸法
  6
Continuous
 62
     7
370
     9
100
AcDbPolyline
 90
        4
 70
     1
 43
2.0
 10
1501.057031518062
 20
973.2692775035201
 42
0.4142135623731
 10
1500.057031518063
 20
974.26927750352
 42
0.4142135623731
 10
1499.057031518063
 20
973.2692775035201
 42
0.4142135623731
 10
1500.057031518063
 20
972.2692775035202
 42
0.4142135623731
  0
LWPOLYLINE
  5
368
330
1F
100
AcDbEntity
  8
D-4_寸法
  6
Continuous
 62
     7
370
     9
100
AcDbPolyline
 90
        4
 70
     1
 43
2.0
 10
1501.057031518062
 20
1148.269582679301
 42
0.4142135623731
 10
1500.057031518063
 20
1149.269582679301
 42
0.4142135623731
 10
1499.057031518063
 20
1148.269582679301
 42
0.4142135623731
 10
1500.057031518063
 20
1147.269582679301
 42
0.4142135623731
  0
LWPOLYLINE
  5
369
330
1F
100
AcDbEntity
  8
D-4_寸法
  6
Continuous
 62
     7
370
     9
100
AcDbPolyline
 90
        4
 70
     1
 43
2.0
 10
1501.057031518062
 20
393.2702769542038
 42
0.4142135623731
 10
1500.057031518063
 20
394.2702769542038
 42
0.4142135623731
 10
1499.057031518063
 20
393.2702769542038
 42
0.4142135623731
 10
1500.057031518063
 20
392.2702769542038
 42
0.4142135623731
  0
LWPOLYLINE
  5
36A
330
1F
100
AcDbEntity
  8
D-4_寸法
  6
Continuous
 62
     7
370
     9
100
AcDbPolyline
 90
        4
 70
     1
 43
2.0
 10
1501.057031518062
 20
643.2704371714885
 42
0.4142135623731
 10
1500.057031518063
 20
644.2704371714885
 42
0.4142135623731
 10
1499.057031518063
 20
643.2704371714885
 42
0.4142135623731
 10
1500.057031518063
 20
642.2704371714885
 42
0.4142135623731
  0
LWPOLYLINE
  5
36B
330
1F
100
AcDbEntity
  8
D-4_寸法
  6
Continuous
 62
     7
370
     9
100
AcDbPolyline
 90
        4
 70
     1
 43
2.0
 10
1501.057031518062
 20
793.2704066539105
 42
0.4142135623731
 10
1500.057031518063
 20
794.2704066539104
 42
0.4142135623731
 10
1499.057031518063
 20
793.2704066539105
 42
0.4142135623731
 10
1500.057031518063
 20
792.2704066539106
 42
0.4142135623731
  0
TEXT
  5
36C
330
1F
100
AcDbEntity
  8
D-4_寸法
  6
Continuous
 62
     2
370
     9
100
AcDbText
 10
1070.10760102624
 20
900.4009767221771
 30
0.0
 40
30.48
  1
92
 50
359.9996708661948
 41
1.062500000000023
  7
ＭＳ ゴシック
100
AcDbText
  0
TEXT
  5
36D
330
1F
100
AcDbEntity
  8
D-4_寸法
  6
Continuous
 62
     2
370
     9
100
AcDbText
 10
1484.417031518062
 20
1039.519399327301
 30
0.0
 40
30.48
  1
35
 50
90.0000025044779
 41
1.062500000000001
  7
ＭＳ ゴシック
100
AcDbText
  0
TEXT
  5
36E
330
1F
100
AcDbEntity
  8
D-4_寸法
  6
Continuous
 62
     2
370
     9
100
AcDbText
 10
1484.417031518062
 20
497.0204521837456
 30
0.0
 40
30.48
  1
50
 50
90.0000025044779
 41
1.062500000000001
  7
ＭＳ ゴシック
100
AcDbText
  0
TEXT
  5
36F
330
1F
100
AcDbEntity
  8
D-4_寸法
  6
Continuous
 62
     2
370
     9
100
AcDbText
 10
1484.417031518062
 20
697.0204064073783
 30
0.0
 40
30.48
  1
30
 50
90.0000025044779
 41
1.062500000000001
  7
ＭＳ ゴシック
100
AcDbText
  0
LINE
  5
370
330
1F
100
AcDbEntity
  8
D-5_仕様文
  6
Continuous
 62
     7
370
     9
100
AcDbLine
 10
808.9923342524376
 20
210.583257606059
 30
0.0
 11
808.9923342524376
 21
275.5828151011764
 31
0.0
  0
LINE
  5
371
330
1F
100
AcDbEntity
  8
D-5_仕様文
  6
Continuous
 62
     7
370
     9
100
AcDbLine
 10
808.9923342524376
 20
275.5828151011764
 30
0.0
 11
1383.992334252438
 21
275.5828151011764
 31
0.0
  0
LINE
  5
372
330
1F
100
AcDbEntity
  8
D-5_仕様文
  6
Continuous
 62
     7
370
     9
100
AcDbLine
 10
1383.992334252438
 20
275.5828151011764
 30
0.0
 11
1383.992334252438
 21
210.583257606059
 31
0.0
  0
LINE
  5
373
330
1F
100
AcDbEntity
  8
D-5_仕様文
  6
Continuous
 62
     7
370
     9
100
AcDbLine
 10
1383.992334252438
 20
210.583257606059
 30
0.0
 11
808.9923342524376
 21
210.583257606059
 31
0.0
  0
LINE
  5
374
330
1F
100
AcDbEntity
  8
D-5_仕様文
  6
Continuous
 62
     7
370
     9
100
AcDbLine
 10
486.1505373774375
 20
811.8210047984417
 30
0.0
 11
816.0470217524374
 21
811.8210047984417
 31
0.0
  0
LINE
  5
375
330
1F
100
AcDbEntity
  8
D-5_仕様文
  6
Continuous
 62
     7
370
     9
100
AcDbLine
 10
544.9751223383748
 20
380.9271601939497
 30
0.0
 11
888.1451662836876
 21
380.9271601939497
 31
0.0
  0
LINE
  5
376
330
1F
100
AcDbEntity
  8
D-5_仕様文
  6
Continuous
 62
     7
370
     9
100
AcDbLine
 10
546.2727297602498
 20
543.5610713267624
 30
0.0
 11
880.6036623774376
 21
543.5610713267624
 31
0.0
  0
LINE
  5
377
330
1F
100
AcDbEntity
  8
D-5_仕様文
  6
Continuous
 62
     7
370
     9
100
AcDbLine
 10
816.0470217524374
 20
811.8210047984417
 30
0.0
 11
911.4308108149376
 21
643.2704371714885
 31
0.0
  0
LINE
  5
378
330
1F
100
AcDbEntity
  8
D-5_仕様文
  6
Continuous
 62
     7
370
     9
100
AcDbLine
 10
911.4308108149376
 20
643.2704371714885
 30
0.0
 11
896.3830813227501
 21
663.2348841929729
 31
0.0
  0
LINE
  5
379
330
1F
100
AcDbEntity
  8
D-5_仕様文
  6
Continuous
 62
     7
370
     9
100
AcDbLine
 10
911.4308108149376
 20
643.2704371714885
 30
0.0
 11
902.0631350336876
 21
666.4489650035199
 31
0.0
  0
LINE
  5
37A
330
1F
100
AcDbEntity
  8
D-5_仕様文
  6
Continuous
 62
     7
370
     9
100
AcDbLine
 10
880.6036623774376
 20
543.5610713267624
 30
0.0
 11
965.0146731196251
 21
593.2702235484419
 31
0.0
  0
LINE
  5
37B
330
1F
100
AcDbEntity
  8
D-5_仕様文
  6
Continuous
 62
     7
370
     9
100
AcDbLine
 10
965.0146731196251
 20
593.2702235484419
 30
0.0
 11
945.3126467524376
 21
577.8809718394575
 31
0.0
  0
LINE
  5
37C
330
1F
100
AcDbEntity
  8
D-5_仕様文
  6
Continuous
 62
     7
370
     9
100
AcDbLine
 10
965.0146731196251
 20
593.2702235484419
 30
0.0
 11
942.0008791743126
 21
583.5045375132859
 31
0.0
  0
LINE
  5
37D
330
1F
100
AcDbEntity
  8
D-5_仕様文
  6
Continuous
 62
     7
370
     9
100
AcDbLine
 10
880.6036623774376
 20
543.5610713267624
 30
0.0
 11
1016.357446557125
 21
505.2955226207075
 31
0.0
  0
LINE
  5
37E
330
1F
100
AcDbEntity
  8
D-5_仕様文
  6
Continuous
 62
     7
370
     9
100
AcDbLine
 10
1016.357446557125
 20
505.2955226207075
 30
0.0
 11
991.6153811274376
 21
508.8792475962936
 31
0.0
  0
LINE
  5
37F
330
1F
100
AcDbEntity
  8
D-5_仕様文
  6
Continuous
 62
     7
370
     9
100
AcDbLine
 10
1016.357446557125
 20
505.2955226207075
 30
0.0
 11
993.3862551508751
 21
515.1605586314497
 31
0.0
  0
LINE
  5
380
330
1F
100
AcDbEntity
  8
D-5_仕様文
  6
Continuous
 62
     7
370
     9
100
AcDbLine
 10
888.1451662836876
 20
380.9271601939497
 30
0.0
 11
934.0877932368124
 21
441.6594905162151
 31
0.0
  0
LINE
  5
381
330
1F
100
AcDbEntity
  8
D-5_仕様文
  6
Continuous
 62
     7
370
     9
100
AcDbLine
 10
934.0877932368124
 20
441.6594905162151
 30
0.0
 11
921.7364748774376
 21
419.9235286021531
 31
0.0
  0
LINE
  5
382
330
1F
100
AcDbEntity
  8
D-5_仕様文
  6
Continuous
 62
     7
370
     9
100
AcDbLine
 10
934.0877932368124
 20
441.6594905162151
 30
0.0
 11
916.5321291743126
 21
423.8610133433639
 31
0.0
  0
TEXT
  5
383
330
1F
100
AcDbEntity
  8
D-5_仕様文
  6
Continuous
 62
     2
370
     9
100
AcDbText
 10
851.4924563227501
 20
228.7229448008831
 30
0.0
 40
30.48
  1
把手詳細図　Ｓ＝１：２
 41
1.113636363636364
  7
ＭＳ ゴシック
100
AcDbText
  0
TEXT
  5
384
330
1F
100
AcDbEntity
  8
D-5_仕様文
  6
Continuous
 62
     7
370
     9
100
AcDbText
 10
490.9712160883748
 20
825.8179420543013
 30
0.0
 40
22.86
  1
把手カバー　ｔ＝0.5
 41
1.157894736842105
  7
ＭＳ ゴシック
100
AcDbText
  0
TEXT
  5
385
330
1F
100
AcDbEntity
  8
D-5_仕様文
  6
Continuous
 62
     7
370
     9
100
AcDbText
 10
524.7188967524374
 20
782.1269935679732
 30
0.0
 40
22.86
  1
（SUS304　ＨＬ）
 41
1.145833333333333
  7
ＭＳ ゴシック
100
AcDbText
  0
TEXT
  5
386
330
1F
100
AcDbEntity
  8
D-5_仕様文
  6
Continuous
 62
     7
370
     9
100
AcDbText
 10
561.8492678461873
 20
395.4314445567428
 30
0.0
 40
22.86
  1
ストッパープレート
 41
1.148148148148148
  7
ＭＳ ゴシック
100
AcDbText
  0
TEXT
  5
387
330
1F
100
AcDbEntity
  8
D-5_仕様文
  6
Continuous
 62
     7
370
     9
100
AcDbText
 10
637.7157229243124
 20
554.3374580455122
 30
0.0
 40
22.86
  1
把手本体
 41
1.125
  7
ＭＳ ゴシック
100
AcDbText
  0
TEXT
  5
388
330
1F
100
AcDbEntity
  8
D-5_仕様文
  6
Continuous
 62
     7
370
     9
100
AcDbText
 10
538.3209475336876
 20
509.1167549205124
 30
0.0
 40
22.86
  1
（強化ナイロン樹脂）
 41
1.15
  7
ＭＳ ゴシック
100
AcDbText
  0
TEXT
  5
389
330
1F
100
AcDbEntity
  8
D-5_仕様文
  6
Continuous
 62
     7
370
     9
100
AcDbText
 10
546.4411867914998
 20
348.5452369761765
 30
0.0
 40
22.86
  1
（SUS304　ｔ＝2.5）
 41
1.149122807017544
  7
ＭＳ ゴシック
100
AcDbText
  0
LINE
  5
38A
330
1F
100
AcDbEntity
  8
C-5_仕様文
  6
Continuous
 62
     7
370
     9
100
AcDbLine
 10
-978.8056408561979
 20
501.7552127932646
 30
0.0
 11
-978.8056408561979
 21
566.754770288382
 31
0.0
  0
LINE
  5
38B
330
1F
100
AcDbEntity
  8
C-5_仕様文
  6
Continuous
 62
     7
370
     9
100
AcDbLine
 10
-978.8056408561979
 20
566.754770288382
 30
0.0
 11
-403.8050915397917
 21
566.754770288382
 31
0.0
  0
LINE
  5
38C
330
1F
100
AcDbEntity
  8
C-5_仕様文
  6
Continuous
 62
     7
370
     9
100
AcDbLine
 10
-403.8050915397917
 20
566.754770288382
 30
0.0
 11
-403.8050915397917
 21
501.7552127932646
 31
0.0
  0
LINE
  5
38D
330
1F
100
AcDbEntity
  8
C-5_仕様文
  6
Continuous
 62
     7
370
     9
100
AcDbLine
 10
-403.8050915397917
 20
501.7552127932646
 30
0.0
 11
-978.8056408561979
 21
501.7552127932646
 31
0.0
  0
LINE
  5
38E
330
1F
100
AcDbEntity
  8
C-2_蓋
  6
Continuous
 62
     3
370
     9
100
AcDbLine
 10
-691.5553661979948
 20
666.7548770999053
 30
0.0
 11
-1291.055427233151
 21
666.7548770999053
 31
0.0
  0
LINE
  5
38F
330
1F
100
AcDbEntity
  8
C-2_蓋
  6
Continuous
 62
     3
370
     9
100
AcDbLine
 10
-696.555152574948
 20
671.7548923586946
 30
0.0
 11
-1286.055640856198
 21
671.7548923586946
 31
0.0
  0
LINE
  5
390
330
1F
100
AcDbEntity
  8
C-2_蓋
  6
Continuous
 62
     3
370
     9
100
AcDbLine
 10
-696.555152574948
 20
671.7548923586946
 30
0.0
 11
-691.5553661979948
 21
666.7548770999053
 31
0.0
  0
LINE
  5
391
330
1F
100
AcDbEntity
  8
C-2_蓋
  6
Continuous
 62
     3
370
     9
100
AcDbLine
 10
-1291.055427233151
 20
666.7548770999053
 30
0.0
 11
-1286.055640856198
 21
671.7548923586946
 31
0.0
  0
LINE
  5
392
330
1F
100
AcDbEntity
  8
C-2_蓋
  6
Continuous
 62
     3
370
     9
100
AcDbLine
 10
-91.55509153979168
 20
666.7548770999053
 30
0.0
 11
-691.0557018913541
 21
666.7548770999053
 31
0.0
  0
LINE
  5
393
330
1F
100
AcDbEntity
  8
C-2_蓋
  6
Continuous
 62
     3
370
     9
100
AcDbLine
 10
-96.55545775072909
 20
671.7548923586946
 30
0.0
 11
-686.0554272331511
 21
671.7548923586946
 31
0.0
  0
LINE
  5
394
330
1F
100
AcDbEntity
  8
C-2_蓋
  6
Continuous
 62
     3
370
     9
100
AcDbLine
 10
-96.55545775072909
 20
671.7548923586946
 30
0.0
 11
-91.55509153979168
 21
666.7548770999053
 31
0.0
  0
LINE
  5
395
330
1F
100
AcDbEntity
  8
C-2_蓋
  6
Continuous
 62
     3
370
     9
100
AcDbLine
 10
-691.0557018913541
 20
666.7548770999053
 30
0.0
 11
-686.0554272331511
 21
671.7548923586946
 31
0.0
  0
LINE
  5
396
330
1F
100
AcDbEntity
  8
C-2_蓋
  6
Continuous
 62
     3
370
     9
100
AcDbLine
 10
-91.0556408561979
 20
666.7548770999053
 30
0.0
 11
-86.05533568041665
 21
671.7548923586946
 31
0.0
  0
LINE
  5
397
330
1F
100
AcDbEntity
  8
C-2_蓋
  6
Continuous
 62
     3
370
     9
100
AcDbLine
 10
-1296.555549303464
 20
671.7548923586946
 30
0.0
 11
-1291.55527464526
 21
666.7548770999053
 31
0.0
  0
TEXT
  5
398
330
1F
100
AcDbEntity
  8
C-5_仕様文
  6
Continuous
 62
     2
370
     9
100
AcDbText
 10
-958.8052994407927
 20
519.8948990344147
 30
0.0
 40
30.48
  1
平面詳細図　Ｓ＝１：１０
 41
1.114583333333333
  7
ＭＳ ゴシック
100
AcDbText
  0
LINE
  5
399
330
1F
100
AcDbEntity
  8
C-2_蓋
  6
Continuous
 62
     3
370
     9
100
AcDbLine
 10
-1291.055427233151
 20
966.7545414065455
 30
0.0
 11
-691.5553661979948
 21
966.7545414065455
 31
0.0
  0
LINE
  5
39A
330
1F
100
AcDbEntity
  8
C-2_蓋
  6
Continuous
 62
     3
370
     9
100
AcDbLine
 10
-1286.055640856198
 20
961.7542667483428
 30
0.0
 11
-696.555152574948
 21
961.7542667483428
 31
0.0
  0
LINE
  5
39B
330
1F
100
AcDbEntity
  8
C-2_蓋
  6
Continuous
 62
     3
370
     9
100
AcDbLine
 10
-691.5553661979948
 20
966.7545414065455
 30
0.0
 11
-696.555152574948
 21
961.7542667483428
 31
0.0
  0
LINE
  5
39C
330
1F
100
AcDbEntity
  8
C-2_蓋
  6
Continuous
 62
     3
370
     9
100
AcDbLine
 10
-1291.055427233151
 20
966.7545414065455
 30
0.0
 11
-1286.055640856198
 21
961.7542667483428
 31
0.0
  0
LINE
  5
39D
330
1F
100
AcDbEntity
  8
C-2_蓋
  6
Continuous
 62
     3
370
     9
100
AcDbLine
 10
-691.0557018913541
 20
966.7545414065455
 30
0.0
 11
-91.55509153979168
 21
966.7545414065455
 31
0.0
  0
LINE
  5
39E
330
1F
100
AcDbEntity
  8
C-2_蓋
  6
Continuous
 62
     3
370
     9
100
AcDbLine
 10
-686.0554272331511
 20
961.7542667483428
 30
0.0
 11
-96.55545775072909
 21
961.7542667483428
 31
0.0
  0
LINE
  5
39F
330
1F
100
AcDbEntity
  8
C-2_蓋
  6
Continuous
 62
     3
370
     9
100
AcDbLine
 10
-91.55509153979168
 20
966.7545414065455
 30
0.0
 11
-96.55545775072909
 21
961.7542667483428
 31
0.0
  0
LINE
  5
3A0
330
1F
100
AcDbEntity
  8
C-2_蓋
  6
Continuous
 62
     3
370
     9
100
AcDbLine
 10
-691.0557018913541
 20
966.7545414065455
 30
0.0
 11
-686.0554272331511
 21
961.7542667483428
 31
0.0
  0
LINE
  5
3A1
330
1F
100
AcDbEntity
  8
C-2_蓋
  6
Continuous
 62
     3
370
     9
100
AcDbLine
 10
-91.0556408561979
 20
966.7545414065455
 30
0.0
 11
-86.05533568041665
 21
961.7542667483428
 31
0.0
  0
LINE
  5
3A2
330
1F
100
AcDbEntity
  8
C-2_蓋
  6
Continuous
 62
     3
370
     9
100
AcDbLine
 10
-1291.55527464526
 20
966.7545414065455
 30
0.0
 11
-1296.555549303464
 21
961.7542667483428
 31
0.0
  0
LINE
  5
3A3
330
1F
100
AcDbEntity
  8
C-4_寸法
  6
Continuous
 62
     7
370
     9
100
AcDbLine
 10
-1291.55527464526
 20
994.7544803713896
 30
0.0
 11
-1291.55527464526
 21
1077.754419336234
 31
0.0
  0
LINE
  5
3A4
330
1F
100
AcDbEntity
  8
C-4_寸法
  6
Continuous
 62
     7
370
     9
100
AcDbLine
 10
-1291.055427233151
 20
994.7544803713896
 30
0.0
 11
-1291.055427233151
 21
1157.754785547171
 31
0.0
  0
LINE
  5
3A5
330
1F
100
AcDbEntity
  8
C-4_寸法
  6
Continuous
 62
     7
370
     9
100
AcDbLine
 10
-691.5553661979948
 20
994.7544803713896
 30
0.0
 11
-691.5553661979948
 21
1077.754419336234
 31
0.0
  0
LINE
  5
3A6
330
1F
100
AcDbEntity
  8
C-4_寸法
  6
Continuous
 62
     7
370
     9
100
AcDbLine
 10
-691.0557018913541
 20
994.7544803713896
 30
0.0
 11
-691.0557018913541
 21
1157.754785547171
 31
0.0
  0
LINE
  5
3A7
330
1F
100
AcDbEntity
  8
C-4_寸法
  6
Continuous
 62
     7
370
     9
100
AcDbLine
 10
-91.55509153979168
 20
994.7544803713896
 30
0.0
 11
-91.55509153979168
 21
1077.754419336234
 31
0.0
  0
LINE
  5
3A8
330
1F
100
AcDbEntity
  8
C-4_寸法
  6
Continuous
 62
     7
370
     9
100
AcDbLine
 10
-91.0556408561979
 20
994.7544803713896
 30
0.0
 11
-91.0556408561979
 21
1157.754785547171
 31
0.0
  0
LWPOLYLINE
  5
3A9
330
1F
100
AcDbEntity
  8
C-4_寸法
  6
Continuous
 62
     7
370
     9
100
AcDbPolyline
 90
        4
 70
     1
 43
2.0
 10
-1290.55527464526
 20
1074.754358301077
 42
0.4142135623731
 10
-1291.55527464526
 20
1075.754358301077
 42
0.4142135623731
 10
-1292.55527464526
 20
1074.754358301077
 42
0.4142135623731
 10
-1291.55527464526
 20
1073.754358301077
 42
0.4142135623731
  0
LWPOLYLINE
  5
3AA
330
1F
100
AcDbEntity
  8
C-4_寸法
  6
Continuous
 62
     7
370
     9
100
AcDbPolyline
 90
        4
 70
     1
 43
2.0
 10
-1290.055427233151
 20
1074.754358301077
 42
0.4142135623731
 10
-1291.055427233151
 20
1075.754358301077
 42
0.4142135623731
 10
-1292.055427233151
 20
1074.754358301077
 42
0.4142135623731
 10
-1291.055427233151
 20
1073.754358301077
 42
0.4142135623731
  0
LWPOLYLINE
  5
3AB
330
1F
100
AcDbEntity
  8
C-4_寸法
  6
Continuous
 62
     7
370
     9
100
AcDbPolyline
 90
        4
 70
     1
 43
2.0
 10
-690.5553661979948
 20
1074.754358301077
 42
0.4142135623731
 10
-691.5553661979948
 20
1075.754358301077
 42
0.4142135623731
 10
-692.5553661979948
 20
1074.754358301077
 42
0.4142135623731
 10
-691.5553661979948
 20
1073.754358301077
 42
0.4142135623731
  0
LWPOLYLINE
  5
3AC
330
1F
100
AcDbEntity
  8
C-4_寸法
  6
Continuous
 62
     7
370
     9
100
AcDbPolyline
 90
        4
 70
     1
 43
2.0
 10
-690.0557018913543
 20
1074.754358301077
 42
0.4142135623731
 10
-691.0557018913541
 20
1075.754358301077
 42
0.4142135623731
 10
-692.0557018913541
 20
1074.754358301077
 42
0.4142135623731
 10
-691.0557018913541
 20
1073.754358301077
 42
0.4142135623731
  0
LWPOLYLINE
  5
3AD
330
1F
100
AcDbEntity
  8
C-4_寸法
  6
Continuous
 62
     7
370
     9
100
AcDbPolyline
 90
        4
 70
     1
 43
2.0
 10
-90.55509153979168
 20
1074.754358301077
 42
0.4142135623731
 10
-91.55509153979168
 20
1075.754358301077
 42
0.4142135623731
 10
-92.55509153979168
 20
1074.754358301077
 42
0.4142135623731
 10
-91.55509153979168
 20
1073.754358301077
 42
0.4142135623731
  0
LWPOLYLINE
  5
3AE
330
1F
100
AcDbEntity
  8
C-4_寸法
  6
Continuous
 62
     7
370
     9
100
AcDbPolyline
 90
        4
 70
     1
 43
2.0
 10
-90.0556408561979
 20
1074.754358301077
 42
0.4142135623731
 10
-91.0556408561979
 20
1075.754358301077
 42
0.4142135623731
 10
-92.0556408561979
 20
1074.754358301077
 42
0.4142135623731
 10
-91.0556408561979
 20
1073.754358301077
 42
0.4142135623731
  0
LWPOLYLINE
  5
3AF
330
1F
100
AcDbEntity
  8
C-4_寸法
  6
Continuous
 62
     7
370
     9
100
AcDbPolyline
 90
        4
 70
     1
 43
2.0
 10
-1290.055427233151
 20
1154.754236230765
 42
0.4142135623731
 10
-1291.055427233151
 20
1155.754236230765
 42
0.4142135623731
 10
-1292.055427233151
 20
1154.754236230765
 42
0.4142135623731
 10
-1291.055427233151
 20
1153.754236230765
 42
0.4142135623731
  0
LWPOLYLINE
  5
3B0
330
1F
100
AcDbEntity
  8
C-4_寸法
  6
Continuous
 62
     7
370
     9
100
AcDbPolyline
 90
        4
 70
     1
 43
2.0
 10
-690.0557018913543
 20
1154.754236230765
 42
0.4142135623731
 10
-691.0557018913541
 20
1155.754236230765
 42
0.4142135623731
 10
-692.0557018913541
 20
1154.754236230765
 42
0.4142135623731
 10
-691.0557018913541
 20
1153.754236230765
 42
0.4142135623731
  0
LWPOLYLINE
  5
3B1
330
1F
100
AcDbEntity
  8
C-4_寸法
  6
Continuous
 62
     7
370
     9
100
AcDbPolyline
 90
        4
 70
     1
 43
2.0
 10
-90.0556408561979
 20
1154.754236230765
 42
0.4142135623731
 10
-91.0556408561979
 20
1155.754236230765
 42
0.4142135623731
 10
-92.0556408561979
 20
1154.754236230765
 42
0.4142135623731
 10
-91.0556408561979
 20
1153.754236230765
 42
0.4142135623731
  0
TEXT
  5
3B2
330
1F
100
AcDbEntity
  8
C-4_寸法
  6
Continuous
 62
     2
370
     9
100
AcDbText
 10
-1367.135261217526
 20
1085.39414467803
 30
0.0
 40
30.48
  1
0.5
 41
1.083333333333333
  7
ＭＳ ゴシック
100
AcDbText
  0
TEXT
  5
3B3
330
1F
100
AcDbEntity
  8
C-4_寸法
  6
Continuous
 62
     2
370
     9
100
AcDbText
 10
-1046.30527464526
 20
1085.39414467803
 30
0.0
 40
30.48
  1
599.5
 41
1.1
  7
ＭＳ ゴシック
100
AcDbText
  0
TEXT
  5
3B4
330
1F
100
AcDbEntity
  8
C-4_寸法
  6
Continuous
 62
     2
370
     9
100
AcDbText
 10
-767.1353069938932
 20
1085.39414467803
 30
0.0
 40
30.48
  1
0.5
 41
1.083333333333333
  7
ＭＳ ゴシック
100
AcDbText
  0
TEXT
  5
3B5
330
1F
100
AcDbEntity
  8
C-4_寸法
  6
Continuous
 62
     2
370
     9
100
AcDbText
 10
-446.3055187858854
 20
1085.39414467803
 30
0.0
 40
30.48
  1
599.5
 41
1.100000000000001
  7
ＭＳ ゴシック
100
AcDbText
  0
TEXT
  5
3B6
330
1F
100
AcDbEntity
  8
C-4_寸法
  6
Continuous
 62
     2
370
     9
100
AcDbText
 10
-167.1353527702604
 20
1085.39414467803
 30
0.0
 40
30.48
  1
0.5
 41
1.083333333333333
  7
ＭＳ ゴシック
100
AcDbText
  0
TEXT
  5
3B7
330
1F
100
AcDbEntity
  8
C-4_寸法
  6
Continuous
 62
     2
370
     9
100
AcDbText
 10
-1023.555392900876
 20
1165.39448037139
 30
0.0
 40
30.48
  1
600
 41
1.083333333333333
  7
ＭＳ ゴシック
100
AcDbText
  0
TEXT
  5
3B8
330
1F
100
AcDbEntity
  8
C-4_寸法
  6
Continuous
 62
     2
370
     9
100
AcDbText
 10
-423.5554577507292
 20
1165.39448037139
 30
0.0
 40
30.48
  1
600
 41
1.083333333333333
  7
ＭＳ ゴシック
100
AcDbText
  0
LINE
  5
3B9
330
1F
100
AcDbEntity
  8
C-2_蓋
  6
Continuous
 62
     3
370
     9
100
AcDbLine
 10
-1291.055427233151
 20
666.7548770999053
 30
0.0
 11
-1291.055427233151
 21
966.7545414065455
 31
0.0
  0
LINE
  5
3BA
330
1F
100
AcDbEntity
  8
C-2_蓋
  6
Continuous
 62
     3
370
     9
100
AcDbLine
 10
-691.5553661979948
 20
966.7545414065455
 30
0.0
 11
-691.5553661979948
 21
666.7548770999053
 31
0.0
  0
LINE
  5
3BB
330
1F
100
AcDbEntity
  8
C-2_蓋
  6
Continuous
 62
     3
370
     9
100
AcDbLine
 10
-1286.055640856198
 20
671.7548923586946
 30
0.0
 11
-1286.055640856198
 21
961.7542667483428
 31
0.0
  0
LINE
  5
3BC
330
1F
100
AcDbEntity
  8
C-2_蓋
  6
Continuous
 62
     3
370
     9
100
AcDbLine
 10
-696.555152574948
 20
961.7542667483428
 30
0.0
 11
-696.555152574948
 21
671.7548923586946
 31
0.0
  0
LINE
  5
3BD
330
1F
100
AcDbEntity
  8
C-2_蓋
  6
Continuous
 62
     3
370
     9
100
AcDbLine
 10
-691.0557018913541
 20
666.7548770999053
 30
0.0
 11
-691.0557018913541
 21
966.7545414065455
 31
0.0
  0
LINE
  5
3BE
330
1F
100
AcDbEntity
  8
C-2_蓋
  6
Continuous
 62
     3
370
     9
100
AcDbLine
 10
-91.55509153979168
 20
966.7545414065455
 30
0.0
 11
-91.55509153979168
 21
666.7548770999053
 31
0.0
  0
LINE
  5
3BF
330
1F
100
AcDbEntity
  8
C-2_蓋
  6
Continuous
 62
     3
370
     9
100
AcDbLine
 10
-686.0554272331511
 20
671.7548923586946
 30
0.0
 11
-686.0554272331511
 21
961.7542667483428
 31
0.0
  0
LINE
  5
3C0
330
1F
100
AcDbEntity
  8
C-2_蓋
  6
Continuous
 62
     3
370
     9
100
AcDbLine
 10
-96.55545775072909
 20
961.7542667483428
 30
0.0
 11
-96.55545775072909
 21
671.7548923586946
 31
0.0
  0
LINE
  5
3C1
330
1F
100
AcDbEntity
  8
C-2_蓋
  6
Continuous
 62
     3
370
     9
100
AcDbLine
 10
-91.0556408561979
 20
666.7548770999053
 30
0.0
 11
-91.0556408561979
 21
966.7545414065455
 31
0.0
  0
LINE
  5
3C2
330
1F
100
AcDbEntity
  8
C-2_蓋
  6
Continuous
 62
     3
370
     9
100
AcDbLine
 10
-86.05533568041665
 20
671.7548923586946
 30
0.0
 11
-86.05533568041665
 21
961.7542667483428
 31
0.0
  0
LINE
  5
3C3
330
1F
100
AcDbEntity
  8
C-2_蓋
  6
Continuous
 62
     3
370
     9
100
AcDbLine
 10
-1291.55527464526
 20
966.7545414065455
 30
0.0
 11
-1291.55527464526
 21
666.7548770999053
 31
0.0
  0
LINE
  5
3C4
330
1F
100
AcDbEntity
  8
C-2_蓋
  6
Continuous
 62
     3
370
     9
100
AcDbLine
 10
-1296.555549303464
 20
961.7542667483428
 30
0.0
 11
-1296.555549303464
 21
671.7548923586946
 31
0.0
  0
TEXT
  5
3C5
330
1F
100
AcDbEntity
  8
D-4_寸法
  6
Continuous
 62
     2
370
     9
100
AcDbText
 10
-1426.310259306998
 20
-157.0293942777371
 30
0.0
 40
30.48
  1
250
 41
1.083333333333333
  7
ＭＳ ゴシック
100
AcDbText
  0
TEXT
  5
3C6
330
1F
100
AcDbEntity
  8
D-4_寸法
  6
Continuous
 62
     2
370
     9
100
AcDbText
 10
-1426.310259306998
 20
-48.22939427773711
 30
0.0
 40
30.48
  1
300
 41
1.083333333333333
  7
ＭＳ ゴシック
100
AcDbText
  0
TEXT
  5
3C7
330
1F
100
AcDbEntity
  8
D-4_寸法
  6
Continuous
 62
     2
370
     9
100
AcDbText
 10
-1426.310259306998
 20
62.47060572226339
 30
0.0
 40
30.48
  1
316
 41
1.083333333333333
  7
ＭＳ ゴシック
100
AcDbText
  0
LINE
  5
3C8
330
1F
100
AcDbEntity
  8
C-2_蓋
  6
Continuous
 62
     3
370
     9
100
AcDbLine
 10
138.9447253547397
 20
801.7543888186549
 30
0.0
 11
178.9447253547397
 21
831.755029687796
 31
0.0
  0
LINE
  5
3C9
330
1F
100
AcDbEntity
  8
C-2_蓋
  6
Continuous
 62
     3
370
     9
100
AcDbLine
 10
138.9447253547397
 20
801.7543888186549
 30
0.0
 11
158.944603284427
 21
801.7543888186549
 31
0.0
  0
LINE
  5
3CA
330
1F
100
AcDbEntity
  8
C-2_蓋
  6
Continuous
 62
     3
370
     9
100
AcDbLine
 10
158.944603284427
 20
831.755029687796
 30
0.0
 11
178.9447253547397
 21
831.755029687796
 31
0.0
  0
LINE
  5
3CB
330
1F
100
AcDbEntity
  8
C-2_蓋
  6
Continuous
 62
     3
370
     9
100
AcDbLine
 10
158.944603284427
 20
671.7548923586946
 30
0.0
 11
-86.05533568041665
 21
671.7548923586946
 31
0.0
  0
LINE
  5
3CC
330
1F
100
AcDbEntity
  8
C-2_蓋
  6
Continuous
 62
     3
370
     9
100
AcDbLine
 10
158.944603284427
 20
666.7548770999053
 30
0.0
 11
-91.0556408561979
 21
666.7548770999053
 31
0.0
  0
LINE
  5
3CD
330
1F
100
AcDbEntity
  8
C-2_蓋
  6
Continuous
 62
     3
370
     9
100
AcDbLine
 10
158.944603284427
 20
801.7543888186549
 30
0.0
 11
158.944603284427
 21
643.75471688262
 31
0.0
  0
LINE
  5
3CE
330
1F
100
AcDbEntity
  8
C-2_蓋
  6
Continuous
 62
     3
370
     9
100
AcDbLine
 10
-91.0556408561979
 20
966.7545414065455
 30
0.0
 11
158.944603284427
 21
966.7545414065455
 31
0.0
  0
LINE
  5
3CF
330
1F
100
AcDbEntity
  8
C-2_蓋
  6
Continuous
 62
     3
370
     9
100
AcDbLine
 10
-86.05533568041665
 20
961.7542667483428
 30
0.0
 11
158.944603284427
 21
961.7542667483428
 31
0.0
  0
LINE
  5
3D0
330
1F
100
AcDbEntity
  8
C-2_蓋
  6
Continuous
 62
     3
370
     9
100
AcDbLine
 10
158.944603284427
 20
989.7542057131864
 30
0.0
 11
158.944603284427
 21
831.755029687796
 31
0.0
  0
LINE
  5
3D1
330
1F
100
AcDbEntity
  8
C-2_蓋
  6
Continuous
 62
     3
370
     9
100
AcDbLine
 10
-1561.555335680417
 20
801.7543888186549
 30
0.0
 11
-1541.555518785885
 21
801.7543888186549
 31
0.0
  0
LINE
  5
3D2
330
1F
100
AcDbEntity
  8
C-2_蓋
  6
Continuous
 62
     3
370
     9
100
AcDbLine
 10
-1561.555335680417
 20
801.7543888186549
 30
0.0
 11
-1521.555457750729
 21
831.755029687796
 31
0.0
  0
LINE
  5
3D3
330
1F
100
AcDbEntity
  8
C-2_蓋
  6
Continuous
 62
     3
370
     9
100
AcDbLine
 10
-1541.555518785885
 20
831.755029687796
 30
0.0
 11
-1521.555457750729
 21
831.755029687796
 31
0.0
  0
LINE
  5
3D4
330
1F
100
AcDbEntity
  8
C-2_蓋
  6
Continuous
 62
     3
370
     9
100
AcDbLine
 10
-1291.55527464526
 20
666.7548770999053
 30
0.0
 11
-1541.555518785885
 21
666.7548770999053
 31
0.0
  0
LINE
  5
3D5
330
1F
100
AcDbEntity
  8
C-2_蓋
  6
Continuous
 62
     3
370
     9
100
AcDbLine
 10
-1296.555549303464
 20
671.7548923586946
 30
0.0
 11
-1541.555518785885
 21
671.7548923586946
 31
0.0
  0
LINE
  5
3D6
330
1F
100
AcDbEntity
  8
C-2_蓋
  6
Continuous
 62
     3
370
     9
100
AcDbLine
 10
-1541.555518785885
 20
801.7543888186549
 30
0.0
 11
-1541.555518785885
 21
643.75471688262
 31
0.0
  0
LINE
  5
3D7
330
1F
100
AcDbEntity
  8
C-2_蓋
  6
Continuous
 62
     3
370
     9
100
AcDbLine
 10
-1541.555518785885
 20
966.7545414065455
 30
0.0
 11
-1291.55527464526
 21
966.7545414065455
 31
0.0
  0
LINE
  5
3D8
330
1F
100
AcDbEntity
  8
C-2_蓋
  6
Continuous
 62
     3
370
     9
100
AcDbLine
 10
-1541.555518785885
 20
961.7542667483428
 30
0.0
 11
-1296.555549303464
 21
961.7542667483428
 31
0.0
  0
LINE
  5
3D9
330
1F
100
AcDbEntity
  8
C-2_蓋
  6
Continuous
 62
     3
370
     9
100
AcDbLine
 10
-1541.555518785885
 20
989.7542057131864
 30
0.0
 11
-1541.555518785885
 21
831.755029687796
 31
0.0
  0
LINE
  5
3DA
330
1F
100
AcDbEntity
  8
C-1_ピット
  6
JWW_DASHED3
 62
     2
370
     9
100
AcDbLine
 10
-1541.555518785885
 20
691.754739770804
 30
0.0
 11
158.944603284427
 21
691.754739770804
 31
0.0
  0
LINE
  5
3DB
330
1F
100
AcDbEntity
  8
C-1_ピット
  6
Continuous
 62
     2
370
     9
100
AcDbLine
 10
-1541.555518785885
 20
665.7547702883818
 30
0.0
 11
158.944603284427
 21
665.7547702883818
 31
0.0
  0
LINE
  5
3DC
330
1F
100
AcDbEntity
  8
C-1_ピット
  6
Continuous
 62
     2
370
     9
100
AcDbLine
 10
-1541.555518785885
 20
658.7547855471712
 30
0.0
 11
158.944603284427
 21
658.7547855471712
 31
0.0
  0
LINE
  5
3DD
330
1F
100
AcDbEntity
  8
C-1_ピット
  6
JWW_DASHED3
 62
     2
370
     9
100
AcDbLine
 10
-1541.555518785885
 20
941.7541751956082
 30
0.0
 11
158.944603284427
 21
941.7541751956082
 31
0.0
  0
LINE
  5
3DE
330
1F
100
AcDbEntity
  8
C-1_ピット
  6
Continuous
 62
     2
370
     9
100
AcDbLine
 10
-1541.555518785885
 20
967.7544193362337
 30
0.0
 11
158.944603284427
 21
967.7544193362337
 31
0.0
  0
LINE
  5
3DF
330
1F
100
AcDbEntity
  8
C-1_ピット
  6
Continuous
 62
     2
370
     9
100
AcDbLine
 10
-1541.555518785885
 20
974.7543888186556
 30
0.0
 11
158.944603284427
 21
974.7543888186556
 31
0.0
  0
LINE
  5
3E0
330
1F
100
AcDbEntity
  8
C-4_寸法
  6
Continuous
 62
     7
370
     9
100
AcDbLine
 10
-1541.555518785885
 20
1074.754358301077
 30
0.0
 11
158.9444812141146
 21
1074.754358301077
 31
0.0
  0
LINE
  5
3E1
330
1F
100
AcDbEntity
  8
C-4_寸法
  6
Continuous
 62
     7
370
     9
100
AcDbLine
 10
-1541.555518785885
 20
1154.754236230765
 30
0.0
 11
158.9444812141146
 21
1154.754236230765
 31
0.0
  0
TEXT
  5
3E2
330
1F
100
AcDbEntity
  8
D-5_仕様文
  6
Continuous
 62
     2
370
     9
100
AcDbText
 10
197.8323874825531
 20
-946.4008207375828
 30
0.0
 40
30.48
  1
処理：受枠フレーム　陽極酸化塗装複合皮膜
 41
1.11875
  7
ＭＳ ゴシック
100
AcDbText
  0
TEXT
  5
3E3
330
1F
100
AcDbEntity
  8
D-5_仕様文
  6
Continuous
 62
     2
370
     9
100
AcDbText
 10
136.9849601371482
 20
-214.5958420195678
 30
0.0
 40
30.48
  1
ＭＲＩ室対応　樹脂タイル用　オールアルミニウム製　配線・配管ピット蓋
 41
1.121323529411764
  7
ＭＳ ゴシック
100
AcDbText
  0
TEXT
  5
3E4
330
1F
100
AcDbEntity
  8
D-5_仕様文
  6
Continuous
 62
     2
370
     9
100
AcDbText
 10
136.9849601371482
 20
-279.5961471953498
 30
0.0
 40
30.48
  1
ＡＣ－ＡＡ　３００×６００×１５
 41
1.1171875
  7
ＭＳ ゴシック
100
AcDbText
  0
TEXT
  5
3E5
330
1F
100
AcDbEntity
  8
F-5ﾚｲﾔ
  6
Continuous
 62
     2
370
     9
100
AcDbText
 10
-507.4695124367637
 20
-1368.172084633848
 30
0.0
 40
26.67000000000001
  1
ＡＣ－ＡＡ　３００×６００×１５＋ＡＦ１５ＬＢ－Ｓ
 41
0.9999999999999998
  7
ＭＳ ゴシック
100
AcDbText
  0
TEXT
  5
3E6
330
1F
100
AcDbEntity
  8
F-5ﾚｲﾔ
  6
Continuous
 62
     2
370
     9
100
AcDbText
 10
-822.4695124367636
 20
-1324.130697526768
 30
0.0
 40
26.67000000000001
  1
ＭＲＩ室対応　樹脂タイル用　オールアルミニウム製　配線・配管ピット蓋
 41
0.9999999999999998
  7
ＭＳ ゴシック
100
AcDbText
  0
ENDSEC
  0
SECTION
  2
OBJECTS
  0
DICTIONARY
  5
C
330
0
100
AcDbDictionary
281
     1
  3
ACAD_DETAILVIEWSTYLE
350
42C
  3
ACAD_GROUP
350
D
  3
ACAD_LAYOUT
350
1A
  3
ACAD_MATERIAL
350
43
  3
ACAD_MLEADERSTYLE
350
6B
  3
ACAD_MLINESTYLE
350
17
  3
ACAD_PLOTSETTINGS
350
19
  3
ACAD_PLOTSTYLENAME
350
E
  3
ACAD_SCALELIST
350
47
  3
ACAD_SECTIONVIEWSTYLE
350
42D
  3
ACAD_TABLESTYLE
350
69
  3
ACAD_VISUALSTYLE
350
2A
  3
ACDB_RECOMPOSE_DATA
350
429
  3
AcDbVariableDictionary
350
3E9
  0
DICTIONARY
  5
3E7
330
8
100
AcDbDictionary
280
     1
281
     1
  3
ACAD_XREC_ROUNDTRIP
360
3E8
  0
DICTIONARY
  5
42C
102
{ACAD_REACTORS
330
C
102
}
330
C
100
AcDbDictionary
281
     1
  0
DICTIONARY
  5
D
102
{ACAD_REACTORS
330
C
102
}
330
C
100
AcDbDictionary
281
     1
  0
DICTIONARY
  5
1A
102
{ACAD_REACTORS
330
C
102
}
330
C
100
AcDbDictionary
281
     1
  3
Layout1
350
1E
  3
Layout2
350
26
  3
Model
350
22
  0
DICTIONARY
  5
43
102
{ACAD_REACTORS
330
C
102
}
330
C
100
AcDbDictionary
281
     1
  3
ByBlock
350
45
  3
ByLayer
350
44
  3
Global
350
46
  0
DICTIONARY
  5
6B
102
{ACAD_REACTORS
330
C
102
}
330
C
100
AcDbDictionary
281
     1
  3
Standard
350
6C
  0
DICTIONARY
  5
17
102
{ACAD_REACTORS
330
C
102
}
330
C
100
AcDbDictionary
281
     1
  3
Standard
350
18
  0
DICTIONARY
  5
19
102
{ACAD_REACTORS
330
C
102
}
330
C
100
AcDbDictionary
281
     1
  0
ACDBDICTIONARYWDFLT
  5
E
102
{ACAD_REACTORS
330
C
102
}
330
C
100
AcDbDictionary
281
     1
  3
Normal
350
F
100
AcDbDictionaryWithDefault
340
F
  0
DICTIONARY
  5
47
102
{ACAD_REACTORS
330
C
102
}
330
C
100
AcDbDictionary
281
     1
  3
A0
350
48
  3
A1
350
49
  3
A2
350
4A
  3
A3
350
4B
  3
A4
350
4C
  3
A5
350
4D
  3
A6
350
4E
  3
A7
350
4F
  3
A8
350
50
  3
A9
350
51
  3
B0
350
52
  3
B1
350
53
  3
B2
350
54
  3
B3
350
55
  3
B4
350
56
  3
B5
350
57
  3
B6
350
58
  3
B7
350
59
  3
B8
350
5A
  3
B9
350
5B
  3
C0
350
5C
  3
C1
350
5D
  3
C2
350
5E
  3
C3
350
5F
  3
C4
350
60
  3
C5
350
61
  3
C6
350
62
  3
C7
350
63
  3
C8
350
64
  3
C9
350
65
  3
D0
350
66
  3
D1
350
67
  3
D2
350
68
  0
DICTIONARY
  5
42D
102
{ACAD_REACTORS
330
C
102
}
330
C
100
AcDbDictionary
281
     1
  0
DICTIONARY
  5
69
102
{ACAD_REACTORS
330
C
102
}
330
C
100
AcDbDictionary
281
     1
  3
Standard
350
6A
  0
DICTIONARY
  5
2A
102
{ACAD_REACTORS
330
C
102
}
330
C
100
AcDbDictionary
281
     1
  3
2dWireframe
350
2F
  3
Basic
350
32
  3
Brighten
350
36
  3
ColorChange
350
3A
  3
Conceptual
350
34
  3
Dim
350
35
  3
EdgeColorOff
350
3D
  3
Facepattern
350
39
  3
Flat
350
2B
  3
FlatWithEdges
350
2C
  3
Gouraud
350
2D
  3
GouraudWithEdges
350
2E
  3
Hidden
350
31
  3
JitterOff
350
3B
  3
Linepattern
350
38
  3
OverhangOff
350
3C
  3
Realistic
350
33
  3
Shaded
350
42
  3
Shaded with edges
350
41
  3
Shades of Gray
350
3E
  3
Sketchy
350
3F
  3
Thicken
350
37
  3
Wireframe
350
30
  3
X-Ray
350
40
  0
XRECORD
  5
429
102
{ACAD_REACTORS
330
C
102
}
330
C
100
AcDbXrecord
280
     1
 90
        1
330
6A
  0
DICTIONARY
  5
3E9
102
{ACAD_REACTORS
330
C
102
}
330
C
100
AcDbDictionary
281
     1
  3
CANNOSCALE
350
3EA
  3
CENTEREXE
350
42E
  3
CENTERLTYPEFILE
350
42F
  3
CMLEADERSTYLE
350
42B
  3
CTABLESTYLE
350
42A
  3
MSLTSCALE
350
3EB
  3
XCLIPFRAME
350
3EC
  0
XRECORD
  5
3E8
102
{ACAD_REACTORS
330
3E7
102
}
330
3E7
100
AcDbXrecord
280
     1
102
VTR_0.000_0.000_1.000_1.000_VISUALSTYLE
340
2F
102
VTR_0.000_0.000_1.000_1.000_GRIDDISPLAY
 70
     3
102
VTR_0.000_0.000_1.000_1.000_GRIDMAJOR
 70
     5
102
VTR_0.000_0.000_1.000_1.000_DEFAULTLIGHTING
280
     1
102
VTR_0.000_0.000_1.000_1.000_DEFAULTLIGHTINGTYPE
 70
     1
102
VTR_0.000_0.000_1.000_1.000_BRIGHTNESS
141
0.0
102
VTR_0.000_0.000_1.000_1.000_CONTRAST
142
0.0
  0
LAYOUT
  5
1E
102
{ACAD_REACTORS
330
1A
102
}
330
1A
100
AcDbPlotSettings
  1

  2
none_device
  4

  6

 40
0.0
 41
0.0
 42
0.0
 43
0.0
 44
0.0
 45
0.0
 46
0.0
 47
0.0
 48
0.0
 49
0.0
140
0.0
141
0.0
142
1.0
143
1.0
 70
   688
 72
     1
 73
     0
 74
     5
  7

 75
    16
 76
     0
 77
     5
 78
   300
147
1.0
148
0.0
149
0.0
100
AcDbLayout
  1
Layout1
 70
     1
 71
     1
 10
0.0
 20
0.0
 11
420.0
 21
297.0
 12
0.0
 22
0.0
 32
0.0
 14
1.000000000000000E+20
 24
1.000000000000000E+20
 34
1.000000000000000E+20
 15
-1.000000000000000E+20
 25
-1.000000000000000E+20
 35
-1.000000000000000E+20
146
0.0
 13
0.0
 23
0.0
 33
0.0
 16
1.0
 26
0.0
 36
0.0
 17
0.0
 27
1.0
 37
0.0
 76
     0
330
1B
  0
LAYOUT
  5
26
102
{ACAD_REACTORS
330
1A
102
}
330
1A
100
AcDbPlotSettings
  1

  2
none_device
  4

  6

 40
0.0
 41
0.0
 42
0.0
 43
0.0
 44
0.0
 45
0.0
 46
0.0
 47
0.0
 48
0.0
 49
0.0
140
0.0
141
0.0
142
1.0
143
1.0
 70
   688
 72
     1
 73
     0
 74
     5
  7

 75
    16
 76
     0
 77
     5
 78
   300
147
1.0
148
0.0
149
0.0
100
AcDbLayout
  1
Layout2
 70
     1
 71
     2
 10
0.0
 20
0.0
 11
0.0
 21
0.0
 12
0.0
 22
0.0
 32
0.0
 14
0.0
 24
0.0
 34
0.0
 15
0.0
 25
0.0
 35
0.0
146
0.0
 13
0.0
 23
0.0
 33
0.0
 16
1.0
 26
0.0
 36
0.0
 17
0.0
 27
1.0
 37
0.0
 76
     0
330
23
  0
LAYOUT
  5
22
102
{ACAD_REACTORS
330
1A
102
}
330
1A
100
AcDbPlotSettings
  1

  2
none_device
  4
Letter_(8.50_x_11.00_Inches)
  6

 40
6.35
 41
6.35
 42
6.35000508
 43
6.35000508
 44
215.9
 45
279.4
 46
0.0
 47
0.0
 48
0.0
 49
0.0
140
0.0
141
0.0
142
1.0
143
1.0
 70
  1712
 72
     1
 73
     0
 74
     0
  7

 75
     0
 76
     0
 77
     5
 78
   300
147
1.0
148
0.0
149
0.0
100
AcDbLayout
  1
Model
 70
     1
 71
     0
 10
-2100.0
 20
-1485.0
 11
2100.0
 21
1485.0
 12
0.0
 22
0.0
 32
0.0
 14
-2100.0
 24
-1485.0
 34
0.0
 15
2100.0
 25
1485.0
 35
0.0
146
0.0
 13
0.0
 23
0.0
 33
0.0
 16
1.0
 26
0.0
 36
0.0
 17
0.0
 27
1.0
 37
0.0
 76
     0
330
1F
331
29
  0
MATERIAL
  5
45
102
{ACAD_REACTORS
330
43
102
}
102
{ACAD_XDICTIONARY
360
41F
102
}
330
43
100
AcDbMaterial
  1
ByBlock
  0
MATERIAL
  5
44
102
{ACAD_REACTORS
330
43
102
}
102
{ACAD_XDICTIONARY
360
41D
102
}
330
43
100
AcDbMaterial
  1
ByLayer
  0
MATERIAL
  5
46
102
{ACAD_REACTORS
330
43
102
}
102
{ACAD_XDICTIONARY
360
421
102
}
330
43
100
AcDbMaterial
  1
Global
  0
MLEADERSTYLE
  5
6C
102
{ACAD_REACTORS
330
6B
102
}
102
{ACAD_XDICTIONARY
360
427
102
}
330
6B
100
AcDbMLeaderStyle
170
     2
171
     1
172
     0
 90
        2
 40
0.0
 41
0.0
173
     1
 91
-1056964608
340
14
 92
       -2
290
     1
 42
2.0
291
     1
 43
8.0
  3
Standard
341
0
 44
4.0
300

342
11
174
     1
178
     6
175
     1
176
     0
 93
-1056964608
 45
4.0
292
     0
297
     0
 46
4.0
343
0
 94
-1056964608
 47
1.0
 49
1.0
140
1.0
293
     1
141
0.0
294
     1
177
     0
142
1.0
295
     0
296
     0
143
3.75
1001
ACAD_MLEADERVER
1070
     2
  0
MLINESTYLE
  5
18
102
{ACAD_REACTORS
330
17
102
}
330
17
100
AcDbMlineStyle
  2
Standard
 70
     0
  3

 62
   256
 51
90.0
 52
90.0
 71
     2
 49
0.5
 62
   256
  6
BYLAYER
 49
-0.5
 62
   256
  6
BYLAYER
  0
ACDBPLACEHOLDER
  5
F
102
{ACAD_REACTORS
330
E
102
}
330
E
  0
SCALE
  5
48
102
{ACAD_REACTORS
330
47
102
}
330
47
100
AcDbScale
 70
     0
300
1:1
140
1.0
141
1.0
290
     1
  0
SCALE
  5
49
102
{ACAD_REACTORS
330
47
102
}
330
47
100
AcDbScale
 70
     0
300
1:2
140
1.0
141
2.0
290
     0
  0
SCALE
  5
4A
102
{ACAD_REACTORS
330
47
102
}
330
47
100
AcDbScale
 70
     0
300
1:4
140
1.0
141
4.0
290
     0
  0
SCALE
  5
4B
102
{ACAD_REACTORS
330
47
102
}
330
47
100
AcDbScale
 70
     0
300
1:5
140
1.0
141
5.0
290
     0
  0
SCALE
  5
4C
102
{ACAD_REACTORS
330
47
102
}
330
47
100
AcDbScale
 70
     0
300
1:8
140
1.0
141
8.0
290
     0
  0
SCALE
  5
4D
102
{ACAD_REACTORS
330
47
102
}
330
47
100
AcDbScale
 70
     0
300
1:10
140
1.0
141
10.0
290
     0
  0
SCALE
  5
4E
102
{ACAD_REACTORS
330
47
102
}
330
47
100
AcDbScale
 70
     0
300
1:16
140
1.0
141
16.0
290
     0
  0
SCALE
  5
4F
102
{ACAD_REACTORS
330
47
102
}
330
47
100
AcDbScale
 70
     0
300
1:20
140
1.0
141
20.0
290
     0
  0
SCALE
  5
50
102
{ACAD_REACTORS
330
47
102
}
330
47
100
AcDbScale
 70
     0
300
1:30
140
1.0
141
30.0
290
     0
  0
SCALE
  5
51
102
{ACAD_REACTORS
330
47
102
}
330
47
100
AcDbScale
 70
     0
300
1:40
140
1.0
141
40.0
290
     0
  0
SCALE
  5
52
102
{ACAD_REACTORS
330
47
102
}
330
47
100
AcDbScale
 70
     0
300
1:50
140
1.0
141
50.0
290
     0
  0
SCALE
  5
53
102
{ACAD_REACTORS
330
47
102
}
330
47
100
AcDbScale
 70
     0
300
1:100
140
1.0
141
100.0
290
     0
  0
SCALE
  5
54
102
{ACAD_REACTORS
330
47
102
}
330
47
100
AcDbScale
 70
     0
300
2:1
140
2.0
141
1.0
290
     0
  0
SCALE
  5
55
102
{ACAD_REACTORS
330
47
102
}
330
47
100
AcDbScale
 70
     0
300
4:1
140
4.0
141
1.0
290
     0
  0
SCALE
  5
56
102
{ACAD_REACTORS
330
47
102
}
330
47
100
AcDbScale
 70
     0
300
8:1
140
8.0
141
1.0
290
     0
  0
SCALE
  5
57
102
{ACAD_REACTORS
330
47
102
}
330
47
100
AcDbScale
 70
     0
300
10:1
140
10.0
141
1.0
290
     0
  0
SCALE
  5
58
102
{ACAD_REACTORS
330
47
102
}
330
47
100
AcDbScale
 70
     0
300
100:1
140
100.0
141
1.0
290
     0
  0
SCALE
  5
59
102
{ACAD_REACTORS
330
47
102
}
330
47
100
AcDbScale
 70
     0
300
1/128" = 1'-0"
140
0.0078125
141
12.0
290
     0
  0
SCALE
  5
5A
102
{ACAD_REACTORS
330
47
102
}
330
47
100
AcDbScale
 70
     0
300
1/64" = 1'-0"
140
0.015625
141
12.0
290
     0
  0
SCALE
  5
5B
102
{ACAD_REACTORS
330
47
102
}
330
47
100
AcDbScale
 70
     0
300
1/32" = 1'-0"
140
0.03125
141
12.0
290
     0
  0
SCALE
  5
5C
102
{ACAD_REACTORS
330
47
102
}
330
47
100
AcDbScale
 70
     0
300
1/16" = 1'-0"
140
0.0625
141
12.0
290
     0
  0
SCALE
  5
5D
102
{ACAD_REACTORS
330
47
102
}
330
47
100
AcDbScale
 70
     0
300
3/32" = 1'-0"
140
0.09375
141
12.0
290
     0
  0
SCALE
  5
5E
102
{ACAD_REACTORS
330
47
102
}
330
47
100
AcDbScale
 70
     0
300
1/8" = 1'-0"
140
0.125
141
12.0
290
     0
  0
SCALE
  5
5F
102
{ACAD_REACTORS
330
47
102
}
330
47
100
AcDbScale
 70
     0
300
3/16" = 1'-0"
140
0.1875
141
12.0
290
     0
  0
SCALE
  5
60
102
{ACAD_REACTORS
330
47
102
}
330
47
100
AcDbScale
 70
     0
300
1/4" = 1'-0"
140
0.25
141
12.0
290
     0
  0
SCALE
  5
61
102
{ACAD_REACTORS
330
47
102
}
330
47
100
AcDbScale
 70
     0
300
3/8" = 1'-0"
140
0.375
141
12.0
290
     0
  0
SCALE
  5
62
102
{ACAD_REACTORS
330
47
102
}
330
47
100
AcDbScale
 70
     0
300
1/2" = 1'-0"
140
0.5
141
12.0
290
     0
  0
SCALE
  5
63
102
{ACAD_REACTORS
330
47
102
}
330
47
100
AcDbScale
 70
     0
300
3/4" = 1'-0"
140
0.75
141
12.0
290
     0
  0
SCALE
  5
64
102
{ACAD_REACTORS
330
47
102
}
330
47
100
AcDbScale
 70
     0
300
1" = 1'-0"
140
1.0
141
12.0
290
     0
  0
SCALE
  5
65
102
{ACAD_REACTORS
330
47
102
}
330
47
100
AcDbScale
 70
     0
300
1-1/2" = 1'-0"
140
1.5
141
12.0
290
     0
  0
SCALE
  5
66
102
{ACAD_REACTORS
330
47
102
}
330
47
100
AcDbScale
 70
     0
300
3" = 1'-0"
140
3.0
141
12.0
290
     0
  0
SCALE
  5
67
102
{ACAD_REACTORS
330
47
102
}
330
47
100
AcDbScale
 70
     0
300
6" = 1'-0"
140
6.0
141
12.0
290
     0
  0
SCALE
  5
68
102
{ACAD_REACTORS
330
47
102
}
330
47
100
AcDbScale
 70
     0
300
1'-0" = 1'-0"
140
12.0
141
12.0
290
     0
  0
TABLESTYLE
  5
6A
102
{ACAD_REACTORS
330
69
102
}
102
{ACAD_XDICTIONARY
360
423
102
}
330
69
100
AcDbTableStyle
  3
Standard
 70
     0
 71
     0
 40
0.06
 41
0.06
280
     0
281
     0
  7
Standard
140
4.5
170
     2
 62
     0
 63
   257
283
     0
274
    -2
284
     1
 64
     0
275
    -2
285
     1
 65
     0
276
    -2
286
     1
 66
     0
277
    -2
287
     1
 67
     0
278
    -2
288
     1
 68
     0
279
    -2
289
     1
 69
     0
  7
Standard
140
6.0
170
     5
 62
     0
 63
   257
283
     0
274
    -2
284
     1
 64
     0
275
    -2
285
     1
 65
     0
276
    -2
286
     1
 66
     0
277
    -2
287
     1
 67
     0
278
    -2
288
     1
 68
     0
279
    -2
289
     1
 69
     0
  7
Standard
140
4.5
170
     5
 62
     0
 63
   257
283
     0
274
    -2
284
     1
 64
     0
275
    -2
285
     1
 65
     0
276
    -2
286
     1
 66
     0
277
    -2
287
     1
 67
     0
278
    -2
288
     1
 68
     0
279
    -2
289
     1
 69
     0
  0
VISUALSTYLE
  5
2F
102
{ACAD_REACTORS
330
2A
102
}
102
{ACAD_XDICTIONARY
360
3F5
102
}
330
2A
100
AcDbVisualStyle
  2
2dWireframe
 70
     4
 71
     0
 72
     2
 73
     0
 90
        0
 40
0.6
 41
30.0
 62
     5
 63
     7
421
 16777215
 74
     1
 91
        4
 64
     7
 65
   257
 75
     1
175
     1
 42
1.0
 92
        0
 66
   257
 43
1.0
 76
     1
 77
     6
 78
     2
 67
     7
 79
     5
170
     0
171
     0
290
     0
174
     0
 93
        1
 44
0.0
173
     0
291
     0
 45
0.0
1001
ACAD
1000
AcDbSavedByObjectVersion
1070
     0
  0
VISUALSTYLE
  5
32
102
{ACAD_REACTORS
330
2A
102
}
102
{ACAD_XDICTIONARY
360
3FB
102
}
330
2A
100
AcDbVisualStyle
  2
Basic
 70
     7
 71
     1
 72
     0
 73
     1
 90
        0
 40
0.6
 41
30.0
 62
     5
 63
     7
421
 16777215
 74
     0
 91
        4
 64
     7
 65
   257
 75
     1
175
     1
 42
1.0
 92
        8
 66
     7
 43
1.0
 76
     1
 77
     6
 78
     2
 67
     7
 79
     5
170
     0
171
     0
290
     0
174
     0
 93
        1
 44
0.0
173
     0
291
     1
 45
0.0
1001
ACAD
1000
AcDbSavedByObjectVersion
1070
     0
  0
VISUALSTYLE
  5
36
102
{ACAD_REACTORS
330
2A
102
}
102
{ACAD_XDICTIONARY
360
403
102
}
330
2A
100
AcDbVisualStyle
  2
Brighten
 70
    12
 71
     2
 72
     2
 73
     0
 90
        0
 40
0.6
 41
30.0
 62
     5
 63
     7
421
 16777215
 74
     1
 91
        4
 64
     7
 65
   257
 75
     1
175
     1
 42
1.0
 92
        8
 66
     7
 43
1.0
 76
     1
 77
     6
 78
     2
 67
     7
 79
     5
170
     0
171
     0
290
     0
174
     0
 93
        1
 44
50.0
173
     0
291
     1
 45
0.0
1001
ACAD
1000
AcDbSavedByObjectVersion
1070
     0
  0
VISUALSTYLE
  5
3A
102
{ACAD_REACTORS
330
2A
102
}
102
{ACAD_XDICTIONARY
360
40B
102
}
330
2A
100
AcDbVisualStyle
  2
ColorChange
 70
    16
 71
     2
 72
     2
 73
     3
 90
        0
 40
0.6
 41
30.0
 62
     5
 63
     8
421
  8421504
 74
     1
 91
        4
 64
     7
 65
   257
 75
     1
175
     1
 42
1.0
 92
        8
 66
     8
424
  8421504
 43
1.0
 76
     1
 77
     6
 78
     2
 67
     7
 79
     5
170
     0
171
     0
290
     0
174
     0
 93
        1
 44
0.0
173
     0
291
     1
 45
0.0
1001
ACAD
1000
AcDbSavedByObjectVersion
1070
     0
  0
VISUALSTYLE
  5
34
102
{ACAD_REACTORS
330
2A
102
}
102
{ACAD_XDICTIONARY
360
3FF
102
}
330
2A
100
AcDbVisualStyle
  2
Conceptual
 70
     9
 71
     3
 72
     2
 73
     0
 90
        0
 40
0.6
 41
30.0
 62
     5
 63
     7
421
 16777215
 74
     2
 91
        2
 64
     7
 65
   257
 75
     1
175
     1
 42
179.0
 92
        8
 66
     7
 43
1.0
 76
     1
 77
     6
 78
     2
 67
     7
 79
     3
170
     0
171
     0
290
     0
174
     0
 93
        1
 44
0.0
173
     0
291
     0
 45
0.0
1001
ACAD
1000
AcDbSavedByObjectVersion
1070
     0
  0
VISUALSTYLE
  5
35
102
{ACAD_REACTORS
330
2A
102
}
102
{ACAD_XDICTIONARY
360
401
102
}
330
2A
100
AcDbVisualStyle
  2
Dim
 70
    11
 71
     2
 72
     2
 73
     0
 90
        0
 40
0.6
 41
30.0
 62
     5
 63
     7
421
 16777215
 74
     1
 91
        4
 64
     7
 65
   257
 75
     1
175
     1
 42
1.0
 92
        8
 66
     7
 43
1.0
 76
     1
 77
     6
 78
     2
 67
     7
 79
     5
170
     0
171
     0
290
     0
174
     0
 93
        1
 44
-50.0
173
     0
291
     1
 45
0.0
1001
ACAD
1000
AcDbSavedByObjectVersion
1070
     0
  0
VISUALSTYLE
  5
3D
102
{ACAD_REACTORS
330
2A
102
}
102
{ACAD_XDICTIONARY
360
411
102
}
330
2A
100
AcDbVisualStyle
  2
EdgeColorOff
 70
    22
 71
     2
 72
     2
 73
     0
 90
        0
 40
0.6
 41
30.0
 62
     5
 63
     7
421
 16777215
 74
     1
 91
        4
 64
     7
 65
   257
 75
     1
175
     1
 42
1.0
 92
        8
 66
     7
 43
1.0
 76
     1
 77
     6
 78
     2
 67
     7
 79
     5
170
     0
171
     0
290
     0
174
     0
 93
        1
 44
0.0
173
     0
291
     1
 45
0.0
1001
ACAD
1000
AcDbSavedByObjectVersion
1070
     0
  0
VISUALSTYLE
  5
39
102
{ACAD_REACTORS
330
2A
102
}
102
{ACAD_XDICTIONARY
360
409
102
}
330
2A
100
AcDbVisualStyle
  2
Facepattern
 70
    15
 71
     2
 72
     2
 73
     0
 90
        0
 40
0.6
 41
30.0
 62
     5
 63
     7
421
 16777215
 74
     1
 91
        4
 64
     7
 65
   257
 75
     1
175
     1
 42
1.0
 92
        8
 66
     7
 43
1.0
 76
     1
 77
     6
 78
     2
 67
     7
 79
     5
170
     0
171
     0
290
     0
174
     0
 93
        1
 44
0.0
173
     0
291
     1
 45
0.0
1001
ACAD
1000
AcDbSavedByObjectVersion
1070
     0
  0
VISUALSTYLE
  5
2B
102
{ACAD_REACTORS
330
2A
102
}
102
{ACAD_XDICTIONARY
360
3ED
102
}
330
2A
100
AcDbVisualStyle
  2
Flat
 70
     0
 71
     2
 72
     1
 73
     1
 90
        2
 40
0.6
 41
30.0
 62
     5
 63
     7
421
 16777215
 74
     0
 91
        0
 64
     7
 65
   257
 75
     1
175
     1
 42
1.0
 92
        8
 66
     7
 43
1.0
 76
     1
 77
     6
 78
     2
 67
     7
 79
     5
170
     0
171
     0
290
     0
174
     0
 93
       13
 44
0.0
173
     0
291
     1
 45
0.0
1001
ACAD
1000
AcDbSavedByObjectVersion
1070
     0
  0
VISUALSTYLE
  5
2C
102
{ACAD_REACTORS
330
2A
102
}
102
{ACAD_XDICTIONARY
360
3EF
102
}
330
2A
100
AcDbVisualStyle
  2
FlatWithEdges
 70
     1
 71
     2
 72
     1
 73
     1
 90
        2
 40
0.6
 41
30.0
 62
     5
 63
     7
421
 16777215
 74
     1
 91
        0
 64
     7
 65
   257
 75
     1
175
     1
 42
1.0
 92
        0
 66
   257
 43
1.0
 76
     1
 77
     6
 78
     2
 67
     7
 79
     5
170
     0
171
     0
290
     0
174
     0
 93
       13
 44
0.0
173
     0
291
     1
 45
0.0
1001
ACAD
1000
AcDbSavedByObjectVersion
1070
     0
  0
VISUALSTYLE
  5
2D
102
{ACAD_REACTORS
330
2A
102
}
102
{ACAD_XDICTIONARY
360
3F1
102
}
330
2A
100
AcDbVisualStyle
  2
Gouraud
 70
     2
 71
     2
 72
     2
 73
     1
 90
        2
 40
0.6
 41
30.0
 62
     5
 63
     7
421
 16777215
 74
     0
 91
        0
 64
     7
 65
   257
 75
     1
175
     1
 42
1.0
 92
        0
 66
     7
 43
1.0
 76
     1
 77
     6
 78
     2
 67
     7
 79
     5
170
     0
171
     0
290
     0
174
     0
 93
       13
 44
0.0
173
     0
291
     1
 45
0.0
1001
ACAD
1000
AcDbSavedByObjectVersion
1070
     0
  0
VISUALSTYLE
  5
2E
102
{ACAD_REACTORS
330
2A
102
}
102
{ACAD_XDICTIONARY
360
3F3
102
}
330
2A
100
AcDbVisualStyle
  2
GouraudWithEdges
 70
     3
 71
     2
 72
     2
 73
     1
 90
        2
 40
0.6
 41
30.0
 62
     5
 63
     7
421
 16777215
 74
     1
 91
        0
 64
     7
 65
   257
 75
     1
175
     1
 42
1.0
 92
        0
 66
   257
 43
1.0
 76
     1
 77
     6
 78
     2
 67
     7
 79
     5
170
     0
171
     0
290
     0
174
     0
 93
       13
 44
0.0
173
     0
291
     1
 45
0.0
1001
ACAD
1000
AcDbSavedByObjectVersion
1070
     0
  0
VISUALSTYLE
  5
31
102
{ACAD_REACTORS
330
2A
102
}
102
{ACAD_XDICTIONARY
360
3F9
102
}
330
2A
100
AcDbVisualStyle
  2
Hidden
 70
     6
 71
     1
 72
     2
 73
     2
 90
        0
 40
0.6
 41
30.0
 62
     5
 63
     7
421
 16777215
 74
     2
 91
        2
 64
     7
 65
   257
 75
     2
175
     1
 42
40.0
 92
        0
 66
   257
 43
1.0
 76
     1
 77
     6
 78
     2
 67
     7
 79
     3
170
     0
171
     0
290
     0
174
     0
 93
        1
 44
0.0
173
     0
291
     0
 45
0.0
1001
ACAD
1000
AcDbSavedByObjectVersion
1070
     0
  0
VISUALSTYLE
  5
3B
102
{ACAD_REACTORS
330
2A
102
}
102
{ACAD_XDICTIONARY
360
40D
102
}
330
2A
100
AcDbVisualStyle
  2
JitterOff
 70
    20
 71
     2
 72
     2
 73
     0
 90
        0
 40
0.6
 41
30.0
 62
     5
 63
     7
421
 16777215
 74
     1
 91
        4
 64
     7
 65
   257
 75
     1
175
     1
 42
1.0
 92
       10
 66
     7
 43
1.0
 76
     1
 77
     6
 78
     2
 67
     7
 79
     5
170
     0
171
     0
290
     0
174
     0
 93
        1
 44
0.0
173
     0
291
     1
 45
0.0
1001
ACAD
1000
AcDbSavedByObjectVersion
1070
     0
  0
VISUALSTYLE
  5
38
102
{ACAD_REACTORS
330
2A
102
}
102
{ACAD_XDICTIONARY
360
407
102
}
330
2A
100
AcDbVisualStyle
  2
Linepattern
 70
    14
 71
     2
 72
     2
 73
     0
 90
        0
 40
0.6
 41
30.0
 62
     5
 63
     7
421
 16777215
 74
     1
 91
        4
 64
     7
 65
   257
 75
     7
175
     7
 42
1.0
 92
        8
 66
     7
 43
1.0
 76
     1
 77
     6
 78
     2
 67
     7
 79
     5
170
     0
171
     0
290
     0
174
     0
 93
        1
 44
0.0
173
     0
291
     1
 45
0.0
1001
ACAD
1000
AcDbSavedByObjectVersion
1070
     0
  0
VISUALSTYLE
  5
3C
102
{ACAD_REACTORS
330
2A
102
}
102
{ACAD_XDICTIONARY
360
40F
102
}
330
2A
100
AcDbVisualStyle
  2
OverhangOff
 70
    21
 71
     2
 72
     2
 73
     0
 90
        0
 40
0.6
 41
30.0
 62
     5
 63
     7
421
 16777215
 74
     1
 91
        4
 64
     7
 65
   257
 75
     1
175
     1
 42
1.0
 92
        9
 66
     7
 43
1.0
 76
     1
 77
     6
 78
     2
 67
     7
 79
     5
170
     0
171
     0
290
     0
174
     0
 93
        1
 44
0.0
173
     0
291
     1
 45
0.0
1001
ACAD
1000
AcDbSavedByObjectVersion
1070
     0
  0
VISUALSTYLE
  5
33
102
{ACAD_REACTORS
330
2A
102
}
102
{ACAD_XDICTIONARY
360
3FD
102
}
330
2A
100
AcDbVisualStyle
  2
Realistic
 70
     8
 71
     2
 72
     3
 73
     0
 90
        2
 40
0.6
 41
30.0
 62
     5
 63
     7
421
 16777215
 74
     0
 91
        0
 64
     7
 65
   257
 75
     1
175
     1
 42
1.0
 92
        8
 66
   257
 43
1.0
 76
     1
 77
     6
 78
     2
 67
     7
 79
     3
170
     0
171
     0
290
     0
174
     0
 93
       13
 44
0.0
173
     0
291
     0
 45
0.0
1001
ACAD
1000
AcDbSavedByObjectVersion
1070
     0
  0
VISUALSTYLE
  5
42
102
{ACAD_REACTORS
330
2A
102
}
102
{ACAD_XDICTIONARY
360
41B
102
}
330
2A
100
AcDbVisualStyle
  2
Shaded
 70
    27
 71
     2
 72
     2
 73
     1
 90
        2
 40
0.6
 41
30.0
 62
     5
 63
     7
421
 16777215
 74
     0
 91
        4
 64
     7
 65
   257
 75
     1
175
     1
 42
1.0
 92
        8
 66
   257
 43
1.0
 76
     1
 77
     6
 78
     2
 67
     8
425
  7895160
 79
     3
170
     0
171
     0
290
     0
174
     0
 93
        5
 44
0.0
173
     0
291
     0
 45
0.0
1001
ACAD
1000
AcDbSavedByObjectVersion
1070
     0
  0
VISUALSTYLE
  5
41
102
{ACAD_REACTORS
330
2A
102
}
102
{ACAD_XDICTIONARY
360
419
102
}
330
2A
100
AcDbVisualStyle
  2
Shaded with edges
 70
    26
 71
     2
 72
     2
 73
     1
 90
        2
 40
0.6
 41
30.0
 62
     5
 63
     7
421
 16777215
 74
     1
 91
       10
 64
     7
 65
   257
 75
     2
175
     1
 42
1.0
 92
        8
 66
   257
 43
1.0
 76
     1
 77
     6
 78
     2
 67
     7
 79
     3
170
     0
171
     0
290
     0
174
     0
 93
        5
 44
0.0
173
     0
291
     0
 45
0.0
1001
ACAD
1000
AcDbSavedByObjectVersion
1070
     0
  0
VISUALSTYLE
  5
3E
102
{ACAD_REACTORS
330
2A
102
}
102
{ACAD_XDICTIONARY
360
413
102
}
330
2A
100
AcDbVisualStyle
  2
Shades of Gray
 70
    23
 71
     2
 72
     2
 73
     3
 90
        0
 40
0.6
 41
30.0
 62
     5
 63
     7
421
 16777215
 74
     2
 91
        2
 64
     7
 65
     7
 75
     1
175
     1
 42
40.0
 92
        8
 66
     7
 43
1.0
 76
     1
 77
     6
 78
     2
 67
     7
 79
     3
170
     0
171
     0
290
     0
174
     0
 93
        1
 44
0.0
173
     0
291
     0
 45
0.0
1001
ACAD
1000
AcDbSavedByObjectVersion
1070
     0
  0
VISUALSTYLE
  5
3F
102
{ACAD_REACTORS
330
2A
102
}
102
{ACAD_XDICTIONARY
360
415
102
}
330
2A
100
AcDbVisualStyle
  2
Sketchy
 70
    24
 71
     1
 72
     2
 73
     2
 90
        0
 40
0.6
 41
30.0
 62
     5
 63
     7
421
 16777215
 74
     2
 91
        2
 64
     7
 65
     7
 75
     1
175
     1
 42
40.0
 92
       11
 66
     7
 43
1.0
 76
     1
 77
     6
 78
     2
 67
     7
 79
     6
170
     0
171
     0
290
     0
174
     0
 93
        1
 44
0.0
173
     0
291
     0
 45
0.0
1001
ACAD
1000
AcDbSavedByObjectVersion
1070
     0
  0
VISUALSTYLE
  5
37
102
{ACAD_REACTORS
330
2A
102
}
102
{ACAD_XDICTIONARY
360
405
102
}
330
2A
100
AcDbVisualStyle
  2
Thicken
 70
    13
 71
     2
 72
     2
 73
     0
 90
        0
 40
0.6
 41
30.0
 62
     5
 63
     7
421
 16777215
 74
     1
 91
        4
 64
     7
 65
   257
 75
     1
175
     1
 42
1.0
 92
       12
 66
     7
 43
1.0
 76
     1
 77
     6
 78
     2
 67
     7
 79
     5
170
     0
171
     0
290
     0
174
     0
 93
        1
 44
0.0
173
     0
291
     1
 45
0.0
1001
ACAD
1000
AcDbSavedByObjectVersion
1070
     0
  0
VISUALSTYLE
  5
30
102
{ACAD_REACTORS
330
2A
102
}
102
{ACAD_XDICTIONARY
360
3F7
102
}
330
2A
100
AcDbVisualStyle
  2
Wireframe
 70
     5
 71
     0
 72
     2
 73
     0
 90
        0
 40
0.6
 41
30.0
 62
     5
 63
     7
421
 16777215
 74
     1
 91
        4
 64
     7
 65
   257
 75
     1
175
     1
 42
1.0
 92
        0
 66
   257
 43
1.0
 76
     1
 77
     6
 78
     2
 67
     7
 79
     3
170
     0
171
     0
290
     0
174
     0
 93
        1
 44
0.0
173
     0
291
     0
 45
0.0
1001
ACAD
1000
AcDbSavedByObjectVersion
1070
     0
  0
VISUALSTYLE
  5
40
102
{ACAD_REACTORS
330
2A
102
}
102
{ACAD_XDICTIONARY
360
417
102
}
330
2A
100
AcDbVisualStyle
  2
X-Ray
 70
    25
 71
     2
 72
     2
 73
     1
 90
        1
 40
0.5
 41
30.0
 62
     5
 63
     7
421
 16777215
 74
     1
 91
        0
 64
     7
 65
   257
 75
     1
175
     1
 42
1.0
 92
        8
 66
     7
 43
1.0
 76
     1
 77
     6
 78
     2
 67
     7
 79
     3
170
     0
171
     0
290
     0
174
     0
 93
       13
 44
0.0
173
     0
291
     0
 45
0.0
1001
ACAD
1000
AcDbSavedByObjectVersion
1070
     0
  0
DICTIONARYVAR
  5
3EA
102
{ACAD_REACTORS
330
3E9
102
}
330
3E9
100
DictionaryVariables
280
     0
  1
1:1
  0
DICTIONARYVAR
  5
42E
102
{ACAD_REACTORS
330
3E9
102
}
330
3E9
100
DictionaryVariables
280
     0
  1
3.500000
  0
DICTIONARYVAR
  5
42F
102
{ACAD_REACTORS
330
3E9
102
}
330
3E9
100
DictionaryVariables
280
     0
  1
acadiso.lin
  0
DICTIONARYVAR
  5
42B
102
{ACAD_REACTORS
330
3E9
102
}
330
3E9
100
DictionaryVariables
280
     0
  1
Standard
  0
DICTIONARYVAR
  5
42A
102
{ACAD_REACTORS
330
3E9
102
}
330
3E9
100
DictionaryVariables
280
     0
  1
Standard
  0
DICTIONARYVAR
  5
3EB
102
{ACAD_REACTORS
330
3E9
102
}
330
3E9
100
DictionaryVariables
280
     0
  1
1
  0
DICTIONARYVAR
  5
3EC
102
{ACAD_REACTORS
330
3E9
102
}
330
3E9
100
DictionaryVariables
280
     0
  1
2
  0
DICTIONARY
  5
41F
330
45
100
AcDbDictionary
280
     1
281
     1
  3
ACAD_XREC_ROUNDTRIP
360
420
  0
DICTIONARY
  5
41D
330
44
100
AcDbDictionary
280
     1
281
     1
  3
ACAD_XREC_ROUNDTRIP
360
41E
  0
DICTIONARY
  5
421
330
46
100
AcDbDictionary
280
     1
281
     1
  3
ACAD_XREC_ROUNDTRIP
360
422
  0
DICTIONARY
  5
427
330
6C
100
AcDbDictionary
280
     1
281
     1
  3
ACAD_XREC_ROUNDTRIP
360
428
  0
DICTIONARY
  5
423
330
6A
100
AcDbDictionary
280
     1
281
     1
  3
ACAD_ROUNDTRIP_2008_TABLESTYLE_CELLSTYLEMAP
360
425
  3
ACAD_XREC_ROUNDTRIP
360
424
  0
DICTIONARY
  5
3F5
330
2F
100
AcDbDictionary
280
     1
281
     1
  3
ACAD_XREC_ROUNDTRIP
360
3F6
  0
DICTIONARY
  5
3FB
330
32
100
AcDbDictionary
280
     1
281
     1
  3
ACAD_XREC_ROUNDTRIP
360
3FC
  0
DICTIONARY
  5
403
330
36
100
AcDbDictionary
280
     1
281
     1
  3
ACAD_XREC_ROUNDTRIP
360
404
  0
DICTIONARY
  5
40B
330
3A
100
AcDbDictionary
280
     1
281
     1
  3
ACAD_XREC_ROUNDTRIP
360
40C
  0
DICTIONARY
  5
3FF
330
34
100
AcDbDictionary
280
     1
281
     1
  3
ACAD_XREC_ROUNDTRIP
360
400
  0
DICTIONARY
  5
401
330
35
100
AcDbDictionary
280
     1
281
     1
  3
ACAD_XREC_ROUNDTRIP
360
402
  0
DICTIONARY
  5
411
330
3D
100
AcDbDictionary
280
     1
281
     1
  3
ACAD_XREC_ROUNDTRIP
360
412
  0
DICTIONARY
  5
409
330
39
100
AcDbDictionary
280
     1
281
     1
  3
ACAD_XREC_ROUNDTRIP
360
40A
  0
DICTIONARY
  5
3ED
330
2B
100
AcDbDictionary
280
     1
281
     1
  3
ACAD_XREC_ROUNDTRIP
360
3EE
  0
DICTIONARY
  5
3EF
330
2C
100
AcDbDictionary
280
     1
281
     1
  3
ACAD_XREC_ROUNDTRIP
360
3F0
  0
DICTIONARY
  5
3F1
330
2D
100
AcDbDictionary
280
     1
281
     1
  3
ACAD_XREC_ROUNDTRIP
360
3F2
  0
DICTIONARY
  5
3F3
330
2E
100
AcDbDictionary
280
     1
281
     1
  3
ACAD_XREC_ROUNDTRIP
360
3F4
  0
DICTIONARY
  5
3F9
330
31
100
AcDbDictionary
280
     1
281
     1
  3
ACAD_XREC_ROUNDTRIP
360
3FA
  0
DICTIONARY
  5
40D
330
3B
100
AcDbDictionary
280
     1
281
     1
  3
ACAD_XREC_ROUNDTRIP
360
40E
  0
DICTIONARY
  5
407
330
38
100
AcDbDictionary
280
     1
281
     1
  3
ACAD_XREC_ROUNDTRIP
360
408
  0
DICTIONARY
  5
40F
330
3C
100
AcDbDictionary
280
     1
281
     1
  3
ACAD_XREC_ROUNDTRIP
360
410
  0
DICTIONARY
  5
3FD
330
33
100
AcDbDictionary
280
     1
281
     1
  3
ACAD_XREC_ROUNDTRIP
360
3FE
  0
DICTIONARY
  5
41B
330
42
100
AcDbDictionary
280
     1
281
     1
  3
ACAD_XREC_ROUNDTRIP
360
41C
  0
DICTIONARY
  5
419
330
41
100
AcDbDictionary
280
     1
281
     1
  3
ACAD_XREC_ROUNDTRIP
360
41A
  0
DICTIONARY
  5
413
330
3E
100
AcDbDictionary
280
     1
281
     1
  3
ACAD_XREC_ROUNDTRIP
360
414
  0
DICTIONARY
  5
415
330
3F
100
AcDbDictionary
280
     1
281
     1
  3
ACAD_XREC_ROUNDTRIP
360
416
  0
DICTIONARY
  5
405
330
37
100
AcDbDictionary
280
     1
281
     1
  3
ACAD_XREC_ROUNDTRIP
360
406
  0
DICTIONARY
  5
3F7
330
30
100
AcDbDictionary
280
     1
281
     1
  3
ACAD_XREC_ROUNDTRIP
360
3F8
  0
DICTIONARY
  5
417
330
40
100
AcDbDictionary
280
     1
281
     1
  3
ACAD_XREC_ROUNDTRIP
360
418
  0
XRECORD
  5
420
102
{ACAD_REACTORS
330
41F
102
}
330
41F
100
AcDbXrecord
280
     1
102
MATERIAL
148
0.0
149
0.0
149
0.0
 93
        0
 94
      127
282
     0
 72
     1
 77
     1
171
     1
175
     1
179
     1
273
     0
  0
XRECORD
  5
41E
102
{ACAD_REACTORS
330
41D
102
}
330
41D
100
AcDbXrecord
280
     1
102
MATERIAL
148
0.0
149
0.0
149
0.0
 93
        0
 94
      127
282
     0
 72
     1
 77
     1
171
     1
175
     1
179
     1
273
     0
  0
XRECORD
  5
422
102
{ACAD_REACTORS
330
421
102
}
330
421
100
AcDbXrecord
280
     1
102
MATERIAL
148
0.0
149
0.0
149
0.0
 93
        0
 94
      127
282
     0
 72
     1
 77
     1
171
     1
175
     1
179
     1
273
     0
  0
XRECORD
  5
428
102
{ACAD_REACTORS
330
427
102
}
330
427
100
AcDbXrecord
280
     1
102
ACAD_ROUNDTRIP_2010_MLEADER_STYLE
  0
CELLSTYLEMAP
  5
425
102
{ACAD_REACTORS
330
423
102
}
330
423
100
AcDbCellStyleMap
 90
        3
300
CELLSTYLE
  1
TABLEFORMAT_BEGIN
 90
        5
170
     1
 91
        0
 92
    32768
 62
   257
 93
        1
300
CONTENTFORMAT
  1
CONTENTFORMAT_BEGIN
 90
        0
 91
        0
 92
        4
 93
        0
300

 40
0.0
140
1.0
 94
        5
 62
     0
340
11
144
6.0
309
CONTENTFORMAT_END
171
     1
301
MARGIN
  1
CELLMARGIN_BEGIN
 40
1.5
 40
1.5
 40
1.5
 40
1.5
 40
1.5
 40
1.5
309
CELLMARGIN_END
 94
        6
 95
        1
302
GRIDFORMAT
  1
GRIDFORMAT_BEGIN
 90
        0
 91
        1
 62
     0
 92
       -2
340
14
 93
        0
 40
0.045
309
GRIDFORMAT_END
 95
        2
302
GRIDFORMAT
  1
GRIDFORMAT_BEGIN
 90
        0
 91
        1
 62
     0
 92
       -2
340
14
 93
        0
 40
0.045
309
GRIDFORMAT_END
 95
        4
302
GRIDFORMAT
  1
GRIDFORMAT_BEGIN
 90
        0
 91
        1
 62
     0
 92
       -2
340
14
 93
        0
 40
0.045
309
GRIDFORMAT_END
 95
        8
302
GRIDFORMAT
  1
GRIDFORMAT_BEGIN
 90
        0
 91
        1
 62
     0
 92
       -2
340
14
 93
        0
 40
0.045
309
GRIDFORMAT_END
 95
       16
302
GRIDFORMAT
  1
GRIDFORMAT_BEGIN
 90
        0
 91
        1
 62
     0
 92
       -2
340
14
 93
        0
 40
0.045
309
GRIDFORMAT_END
 95
       32
302
GRIDFORMAT
  1
GRIDFORMAT_BEGIN
 90
        0
 91
        1
 62
     0
 92
       -2
340
14
 93
        0
 40
0.045
309
GRIDFORMAT_END
309
TABLEFORMAT_END
  1
CELLSTYLE_BEGIN
 90
        1
 91
        1
300
_TITLE
309
CELLSTYLE_END
300
CELLSTYLE
  1
TABLEFORMAT_BEGIN
 90
        5
170
     1
 91
        0
 92
        0
 62
   257
 93
        1
300
CONTENTFORMAT
  1
CONTENTFORMAT_BEGIN
 90
        0
 91
        0
 92
        4
 93
        0
300

 40
0.0
140
1.0
 94
        5
 62
     0
340
11
144
4.5
309
CONTENTFORMAT_END
171
     1
301
MARGIN
  1
CELLMARGIN_BEGIN
 40
1.5
 40
1.5
 40
1.5
 40
1.5
 40
1.5
 40
1.5
309
CELLMARGIN_END
 94
        6
 95
        1
302
GRIDFORMAT
  1
GRIDFORMAT_BEGIN
 90
        0
 91
        1
 62
     0
 92
       -2
340
14
 93
        0
 40
0.045
309
GRIDFORMAT_END
 95
        2
302
GRIDFORMAT
  1
GRIDFORMAT_BEGIN
 90
        0
 91
        1
 62
     0
 92
       -2
340
14
 93
        0
 40
0.045
309
GRIDFORMAT_END
 95
        4
302
GRIDFORMAT
  1
GRIDFORMAT_BEGIN
 90
        0
 91
        1
 62
     0
 92
       -2
340
14
 93
        0
 40
0.045
309
GRIDFORMAT_END
 95
        8
302
GRIDFORMAT
  1
GRIDFORMAT_BEGIN
 90
        0
 91
        1
 62
     0
 92
       -2
340
14
 93
        0
 40
0.045
309
GRIDFORMAT_END
 95
       16
302
GRIDFORMAT
  1
GRIDFORMAT_BEGIN
 90
        0
 91
        1
 62
     0
 92
       -2
340
14
 93
        0
 40
0.045
309
GRIDFORMAT_END
 95
       32
302
GRIDFORMAT
  1
GRIDFORMAT_BEGIN
 90
        0
 91
        1
 62
     0
 92
       -2
340
14
 93
        0
 40
0.045
309
GRIDFORMAT_END
309
TABLEFORMAT_END
  1
CELLSTYLE_BEGIN
 90
        2
 91
        1
300
_HEADER
309
CELLSTYLE_END
300
CELLSTYLE
  1
TABLEFORMAT_BEGIN
 90
        5
170
     1
 91
        0
 92
        0
 62
   257
 93
        1
300
CONTENTFORMAT
  1
CONTENTFORMAT_BEGIN
 90
        0
 91
        0
 92
        4
 93
        0
300

 40
0.0
140
1.0
 94
        2
 62
     0
340
11
144
4.5
309
CONTENTFORMAT_END
171
     1
301
MARGIN
  1
CELLMARGIN_BEGIN
 40
1.5
 40
1.5
 40
1.5
 40
1.5
 40
1.5
 40
1.5
309
CELLMARGIN_END
 94
        6
 95
        1
302
GRIDFORMAT
  1
GRIDFORMAT_BEGIN
 90
        0
 91
        1
 62
     0
 92
       -2
340
14
 93
        0
 40
0.045
309
GRIDFORMAT_END
 95
        2
302
GRIDFORMAT
  1
GRIDFORMAT_BEGIN
 90
        0
 91
        1
 62
     0
 92
       -2
340
14
 93
        0
 40
0.045
309
GRIDFORMAT_END
 95
        4
302
GRIDFORMAT
  1
GRIDFORMAT_BEGIN
 90
        0
 91
        1
 62
     0
 92
       -2
340
14
 93
        0
 40
0.045
309
GRIDFORMAT_END
 95
        8
302
GRIDFORMAT
  1
GRIDFORMAT_BEGIN
 90
        0
 91
        1
 62
     0
 92
       -2
340
14
 93
        0
 40
0.045
309
GRIDFORMAT_END
 95
       16
302
GRIDFORMAT
  1
GRIDFORMAT_BEGIN
 90
        0
 91
        1
 62
     0
 92
       -2
340
14
 93
        0
 40
0.045
309
GRIDFORMAT_END
 95
       32
302
GRIDFORMAT
  1
GRIDFORMAT_BEGIN
 90
        0
 91
        1
 62
     0
 92
       -2
340
14
 93
        0
 40
0.045
309
GRIDFORMAT_END
309
TABLEFORMAT_END
  1
CELLSTYLE_BEGIN
 90
        3
 91
        2
300
_DATA
309
CELLSTYLE_END
  0
XRECORD
  5
424
102
{ACAD_REACTORS
330
423
102
}
330
423
100
AcDbXrecord
280
     1
102
ACAD_ROUNDTRIP_PRE2007_TABLESTYLE
 90
        4
 91
        0
  1

 92
        4
 93
        0
  2

 94
        4
 95
        0
  3

  0
XRECORD
  5
3F6
102
{ACAD_REACTORS
330
3F5
102
}
330
3F5
100
AcDbXrecord
280
     1
102
RTVSPropertyOp0
 70
     1
102
RTVSPropertyOp1
 70
     1
102
RTVSPropertyOp2
 70
     1
102
RTVSPropertyOp3
 70
     1
102
RTVSPropertyOp4
 70
     1
102
RTVSPropertyOp5
 70
     1
102
RTVSPropertyOp6
 70
     1
102
RTVSPropertyOp7
 70
     1
102
RTVSPropertyOp8
 70
     1
102
RTVSPropertyOp9
 70
     1
102
RTVSPropertyOp10
 70
     1
102
RTVSPropertyOp11
 70
     1
102
RTVSPropertyOp12
 70
     1
102
RTVSPropertyOp13
 70
     1
102
RTVSPropertyOp14
 70
     1
102
RTVSPropertyOp15
 70
     1
102
RTVSPropertyOp16
 70
     1
102
RTVSPropertyOp17
 70
     1
102
RTVSPropertyOp18
 70
     1
102
RTVSPropertyOp19
 70
     1
102
RTVSPropertyOp20
 70
     1
102
RTVSPropertyOp21
 70
     1
102
RTVSPropertyOp22
 70
     1
102
RTVSPropertyOp23
 70
     1
102
RTVSPropertyOp24
 70
     1
102
RTVSPropertyOp25
 70
     1
102
RTVSPropertyOp26
 70
     1
102
RTVSPropertyOp27
 70
     1
102
RTVSPropertyOp28
 70
     1
102
RTVSPropertyOp29
 70
     1
102
RTVSPropertyOp30
 70
     1
102
RTVSPropertyOp31
 70
     1
102
RTVSPropertyOp32
 70
     1
102
RTVSPropertyOp33
 70
     1
102
RTVSPropertyOp34
 70
     1
102
RTVSPropertyOp35
 70
     1
102
RTVSPropertyOp36
 70
     1
102
RTVSPropertyOp37
 70
     1
102
RTVSPropertyOp38
 70
     1
102
RTVSPropertyOp39
 70
     1
102
RTVSPropertyOp40
 70
     1
102
RTVSPropertyOp41
 70
     1
102
RTVSPropertyOp42
 70
     1
102
RTVSPropertyOp43
 70
     1
102
RTVSPropertyOp44
 70
     1
102
RTVSPropertyOp45
 70
     1
102
RTVSPropertyOp46
 70
     1
102
RTVSPropertyOp47
 70
     1
102
RTVSPropertyOp48
 70
     1
102
RTVSPropertyOp49
 70
     1
102
RTVSPropertyOp50
 70
     1
102
RTVSPropertyOp51
 70
     0
102
RTVSPropertyOp52
 70
     0
102
RTVSPropertyOp53
 70
     1
102
RTVSPropertyOp54
 70
     1
102
RTVSPropertyOp55
 70
     1
102
RTVSPropertyOp56
 70
     1
102
RTVSPropertyOp57
 70
     1
102
RTVSPost2010Prop28
280
     1
102
RTVSPost2010PropOp28
 70
     1
102
RTVSPost2010Prop29
280
     1
102
RTVSPost2010PropOp29
 70
     1
102
RTVSPost2010Prop30
280
     0
102
RTVSPost2010PropOp30
 70
     1
102
RTVSPost2010Prop31
280
     0
102
RTVSPost2010PropOp31
 70
     1
102
RTVSPost2010Prop32
280
     0
102
RTVSPost2010PropOp32
 70
     1
102
RTVSPost2010Prop33
280
     0
102
RTVSPost2010PropOp33
 70
     1
102
RTVSPost2010Prop34
280
     0
102
RTVSPost2010PropOp34
 70
     1
102
RTVSPost2010Prop35
280
     0
102
RTVSPost2010PropOp35
 70
     1
102
RTVSPost2010Prop36
280
     0
102
RTVSPost2010PropOp36
 70
     1
102
RTVSPost2010Prop37
 90
       50
102
RTVSPost2010PropOp37
 70
     1
102
RTVSPost2010Prop38
140
0.0
102
RTVSPost2010PropOp38
 70
     1
102
RTVSPost2010Prop39
140
1.0
102
RTVSPost2010PropOp39
 70
     1
102
RTVSPost2010Prop40
 90
        0
102
RTVSPost2010PropOp40
 70
     1
102
RTVSPost2010Prop41ColorIndex
 90
       18
102
RTVSPost2010Prop41ColorRGB
 90
        0
102
RTVSPost2010PropOp41
 70
     1
102
RTVSPost2010Prop42
 90
       50
102
RTVSPost2010PropOp42
 70
     1
102
RTVSPost2010Prop43
 90
        3
102
RTVSPost2010PropOp43
 70
     1
102
RTVSPost2010Prop44ColorIndex
 90
        5
102
RTVSPost2010Prop44ColorRGB
 90
      255
102
RTVSPost2010PropOp44
 70
     1
102
RTVSPost2010Prop45
280
     0
102
RTVSPost2010PropOp45
 70
     1
102
RTVSPost2010Prop46
 90
       50
102
RTVSPost2010PropOp46
 70
     1
102
RTVSPost2010Prop47
 90
       50
102
RTVSPost2010PropOp47
 70
     1
102
RTVSPost2010Prop48
 90
       50
102
RTVSPost2010PropOp48
 70
     1
102
RTVSPost2010Prop49
280
     0
102
RTVSPost2010PropOp49
 70
     1
102
RTVSPost2010Prop50
 90
       50
102
RTVSPost2010PropOp50
 70
     1
102
RTVSPost2010Prop51ColorIndex
 90
      256
102
RTVSPost2010Prop51ColorRGB
 90
-16777216
102
RTVSPost2010PropOp51
 70
     0
102
RTVSPost2010Prop52
140
1.0
102
RTVSPost2010PropOp52
 70
     0
102
RTVSPost2010Prop53
 90
        2
102
RTVSPost2010PropOp53
 70
     1
102
RTVSPost2010Prop54
  1
strokes_ogs.tif
102
RTVSPost2010PropOp54
 70
     1
102
RTVSPost2010Prop55
280
     0
102
RTVSPost2010PropOp55
 70
     1
102
RTVSPost2010Prop56
140
1.0
102
RTVSPost2010PropOp56
 70
     1
102
RTVSPost2010Prop57
140
1.0
102
RTVSPost2010PropOp57
 70
     1
  0
XRECORD
  5
3FC
102
{ACAD_REACTORS
330
3FB
102
}
330
3FB
100
AcDbXrecord
280
     1
102
RTVSPropertyOp0
 70
     1
102
RTVSPropertyOp1
 70
     1
102
RTVSPropertyOp2
 70
     1
102
RTVSPropertyOp3
 70
     1
102
RTVSPropertyOp4
 70
     1
102
RTVSPropertyOp5
 70
     1
102
RTVSPropertyOp6
 70
     1
102
RTVSPropertyOp7
 70
     1
102
RTVSPropertyOp8
 70
     1
102
RTVSPropertyOp9
 70
     1
102
RTVSPropertyOp10
 70
     1
102
RTVSPropertyOp11
 70
     1
102
RTVSPropertyOp12
 70
     1
102
RTVSPropertyOp13
 70
     1
102
RTVSPropertyOp14
 70
     1
102
RTVSPropertyOp15
 70
     1
102
RTVSPropertyOp16
 70
     1
102
RTVSPropertyOp17
 70
     1
102
RTVSPropertyOp18
 70
     1
102
RTVSPropertyOp19
 70
     1
102
RTVSPropertyOp20
 70
     1
102
RTVSPropertyOp21
 70
     1
102
RTVSPropertyOp22
 70
     1
102
RTVSPropertyOp23
 70
     1
102
RTVSPropertyOp24
 70
     1
102
RTVSPropertyOp25
 70
     1
102
RTVSPropertyOp26
 70
     1
102
RTVSPropertyOp27
 70
     1
102
RTVSPropertyOp28
 70
     1
102
RTVSPropertyOp29
 70
     1
102
RTVSPropertyOp30
 70
     1
102
RTVSPropertyOp31
 70
     1
102
RTVSPropertyOp32
 70
     1
102
RTVSPropertyOp33
 70
     1
102
RTVSPropertyOp34
 70
     1
102
RTVSPropertyOp35
 70
     1
102
RTVSPropertyOp36
 70
     1
102
RTVSPropertyOp37
 70
     1
102
RTVSPropertyOp38
 70
     1
102
RTVSPropertyOp39
 70
     1
102
RTVSPropertyOp40
 70
     1
102
RTVSPropertyOp41
 70
     1
102
RTVSPropertyOp42
 70
     1
102
RTVSPropertyOp43
 70
     1
102
RTVSPropertyOp44
 70
     1
102
RTVSPropertyOp45
 70
     1
102
RTVSPropertyOp46
 70
     1
102
RTVSPropertyOp47
 70
     1
102
RTVSPropertyOp48
 70
     1
102
RTVSPropertyOp49
 70
     1
102
RTVSPropertyOp50
 70
     1
102
RTVSPropertyOp51
 70
     0
102
RTVSPropertyOp52
 70
     0
102
RTVSPropertyOp53
 70
     1
102
RTVSPropertyOp54
 70
     1
102
RTVSPropertyOp55
 70
     1
102
RTVSPropertyOp56
 70
     1
102
RTVSPropertyOp57
 70
     1
102
RTVSPost2010Prop28
280
     0
102
RTVSPost2010PropOp28
 70
     1
102
RTVSPost2010Prop29
280
     1
102
RTVSPost2010PropOp29
 70
     1
102
RTVSPost2010Prop30
280
     1
102
RTVSPost2010PropOp30
 70
     1
102
RTVSPost2010Prop31
280
     0
102
RTVSPost2010PropOp31
 70
     1
102
RTVSPost2010Prop32
280
     0
102
RTVSPost2010PropOp32
 70
     1
102
RTVSPost2010Prop33
280
     0
102
RTVSPost2010PropOp33
 70
     1
102
RTVSPost2010Prop34
280
     0
102
RTVSPost2010PropOp34
 70
     1
102
RTVSPost2010Prop35
280
     0
102
RTVSPost2010PropOp35
 70
     1
102
RTVSPost2010Prop36
280
     0
102
RTVSPost2010PropOp36
 70
     1
102
RTVSPost2010Prop37
 90
       50
102
RTVSPost2010PropOp37
 70
     1
102
RTVSPost2010Prop38
140
0.0
102
RTVSPost2010PropOp38
 70
     1
102
RTVSPost2010Prop39
140
1.0
102
RTVSPost2010PropOp39
 70
     1
102
RTVSPost2010Prop40
 90
        0
102
RTVSPost2010PropOp40
 70
     1
102
RTVSPost2010Prop41ColorIndex
 90
       18
102
RTVSPost2010Prop41ColorRGB
 90
        0
102
RTVSPost2010PropOp41
 70
     1
102
RTVSPost2010Prop42
 90
       50
102
RTVSPost2010PropOp42
 70
     1
102
RTVSPost2010Prop43
 90
        3
102
RTVSPost2010PropOp43
 70
     1
102
RTVSPost2010Prop44ColorIndex
 90
        5
102
RTVSPost2010Prop44ColorRGB
 90
      255
102
RTVSPost2010PropOp44
 70
     1
102
RTVSPost2010Prop45
280
     0
102
RTVSPost2010PropOp45
 70
     1
102
RTVSPost2010Prop46
 90
       50
102
RTVSPost2010PropOp46
 70
     1
102
RTVSPost2010Prop47
 90
       50
102
RTVSPost2010PropOp47
 70
     1
102
RTVSPost2010Prop48
 90
       50
102
RTVSPost2010PropOp48
 70
     1
102
RTVSPost2010Prop49
280
     0
102
RTVSPost2010PropOp49
 70
     1
102
RTVSPost2010Prop50
 90
       50
102
RTVSPost2010PropOp50
 70
     1
102
RTVSPost2010Prop51ColorIndex
 90
      256
102
RTVSPost2010Prop51ColorRGB
 90
-16777216
102
RTVSPost2010PropOp51
 70
     0
102
RTVSPost2010Prop52
140
1.0
102
RTVSPost2010PropOp52
 70
     0
102
RTVSPost2010Prop53
 90
        2
102
RTVSPost2010PropOp53
 70
     1
102
RTVSPost2010Prop54
  1
strokes_ogs.tif
102
RTVSPost2010PropOp54
 70
     1
102
RTVSPost2010Prop55
280
     0
102
RTVSPost2010PropOp55
 70
     1
102
RTVSPost2010Prop56
140
1.0
102
RTVSPost2010PropOp56
 70
     1
102
RTVSPost2010Prop57
140
1.0
102
RTVSPost2010PropOp57
 70
     1
  0
XRECORD
  5
404
102
{ACAD_REACTORS
330
403
102
}
330
403
100
AcDbXrecord
280
     1
102
RTVSPropertyOp0
 70
     1
102
RTVSPropertyOp1
 70
     1
102
RTVSPropertyOp2
 70
     1
102
RTVSPropertyOp3
 70
     1
102
RTVSPropertyOp4
 70
     1
102
RTVSPropertyOp5
 70
     1
102
RTVSPropertyOp6
 70
     1
102
RTVSPropertyOp7
 70
     1
102
RTVSPropertyOp8
 70
     1
102
RTVSPropertyOp9
 70
     1
102
RTVSPropertyOp10
 70
     1
102
RTVSPropertyOp11
 70
     1
102
RTVSPropertyOp12
 70
     1
102
RTVSPropertyOp13
 70
     1
102
RTVSPropertyOp14
 70
     1
102
RTVSPropertyOp15
 70
     1
102
RTVSPropertyOp16
 70
     1
102
RTVSPropertyOp17
 70
     1
102
RTVSPropertyOp18
 70
     1
102
RTVSPropertyOp19
 70
     1
102
RTVSPropertyOp20
 70
     1
102
RTVSPropertyOp21
 70
     1
102
RTVSPropertyOp22
 70
     1
102
RTVSPropertyOp23
 70
     1
102
RTVSPropertyOp24
 70
     1
102
RTVSPropertyOp25
 70
     1
102
RTVSPropertyOp26
 70
     1
102
RTVSPropertyOp27
 70
     1
102
RTVSPropertyOp28
 70
     1
102
RTVSPropertyOp29
 70
     1
102
RTVSPropertyOp30
 70
     1
102
RTVSPropertyOp31
 70
     1
102
RTVSPropertyOp32
 70
     1
102
RTVSPropertyOp33
 70
     1
102
RTVSPropertyOp34
 70
     1
102
RTVSPropertyOp35
 70
     1
102
RTVSPropertyOp36
 70
     1
102
RTVSPropertyOp37
 70
     1
102
RTVSPropertyOp38
 70
     1
102
RTVSPropertyOp39
 70
     1
102
RTVSPropertyOp40
 70
     1
102
RTVSPropertyOp41
 70
     1
102
RTVSPropertyOp42
 70
     1
102
RTVSPropertyOp43
 70
     1
102
RTVSPropertyOp44
 70
     1
102
RTVSPropertyOp45
 70
     1
102
RTVSPropertyOp46
 70
     1
102
RTVSPropertyOp47
 70
     1
102
RTVSPropertyOp48
 70
     1
102
RTVSPropertyOp49
 70
     1
102
RTVSPropertyOp50
 70
     1
102
RTVSPropertyOp51
 70
     0
102
RTVSPropertyOp52
 70
     0
102
RTVSPropertyOp53
 70
     1
102
RTVSPropertyOp54
 70
     1
102
RTVSPropertyOp55
 70
     1
102
RTVSPropertyOp56
 70
     1
102
RTVSPropertyOp57
 70
     1
102
RTVSPost2010Prop28
280
     0
102
RTVSPost2010PropOp28
 70
     1
102
RTVSPost2010Prop29
280
     1
102
RTVSPost2010PropOp29
 70
     1
102
RTVSPost2010Prop30
280
     1
102
RTVSPost2010PropOp30
 70
     1
102
RTVSPost2010Prop31
280
     0
102
RTVSPost2010PropOp31
 70
     1
102
RTVSPost2010Prop32
280
     0
102
RTVSPost2010PropOp32
 70
     1
102
RTVSPost2010Prop33
280
     0
102
RTVSPost2010PropOp33
 70
     1
102
RTVSPost2010Prop34
280
     0
102
RTVSPost2010PropOp34
 70
     1
102
RTVSPost2010Prop35
280
     0
102
RTVSPost2010PropOp35
 70
     1
102
RTVSPost2010Prop36
280
     0
102
RTVSPost2010PropOp36
 70
     1
102
RTVSPost2010Prop37
 90
       50
102
RTVSPost2010PropOp37
 70
     1
102
RTVSPost2010Prop38
140
0.0
102
RTVSPost2010PropOp38
 70
     1
102
RTVSPost2010Prop39
140
1.0
102
RTVSPost2010PropOp39
 70
     1
102
RTVSPost2010Prop40
 90
        0
102
RTVSPost2010PropOp40
 70
     1
102
RTVSPost2010Prop41ColorIndex
 90
       18
102
RTVSPost2010Prop41ColorRGB
 90
        0
102
RTVSPost2010PropOp41
 70
     1
102
RTVSPost2010Prop42
 90
       50
102
RTVSPost2010PropOp42
 70
     1
102
RTVSPost2010Prop43
 90
        3
102
RTVSPost2010PropOp43
 70
     1
102
RTVSPost2010Prop44ColorIndex
 90
        5
102
RTVSPost2010Prop44ColorRGB
 90
      255
102
RTVSPost2010PropOp44
 70
     1
102
RTVSPost2010Prop45
280
     0
102
RTVSPost2010PropOp45
 70
     1
102
RTVSPost2010Prop46
 90
       50
102
RTVSPost2010PropOp46
 70
     1
102
RTVSPost2010Prop47
 90
       50
102
RTVSPost2010PropOp47
 70
     1
102
RTVSPost2010Prop48
 90
       50
102
RTVSPost2010PropOp48
 70
     1
102
RTVSPost2010Prop49
280
     0
102
RTVSPost2010PropOp49
 70
     1
102
RTVSPost2010Prop50
 90
       50
102
RTVSPost2010PropOp50
 70
     1
102
RTVSPost2010Prop51ColorIndex
 90
      256
102
RTVSPost2010Prop51ColorRGB
 90
-16777216
102
RTVSPost2010PropOp51
 70
     0
102
RTVSPost2010Prop52
140
1.0
102
RTVSPost2010PropOp52
 70
     0
102
RTVSPost2010Prop53
 90
        2
102
RTVSPost2010PropOp53
 70
     1
102
RTVSPost2010Prop54
  1
strokes_ogs.tif
102
RTVSPost2010PropOp54
 70
     1
102
RTVSPost2010Prop55
280
     0
102
RTVSPost2010PropOp55
 70
     1
102
RTVSPost2010Prop56
140
1.0
102
RTVSPost2010PropOp56
 70
     1
102
RTVSPost2010Prop57
140
1.0
102
RTVSPost2010PropOp57
 70
     1
  0
XRECORD
  5
40C
102
{ACAD_REACTORS
330
40B
102
}
330
40B
100
AcDbXrecord
280
     1
102
RTVSPropertyOp0
 70
     1
102
RTVSPropertyOp1
 70
     1
102
RTVSPropertyOp2
 70
     1
102
RTVSPropertyOp3
 70
     1
102
RTVSPropertyOp4
 70
     1
102
RTVSPropertyOp5
 70
     1
102
RTVSPropertyOp6
 70
     1
102
RTVSPropertyOp7
 70
     1
102
RTVSPropertyOp8
 70
     1
102
RTVSPropertyOp9
 70
     1
102
RTVSPropertyOp10
 70
     1
102
RTVSPropertyOp11
 70
     1
102
RTVSPropertyOp12
 70
     1
102
RTVSPropertyOp13
 70
     1
102
RTVSPropertyOp14
 70
     1
102
RTVSPropertyOp15
 70
     1
102
RTVSPropertyOp16
 70
     1
102
RTVSPropertyOp17
 70
     1
102
RTVSPropertyOp18
 70
     1
102
RTVSPropertyOp19
 70
     1
102
RTVSPropertyOp20
 70
     1
102
RTVSPropertyOp21
 70
     1
102
RTVSPropertyOp22
 70
     1
102
RTVSPropertyOp23
 70
     1
102
RTVSPropertyOp24
 70
     1
102
RTVSPropertyOp25
 70
     1
102
RTVSPropertyOp26
 70
     1
102
RTVSPropertyOp27
 70
     1
102
RTVSPropertyOp28
 70
     1
102
RTVSPropertyOp29
 70
     1
102
RTVSPropertyOp30
 70
     1
102
RTVSPropertyOp31
 70
     1
102
RTVSPropertyOp32
 70
     1
102
RTVSPropertyOp33
 70
     1
102
RTVSPropertyOp34
 70
     1
102
RTVSPropertyOp35
 70
     1
102
RTVSPropertyOp36
 70
     1
102
RTVSPropertyOp37
 70
     1
102
RTVSPropertyOp38
 70
     1
102
RTVSPropertyOp39
 70
     1
102
RTVSPropertyOp40
 70
     1
102
RTVSPropertyOp41
 70
     1
102
RTVSPropertyOp42
 70
     1
102
RTVSPropertyOp43
 70
     1
102
RTVSPropertyOp44
 70
     1
102
RTVSPropertyOp45
 70
     1
102
RTVSPropertyOp46
 70
     1
102
RTVSPropertyOp47
 70
     1
102
RTVSPropertyOp48
 70
     1
102
RTVSPropertyOp49
 70
     1
102
RTVSPropertyOp50
 70
     1
102
RTVSPropertyOp51
 70
     0
102
RTVSPropertyOp52
 70
     0
102
RTVSPropertyOp53
 70
     1
102
RTVSPropertyOp54
 70
     1
102
RTVSPropertyOp55
 70
     1
102
RTVSPropertyOp56
 70
     1
102
RTVSPropertyOp57
 70
     1
102
RTVSPost2010Prop28
280
     0
102
RTVSPost2010PropOp28
 70
     1
102
RTVSPost2010Prop29
280
     1
102
RTVSPost2010PropOp29
 70
     1
102
RTVSPost2010Prop30
280
     1
102
RTVSPost2010PropOp30
 70
     1
102
RTVSPost2010Prop31
280
     0
102
RTVSPost2010PropOp31
 70
     1
102
RTVSPost2010Prop32
280
     0
102
RTVSPost2010PropOp32
 70
     1
102
RTVSPost2010Prop33
280
     0
102
RTVSPost2010PropOp33
 70
     1
102
RTVSPost2010Prop34
280
     0
102
RTVSPost2010PropOp34
 70
     1
102
RTVSPost2010Prop35
280
     0
102
RTVSPost2010PropOp35
 70
     1
102
RTVSPost2010Prop36
280
     0
102
RTVSPost2010PropOp36
 70
     1
102
RTVSPost2010Prop37
 90
       50
102
RTVSPost2010PropOp37
 70
     1
102
RTVSPost2010Prop38
140
0.0
102
RTVSPost2010PropOp38
 70
     1
102
RTVSPost2010Prop39
140
1.0
102
RTVSPost2010PropOp39
 70
     1
102
RTVSPost2010Prop40
 90
        0
102
RTVSPost2010PropOp40
 70
     1
102
RTVSPost2010Prop41ColorIndex
 90
       18
102
RTVSPost2010Prop41ColorRGB
 90
        0
102
RTVSPost2010PropOp41
 70
     1
102
RTVSPost2010Prop42
 90
       50
102
RTVSPost2010PropOp42
 70
     1
102
RTVSPost2010Prop43
 90
        3
102
RTVSPost2010PropOp43
 70
     1
102
RTVSPost2010Prop44ColorIndex
 90
        5
102
RTVSPost2010Prop44ColorRGB
 90
      255
102
RTVSPost2010PropOp44
 70
     1
102
RTVSPost2010Prop45
280
     0
102
RTVSPost2010PropOp45
 70
     1
102
RTVSPost2010Prop46
 90
       50
102
RTVSPost2010PropOp46
 70
     1
102
RTVSPost2010Prop47
 90
       50
102
RTVSPost2010PropOp47
 70
     1
102
RTVSPost2010Prop48
 90
       50
102
RTVSPost2010PropOp48
 70
     1
102
RTVSPost2010Prop49
280
     0
102
RTVSPost2010PropOp49
 70
     1
102
RTVSPost2010Prop50
 90
       50
102
RTVSPost2010PropOp50
 70
     1
102
RTVSPost2010Prop51ColorIndex
 90
      256
102
RTVSPost2010Prop51ColorRGB
 90
-16777216
102
RTVSPost2010PropOp51
 70
     0
102
RTVSPost2010Prop52
140
1.0
102
RTVSPost2010PropOp52
 70
     0
102
RTVSPost2010Prop53
 90
        2
102
RTVSPost2010PropOp53
 70
     1
102
RTVSPost2010Prop54
  1
strokes_ogs.tif
102
RTVSPost2010PropOp54
 70
     1
102
RTVSPost2010Prop55
280
     0
102
RTVSPost2010PropOp55
 70
     1
102
RTVSPost2010Prop56
140
1.0
102
RTVSPost2010PropOp56
 70
     1
102
RTVSPost2010Prop57
140
1.0
102
RTVSPost2010PropOp57
 70
     1
  0
XRECORD
  5
400
102
{ACAD_REACTORS
330
3FF
102
}
330
3FF
100
AcDbXrecord
280
     1
102
RTVSPropertyOp0
 70
     1
102
RTVSPropertyOp1
 70
     1
102
RTVSPropertyOp2
 70
     1
102
RTVSPropertyOp3
 70
     1
102
RTVSPropertyOp4
 70
     1
102
RTVSPropertyOp5
 70
     1
102
RTVSPropertyOp6
 70
     1
102
RTVSPropertyOp7
 70
     1
102
RTVSPropertyOp8
 70
     1
102
RTVSPropertyOp9
 70
     1
102
RTVSPropertyOp10
 70
     1
102
RTVSPropertyOp11
 70
     1
102
RTVSPropertyOp12
 70
     1
102
RTVSPropertyOp13
 70
     1
102
RTVSPropertyOp14
 70
     1
102
RTVSPropertyOp15
 70
     1
102
RTVSPropertyOp16
 70
     1
102
RTVSPropertyOp17
 70
     1
102
RTVSPropertyOp18
 70
     1
102
RTVSPropertyOp19
 70
     1
102
RTVSPropertyOp20
 70
     1
102
RTVSPropertyOp21
 70
     1
102
RTVSPropertyOp22
 70
     1
102
RTVSPropertyOp23
 70
     1
102
RTVSPropertyOp24
 70
     1
102
RTVSPropertyOp25
 70
     1
102
RTVSPropertyOp26
 70
     1
102
RTVSPropertyOp27
 70
     1
102
RTVSPropertyOp28
 70
     1
102
RTVSPropertyOp29
 70
     1
102
RTVSPropertyOp30
 70
     1
102
RTVSPropertyOp31
 70
     1
102
RTVSPropertyOp32
 70
     1
102
RTVSPropertyOp33
 70
     1
102
RTVSPropertyOp34
 70
     1
102
RTVSPropertyOp35
 70
     1
102
RTVSPropertyOp36
 70
     1
102
RTVSPropertyOp37
 70
     1
102
RTVSPropertyOp38
 70
     1
102
RTVSPropertyOp39
 70
     1
102
RTVSPropertyOp40
 70
     1
102
RTVSPropertyOp41
 70
     1
102
RTVSPropertyOp42
 70
     1
102
RTVSPropertyOp43
 70
     1
102
RTVSPropertyOp44
 70
     1
102
RTVSPropertyOp45
 70
     1
102
RTVSPropertyOp46
 70
     1
102
RTVSPropertyOp47
 70
     1
102
RTVSPropertyOp48
 70
     1
102
RTVSPropertyOp49
 70
     1
102
RTVSPropertyOp50
 70
     1
102
RTVSPropertyOp51
 70
     0
102
RTVSPropertyOp52
 70
     0
102
RTVSPropertyOp53
 70
     1
102
RTVSPropertyOp54
 70
     1
102
RTVSPropertyOp55
 70
     1
102
RTVSPropertyOp56
 70
     1
102
RTVSPropertyOp57
 70
     1
102
RTVSPost2010Prop28
280
     0
102
RTVSPost2010PropOp28
 70
     1
102
RTVSPost2010Prop29
280
     1
102
RTVSPost2010PropOp29
 70
     1
102
RTVSPost2010Prop30
280
     1
102
RTVSPost2010PropOp30
 70
     1
102
RTVSPost2010Prop31
280
     0
102
RTVSPost2010PropOp31
 70
     1
102
RTVSPost2010Prop32
280
     0
102
RTVSPost2010PropOp32
 70
     1
102
RTVSPost2010Prop33
280
     0
102
RTVSPost2010PropOp33
 70
     1
102
RTVSPost2010Prop34
280
     0
102
RTVSPost2010PropOp34
 70
     1
102
RTVSPost2010Prop35
280
     0
102
RTVSPost2010PropOp35
 70
     1
102
RTVSPost2010Prop36
280
     0
102
RTVSPost2010PropOp36
 70
     1
102
RTVSPost2010Prop37
 90
       50
102
RTVSPost2010PropOp37
 70
     1
102
RTVSPost2010Prop38
140
0.0
102
RTVSPost2010PropOp38
 70
     1
102
RTVSPost2010Prop39
140
1.0
102
RTVSPost2010PropOp39
 70
     1
102
RTVSPost2010Prop40
 90
        0
102
RTVSPost2010PropOp40
 70
     1
102
RTVSPost2010Prop41ColorIndex
 90
       18
102
RTVSPost2010Prop41ColorRGB
 90
        0
102
RTVSPost2010PropOp41
 70
     1
102
RTVSPost2010Prop42
 90
       50
102
RTVSPost2010PropOp42
 70
     1
102
RTVSPost2010Prop43
 90
        3
102
RTVSPost2010PropOp43
 70
     1
102
RTVSPost2010Prop44ColorIndex
 90
        5
102
RTVSPost2010Prop44ColorRGB
 90
      255
102
RTVSPost2010PropOp44
 70
     1
102
RTVSPost2010Prop45
280
     0
102
RTVSPost2010PropOp45
 70
     1
102
RTVSPost2010Prop46
 90
       50
102
RTVSPost2010PropOp46
 70
     1
102
RTVSPost2010Prop47
 90
       50
102
RTVSPost2010PropOp47
 70
     1
102
RTVSPost2010Prop48
 90
       50
102
RTVSPost2010PropOp48
 70
     1
102
RTVSPost2010Prop49
280
     0
102
RTVSPost2010PropOp49
 70
     1
102
RTVSPost2010Prop50
 90
       50
102
RTVSPost2010PropOp50
 70
     1
102
RTVSPost2010Prop51ColorIndex
 90
      256
102
RTVSPost2010Prop51ColorRGB
 90
-16777216
102
RTVSPost2010PropOp51
 70
     0
102
RTVSPost2010Prop52
140
1.0
102
RTVSPost2010PropOp52
 70
     0
102
RTVSPost2010Prop53
 90
        2
102
RTVSPost2010PropOp53
 70
     1
102
RTVSPost2010Prop54
  1
strokes_ogs.tif
102
RTVSPost2010PropOp54
 70
     1
102
RTVSPost2010Prop55
280
     0
102
RTVSPost2010PropOp55
 70
     1
102
RTVSPost2010Prop56
140
1.0
102
RTVSPost2010PropOp56
 70
     1
102
RTVSPost2010Prop57
140
1.0
102
RTVSPost2010PropOp57
 70
     1
  0
XRECORD
  5
402
102
{ACAD_REACTORS
330
401
102
}
330
401
100
AcDbXrecord
280
     1
102
RTVSPropertyOp0
 70
     1
102
RTVSPropertyOp1
 70
     1
102
RTVSPropertyOp2
 70
     1
102
RTVSPropertyOp3
 70
     1
102
RTVSPropertyOp4
 70
     1
102
RTVSPropertyOp5
 70
     1
102
RTVSPropertyOp6
 70
     1
102
RTVSPropertyOp7
 70
     1
102
RTVSPropertyOp8
 70
     1
102
RTVSPropertyOp9
 70
     1
102
RTVSPropertyOp10
 70
     1
102
RTVSPropertyOp11
 70
     1
102
RTVSPropertyOp12
 70
     1
102
RTVSPropertyOp13
 70
     1
102
RTVSPropertyOp14
 70
     1
102
RTVSPropertyOp15
 70
     1
102
RTVSPropertyOp16
 70
     1
102
RTVSPropertyOp17
 70
     1
102
RTVSPropertyOp18
 70
     1
102
RTVSPropertyOp19
 70
     1
102
RTVSPropertyOp20
 70
     1
102
RTVSPropertyOp21
 70
     1
102
RTVSPropertyOp22
 70
     1
102
RTVSPropertyOp23
 70
     1
102
RTVSPropertyOp24
 70
     1
102
RTVSPropertyOp25
 70
     1
102
RTVSPropertyOp26
 70
     1
102
RTVSPropertyOp27
 70
     1
102
RTVSPropertyOp28
 70
     1
102
RTVSPropertyOp29
 70
     1
102
RTVSPropertyOp30
 70
     1
102
RTVSPropertyOp31
 70
     1
102
RTVSPropertyOp32
 70
     1
102
RTVSPropertyOp33
 70
     1
102
RTVSPropertyOp34
 70
     1
102
RTVSPropertyOp35
 70
     1
102
RTVSPropertyOp36
 70
     1
102
RTVSPropertyOp37
 70
     1
102
RTVSPropertyOp38
 70
     1
102
RTVSPropertyOp39
 70
     1
102
RTVSPropertyOp40
 70
     1
102
RTVSPropertyOp41
 70
     1
102
RTVSPropertyOp42
 70
     1
102
RTVSPropertyOp43
 70
     1
102
RTVSPropertyOp44
 70
     1
102
RTVSPropertyOp45
 70
     1
102
RTVSPropertyOp46
 70
     1
102
RTVSPropertyOp47
 70
     1
102
RTVSPropertyOp48
 70
     1
102
RTVSPropertyOp49
 70
     1
102
RTVSPropertyOp50
 70
     1
102
RTVSPropertyOp51
 70
     0
102
RTVSPropertyOp52
 70
     0
102
RTVSPropertyOp53
 70
     1
102
RTVSPropertyOp54
 70
     1
102
RTVSPropertyOp55
 70
     1
102
RTVSPropertyOp56
 70
     1
102
RTVSPropertyOp57
 70
     1
102
RTVSPost2010Prop28
280
     0
102
RTVSPost2010PropOp28
 70
     1
102
RTVSPost2010Prop29
280
     1
102
RTVSPost2010PropOp29
 70
     1
102
RTVSPost2010Prop30
280
     1
102
RTVSPost2010PropOp30
 70
     1
102
RTVSPost2010Prop31
280
     0
102
RTVSPost2010PropOp31
 70
     1
102
RTVSPost2010Prop32
280
     0
102
RTVSPost2010PropOp32
 70
     1
102
RTVSPost2010Prop33
280
     0
102
RTVSPost2010PropOp33
 70
     1
102
RTVSPost2010Prop34
280
     0
102
RTVSPost2010PropOp34
 70
     1
102
RTVSPost2010Prop35
280
     0
102
RTVSPost2010PropOp35
 70
     1
102
RTVSPost2010Prop36
280
     0
102
RTVSPost2010PropOp36
 70
     1
102
RTVSPost2010Prop37
 90
       50
102
RTVSPost2010PropOp37
 70
     1
102
RTVSPost2010Prop38
140
0.0
102
RTVSPost2010PropOp38
 70
     1
102
RTVSPost2010Prop39
140
1.0
102
RTVSPost2010PropOp39
 70
     1
102
RTVSPost2010Prop40
 90
        0
102
RTVSPost2010PropOp40
 70
     1
102
RTVSPost2010Prop41ColorIndex
 90
       18
102
RTVSPost2010Prop41ColorRGB
 90
        0
102
RTVSPost2010PropOp41
 70
     1
102
RTVSPost2010Prop42
 90
       50
102
RTVSPost2010PropOp42
 70
     1
102
RTVSPost2010Prop43
 90
        3
102
RTVSPost2010PropOp43
 70
     1
102
RTVSPost2010Prop44ColorIndex
 90
        5
102
RTVSPost2010Prop44ColorRGB
 90
      255
102
RTVSPost2010PropOp44
 70
     1
102
RTVSPost2010Prop45
280
     0
102
RTVSPost2010PropOp45
 70
     1
102
RTVSPost2010Prop46
 90
       50
102
RTVSPost2010PropOp46
 70
     1
102
RTVSPost2010Prop47
 90
       50
102
RTVSPost2010PropOp47
 70
     1
102
RTVSPost2010Prop48
 90
       50
102
RTVSPost2010PropOp48
 70
     1
102
RTVSPost2010Prop49
280
     0
102
RTVSPost2010PropOp49
 70
     1
102
RTVSPost2010Prop50
 90
       50
102
RTVSPost2010PropOp50
 70
     1
102
RTVSPost2010Prop51ColorIndex
 90
      256
102
RTVSPost2010Prop51ColorRGB
 90
-16777216
102
RTVSPost2010PropOp51
 70
     0
102
RTVSPost2010Prop52
140
1.0
102
RTVSPost2010PropOp52
 70
     0
102
RTVSPost2010Prop53
 90
        2
102
RTVSPost2010PropOp53
 70
     1
102
RTVSPost2010Prop54
  1
strokes_ogs.tif
102
RTVSPost2010PropOp54
 70
     1
102
RTVSPost2010Prop55
280
     0
102
RTVSPost2010PropOp55
 70
     1
102
RTVSPost2010Prop56
140
1.0
102
RTVSPost2010PropOp56
 70
     1
102
RTVSPost2010Prop57
140
1.0
102
RTVSPost2010PropOp57
 70
     1
  0
XRECORD
  5
412
102
{ACAD_REACTORS
330
411
102
}
330
411
100
AcDbXrecord
280
     1
102
RTVSPropertyOp0
 70
     0
102
RTVSPropertyOp1
 70
     0
102
RTVSPropertyOp2
 70
     0
102
RTVSPropertyOp3
 70
     0
102
RTVSPropertyOp4
 70
     0
102
RTVSPropertyOp5
 70
     0
102
RTVSPropertyOp6
 70
     0
102
RTVSPropertyOp7
 70
     0
102
RTVSPropertyOp8
 70
     0
102
RTVSPropertyOp9
 70
     0
102
RTVSPropertyOp10
 70
     0
102
RTVSPropertyOp11
 70
     0
102
RTVSPropertyOp12
 70
     0
102
RTVSPropertyOp13
 70
     0
102
RTVSPropertyOp14
 70
     2
102
RTVSPropertyOp15
 70
     0
102
RTVSPropertyOp16
 70
     0
102
RTVSPropertyOp17
 70
     0
102
RTVSPropertyOp18
 70
     0
102
RTVSPropertyOp19
 70
     0
102
RTVSPropertyOp20
 70
     0
102
RTVSPropertyOp21
 70
     0
102
RTVSPropertyOp22
 70
     0
102
RTVSPropertyOp23
 70
     0
102
RTVSPropertyOp24
 70
     0
102
RTVSPropertyOp25
 70
     0
102
RTVSPropertyOp26
 70
     0
102
RTVSPropertyOp27
 70
     0
102
RTVSPropertyOp28
 70
     0
102
RTVSPropertyOp29
 70
     0
102
RTVSPropertyOp30
 70
     0
102
RTVSPropertyOp31
 70
     0
102
RTVSPropertyOp32
 70
     0
102
RTVSPropertyOp33
 70
     0
102
RTVSPropertyOp34
 70
     0
102
RTVSPropertyOp35
 70
     0
102
RTVSPropertyOp36
 70
     0
102
RTVSPropertyOp37
 70
     0
102
RTVSPropertyOp38
 70
     0
102
RTVSPropertyOp39
 70
     0
102
RTVSPropertyOp40
 70
     0
102
RTVSPropertyOp41
 70
     0
102
RTVSPropertyOp42
 70
     0
102
RTVSPropertyOp43
 70
     0
102
RTVSPropertyOp44
 70
     0
102
RTVSPropertyOp45
 70
     0
102
RTVSPropertyOp46
 70
     0
102
RTVSPropertyOp47
 70
     0
102
RTVSPropertyOp48
 70
     0
102
RTVSPropertyOp49
 70
     0
102
RTVSPropertyOp50
 70
     0
102
RTVSPropertyOp51
 70
     0
102
RTVSPropertyOp52
 70
     0
102
RTVSPropertyOp53
 70
     0
102
RTVSPropertyOp54
 70
     0
102
RTVSPropertyOp55
 70
     0
102
RTVSPropertyOp56
 70
     0
102
RTVSPropertyOp57
 70
     0
102
RTVSPost2010Prop28
280
     0
102
RTVSPost2010PropOp28
 70
     0
102
RTVSPost2010Prop29
280
     1
102
RTVSPost2010PropOp29
 70
     0
102
RTVSPost2010Prop30
280
     1
102
RTVSPost2010PropOp30
 70
     0
102
RTVSPost2010Prop31
280
     0
102
RTVSPost2010PropOp31
 70
     0
102
RTVSPost2010Prop32
280
     0
102
RTVSPost2010PropOp32
 70
     0
102
RTVSPost2010Prop33
280
     0
102
RTVSPost2010PropOp33
 70
     0
102
RTVSPost2010Prop34
280
     0
102
RTVSPost2010PropOp34
 70
     0
102
RTVSPost2010Prop35
280
     0
102
RTVSPost2010PropOp35
 70
     0
102
RTVSPost2010Prop36
280
     0
102
RTVSPost2010PropOp36
 70
     0
102
RTVSPost2010Prop37
 90
       50
102
RTVSPost2010PropOp37
 70
     0
102
RTVSPost2010Prop38
140
0.0
102
RTVSPost2010PropOp38
 70
     0
102
RTVSPost2010Prop39
140
1.0
102
RTVSPost2010PropOp39
 70
     0
102
RTVSPost2010Prop40
 90
        0
102
RTVSPost2010PropOp40
 70
     0
102
RTVSPost2010Prop41ColorIndex
 90
       18
102
RTVSPost2010Prop41ColorRGB
 90
        0
102
RTVSPost2010PropOp41
 70
     0
102
RTVSPost2010Prop42
 90
       50
102
RTVSPost2010PropOp42
 70
     0
102
RTVSPost2010Prop43
 90
        3
102
RTVSPost2010PropOp43
 70
     0
102
RTVSPost2010Prop44ColorIndex
 90
        5
102
RTVSPost2010Prop44ColorRGB
 90
      255
102
RTVSPost2010PropOp44
 70
     0
102
RTVSPost2010Prop45
280
     0
102
RTVSPost2010PropOp45
 70
     0
102
RTVSPost2010Prop46
 90
       50
102
RTVSPost2010PropOp46
 70
     0
102
RTVSPost2010Prop47
 90
       50
102
RTVSPost2010PropOp47
 70
     0
102
RTVSPost2010Prop48
 90
       50
102
RTVSPost2010PropOp48
 70
     0
102
RTVSPost2010Prop49
280
     0
102
RTVSPost2010PropOp49
 70
     0
102
RTVSPost2010Prop50
 90
       50
102
RTVSPost2010PropOp50
 70
     0
102
RTVSPost2010Prop51ColorIndex
 90
      256
102
RTVSPost2010Prop51ColorRGB
 90
-16777216
102
RTVSPost2010PropOp51
 70
     0
102
RTVSPost2010Prop52
140
1.0
102
RTVSPost2010PropOp52
 70
     0
102
RTVSPost2010Prop53
 90
        2
102
RTVSPost2010PropOp53
 70
     0
102
RTVSPost2010Prop54
  1
strokes_ogs.tif
102
RTVSPost2010PropOp54
 70
     0
102
RTVSPost2010Prop55
280
     0
102
RTVSPost2010PropOp55
 70
     0
102
RTVSPost2010Prop56
140
1.0
102
RTVSPost2010PropOp56
 70
     0
102
RTVSPost2010Prop57
140
1.0
102
RTVSPost2010PropOp57
 70
     0
  0
XRECORD
  5
40A
102
{ACAD_REACTORS
330
409
102
}
330
409
100
AcDbXrecord
280
     1
102
RTVSPropertyOp0
 70
     1
102
RTVSPropertyOp1
 70
     1
102
RTVSPropertyOp2
 70
     1
102
RTVSPropertyOp3
 70
     1
102
RTVSPropertyOp4
 70
     1
102
RTVSPropertyOp5
 70
     1
102
RTVSPropertyOp6
 70
     1
102
RTVSPropertyOp7
 70
     1
102
RTVSPropertyOp8
 70
     1
102
RTVSPropertyOp9
 70
     1
102
RTVSPropertyOp10
 70
     1
102
RTVSPropertyOp11
 70
     1
102
RTVSPropertyOp12
 70
     1
102
RTVSPropertyOp13
 70
     1
102
RTVSPropertyOp14
 70
     1
102
RTVSPropertyOp15
 70
     1
102
RTVSPropertyOp16
 70
     1
102
RTVSPropertyOp17
 70
     1
102
RTVSPropertyOp18
 70
     1
102
RTVSPropertyOp19
 70
     1
102
RTVSPropertyOp20
 70
     1
102
RTVSPropertyOp21
 70
     1
102
RTVSPropertyOp22
 70
     1
102
RTVSPropertyOp23
 70
     1
102
RTVSPropertyOp24
 70
     1
102
RTVSPropertyOp25
 70
     1
102
RTVSPropertyOp26
 70
     1
102
RTVSPropertyOp27
 70
     1
102
RTVSPropertyOp28
 70
     1
102
RTVSPropertyOp29
 70
     1
102
RTVSPropertyOp30
 70
     1
102
RTVSPropertyOp31
 70
     1
102
RTVSPropertyOp32
 70
     1
102
RTVSPropertyOp33
 70
     1
102
RTVSPropertyOp34
 70
     1
102
RTVSPropertyOp35
 70
     1
102
RTVSPropertyOp36
 70
     1
102
RTVSPropertyOp37
 70
     1
102
RTVSPropertyOp38
 70
     1
102
RTVSPropertyOp39
 70
     1
102
RTVSPropertyOp40
 70
     1
102
RTVSPropertyOp41
 70
     1
102
RTVSPropertyOp42
 70
     1
102
RTVSPropertyOp43
 70
     1
102
RTVSPropertyOp44
 70
     1
102
RTVSPropertyOp45
 70
     1
102
RTVSPropertyOp46
 70
     1
102
RTVSPropertyOp47
 70
     1
102
RTVSPropertyOp48
 70
     1
102
RTVSPropertyOp49
 70
     1
102
RTVSPropertyOp50
 70
     1
102
RTVSPropertyOp51
 70
     0
102
RTVSPropertyOp52
 70
     0
102
RTVSPropertyOp53
 70
     1
102
RTVSPropertyOp54
 70
     1
102
RTVSPropertyOp55
 70
     1
102
RTVSPropertyOp56
 70
     1
102
RTVSPropertyOp57
 70
     1
102
RTVSPost2010Prop28
280
     0
102
RTVSPost2010PropOp28
 70
     1
102
RTVSPost2010Prop29
280
     1
102
RTVSPost2010PropOp29
 70
     1
102
RTVSPost2010Prop30
280
     1
102
RTVSPost2010PropOp30
 70
     1
102
RTVSPost2010Prop31
280
     0
102
RTVSPost2010PropOp31
 70
     1
102
RTVSPost2010Prop32
280
     0
102
RTVSPost2010PropOp32
 70
     1
102
RTVSPost2010Prop33
280
     0
102
RTVSPost2010PropOp33
 70
     1
102
RTVSPost2010Prop34
280
     0
102
RTVSPost2010PropOp34
 70
     1
102
RTVSPost2010Prop35
280
     0
102
RTVSPost2010PropOp35
 70
     1
102
RTVSPost2010Prop36
280
     0
102
RTVSPost2010PropOp36
 70
     1
102
RTVSPost2010Prop37
 90
       50
102
RTVSPost2010PropOp37
 70
     1
102
RTVSPost2010Prop38
140
0.0
102
RTVSPost2010PropOp38
 70
     1
102
RTVSPost2010Prop39
140
1.0
102
RTVSPost2010PropOp39
 70
     1
102
RTVSPost2010Prop40
 90
        0
102
RTVSPost2010PropOp40
 70
     1
102
RTVSPost2010Prop41ColorIndex
 90
       18
102
RTVSPost2010Prop41ColorRGB
 90
        0
102
RTVSPost2010PropOp41
 70
     1
102
RTVSPost2010Prop42
 90
       50
102
RTVSPost2010PropOp42
 70
     1
102
RTVSPost2010Prop43
 90
        3
102
RTVSPost2010PropOp43
 70
     1
102
RTVSPost2010Prop44ColorIndex
 90
        5
102
RTVSPost2010Prop44ColorRGB
 90
      255
102
RTVSPost2010PropOp44
 70
     1
102
RTVSPost2010Prop45
280
     0
102
RTVSPost2010PropOp45
 70
     1
102
RTVSPost2010Prop46
 90
       50
102
RTVSPost2010PropOp46
 70
     1
102
RTVSPost2010Prop47
 90
       50
102
RTVSPost2010PropOp47
 70
     1
102
RTVSPost2010Prop48
 90
       50
102
RTVSPost2010PropOp48
 70
     1
102
RTVSPost2010Prop49
280
     0
102
RTVSPost2010PropOp49
 70
     1
102
RTVSPost2010Prop50
 90
       50
102
RTVSPost2010PropOp50
 70
     1
102
RTVSPost2010Prop51ColorIndex
 90
      256
102
RTVSPost2010Prop51ColorRGB
 90
-16777216
102
RTVSPost2010PropOp51
 70
     0
102
RTVSPost2010Prop52
140
1.0
102
RTVSPost2010PropOp52
 70
     0
102
RTVSPost2010Prop53
 90
        2
102
RTVSPost2010PropOp53
 70
     1
102
RTVSPost2010Prop54
  1
strokes_ogs.tif
102
RTVSPost2010PropOp54
 70
     1
102
RTVSPost2010Prop55
280
     0
102
RTVSPost2010PropOp55
 70
     1
102
RTVSPost2010Prop56
140
1.0
102
RTVSPost2010PropOp56
 70
     1
102
RTVSPost2010Prop57
140
1.0
102
RTVSPost2010PropOp57
 70
     1
  0
XRECORD
  5
3EE
102
{ACAD_REACTORS
330
3ED
102
}
330
3ED
100
AcDbXrecord
280
     1
102
RTVSPropertyOp0
 70
     1
102
RTVSPropertyOp1
 70
     1
102
RTVSPropertyOp2
 70
     1
102
RTVSPropertyOp3
 70
     1
102
RTVSPropertyOp4
 70
     1
102
RTVSPropertyOp5
 70
     1
102
RTVSPropertyOp6
 70
     1
102
RTVSPropertyOp7
 70
     1
102
RTVSPropertyOp8
 70
     1
102
RTVSPropertyOp9
 70
     1
102
RTVSPropertyOp10
 70
     1
102
RTVSPropertyOp11
 70
     1
102
RTVSPropertyOp12
 70
     1
102
RTVSPropertyOp13
 70
     1
102
RTVSPropertyOp14
 70
     1
102
RTVSPropertyOp15
 70
     1
102
RTVSPropertyOp16
 70
     1
102
RTVSPropertyOp17
 70
     1
102
RTVSPropertyOp18
 70
     1
102
RTVSPropertyOp19
 70
     1
102
RTVSPropertyOp20
 70
     1
102
RTVSPropertyOp21
 70
     1
102
RTVSPropertyOp22
 70
     1
102
RTVSPropertyOp23
 70
     1
102
RTVSPropertyOp24
 70
     1
102
RTVSPropertyOp25
 70
     1
102
RTVSPropertyOp26
 70
     1
102
RTVSPropertyOp27
 70
     1
102
RTVSPropertyOp28
 70
     1
102
RTVSPropertyOp29
 70
     1
102
RTVSPropertyOp30
 70
     1
102
RTVSPropertyOp31
 70
     1
102
RTVSPropertyOp32
 70
     1
102
RTVSPropertyOp33
 70
     1
102
RTVSPropertyOp34
 70
     1
102
RTVSPropertyOp35
 70
     1
102
RTVSPropertyOp36
 70
     1
102
RTVSPropertyOp37
 70
     1
102
RTVSPropertyOp38
 70
     1
102
RTVSPropertyOp39
 70
     1
102
RTVSPropertyOp40
 70
     1
102
RTVSPropertyOp41
 70
     1
102
RTVSPropertyOp42
 70
     1
102
RTVSPropertyOp43
 70
     1
102
RTVSPropertyOp44
 70
     1
102
RTVSPropertyOp45
 70
     1
102
RTVSPropertyOp46
 70
     1
102
RTVSPropertyOp47
 70
     1
102
RTVSPropertyOp48
 70
     1
102
RTVSPropertyOp49
 70
     1
102
RTVSPropertyOp50
 70
     1
102
RTVSPropertyOp51
 70
     0
102
RTVSPropertyOp52
 70
     0
102
RTVSPropertyOp53
 70
     1
102
RTVSPropertyOp54
 70
     1
102
RTVSPropertyOp55
 70
     1
102
RTVSPropertyOp56
 70
     1
102
RTVSPropertyOp57
 70
     1
102
RTVSPost2010Prop28
280
     0
102
RTVSPost2010PropOp28
 70
     1
102
RTVSPost2010Prop29
280
     1
102
RTVSPost2010PropOp29
 70
     1
102
RTVSPost2010Prop30
280
     1
102
RTVSPost2010PropOp30
 70
     1
102
RTVSPost2010Prop31
280
     0
102
RTVSPost2010PropOp31
 70
     1
102
RTVSPost2010Prop32
280
     0
102
RTVSPost2010PropOp32
 70
     1
102
RTVSPost2010Prop33
280
     0
102
RTVSPost2010PropOp33
 70
     1
102
RTVSPost2010Prop34
280
     0
102
RTVSPost2010PropOp34
 70
     1
102
RTVSPost2010Prop35
280
     0
102
RTVSPost2010PropOp35
 70
     1
102
RTVSPost2010Prop36
280
     0
102
RTVSPost2010PropOp36
 70
     1
102
RTVSPost2010Prop37
 90
       50
102
RTVSPost2010PropOp37
 70
     1
102
RTVSPost2010Prop38
140
0.0
102
RTVSPost2010PropOp38
 70
     1
102
RTVSPost2010Prop39
140
1.0
102
RTVSPost2010PropOp39
 70
     1
102
RTVSPost2010Prop40
 90
        0
102
RTVSPost2010PropOp40
 70
     1
102
RTVSPost2010Prop41ColorIndex
 90
       18
102
RTVSPost2010Prop41ColorRGB
 90
        0
102
RTVSPost2010PropOp41
 70
     1
102
RTVSPost2010Prop42
 90
       50
102
RTVSPost2010PropOp42
 70
     1
102
RTVSPost2010Prop43
 90
        3
102
RTVSPost2010PropOp43
 70
     1
102
RTVSPost2010Prop44ColorIndex
 90
        5
102
RTVSPost2010Prop44ColorRGB
 90
      255
102
RTVSPost2010PropOp44
 70
     1
102
RTVSPost2010Prop45
280
     0
102
RTVSPost2010PropOp45
 70
     1
102
RTVSPost2010Prop46
 90
       50
102
RTVSPost2010PropOp46
 70
     1
102
RTVSPost2010Prop47
 90
       50
102
RTVSPost2010PropOp47
 70
     1
102
RTVSPost2010Prop48
 90
       50
102
RTVSPost2010PropOp48
 70
     1
102
RTVSPost2010Prop49
280
     0
102
RTVSPost2010PropOp49
 70
     1
102
RTVSPost2010Prop50
 90
       50
102
RTVSPost2010PropOp50
 70
     1
102
RTVSPost2010Prop51ColorIndex
 90
      256
102
RTVSPost2010Prop51ColorRGB
 90
-16777216
102
RTVSPost2010PropOp51
 70
     0
102
RTVSPost2010Prop52
140
1.0
102
RTVSPost2010PropOp52
 70
     0
102
RTVSPost2010Prop53
 90
        2
102
RTVSPost2010PropOp53
 70
     1
102
RTVSPost2010Prop54
  1
strokes_ogs.tif
102
RTVSPost2010PropOp54
 70
     1
102
RTVSPost2010Prop55
280
     0
102
RTVSPost2010PropOp55
 70
     1
102
RTVSPost2010Prop56
140
1.0
102
RTVSPost2010PropOp56
 70
     1
102
RTVSPost2010Prop57
140
1.0
102
RTVSPost2010PropOp57
 70
     1
  0
XRECORD
  5
3F0
102
{ACAD_REACTORS
330
3EF
102
}
330
3EF
100
AcDbXrecord
280
     1
102
RTVSPropertyOp0
 70
     1
102
RTVSPropertyOp1
 70
     1
102
RTVSPropertyOp2
 70
     1
102
RTVSPropertyOp3
 70
     1
102
RTVSPropertyOp4
 70
     1
102
RTVSPropertyOp5
 70
     1
102
RTVSPropertyOp6
 70
     1
102
RTVSPropertyOp7
 70
     1
102
RTVSPropertyOp8
 70
     1
102
RTVSPropertyOp9
 70
     1
102
RTVSPropertyOp10
 70
     1
102
RTVSPropertyOp11
 70
     1
102
RTVSPropertyOp12
 70
     1
102
RTVSPropertyOp13
 70
     1
102
RTVSPropertyOp14
 70
     1
102
RTVSPropertyOp15
 70
     1
102
RTVSPropertyOp16
 70
     1
102
RTVSPropertyOp17
 70
     1
102
RTVSPropertyOp18
 70
     1
102
RTVSPropertyOp19
 70
     1
102
RTVSPropertyOp20
 70
     1
102
RTVSPropertyOp21
 70
     1
102
RTVSPropertyOp22
 70
     1
102
RTVSPropertyOp23
 70
     1
102
RTVSPropertyOp24
 70
     1
102
RTVSPropertyOp25
 70
     1
102
RTVSPropertyOp26
 70
     1
102
RTVSPropertyOp27
 70
     1
102
RTVSPropertyOp28
 70
     1
102
RTVSPropertyOp29
 70
     1
102
RTVSPropertyOp30
 70
     1
102
RTVSPropertyOp31
 70
     1
102
RTVSPropertyOp32
 70
     1
102
RTVSPropertyOp33
 70
     1
102
RTVSPropertyOp34
 70
     1
102
RTVSPropertyOp35
 70
     1
102
RTVSPropertyOp36
 70
     1
102
RTVSPropertyOp37
 70
     1
102
RTVSPropertyOp38
 70
     1
102
RTVSPropertyOp39
 70
     1
102
RTVSPropertyOp40
 70
     1
102
RTVSPropertyOp41
 70
     1
102
RTVSPropertyOp42
 70
     1
102
RTVSPropertyOp43
 70
     1
102
RTVSPropertyOp44
 70
     1
102
RTVSPropertyOp45
 70
     1
102
RTVSPropertyOp46
 70
     1
102
RTVSPropertyOp47
 70
     1
102
RTVSPropertyOp48
 70
     1
102
RTVSPropertyOp49
 70
     1
102
RTVSPropertyOp50
 70
     1
102
RTVSPropertyOp51
 70
     0
102
RTVSPropertyOp52
 70
     0
102
RTVSPropertyOp53
 70
     1
102
RTVSPropertyOp54
 70
     1
102
RTVSPropertyOp55
 70
     1
102
RTVSPropertyOp56
 70
     1
102
RTVSPropertyOp57
 70
     1
102
RTVSPost2010Prop28
280
     0
102
RTVSPost2010PropOp28
 70
     1
102
RTVSPost2010Prop29
280
     1
102
RTVSPost2010PropOp29
 70
     1
102
RTVSPost2010Prop30
280
     1
102
RTVSPost2010PropOp30
 70
     1
102
RTVSPost2010Prop31
280
     0
102
RTVSPost2010PropOp31
 70
     1
102
RTVSPost2010Prop32
280
     0
102
RTVSPost2010PropOp32
 70
     1
102
RTVSPost2010Prop33
280
     0
102
RTVSPost2010PropOp33
 70
     1
102
RTVSPost2010Prop34
280
     0
102
RTVSPost2010PropOp34
 70
     1
102
RTVSPost2010Prop35
280
     0
102
RTVSPost2010PropOp35
 70
     1
102
RTVSPost2010Prop36
280
     0
102
RTVSPost2010PropOp36
 70
     1
102
RTVSPost2010Prop37
 90
       50
102
RTVSPost2010PropOp37
 70
     1
102
RTVSPost2010Prop38
140
0.0
102
RTVSPost2010PropOp38
 70
     1
102
RTVSPost2010Prop39
140
1.0
102
RTVSPost2010PropOp39
 70
     1
102
RTVSPost2010Prop40
 90
        0
102
RTVSPost2010PropOp40
 70
     1
102
RTVSPost2010Prop41ColorIndex
 90
       18
102
RTVSPost2010Prop41ColorRGB
 90
        0
102
RTVSPost2010PropOp41
 70
     1
102
RTVSPost2010Prop42
 90
       50
102
RTVSPost2010PropOp42
 70
     1
102
RTVSPost2010Prop43
 90
        3
102
RTVSPost2010PropOp43
 70
     1
102
RTVSPost2010Prop44ColorIndex
 90
        5
102
RTVSPost2010Prop44ColorRGB
 90
      255
102
RTVSPost2010PropOp44
 70
     1
102
RTVSPost2010Prop45
280
     0
102
RTVSPost2010PropOp45
 70
     1
102
RTVSPost2010Prop46
 90
       50
102
RTVSPost2010PropOp46
 70
     1
102
RTVSPost2010Prop47
 90
       50
102
RTVSPost2010PropOp47
 70
     1
102
RTVSPost2010Prop48
 90
       50
102
RTVSPost2010PropOp48
 70
     1
102
RTVSPost2010Prop49
280
     0
102
RTVSPost2010PropOp49
 70
     1
102
RTVSPost2010Prop50
 90
       50
102
RTVSPost2010PropOp50
 70
     1
102
RTVSPost2010Prop51ColorIndex
 90
      256
102
RTVSPost2010Prop51ColorRGB
 90
-16777216
102
RTVSPost2010PropOp51
 70
     0
102
RTVSPost2010Prop52
140
1.0
102
RTVSPost2010PropOp52
 70
     0
102
RTVSPost2010Prop53
 90
        2
102
RTVSPost2010PropOp53
 70
     1
102
RTVSPost2010Prop54
  1
strokes_ogs.tif
102
RTVSPost2010PropOp54
 70
     1
102
RTVSPost2010Prop55
280
     0
102
RTVSPost2010PropOp55
 70
     1
102
RTVSPost2010Prop56
140
1.0
102
RTVSPost2010PropOp56
 70
     1
102
RTVSPost2010Prop57
140
1.0
102
RTVSPost2010PropOp57
 70
     1
  0
XRECORD
  5
3F2
102
{ACAD_REACTORS
330
3F1
102
}
330
3F1
100
AcDbXrecord
280
     1
102
RTVSPropertyOp0
 70
     1
102
RTVSPropertyOp1
 70
     1
102
RTVSPropertyOp2
 70
     1
102
RTVSPropertyOp3
 70
     1
102
RTVSPropertyOp4
 70
     1
102
RTVSPropertyOp5
 70
     1
102
RTVSPropertyOp6
 70
     1
102
RTVSPropertyOp7
 70
     1
102
RTVSPropertyOp8
 70
     1
102
RTVSPropertyOp9
 70
     1
102
RTVSPropertyOp10
 70
     1
102
RTVSPropertyOp11
 70
     1
102
RTVSPropertyOp12
 70
     1
102
RTVSPropertyOp13
 70
     1
102
RTVSPropertyOp14
 70
     1
102
RTVSPropertyOp15
 70
     1
102
RTVSPropertyOp16
 70
     1
102
RTVSPropertyOp17
 70
     1
102
RTVSPropertyOp18
 70
     1
102
RTVSPropertyOp19
 70
     1
102
RTVSPropertyOp20
 70
     1
102
RTVSPropertyOp21
 70
     1
102
RTVSPropertyOp22
 70
     1
102
RTVSPropertyOp23
 70
     1
102
RTVSPropertyOp24
 70
     1
102
RTVSPropertyOp25
 70
     1
102
RTVSPropertyOp26
 70
     1
102
RTVSPropertyOp27
 70
     1
102
RTVSPropertyOp28
 70
     1
102
RTVSPropertyOp29
 70
     1
102
RTVSPropertyOp30
 70
     1
102
RTVSPropertyOp31
 70
     1
102
RTVSPropertyOp32
 70
     1
102
RTVSPropertyOp33
 70
     1
102
RTVSPropertyOp34
 70
     1
102
RTVSPropertyOp35
 70
     1
102
RTVSPropertyOp36
 70
     1
102
RTVSPropertyOp37
 70
     1
102
RTVSPropertyOp38
 70
     1
102
RTVSPropertyOp39
 70
     1
102
RTVSPropertyOp40
 70
     1
102
RTVSPropertyOp41
 70
     1
102
RTVSPropertyOp42
 70
     1
102
RTVSPropertyOp43
 70
     1
102
RTVSPropertyOp44
 70
     1
102
RTVSPropertyOp45
 70
     1
102
RTVSPropertyOp46
 70
     1
102
RTVSPropertyOp47
 70
     1
102
RTVSPropertyOp48
 70
     1
102
RTVSPropertyOp49
 70
     1
102
RTVSPropertyOp50
 70
     1
102
RTVSPropertyOp51
 70
     0
102
RTVSPropertyOp52
 70
     0
102
RTVSPropertyOp53
 70
     1
102
RTVSPropertyOp54
 70
     1
102
RTVSPropertyOp55
 70
     1
102
RTVSPropertyOp56
 70
     1
102
RTVSPropertyOp57
 70
     1
102
RTVSPost2010Prop28
280
     0
102
RTVSPost2010PropOp28
 70
     1
102
RTVSPost2010Prop29
280
     1
102
RTVSPost2010PropOp29
 70
     1
102
RTVSPost2010Prop30
280
     1
102
RTVSPost2010PropOp30
 70
     1
102
RTVSPost2010Prop31
280
     0
102
RTVSPost2010PropOp31
 70
     1
102
RTVSPost2010Prop32
280
     0
102
RTVSPost2010PropOp32
 70
     1
102
RTVSPost2010Prop33
280
     0
102
RTVSPost2010PropOp33
 70
     1
102
RTVSPost2010Prop34
280
     0
102
RTVSPost2010PropOp34
 70
     1
102
RTVSPost2010Prop35
280
     0
102
RTVSPost2010PropOp35
 70
     1
102
RTVSPost2010Prop36
280
     0
102
RTVSPost2010PropOp36
 70
     1
102
RTVSPost2010Prop37
 90
       50
102
RTVSPost2010PropOp37
 70
     1
102
RTVSPost2010Prop38
140
0.0
102
RTVSPost2010PropOp38
 70
     1
102
RTVSPost2010Prop39
140
1.0
102
RTVSPost2010PropOp39
 70
     1
102
RTVSPost2010Prop40
 90
        0
102
RTVSPost2010PropOp40
 70
     1
102
RTVSPost2010Prop41ColorIndex
 90
       18
102
RTVSPost2010Prop41ColorRGB
 90
        0
102
RTVSPost2010PropOp41
 70
     1
102
RTVSPost2010Prop42
 90
       50
102
RTVSPost2010PropOp42
 70
     1
102
RTVSPost2010Prop43
 90
        3
102
RTVSPost2010PropOp43
 70
     1
102
RTVSPost2010Prop44ColorIndex
 90
        5
102
RTVSPost2010Prop44ColorRGB
 90
      255
102
RTVSPost2010PropOp44
 70
     1
102
RTVSPost2010Prop45
280
     0
102
RTVSPost2010PropOp45
 70
     1
102
RTVSPost2010Prop46
 90
       50
102
RTVSPost2010PropOp46
 70
     1
102
RTVSPost2010Prop47
 90
       50
102
RTVSPost2010PropOp47
 70
     1
102
RTVSPost2010Prop48
 90
       50
102
RTVSPost2010PropOp48
 70
     1
102
RTVSPost2010Prop49
280
     0
102
RTVSPost2010PropOp49
 70
     1
102
RTVSPost2010Prop50
 90
       50
102
RTVSPost2010PropOp50
 70
     1
102
RTVSPost2010Prop51ColorIndex
 90
      256
102
RTVSPost2010Prop51ColorRGB
 90
-16777216
102
RTVSPost2010PropOp51
 70
     0
102
RTVSPost2010Prop52
140
1.0
102
RTVSPost2010PropOp52
 70
     0
102
RTVSPost2010Prop53
 90
        2
102
RTVSPost2010PropOp53
 70
     1
102
RTVSPost2010Prop54
  1
strokes_ogs.tif
102
RTVSPost2010PropOp54
 70
     1
102
RTVSPost2010Prop55
280
     0
102
RTVSPost2010PropOp55
 70
     1
102
RTVSPost2010Prop56
140
1.0
102
RTVSPost2010PropOp56
 70
     1
102
RTVSPost2010Prop57
140
1.0
102
RTVSPost2010PropOp57
 70
     1
  0
XRECORD
  5
3F4
102
{ACAD_REACTORS
330
3F3
102
}
330
3F3
100
AcDbXrecord
280
     1
102
RTVSPropertyOp0
 70
     1
102
RTVSPropertyOp1
 70
     1
102
RTVSPropertyOp2
 70
     1
102
RTVSPropertyOp3
 70
     1
102
RTVSPropertyOp4
 70
     1
102
RTVSPropertyOp5
 70
     1
102
RTVSPropertyOp6
 70
     1
102
RTVSPropertyOp7
 70
     1
102
RTVSPropertyOp8
 70
     1
102
RTVSPropertyOp9
 70
     1
102
RTVSPropertyOp10
 70
     1
102
RTVSPropertyOp11
 70
     1
102
RTVSPropertyOp12
 70
     1
102
RTVSPropertyOp13
 70
     1
102
RTVSPropertyOp14
 70
     1
102
RTVSPropertyOp15
 70
     1
102
RTVSPropertyOp16
 70
     1
102
RTVSPropertyOp17
 70
     1
102
RTVSPropertyOp18
 70
     1
102
RTVSPropertyOp19
 70
     1
102
RTVSPropertyOp20
 70
     1
102
RTVSPropertyOp21
 70
     1
102
RTVSPropertyOp22
 70
     1
102
RTVSPropertyOp23
 70
     1
102
RTVSPropertyOp24
 70
     1
102
RTVSPropertyOp25
 70
     1
102
RTVSPropertyOp26
 70
     1
102
RTVSPropertyOp27
 70
     1
102
RTVSPropertyOp28
 70
     1
102
RTVSPropertyOp29
 70
     1
102
RTVSPropertyOp30
 70
     1
102
RTVSPropertyOp31
 70
     1
102
RTVSPropertyOp32
 70
     1
102
RTVSPropertyOp33
 70
     1
102
RTVSPropertyOp34
 70
     1
102
RTVSPropertyOp35
 70
     1
102
RTVSPropertyOp36
 70
     1
102
RTVSPropertyOp37
 70
     1
102
RTVSPropertyOp38
 70
     1
102
RTVSPropertyOp39
 70
     1
102
RTVSPropertyOp40
 70
     1
102
RTVSPropertyOp41
 70
     1
102
RTVSPropertyOp42
 70
     1
102
RTVSPropertyOp43
 70
     1
102
RTVSPropertyOp44
 70
     1
102
RTVSPropertyOp45
 70
     1
102
RTVSPropertyOp46
 70
     1
102
RTVSPropertyOp47
 70
     1
102
RTVSPropertyOp48
 70
     1
102
RTVSPropertyOp49
 70
     1
102
RTVSPropertyOp50
 70
     1
102
RTVSPropertyOp51
 70
     0
102
RTVSPropertyOp52
 70
     0
102
RTVSPropertyOp53
 70
     1
102
RTVSPropertyOp54
 70
     1
102
RTVSPropertyOp55
 70
     1
102
RTVSPropertyOp56
 70
     1
102
RTVSPropertyOp57
 70
     1
102
RTVSPost2010Prop28
280
     0
102
RTVSPost2010PropOp28
 70
     1
102
RTVSPost2010Prop29
280
     1
102
RTVSPost2010PropOp29
 70
     1
102
RTVSPost2010Prop30
280
     1
102
RTVSPost2010PropOp30
 70
     1
102
RTVSPost2010Prop31
280
     0
102
RTVSPost2010PropOp31
 70
     1
102
RTVSPost2010Prop32
280
     0
102
RTVSPost2010PropOp32
 70
     1
102
RTVSPost2010Prop33
280
     0
102
RTVSPost2010PropOp33
 70
     1
102
RTVSPost2010Prop34
280
     0
102
RTVSPost2010PropOp34
 70
     1
102
RTVSPost2010Prop35
280
     0
102
RTVSPost2010PropOp35
 70
     1
102
RTVSPost2010Prop36
280
     0
102
RTVSPost2010PropOp36
 70
     1
102
RTVSPost2010Prop37
 90
       50
102
RTVSPost2010PropOp37
 70
     1
102
RTVSPost2010Prop38
140
0.0
102
RTVSPost2010PropOp38
 70
     1
102
RTVSPost2010Prop39
140
1.0
102
RTVSPost2010PropOp39
 70
     1
102
RTVSPost2010Prop40
 90
        0
102
RTVSPost2010PropOp40
 70
     1
102
RTVSPost2010Prop41ColorIndex
 90
       18
102
RTVSPost2010Prop41ColorRGB
 90
        0
102
RTVSPost2010PropOp41
 70
     1
102
RTVSPost2010Prop42
 90
       50
102
RTVSPost2010PropOp42
 70
     1
102
RTVSPost2010Prop43
 90
        3
102
RTVSPost2010PropOp43
 70
     1
102
RTVSPost2010Prop44ColorIndex
 90
        5
102
RTVSPost2010Prop44ColorRGB
 90
      255
102
RTVSPost2010PropOp44
 70
     1
102
RTVSPost2010Prop45
280
     0
102
RTVSPost2010PropOp45
 70
     1
102
RTVSPost2010Prop46
 90
       50
102
RTVSPost2010PropOp46
 70
     1
102
RTVSPost2010Prop47
 90
       50
102
RTVSPost2010PropOp47
 70
     1
102
RTVSPost2010Prop48
 90
       50
102
RTVSPost2010PropOp48
 70
     1
102
RTVSPost2010Prop49
280
     0
102
RTVSPost2010PropOp49
 70
     1
102
RTVSPost2010Prop50
 90
       50
102
RTVSPost2010PropOp50
 70
     1
102
RTVSPost2010Prop51ColorIndex
 90
      256
102
RTVSPost2010Prop51ColorRGB
 90
-16777216
102
RTVSPost2010PropOp51
 70
     0
102
RTVSPost2010Prop52
140
1.0
102
RTVSPost2010PropOp52
 70
     0
102
RTVSPost2010Prop53
 90
        2
102
RTVSPost2010PropOp53
 70
     1
102
RTVSPost2010Prop54
  1
strokes_ogs.tif
102
RTVSPost2010PropOp54
 70
     1
102
RTVSPost2010Prop55
280
     0
102
RTVSPost2010PropOp55
 70
     1
102
RTVSPost2010Prop56
140
1.0
102
RTVSPost2010PropOp56
 70
     1
102
RTVSPost2010Prop57
140
1.0
102
RTVSPost2010PropOp57
 70
     1
  0
XRECORD
  5
3FA
102
{ACAD_REACTORS
330
3F9
102
}
330
3F9
100
AcDbXrecord
280
     1
102
RTVSPropertyOp0
 70
     1
102
RTVSPropertyOp1
 70
     1
102
RTVSPropertyOp2
 70
     1
102
RTVSPropertyOp3
 70
     1
102
RTVSPropertyOp4
 70
     1
102
RTVSPropertyOp5
 70
     1
102
RTVSPropertyOp6
 70
     1
102
RTVSPropertyOp7
 70
     1
102
RTVSPropertyOp8
 70
     1
102
RTVSPropertyOp9
 70
     1
102
RTVSPropertyOp10
 70
     1
102
RTVSPropertyOp11
 70
     1
102
RTVSPropertyOp12
 70
     1
102
RTVSPropertyOp13
 70
     1
102
RTVSPropertyOp14
 70
     1
102
RTVSPropertyOp15
 70
     1
102
RTVSPropertyOp16
 70
     1
102
RTVSPropertyOp17
 70
     1
102
RTVSPropertyOp18
 70
     1
102
RTVSPropertyOp19
 70
     1
102
RTVSPropertyOp20
 70
     1
102
RTVSPropertyOp21
 70
     1
102
RTVSPropertyOp22
 70
     1
102
RTVSPropertyOp23
 70
     1
102
RTVSPropertyOp24
 70
     1
102
RTVSPropertyOp25
 70
     1
102
RTVSPropertyOp26
 70
     1
102
RTVSPropertyOp27
 70
     1
102
RTVSPropertyOp28
 70
     1
102
RTVSPropertyOp29
 70
     1
102
RTVSPropertyOp30
 70
     1
102
RTVSPropertyOp31
 70
     1
102
RTVSPropertyOp32
 70
     1
102
RTVSPropertyOp33
 70
     1
102
RTVSPropertyOp34
 70
     1
102
RTVSPropertyOp35
 70
     1
102
RTVSPropertyOp36
 70
     1
102
RTVSPropertyOp37
 70
     1
102
RTVSPropertyOp38
 70
     1
102
RTVSPropertyOp39
 70
     1
102
RTVSPropertyOp40
 70
     1
102
RTVSPropertyOp41
 70
     1
102
RTVSPropertyOp42
 70
     1
102
RTVSPropertyOp43
 70
     1
102
RTVSPropertyOp44
 70
     1
102
RTVSPropertyOp45
 70
     1
102
RTVSPropertyOp46
 70
     1
102
RTVSPropertyOp47
 70
     1
102
RTVSPropertyOp48
 70
     1
102
RTVSPropertyOp49
 70
     1
102
RTVSPropertyOp50
 70
     1
102
RTVSPropertyOp51
 70
     0
102
RTVSPropertyOp52
 70
     0
102
RTVSPropertyOp53
 70
     1
102
RTVSPropertyOp54
 70
     1
102
RTVSPropertyOp55
 70
     1
102
RTVSPropertyOp56
 70
     1
102
RTVSPropertyOp57
 70
     1
102
RTVSPost2010Prop28
280
     0
102
RTVSPost2010PropOp28
 70
     1
102
RTVSPost2010Prop29
280
     1
102
RTVSPost2010PropOp29
 70
     1
102
RTVSPost2010Prop30
280
     1
102
RTVSPost2010PropOp30
 70
     1
102
RTVSPost2010Prop31
280
     0
102
RTVSPost2010PropOp31
 70
     1
102
RTVSPost2010Prop32
280
     0
102
RTVSPost2010PropOp32
 70
     1
102
RTVSPost2010Prop33
280
     0
102
RTVSPost2010PropOp33
 70
     1
102
RTVSPost2010Prop34
280
     0
102
RTVSPost2010PropOp34
 70
     1
102
RTVSPost2010Prop35
280
     0
102
RTVSPost2010PropOp35
 70
     1
102
RTVSPost2010Prop36
280
     0
102
RTVSPost2010PropOp36
 70
     1
102
RTVSPost2010Prop37
 90
       50
102
RTVSPost2010PropOp37
 70
     1
102
RTVSPost2010Prop38
140
0.0
102
RTVSPost2010PropOp38
 70
     1
102
RTVSPost2010Prop39
140
1.0
102
RTVSPost2010PropOp39
 70
     1
102
RTVSPost2010Prop40
 90
        0
102
RTVSPost2010PropOp40
 70
     1
102
RTVSPost2010Prop41ColorIndex
 90
       18
102
RTVSPost2010Prop41ColorRGB
 90
        0
102
RTVSPost2010PropOp41
 70
     1
102
RTVSPost2010Prop42
 90
       50
102
RTVSPost2010PropOp42
 70
     1
102
RTVSPost2010Prop43
 90
        3
102
RTVSPost2010PropOp43
 70
     1
102
RTVSPost2010Prop44ColorIndex
 90
        5
102
RTVSPost2010Prop44ColorRGB
 90
      255
102
RTVSPost2010PropOp44
 70
     1
102
RTVSPost2010Prop45
280
     0
102
RTVSPost2010PropOp45
 70
     1
102
RTVSPost2010Prop46
 90
       50
102
RTVSPost2010PropOp46
 70
     1
102
RTVSPost2010Prop47
 90
       50
102
RTVSPost2010PropOp47
 70
     1
102
RTVSPost2010Prop48
 90
       50
102
RTVSPost2010PropOp48
 70
     1
102
RTVSPost2010Prop49
280
     0
102
RTVSPost2010PropOp49
 70
     1
102
RTVSPost2010Prop50
 90
       50
102
RTVSPost2010PropOp50
 70
     1
102
RTVSPost2010Prop51ColorIndex
 90
      256
102
RTVSPost2010Prop51ColorRGB
 90
-16777216
102
RTVSPost2010PropOp51
 70
     0
102
RTVSPost2010Prop52
140
1.0
102
RTVSPost2010PropOp52
 70
     0
102
RTVSPost2010Prop53
 90
        2
102
RTVSPost2010PropOp53
 70
     1
102
RTVSPost2010Prop54
  1
strokes_ogs.tif
102
RTVSPost2010PropOp54
 70
     1
102
RTVSPost2010Prop55
280
     0
102
RTVSPost2010PropOp55
 70
     1
102
RTVSPost2010Prop56
140
1.0
102
RTVSPost2010PropOp56
 70
     1
102
RTVSPost2010Prop57
140
1.0
102
RTVSPost2010PropOp57
 70
     1
  0
XRECORD
  5
40E
102
{ACAD_REACTORS
330
40D
102
}
330
40D
100
AcDbXrecord
280
     1
102
RTVSPropertyOp0
 70
     0
102
RTVSPropertyOp1
 70
     0
102
RTVSPropertyOp2
 70
     0
102
RTVSPropertyOp3
 70
     0
102
RTVSPropertyOp4
 70
     0
102
RTVSPropertyOp5
 70
     0
102
RTVSPropertyOp6
 70
     0
102
RTVSPropertyOp7
 70
     0
102
RTVSPropertyOp8
 70
     0
102
RTVSPropertyOp9
 70
     0
102
RTVSPropertyOp10
 70
     0
102
RTVSPropertyOp11
 70
     0
102
RTVSPropertyOp12
 70
     0
102
RTVSPropertyOp13
 70
     0
102
RTVSPropertyOp14
 70
     2
102
RTVSPropertyOp15
 70
     0
102
RTVSPropertyOp16
 70
     0
102
RTVSPropertyOp17
 70
     0
102
RTVSPropertyOp18
 70
     0
102
RTVSPropertyOp19
 70
     0
102
RTVSPropertyOp20
 70
     0
102
RTVSPropertyOp21
 70
     0
102
RTVSPropertyOp22
 70
     0
102
RTVSPropertyOp23
 70
     0
102
RTVSPropertyOp24
 70
     0
102
RTVSPropertyOp25
 70
     0
102
RTVSPropertyOp26
 70
     0
102
RTVSPropertyOp27
 70
     0
102
RTVSPropertyOp28
 70
     0
102
RTVSPropertyOp29
 70
     0
102
RTVSPropertyOp30
 70
     0
102
RTVSPropertyOp31
 70
     0
102
RTVSPropertyOp32
 70
     0
102
RTVSPropertyOp33
 70
     0
102
RTVSPropertyOp34
 70
     0
102
RTVSPropertyOp35
 70
     0
102
RTVSPropertyOp36
 70
     0
102
RTVSPropertyOp37
 70
     0
102
RTVSPropertyOp38
 70
     0
102
RTVSPropertyOp39
 70
     0
102
RTVSPropertyOp40
 70
     0
102
RTVSPropertyOp41
 70
     0
102
RTVSPropertyOp42
 70
     0
102
RTVSPropertyOp43
 70
     0
102
RTVSPropertyOp44
 70
     0
102
RTVSPropertyOp45
 70
     0
102
RTVSPropertyOp46
 70
     0
102
RTVSPropertyOp47
 70
     0
102
RTVSPropertyOp48
 70
     0
102
RTVSPropertyOp49
 70
     0
102
RTVSPropertyOp50
 70
     0
102
RTVSPropertyOp51
 70
     0
102
RTVSPropertyOp52
 70
     0
102
RTVSPropertyOp53
 70
     0
102
RTVSPropertyOp54
 70
     0
102
RTVSPropertyOp55
 70
     0
102
RTVSPropertyOp56
 70
     0
102
RTVSPropertyOp57
 70
     0
102
RTVSPost2010Prop28
280
     0
102
RTVSPost2010PropOp28
 70
     0
102
RTVSPost2010Prop29
280
     1
102
RTVSPost2010PropOp29
 70
     0
102
RTVSPost2010Prop30
280
     1
102
RTVSPost2010PropOp30
 70
     0
102
RTVSPost2010Prop31
280
     0
102
RTVSPost2010PropOp31
 70
     0
102
RTVSPost2010Prop32
280
     0
102
RTVSPost2010PropOp32
 70
     0
102
RTVSPost2010Prop33
280
     0
102
RTVSPost2010PropOp33
 70
     0
102
RTVSPost2010Prop34
280
     0
102
RTVSPost2010PropOp34
 70
     0
102
RTVSPost2010Prop35
280
     0
102
RTVSPost2010PropOp35
 70
     0
102
RTVSPost2010Prop36
280
     0
102
RTVSPost2010PropOp36
 70
     0
102
RTVSPost2010Prop37
 90
       50
102
RTVSPost2010PropOp37
 70
     0
102
RTVSPost2010Prop38
140
0.0
102
RTVSPost2010PropOp38
 70
     0
102
RTVSPost2010Prop39
140
1.0
102
RTVSPost2010PropOp39
 70
     0
102
RTVSPost2010Prop40
 90
        0
102
RTVSPost2010PropOp40
 70
     0
102
RTVSPost2010Prop41ColorIndex
 90
       18
102
RTVSPost2010Prop41ColorRGB
 90
        0
102
RTVSPost2010PropOp41
 70
     0
102
RTVSPost2010Prop42
 90
       50
102
RTVSPost2010PropOp42
 70
     0
102
RTVSPost2010Prop43
 90
        3
102
RTVSPost2010PropOp43
 70
     0
102
RTVSPost2010Prop44ColorIndex
 90
        5
102
RTVSPost2010Prop44ColorRGB
 90
      255
102
RTVSPost2010PropOp44
 70
     0
102
RTVSPost2010Prop45
280
     0
102
RTVSPost2010PropOp45
 70
     0
102
RTVSPost2010Prop46
 90
       50
102
RTVSPost2010PropOp46
 70
     0
102
RTVSPost2010Prop47
 90
       50
102
RTVSPost2010PropOp47
 70
     0
102
RTVSPost2010Prop48
 90
       50
102
RTVSPost2010PropOp48
 70
     0
102
RTVSPost2010Prop49
280
     0
102
RTVSPost2010PropOp49
 70
     0
102
RTVSPost2010Prop50
 90
       50
102
RTVSPost2010PropOp50
 70
     0
102
RTVSPost2010Prop51ColorIndex
 90
      256
102
RTVSPost2010Prop51ColorRGB
 90
-16777216
102
RTVSPost2010PropOp51
 70
     0
102
RTVSPost2010Prop52
140
1.0
102
RTVSPost2010PropOp52
 70
     0
102
RTVSPost2010Prop53
 90
        2
102
RTVSPost2010PropOp53
 70
     0
102
RTVSPost2010Prop54
  1
strokes_ogs.tif
102
RTVSPost2010PropOp54
 70
     0
102
RTVSPost2010Prop55
280
     0
102
RTVSPost2010PropOp55
 70
     0
102
RTVSPost2010Prop56
140
1.0
102
RTVSPost2010PropOp56
 70
     0
102
RTVSPost2010Prop57
140
1.0
102
RTVSPost2010PropOp57
 70
     0
  0
XRECORD
  5
408
102
{ACAD_REACTORS
330
407
102
}
330
407
100
AcDbXrecord
280
     1
102
RTVSPropertyOp0
 70
     1
102
RTVSPropertyOp1
 70
     1
102
RTVSPropertyOp2
 70
     1
102
RTVSPropertyOp3
 70
     1
102
RTVSPropertyOp4
 70
     1
102
RTVSPropertyOp5
 70
     1
102
RTVSPropertyOp6
 70
     1
102
RTVSPropertyOp7
 70
     1
102
RTVSPropertyOp8
 70
     1
102
RTVSPropertyOp9
 70
     1
102
RTVSPropertyOp10
 70
     1
102
RTVSPropertyOp11
 70
     1
102
RTVSPropertyOp12
 70
     1
102
RTVSPropertyOp13
 70
     1
102
RTVSPropertyOp14
 70
     1
102
RTVSPropertyOp15
 70
     1
102
RTVSPropertyOp16
 70
     1
102
RTVSPropertyOp17
 70
     1
102
RTVSPropertyOp18
 70
     1
102
RTVSPropertyOp19
 70
     1
102
RTVSPropertyOp20
 70
     1
102
RTVSPropertyOp21
 70
     1
102
RTVSPropertyOp22
 70
     1
102
RTVSPropertyOp23
 70
     1
102
RTVSPropertyOp24
 70
     1
102
RTVSPropertyOp25
 70
     1
102
RTVSPropertyOp26
 70
     1
102
RTVSPropertyOp27
 70
     1
102
RTVSPropertyOp28
 70
     1
102
RTVSPropertyOp29
 70
     1
102
RTVSPropertyOp30
 70
     1
102
RTVSPropertyOp31
 70
     1
102
RTVSPropertyOp32
 70
     1
102
RTVSPropertyOp33
 70
     1
102
RTVSPropertyOp34
 70
     1
102
RTVSPropertyOp35
 70
     1
102
RTVSPropertyOp36
 70
     1
102
RTVSPropertyOp37
 70
     1
102
RTVSPropertyOp38
 70
     1
102
RTVSPropertyOp39
 70
     1
102
RTVSPropertyOp40
 70
     1
102
RTVSPropertyOp41
 70
     1
102
RTVSPropertyOp42
 70
     1
102
RTVSPropertyOp43
 70
     1
102
RTVSPropertyOp44
 70
     1
102
RTVSPropertyOp45
 70
     1
102
RTVSPropertyOp46
 70
     1
102
RTVSPropertyOp47
 70
     1
102
RTVSPropertyOp48
 70
     1
102
RTVSPropertyOp49
 70
     1
102
RTVSPropertyOp50
 70
     1
102
RTVSPropertyOp51
 70
     0
102
RTVSPropertyOp52
 70
     0
102
RTVSPropertyOp53
 70
     1
102
RTVSPropertyOp54
 70
     1
102
RTVSPropertyOp55
 70
     1
102
RTVSPropertyOp56
 70
     1
102
RTVSPropertyOp57
 70
     1
102
RTVSPost2010Prop28
280
     0
102
RTVSPost2010PropOp28
 70
     1
102
RTVSPost2010Prop29
280
     1
102
RTVSPost2010PropOp29
 70
     1
102
RTVSPost2010Prop30
280
     1
102
RTVSPost2010PropOp30
 70
     1
102
RTVSPost2010Prop31
280
     0
102
RTVSPost2010PropOp31
 70
     1
102
RTVSPost2010Prop32
280
     0
102
RTVSPost2010PropOp32
 70
     1
102
RTVSPost2010Prop33
280
     0
102
RTVSPost2010PropOp33
 70
     1
102
RTVSPost2010Prop34
280
     0
102
RTVSPost2010PropOp34
 70
     1
102
RTVSPost2010Prop35
280
     0
102
RTVSPost2010PropOp35
 70
     1
102
RTVSPost2010Prop36
280
     0
102
RTVSPost2010PropOp36
 70
     1
102
RTVSPost2010Prop37
 90
       50
102
RTVSPost2010PropOp37
 70
     1
102
RTVSPost2010Prop38
140
0.0
102
RTVSPost2010PropOp38
 70
     1
102
RTVSPost2010Prop39
140
1.0
102
RTVSPost2010PropOp39
 70
     1
102
RTVSPost2010Prop40
 90
        0
102
RTVSPost2010PropOp40
 70
     1
102
RTVSPost2010Prop41ColorIndex
 90
       18
102
RTVSPost2010Prop41ColorRGB
 90
        0
102
RTVSPost2010PropOp41
 70
     1
102
RTVSPost2010Prop42
 90
       50
102
RTVSPost2010PropOp42
 70
     1
102
RTVSPost2010Prop43
 90
        3
102
RTVSPost2010PropOp43
 70
     1
102
RTVSPost2010Prop44ColorIndex
 90
        5
102
RTVSPost2010Prop44ColorRGB
 90
      255
102
RTVSPost2010PropOp44
 70
     1
102
RTVSPost2010Prop45
280
     0
102
RTVSPost2010PropOp45
 70
     1
102
RTVSPost2010Prop46
 90
       50
102
RTVSPost2010PropOp46
 70
     1
102
RTVSPost2010Prop47
 90
       50
102
RTVSPost2010PropOp47
 70
     1
102
RTVSPost2010Prop48
 90
       50
102
RTVSPost2010PropOp48
 70
     1
102
RTVSPost2010Prop49
280
     0
102
RTVSPost2010PropOp49
 70
     1
102
RTVSPost2010Prop50
 90
       50
102
RTVSPost2010PropOp50
 70
     1
102
RTVSPost2010Prop51ColorIndex
 90
      256
102
RTVSPost2010Prop51ColorRGB
 90
-16777216
102
RTVSPost2010PropOp51
 70
     0
102
RTVSPost2010Prop52
140
1.0
102
RTVSPost2010PropOp52
 70
     0
102
RTVSPost2010Prop53
 90
        2
102
RTVSPost2010PropOp53
 70
     1
102
RTVSPost2010Prop54
  1
strokes_ogs.tif
102
RTVSPost2010PropOp54
 70
     1
102
RTVSPost2010Prop55
280
     0
102
RTVSPost2010PropOp55
 70
     1
102
RTVSPost2010Prop56
140
1.0
102
RTVSPost2010PropOp56
 70
     1
102
RTVSPost2010Prop57
140
1.0
102
RTVSPost2010PropOp57
 70
     1
  0
XRECORD
  5
410
102
{ACAD_REACTORS
330
40F
102
}
330
40F
100
AcDbXrecord
280
     1
102
RTVSPropertyOp0
 70
     0
102
RTVSPropertyOp1
 70
     0
102
RTVSPropertyOp2
 70
     0
102
RTVSPropertyOp3
 70
     0
102
RTVSPropertyOp4
 70
     0
102
RTVSPropertyOp5
 70
     0
102
RTVSPropertyOp6
 70
     0
102
RTVSPropertyOp7
 70
     0
102
RTVSPropertyOp8
 70
     0
102
RTVSPropertyOp9
 70
     0
102
RTVSPropertyOp10
 70
     0
102
RTVSPropertyOp11
 70
     0
102
RTVSPropertyOp12
 70
     0
102
RTVSPropertyOp13
 70
     0
102
RTVSPropertyOp14
 70
     2
102
RTVSPropertyOp15
 70
     0
102
RTVSPropertyOp16
 70
     0
102
RTVSPropertyOp17
 70
     0
102
RTVSPropertyOp18
 70
     0
102
RTVSPropertyOp19
 70
     0
102
RTVSPropertyOp20
 70
     0
102
RTVSPropertyOp21
 70
     0
102
RTVSPropertyOp22
 70
     0
102
RTVSPropertyOp23
 70
     0
102
RTVSPropertyOp24
 70
     0
102
RTVSPropertyOp25
 70
     0
102
RTVSPropertyOp26
 70
     0
102
RTVSPropertyOp27
 70
     0
102
RTVSPropertyOp28
 70
     0
102
RTVSPropertyOp29
 70
     0
102
RTVSPropertyOp30
 70
     0
102
RTVSPropertyOp31
 70
     0
102
RTVSPropertyOp32
 70
     0
102
RTVSPropertyOp33
 70
     0
102
RTVSPropertyOp34
 70
     0
102
RTVSPropertyOp35
 70
     0
102
RTVSPropertyOp36
 70
     0
102
RTVSPropertyOp37
 70
     0
102
RTVSPropertyOp38
 70
     0
102
RTVSPropertyOp39
 70
     0
102
RTVSPropertyOp40
 70
     0
102
RTVSPropertyOp41
 70
     0
102
RTVSPropertyOp42
 70
     0
102
RTVSPropertyOp43
 70
     0
102
RTVSPropertyOp44
 70
     0
102
RTVSPropertyOp45
 70
     0
102
RTVSPropertyOp46
 70
     0
102
RTVSPropertyOp47
 70
     0
102
RTVSPropertyOp48
 70
     0
102
RTVSPropertyOp49
 70
     0
102
RTVSPropertyOp50
 70
     0
102
RTVSPropertyOp51
 70
     0
102
RTVSPropertyOp52
 70
     0
102
RTVSPropertyOp53
 70
     0
102
RTVSPropertyOp54
 70
     0
102
RTVSPropertyOp55
 70
     0
102
RTVSPropertyOp56
 70
     0
102
RTVSPropertyOp57
 70
     0
102
RTVSPost2010Prop28
280
     0
102
RTVSPost2010PropOp28
 70
     0
102
RTVSPost2010Prop29
280
     1
102
RTVSPost2010PropOp29
 70
     0
102
RTVSPost2010Prop30
280
     1
102
RTVSPost2010PropOp30
 70
     0
102
RTVSPost2010Prop31
280
     0
102
RTVSPost2010PropOp31
 70
     0
102
RTVSPost2010Prop32
280
     0
102
RTVSPost2010PropOp32
 70
     0
102
RTVSPost2010Prop33
280
     0
102
RTVSPost2010PropOp33
 70
     0
102
RTVSPost2010Prop34
280
     0
102
RTVSPost2010PropOp34
 70
     0
102
RTVSPost2010Prop35
280
     0
102
RTVSPost2010PropOp35
 70
     0
102
RTVSPost2010Prop36
280
     0
102
RTVSPost2010PropOp36
 70
     0
102
RTVSPost2010Prop37
 90
       50
102
RTVSPost2010PropOp37
 70
     0
102
RTVSPost2010Prop38
140
0.0
102
RTVSPost2010PropOp38
 70
     0
102
RTVSPost2010Prop39
140
1.0
102
RTVSPost2010PropOp39
 70
     0
102
RTVSPost2010Prop40
 90
        0
102
RTVSPost2010PropOp40
 70
     0
102
RTVSPost2010Prop41ColorIndex
 90
       18
102
RTVSPost2010Prop41ColorRGB
 90
        0
102
RTVSPost2010PropOp41
 70
     0
102
RTVSPost2010Prop42
 90
       50
102
RTVSPost2010PropOp42
 70
     0
102
RTVSPost2010Prop43
 90
        3
102
RTVSPost2010PropOp43
 70
     0
102
RTVSPost2010Prop44ColorIndex
 90
        5
102
RTVSPost2010Prop44ColorRGB
 90
      255
102
RTVSPost2010PropOp44
 70
     0
102
RTVSPost2010Prop45
280
     0
102
RTVSPost2010PropOp45
 70
     0
102
RTVSPost2010Prop46
 90
       50
102
RTVSPost2010PropOp46
 70
     0
102
RTVSPost2010Prop47
 90
       50
102
RTVSPost2010PropOp47
 70
     0
102
RTVSPost2010Prop48
 90
       50
102
RTVSPost2010PropOp48
 70
     0
102
RTVSPost2010Prop49
280
     0
102
RTVSPost2010PropOp49
 70
     0
102
RTVSPost2010Prop50
 90
       50
102
RTVSPost2010PropOp50
 70
     0
102
RTVSPost2010Prop51ColorIndex
 90
      256
102
RTVSPost2010Prop51ColorRGB
 90
-16777216
102
RTVSPost2010PropOp51
 70
     0
102
RTVSPost2010Prop52
140
1.0
102
RTVSPost2010PropOp52
 70
     0
102
RTVSPost2010Prop53
 90
        2
102
RTVSPost2010PropOp53
 70
     0
102
RTVSPost2010Prop54
  1
strokes_ogs.tif
102
RTVSPost2010PropOp54
 70
     0
102
RTVSPost2010Prop55
280
     0
102
RTVSPost2010PropOp55
 70
     0
102
RTVSPost2010Prop56
140
1.0
102
RTVSPost2010PropOp56
 70
     0
102
RTVSPost2010Prop57
140
1.0
102
RTVSPost2010PropOp57
 70
     0
  0
XRECORD
  5
3FE
102
{ACAD_REACTORS
330
3FD
102
}
330
3FD
100
AcDbXrecord
280
     1
102
RTVSPropertyOp0
 70
     1
102
RTVSPropertyOp1
 70
     1
102
RTVSPropertyOp2
 70
     1
102
RTVSPropertyOp3
 70
     1
102
RTVSPropertyOp4
 70
     1
102
RTVSPropertyOp5
 70
     1
102
RTVSPropertyOp6
 70
     1
102
RTVSPropertyOp7
 70
     1
102
RTVSPropertyOp8
 70
     1
102
RTVSPropertyOp9
 70
     1
102
RTVSPropertyOp10
 70
     1
102
RTVSPropertyOp11
 70
     1
102
RTVSPropertyOp12
 70
     1
102
RTVSPropertyOp13
 70
     1
102
RTVSPropertyOp14
 70
     1
102
RTVSPropertyOp15
 70
     1
102
RTVSPropertyOp16
 70
     1
102
RTVSPropertyOp17
 70
     1
102
RTVSPropertyOp18
 70
     1
102
RTVSPropertyOp19
 70
     1
102
RTVSPropertyOp20
 70
     1
102
RTVSPropertyOp21
 70
     1
102
RTVSPropertyOp22
 70
     1
102
RTVSPropertyOp23
 70
     1
102
RTVSPropertyOp24
 70
     1
102
RTVSPropertyOp25
 70
     1
102
RTVSPropertyOp26
 70
     1
102
RTVSPropertyOp27
 70
     1
102
RTVSPropertyOp28
 70
     1
102
RTVSPropertyOp29
 70
     1
102
RTVSPropertyOp30
 70
     1
102
RTVSPropertyOp31
 70
     1
102
RTVSPropertyOp32
 70
     1
102
RTVSPropertyOp33
 70
     1
102
RTVSPropertyOp34
 70
     1
102
RTVSPropertyOp35
 70
     1
102
RTVSPropertyOp36
 70
     1
102
RTVSPropertyOp37
 70
     1
102
RTVSPropertyOp38
 70
     1
102
RTVSPropertyOp39
 70
     1
102
RTVSPropertyOp40
 70
     1
102
RTVSPropertyOp41
 70
     1
102
RTVSPropertyOp42
 70
     1
102
RTVSPropertyOp43
 70
     1
102
RTVSPropertyOp44
 70
     1
102
RTVSPropertyOp45
 70
     1
102
RTVSPropertyOp46
 70
     1
102
RTVSPropertyOp47
 70
     1
102
RTVSPropertyOp48
 70
     1
102
RTVSPropertyOp49
 70
     1
102
RTVSPropertyOp50
 70
     1
102
RTVSPropertyOp51
 70
     0
102
RTVSPropertyOp52
 70
     0
102
RTVSPropertyOp53
 70
     1
102
RTVSPropertyOp54
 70
     1
102
RTVSPropertyOp55
 70
     1
102
RTVSPropertyOp56
 70
     1
102
RTVSPropertyOp57
 70
     1
102
RTVSPost2010Prop28
280
     0
102
RTVSPost2010PropOp28
 70
     1
102
RTVSPost2010Prop29
280
     1
102
RTVSPost2010PropOp29
 70
     1
102
RTVSPost2010Prop30
280
     1
102
RTVSPost2010PropOp30
 70
     1
102
RTVSPost2010Prop31
280
     0
102
RTVSPost2010PropOp31
 70
     1
102
RTVSPost2010Prop32
280
     0
102
RTVSPost2010PropOp32
 70
     1
102
RTVSPost2010Prop33
280
     0
102
RTVSPost2010PropOp33
 70
     1
102
RTVSPost2010Prop34
280
     0
102
RTVSPost2010PropOp34
 70
     1
102
RTVSPost2010Prop35
280
     0
102
RTVSPost2010PropOp35
 70
     1
102
RTVSPost2010Prop36
280
     0
102
RTVSPost2010PropOp36
 70
     1
102
RTVSPost2010Prop37
 90
       50
102
RTVSPost2010PropOp37
 70
     1
102
RTVSPost2010Prop38
140
0.0
102
RTVSPost2010PropOp38
 70
     1
102
RTVSPost2010Prop39
140
1.0
102
RTVSPost2010PropOp39
 70
     1
102
RTVSPost2010Prop40
 90
        0
102
RTVSPost2010PropOp40
 70
     1
102
RTVSPost2010Prop41ColorIndex
 90
       18
102
RTVSPost2010Prop41ColorRGB
 90
        0
102
RTVSPost2010PropOp41
 70
     1
102
RTVSPost2010Prop42
 90
       50
102
RTVSPost2010PropOp42
 70
     1
102
RTVSPost2010Prop43
 90
        3
102
RTVSPost2010PropOp43
 70
     1
102
RTVSPost2010Prop44ColorIndex
 90
        5
102
RTVSPost2010Prop44ColorRGB
 90
      255
102
RTVSPost2010PropOp44
 70
     1
102
RTVSPost2010Prop45
280
     0
102
RTVSPost2010PropOp45
 70
     1
102
RTVSPost2010Prop46
 90
       50
102
RTVSPost2010PropOp46
 70
     1
102
RTVSPost2010Prop47
 90
       50
102
RTVSPost2010PropOp47
 70
     1
102
RTVSPost2010Prop48
 90
       50
102
RTVSPost2010PropOp48
 70
     1
102
RTVSPost2010Prop49
280
     0
102
RTVSPost2010PropOp49
 70
     1
102
RTVSPost2010Prop50
 90
       50
102
RTVSPost2010PropOp50
 70
     1
102
RTVSPost2010Prop51ColorIndex
 90
      256
102
RTVSPost2010Prop51ColorRGB
 90
-16777216
102
RTVSPost2010PropOp51
 70
     0
102
RTVSPost2010Prop52
140
1.0
102
RTVSPost2010PropOp52
 70
     0
102
RTVSPost2010Prop53
 90
        2
102
RTVSPost2010PropOp53
 70
     1
102
RTVSPost2010Prop54
  1
strokes_ogs.tif
102
RTVSPost2010PropOp54
 70
     1
102
RTVSPost2010Prop55
280
     0
102
RTVSPost2010PropOp55
 70
     1
102
RTVSPost2010Prop56
140
1.0
102
RTVSPost2010PropOp56
 70
     1
102
RTVSPost2010Prop57
140
1.0
102
RTVSPost2010PropOp57
 70
     1
  0
XRECORD
  5
41C
102
{ACAD_REACTORS
330
41B
102
}
330
41B
100
AcDbXrecord
280
     1
102
RTVSPropertyOp0
 70
     1
102
RTVSPropertyOp1
 70
     1
102
RTVSPropertyOp2
 70
     1
102
RTVSPropertyOp3
 70
     1
102
RTVSPropertyOp4
 70
     1
102
RTVSPropertyOp5
 70
     1
102
RTVSPropertyOp6
 70
     1
102
RTVSPropertyOp7
 70
     1
102
RTVSPropertyOp8
 70
     1
102
RTVSPropertyOp9
 70
     1
102
RTVSPropertyOp10
 70
     1
102
RTVSPropertyOp11
 70
     1
102
RTVSPropertyOp12
 70
     1
102
RTVSPropertyOp13
 70
     1
102
RTVSPropertyOp14
 70
     1
102
RTVSPropertyOp15
 70
     1
102
RTVSPropertyOp16
 70
     1
102
RTVSPropertyOp17
 70
     1
102
RTVSPropertyOp18
 70
     1
102
RTVSPropertyOp19
 70
     1
102
RTVSPropertyOp20
 70
     1
102
RTVSPropertyOp21
 70
     1
102
RTVSPropertyOp22
 70
     1
102
RTVSPropertyOp23
 70
     1
102
RTVSPropertyOp24
 70
     1
102
RTVSPropertyOp25
 70
     1
102
RTVSPropertyOp26
 70
     1
102
RTVSPropertyOp27
 70
     1
102
RTVSPropertyOp28
 70
     1
102
RTVSPropertyOp29
 70
     1
102
RTVSPropertyOp30
 70
     1
102
RTVSPropertyOp31
 70
     1
102
RTVSPropertyOp32
 70
     1
102
RTVSPropertyOp33
 70
     1
102
RTVSPropertyOp34
 70
     1
102
RTVSPropertyOp35
 70
     1
102
RTVSPropertyOp36
 70
     1
102
RTVSPropertyOp37
 70
     1
102
RTVSPropertyOp38
 70
     1
102
RTVSPropertyOp39
 70
     1
102
RTVSPropertyOp40
 70
     1
102
RTVSPropertyOp41
 70
     1
102
RTVSPropertyOp42
 70
     1
102
RTVSPropertyOp43
 70
     1
102
RTVSPropertyOp44
 70
     1
102
RTVSPropertyOp45
 70
     1
102
RTVSPropertyOp46
 70
     1
102
RTVSPropertyOp47
 70
     1
102
RTVSPropertyOp48
 70
     1
102
RTVSPropertyOp49
 70
     1
102
RTVSPropertyOp50
 70
     1
102
RTVSPropertyOp51
 70
     0
102
RTVSPropertyOp52
 70
     0
102
RTVSPropertyOp53
 70
     1
102
RTVSPropertyOp54
 70
     1
102
RTVSPropertyOp55
 70
     1
102
RTVSPropertyOp56
 70
     1
102
RTVSPropertyOp57
 70
     1
102
RTVSPost2010Prop28
280
     0
102
RTVSPost2010PropOp28
 70
     1
102
RTVSPost2010Prop29
280
     1
102
RTVSPost2010PropOp29
 70
     1
102
RTVSPost2010Prop30
280
     1
102
RTVSPost2010PropOp30
 70
     1
102
RTVSPost2010Prop31
280
     0
102
RTVSPost2010PropOp31
 70
     1
102
RTVSPost2010Prop32
280
     0
102
RTVSPost2010PropOp32
 70
     1
102
RTVSPost2010Prop33
280
     0
102
RTVSPost2010PropOp33
 70
     1
102
RTVSPost2010Prop34
280
     0
102
RTVSPost2010PropOp34
 70
     1
102
RTVSPost2010Prop35
280
     0
102
RTVSPost2010PropOp35
 70
     1
102
RTVSPost2010Prop36
280
     0
102
RTVSPost2010PropOp36
 70
     1
102
RTVSPost2010Prop37
 90
       50
102
RTVSPost2010PropOp37
 70
     1
102
RTVSPost2010Prop38
140
0.0
102
RTVSPost2010PropOp38
 70
     1
102
RTVSPost2010Prop39
140
1.0
102
RTVSPost2010PropOp39
 70
     1
102
RTVSPost2010Prop40
 90
        0
102
RTVSPost2010PropOp40
 70
     1
102
RTVSPost2010Prop41ColorIndex
 90
       18
102
RTVSPost2010Prop41ColorRGB
 90
        0
102
RTVSPost2010PropOp41
 70
     1
102
RTVSPost2010Prop42
 90
       50
102
RTVSPost2010PropOp42
 70
     1
102
RTVSPost2010Prop43
 90
        3
102
RTVSPost2010PropOp43
 70
     1
102
RTVSPost2010Prop44ColorIndex
 90
        5
102
RTVSPost2010Prop44ColorRGB
 90
      255
102
RTVSPost2010PropOp44
 70
     1
102
RTVSPost2010Prop45
280
     0
102
RTVSPost2010PropOp45
 70
     1
102
RTVSPost2010Prop46
 90
       50
102
RTVSPost2010PropOp46
 70
     1
102
RTVSPost2010Prop47
 90
       50
102
RTVSPost2010PropOp47
 70
     1
102
RTVSPost2010Prop48
 90
       50
102
RTVSPost2010PropOp48
 70
     1
102
RTVSPost2010Prop49
280
     0
102
RTVSPost2010PropOp49
 70
     1
102
RTVSPost2010Prop50
 90
       50
102
RTVSPost2010PropOp50
 70
     1
102
RTVSPost2010Prop51ColorIndex
 90
      256
102
RTVSPost2010Prop51ColorRGB
 90
-16777216
102
RTVSPost2010PropOp51
 70
     0
102
RTVSPost2010Prop52
140
1.0
102
RTVSPost2010PropOp52
 70
     0
102
RTVSPost2010Prop53
 90
        2
102
RTVSPost2010PropOp53
 70
     1
102
RTVSPost2010Prop54
  1
strokes_ogs.tif
102
RTVSPost2010PropOp54
 70
     1
102
RTVSPost2010Prop55
280
     0
102
RTVSPost2010PropOp55
 70
     1
102
RTVSPost2010Prop56
140
1.0
102
RTVSPost2010PropOp56
 70
     1
102
RTVSPost2010Prop57
140
1.0
102
RTVSPost2010PropOp57
 70
     1
  0
XRECORD
  5
41A
102
{ACAD_REACTORS
330
419
102
}
330
419
100
AcDbXrecord
280
     1
102
RTVSPropertyOp0
 70
     1
102
RTVSPropertyOp1
 70
     1
102
RTVSPropertyOp2
 70
     1
102
RTVSPropertyOp3
 70
     1
102
RTVSPropertyOp4
 70
     1
102
RTVSPropertyOp5
 70
     1
102
RTVSPropertyOp6
 70
     1
102
RTVSPropertyOp7
 70
     1
102
RTVSPropertyOp8
 70
     1
102
RTVSPropertyOp9
 70
     1
102
RTVSPropertyOp10
 70
     1
102
RTVSPropertyOp11
 70
     1
102
RTVSPropertyOp12
 70
     1
102
RTVSPropertyOp13
 70
     1
102
RTVSPropertyOp14
 70
     1
102
RTVSPropertyOp15
 70
     1
102
RTVSPropertyOp16
 70
     1
102
RTVSPropertyOp17
 70
     1
102
RTVSPropertyOp18
 70
     1
102
RTVSPropertyOp19
 70
     1
102
RTVSPropertyOp20
 70
     1
102
RTVSPropertyOp21
 70
     1
102
RTVSPropertyOp22
 70
     1
102
RTVSPropertyOp23
 70
     1
102
RTVSPropertyOp24
 70
     1
102
RTVSPropertyOp25
 70
     1
102
RTVSPropertyOp26
 70
     1
102
RTVSPropertyOp27
 70
     1
102
RTVSPropertyOp28
 70
     1
102
RTVSPropertyOp29
 70
     1
102
RTVSPropertyOp30
 70
     1
102
RTVSPropertyOp31
 70
     1
102
RTVSPropertyOp32
 70
     1
102
RTVSPropertyOp33
 70
     1
102
RTVSPropertyOp34
 70
     1
102
RTVSPropertyOp35
 70
     1
102
RTVSPropertyOp36
 70
     1
102
RTVSPropertyOp37
 70
     1
102
RTVSPropertyOp38
 70
     1
102
RTVSPropertyOp39
 70
     1
102
RTVSPropertyOp40
 70
     1
102
RTVSPropertyOp41
 70
     1
102
RTVSPropertyOp42
 70
     1
102
RTVSPropertyOp43
 70
     1
102
RTVSPropertyOp44
 70
     1
102
RTVSPropertyOp45
 70
     1
102
RTVSPropertyOp46
 70
     1
102
RTVSPropertyOp47
 70
     1
102
RTVSPropertyOp48
 70
     1
102
RTVSPropertyOp49
 70
     1
102
RTVSPropertyOp50
 70
     1
102
RTVSPropertyOp51
 70
     0
102
RTVSPropertyOp52
 70
     0
102
RTVSPropertyOp53
 70
     1
102
RTVSPropertyOp54
 70
     1
102
RTVSPropertyOp55
 70
     1
102
RTVSPropertyOp56
 70
     1
102
RTVSPropertyOp57
 70
     1
102
RTVSPost2010Prop28
280
     0
102
RTVSPost2010PropOp28
 70
     1
102
RTVSPost2010Prop29
280
     1
102
RTVSPost2010PropOp29
 70
     1
102
RTVSPost2010Prop30
280
     1
102
RTVSPost2010PropOp30
 70
     1
102
RTVSPost2010Prop31
280
     0
102
RTVSPost2010PropOp31
 70
     1
102
RTVSPost2010Prop32
280
     0
102
RTVSPost2010PropOp32
 70
     1
102
RTVSPost2010Prop33
280
     0
102
RTVSPost2010PropOp33
 70
     1
102
RTVSPost2010Prop34
280
     0
102
RTVSPost2010PropOp34
 70
     1
102
RTVSPost2010Prop35
280
     0
102
RTVSPost2010PropOp35
 70
     1
102
RTVSPost2010Prop36
280
     0
102
RTVSPost2010PropOp36
 70
     1
102
RTVSPost2010Prop37
 90
       50
102
RTVSPost2010PropOp37
 70
     1
102
RTVSPost2010Prop38
140
0.0
102
RTVSPost2010PropOp38
 70
     1
102
RTVSPost2010Prop39
140
1.0
102
RTVSPost2010PropOp39
 70
     1
102
RTVSPost2010Prop40
 90
        0
102
RTVSPost2010PropOp40
 70
     1
102
RTVSPost2010Prop41ColorIndex
 90
       18
102
RTVSPost2010Prop41ColorRGB
 90
        0
102
RTVSPost2010PropOp41
 70
     1
102
RTVSPost2010Prop42
 90
       50
102
RTVSPost2010PropOp42
 70
     1
102
RTVSPost2010Prop43
 90
        3
102
RTVSPost2010PropOp43
 70
     1
102
RTVSPost2010Prop44ColorIndex
 90
        5
102
RTVSPost2010Prop44ColorRGB
 90
      255
102
RTVSPost2010PropOp44
 70
     1
102
RTVSPost2010Prop45
280
     0
102
RTVSPost2010PropOp45
 70
     1
102
RTVSPost2010Prop46
 90
       50
102
RTVSPost2010PropOp46
 70
     1
102
RTVSPost2010Prop47
 90
       50
102
RTVSPost2010PropOp47
 70
     1
102
RTVSPost2010Prop48
 90
       50
102
RTVSPost2010PropOp48
 70
     1
102
RTVSPost2010Prop49
280
     0
102
RTVSPost2010PropOp49
 70
     1
102
RTVSPost2010Prop50
 90
       50
102
RTVSPost2010PropOp50
 70
     1
102
RTVSPost2010Prop51ColorIndex
 90
      256
102
RTVSPost2010Prop51ColorRGB
 90
-16777216
102
RTVSPost2010PropOp51
 70
     0
102
RTVSPost2010Prop52
140
1.0
102
RTVSPost2010PropOp52
 70
     0
102
RTVSPost2010Prop53
 90
        2
102
RTVSPost2010PropOp53
 70
     1
102
RTVSPost2010Prop54
  1
strokes_ogs.tif
102
RTVSPost2010PropOp54
 70
     1
102
RTVSPost2010Prop55
280
     0
102
RTVSPost2010PropOp55
 70
     1
102
RTVSPost2010Prop56
140
1.0
102
RTVSPost2010PropOp56
 70
     1
102
RTVSPost2010Prop57
140
1.0
102
RTVSPost2010PropOp57
 70
     1
  0
XRECORD
  5
414
102
{ACAD_REACTORS
330
413
102
}
330
413
100
AcDbXrecord
280
     1
102
RTVSPropertyOp0
 70
     1
102
RTVSPropertyOp1
 70
     1
102
RTVSPropertyOp2
 70
     1
102
RTVSPropertyOp3
 70
     1
102
RTVSPropertyOp4
 70
     1
102
RTVSPropertyOp5
 70
     1
102
RTVSPropertyOp6
 70
     1
102
RTVSPropertyOp7
 70
     1
102
RTVSPropertyOp8
 70
     1
102
RTVSPropertyOp9
 70
     1
102
RTVSPropertyOp10
 70
     1
102
RTVSPropertyOp11
 70
     1
102
RTVSPropertyOp12
 70
     1
102
RTVSPropertyOp13
 70
     1
102
RTVSPropertyOp14
 70
     1
102
RTVSPropertyOp15
 70
     1
102
RTVSPropertyOp16
 70
     1
102
RTVSPropertyOp17
 70
     1
102
RTVSPropertyOp18
 70
     1
102
RTVSPropertyOp19
 70
     1
102
RTVSPropertyOp20
 70
     1
102
RTVSPropertyOp21
 70
     1
102
RTVSPropertyOp22
 70
     1
102
RTVSPropertyOp23
 70
     1
102
RTVSPropertyOp24
 70
     1
102
RTVSPropertyOp25
 70
     1
102
RTVSPropertyOp26
 70
     1
102
RTVSPropertyOp27
 70
     1
102
RTVSPropertyOp28
 70
     1
102
RTVSPropertyOp29
 70
     1
102
RTVSPropertyOp30
 70
     1
102
RTVSPropertyOp31
 70
     1
102
RTVSPropertyOp32
 70
     1
102
RTVSPropertyOp33
 70
     1
102
RTVSPropertyOp34
 70
     1
102
RTVSPropertyOp35
 70
     1
102
RTVSPropertyOp36
 70
     1
102
RTVSPropertyOp37
 70
     1
102
RTVSPropertyOp38
 70
     1
102
RTVSPropertyOp39
 70
     1
102
RTVSPropertyOp40
 70
     1
102
RTVSPropertyOp41
 70
     1
102
RTVSPropertyOp42
 70
     1
102
RTVSPropertyOp43
 70
     1
102
RTVSPropertyOp44
 70
     1
102
RTVSPropertyOp45
 70
     1
102
RTVSPropertyOp46
 70
     1
102
RTVSPropertyOp47
 70
     1
102
RTVSPropertyOp48
 70
     1
102
RTVSPropertyOp49
 70
     1
102
RTVSPropertyOp50
 70
     1
102
RTVSPropertyOp51
 70
     0
102
RTVSPropertyOp52
 70
     0
102
RTVSPropertyOp53
 70
     1
102
RTVSPropertyOp54
 70
     1
102
RTVSPropertyOp55
 70
     1
102
RTVSPropertyOp56
 70
     1
102
RTVSPropertyOp57
 70
     1
102
RTVSPost2010Prop28
280
     0
102
RTVSPost2010PropOp28
 70
     1
102
RTVSPost2010Prop29
280
     1
102
RTVSPost2010PropOp29
 70
     1
102
RTVSPost2010Prop30
280
     1
102
RTVSPost2010PropOp30
 70
     1
102
RTVSPost2010Prop31
280
     0
102
RTVSPost2010PropOp31
 70
     1
102
RTVSPost2010Prop32
280
     0
102
RTVSPost2010PropOp32
 70
     1
102
RTVSPost2010Prop33
280
     0
102
RTVSPost2010PropOp33
 70
     1
102
RTVSPost2010Prop34
280
     0
102
RTVSPost2010PropOp34
 70
     1
102
RTVSPost2010Prop35
280
     0
102
RTVSPost2010PropOp35
 70
     1
102
RTVSPost2010Prop36
280
     0
102
RTVSPost2010PropOp36
 70
     1
102
RTVSPost2010Prop37
 90
       50
102
RTVSPost2010PropOp37
 70
     1
102
RTVSPost2010Prop38
140
0.0
102
RTVSPost2010PropOp38
 70
     1
102
RTVSPost2010Prop39
140
1.0
102
RTVSPost2010PropOp39
 70
     1
102
RTVSPost2010Prop40
 90
        0
102
RTVSPost2010PropOp40
 70
     1
102
RTVSPost2010Prop41ColorIndex
 90
       18
102
RTVSPost2010Prop41ColorRGB
 90
        0
102
RTVSPost2010PropOp41
 70
     1
102
RTVSPost2010Prop42
 90
       50
102
RTVSPost2010PropOp42
 70
     1
102
RTVSPost2010Prop43
 90
        3
102
RTVSPost2010PropOp43
 70
     1
102
RTVSPost2010Prop44ColorIndex
 90
        5
102
RTVSPost2010Prop44ColorRGB
 90
      255
102
RTVSPost2010PropOp44
 70
     1
102
RTVSPost2010Prop45
280
     0
102
RTVSPost2010PropOp45
 70
     1
102
RTVSPost2010Prop46
 90
       50
102
RTVSPost2010PropOp46
 70
     1
102
RTVSPost2010Prop47
 90
       50
102
RTVSPost2010PropOp47
 70
     1
102
RTVSPost2010Prop48
 90
       50
102
RTVSPost2010PropOp48
 70
     1
102
RTVSPost2010Prop49
280
     0
102
RTVSPost2010PropOp49
 70
     1
102
RTVSPost2010Prop50
 90
       50
102
RTVSPost2010PropOp50
 70
     1
102
RTVSPost2010Prop51ColorIndex
 90
      256
102
RTVSPost2010Prop51ColorRGB
 90
-16777216
102
RTVSPost2010PropOp51
 70
     0
102
RTVSPost2010Prop52
140
1.0
102
RTVSPost2010PropOp52
 70
     0
102
RTVSPost2010Prop53
 90
        2
102
RTVSPost2010PropOp53
 70
     1
102
RTVSPost2010Prop54
  1
strokes_ogs.tif
102
RTVSPost2010PropOp54
 70
     1
102
RTVSPost2010Prop55
280
     0
102
RTVSPost2010PropOp55
 70
     1
102
RTVSPost2010Prop56
140
1.0
102
RTVSPost2010PropOp56
 70
     1
102
RTVSPost2010Prop57
140
1.0
102
RTVSPost2010PropOp57
 70
     1
  0
XRECORD
  5
416
102
{ACAD_REACTORS
330
415
102
}
330
415
100
AcDbXrecord
280
     1
102
RTVSPropertyOp0
 70
     1
102
RTVSPropertyOp1
 70
     1
102
RTVSPropertyOp2
 70
     1
102
RTVSPropertyOp3
 70
     1
102
RTVSPropertyOp4
 70
     1
102
RTVSPropertyOp5
 70
     1
102
RTVSPropertyOp6
 70
     1
102
RTVSPropertyOp7
 70
     1
102
RTVSPropertyOp8
 70
     1
102
RTVSPropertyOp9
 70
     1
102
RTVSPropertyOp10
 70
     1
102
RTVSPropertyOp11
 70
     1
102
RTVSPropertyOp12
 70
     1
102
RTVSPropertyOp13
 70
     1
102
RTVSPropertyOp14
 70
     1
102
RTVSPropertyOp15
 70
     1
102
RTVSPropertyOp16
 70
     1
102
RTVSPropertyOp17
 70
     1
102
RTVSPropertyOp18
 70
     1
102
RTVSPropertyOp19
 70
     1
102
RTVSPropertyOp20
 70
     1
102
RTVSPropertyOp21
 70
     1
102
RTVSPropertyOp22
 70
     1
102
RTVSPropertyOp23
 70
     1
102
RTVSPropertyOp24
 70
     1
102
RTVSPropertyOp25
 70
     1
102
RTVSPropertyOp26
 70
     1
102
RTVSPropertyOp27
 70
     1
102
RTVSPropertyOp28
 70
     1
102
RTVSPropertyOp29
 70
     1
102
RTVSPropertyOp30
 70
     1
102
RTVSPropertyOp31
 70
     1
102
RTVSPropertyOp32
 70
     1
102
RTVSPropertyOp33
 70
     1
102
RTVSPropertyOp34
 70
     1
102
RTVSPropertyOp35
 70
     1
102
RTVSPropertyOp36
 70
     1
102
RTVSPropertyOp37
 70
     1
102
RTVSPropertyOp38
 70
     1
102
RTVSPropertyOp39
 70
     1
102
RTVSPropertyOp40
 70
     1
102
RTVSPropertyOp41
 70
     1
102
RTVSPropertyOp42
 70
     1
102
RTVSPropertyOp43
 70
     1
102
RTVSPropertyOp44
 70
     1
102
RTVSPropertyOp45
 70
     1
102
RTVSPropertyOp46
 70
     1
102
RTVSPropertyOp47
 70
     1
102
RTVSPropertyOp48
 70
     1
102
RTVSPropertyOp49
 70
     1
102
RTVSPropertyOp50
 70
     1
102
RTVSPropertyOp51
 70
     0
102
RTVSPropertyOp52
 70
     0
102
RTVSPropertyOp53
 70
     1
102
RTVSPropertyOp54
 70
     1
102
RTVSPropertyOp55
 70
     1
102
RTVSPropertyOp56
 70
     1
102
RTVSPropertyOp57
 70
     1
102
RTVSPost2010Prop28
280
     0
102
RTVSPost2010PropOp28
 70
     1
102
RTVSPost2010Prop29
280
     1
102
RTVSPost2010PropOp29
 70
     1
102
RTVSPost2010Prop30
280
     1
102
RTVSPost2010PropOp30
 70
     1
102
RTVSPost2010Prop31
280
     0
102
RTVSPost2010PropOp31
 70
     1
102
RTVSPost2010Prop32
280
     0
102
RTVSPost2010PropOp32
 70
     1
102
RTVSPost2010Prop33
280
     0
102
RTVSPost2010PropOp33
 70
     1
102
RTVSPost2010Prop34
280
     0
102
RTVSPost2010PropOp34
 70
     1
102
RTVSPost2010Prop35
280
     0
102
RTVSPost2010PropOp35
 70
     1
102
RTVSPost2010Prop36
280
     0
102
RTVSPost2010PropOp36
 70
     1
102
RTVSPost2010Prop37
 90
       50
102
RTVSPost2010PropOp37
 70
     1
102
RTVSPost2010Prop38
140
0.0
102
RTVSPost2010PropOp38
 70
     1
102
RTVSPost2010Prop39
140
1.0
102
RTVSPost2010PropOp39
 70
     1
102
RTVSPost2010Prop40
 90
        0
102
RTVSPost2010PropOp40
 70
     1
102
RTVSPost2010Prop41ColorIndex
 90
       18
102
RTVSPost2010Prop41ColorRGB
 90
        0
102
RTVSPost2010PropOp41
 70
     1
102
RTVSPost2010Prop42
 90
       50
102
RTVSPost2010PropOp42
 70
     1
102
RTVSPost2010Prop43
 90
        3
102
RTVSPost2010PropOp43
 70
     1
102
RTVSPost2010Prop44ColorIndex
 90
        5
102
RTVSPost2010Prop44ColorRGB
 90
      255
102
RTVSPost2010PropOp44
 70
     1
102
RTVSPost2010Prop45
280
     0
102
RTVSPost2010PropOp45
 70
     1
102
RTVSPost2010Prop46
 90
       50
102
RTVSPost2010PropOp46
 70
     1
102
RTVSPost2010Prop47
 90
       50
102
RTVSPost2010PropOp47
 70
     1
102
RTVSPost2010Prop48
 90
       50
102
RTVSPost2010PropOp48
 70
     1
102
RTVSPost2010Prop49
280
     0
102
RTVSPost2010PropOp49
 70
     1
102
RTVSPost2010Prop50
 90
       50
102
RTVSPost2010PropOp50
 70
     1
102
RTVSPost2010Prop51ColorIndex
 90
      256
102
RTVSPost2010Prop51ColorRGB
 90
-16777216
102
RTVSPost2010PropOp51
 70
     0
102
RTVSPost2010Prop52
140
1.0
102
RTVSPost2010PropOp52
 70
     0
102
RTVSPost2010Prop53
 90
        2
102
RTVSPost2010PropOp53
 70
     1
102
RTVSPost2010Prop54
  1
strokes_ogs.tif
102
RTVSPost2010PropOp54
 70
     1
102
RTVSPost2010Prop55
280
     0
102
RTVSPost2010PropOp55
 70
     1
102
RTVSPost2010Prop56
140
1.0
102
RTVSPost2010PropOp56
 70
     1
102
RTVSPost2010Prop57
140
1.0
102
RTVSPost2010PropOp57
 70
     1
  0
XRECORD
  5
406
102
{ACAD_REACTORS
330
405
102
}
330
405
100
AcDbXrecord
280
     1
102
RTVSPropertyOp0
 70
     1
102
RTVSPropertyOp1
 70
     1
102
RTVSPropertyOp2
 70
     1
102
RTVSPropertyOp3
 70
     1
102
RTVSPropertyOp4
 70
     1
102
RTVSPropertyOp5
 70
     1
102
RTVSPropertyOp6
 70
     1
102
RTVSPropertyOp7
 70
     1
102
RTVSPropertyOp8
 70
     1
102
RTVSPropertyOp9
 70
     1
102
RTVSPropertyOp10
 70
     1
102
RTVSPropertyOp11
 70
     1
102
RTVSPropertyOp12
 70
     1
102
RTVSPropertyOp13
 70
     1
102
RTVSPropertyOp14
 70
     1
102
RTVSPropertyOp15
 70
     1
102
RTVSPropertyOp16
 70
     1
102
RTVSPropertyOp17
 70
     1
102
RTVSPropertyOp18
 70
     1
102
RTVSPropertyOp19
 70
     1
102
RTVSPropertyOp20
 70
     1
102
RTVSPropertyOp21
 70
     1
102
RTVSPropertyOp22
 70
     1
102
RTVSPropertyOp23
 70
     1
102
RTVSPropertyOp24
 70
     1
102
RTVSPropertyOp25
 70
     1
102
RTVSPropertyOp26
 70
     1
102
RTVSPropertyOp27
 70
     1
102
RTVSPropertyOp28
 70
     1
102
RTVSPropertyOp29
 70
     1
102
RTVSPropertyOp30
 70
     1
102
RTVSPropertyOp31
 70
     1
102
RTVSPropertyOp32
 70
     1
102
RTVSPropertyOp33
 70
     1
102
RTVSPropertyOp34
 70
     1
102
RTVSPropertyOp35
 70
     1
102
RTVSPropertyOp36
 70
     1
102
RTVSPropertyOp37
 70
     1
102
RTVSPropertyOp38
 70
     1
102
RTVSPropertyOp39
 70
     1
102
RTVSPropertyOp40
 70
     1
102
RTVSPropertyOp41
 70
     1
102
RTVSPropertyOp42
 70
     1
102
RTVSPropertyOp43
 70
     1
102
RTVSPropertyOp44
 70
     1
102
RTVSPropertyOp45
 70
     1
102
RTVSPropertyOp46
 70
     1
102
RTVSPropertyOp47
 70
     1
102
RTVSPropertyOp48
 70
     1
102
RTVSPropertyOp49
 70
     1
102
RTVSPropertyOp50
 70
     1
102
RTVSPropertyOp51
 70
     0
102
RTVSPropertyOp52
 70
     0
102
RTVSPropertyOp53
 70
     1
102
RTVSPropertyOp54
 70
     1
102
RTVSPropertyOp55
 70
     1
102
RTVSPropertyOp56
 70
     1
102
RTVSPropertyOp57
 70
     1
102
RTVSPost2010Prop28
280
     0
102
RTVSPost2010PropOp28
 70
     1
102
RTVSPost2010Prop29
280
     1
102
RTVSPost2010PropOp29
 70
     1
102
RTVSPost2010Prop30
280
     1
102
RTVSPost2010PropOp30
 70
     1
102
RTVSPost2010Prop31
280
     0
102
RTVSPost2010PropOp31
 70
     1
102
RTVSPost2010Prop32
280
     0
102
RTVSPost2010PropOp32
 70
     1
102
RTVSPost2010Prop33
280
     0
102
RTVSPost2010PropOp33
 70
     1
102
RTVSPost2010Prop34
280
     0
102
RTVSPost2010PropOp34
 70
     1
102
RTVSPost2010Prop35
280
     0
102
RTVSPost2010PropOp35
 70
     1
102
RTVSPost2010Prop36
280
     0
102
RTVSPost2010PropOp36
 70
     1
102
RTVSPost2010Prop37
 90
       50
102
RTVSPost2010PropOp37
 70
     1
102
RTVSPost2010Prop38
140
0.0
102
RTVSPost2010PropOp38
 70
     1
102
RTVSPost2010Prop39
140
1.0
102
RTVSPost2010PropOp39
 70
     1
102
RTVSPost2010Prop40
 90
        0
102
RTVSPost2010PropOp40
 70
     1
102
RTVSPost2010Prop41ColorIndex
 90
       18
102
RTVSPost2010Prop41ColorRGB
 90
        0
102
RTVSPost2010PropOp41
 70
     1
102
RTVSPost2010Prop42
 90
       50
102
RTVSPost2010PropOp42
 70
     1
102
RTVSPost2010Prop43
 90
        3
102
RTVSPost2010PropOp43
 70
     1
102
RTVSPost2010Prop44ColorIndex
 90
        5
102
RTVSPost2010Prop44ColorRGB
 90
      255
102
RTVSPost2010PropOp44
 70
     1
102
RTVSPost2010Prop45
280
     0
102
RTVSPost2010PropOp45
 70
     1
102
RTVSPost2010Prop46
 90
       50
102
RTVSPost2010PropOp46
 70
     1
102
RTVSPost2010Prop47
 90
       50
102
RTVSPost2010PropOp47
 70
     1
102
RTVSPost2010Prop48
 90
       50
102
RTVSPost2010PropOp48
 70
     1
102
RTVSPost2010Prop49
280
     0
102
RTVSPost2010PropOp49
 70
     1
102
RTVSPost2010Prop50
 90
       50
102
RTVSPost2010PropOp50
 70
     1
102
RTVSPost2010Prop51ColorIndex
 90
      256
102
RTVSPost2010Prop51ColorRGB
 90
-16777216
102
RTVSPost2010PropOp51
 70
     0
102
RTVSPost2010Prop52
140
1.0
102
RTVSPost2010PropOp52
 70
     0
102
RTVSPost2010Prop53
 90
        2
102
RTVSPost2010PropOp53
 70
     1
102
RTVSPost2010Prop54
  1
strokes_ogs.tif
102
RTVSPost2010PropOp54
 70
     1
102
RTVSPost2010Prop55
280
     0
102
RTVSPost2010PropOp55
 70
     1
102
RTVSPost2010Prop56
140
1.0
102
RTVSPost2010PropOp56
 70
     1
102
RTVSPost2010Prop57
140
1.0
102
RTVSPost2010PropOp57
 70
     1
  0
XRECORD
  5
3F8
102
{ACAD_REACTORS
330
3F7
102
}
330
3F7
100
AcDbXrecord
280
     1
102
RTVSPropertyOp0
 70
     1
102
RTVSPropertyOp1
 70
     1
102
RTVSPropertyOp2
 70
     1
102
RTVSPropertyOp3
 70
     1
102
RTVSPropertyOp4
 70
     1
102
RTVSPropertyOp5
 70
     1
102
RTVSPropertyOp6
 70
     1
102
RTVSPropertyOp7
 70
     1
102
RTVSPropertyOp8
 70
     1
102
RTVSPropertyOp9
 70
     1
102
RTVSPropertyOp10
 70
     1
102
RTVSPropertyOp11
 70
     1
102
RTVSPropertyOp12
 70
     1
102
RTVSPropertyOp13
 70
     1
102
RTVSPropertyOp14
 70
     1
102
RTVSPropertyOp15
 70
     1
102
RTVSPropertyOp16
 70
     1
102
RTVSPropertyOp17
 70
     1
102
RTVSPropertyOp18
 70
     1
102
RTVSPropertyOp19
 70
     1
102
RTVSPropertyOp20
 70
     1
102
RTVSPropertyOp21
 70
     1
102
RTVSPropertyOp22
 70
     1
102
RTVSPropertyOp23
 70
     1
102
RTVSPropertyOp24
 70
     1
102
RTVSPropertyOp25
 70
     1
102
RTVSPropertyOp26
 70
     1
102
RTVSPropertyOp27
 70
     1
102
RTVSPropertyOp28
 70
     1
102
RTVSPropertyOp29
 70
     1
102
RTVSPropertyOp30
 70
     1
102
RTVSPropertyOp31
 70
     1
102
RTVSPropertyOp32
 70
     1
102
RTVSPropertyOp33
 70
     1
102
RTVSPropertyOp34
 70
     1
102
RTVSPropertyOp35
 70
     1
102
RTVSPropertyOp36
 70
     1
102
RTVSPropertyOp37
 70
     1
102
RTVSPropertyOp38
 70
     1
102
RTVSPropertyOp39
 70
     1
102
RTVSPropertyOp40
 70
     1
102
RTVSPropertyOp41
 70
     1
102
RTVSPropertyOp42
 70
     1
102
RTVSPropertyOp43
 70
     1
102
RTVSPropertyOp44
 70
     1
102
RTVSPropertyOp45
 70
     1
102
RTVSPropertyOp46
 70
     1
102
RTVSPropertyOp47
 70
     1
102
RTVSPropertyOp48
 70
     1
102
RTVSPropertyOp49
 70
     1
102
RTVSPropertyOp50
 70
     1
102
RTVSPropertyOp51
 70
     0
102
RTVSPropertyOp52
 70
     0
102
RTVSPropertyOp53
 70
     1
102
RTVSPropertyOp54
 70
     1
102
RTVSPropertyOp55
 70
     1
102
RTVSPropertyOp56
 70
     1
102
RTVSPropertyOp57
 70
     1
102
RTVSPost2010Prop28
280
     0
102
RTVSPost2010PropOp28
 70
     1
102
RTVSPost2010Prop29
280
     1
102
RTVSPost2010PropOp29
 70
     1
102
RTVSPost2010Prop30
280
     1
102
RTVSPost2010PropOp30
 70
     1
102
RTVSPost2010Prop31
280
     0
102
RTVSPost2010PropOp31
 70
     1
102
RTVSPost2010Prop32
280
     0
102
RTVSPost2010PropOp32
 70
     1
102
RTVSPost2010Prop33
280
     0
102
RTVSPost2010PropOp33
 70
     1
102
RTVSPost2010Prop34
280
     0
102
RTVSPost2010PropOp34
 70
     1
102
RTVSPost2010Prop35
280
     0
102
RTVSPost2010PropOp35
 70
     1
102
RTVSPost2010Prop36
280
     0
102
RTVSPost2010PropOp36
 70
     1
102
RTVSPost2010Prop37
 90
       50
102
RTVSPost2010PropOp37
 70
     1
102
RTVSPost2010Prop38
140
0.0
102
RTVSPost2010PropOp38
 70
     1
102
RTVSPost2010Prop39
140
1.0
102
RTVSPost2010PropOp39
 70
     1
102
RTVSPost2010Prop40
 90
        0
102
RTVSPost2010PropOp40
 70
     1
102
RTVSPost2010Prop41ColorIndex
 90
       18
102
RTVSPost2010Prop41ColorRGB
 90
        0
102
RTVSPost2010PropOp41
 70
     1
102
RTVSPost2010Prop42
 90
       50
102
RTVSPost2010PropOp42
 70
     1
102
RTVSPost2010Prop43
 90
        3
102
RTVSPost2010PropOp43
 70
     1
102
RTVSPost2010Prop44ColorIndex
 90
        5
102
RTVSPost2010Prop44ColorRGB
 90
      255
102
RTVSPost2010PropOp44
 70
     1
102
RTVSPost2010Prop45
280
     0
102
RTVSPost2010PropOp45
 70
     1
102
RTVSPost2010Prop46
 90
       50
102
RTVSPost2010PropOp46
 70
     1
102
RTVSPost2010Prop47
 90
       50
102
RTVSPost2010PropOp47
 70
     1
102
RTVSPost2010Prop48
 90
       50
102
RTVSPost2010PropOp48
 70
     1
102
RTVSPost2010Prop49
280
     0
102
RTVSPost2010PropOp49
 70
     1
102
RTVSPost2010Prop50
 90
       50
102
RTVSPost2010PropOp50
 70
     1
102
RTVSPost2010Prop51ColorIndex
 90
      256
102
RTVSPost2010Prop51ColorRGB
 90
-16777216
102
RTVSPost2010PropOp51
 70
     0
102
RTVSPost2010Prop52
140
1.0
102
RTVSPost2010PropOp52
 70
     0
102
RTVSPost2010Prop53
 90
        2
102
RTVSPost2010PropOp53
 70
     1
102
RTVSPost2010Prop54
  1
strokes_ogs.tif
102
RTVSPost2010PropOp54
 70
     1
102
RTVSPost2010Prop55
280
     0
102
RTVSPost2010PropOp55
 70
     1
102
RTVSPost2010Prop56
140
1.0
102
RTVSPost2010PropOp56
 70
     1
102
RTVSPost2010Prop57
140
1.0
102
RTVSPost2010PropOp57
 70
     1
  0
XRECORD
  5
418
102
{ACAD_REACTORS
330
417
102
}
330
417
100
AcDbXrecord
280
     1
102
RTVSPropertyOp0
 70
     1
102
RTVSPropertyOp1
 70
     1
102
RTVSPropertyOp2
 70
     1
102
RTVSPropertyOp3
 70
     1
102
RTVSPropertyOp4
 70
     1
102
RTVSPropertyOp5
 70
     1
102
RTVSPropertyOp6
 70
     1
102
RTVSPropertyOp7
 70
     1
102
RTVSPropertyOp8
 70
     1
102
RTVSPropertyOp9
 70
     1
102
RTVSPropertyOp10
 70
     1
102
RTVSPropertyOp11
 70
     1
102
RTVSPropertyOp12
 70
     1
102
RTVSPropertyOp13
 70
     1
102
RTVSPropertyOp14
 70
     1
102
RTVSPropertyOp15
 70
     1
102
RTVSPropertyOp16
 70
     1
102
RTVSPropertyOp17
 70
     1
102
RTVSPropertyOp18
 70
     1
102
RTVSPropertyOp19
 70
     1
102
RTVSPropertyOp20
 70
     1
102
RTVSPropertyOp21
 70
     1
102
RTVSPropertyOp22
 70
     1
102
RTVSPropertyOp23
 70
     1
102
RTVSPropertyOp24
 70
     1
102
RTVSPropertyOp25
 70
     1
102
RTVSPropertyOp26
 70
     1
102
RTVSPropertyOp27
 70
     1
102
RTVSPropertyOp28
 70
     1
102
RTVSPropertyOp29
 70
     1
102
RTVSPropertyOp30
 70
     1
102
RTVSPropertyOp31
 70
     1
102
RTVSPropertyOp32
 70
     1
102
RTVSPropertyOp33
 70
     1
102
RTVSPropertyOp34
 70
     1
102
RTVSPropertyOp35
 70
     1
102
RTVSPropertyOp36
 70
     1
102
RTVSPropertyOp37
 70
     1
102
RTVSPropertyOp38
 70
     1
102
RTVSPropertyOp39
 70
     1
102
RTVSPropertyOp40
 70
     1
102
RTVSPropertyOp41
 70
     1
102
RTVSPropertyOp42
 70
     1
102
RTVSPropertyOp43
 70
     1
102
RTVSPropertyOp44
 70
     1
102
RTVSPropertyOp45
 70
     1
102
RTVSPropertyOp46
 70
     1
102
RTVSPropertyOp47
 70
     1
102
RTVSPropertyOp48
 70
     1
102
RTVSPropertyOp49
 70
     1
102
RTVSPropertyOp50
 70
     1
102
RTVSPropertyOp51
 70
     0
102
RTVSPropertyOp52
 70
     0
102
RTVSPropertyOp53
 70
     1
102
RTVSPropertyOp54
 70
     1
102
RTVSPropertyOp55
 70
     1
102
RTVSPropertyOp56
 70
     1
102
RTVSPropertyOp57
 70
     1
102
RTVSPost2010Prop28
280
     0
102
RTVSPost2010PropOp28
 70
     1
102
RTVSPost2010Prop29
280
     1
102
RTVSPost2010PropOp29
 70
     1
102
RTVSPost2010Prop30
280
     1
102
RTVSPost2010PropOp30
 70
     1
102
RTVSPost2010Prop31
280
     0
102
RTVSPost2010PropOp31
 70
     1
102
RTVSPost2010Prop32
280
     0
102
RTVSPost2010PropOp32
 70
     1
102
RTVSPost2010Prop33
280
     0
102
RTVSPost2010PropOp33
 70
     1
102
RTVSPost2010Prop34
280
     0
102
RTVSPost2010PropOp34
 70
     1
102
RTVSPost2010Prop35
280
     0
102
RTVSPost2010PropOp35
 70
     1
102
RTVSPost2010Prop36
280
     0
102
RTVSPost2010PropOp36
 70
     1
102
RTVSPost2010Prop37
 90
       50
102
RTVSPost2010PropOp37
 70
     1
102
RTVSPost2010Prop38
140
0.0
102
RTVSPost2010PropOp38
 70
     1
102
RTVSPost2010Prop39
140
1.0
102
RTVSPost2010PropOp39
 70
     1
102
RTVSPost2010Prop40
 90
        0
102
RTVSPost2010PropOp40
 70
     1
102
RTVSPost2010Prop41ColorIndex
 90
       18
102
RTVSPost2010Prop41ColorRGB
 90
        0
102
RTVSPost2010PropOp41
 70
     1
102
RTVSPost2010Prop42
 90
       50
102
RTVSPost2010PropOp42
 70
     1
102
RTVSPost2010Prop43
 90
        3
102
RTVSPost2010PropOp43
 70
     1
102
RTVSPost2010Prop44ColorIndex
 90
        5
102
RTVSPost2010Prop44ColorRGB
 90
      255
102
RTVSPost2010PropOp44
 70
     1
102
RTVSPost2010Prop45
280
     0
102
RTVSPost2010PropOp45
 70
     1
102
RTVSPost2010Prop46
 90
       50
102
RTVSPost2010PropOp46
 70
     1
102
RTVSPost2010Prop47
 90
       50
102
RTVSPost2010PropOp47
 70
     1
102
RTVSPost2010Prop48
 90
       50
102
RTVSPost2010PropOp48
 70
     1
102
RTVSPost2010Prop49
280
     0
102
RTVSPost2010PropOp49
 70
     1
102
RTVSPost2010Prop50
 90
       50
102
RTVSPost2010PropOp50
 70
     1
102
RTVSPost2010Prop51ColorIndex
 90
      256
102
RTVSPost2010Prop51ColorRGB
 90
-16777216
102
RTVSPost2010PropOp51
 70
     0
102
RTVSPost2010Prop52
140
1.0
102
RTVSPost2010PropOp52
 70
     0
102
RTVSPost2010Prop53
 90
        2
102
RTVSPost2010PropOp53
 70
     1
102
RTVSPost2010Prop54
  1
strokes_ogs.tif
102
RTVSPost2010PropOp54
 70
     1
102
RTVSPost2010Prop55
280
     0
102
RTVSPost2010PropOp55
 70
     1
102
RTVSPost2010Prop56
140
1.0
102
RTVSPost2010PropOp56
 70
     1
102
RTVSPost2010Prop57
140
1.0
102
RTVSPost2010PropOp57
 70
     1
  0
ENDSEC
  0
EOF
