  0
SECTION
  2
HEADER
  9
$ACADVER
  1
AC1018
  9
$ACADMAINTVER
 70
     0
  9
$DWGCODEPAGE
  3
ANSI_932
  9
$INSBASE
 10
0.0
 20
0.0
 30
0.0
  9
$EXTMIN
 10
-2100.0
 20
-1485.0
 30
0.0
  9
$EXTMAX
 10
2100.0
 20
1485.0
 30
0.0
  9
$LIMMIN
 10
-2100.0
 20
-1485.0
  9
$LIMMAX
 10
2100.0
 20
1485.0
  9
$ORTHOMODE
 70
     0
  9
$REGENMODE
 70
     1
  9
$FILLMODE
 70
     1
  9
$QTEXTMODE
 70
     0
  9
$MIRRTEXT
 70
     1
  9
$LTSCALE
 40
10.0
  9
$ATTMODE
 70
     1
  9
$TEXTSIZE
 40
2.5
  9
$TRACEWID
 40
1.0
  9
$TEXTSTYLE
  7
Standard
  9
$CLAYER
  8
0
  9
$CELTYPE
  6
ByLayer
  9
$CECOLOR
 62
   256
  9
$CELTSCALE
 40
1.0
  9
$DISPSILH
 70
     0
  9
$DIMSCALE
 40
1.0
  9
$DIMASZ
 40
2.5
  9
$DIMEXO
 40
0.625
  9
$DIMDLI
 40
3.75
  9
$DIMRND
 40
0.0
  9
$DIMDLE
 40
0.0
  9
$DIMEXE
 40
1.25
  9
$DIMTP
 40
0.0
  9
$DIMTM
 40
0.0
  9
$DIMTXT
 40
2.5
  9
$DIMCEN
 40
2.5
  9
$DIMTSZ
 40
0.0
  9
$DIMTOL
 70
     0
  9
$DIMLIM
 70
     0
  9
$DIMTIH
 70
     0
  9
$DIMTOH
 70
     0
  9
$DIMSE1
 70
     0
  9
$DIMSE2
 70
     0
  9
$DIMTAD
 70
     1
  9
$DIMZIN
 70
     8
  9
$DIMBLK
  1

  9
$DIMASO
 70
     1
  9
$DIMSHO
 70
     1
  9
$DIMPOST
  1

  9
$DIMAPOST
  1

  9
$DIMALT
 70
     0
  9
$DIMALTD
 70
     3
  9
$DIMALTF
 40
0.03937007874016
  9
$DIMLFAC
 40
1.0
  9
$DIMTOFL
 70
     1
  9
$DIMTVP
 40
0.0
  9
$DIMTIX
 70
     0
  9
$DIMSOXD
 70
     0
  9
$DIMSAH
 70
     0
  9
$DIMBLK1
  1

  9
$DIMBLK2
  1

  9
$DIMSTYLE
  2
ISO-25
  9
$DIMCLRD
 70
     0
  9
$DIMCLRE
 70
     0
  9
$DIMCLRT
 70
     0
  9
$DIMTFAC
 40
1.0
  9
$DIMGAP
 40
0.625
  9
$DIMJUST
 70
     0
  9
$DIMSD1
 70
     0
  9
$DIMSD2
 70
     0
  9
$DIMTOLJ
 70
     0
  9
$DIMTZIN
 70
     8
  9
$DIMALTZ
 70
     0
  9
$DIMALTTZ
 70
     0
  9
$DIMUPT
 70
     0
  9
$DIMDEC
 70
     2
  9
$DIMTDEC
 70
     2
  9
$DIMALTU
 70
     2
  9
$DIMALTTD
 70
     3
  9
$DIMTXSTY
  7
Standard
  9
$DIMAUNIT
 70
     0
  9
$DIMADEC
 70
     0
  9
$DIMALTRND
 40
0.0
  9
$DIMAZIN
 70
     0
  9
$DIMDSEP
 70
    44
  9
$DIMATFIT
 70
     3
  9
$DIMFRAC
 70
     0
  9
$DIMLDRBLK
  1

  9
$DIMLUNIT
 70
     2
  9
$DIMLWD
 70
    -2
  9
$DIMLWE
 70
    -2
  9
$DIMTMOVE
 70
     0
  9
$LUNITS
 70
     2
  9
$LUPREC
 70
     4
  9
$SKETCHINC
 40
1.0
  9
$FILLETRAD
 40
10.0
  9
$AUNITS
 70
     0
  9
$AUPREC
 70
     0
  9
$MENU
  1
.
  9
$ELEVATION
 40
0.0
  9
$PELEVATION
 40
0.0
  9
$THICKNESS
 40
0.0
  9
$LIMCHECK
 70
     0
  9
$CHAMFERA
 40
10.0
  9
$CHAMFERB
 40
10.0
  9
$CHAMFERC
 40
20.0
  9
$CHAMFERD
 40
0.0
  9
$SKPOLY
 70
     0
  9
$TDCREATE
 40
2459026.606163947
  9
$TDUCREATE
 40
2459026.231163947
  9
$TDUPDATE
 40
2459026.606163959
  9
$TDUUPDATE
 40
2459026.231163959
  9
$TDINDWG
 40
0.0000000116
  9
$TDUSRTIMER
 40
0.0000000116
  9
$USRTIMER
 70
     1
  9
$ANGBASE
 50
0.0
  9
$ANGDIR
 70
     0
  9
$PDMODE
 70
     0
  9
$PDSIZE
 40
0.0
  9
$PLINEWID
 40
0.0
  9
$SPLFRAME
 70
     0
  9
$SPLINETYPE
 70
     6
  9
$SPLINESEGS
 70
     8
  9
$HANDSEED
  5
401
  9
$SURFTAB1
 70
     6
  9
$SURFTAB2
 70
     6
  9
$SURFTYPE
 70
     6
  9
$SURFU
 70
     6
  9
$SURFV
 70
     6
  9
$UCSBASE
  2

  9
$UCSNAME
  2

  9
$UCSORG
 10
0.0
 20
0.0
 30
0.0
  9
$UCSXDIR
 10
1.0
 20
0.0
 30
0.0
  9
$UCSYDIR
 10
0.0
 20
1.0
 30
0.0
  9
$UCSORTHOREF
  2

  9
$UCSORTHOVIEW
 70
     0
  9
$UCSORGTOP
 10
0.0
 20
0.0
 30
0.0
  9
$UCSORGBOTTOM
 10
0.0
 20
0.0
 30
0.0
  9
$UCSORGLEFT
 10
0.0
 20
0.0
 30
0.0
  9
$UCSORGRIGHT
 10
0.0
 20
0.0
 30
0.0
  9
$UCSORGFRONT
 10
0.0
 20
0.0
 30
0.0
  9
$UCSORGBACK
 10
0.0
 20
0.0
 30
0.0
  9
$PUCSBASE
  2

  9
$PUCSNAME
  2

  9
$PUCSORG
 10
0.0
 20
0.0
 30
0.0
  9
$PUCSXDIR
 10
1.0
 20
0.0
 30
0.0
  9
$PUCSYDIR
 10
0.0
 20
1.0
 30
0.0
  9
$PUCSORTHOREF
  2

  9
$PUCSORTHOVIEW
 70
     0
  9
$PUCSORGTOP
 10
0.0
 20
0.0
 30
0.0
  9
$PUCSORGBOTTOM
 10
0.0
 20
0.0
 30
0.0
  9
$PUCSORGLEFT
 10
0.0
 20
0.0
 30
0.0
  9
$PUCSORGRIGHT
 10
0.0
 20
0.0
 30
0.0
  9
$PUCSORGFRONT
 10
0.0
 20
0.0
 30
0.0
  9
$PUCSORGBACK
 10
0.0
 20
0.0
 30
0.0
  9
$USERI1
 70
     0
  9
$USERI2
 70
     0
  9
$USERI3
 70
     0
  9
$USERI4
 70
     0
  9
$USERI5
 70
     0
  9
$USERR1
 40
0.0
  9
$USERR2
 40
0.0
  9
$USERR3
 40
0.0
  9
$USERR4
 40
0.0
  9
$USERR5
 40
0.0
  9
$WORLDVIEW
 70
     1
  9
$SHADEDGE
 70
     3
  9
$SHADEDIF
 70
    70
  9
$TILEMODE
 70
     1
  9
$MAXACTVP
 70
    64
  9
$PINSBASE
 10
0.0
 20
0.0
 30
0.0
  9
$PLIMCHECK
 70
     0
  9
$PEXTMIN
 10
1.000000000000000E+20
 20
1.000000000000000E+20
 30
1.000000000000000E+20
  9
$PEXTMAX
 10
-1.000000000000000E+20
 20
-1.000000000000000E+20
 30
-1.000000000000000E+20
  9
$PLIMMIN
 10
0.0
 20
0.0
  9
$PLIMMAX
 10
420.0
 20
297.0
  9
$UNITMODE
 70
     0
  9
$VISRETAIN
 70
     1
  9
$PLINEGEN
 70
     0
  9
$PSLTSCALE
 70
     1
  9
$TREEDEPTH
 70
  3020
  9
$CMLSTYLE
  2
Standard
  9
$CMLJUST
 70
     0
  9
$CMLSCALE
 40
20.0
  9
$PROXYGRAPHICS
 70
     1
  9
$MEASUREMENT
 70
     1
  9
$CELWEIGHT
370
    -1
  9
$ENDCAPS
280
     0
  9
$JOINSTYLE
280
     0
  9
$LWDISPLAY
290
     0
  9
$INSUNITS
 70
     4
  9
$HYPERLINKBASE
  1

  9
$STYLESHEET
  1

  9
$XEDIT
290
     1
  9
$CEPSNTYPE
380
     0
  9
$PSTYLEMODE
290
     1
  9
$FINGERPRINTGUID
  2
{6159362F-D13E-42E5-9471-53D3EE5E6EF6}
  9
$VERSIONGUID
  2
{FAEB1C32-E019-11D5-929B-00C0DF256EC4}
  9
$EXTNAMES
290
     1
  9
$PSVPSCALE
 40
0.0
  9
$OLESTARTUP
290
     0
  9
$SORTENTS
280
   127
  9
$INDEXCTL
280
     0
  9
$HIDETEXT
280
     1
  9
$XCLIPFRAME
290
     0
  9
$HALOGAP
280
     0
  9
$OBSCOLOR
 70
   257
  9
$OBSLTYPE
280
     0
  9
$INTERSECTIONDISPLAY
280
     0
  9
$INTERSECTIONCOLOR
 70
   257
  9
$DIMASSOC
280
     2
  9
$PROJECTNAME
  1

  0
ENDSEC
  0
SECTION
  2
CLASSES
  0
CLASS
  1
ACDBDICTIONARYWDFLT
  2
AcDbDictionaryWithDefault
  3
ObjectDBX Classes
 90
        0
 91
        4
280
     0
281
     0
  0
CLASS
  1
VISUALSTYLE
  2
AcDbVisualStyle
  3
ObjectDBX Classes
 90
     4095
 91
        4
280
     0
281
     0
  0
ENDSEC
  0
SECTION
  2
TABLES
  0
TABLE
  2
VPORT
  5
8
330
0
100
AcDbSymbolTable
 70
     1
  0
VPORT
  5
29
330
8
100
AcDbSymbolTableRecord
100
AcDbViewportTableRecord
  2
*Active
 70
     0
 10
0.0
 20
0.0
 11
1.0
 21
1.0
 12
0.0
 22
0.0
 13
0.0
 23
0.0
 14
10.0
 24
10.0
 15
10.0
 25
10.0
 16
0.0
 26
0.0
 36
1.0
 17
0.0
 27
0.0
 37
0.0
 40
3267.0
 41
1.414141414141414
 42
50.0
 43
0.0
 44
0.0
 50
0.0
 51
0.0
 71
     0
 72
 10000
 73
     1
 74
     3
 75
     0
 76
     0
 77
     0
 78
     0
281
     0
 65
     1
110
0.0
120
0.0
130
0.0
111
1.0
121
0.0
131
0.0
112
0.0
122
1.0
132
0.0
 79
     0
146
0.0
  0
ENDTAB
  0
TABLE
  2
LTYPE
  5
5
330
0
100
AcDbSymbolTable
 70
     5
  0
LTYPE
  5
14
330
5
100
AcDbSymbolTableRecord
100
AcDbLinetypeTableRecord
  2
ByBlock
 70
     0
  3

 72
    65
 73
     0
 40
0.0
  0
LTYPE
  5
15
330
5
100
AcDbSymbolTableRecord
100
AcDbLinetypeTableRecord
  2
ByLayer
 70
     0
  3

 72
    65
 73
     0
 40
0.0
  0
LTYPE
  5
16
330
5
100
AcDbSymbolTableRecord
100
AcDbLinetypeTableRecord
  2
Continuous
 70
     0
  3
Solid line
 72
    65
 73
     0
 40
0.0
  0
LTYPE
  5
3C
330
5
100
AcDbSymbolTableRecord
100
AcDbLinetypeTableRecord
  2
JWW_CENTER2
 70
     0
  3
-------------  --  -------------
 72
    65
 73
     4
 40
13.54666666666667
 49
11.00666666666667
 74
     0
 49
-0.8466666666666667
 74
     0
 49
0.8466666666666667
 74
     0
 49
-0.8466666666666667
 74
     0
  0
LTYPE
  5
3D
330
5
100
AcDbSymbolTableRecord
100
AcDbLinetypeTableRecord
  2
JWW_DASHED3
 70
     0
  3
---  ------  ------  ------  ---
 72
    65
 73
     2
 40
3.386666666666667
 49
2.54
 74
     0
 49
-0.8466666666666667
 74
     0
  0
LTYPE
  5
3E
330
5
100
AcDbSymbolTableRecord
100
AcDbLinetypeTableRecord
  2
JWW_DASHED1
 70
     0
  3
-  --  --  --  --  --  --  --  -
 72
    65
 73
     2
 40
1.693333333333333
 49
0.8466666666666667
 74
     0
 49
-0.8466666666666667
 74
     0
  0
LTYPE
  5
3F
330
5
100
AcDbSymbolTableRecord
100
AcDbLinetypeTableRecord
  2
JWW_CENTER1
 70
     0
  3
-----  --  ----------  --  -----
 72
    65
 73
     4
 40
6.773333333333333
 49
4.233333333333333
 74
     0
 49
-0.8466666666666667
 74
     0
 49
0.8466666666666667
 74
     0
 49
-0.8466666666666667
 74
     0
  0
ENDTAB
  0
TABLE
  2
LAYER
  5
2
330
0
100
AcDbSymbolTable
 70
    16
  0
LAYER
  5
10
330
2
100
AcDbSymbolTableRecord
100
AcDbLayerTableRecord
  2
0
 70
     0
 62
     7
  6
Continuous
370
    -3
390
F
  0
LAYER
  5
40
330
2
100
AcDbSymbolTableRecord
100
AcDbLayerTableRecord
  2
D-5
 70
     0
 62
     7
  6
Continuous
370
    -1
390
F
  0
LAYER
  5
41
330
2
100
AcDbSymbolTableRecord
100
AcDbLayerTableRecord
  2
D-4
 70
     0
 62
     7
  6
Continuous
370
    -1
390
F
  0
LAYER
  5
42
330
2
100
AcDbSymbolTableRecord
100
AcDbLayerTableRecord
  2
D-6
 70
     0
 62
     7
  6
Continuous
370
    -1
390
F
  0
LAYER
  5
43
330
2
100
AcDbSymbolTableRecord
100
AcDbLayerTableRecord
  2
D-1
 70
     0
 62
     7
  6
Continuous
370
    -1
390
F
  0
LAYER
  5
44
330
2
100
AcDbSymbolTableRecord
100
AcDbLayerTableRecord
  2
D-9
 70
     0
 62
     7
  6
Continuous
370
    -1
390
F
  0
LAYER
  5
45
330
2
100
AcDbSymbolTableRecord
100
AcDbLayerTableRecord
  2
D-A
 70
     0
 62
     7
  6
Continuous
370
    -1
390
F
  0
LAYER
  5
46
330
2
100
AcDbSymbolTableRecord
100
AcDbLayerTableRecord
  2
D-2
 70
     0
 62
     7
  6
Continuous
370
    -1
390
F
  0
LAYER
  5
47
330
2
100
AcDbSymbolTableRecord
100
AcDbLayerTableRecord
  2
D-3
 70
     0
 62
     7
  6
Continuous
370
    -1
390
F
  0
LAYER
  5
48
330
2
100
AcDbSymbolTableRecord
100
AcDbLayerTableRecord
  2
C-5
 70
     0
 62
     7
  6
Continuous
370
    -1
390
F
  0
LAYER
  5
49
330
2
100
AcDbSymbolTableRecord
100
AcDbLayerTableRecord
  2
C-6
 70
     0
 62
     7
  6
Continuous
370
    -1
390
F
  0
LAYER
  5
4A
330
2
100
AcDbSymbolTableRecord
100
AcDbLayerTableRecord
  2
C-2
 70
     0
 62
     7
  6
Continuous
370
    -1
390
F
  0
LAYER
  5
4B
330
2
100
AcDbSymbolTableRecord
100
AcDbLayerTableRecord
  2
C-1
 70
     0
 62
     7
  6
Continuous
370
    -1
390
F
  0
LAYER
  5
4C
330
2
100
AcDbSymbolTableRecord
100
AcDbLayerTableRecord
  2
C-4
 70
     0
 62
     7
  6
Continuous
370
    -1
390
F
  0
LAYER
  5
4D
330
2
100
AcDbSymbolTableRecord
100
AcDbLayerTableRecord
  2
D-0
 70
     0
 62
     7
  6
Continuous
370
    -1
390
F
  0
LAYER
  5
4E
330
2
100
AcDbSymbolTableRecord
100
AcDbLayerTableRecord
  2
F-4
 70
     0
 62
     7
  6
Continuous
370
    -1
390
F
  0
ENDTAB
  0
TABLE
  2
STYLE
  5
3
330
0
100
AcDbSymbolTable
 70
     2
  0
STYLE
  5
11
330
3
100
AcDbSymbolTableRecord
100
AcDbTextStyleTableRecord
  2
Standard
 70
     0
 40
0.0
 41
1.0
 50
0.0
 71
     0
 42
2.5
  3
txt
  4

1001
ACAD
1000

1071
        0
  0
STYLE
  5
3B
330
3
100
AcDbSymbolTableRecord
100
AcDbTextStyleTableRecord
  2
ＭＳ ゴシック
 70
     0
 40
1.0
 41
1.0
 50
0.0
 71
     0
 42
10.0
  3

  4

1001
ACAD
1000
MS Gothic
1071
    32817
  0
ENDTAB
  0
TABLE
  2
VIEW
  5
6
330
0
100
AcDbSymbolTable
 70
     0
  0
ENDTAB
  0
TABLE
  2
UCS
  5
7
330
0
100
AcDbSymbolTable
 70
     0
  0
ENDTAB
  0
TABLE
  2
APPID
  5
9
330
0
100
AcDbSymbolTable
 70
     1
  0
APPID
  5
12
330
9
100
AcDbSymbolTableRecord
100
AcDbRegAppTableRecord
  2
ACAD
 70
     0
  0
ENDTAB
  0
TABLE
  2
DIMSTYLE
  5
A
330
0
100
AcDbSymbolTable
 70
     1
100
AcDbDimStyleTable
  0
DIMSTYLE
105
27
330
A
100
AcDbSymbolTableRecord
100
AcDbDimStyleTableRecord
  2
ISO-25
 70
     0
 41
2.5
 42
0.625
 43
3.75
 44
1.25
 73
     0
 74
     0
 77
     1
 78
     8
140
2.5
141
2.5
143
0.03937007874016
147
0.625
171
     3
172
     1
271
     2
272
     2
274
     3
278
    44
283
     0
284
     8
340
11
  0
ENDTAB
  0
TABLE
  2
BLOCK_RECORD
  5
1
330
0
100
AcDbSymbolTable
 70
     1
  0
BLOCK_RECORD
  5
1F
330
1
100
AcDbSymbolTableRecord
100
AcDbBlockTableRecord
  2
*Model_Space
340
22
  0
BLOCK_RECORD
  5
1B
330
1
100
AcDbSymbolTableRecord
100
AcDbBlockTableRecord
  2
*Paper_Space
340
1E
  0
BLOCK_RECORD
  5
23
330
1
100
AcDbSymbolTableRecord
100
AcDbBlockTableRecord
  2
*Paper_Space0
340
26
  0
ENDTAB
  0
ENDSEC
  0
SECTION
  2
BLOCKS
  0
BLOCK
  5
20
330
1F
100
AcDbEntity
  8
0
100
AcDbBlockBegin
  2
*Model_Space
 70
     0
 10
0.0
 20
0.0
 30
0.0
  3
*Model_Space
  1

  0
ENDBLK
  5
21
330
1F
100
AcDbEntity
  8
0
100
AcDbBlockEnd
  0
BLOCK
  5
1C
330
1B
100
AcDbEntity
 67
     1
  8
0
100
AcDbBlockBegin
  2
*Paper_Space
 70
     0
 10
0.0
 20
0.0
 30
0.0
  3
*Paper_Space
  1

  0
ENDBLK
  5
1D
330
1B
100
AcDbEntity
 67
     1
  8
0
100
AcDbBlockEnd
  0
BLOCK
  5
24
330
23
100
AcDbEntity
  8
0
100
AcDbBlockBegin
  2
*Paper_Space0
 70
     0
 10
0.0
 20
0.0
 30
0.0
  3
*Paper_Space0
  1

  0
ENDBLK
  5
25
330
23
100
AcDbEntity
  8
0
100
AcDbBlockEnd
  0
ENDSEC
  0
SECTION
  2
ENTITIES
  0
LINE
  5
4F
330
1F
100
AcDbEntity
  8
D-5
  6
Continuous
 62
     2
370
     5
100
AcDbLine
 10
-1204.462206041491
 20
-985.8478113122887
 30
0.0
 11
-1204.462206041491
 21
-920.8482773239548
 31
0.0
  0
LINE
  5
50
330
1F
100
AcDbEntity
  8
D-5
  6
Continuous
 62
     2
370
     5
100
AcDbLine
 10
-1204.462206041491
 20
-920.8482773239548
 30
0.0
 11
-629.4617936417862
 21
-920.8482773239548
 31
0.0
  0
LINE
  5
51
330
1F
100
AcDbEntity
  8
D-5
  6
Continuous
 62
     2
370
     5
100
AcDbLine
 10
-629.4617936417862
 20
-920.8482773239548
 30
0.0
 11
-629.4617936417862
 21
-985.8478113122887
 31
0.0
  0
LINE
  5
52
330
1F
100
AcDbEntity
  8
D-5
  6
Continuous
 62
     2
370
     5
100
AcDbLine
 10
-629.4617936417862
 20
-985.8478113122887
 30
0.0
 11
-1204.462206041491
 21
-985.8478113122887
 31
0.0
  0
LINE
  5
53
330
1F
100
AcDbEntity
  8
D-5
  6
Continuous
 62
     2
370
     5
100
AcDbLine
 10
262.2055466110643
 20
-339.9062780431798
 30
0.0
 11
37.20604149070965
 21
-339.9062780431798
 31
0.0
  0
LINE
  5
54
330
1F
100
AcDbEntity
  8
D-5
  6
Continuous
 62
     2
370
     5
100
AcDbLine
 10
262.2055466110643
 20
-289.9054944837416
 30
0.0
 11
262.2055466110643
 21
-339.9062780431798
 31
0.0
  0
LINE
  5
55
330
1F
100
AcDbEntity
  8
D-5
  6
Continuous
 62
     2
370
     5
100
AcDbLine
 10
37.20604149070965
 20
-289.9054944837416
 30
0.0
 11
262.2055466110643
 21
-289.9054944837416
 31
0.0
  0
LINE
  5
56
330
1F
100
AcDbEntity
  8
D-5
  6
Continuous
 62
     2
370
     5
100
AcDbLine
 10
37.20604149070965
 20
-339.9062780431798
 30
0.0
 11
37.20604149070965
 21
-289.9054944837416
 31
0.0
  0
LINE
  5
57
330
1F
100
AcDbEntity
  8
D-4
  6
Continuous
 62
     7
370
     5
100
AcDbLine
 10
-1435.135815594647
 20
47.96170621304896
 30
0.0
 11
-697.4676596151814
 21
47.96170621304896
 31
0.0
  0
LINE
  5
58
330
1F
100
AcDbEntity
  8
D-4
  6
Continuous
 62
     7
370
     5
100
AcDbLine
 10
-1435.135815594647
 20
-171.4864864864865
 30
0.0
 11
-862.4674616633234
 21
-171.4864864864865
 31
0.0
  0
LINE
  5
59
330
1F
100
AcDbEntity
  8
D-4
  6
Continuous
 62
     7
370
     5
100
AcDbLine
 10
-862.4674616633234
 20
-276.9497928103884
 30
0.0
 11
-862.4674616633234
 21
-168.4857837573901
 31
0.0
  0
LINE
  5
5A
330
1F
100
AcDbEntity
  8
D-4
  6
Continuous
 62
     7
370
     5
100
AcDbLine
 10
-862.4674616633234
 20
-171.4864864864865
 30
0.0
 11
-737.4668018237963
 21
-171.4864864864865
 31
0.0
  0
LINE
  5
5B
330
1F
100
AcDbEntity
  8
D-4
  6
Continuous
 62
     7
370
     5
100
AcDbLine
 10
-737.4668018237963
 20
-276.9497928103884
 30
0.0
 11
-737.4668018237963
 21
-59.7344970703125
 31
0.0
  0
LINE
  5
5C
330
1F
100
AcDbEntity
  8
D-4
  6
Continuous
 62
     7
370
     5
100
AcDbLine
 10
-732.4665378879856
 20
-276.9497928103884
 30
0.0
 11
-732.4665378879856
 21
-59.7344970703125
 31
0.0
  0
LINE
  5
5D
330
1F
100
AcDbEntity
  8
D-4
  6
Continuous
 62
     7
370
     5
100
AcDbLine
 10
-697.4676596151814
 20
-276.9497928103884
 30
0.0
 11
-697.4676596151814
 21
50.96216150232266
 31
0.0
  0
LINE
  5
5E
330
1F
100
AcDbEntity
  8
D-5
  6
Continuous
 62
     7
370
     5
100
AcDbLine
 10
-565.1932587494721
 20
-126.9943319784628
 30
0.0
 11
-75.85676038587394
 21
-126.9943319784628
 31
0.0
  0
LINE
  5
5F
330
1F
100
AcDbEntity
  8
D-6
  6
Continuous
 62
     6
370
     5
100
AcDbLine
 10
-312.4676266232052
 20
-439.9057419235642
 30
0.0
 11
-462.4676266232052
 21
-439.9057419235642
 31
0.0
  0
LINE
  5
60
330
1F
100
AcDbEntity
  8
D-6
  6
Continuous
 62
     6
370
     5
100
AcDbLine
 10
-419.2893775733739
 20
-439.9057419235642
 30
0.0
 11
-462.4676266232052
 21
-483.0822588946367
 31
0.0
  0
LINE
  5
61
330
1F
100
AcDbEntity
  8
D-6
  6
Continuous
 62
     6
370
     5
100
AcDbLine
 10
-412.2190320813976
 20
-439.9057419235642
 30
0.0
 11
-462.4676266232052
 21
-490.1545839051943
 31
0.0
  0
LINE
  5
62
330
1F
100
AcDbEntity
  8
D-6
  6
Continuous
 62
     6
370
     5
100
AcDbLine
 10
-405.1476968301307
 20
-439.9057419235642
 30
0.0
 11
-462.4676266232052
 21
-497.2254242768159
 31
0.0
  0
LINE
  5
63
330
1F
100
AcDbEntity
  8
D-6
  6
Continuous
 62
     6
370
     5
100
AcDbLine
 10
-862.4674616633234
 20
-489.9059068834458
 30
0.0
 11
-862.4674616633234
 21
-789.9054120038006
 31
0.0
  0
LINE
  5
64
330
1F
100
AcDbEntity
  8
D-4
  6
Continuous
 62
     7
370
     5
100
AcDbLine
 10
-190.7826604069888
 20
-589.9057419235642
 30
0.0
 11
-190.7826604069888
 21
-289.9054944837416
 31
0.0
  0
LINE
  5
65
330
1F
100
AcDbEntity
  8
D-4
  6
Continuous
 62
     7
370
     5
100
AcDbLine
 10
-292.1038240999789
 20
-289.9054944837416
 30
0.0
 11
-187.7826999973604
 21
-289.9054944837416
 31
0.0
  0
LINE
  5
66
330
1F
100
AcDbEntity
  8
D-4
  6
Continuous
 62
     7
370
     5
100
AcDbLine
 10
-862.4674616633234
 20
-695.524440456081
 30
0.0
 11
-712.4674616633234
 21
-695.524440456081
 31
0.0
  0
LINE
  5
67
330
1F
100
AcDbEntity
  8
D-6
  6
Continuous
 62
     6
370
     5
100
AcDbLine
 10
-712.4674616633234
 20
-589.9052470439188
 30
0.0
 11
-712.4674616633234
 21
-789.9054120038006
 31
0.0
  0
LINE
  5
68
330
1F
100
AcDbEntity
  8
D-6
  6
Continuous
 62
     6
370
     5
100
AcDbLine
 10
-712.4674616633234
 20
-589.9052470439188
 30
0.0
 11
-462.4676266232052
 21
-589.9052470439188
 31
0.0
  0
LINE
  5
69
330
1F
100
AcDbEntity
  8
D-6
  6
Continuous
 62
     6
370
     5
100
AcDbLine
 10
-697.4676596151814
 20
-785.0550966005068
 30
0.0
 11
-502.3173151789484
 21
-589.9052470439188
 31
0.0
  0
LINE
  5
6A
330
1F
100
AcDbEntity
  8
D-6
  6
Continuous
 62
     6
370
     5
100
AcDbLine
 10
-697.4676596151814
 20
-770.9139107369087
 30
0.0
 11
-516.458006162901
 21
-589.9052470439188
 31
0.0
  0
LINE
  5
6B
330
1F
100
AcDbEntity
  8
D-6
  6
Continuous
 62
     6
370
     5
100
AcDbLine
 10
-697.4676596151814
 20
-777.9817818306587
 30
0.0
 11
-509.3906299487963
 21
-589.9052470439188
 31
0.0
  0
LINE
  5
6C
330
1F
100
AcDbEntity
  8
D-6
  6
Continuous
 62
     6
370
     5
100
AcDbLine
 10
-462.4676266232052
 20
-439.9057419235642
 30
0.0
 11
-462.4676266232052
 21
-589.9052470439188
 31
0.0
  0
LINE
  5
6D
330
1F
100
AcDbEntity
  8
D-4
  6
Continuous
 62
     7
370
     5
100
AcDbLine
 10
-1435.135815594647
 20
-62.73396260029557
 30
0.0
 11
-697.4676596151814
 21
-62.73396260029557
 31
0.0
  0
LINE
  5
6E
330
1F
100
AcDbEntity
  8
D-4
  6
Continuous
 62
     7
370
     5
100
AcDbLine
 10
-862.4674616633234
 20
-849.988749736064
 30
0.0
 11
-462.4666368639146
 21
-849.988749736064
 31
0.0
  0
LINE
  5
6F
330
1F
100
AcDbEntity
  8
D-4
  6
Continuous
 62
     7
370
     5
100
AcDbLine
 10
-862.4674616633234
 20
-814.9057419235642
 30
0.0
 11
-862.4674616633234
 21
-852.9884627058699
 31
0.0
  0
LINE
  5
70
330
1F
100
AcDbEntity
  8
D-4
  6
Continuous
 62
     7
370
     5
100
AcDbLine
 10
-462.4666368639146
 20
-622.5801705025337
 30
0.0
 11
-462.4666368639146
 21
-852.9884627058699
 31
0.0
  0
LINE
  5
71
330
1F
100
AcDbEntity
  8
D-4
  6
Continuous
 62
     7
370
     5
100
AcDbLine
 10
-425.3283938846073
 20
-589.9057419235642
 30
0.0
 11
-187.7826999973604
 21
-589.9057419235642
 31
0.0
  0
LINE
  5
72
330
1F
100
AcDbEntity
  8
D-6
  6
Continuous
 62
     6
370
     5
100
AcDbLine
 10
-639.967593631229
 20
-342.4132146062077
 30
0.0
 11
-594.9667028478675
 21
-342.4132146062077
 31
0.0
  0
LINE
  5
73
330
1F
100
AcDbEntity
  8
D-6
  6
JWW_CENTER2
 62
     6
370
     5
100
AcDbLine
 10
-617.4673956793706
 20
-338.3334268105996
 30
0.0
 11
-617.4673956793706
 21
-717.4127197265625
 31
0.0
  0
LINE
  5
74
330
1F
100
AcDbEntity
  8
D-4
  6
Continuous
 62
     7
370
     5
100
AcDbLine
 10
-479.4167595940667
 20
-484.9036634290541
 30
0.0
 11
-479.4167595940667
 21
-384.9055604676942
 31
0.0
  0
LINE
  5
75
330
1F
100
AcDbEntity
  8
D-4
  6
Continuous
 62
     7
370
     5
100
AcDbLine
 10
-479.4167595940667
 20
-384.9055604676942
 30
0.0
 11
-479.4167595940667
 21
-289.9124227987753
 31
0.0
  0
LINE
  5
76
330
1F
100
AcDbEntity
  8
D-4
  6
Continuous
 62
     7
370
     5
100
AcDbLine
 10
-565.806414629962
 20
-384.9055604676942
 30
0.0
 11
-476.4172940640836
 21
-384.9055604676942
 31
0.0
  0
LINE
  5
77
330
1F
100
AcDbEntity
  8
D-4
  6
Continuous
 62
     7
370
     5
100
AcDbLine
 10
-697.4666698558908
 20
-497.6480514938767
 30
0.0
 11
-697.4666698558908
 21
-566.0226028029983
 31
0.0
  0
LINE
  5
78
330
1F
100
AcDbEntity
  8
D-4
  6
Continuous
 62
     7
370
     5
100
AcDbLine
 10
-568.9657262853675
 20
-497.6480514938767
 30
0.0
 11
-568.9657262853675
 21
-566.0226028029983
 31
0.0
  0
LINE
  5
79
330
1F
100
AcDbEntity
  8
D-4
  6
Continuous
 62
     7
370
     5
100
AcDbLine
 10
-810.783221270587
 20
-563.0221475137246
 30
0.0
 11
-568.9657262853675
 21
-563.0221475137246
 31
0.0
  0
LINE
  5
7A
330
1F
100
AcDbEntity
  8
D-4
  6
Continuous
 62
     7
370
     5
100
AcDbLine
 10
-557.3706961966849
 20
-484.9036634290541
 30
0.0
 11
-476.4172940640836
 21
-484.9036634290541
 31
0.0
  0
LINE
  5
7B
330
1F
100
AcDbEntity
  8
D-4
  6
Continuous
 62
     7
370
     5
100
AcDbLine
 10
-557.3706961966849
 20
-384.9055604676942
 30
0.0
 11
-476.4172940640836
 21
-384.9055604676942
 31
0.0
  0
LINE
  5
7C
330
1F
100
AcDbEntity
  8
D-6
  6
JWW_DASHED3
 62
     6
370
     5
100
AcDbLine
 10
-639.967593631229
 20
-717.4127197265625
 30
0.0
 11
-639.967593631229
 21
-589.9052470439188
 31
0.0
  0
LINE
  5
7D
330
1F
100
AcDbEntity
  8
D-6
  6
JWW_DASHED3
 62
     6
370
     5
100
AcDbLine
 10
-594.9667028478675
 20
-589.9052470439188
 30
0.0
 11
-594.9667028478675
 21
-717.4127197265625
 31
0.0
  0
LINE
  5
7E
330
1F
100
AcDbEntity
  8
D-5
  6
Continuous
 62
     7
370
     5
100
AcDbLine
 10
-556.358172442462
 20
-238.9598619615708
 30
0.0
 11
-169.6567432300463
 21
-238.9598619615708
 31
0.0
  0
LINE
  5
7F
330
1F
100
AcDbEntity
  8
D-5
  6
Continuous
 62
     7
370
     5
100
AcDbLine
 10
-571.0367976008234
 20
-181.856689453125
 30
0.0
 11
-311.6540444863807
 21
-181.856689453125
 31
0.0
  0
LINE
  5
80
330
1F
100
AcDbEntity
  8
D-5
  6
Continuous
 62
     7
370
     5
100
AcDbLine
 10
-796.5920525628167
 20
-441.0070965741131
 30
0.0
 11
-782.7804565429688
 21
-420.1687044710725
 31
0.0
  0
LINE
  5
81
330
1F
100
AcDbEntity
  8
D-5
  6
Continuous
 62
     7
370
     5
100
AcDbLine
 10
-796.5920525628167
 20
-441.0070965741131
 30
0.0
 11
-777.8583835911106
 21
-424.4528775601773
 31
0.0
  0
LINE
  5
82
330
1F
100
AcDbEntity
  8
D-5
  6
Continuous
 62
     7
370
     5
100
AcDbLine
 10
-709.4185081688133
 20
-292.7013170396958
 30
0.0
 11
-695.6074070286106
 21
-271.8629249366553
 31
0.0
  0
LINE
  5
83
330
1F
100
AcDbEntity
  8
D-5
  6
Continuous
 62
     7
370
     5
100
AcDbLine
 10
-709.4185081688133
 20
-292.7013170396958
 30
0.0
 11
-690.6848391971073
 21
-276.1473454655827
 31
0.0
  0
LINE
  5
84
330
1F
100
AcDbEntity
  8
D-5
  6
Continuous
 62
     7
370
     5
100
AcDbLine
 10
-684.7631093618031
 20
-386.4891753325591
 30
0.0
 11
-670.9515133419552
 21
-365.6507832295185
 31
0.0
  0
LINE
  5
85
330
1F
100
AcDbEntity
  8
D-5
  6
Continuous
 62
     7
370
     5
100
AcDbLine
 10
-684.7631093618031
 20
-386.4891753325591
 30
0.0
 11
-666.0284506308064
 21
-369.9354511982685
 31
0.0
  0
LINE
  5
86
330
1F
100
AcDbEntity
  8
D-5
  6
Continuous
 62
     7
370
     5
100
AcDbLine
 10
-565.1932587494721
 20
-126.9943319784628
 30
0.0
 11
-709.4185081688133
 21
-292.7013170396958
 31
0.0
  0
LINE
  5
87
330
1F
100
AcDbEntity
  8
D-5
  6
Continuous
 62
     7
370
     5
100
AcDbLine
 10
-571.0367976008234
 20
-181.856689453125
 30
0.0
 11
-796.5920525628167
 21
-441.0070965741131
 31
0.0
  0
LINE
  5
88
330
1F
100
AcDbEntity
  8
D-5
  6
Continuous
 62
     7
370
     5
100
AcDbLine
 10
-684.7631093618031
 20
-386.4891753325591
 30
0.0
 11
-556.358172442462
 21
-238.9598619615708
 31
0.0
  0
LINE
  5
89
330
1F
100
AcDbEntity
  8
D-1
  6
Continuous
 62
     2
370
     5
100
AcDbLine
 10
-707.4671977275125
 20
-301.1555934596706
 30
0.0
 11
-722.4674946552998
 21
-301.1555934596706
 31
0.0
  0
LINE
  5
8A
330
1F
100
AcDbEntity
  8
D-1
  6
Continuous
 62
     2
370
     5
100
AcDbLine
 10
-707.4671977275125
 20
-457.4054284997888
 30
0.0
 11
-707.4671977275125
 21
-481.1551975559543
 31
0.0
  0
LINE
  5
8B
330
1F
100
AcDbEntity
  8
D-1
  6
Continuous
 62
     2
370
     5
100
AcDbLine
 10
-707.4671977275125
 20
-301.1555934596706
 30
0.0
 11
-707.4671977275125
 21
-324.9056099556587
 31
0.0
  0
LINE
  5
8C
330
1F
100
AcDbEntity
  8
D-1
  6
Continuous
 62
     2
370
     5
100
AcDbLine
 10
-732.467527647276
 20
-444.905263539907
 30
0.0
 11
-766.2173296954179
 21
-444.905263539907
 31
0.0
  0
LINE
  5
8D
330
1F
100
AcDbEntity
  8
D-1
  6
Continuous
 62
     2
370
     5
100
AcDbLine
 10
-732.467527647276
 20
-457.4054284997888
 30
0.0
 11
-732.467527647276
 21
-479.9056264516469
 31
0.0
  0
LINE
  5
8E
330
1F
100
AcDbEntity
  8
D-1
  6
Continuous
 62
     2
370
     5
100
AcDbLine
 10
-790.96774539432
 20
-491.4051447687922
 30
0.0
 11
-790.96774539432
 21
-492.4057914115286
 31
0.0
  0
LINE
  5
8F
330
1F
100
AcDbEntity
  8
D-1
  6
Continuous
 62
     2
370
     5
100
AcDbLine
 10
-790.96774539432
 20
-491.4051447687922
 30
0.0
 11
-793.9672109243031
 21
-491.4051447687922
 31
0.0
  0
LINE
  5
90
330
1F
100
AcDbEntity
  8
D-1
  6
Continuous
 62
     2
370
     5
100
AcDbLine
 10
-793.9672109243031
 20
-491.4051447687922
 30
0.0
 11
-793.9672109243031
 21
-492.4057914115286
 31
0.0
  0
LINE
  5
91
330
1F
100
AcDbEntity
  8
D-1
  6
Continuous
 62
     2
370
     5
100
AcDbLine
 10
-790.96774539432
 20
-484.9053955078125
 30
0.0
 11
-790.96774539432
 21
-485.9055472709036
 31
0.0
  0
LINE
  5
92
330
1F
100
AcDbEntity
  8
D-1
  6
Continuous
 62
     2
370
     5
100
AcDbLine
 10
-793.9672109243031
 20
-485.9055472709036
 30
0.0
 11
-790.96774539432
 21
-485.9055472709036
 31
0.0
  0
LINE
  5
93
330
1F
100
AcDbEntity
  8
D-1
  6
Continuous
 62
     2
370
     5
100
AcDbLine
 10
-849.9672967034417
 20
-450.4056033572634
 30
0.0
 11
-847.4671647355362
 21
-453.1554021062077
 31
0.0
  0
LINE
  5
94
330
1F
100
AcDbEntity
  8
D-1
  6
Continuous
 62
     2
370
     5
100
AcDbLine
 10
-847.4671647355362
 20
-455.6555340741131
 30
0.0
 11
-849.9672967034417
 21
-458.4055802628801
 31
0.0
  0
LINE
  5
95
330
1F
100
AcDbEntity
  8
D-1
  6
Continuous
 62
     2
370
     5
100
AcDbLine
 10
-847.4671647355362
 20
-453.1554021062077
 30
0.0
 11
-847.4671647355362
 21
-455.6555340741131
 31
0.0
  0
LINE
  5
96
330
1F
100
AcDbEntity
  8
D-1
  6
Continuous
 62
     2
370
     5
100
AcDbLine
 10
-849.9672967034417
 20
-458.4055802628801
 30
0.0
 11
-847.4671647355362
 21
-461.1556264516469
 31
0.0
  0
LINE
  5
97
330
1F
100
AcDbEntity
  8
D-1
  6
Continuous
 62
     2
370
     5
100
AcDbLine
 10
-847.4671647355362
 20
-463.655263539907
 30
0.0
 11
-849.9672967034417
 21
-466.405309728674
 31
0.0
  0
LINE
  5
98
330
1F
100
AcDbEntity
  8
D-1
  6
Continuous
 62
     2
370
     5
100
AcDbLine
 10
-847.4671647355362
 20
-461.1556264516469
 30
0.0
 11
-847.4671647355362
 21
-463.655263539907
 31
0.0
  0
LINE
  5
99
330
1F
100
AcDbEntity
  8
D-1
  6
Continuous
 62
     2
370
     5
100
AcDbLine
 10
-849.9672967034417
 20
-466.405309728674
 30
0.0
 11
-847.4671647355362
 21
-469.1556033572634
 31
0.0
  0
LINE
  5
9A
330
1F
100
AcDbEntity
  8
D-1
  6
Continuous
 62
     2
370
     5
100
AcDbLine
 10
-847.4671647355362
 20
-471.6552404455235
 30
0.0
 11
-849.9672967034417
 21
-474.4055340741131
 31
0.0
  0
LINE
  5
9B
330
1F
100
AcDbEntity
  8
D-1
  6
Continuous
 62
     2
370
     5
100
AcDbLine
 10
-847.4671647355362
 20
-469.1556033572634
 30
0.0
 11
-847.4671647355362
 21
-471.6552404455235
 31
0.0
  0
LINE
  5
9C
330
1F
100
AcDbEntity
  8
D-1
  6
Continuous
 62
     2
370
     5
100
AcDbLine
 10
-847.4671647355362
 20
-447.655309728674
 30
0.0
 11
-849.9672967034417
 21
-450.4056033572634
 31
0.0
  0
LINE
  5
9D
330
1F
100
AcDbEntity
  8
D-1
  6
Continuous
 62
     2
370
     5
100
AcDbLine
 10
-829.967230719489
 20
-444.905263539907
 30
0.0
 11
-832.4673626873944
 21
-447.655309728674
 31
0.0
  0
LINE
  5
9E
330
1F
100
AcDbEntity
  8
D-1
  6
Continuous
 62
     2
370
     5
100
AcDbLine
 10
-832.4673626873944
 20
-450.1554416965793
 30
0.0
 11
-829.967230719489
 21
-452.9054878853462
 31
0.0
  0
LINE
  5
9F
330
1F
100
AcDbEntity
  8
D-1
  6
Continuous
 62
     2
370
     5
100
AcDbLine
 10
-832.4673626873944
 20
-447.655309728674
 30
0.0
 11
-832.4673626873944
 21
-450.1554416965793
 31
0.0
  0
LINE
  5
A0
330
1F
100
AcDbEntity
  8
D-1
  6
Continuous
 62
     2
370
     5
100
AcDbLine
 10
-829.967230719489
 20
-452.9054878853462
 30
0.0
 11
-832.4673626873944
 21
-455.6555340741131
 31
0.0
  0
LINE
  5
A1
330
1F
100
AcDbEntity
  8
D-1
  6
Continuous
 62
     2
370
     5
100
AcDbLine
 10
-832.4673626873944
 20
-458.1556660420185
 30
0.0
 11
-829.967230719489
 21
-460.9052173511401
 31
0.0
  0
LINE
  5
A2
330
1F
100
AcDbEntity
  8
D-1
  6
Continuous
 62
     2
370
     5
100
AcDbLine
 10
-832.4673626873944
 20
-455.6555340741131
 30
0.0
 11
-832.4673626873944
 21
-458.1556660420185
 31
0.0
  0
LINE
  5
A3
330
1F
100
AcDbEntity
  8
D-1
  6
Continuous
 62
     2
370
     5
100
AcDbLine
 10
-829.967230719489
 20
-460.9052173511401
 30
0.0
 11
-832.4673626873944
 21
-463.655263539907
 31
0.0
  0
LINE
  5
A4
330
1F
100
AcDbEntity
  8
D-1
  6
Continuous
 62
     2
370
     5
100
AcDbLine
 10
-832.4673626873944
 20
-466.1553955078125
 30
0.0
 11
-829.967230719489
 21
-468.9054416965793
 31
0.0
  0
LINE
  5
A5
330
1F
100
AcDbEntity
  8
D-1
  6
Continuous
 62
     2
370
     5
100
AcDbLine
 10
-832.4673626873944
 20
-463.655263539907
 30
0.0
 11
-832.4673626873944
 21
-466.1553955078125
 31
0.0
  0
LINE
  5
A6
330
1F
100
AcDbEntity
  8
D-1
  6
Continuous
 62
     2
370
     5
100
AcDbLine
 10
-829.967230719489
 20
-468.9054416965793
 30
0.0
 11
-832.4673626873944
 21
-471.6552404455235
 31
0.0
  0
LINE
  5
A7
330
1F
100
AcDbEntity
  8
D-1
  6
Continuous
 62
     2
370
     5
100
AcDbLine
 10
-832.4673626873944
 20
-474.1556198532517
 30
0.0
 11
-829.967230719489
 21
-476.9051711623733
 31
0.0
  0
LINE
  5
A8
330
1F
100
AcDbEntity
  8
D-1
  6
Continuous
 62
     2
370
     5
100
AcDbLine
 10
-832.4673626873944
 20
-471.6552404455235
 30
0.0
 11
-832.4673626873944
 21
-474.1556198532517
 31
0.0
  0
LINE
  5
A9
330
1F
100
AcDbEntity
  8
D-1
  6
Continuous
 62
     2
370
     5
100
AcDbLine
 10
-829.967230719489
 20
-476.9051711623733
 30
0.0
 11
-836.2175606392525
 21
-476.9051711623733
 31
0.0
  0
LINE
  5
AA
330
1F
100
AcDbEntity
  8
D-1
  6
Continuous
 62
     2
370
     5
100
AcDbLine
 10
-836.2175606392525
 20
-476.9051711623733
 30
0.0
 11
-836.2175606392525
 21
-484.9053955078125
 31
0.0
  0
LINE
  5
AB
330
1F
100
AcDbEntity
  8
D-1
  6
Continuous
 62
     2
370
     5
100
AcDbLine
 10
-843.7169667836781
 20
-476.9051711623733
 30
0.0
 11
-847.6948093723605
 21
-476.9051711623733
 31
0.0
  0
LINE
  5
AC
330
1F
100
AcDbEntity
  8
D-1
  6
Continuous
 62
     2
370
     5
100
AcDbLine
 10
-849.9672967034417
 20
-474.4055340741131
 30
0.0
 11
-847.6948093723605
 21
-476.9051711623733
 31
0.0
  0
LINE
  5
AD
330
1F
100
AcDbEntity
  8
D-1
  6
Continuous
 62
     2
370
     5
100
AcDbLine
 10
-843.7169667836781
 20
-484.9053955078125
 30
0.0
 11
-836.2175606392525
 21
-484.9053955078125
 31
0.0
  0
LINE
  5
AE
330
1F
100
AcDbEntity
  8
D-1
  6
Continuous
 62
     2
370
     5
100
AcDbLine
 10
-843.7169667836781
 20
-476.9051711623733
 30
0.0
 11
-843.7169667836781
 21
-484.9053955078125
 31
0.0
  0
LINE
  5
AF
330
1F
100
AcDbEntity
  8
D-1
  6
Continuous
 62
     2
370
     5
100
AcDbLine
 10
-818.7171317435599
 20
-444.905263539907
 30
0.0
 11
-829.967230719489
 21
-444.905263539907
 31
0.0
  0
LINE
  5
B0
330
1F
100
AcDbEntity
  8
D-1
  6
Continuous
 62
     2
370
     5
100
AcDbLine
 10
-818.7171317435599
 20
-452.4056594436233
 30
0.0
 11
-824.9669667836781
 21
-452.4056594436233
 31
0.0
  0
LINE
  5
B1
330
1F
100
AcDbEntity
  8
D-1
  6
Continuous
 62
     2
370
     5
100
AcDbLine
 10
-759.9674946552998
 20
-452.4056594436233
 30
0.0
 11
-766.2173296954179
 21
-452.4056594436233
 31
0.0
  0
LINE
  5
B2
330
1F
100
AcDbEntity
  8
D-1
  6
Continuous
 62
     2
370
     5
100
AcDbLine
 10
-707.4671977275125
 20
-481.1551975559543
 30
0.0
 11
-722.4674946552998
 21
-481.1551975559543
 31
0.0
  0
LINE
  5
B3
330
1F
100
AcDbEntity
  8
D-1
  6
Continuous
 62
     2
370
     5
100
AcDbLine
 10
-722.4674946552998
 20
-301.1555934596706
 30
0.0
 11
-722.4674946552998
 21
-481.1551975559543
 31
0.0
  0
LINE
  5
B4
330
1F
100
AcDbEntity
  8
D-1
  6
Continuous
 62
     2
370
     5
100
AcDbLine
 10
-793.9672109243031
 20
-484.9053955078125
 30
0.0
 11
-793.9672109243031
 21
-485.9050523912583
 31
0.0
  0
LINE
  5
B5
330
1F
100
AcDbEntity
  8
D-1
  6
Continuous
 62
     2
370
     5
100
AcDbLine
 10
-697.4671647355362
 20
-291.4057221283782
 30
0.0
 11
-697.4671647355362
 21
-324.9056099556587
 31
0.0
  0
LINE
  5
B6
330
1F
100
AcDbEntity
  8
D-1
  6
Continuous
 62
     2
370
     5
100
AcDbLine
 10
-730.9670525628167
 20
-289.9054944837416
 30
0.0
 11
-698.9676398199958
 21
-289.9054944837416
 31
0.0
  0
LINE
  5
B7
330
1F
100
AcDbEntity
  8
D-1
  6
Continuous
 62
     2
370
     5
100
AcDbLine
 10
-732.467527647276
 20
-291.4057221283782
 30
0.0
 11
-732.467527647276
 21
-444.905263539907
 31
0.0
  0
LINE
  5
B8
330
1F
100
AcDbEntity
  8
D-1
  6
Continuous
 62
     2
370
     5
100
AcDbLine
 10
-697.4671647355362
 20
-490.9053163270693
 30
0.0
 11
-697.4671647355362
 21
-457.4054284997888
 31
0.0
  0
LINE
  5
B9
330
1F
100
AcDbEntity
  8
D-1
  6
Continuous
 62
     2
370
     5
100
AcDbLine
 10
-860.9674814585093
 20
-492.4057914115286
 30
0.0
 11
-793.9672109243031
 21
-492.4057914115286
 31
0.0
  0
LINE
  5
BA
330
1F
100
AcDbEntity
  8
D-1
  6
Continuous
 62
     2
370
     5
100
AcDbLine
 10
-848.9666500607052
 20
-444.905263539907
 30
0.0
 11
-858.4673494906037
 21
-444.905263539907
 31
0.0
  0
LINE
  5
BB
330
1F
100
AcDbEntity
  8
D-1
  6
Continuous
 62
     2
370
     5
100
AcDbLine
 10
-847.4671647355362
 20
-446.4052437447212
 30
0.0
 11
-847.4671647355362
 21
-447.655309728674
 31
0.0
  0
LINE
  5
BC
330
1F
100
AcDbEntity
  8
D-1
  6
Continuous
 62
     2
370
     5
100
AcDbLine
 10
-858.4673494906037
 20
-440.9056462468327
 30
0.0
 11
-858.4673494906037
 21
-444.905263539907
 31
0.0
  0
LINE
  5
BD
330
1F
100
AcDbEntity
  8
D-1
  6
Continuous
 62
     2
370
     5
100
AcDbLine
 10
-862.4669667836781
 20
-440.9056462468327
 30
0.0
 11
-858.4673494906037
 21
-440.9056462468327
 31
0.0
  0
LINE
  5
BE
330
1F
100
AcDbEntity
  8
D-1
  6
Continuous
 62
     2
370
     5
100
AcDbLine
 10
-862.4669667836781
 20
-440.9056462468327
 30
0.0
 11
-862.4669667836781
 21
-490.9053163270693
 31
0.0
  0
LINE
  5
BF
330
1F
100
AcDbEntity
  8
D-1
  6
Continuous
 62
     2
370
     5
100
AcDbLine
 10
-749.9669667836781
 20
-484.9053955078125
 30
0.0
 11
-737.4672967034417
 21
-484.9053955078125
 31
0.0
  0
LINE
  5
C0
330
1F
100
AcDbEntity
  8
D-1
  6
Continuous
 62
     2
370
     5
100
AcDbLine
 10
-754.9672307194891
 20
-457.4054284997888
 30
0.0
 11
-754.9672307194891
 21
-479.9056264516469
 31
0.0
  0
LINE
  5
C1
330
1F
100
AcDbEntity
  8
D-1
  6
Continuous
 62
     2
370
     5
100
AcDbLine
 10
-749.9669667836781
 20
-452.4056594436233
 30
0.0
 11
-737.4672967034417
 21
-452.4056594436233
 31
0.0
  0
LINE
  5
C2
330
1F
100
AcDbEntity
  8
D-1
  6
Continuous
 62
     2
370
     5
100
AcDbLine
 10
-759.9674946552998
 20
-479.9056264516469
 30
0.0
 11
-759.9674946552998
 21
-452.4056594436233
 31
0.0
  0
LINE
  5
C3
330
1F
100
AcDbEntity
  8
D-1
  6
Continuous
 62
     2
370
     5
100
AcDbLine
 10
-764.9677585911106
 20
-484.9053955078125
 30
0.0
 11
-790.96774539432
 21
-484.9053955078125
 31
0.0
  0
LINE
  5
C4
330
1F
100
AcDbEntity
  8
D-1
  6
Continuous
 62
     2
370
     5
100
AcDbLine
 10
-819.9671977275125
 20
-484.9053955078125
 30
0.0
 11
-793.9672109243031
 21
-484.9053955078125
 31
0.0
  0
LINE
  5
C5
330
1F
100
AcDbEntity
  8
D-1
  6
Continuous
 62
     2
370
     5
100
AcDbLine
 10
-824.9669667836781
 20
-479.9056264516469
 30
0.0
 11
-824.9669667836781
 21
-452.4056594436233
 31
0.0
  0
LINE
  5
C6
330
1F
100
AcDbEntity
  8
D-1
  6
Continuous
 62
     2
370
     5
100
AcDbLine
 10
-698.9676398199958
 20
-492.4052965318833
 30
0.0
 11
-790.96774539432
 21
-492.4052965318833
 31
0.0
  0
LINE
  5
C7
330
1F
100
AcDbEntity
  8
D-9
  6
Continuous
 62
     4
370
     5
100
AcDbLine
 10
-777.4674286713471
 20
-444.905263539907
 30
0.0
 11
-807.4670327676307
 21
-444.905263539907
 31
0.0
  0
LINE
  5
C8
330
1F
100
AcDbEntity
  8
D-9
  6
Continuous
 62
     4
370
     5
100
AcDbLine
 10
-852.467428671347
 20
-439.9054944837416
 30
0.0
 11
-852.467428671347
 21
-444.905263539907
 31
0.0
  0
LINE
  5
C9
330
1F
100
AcDbEntity
  8
D-9
  6
Continuous
 62
     4
370
     5
100
AcDbLine
 10
-732.467527647276
 20
-439.9054944837416
 30
0.0
 11
-852.467428671347
 21
-439.9054944837416
 31
0.0
  0
LINE
  5
CA
330
1F
100
AcDbEntity
  8
D-9
  6
Continuous
 62
     4
370
     5
100
AcDbLine
 10
-732.467527647276
 20
-439.9054944837416
 30
0.0
 11
-732.467527647276
 21
-444.905263539907
 31
0.0
  0
LINE
  5
CB
330
1F
100
AcDbEntity
  8
D-9
  6
Continuous
 62
     4
370
     5
100
AcDbLine
 10
-732.467527647276
 20
-444.905263539907
 30
0.0
 11
-771.2170987515835
 21
-444.905263539907
 31
0.0
  0
LINE
  5
CC
330
1F
100
AcDbEntity
  8
D-9
  6
Continuous
 62
     4
370
     5
100
AcDbLine
 10
-813.7173626873943
 20
-444.905263539907
 30
0.0
 11
-852.467428671347
 21
-444.905263539907
 31
0.0
  0
LINE
  5
CD
330
1F
100
AcDbEntity
  8
D-9
  6
Continuous
 62
     4
370
     5
100
AcDbLine
 10
-813.7173626873943
 20
-444.905263539907
 30
0.0
 11
-813.7173626873943
 21
-457.4054284997888
 31
0.0
  0
LINE
  5
CE
330
1F
100
AcDbEntity
  8
D-9
  6
Continuous
 62
     4
370
     5
100
AcDbLine
 10
-761.4669799804688
 20
-457.4054284997888
 30
0.0
 11
-771.2170987515835
 21
-457.4054284997888
 31
0.0
  0
LINE
  5
CF
330
1F
100
AcDbEntity
  8
D-9
  6
Continuous
 62
     4
370
     5
100
AcDbLine
 10
-771.2170987515835
 20
-444.905263539907
 30
0.0
 11
-771.2170987515835
 21
-457.4054284997888
 31
0.0
  0
LINE
  5
D0
330
1F
100
AcDbEntity
  8
D-9
  6
Continuous
 62
     4
370
     5
100
AcDbLine
 10
-813.7173626873943
 20
-457.4054284997888
 30
0.0
 11
-823.4674814585093
 21
-457.4054284997888
 31
0.0
  0
LINE
  5
D1
330
1F
100
AcDbEntity
  8
D-9
  6
Continuous
 62
     4
370
     5
100
AcDbLine
 10
-777.4674286713471
 20
-444.905263539907
 30
0.0
 11
-777.4674286713471
 21
-461.4490900812922
 31
0.0
  0
LINE
  5
D2
330
1F
100
AcDbEntity
  8
D-9
  6
Continuous
 62
     4
370
     5
100
AcDbLine
 10
-807.4670327676307
 20
-444.905263539907
 30
0.0
 11
-807.4670327676307
 21
-461.4490900812922
 31
0.0
  0
LINE
  5
D3
330
1F
100
AcDbEntity
  8
D-9
  6
Continuous
 62
     4
370
     5
100
AcDbLine
 10
-823.4674814585093
 20
-457.4054284997888
 30
0.0
 11
-823.4674814585093
 21
-462.4051975559543
 31
0.0
  0
LINE
  5
D4
330
1F
100
AcDbEntity
  8
D-9
  6
Continuous
 62
     4
370
     5
100
AcDbLine
 10
-761.4669799804688
 20
-457.4054284997888
 30
0.0
 11
-761.4669799804688
 21
-462.4051975559543
 31
0.0
  0
LINE
  5
D5
330
1F
100
AcDbEntity
  8
D-A
  6
Continuous
 62
     3
370
     5
100
AcDbLine
 10
-722.4665048960092
 20
-396.1623403188344
 30
0.0
 11
-719.9683524466849
 21
-393.6622083509291
 31
0.0
  0
LINE
  5
D6
330
1F
100
AcDbEntity
  8
D-A
  6
Continuous
 62
     3
370
     5
100
AcDbLine
 10
-568.9686955632391
 20
-396.155164563978
 30
0.0
 11
-568.9657262853675
 21
-486.1534819731841
 31
0.0
  0
LINE
  5
D7
330
1F
100
AcDbEntity
  8
D-A
  6
JWW_DASHED1
 62
     3
370
     5
100
AcDbLine
 10
-688.966617068729
 20
-474.6544585356841
 30
0.0
 11
-568.9657262853675
 21
-474.6544585356841
 31
0.0
  0
LINE
  5
D8
330
1F
100
AcDbEntity
  8
D-A
  6
Continuous
 62
     3
370
     5
100
AcDbLine
 10
-688.966617068729
 20
-486.1534819731841
 30
0.0
 11
-568.9657262853675
 21
-486.1534819731841
 31
0.0
  0
LINE
  5
D9
330
1F
100
AcDbEntity
  8
D-A
  6
Continuous
 62
     3
370
     5
100
AcDbLine
 10
-688.966617068729
 20
-448.6559563714104
 30
0.0
 11
-688.9681017076646
 21
-486.1562038112331
 31
0.0
  0
LINE
  5
DA
330
1F
100
AcDbEntity
  8
D-A
  6
Continuous
 62
     3
370
     5
100
AcDbLine
 10
-692.4678905590158
 20
-421.1624227987753
 30
0.0
 11
-692.4678905590158
 21
-386.1625547666807
 31
0.0
  0
LINE
  5
DB
330
1F
100
AcDbEntity
  8
D-A
  6
Continuous
 62
     3
370
     5
100
AcDbLine
 10
-692.4678905590158
 20
-386.1625547666807
 30
0.0
 11
-685.9691310573269
 21
-386.1625547666807
 31
0.0
  0
LINE
  5
DC
330
1F
100
AcDbEntity
  8
D-A
  6
Continuous
 62
     3
370
     5
100
AcDbLine
 10
-679.4688869167019
 20
-392.6642835462416
 30
0.0
 11
-679.4688869167019
 21
-414.6631684174409
 31
0.0
  0
LINE
  5
DD
330
1F
100
AcDbEntity
  8
D-A
  6
Continuous
 62
     3
370
     5
100
AcDbLine
 10
-685.9691310573269
 20
-421.1624227987753
 30
0.0
 11
-692.4678905590158
 21
-421.1624227987753
 31
0.0
  0
LINE
  5
DE
330
1F
100
AcDbEntity
  8
D-A
  6
Continuous
 62
     3
370
     5
100
AcDbLine
 10
-719.9683524466849
 20
-413.6632640941723
 30
0.0
 11
-719.9683524466849
 21
-393.6622083509291
 31
0.0
  0
LINE
  5
DF
330
1F
100
AcDbEntity
  8
D-A
  6
Continuous
 62
     3
370
     5
100
AcDbLine
 10
-722.4665048960092
 20
-396.1623403188344
 30
0.0
 11
-722.4665048960092
 21
-411.1628846864442
 31
0.0
  0
LINE
  5
E0
330
1F
100
AcDbEntity
  8
D-A
  6
JWW_CENTER1
 62
     3
370
     5
100
AcDbLine
 10
-726.0766519082557
 20
-403.662488782728
 30
0.0
 11
-690.2834918047929
 21
-403.662488782728
 31
0.0
  0
LINE
  5
E1
330
1F
100
AcDbEntity
  8
D-A
  6
Continuous
 62
     3
370
     5
100
AcDbLine
 10
-718.9657262853675
 20
-481.1551975559543
 30
0.0
 11
-718.9657262853675
 21
-301.1555934596706
 31
0.0
  0
LINE
  5
E2
330
1F
100
AcDbEntity
  8
D-A
  6
Continuous
 62
     3
370
     5
100
AcDbLine
 10
-718.9657262853675
 20
-481.1551975559543
 30
0.0
 11
-707.4671977275125
 21
-481.1551975559543
 31
0.0
  0
LINE
  5
E3
330
1F
100
AcDbEntity
  8
D-A
  6
Continuous
 62
     3
370
     5
100
AcDbLine
 10
-718.9657262853675
 20
-301.1555934596706
 30
0.0
 11
-707.4671977275125
 21
-301.1555934596706
 31
0.0
  0
LINE
  5
E4
330
1F
100
AcDbEntity
  8
D-A
  6
Continuous
 62
     3
370
     5
100
AcDbLine
 10
-707.4671977275125
 20
-301.1555934596706
 30
0.0
 11
-707.4671977275125
 21
-481.1551975559543
 31
0.0
  0
LINE
  5
E5
330
1F
100
AcDbEntity
  8
D-A
  6
Continuous
 62
     3
370
     5
100
AcDbLine
 10
-718.9657262853675
 20
-396.1623403188344
 30
0.0
 11
-722.4665048960092
 21
-396.1623403188344
 31
0.0
  0
LINE
  5
E6
330
1F
100
AcDbEntity
  8
D-A
  6
Continuous
 62
     3
370
     5
100
AcDbLine
 10
-718.9657262853675
 20
-393.6622083509291
 30
0.0
 11
-719.9683524466849
 21
-393.6622083509291
 31
0.0
  0
LINE
  5
E7
330
1F
100
AcDbEntity
  8
D-A
  6
Continuous
 62
     3
370
     5
100
AcDbLine
 10
-718.9657262853675
 20
-411.1628846864442
 30
0.0
 11
-722.4655151367188
 21
-411.1628846864442
 31
0.0
  0
LINE
  5
E8
330
1F
100
AcDbEntity
  8
D-A
  6
Continuous
 62
     3
370
     5
100
AcDbLine
 10
-722.4665048960092
 20
-411.1628846864442
 30
0.0
 11
-719.9683524466849
 21
-413.6632640941723
 31
0.0
  0
LINE
  5
E9
330
1F
100
AcDbEntity
  8
D-A
  6
Continuous
 62
     3
370
     5
100
AcDbLine
 10
-718.9657262853675
 20
-413.6632640941723
 30
0.0
 11
-719.9683524466849
 21
-413.6632640941723
 31
0.0
  0
LINE
  5
EA
330
1F
100
AcDbEntity
  8
D-A
  6
Continuous
 62
     3
370
     5
100
AcDbLine
 10
-578.9622951198269
 20
-386.1558738914695
 30
0.0
 11
-707.4671977275125
 21
-386.1538943728884
 31
0.0
  0
LINE
  5
EB
330
1F
100
AcDbEntity
  8
D-A
  6
Continuous
 62
     3
370
     5
100
AcDbLine
 10
-707.4671977275125
 20
-438.6554284997888
 30
0.0
 11
-698.9661551810599
 21
-438.6564182590793
 31
0.0
  0
LINE
  5
EC
330
1F
100
AcDbEntity
  8
D-A
  6
Continuous
 62
     3
370
     5
100
AcDbLine
 10
-707.4671977275125
 20
-413.6632640941723
 30
0.0
 11
-692.4678905590158
 21
-413.6632640941723
 31
0.0
  0
LINE
  5
ED
330
1F
100
AcDbEntity
  8
D-A
  6
Continuous
 62
     3
370
     5
100
AcDbLine
 10
-707.4671977275125
 20
-411.1628846864442
 30
0.0
 11
-692.4678905590158
 21
-411.1628846864442
 31
0.0
  0
LINE
  5
EE
330
1F
100
AcDbEntity
  8
D-A
  6
Continuous
 62
     3
370
     5
100
AcDbLine
 10
-707.4671977275125
 20
-396.1623403188344
 30
0.0
 11
-692.4678905590158
 21
-396.1623403188344
 31
0.0
  0
LINE
  5
EF
330
1F
100
AcDbEntity
  8
D-A
  6
Continuous
 62
     3
370
     5
100
AcDbLine
 10
-707.4671977275125
 20
-393.6622083509291
 30
0.0
 11
-692.4678905590158
 21
-393.6622083509291
 31
0.0
  0
LINE
  5
F0
330
1F
100
AcDbEntity
  8
D-6
  6
Continuous
 62
     6
370
     5
100
AcDbLine
 10
-698.9676398199958
 20
-289.9054944837416
 30
0.0
 11
-297.4668348157726
 21
-289.9054944837416
 31
0.0
  0
LINE
  5
F1
330
1F
100
AcDbEntity
  8
D-4
  6
Continuous
 62
     7
370
     5
100
AcDbLine
 10
-939.1178852802998
 20
-492.4057914115286
 30
0.0
 11
-939.1178852802998
 21
-289.9054944837416
 31
0.0
  0
LINE
  5
F2
330
1F
100
AcDbEntity
  8
D-4
  6
Continuous
 62
     7
370
     5
100
AcDbLine
 10
-881.8286380252322
 20
-492.4057914115286
 30
0.0
 11
-942.1178456899281
 21
-492.4057914115286
 31
0.0
  0
LINE
  5
F3
330
1F
100
AcDbEntity
  8
D-4
  6
Continuous
 62
     7
370
     5
100
AcDbLine
 10
-881.8286380252322
 20
-289.9054944837416
 30
0.0
 11
-942.1178456899281
 21
-289.9054944837416
 31
0.0
  0
LINE
  5
F4
330
1F
100
AcDbEntity
  8
D-6
  6
Continuous
 62
     6
370
     5
100
AcDbLine
 10
-639.967593631229
 20
-386.1548841321791
 30
0.0
 11
-639.967593631229
 21
-342.4132146062077
 31
0.0
  0
LINE
  5
F5
330
1F
100
AcDbEntity
  8
D-6
  6
Continuous
 62
     6
370
     5
100
AcDbLine
 10
-594.9667028478675
 20
-386.1556264516469
 30
0.0
 11
-594.9667028478675
 21
-342.4132146062077
 31
0.0
  0
LINE
  5
F6
330
1F
100
AcDbEntity
  8
D-6
  6
Continuous
 62
     6
370
     5
100
AcDbLine
 10
-639.967593631229
 20
-589.9052470439188
 30
0.0
 11
-639.967593631229
 21
-486.1534819731841
 31
0.0
  0
LINE
  5
F7
330
1F
100
AcDbEntity
  8
D-6
  6
Continuous
 62
     6
370
     5
100
AcDbLine
 10
-594.9667028478675
 20
-589.9052470439188
 30
0.0
 11
-594.9667028478675
 21
-486.1534819731841
 31
0.0
  0
LINE
  5
F8
330
1F
100
AcDbEntity
  8
D-5
  6
Continuous
 62
     7
370
     5
100
AcDbLine
 10
-612.9445668813344
 20
-61.15950300886823
 30
0.0
 11
-810.4568481445312
 21
-289.9054944837416
 31
0.0
  0
LINE
  5
F9
330
1F
100
AcDbEntity
  8
D-5
  6
Continuous
 62
     7
370
     5
100
AcDbLine
 10
-810.4568481445312
 20
-289.9054944837416
 30
0.0
 11
-796.7288867847338
 21
-269.0125418998099
 31
0.0
  0
LINE
  5
FA
330
1F
100
AcDbEntity
  8
D-5
  6
Continuous
 62
     7
370
     5
100
AcDbLine
 10
-810.4568481445312
 20
-289.9054944837416
 30
0.0
 11
-791.788998165646
 21
-273.2775384026604
 31
0.0
  0
LINE
  5
FB
330
1F
100
AcDbEntity
  8
D-6
  6
Continuous
 62
     6
370
     5
100
AcDbLine
 10
-1237.46622446421
 20
-336.6212669578758
 30
0.0
 11
-1209.182862977724
 21
-364.9066079629433
 31
0.0
  0
LINE
  5
FC
330
1F
100
AcDbEntity
  8
D-6
  6
Continuous
 62
     6
370
     5
100
AcDbLine
 10
-1209.182862977724
 20
-364.9066079629433
 30
0.0
 11
-1237.46622446421
 21
-393.1899694494298
 31
0.0
  0
LINE
  5
FD
330
1F
100
AcDbEntity
  8
D-6
  6
Continuous
 62
     6
370
     5
100
AcDbLine
 10
-1237.46622446421
 20
-393.1899694494298
 30
0.0
 11
-1265.749585950697
 21
-364.9066079629433
 31
0.0
  0
LINE
  5
FE
330
1F
100
AcDbEntity
  8
D-2
  6
Continuous
 62
     3
370
     5
100
AcDbLine
 10
-1216.216463656039
 20
-343.6569708746832
 30
0.0
 11
-1216.216463656039
 21
-357.8718938054265
 31
0.0
  0
LINE
  5
FF
330
1F
100
AcDbEntity
  8
D-2
  6
Continuous
 62
     3
370
     5
100
AcDbLine
 10
-1216.216463656039
 20
-371.9402086412583
 30
0.0
 11
-1216.216463656039
 21
-386.1562450512035
 31
0.0
  0
LINE
  5
100
330
1F
100
AcDbEntity
  8
D-2
  6
Continuous
 62
     3
370
     5
100
AcDbLine
 10
-1258.715366672825
 20
-386.1562450512035
 30
0.0
 11
-1258.715366672825
 21
-371.9402086412583
 31
0.0
  0
LINE
  5
101
330
1F
100
AcDbEntity
  8
D-2
  6
Continuous
 62
     3
370
     5
100
AcDbLine
 10
-1258.715366672825
 20
-357.8728835647171
 30
0.0
 11
-1258.715366672825
 21
-343.6569708746832
 31
0.0
  0
LINE
  5
102
330
1F
100
AcDbEntity
  8
D-2
  6
Continuous
 62
     3
370
     5
100
AcDbLine
 10
-1216.216463656039
 20
-386.1562450512035
 30
0.0
 11
-1230.432500065984
 21
-386.1562450512035
 31
0.0
  0
LINE
  5
103
330
1F
100
AcDbEntity
  8
D-2
  6
Continuous
 62
     3
370
     5
100
AcDbLine
 10
-1244.499825142525
 20
-386.1562450512035
 30
0.0
 11
-1258.715366672825
 21
-386.1562450512035
 31
0.0
  0
LINE
  5
104
330
1F
100
AcDbEntity
  8
D-2
  6
Continuous
 62
     3
370
     5
100
AcDbLine
 10
-1258.715366672825
 20
-343.6569708746832
 30
0.0
 11
-1244.501309781461
 21
-343.6569708746832
 31
0.0
  0
LINE
  5
105
330
1F
100
AcDbEntity
  8
D-2
  6
Continuous
 62
     3
370
     5
100
AcDbLine
 10
-1230.431510306693
 20
-343.6569708746832
 30
0.0
 11
-1216.216463656039
 21
-343.6569708746832
 31
0.0
  0
LINE
  5
106
330
1F
100
AcDbEntity
  8
D-3
  6
Continuous
 62
     2
370
     5
100
AcDbLine
 10
-737.4668018237963
 20
-289.9054944837416
 30
0.0
 11
-752.4670987515835
 21
-289.9054944837416
 31
0.0
  0
LINE
  5
107
330
1F
100
AcDbEntity
  8
D-3
  6
Continuous
 62
     2
370
     5
100
AcDbLine
 10
-752.4670987515835
 20
-319.9070780986063
 30
0.0
 11
-757.4678575670396
 21
-319.9070780986063
 31
0.0
  0
LINE
  5
108
330
1F
100
AcDbEntity
  8
D-3
  6
Continuous
 62
     2
370
     5
100
AcDbLine
 10
-737.4668018237963
 20
-439.9077214421452
 30
0.0
 11
-752.4670987515835
 21
-439.9077214421452
 31
0.0
  0
LINE
  5
109
330
1F
100
AcDbEntity
  8
D-3
  6
Continuous
 62
     2
370
     5
100
AcDbLine
 10
-752.4670987515835
 20
-439.9077214421452
 30
0.0
 11
-752.4670987515835
 21
-409.9070038666596
 31
0.0
  0
LINE
  5
10A
330
1F
100
AcDbEntity
  8
D-3
  6
Continuous
 62
     2
370
     5
100
AcDbLine
 10
-752.4670987515835
 20
-409.9070038666596
 30
0.0
 11
-757.4678575670396
 21
-409.9070038666596
 31
0.0
  0
LINE
  5
10B
330
1F
100
AcDbEntity
  8
D-3
  6
Continuous
 62
     2
370
     5
100
AcDbLine
 10
-770.4011659364443
 20
-333.5047623917862
 30
0.0
 11
-757.4678575670396
 21
-319.9070780986063
 31
0.0
  0
LINE
  5
10C
330
1F
100
AcDbEntity
  8
D-3
  6
Continuous
 62
     2
370
     5
100
AcDbLine
 10
-772.4661749762458
 20
-391.1396830790751
 30
0.0
 11
-772.4661749762458
 21
-338.6745226061021
 31
0.0
  0
LINE
  5
10D
330
1F
100
AcDbEntity
  8
D-3
  6
Continuous
 62
     2
370
     5
100
AcDbLine
 10
-770.4011659364443
 20
-396.3089484137457
 30
0.0
 11
-757.4678575670396
 21
-409.9070038666596
 31
0.0
  0
LINE
  5
10E
330
1F
100
AcDbEntity
  8
D-3
  6
Continuous
 62
     2
370
     5
100
AcDbLine
 10
-752.4670987515835
 20
-289.9054944837416
 30
0.0
 11
-752.4670987515835
 21
-319.9070780986063
 31
0.0
  0
LINE
  5
10F
330
1F
100
AcDbEntity
  8
D-3
  6
Continuous
 62
     2
370
     5
100
AcDbLine
 10
-764.9657790725294
 20
-391.1436421162372
 30
0.0
 11
-764.9657790725294
 21
-338.6704398490286
 31
0.0
  0
LINE
  5
110
330
1F
100
AcDbEntity
  8
D-3
  6
Continuous
 62
     2
370
     5
100
AcDbLine
 10
-764.9657790725294
 20
-338.6704398490286
 30
0.0
 11
-745.3339035446578
 21
-327.3362113334036
 31
0.0
  0
LINE
  5
111
330
1F
100
AcDbEntity
  8
D-3
  6
Continuous
 62
     2
370
     5
100
AcDbLine
 10
-737.4668018237963
 20
-314.9068141627956
 30
0.0
 11
-745.3339035446578
 21
-327.3362113334036
 31
0.0
  0
LINE
  5
112
330
1F
100
AcDbEntity
  8
D-3
  6
Continuous
 62
     2
370
     5
100
AcDbLine
 10
-737.4668018237963
 20
-314.9068141627956
 30
0.0
 11
-737.4668018237963
 21
-289.9054944837416
 31
0.0
  0
LINE
  5
113
330
1F
100
AcDbEntity
  8
D-3
  6
Continuous
 62
     2
370
     5
100
AcDbLine
 10
-764.9657790725294
 20
-391.1426523569468
 30
0.0
 11
-745.3339035446578
 21
-402.4779943517735
 31
0.0
  0
LINE
  5
114
330
1F
100
AcDbEntity
  8
D-3
  6
Continuous
 62
     2
370
     5
100
AcDbLine
 10
-737.4668018237963
 20
-414.9062780431798
 30
0.0
 11
-745.3339035446578
 21
-402.4779943517735
 31
0.0
  0
LINE
  5
115
330
1F
100
AcDbEntity
  8
D-3
  6
Continuous
 62
     2
370
     5
100
AcDbLine
 10
-737.4668018237963
 20
-414.9062780431798
 30
0.0
 11
-737.4668018237963
 21
-439.9077214421452
 31
0.0
  0
LINE
  5
116
330
1F
100
AcDbEntity
  8
D-2
  6
Continuous
 62
     3
370
     5
100
AcDbLine
 10
-752.4670987515835
 20
-289.9054944837416
 30
0.0
 11
-752.4670987515835
 21
-319.9070780986063
 31
0.0
  0
LINE
  5
117
330
1F
100
AcDbEntity
  8
D-2
  6
Continuous
 62
     3
370
     5
100
AcDbLine
 10
-752.4670987515835
 20
-409.9070038666596
 30
0.0
 11
-752.4670987515835
 21
-439.9057419235642
 31
0.0
  0
LINE
  5
118
330
1F
100
AcDbEntity
  8
D-2
  6
Continuous
 62
     3
370
     5
100
AcDbLine
 10
-758.4786492425042
 20
-377.4052882838893
 30
0.0
 11
-752.4670987515835
 21
-377.4052882838893
 31
0.0
  0
LINE
  5
119
330
1F
100
AcDbEntity
  8
D-2
  6
Continuous
 62
     3
370
     5
100
AcDbLine
 10
-758.4786492425042
 20
-389.9049583641258
 30
0.0
 11
-752.4670987515835
 21
-389.9049583641258
 31
0.0
  0
LINE
  5
11A
330
1F
100
AcDbEntity
  8
D-2
  6
Continuous
 62
     3
370
     5
100
AcDbLine
 10
-758.4786492425042
 20
-352.4059481234162
 30
0.0
 11
-752.4670987515835
 21
-352.4059481234162
 31
0.0
  0
LINE
  5
11B
330
1F
100
AcDbEntity
  8
D-2
  6
Continuous
 62
     3
370
     5
100
AcDbLine
 10
-758.4786492425042
 20
-339.9052882838893
 30
0.0
 11
-752.4670987515835
 21
-339.9052882838893
 31
0.0
  0
LINE
  5
11C
330
1F
100
AcDbEntity
  8
D-2
  6
Continuous
 62
     3
370
     5
100
AcDbLine
 10
-752.4670987515835
 20
-352.4059481234162
 30
0.0
 11
-752.4670987515835
 21
-377.4052882838893
 31
0.0
  0
LINE
  5
11D
330
1F
100
AcDbEntity
  8
D-2
  6
Continuous
 62
     3
370
     5
100
AcDbLine
 10
-752.4670987515835
 20
-331.4533625422297
 30
0.0
 11
-752.4670987515835
 21
-339.9052882838893
 31
0.0
  0
LINE
  5
11E
330
1F
100
AcDbEntity
  8
D-2
  6
Continuous
 62
     3
370
     5
100
AcDbLine
 10
-752.4670987515835
 20
-389.9049583641258
 30
0.0
 11
-752.4670987515835
 21
-398.3601008234797
 31
0.0
  0
LINE
  5
11F
330
1F
100
AcDbEntity
  8
D-6
  6
Continuous
 62
     6
370
     5
100
AcDbLine
 10
-1265.749585950697
 20
-364.9066079629433
 30
0.0
 11
-1237.467214223501
 21
-336.6212669578758
 31
0.0
  0
LINE
  5
120
330
1F
100
AcDbEntity
  8
D-2
  6
Continuous
 62
     3
370
     5
100
AcDbLine
 10
-752.4670987515835
 20
-319.9048511402026
 30
0.0
 11
-1435.135506294869
 21
-319.9048511402026
 31
0.0
  0
LINE
  5
121
330
1F
100
AcDbEntity
  8
D-2
  6
Continuous
 62
     3
370
     5
100
AcDbLine
 10
-752.4670987515835
 20
-409.9057666675463
 30
0.0
 11
-1435.135506294869
 21
-409.9057666675463
 31
0.0
  0
LINE
  5
122
330
1F
100
AcDbEntity
  8
D-2
  6
Continuous
 62
     3
370
     5
100
AcDbLine
 10
-752.4670987515835
 20
-439.9057419235642
 30
0.0
 11
-1435.135506294869
 21
-439.9057419235642
 31
0.0
  0
LINE
  5
123
330
1F
100
AcDbEntity
  8
D-2
  6
Continuous
 62
     3
370
     5
100
AcDbLine
 10
-1435.135506294869
 20
-497.613904798353
 30
0.0
 11
-1435.135506294869
 21
-220.9927615603884
 31
0.0
  0
LINE
  5
124
330
1F
100
AcDbEntity
  8
D-4
  6
Continuous
 62
     7
370
     5
100
AcDbLine
 10
-1296.500788508235
 20
-439.9057419235642
 30
0.0
 11
-1296.500788508235
 21
-289.9054944837416
 31
0.0
  0
LINE
  5
125
330
1F
100
AcDbEntity
  8
D-2
  6
Continuous
 62
     3
370
     5
100
AcDbLine
 10
-752.4670987515835
 20
-289.9054944837416
 30
0.0
 11
-1435.135506294869
 21
-289.9054944837416
 31
0.0
  0
LINE
  5
126
330
1F
100
AcDbEntity
  8
D-2
  6
Continuous
 62
     3
370
     5
100
AcDbLine
 10
-1435.135506294869
 20
-429.9052140519426
 30
0.0
 11
-752.4670987515835
 21
-429.9052140519426
 31
0.0
  0
LINE
  5
127
330
1F
100
AcDbEntity
  8
D-2
  6
Continuous
 62
     3
370
     5
100
AcDbLine
 10
-1435.135506294869
 20
-299.9055274757178
 30
0.0
 11
-752.4670987515835
 21
-299.9055274757178
 31
0.0
  0
LINE
  5
128
330
1F
100
AcDbEntity
  8
D-5
  6
Continuous
 62
     7
370
     5
100
AcDbLine
 10
-612.9445668813344
 20
-61.15950300886823
 30
0.0
 11
140.5992662584461
 21
-61.15950300886823
 31
0.0
  0
LINE
  5
129
330
1F
100
AcDbEntity
  8
C-5
  6
Continuous
 62
     7
370
     5
100
AcDbLine
 10
-689.189189189189
 20
387.9729729729732
 30
0.0
 11
-689.189189189189
 21
452.9725688212628
 31
0.0
  0
LINE
  5
12A
330
1F
100
AcDbEntity
  8
C-5
  6
Continuous
 62
     7
370
     5
100
AcDbLine
 10
-689.189189189189
 20
452.9725688212628
 30
0.0
 11
-114.188529349662
 21
452.9725688212628
 31
0.0
  0
LINE
  5
12B
330
1F
100
AcDbEntity
  8
C-5
  6
Continuous
 62
     7
370
     5
100
AcDbLine
 10
-114.188529349662
 20
452.9725688212628
 30
0.0
 11
-114.188529349662
 21
387.9729729729732
 31
0.0
  0
LINE
  5
12C
330
1F
100
AcDbEntity
  8
C-5
  6
Continuous
 62
     7
370
     5
100
AcDbLine
 10
-114.188529349662
 20
387.9729729729732
 30
0.0
 11
-689.189189189189
 21
387.9729729729732
 31
0.0
  0
LINE
  5
12D
330
1F
100
AcDbEntity
  8
C-5
  6
Continuous
 62
     7
370
     5
100
AcDbLine
 10
-530.8680353937922
 20
565.7635580526818
 30
0.0
 11
-330.8676229940878
 21
565.7635580526818
 31
0.0
  0
LINE
  5
12E
330
1F
100
AcDbEntity
  8
C-5
  6
Continuous
 62
     7
370
     5
100
AcDbLine
 10
-330.8676229940878
 20
565.7635580526818
 30
0.0
 11
-330.8676229940878
 21
639.2305446315459
 31
0.0
  0
LINE
  5
12F
330
1F
100
AcDbEntity
  8
C-5
  6
Continuous
 62
     7
370
     5
100
AcDbLine
 10
-330.8676229940878
 20
639.2305446315459
 30
0.0
 11
-310.8682993296028
 21
589.2288950327281
 31
0.0
  0
LINE
  5
130
330
1F
100
AcDbEntity
  8
C-5
  6
Continuous
 62
     7
370
     5
100
AcDbLine
 10
-310.8682993296028
 20
589.2288950327281
 30
0.0
 11
-341.1337775153081
 21
589.2288950327281
 31
0.0
  0
LINE
  5
131
330
1F
100
AcDbEntity
  8
C-6
  6
Continuous
 62
     6
370
     5
100
AcDbLine
 10
-577.5379077808276
 20
810.9174078864021
 30
0.0
 11
-561.5375828098606
 21
810.9174078864021
 31
0.0
  0
LINE
  5
132
330
1F
100
AcDbEntity
  8
C-6
  6
Continuous
 62
     6
370
     5
100
AcDbLine
 10
-577.5379077808276
 20
799.6039643158783
 30
0.0
 11
-561.5375828098606
 21
799.6039643158783
 31
0.0
  0
LINE
  5
133
330
1F
100
AcDbEntity
  8
C-6
  6
Continuous
 62
     6
370
     5
100
AcDbLine
 10
-577.5379077808276
 20
805.2611809807856
 30
0.0
 11
-561.5375828098606
 21
805.2611809807856
 31
0.0
  0
LINE
  5
134
330
1F
100
AcDbEntity
  8
C-6
  6
Continuous
 62
     6
370
     5
100
AcDbLine
 10
-555.5382805901604
 20
810.9174078864021
 30
0.0
 11
-531.5379787135769
 21
810.9174078864021
 31
0.0
  0
LINE
  5
135
330
1F
100
AcDbEntity
  8
C-6
  6
Continuous
 62
     6
370
     5
100
AcDbLine
 10
-555.5382805901604
 20
799.6039643158783
 30
0.0
 11
-531.5379787135769
 21
799.6039643158783
 31
0.0
  0
LINE
  5
136
330
1F
100
AcDbEntity
  8
C-6
  6
Continuous
 62
     6
370
     5
100
AcDbLine
 10
-555.5382805901604
 20
805.2611809807856
 30
0.0
 11
-531.5379787135769
 21
805.2611809807856
 31
0.0
  0
LINE
  5
137
330
1F
100
AcDbEntity
  8
C-6
  6
Continuous
 62
     6
370
     5
100
AcDbLine
 10
-525.5378104544974
 20
810.9174078864021
 30
0.0
 11
-501.5382508973818
 21
810.9174078864021
 31
0.0
  0
LINE
  5
138
330
1F
100
AcDbEntity
  8
C-6
  6
Continuous
 62
     6
370
     5
100
AcDbLine
 10
-525.5378104544974
 20
799.6039643158783
 30
0.0
 11
-501.5382508973818
 21
799.6039643158783
 31
0.0
  0
LINE
  5
139
330
1F
100
AcDbEntity
  8
C-6
  6
Continuous
 62
     6
370
     5
100
AcDbLine
 10
-525.5378104544974
 20
805.2611809807856
 30
0.0
 11
-501.5382508973818
 21
805.2611809807856
 31
0.0
  0
LINE
  5
13A
330
1F
100
AcDbEntity
  8
C-6
  6
Continuous
 62
     6
370
     5
100
AcDbLine
 10
-495.5382063582135
 20
810.9174078864021
 30
0.0
 11
-471.5386468010979
 21
810.9174078864021
 31
0.0
  0
LINE
  5
13B
330
1F
100
AcDbEntity
  8
C-6
  6
Continuous
 62
     6
370
     5
100
AcDbLine
 10
-495.5382063582135
 20
799.6039643158783
 30
0.0
 11
-471.5386468010979
 21
799.6039643158783
 31
0.0
  0
LINE
  5
13C
330
1F
100
AcDbEntity
  8
C-6
  6
Continuous
 62
     6
370
     5
100
AcDbLine
 10
-495.5382063582135
 20
805.2611809807856
 30
0.0
 11
-471.5386468010979
 21
805.2611809807856
 31
0.0
  0
LINE
  5
13D
330
1F
100
AcDbEntity
  8
C-6
  6
Continuous
 62
     6
370
     5
100
AcDbLine
 10
-465.5383548221073
 20
810.9174078864021
 30
0.0
 11
-441.5380529455234
 21
810.9174078864021
 31
0.0
  0
LINE
  5
13E
330
1F
100
AcDbEntity
  8
C-6
  6
Continuous
 62
     6
370
     5
100
AcDbLine
 10
-465.5383548221073
 20
799.6039643158783
 30
0.0
 11
-441.5380529455234
 21
799.6039643158783
 31
0.0
  0
LINE
  5
13F
330
1F
100
AcDbEntity
  8
C-6
  6
Continuous
 62
     6
370
     5
100
AcDbLine
 10
-465.5383548221073
 20
805.2611809807856
 30
0.0
 11
-441.5380529455234
 21
805.2611809807856
 31
0.0
  0
LINE
  5
140
330
1F
100
AcDbEntity
  8
C-6
  6
Continuous
 62
     6
370
     5
100
AcDbLine
 10
-435.5378846864443
 20
810.9174078864021
 30
0.0
 11
-411.5374590899492
 21
810.9174078864021
 31
0.0
  0
LINE
  5
141
330
1F
100
AcDbEntity
  8
C-6
  6
Continuous
 62
     6
370
     5
100
AcDbLine
 10
-435.5378846864443
 20
799.6039643158783
 30
0.0
 11
-411.5374590899492
 21
799.6039643158783
 31
0.0
  0
LINE
  5
142
330
1F
100
AcDbEntity
  8
C-6
  6
Continuous
 62
     6
370
     5
100
AcDbLine
 10
-435.5378846864443
 20
805.2611809807856
 30
0.0
 11
-411.5374590899492
 21
805.2611809807856
 31
0.0
  0
LINE
  5
143
330
1F
100
AcDbEntity
  8
C-6
  6
Continuous
 62
     6
370
     5
100
AcDbLine
 10
-405.5382805901604
 20
810.9174078864021
 30
0.0
 11
-381.5376075538427
 21
810.9174078864021
 31
0.0
  0
LINE
  5
144
330
1F
100
AcDbEntity
  8
C-6
  6
Continuous
 62
     6
370
     5
100
AcDbLine
 10
-405.5382805901604
 20
799.6039643158783
 30
0.0
 11
-381.5376075538427
 21
799.6039643158783
 31
0.0
  0
LINE
  5
145
330
1F
100
AcDbEntity
  8
C-6
  6
Continuous
 62
     6
370
     5
100
AcDbLine
 10
-405.5382805901604
 20
805.2611809807856
 30
0.0
 11
-381.5376075538427
 21
805.2611809807856
 31
0.0
  0
LINE
  5
146
330
1F
100
AcDbEntity
  8
C-6
  6
Continuous
 62
     6
370
     5
100
AcDbLine
 10
-375.5386764938766
 20
810.9174078864021
 30
0.0
 11
-351.5381271774703
 21
810.9174078864021
 31
0.0
  0
LINE
  5
147
330
1F
100
AcDbEntity
  8
C-6
  6
Continuous
 62
     6
370
     5
100
AcDbLine
 10
-375.5386764938766
 20
799.6039643158783
 30
0.0
 11
-351.5381271774703
 21
799.6039643158783
 31
0.0
  0
LINE
  5
148
330
1F
100
AcDbEntity
  8
C-6
  6
Continuous
 62
     6
370
     5
100
AcDbLine
 10
-375.5386764938766
 20
805.2611809807856
 30
0.0
 11
-351.5381271774703
 21
805.2611809807856
 31
0.0
  0
LINE
  5
149
330
1F
100
AcDbEntity
  8
C-6
  6
Continuous
 62
     6
370
     5
100
AcDbLine
 10
-345.5390723975927
 20
810.9174078864021
 30
0.0
 11
-321.5386468010979
 21
810.9174078864021
 31
0.0
  0
LINE
  5
14A
330
1F
100
AcDbEntity
  8
C-6
  6
Continuous
 62
     6
370
     5
100
AcDbLine
 10
-345.5390723975927
 20
799.6039643158783
 30
0.0
 11
-321.5386468010979
 21
799.6039643158783
 31
0.0
  0
LINE
  5
14B
330
1F
100
AcDbEntity
  8
C-6
  6
Continuous
 62
     6
370
     5
100
AcDbLine
 10
-345.5390723975927
 20
805.2611809807856
 30
0.0
 11
-321.5386468010979
 21
805.2611809807856
 31
0.0
  0
LINE
  5
14C
330
1F
100
AcDbEntity
  8
C-6
  6
Continuous
 62
     6
370
     5
100
AcDbLine
 10
-315.5384785420185
 20
810.9174078864021
 30
0.0
 11
-291.5390427048141
 21
810.9174078864021
 31
0.0
  0
LINE
  5
14D
330
1F
100
AcDbEntity
  8
C-6
  6
Continuous
 62
     6
370
     5
100
AcDbLine
 10
-315.5384785420185
 20
799.6039643158783
 30
0.0
 11
-291.5390427048141
 21
799.6039643158783
 31
0.0
  0
LINE
  5
14E
330
1F
100
AcDbEntity
  8
C-6
  6
Continuous
 62
     6
370
     5
100
AcDbLine
 10
-315.5384785420185
 20
805.2611809807856
 30
0.0
 11
-291.5390427048141
 21
805.2611809807856
 31
0.0
  0
LINE
  5
14F
330
1F
100
AcDbEntity
  8
C-6
  6
Continuous
 62
     6
370
     5
100
AcDbLine
 10
-285.5378846864443
 20
810.9174078864021
 30
0.0
 11
-261.5383251293284
 21
810.9174078864021
 31
0.0
  0
LINE
  5
150
330
1F
100
AcDbEntity
  8
C-6
  6
Continuous
 62
     6
370
     5
100
AcDbLine
 10
-285.5378846864443
 20
799.6039643158783
 30
0.0
 11
-261.5383251293284
 21
799.6039643158783
 31
0.0
  0
LINE
  5
151
330
1F
100
AcDbEntity
  8
C-6
  6
Continuous
 62
     6
370
     5
100
AcDbLine
 10
-285.5378846864443
 20
805.2611809807856
 30
0.0
 11
-261.5383251293284
 21
805.2611809807856
 31
0.0
  0
LINE
  5
152
330
1F
100
AcDbEntity
  8
C-2
  6
Continuous
 62
     3
370
     5
100
AcDbLine
 10
-261.5383251293284
 20
873.2603660789698
 30
0.0
 11
-285.5378846864443
 21
873.2603660789698
 31
0.0
  0
LINE
  5
153
330
1F
100
AcDbEntity
  8
C-2
  6
Continuous
 62
     3
370
     5
100
AcDbLine
 10
-291.5390427048141
 20
873.2603660789698
 30
0.0
 11
-315.5384785420185
 21
873.2603660789698
 31
0.0
  0
LINE
  5
154
330
1F
100
AcDbEntity
  8
C-2
  6
Continuous
 62
     3
370
     5
100
AcDbLine
 10
-321.5386468010979
 20
873.2603660789698
 30
0.0
 11
-345.5390723975927
 21
873.2603660789698
 31
0.0
  0
LINE
  5
155
330
1F
100
AcDbEntity
  8
C-2
  6
Continuous
 62
     3
370
     5
100
AcDbLine
 10
-351.5381271774703
 20
873.2603660789698
 30
0.0
 11
-375.5386764938766
 21
873.2603660789698
 31
0.0
  0
LINE
  5
156
330
1F
100
AcDbEntity
  8
C-2
  6
Continuous
 62
     3
370
     5
100
AcDbLine
 10
-381.5376075538427
 20
873.2603660789698
 30
0.0
 11
-405.5382805901604
 21
873.2603660789698
 31
0.0
  0
LINE
  5
157
330
1F
100
AcDbEntity
  8
C-2
  6
Continuous
 62
     3
370
     5
100
AcDbLine
 10
-411.5374590899492
 20
873.2603660789698
 30
0.0
 11
-435.5378846864443
 21
873.2603660789698
 31
0.0
  0
LINE
  5
158
330
1F
100
AcDbEntity
  8
C-2
  6
Continuous
 62
     3
370
     5
100
AcDbLine
 10
-441.5380529455234
 20
873.2603660789698
 30
0.0
 11
-465.5383548221073
 21
873.2603660789698
 31
0.0
  0
LINE
  5
159
330
1F
100
AcDbEntity
  8
C-2
  6
Continuous
 62
     3
370
     5
100
AcDbLine
 10
-471.5386468010979
 20
873.2603660789698
 30
0.0
 11
-495.5382063582135
 21
873.2603660789698
 31
0.0
  0
LINE
  5
15A
330
1F
100
AcDbEntity
  8
C-2
  6
Continuous
 62
     3
370
     5
100
AcDbLine
 10
-501.5382508973818
 20
873.2603660789698
 30
0.0
 11
-525.538800213788
 21
873.2603660789698
 31
0.0
  0
LINE
  5
15B
330
1F
100
AcDbEntity
  8
C-2
  6
Continuous
 62
     3
370
     5
100
AcDbLine
 10
-531.5379787135769
 20
873.2603660789698
 30
0.0
 11
-555.5382805901604
 21
873.2603660789698
 31
0.0
  0
LINE
  5
15C
330
1F
100
AcDbEntity
  8
C-2
  6
Continuous
 62
     3
370
     5
100
AcDbLine
 10
-561.5375828098606
 20
873.2603660789698
 30
0.0
 11
-577.5379077808276
 21
873.2603660789698
 31
0.0
  0
LINE
  5
15D
330
1F
100
AcDbEntity
  8
C-2
  6
Continuous
 62
     3
370
     5
100
AcDbLine
 10
-441.5380529455234
 20
537.261212323163
 30
0.0
 11
-465.5383548221073
 21
537.261212323163
 31
0.0
  0
LINE
  5
15E
330
1F
100
AcDbEntity
  8
C-2
  6
Continuous
 62
     3
370
     5
100
AcDbLine
 10
-501.5382508973818
 20
537.261212323163
 30
0.0
 11
-525.538800213788
 21
537.261212323163
 31
0.0
  0
LINE
  5
15F
330
1F
100
AcDbEntity
  8
C-2
  6
Continuous
 62
     3
370
     5
100
AcDbLine
 10
-531.5379787135769
 20
537.261212323163
 30
0.0
 11
-555.5382805901604
 21
537.261212323163
 31
0.0
  0
LINE
  5
160
330
1F
100
AcDbEntity
  8
C-2
  6
Continuous
 62
     3
370
     5
100
AcDbLine
 10
-561.5375828098606
 20
537.261212323163
 30
0.0
 11
-577.5379077808276
 21
537.261212323163
 31
0.0
  0
LINE
  5
161
330
1F
100
AcDbEntity
  8
C-2
  6
Continuous
 62
     3
370
     5
100
AcDbLine
 10
-577.5379077808276
 20
877.260725691512
 30
0.0
 11
-577.5379077808276
 21
533.2607289907096
 31
0.0
  0
LINE
  5
162
330
1F
100
AcDbEntity
  8
C-2
  6
Continuous
 62
     3
370
     5
100
AcDbLine
 10
-555.5382805901604
 20
877.260725691512
 30
0.0
 11
-555.5382805901604
 21
533.2607289907096
 31
0.0
  0
LINE
  5
163
330
1F
100
AcDbEntity
  8
C-2
  6
Continuous
 62
     3
370
     5
100
AcDbLine
 10
-561.5375828098606
 20
877.260725691512
 30
0.0
 11
-561.5375828098606
 21
533.2607289907096
 31
0.0
  0
LINE
  5
164
330
1F
100
AcDbEntity
  8
C-2
  6
Continuous
 62
     3
370
     5
100
AcDbLine
 10
-525.538800213788
 20
877.260725691512
 30
0.0
 11
-525.538800213788
 21
533.2607289907096
 31
0.0
  0
LINE
  5
165
330
1F
100
AcDbEntity
  8
C-2
  6
Continuous
 62
     3
370
     5
100
AcDbLine
 10
-531.5379787135769
 20
877.260725691512
 30
0.0
 11
-531.5379787135769
 21
533.2607289907096
 31
0.0
  0
LINE
  5
166
330
1F
100
AcDbEntity
  8
C-2
  6
Continuous
 62
     3
370
     5
100
AcDbLine
 10
-495.5382063582135
 20
877.260725691512
 30
0.0
 11
-495.5382063582135
 21
533.2607289907096
 31
0.0
  0
LINE
  5
167
330
1F
100
AcDbEntity
  8
C-2
  6
Continuous
 62
     3
370
     5
100
AcDbLine
 10
-501.5382508973818
 20
877.260725691512
 30
0.0
 11
-501.5382508973818
 21
533.2607289907096
 31
0.0
  0
LINE
  5
168
330
1F
100
AcDbEntity
  8
C-2
  6
Continuous
 62
     3
370
     5
100
AcDbLine
 10
-465.5383548221073
 20
877.260725691512
 30
0.0
 11
-465.5383548221073
 21
533.2607289907096
 31
0.0
  0
LINE
  5
169
330
1F
100
AcDbEntity
  8
C-2
  6
Continuous
 62
     3
370
     5
100
AcDbLine
 10
-471.5386468010979
 20
877.260725691512
 30
0.0
 11
-471.5386468010979
 21
533.2607289907096
 31
0.0
  0
LINE
  5
16A
330
1F
100
AcDbEntity
  8
C-6
  6
Continuous
 62
     6
370
     5
100
AcDbLine
 10
-577.5379077808276
 20
710.9180677259292
 30
0.0
 11
-561.5375828098606
 21
710.9180677259292
 31
0.0
  0
LINE
  5
16B
330
1F
100
AcDbEntity
  8
C-6
  6
Continuous
 62
     6
370
     5
100
AcDbLine
 10
-577.5379077808276
 20
699.6046241554054
 30
0.0
 11
-561.5375828098606
 21
699.6046241554054
 31
0.0
  0
LINE
  5
16C
330
1F
100
AcDbEntity
  8
C-6
  6
Continuous
 62
     6
370
     5
100
AcDbLine
 10
-577.5379077808276
 20
705.2608510610221
 30
0.0
 11
-561.5375828098606
 21
705.2608510610221
 31
0.0
  0
LINE
  5
16D
330
1F
100
AcDbEntity
  8
C-6
  6
Continuous
 62
     6
370
     5
100
AcDbLine
 10
-555.5382805901604
 20
710.9180677259292
 30
0.0
 11
-531.5379787135769
 21
710.9180677259292
 31
0.0
  0
LINE
  5
16E
330
1F
100
AcDbEntity
  8
C-6
  6
Continuous
 62
     6
370
     5
100
AcDbLine
 10
-555.5382805901604
 20
699.6046241554054
 30
0.0
 11
-531.5379787135769
 21
699.6046241554054
 31
0.0
  0
LINE
  5
16F
330
1F
100
AcDbEntity
  8
C-6
  6
Continuous
 62
     6
370
     5
100
AcDbLine
 10
-555.5382805901604
 20
705.2608510610221
 30
0.0
 11
-531.5379787135769
 21
705.2608510610221
 31
0.0
  0
LINE
  5
170
330
1F
100
AcDbEntity
  8
C-6
  6
Continuous
 62
     6
370
     5
100
AcDbLine
 10
-525.5378104544974
 20
710.9180677259292
 30
0.0
 11
-501.5382508973818
 21
710.9180677259292
 31
0.0
  0
LINE
  5
171
330
1F
100
AcDbEntity
  8
C-6
  6
Continuous
 62
     6
370
     5
100
AcDbLine
 10
-525.5378104544974
 20
699.6046241554054
 30
0.0
 11
-501.5382508973818
 21
699.6046241554054
 31
0.0
  0
LINE
  5
172
330
1F
100
AcDbEntity
  8
C-6
  6
Continuous
 62
     6
370
     5
100
AcDbLine
 10
-525.5378104544974
 20
705.2608510610221
 30
0.0
 11
-501.5382508973818
 21
705.2608510610221
 31
0.0
  0
LINE
  5
173
330
1F
100
AcDbEntity
  8
C-6
  6
Continuous
 62
     6
370
     5
100
AcDbLine
 10
-495.5382063582135
 20
710.9180677259292
 30
0.0
 11
-471.5386468010979
 21
710.9180677259292
 31
0.0
  0
LINE
  5
174
330
1F
100
AcDbEntity
  8
C-6
  6
Continuous
 62
     6
370
     5
100
AcDbLine
 10
-495.5382063582135
 20
699.6046241554054
 30
0.0
 11
-471.5386468010979
 21
699.6046241554054
 31
0.0
  0
LINE
  5
175
330
1F
100
AcDbEntity
  8
C-6
  6
Continuous
 62
     6
370
     5
100
AcDbLine
 10
-495.5382063582135
 20
705.2608510610221
 30
0.0
 11
-471.5386468010979
 21
705.2608510610221
 31
0.0
  0
LINE
  5
176
330
1F
100
AcDbEntity
  8
C-6
  6
Continuous
 62
     6
370
     5
100
AcDbLine
 10
-465.5383548221073
 20
710.9180677259292
 30
0.0
 11
-441.5380529455234
 21
710.9180677259292
 31
0.0
  0
LINE
  5
177
330
1F
100
AcDbEntity
  8
C-6
  6
Continuous
 62
     6
370
     5
100
AcDbLine
 10
-465.5383548221073
 20
699.6046241554054
 30
0.0
 11
-441.5380529455234
 21
699.6046241554054
 31
0.0
  0
LINE
  5
178
330
1F
100
AcDbEntity
  8
C-6
  6
Continuous
 62
     6
370
     5
100
AcDbLine
 10
-465.5383548221073
 20
705.2608510610221
 30
0.0
 11
-441.5380529455234
 21
705.2608510610221
 31
0.0
  0
LINE
  5
179
330
1F
100
AcDbEntity
  8
C-6
  6
Continuous
 62
     6
370
     5
100
AcDbLine
 10
-435.5378846864443
 20
710.9180677259292
 30
0.0
 11
-411.5374590899492
 21
710.9180677259292
 31
0.0
  0
LINE
  5
17A
330
1F
100
AcDbEntity
  8
C-6
  6
Continuous
 62
     6
370
     5
100
AcDbLine
 10
-435.5378846864443
 20
699.6046241554054
 30
0.0
 11
-411.5374590899492
 21
699.6046241554054
 31
0.0
  0
LINE
  5
17B
330
1F
100
AcDbEntity
  8
C-6
  6
Continuous
 62
     6
370
     5
100
AcDbLine
 10
-435.5378846864443
 20
705.2608510610221
 30
0.0
 11
-411.5374590899492
 21
705.2608510610221
 31
0.0
  0
LINE
  5
17C
330
1F
100
AcDbEntity
  8
C-6
  6
Continuous
 62
     6
370
     5
100
AcDbLine
 10
-405.5382805901604
 20
710.9180677259292
 30
0.0
 11
-381.5376075538427
 21
710.9180677259292
 31
0.0
  0
LINE
  5
17D
330
1F
100
AcDbEntity
  8
C-6
  6
Continuous
 62
     6
370
     5
100
AcDbLine
 10
-405.5382805901604
 20
699.6046241554054
 30
0.0
 11
-381.5376075538427
 21
699.6046241554054
 31
0.0
  0
LINE
  5
17E
330
1F
100
AcDbEntity
  8
C-6
  6
Continuous
 62
     6
370
     5
100
AcDbLine
 10
-405.5382805901604
 20
705.2608510610221
 30
0.0
 11
-381.5376075538427
 21
705.2608510610221
 31
0.0
  0
LINE
  5
17F
330
1F
100
AcDbEntity
  8
C-6
  6
Continuous
 62
     6
370
     5
100
AcDbLine
 10
-375.5386764938766
 20
710.9180677259292
 30
0.0
 11
-351.5381271774703
 21
710.9180677259292
 31
0.0
  0
LINE
  5
180
330
1F
100
AcDbEntity
  8
C-6
  6
Continuous
 62
     6
370
     5
100
AcDbLine
 10
-375.5386764938766
 20
699.6046241554054
 30
0.0
 11
-351.5381271774703
 21
699.6046241554054
 31
0.0
  0
LINE
  5
181
330
1F
100
AcDbEntity
  8
C-6
  6
Continuous
 62
     6
370
     5
100
AcDbLine
 10
-375.5386764938766
 20
705.2608510610221
 30
0.0
 11
-351.5381271774703
 21
705.2608510610221
 31
0.0
  0
LINE
  5
182
330
1F
100
AcDbEntity
  8
C-6
  6
Continuous
 62
     6
370
     5
100
AcDbLine
 10
-345.5390723975927
 20
710.9180677259292
 30
0.0
 11
-321.5386468010979
 21
710.9180677259292
 31
0.0
  0
LINE
  5
183
330
1F
100
AcDbEntity
  8
C-6
  6
Continuous
 62
     6
370
     5
100
AcDbLine
 10
-345.5390723975927
 20
699.6046241554054
 30
0.0
 11
-321.5386468010979
 21
699.6046241554054
 31
0.0
  0
LINE
  5
184
330
1F
100
AcDbEntity
  8
C-6
  6
Continuous
 62
     6
370
     5
100
AcDbLine
 10
-345.5390723975927
 20
705.2608510610221
 30
0.0
 11
-321.5386468010979
 21
705.2608510610221
 31
0.0
  0
LINE
  5
185
330
1F
100
AcDbEntity
  8
C-6
  6
Continuous
 62
     6
370
     5
100
AcDbLine
 10
-315.5384785420185
 20
710.9180677259292
 30
0.0
 11
-291.5390427048141
 21
710.9180677259292
 31
0.0
  0
LINE
  5
186
330
1F
100
AcDbEntity
  8
C-6
  6
Continuous
 62
     6
370
     5
100
AcDbLine
 10
-315.5384785420185
 20
699.6046241554054
 30
0.0
 11
-291.5390427048141
 21
699.6046241554054
 31
0.0
  0
LINE
  5
187
330
1F
100
AcDbEntity
  8
C-6
  6
Continuous
 62
     6
370
     5
100
AcDbLine
 10
-315.5384785420185
 20
705.2608510610221
 30
0.0
 11
-291.5390427048141
 21
705.2608510610221
 31
0.0
  0
LINE
  5
188
330
1F
100
AcDbEntity
  8
C-2
  6
Continuous
 62
     3
370
     5
100
AcDbLine
 10
-471.5386468010979
 20
537.261212323163
 30
0.0
 11
-495.5382063582135
 21
537.261212323163
 31
0.0
  0
LINE
  5
189
330
1F
100
AcDbEntity
  8
C-2
  6
Continuous
 62
     3
370
     5
100
AcDbLine
 10
-583.5378286000844
 20
530.2612634607266
 30
0.0
 11
-583.5378286000844
 21
880.2604386613177
 31
0.0
  0
LINE
  5
18A
330
1F
100
AcDbEntity
  8
C-6
  6
Continuous
 62
     6
370
     5
100
AcDbLine
 10
-577.5379077808276
 20
610.9174903663429
 30
0.0
 11
-561.5375828098606
 21
610.9174903663429
 31
0.0
  0
LINE
  5
18B
330
1F
100
AcDbEntity
  8
C-6
  6
Continuous
 62
     6
370
     5
100
AcDbLine
 10
-577.5379077808276
 20
599.6040467958193
 30
0.0
 11
-561.5375828098606
 21
599.6040467958193
 31
0.0
  0
LINE
  5
18C
330
1F
100
AcDbEntity
  8
C-6
  6
Continuous
 62
     6
370
     5
100
AcDbLine
 10
-577.5379077808276
 20
605.260273701436
 30
0.0
 11
-561.5375828098606
 21
605.260273701436
 31
0.0
  0
LINE
  5
18D
330
1F
100
AcDbEntity
  8
C-6
  6
Continuous
 62
     6
370
     5
100
AcDbLine
 10
-555.5382805901604
 20
610.9174903663429
 30
0.0
 11
-531.5379787135769
 21
610.9174903663429
 31
0.0
  0
LINE
  5
18E
330
1F
100
AcDbEntity
  8
C-6
  6
Continuous
 62
     6
370
     5
100
AcDbLine
 10
-555.5382805901604
 20
599.6040467958193
 30
0.0
 11
-531.5379787135769
 21
599.6040467958193
 31
0.0
  0
LINE
  5
18F
330
1F
100
AcDbEntity
  8
C-6
  6
Continuous
 62
     6
370
     5
100
AcDbLine
 10
-555.5382805901604
 20
605.260273701436
 30
0.0
 11
-531.5379787135769
 21
605.260273701436
 31
0.0
  0
LINE
  5
190
330
1F
100
AcDbEntity
  8
C-6
  6
Continuous
 62
     6
370
     5
100
AcDbLine
 10
-525.5378104544974
 20
610.9174903663429
 30
0.0
 11
-501.5382508973818
 21
610.9174903663429
 31
0.0
  0
LINE
  5
191
330
1F
100
AcDbEntity
  8
C-6
  6
Continuous
 62
     6
370
     5
100
AcDbLine
 10
-525.5378104544974
 20
599.6040467958193
 30
0.0
 11
-501.5382508973818
 21
599.6040467958193
 31
0.0
  0
LINE
  5
192
330
1F
100
AcDbEntity
  8
C-6
  6
Continuous
 62
     6
370
     5
100
AcDbLine
 10
-525.5378104544974
 20
605.260273701436
 30
0.0
 11
-501.5382508973818
 21
605.260273701436
 31
0.0
  0
LINE
  5
193
330
1F
100
AcDbEntity
  8
C-6
  6
Continuous
 62
     6
370
     5
100
AcDbLine
 10
-495.5382063582135
 20
610.9174903663429
 30
0.0
 11
-471.5386468010979
 21
610.9174903663429
 31
0.0
  0
LINE
  5
194
330
1F
100
AcDbEntity
  8
C-6
  6
Continuous
 62
     6
370
     5
100
AcDbLine
 10
-495.5382063582135
 20
599.6040467958193
 30
0.0
 11
-471.5386468010979
 21
599.6040467958193
 31
0.0
  0
LINE
  5
195
330
1F
100
AcDbEntity
  8
C-6
  6
Continuous
 62
     6
370
     5
100
AcDbLine
 10
-495.5382063582135
 20
605.260273701436
 30
0.0
 11
-471.5386468010979
 21
605.260273701436
 31
0.0
  0
LINE
  5
196
330
1F
100
AcDbEntity
  8
C-6
  6
Continuous
 62
     6
370
     5
100
AcDbLine
 10
-465.5383548221073
 20
610.9174903663429
 30
0.0
 11
-441.5380529455234
 21
610.9174903663429
 31
0.0
  0
LINE
  5
197
330
1F
100
AcDbEntity
  8
C-6
  6
Continuous
 62
     6
370
     5
100
AcDbLine
 10
-465.5383548221073
 20
599.6040467958193
 30
0.0
 11
-441.5380529455234
 21
599.6040467958193
 31
0.0
  0
LINE
  5
198
330
1F
100
AcDbEntity
  8
C-6
  6
Continuous
 62
     6
370
     5
100
AcDbLine
 10
-465.5383548221073
 20
605.260273701436
 30
0.0
 11
-441.5380529455234
 21
605.260273701436
 31
0.0
  0
LINE
  5
199
330
1F
100
AcDbEntity
  8
C-6
  6
Continuous
 62
     6
370
     5
100
AcDbLine
 10
-435.5378846864443
 20
610.9174903663429
 30
0.0
 11
-411.5374590899492
 21
610.9174903663429
 31
0.0
  0
LINE
  5
19A
330
1F
100
AcDbEntity
  8
C-6
  6
Continuous
 62
     6
370
     5
100
AcDbLine
 10
-435.5378846864443
 20
599.6040467958193
 30
0.0
 11
-411.5374590899492
 21
599.6040467958193
 31
0.0
  0
LINE
  5
19B
330
1F
100
AcDbEntity
  8
C-6
  6
Continuous
 62
     6
370
     5
100
AcDbLine
 10
-435.5378846864443
 20
605.260273701436
 30
0.0
 11
-411.5374590899492
 21
605.260273701436
 31
0.0
  0
LINE
  5
19C
330
1F
100
AcDbEntity
  8
C-6
  6
Continuous
 62
     6
370
     5
100
AcDbLine
 10
-405.5382805901604
 20
599.6040467958193
 30
0.0
 11
-381.5376075538427
 21
599.6040467958193
 31
0.0
  0
LINE
  5
19D
330
1F
100
AcDbEntity
  8
C-6
  6
Continuous
 62
     6
370
     5
100
AcDbLine
 10
-405.5382805901604
 20
605.260273701436
 30
0.0
 11
-381.5376075538427
 21
605.260273701436
 31
0.0
  0
LINE
  5
19E
330
1F
100
AcDbEntity
  8
C-1
  6
JWW_DASHED3
 62
     2
370
     5
100
AcDbLine
 10
-558.5376224002323
 20
555.2596138619089
 30
0.0
 11
-558.5376224002323
 21
855.2598613017315
 31
0.0
  0
LINE
  5
19F
330
1F
100
AcDbEntity
  8
C-1
  6
Continuous
 62
     2
370
     5
100
AcDbLine
 10
-591.5375580658783
 20
522.259307036529
 30
0.0
 11
-591.5375580658783
 21
888.2601681271117
 31
0.0
  0
LINE
  5
1A0
330
1F
100
AcDbEntity
  8
C-1
  6
Continuous
 62
     2
370
     5
100
AcDbLine
 10
-584.5376092034417
 20
529.2593796188769
 30
0.0
 11
-584.5376092034417
 21
881.2600955447635
 31
0.0
  0
LINE
  5
1A1
330
1F
100
AcDbEntity
  8
C-2
  6
Continuous
 62
     3
370
     5
100
AcDbLine
 10
-233.5376636402026
 20
880.2604386613177
 30
0.0
 11
-583.5378286000844
 21
880.2604386613177
 31
0.0
  0
LINE
  5
1A2
330
1F
100
AcDbEntity
  8
C-2
  6
Continuous
 62
     3
370
     5
100
AcDbLine
 10
-233.5376636402026
 20
880.2604386613177
 30
0.0
 11
-233.5376636402026
 21
530.2612634607266
 31
0.0
  0
LINE
  5
1A3
330
1F
100
AcDbEntity
  8
C-2
  6
Continuous
 62
     3
370
     5
100
AcDbLine
 10
-233.5376636402026
 20
530.2612634607266
 30
0.0
 11
-583.5378286000844
 21
530.2612634607266
 31
0.0
  0
LINE
  5
1A4
330
1F
100
AcDbEntity
  8
C-2
  6
Continuous
 62
     3
370
     5
100
AcDbLine
 10
-233.5376636402026
 20
877.260725691512
 30
0.0
 11
-583.5378286000844
 21
877.260725691512
 31
0.0
  0
LINE
  5
1A5
330
1F
100
AcDbEntity
  8
C-2
  6
Continuous
 62
     3
370
     5
100
AcDbLine
 10
-239.537831899282
 20
873.2603660789698
 30
0.0
 11
-255.5380331503378
 21
873.2603660789698
 31
0.0
  0
LINE
  5
1A6
330
1F
100
AcDbEntity
  8
C-6
  6
Continuous
 62
     6
370
     5
100
AcDbLine
 10
-255.5380331503378
 20
810.9174078864021
 30
0.0
 11
-239.537831899282
 21
810.9174078864021
 31
0.0
  0
LINE
  5
1A7
330
1F
100
AcDbEntity
  8
C-6
  6
Continuous
 62
     6
370
     5
100
AcDbLine
 10
-255.5380331503378
 20
805.2611809807856
 30
0.0
 11
-239.537831899282
 21
805.2611809807856
 31
0.0
  0
LINE
  5
1A8
330
1F
100
AcDbEntity
  8
C-6
  6
Continuous
 62
     6
370
     5
100
AcDbLine
 10
-255.5380331503378
 20
799.6039643158783
 30
0.0
 11
-239.537831899282
 21
799.6039643158783
 31
0.0
  0
LINE
  5
1A9
330
1F
100
AcDbEntity
  8
C-1
  6
Continuous
 62
     2
370
     5
100
AcDbLine
 10
-591.5375580658783
 20
888.2601681271117
 30
0.0
 11
-225.5378104544974
 21
888.2601681271117
 31
0.0
  0
LINE
  5
1AA
330
1F
100
AcDbEntity
  8
C-1
  6
Continuous
 62
     2
370
     5
100
AcDbLine
 10
-584.5376092034417
 20
881.2600955447635
 30
0.0
 11
-232.5377593169341
 21
881.2600955447635
 31
0.0
  0
LINE
  5
1AB
330
1F
100
AcDbEntity
  8
C-1
  6
JWW_DASHED3
 62
     2
370
     5
100
AcDbLine
 10
-558.5376224002323
 20
855.2598613017315
 30
0.0
 11
-258.5377461201435
 21
855.2598613017315
 31
0.0
  0
LINE
  5
1AC
330
1F
100
AcDbEntity
  8
C-1
  6
JWW_DASHED3
 62
     2
370
     5
100
AcDbLine
 10
-558.5376224002323
 20
555.2596138619089
 30
0.0
 11
-258.5377461201435
 21
555.2596138619089
 31
0.0
  0
LINE
  5
1AD
330
1F
100
AcDbEntity
  8
C-1
  6
JWW_DASHED3
 62
     2
370
     5
100
AcDbLine
 10
-258.5377461201435
 20
855.2598613017315
 30
0.0
 11
-258.5377461201435
 21
555.2596138619089
 31
0.0
  0
LINE
  5
1AE
330
1F
100
AcDbEntity
  8
C-1
  6
Continuous
 62
     2
370
     5
100
AcDbLine
 10
-232.5377593169341
 20
529.2593796188769
 30
0.0
 11
-584.5376092034417
 21
529.2593796188769
 31
0.0
  0
LINE
  5
1AF
330
1F
100
AcDbEntity
  8
C-1
  6
Continuous
 62
     2
370
     5
100
AcDbLine
 10
-232.5377593169341
 20
881.2600955447635
 30
0.0
 11
-232.5377593169341
 21
529.2593796188769
 31
0.0
  0
LINE
  5
1B0
330
1F
100
AcDbEntity
  8
C-1
  6
Continuous
 62
     2
370
     5
100
AcDbLine
 10
-225.5378104544974
 20
888.2601681271117
 30
0.0
 11
-225.5378104544974
 21
522.259307036529
 31
0.0
  0
LINE
  5
1B1
330
1F
100
AcDbEntity
  8
C-1
  6
Continuous
 62
     2
370
     5
100
AcDbLine
 10
-225.5378104544974
 20
522.259307036529
 30
0.0
 11
-591.5375580658783
 21
522.259307036529
 31
0.0
  0
LINE
  5
1B2
330
1F
100
AcDbEntity
  8
C-4
  6
Continuous
 62
     7
370
     5
100
AcDbLine
 10
-591.5375580658783
 20
1080.991540857264
 30
0.0
 11
-225.5378104544974
 21
1080.991540857264
 31
0.0
  0
LINE
  5
1B3
330
1F
100
AcDbEntity
  8
C-4
  6
Continuous
 62
     7
370
     5
100
AcDbLine
 10
-591.5375580658783
 20
913.26000316723
 30
0.0
 11
-591.5375580658783
 21
1083.991501266892
 31
0.0
  0
LINE
  5
1B4
330
1F
100
AcDbEntity
  8
C-4
  6
Continuous
 62
     7
370
     5
100
AcDbLine
 10
-225.5378104544974
 20
913.26000316723
 30
0.0
 11
-225.5378104544974
 21
1083.991501266892
 31
0.0
  0
LINE
  5
1B5
330
1F
100
AcDbEntity
  8
C-4
  6
Continuous
 62
     7
370
     5
100
AcDbLine
 10
-591.5375580658783
 20
1017.125590556377
 30
0.0
 11
-584.5376092034417
 21
1017.125590556377
 31
0.0
  0
LINE
  5
1B6
330
1F
100
AcDbEntity
  8
C-4
  6
Continuous
 62
     7
370
     5
100
AcDbLine
 10
-591.5375580658783
 20
913.26000316723
 30
0.0
 11
-591.5375580658783
 21
1020.125798405828
 31
0.0
  0
LINE
  5
1B7
330
1F
100
AcDbEntity
  8
C-4
  6
Continuous
 62
     7
370
     5
100
AcDbLine
 10
-584.5376092034417
 20
906.2599305848818
 30
0.0
 11
-584.5376092034417
 21
1020.125798405828
 31
0.0
  0
LINE
  5
1B8
330
1F
100
AcDbEntity
  8
C-4
  6
Continuous
 62
     7
370
     5
100
AcDbLine
 10
-584.5376092034417
 20
1017.125590556377
 30
0.0
 11
-583.5378286000844
 21
1017.125590556377
 31
0.0
  0
LINE
  5
1B9
330
1F
100
AcDbEntity
  8
C-4
  6
Continuous
 62
     7
370
     5
100
AcDbLine
 10
-583.5378286000844
 20
905.260273701436
 30
0.0
 11
-583.5378286000844
 21
1020.125798405828
 31
0.0
  0
LINE
  5
1BA
330
1F
100
AcDbEntity
  8
C-4
  6
Continuous
 62
     7
370
     5
100
AcDbLine
 10
-233.5376636402026
 20
905.260273701436
 30
0.0
 11
-233.5376636402026
 21
1020.125798405828
 31
0.0
  0
LINE
  5
1BB
330
1F
100
AcDbEntity
  8
C-4
  6
Continuous
 62
     7
370
     5
100
AcDbLine
 10
-233.5376636402026
 20
1017.125590556377
 30
0.0
 11
-232.5377593169341
 21
1017.125590556377
 31
0.0
  0
LINE
  5
1BC
330
1F
100
AcDbEntity
  8
C-4
  6
Continuous
 62
     7
370
     5
100
AcDbLine
 10
-232.5377593169341
 20
906.2599305848818
 30
0.0
 11
-232.5377593169341
 21
1020.125798405828
 31
0.0
  0
LINE
  5
1BD
330
1F
100
AcDbEntity
  8
C-4
  6
Continuous
 62
     7
370
     5
100
AcDbLine
 10
-232.5377593169341
 20
1017.125590556377
 30
0.0
 11
-225.5378104544974
 21
1017.125590556377
 31
0.0
  0
LINE
  5
1BE
330
1F
100
AcDbEntity
  8
C-4
  6
Continuous
 62
     7
370
     5
100
AcDbLine
 10
-225.5378104544974
 20
913.26000316723
 30
0.0
 11
-225.5378104544974
 21
1020.125798405828
 31
0.0
  0
LINE
  5
1BF
330
1F
100
AcDbEntity
  8
C-4
  6
Continuous
 62
     7
370
     5
100
AcDbLine
 10
-583.5378286000844
 20
957.9899473448061
 30
0.0
 11
-558.5376224002323
 21
957.9899473448061
 31
0.0
  0
LINE
  5
1C0
330
1F
100
AcDbEntity
  8
C-4
  6
Continuous
 62
     7
370
     5
100
AcDbLine
 10
-583.5378286000844
 20
905.260273701436
 30
0.0
 11
-583.5378286000844
 21
960.9901551942568
 31
0.0
  0
LINE
  5
1C1
330
1F
100
AcDbEntity
  8
C-4
  6
Continuous
 62
     7
370
     5
100
AcDbLine
 10
-558.5376224002323
 20
880.2599437816724
 30
0.0
 11
-558.5376224002323
 21
960.9901551942568
 31
0.0
  0
LINE
  5
1C2
330
1F
100
AcDbEntity
  8
C-4
  6
Continuous
 62
     7
370
     5
100
AcDbLine
 10
-558.5376224002323
 20
957.9899473448061
 30
0.0
 11
-258.5377461201435
 21
957.9899473448061
 31
0.0
  0
LINE
  5
1C3
330
1F
100
AcDbEntity
  8
C-4
  6
Continuous
 62
     7
370
     5
100
AcDbLine
 10
-258.5377461201435
 20
880.2599437816724
 30
0.0
 11
-258.5377461201435
 21
960.9901551942568
 31
0.0
  0
LINE
  5
1C4
330
1F
100
AcDbEntity
  8
C-4
  6
Continuous
 62
     7
370
     5
100
AcDbLine
 10
-258.5377461201435
 20
957.9899473448061
 30
0.0
 11
-233.5376636402026
 21
957.9899473448061
 31
0.0
  0
LINE
  5
1C5
330
1F
100
AcDbEntity
  8
C-4
  6
Continuous
 62
     7
370
     5
100
AcDbLine
 10
-233.5376636402026
 20
905.260273701436
 30
0.0
 11
-233.5376636402026
 21
960.9901551942568
 31
0.0
  0
LINE
  5
1C6
330
1F
100
AcDbEntity
  8
C-4
  6
Continuous
 62
     7
370
     5
100
AcDbLine
 10
-644.0242458034206
 20
1017.125590556377
 30
0.0
 11
-177.4274671399914
 21
1017.125590556377
 31
0.0
  0
LINE
  5
1C7
330
1F
100
AcDbEntity
  8
C-2
  6
Continuous
 62
     3
370
     5
100
AcDbLine
 10
-261.5383251293284
 20
876.2603264885981
 30
0.0
 11
-285.5378846864443
 21
876.2603264885981
 31
0.0
  0
LINE
  5
1C8
330
1F
100
AcDbEntity
  8
C-2
  6
Continuous
 62
     3
370
     5
100
AcDbLine
 10
-291.5390427048141
 20
876.2603264885981
 30
0.0
 11
-315.5384785420185
 21
876.2603264885981
 31
0.0
  0
LINE
  5
1C9
330
1F
100
AcDbEntity
  8
C-2
  6
Continuous
 62
     3
370
     5
100
AcDbLine
 10
-321.5386468010979
 20
876.2603264885981
 30
0.0
 11
-345.5390723975927
 21
876.2603264885981
 31
0.0
  0
LINE
  5
1CA
330
1F
100
AcDbEntity
  8
C-2
  6
Continuous
 62
     3
370
     5
100
AcDbLine
 10
-351.5381271774703
 20
876.2603264885981
 30
0.0
 11
-375.5386764938766
 21
876.2603264885981
 31
0.0
  0
LINE
  5
1CB
330
1F
100
AcDbEntity
  8
C-2
  6
Continuous
 62
     3
370
     5
100
AcDbLine
 10
-381.5376075538427
 20
876.2603264885981
 30
0.0
 11
-405.5382805901604
 21
876.2603264885981
 31
0.0
  0
LINE
  5
1CC
330
1F
100
AcDbEntity
  8
C-2
  6
Continuous
 62
     3
370
     5
100
AcDbLine
 10
-411.5374590899492
 20
876.2603264885981
 30
0.0
 11
-435.5378846864443
 21
876.2603264885981
 31
0.0
  0
LINE
  5
1CD
330
1F
100
AcDbEntity
  8
C-2
  6
Continuous
 62
     3
370
     5
100
AcDbLine
 10
-441.5380529455234
 20
876.2603264885981
 30
0.0
 11
-465.5383548221073
 21
876.2603264885981
 31
0.0
  0
LINE
  5
1CE
330
1F
100
AcDbEntity
  8
C-2
  6
Continuous
 62
     3
370
     5
100
AcDbLine
 10
-471.5386468010979
 20
876.2603264885981
 30
0.0
 11
-495.5382063582135
 21
876.2603264885981
 31
0.0
  0
LINE
  5
1CF
330
1F
100
AcDbEntity
  8
C-2
  6
Continuous
 62
     3
370
     5
100
AcDbLine
 10
-501.5382508973818
 20
876.2603264885981
 30
0.0
 11
-525.538800213788
 21
876.2603264885981
 31
0.0
  0
LINE
  5
1D0
330
1F
100
AcDbEntity
  8
C-2
  6
Continuous
 62
     3
370
     5
100
AcDbLine
 10
-531.5379787135769
 20
876.2603264885981
 30
0.0
 11
-555.5382805901604
 21
876.2603264885981
 31
0.0
  0
LINE
  5
1D1
330
1F
100
AcDbEntity
  8
C-2
  6
Continuous
 62
     3
370
     5
100
AcDbLine
 10
-561.5375828098606
 20
876.2603264885981
 30
0.0
 11
-577.5379077808276
 21
876.2603264885981
 31
0.0
  0
LINE
  5
1D2
330
1F
100
AcDbEntity
  8
C-2
  6
Continuous
 62
     3
370
     5
100
AcDbLine
 10
-239.537831899282
 20
876.2603264885981
 30
0.0
 11
-255.5380331503378
 21
876.2603264885981
 31
0.0
  0
LINE
  5
1D3
330
1F
100
AcDbEntity
  8
C-2
  6
Continuous
 62
     3
370
     5
100
AcDbLine
 10
-501.5382508973818
 20
534.2611281936234
 30
0.0
 11
-525.538800213788
 21
534.2611281936234
 31
0.0
  0
LINE
  5
1D4
330
1F
100
AcDbEntity
  8
C-2
  6
Continuous
 62
     3
370
     5
100
AcDbLine
 10
-531.5379787135769
 20
534.2611281936234
 30
0.0
 11
-555.5382805901604
 21
534.2611281936234
 31
0.0
  0
LINE
  5
1D5
330
1F
100
AcDbEntity
  8
C-2
  6
Continuous
 62
     3
370
     5
100
AcDbLine
 10
-561.5375828098606
 20
534.2611281936234
 30
0.0
 11
-577.5379077808276
 21
534.2611281936234
 31
0.0
  0
LINE
  5
1D6
330
1F
100
AcDbEntity
  8
C-2
  6
Continuous
 62
     3
370
     5
100
AcDbLine
 10
-471.5386468010979
 20
534.2611281936234
 30
0.0
 11
-495.5382063582135
 21
534.2611281936234
 31
0.0
  0
LINE
  5
1D7
330
1F
100
AcDbEntity
  8
C-2
  6
Continuous
 62
     3
370
     5
100
AcDbLine
 10
-321.5386468010979
 20
877.260725691512
 30
0.0
 11
-321.5386468010979
 21
655.6167520059123
 31
0.0
  0
LINE
  5
1D8
330
1F
100
AcDbEntity
  8
C-2
  6
Continuous
 62
     3
370
     5
100
AcDbLine
 10
-315.5384785420185
 20
877.260725691512
 30
0.0
 11
-315.5384785420185
 21
661.6169202649917
 31
0.0
  0
LINE
  5
1D9
330
1F
100
AcDbEntity
  8
C-2
  6
Continuous
 62
     3
370
     5
100
AcDbLine
 10
-291.5390427048141
 20
877.260725691512
 30
0.0
 11
-291.5390427048141
 21
685.616356102196
 31
0.0
  0
LINE
  5
1DA
330
1F
100
AcDbEntity
  8
C-2
  6
Continuous
 62
     3
370
     5
100
AcDbLine
 10
-285.5378846864443
 20
877.260725691512
 30
0.0
 11
-285.5378846864443
 21
691.6175141205658
 31
0.0
  0
LINE
  5
1DB
330
1F
100
AcDbEntity
  8
C-2
  6
Continuous
 62
     3
370
     5
100
AcDbLine
 10
-261.5383251293284
 20
877.260725691512
 30
0.0
 11
-261.5383251293284
 21
715.6169499577703
 31
0.0
  0
LINE
  5
1DC
330
1F
100
AcDbEntity
  8
C-2
  6
Continuous
 62
     3
370
     5
100
AcDbLine
 10
-255.5380331503378
 20
877.260725691512
 30
0.0
 11
-255.5380331503378
 21
721.6171182168498
 31
0.0
  0
LINE
  5
1DD
330
1F
100
AcDbEntity
  8
C-2
  6
Continuous
 62
     3
370
     5
100
AcDbLine
 10
-239.537831899282
 20
877.260725691512
 30
0.0
 11
-239.537831899282
 21
737.6173194679054
 31
0.0
  0
LINE
  5
1DE
330
1F
100
AcDbEntity
  8
C-2
  6
Continuous
 62
     3
370
     5
100
AcDbLine
 10
-351.5381271774703
 20
877.260725691512
 30
0.0
 11
-351.5381271774703
 21
625.6171479096283
 31
0.0
  0
LINE
  5
1DF
330
1F
100
AcDbEntity
  8
C-2
  6
Continuous
 62
     3
370
     5
100
AcDbLine
 10
-345.5390723975927
 20
877.260725691512
 30
0.0
 11
-345.5390723975927
 21
631.6163264094175
 31
0.0
  0
LINE
  5
1E0
330
1F
100
AcDbEntity
  8
C-2
  6
Continuous
 62
     3
370
     5
100
AcDbLine
 10
-375.5386764938766
 20
877.260725691512
 30
0.0
 11
-375.5386764938766
 21
601.6167223131336
 31
0.0
  0
LINE
  5
1E1
330
1F
100
AcDbEntity
  8
C-2
  6
Continuous
 62
     3
370
     5
100
AcDbLine
 10
-381.5376075538427
 20
877.260725691512
 30
0.0
 11
-381.5376075538427
 21
595.6180386929898
 31
0.0
  0
LINE
  5
1E2
330
1F
100
AcDbEntity
  8
C-2
  6
Continuous
 62
     3
370
     5
100
AcDbLine
 10
-405.5382805901604
 20
877.260725691512
 30
0.0
 11
-405.5382805901604
 21
571.6169944969386
 31
0.0
  0
LINE
  5
1E3
330
1F
100
AcDbEntity
  8
C-2
  6
Continuous
 62
     3
370
     5
100
AcDbLine
 10
-411.5374590899492
 20
877.260725691512
 30
0.0
 11
-411.5374590899492
 21
565.6178159971495
 31
0.0
  0
LINE
  5
1E4
330
1F
100
AcDbEntity
  8
C-2
  6
Continuous
 62
     3
370
     5
100
AcDbLine
 10
-435.5378846864443
 20
877.260725691512
 30
0.0
 11
-435.5378846864443
 21
541.6173904006547
 31
0.0
  0
LINE
  5
1E5
330
1F
100
AcDbEntity
  8
C-2
  6
Continuous
 62
     3
370
     5
100
AcDbLine
 10
-441.5380529455234
 20
877.260725691512
 30
0.0
 11
-441.5380529455234
 21
535.6172221415752
 31
0.0
  0
LINE
  5
1E6
330
1F
100
AcDbEntity
  8
C-2
  6
Continuous
 62
     3
370
     5
100
AcDbLine
 10
-442.8943943332982
 20
534.2611281936234
 30
0.0
 11
-465.5383548221073
 21
534.2611281936234
 31
0.0
  0
LINE
  5
1E7
330
1F
100
AcDbEntity
  8
C-2
  6
Continuous
 62
     3
370
     5
100
AcDbLine
 10
-443.8946698163005
 20
533.2607289907096
 30
0.0
 11
-583.5378286000844
 21
533.2607289907096
 31
0.0
  0
LINE
  5
1E8
330
1F
100
AcDbEntity
  8
C-6
  6
Continuous
 62
     6
370
     5
100
AcDbLine
 10
-405.5382805901604
 20
610.9174903663429
 30
0.0
 11
-381.5376075538427
 21
610.9174903663429
 31
0.0
  0
LINE
  5
1E9
330
1F
100
AcDbEntity
  8
C-6
  6
Continuous
 62
     6
370
     5
100
AcDbLine
 10
-375.5386764938766
 20
610.9174903663429
 30
0.0
 11
-366.2377847207557
 21
610.9174903663429
 31
0.0
  0
LINE
  5
1EA
330
1F
100
AcDbEntity
  8
C-6
  6
Continuous
 62
     6
370
     5
100
AcDbLine
 10
-375.5386764938766
 20
605.260273701436
 30
0.0
 11
-371.8951251055742
 21
605.260273701436
 31
0.0
  0
LINE
  5
1EB
330
1F
100
AcDbEntity
  8
C-6
  6
Continuous
 62
     6
370
     5
100
AcDbLine
 10
-285.5378846864443
 20
699.6046241554054
 30
0.0
 11
-277.5507746516047
 21
699.6046241554054
 31
0.0
  0
LINE
  5
1EC
330
1F
100
AcDbEntity
  8
C-6
  6
Continuous
 62
     6
370
     5
100
AcDbLine
 10
-285.5378846864443
 20
705.2608510610221
 30
0.0
 11
-271.894547745988
 21
705.2608510610221
 31
0.0
  0
LINE
  5
1ED
330
1F
100
AcDbEntity
  8
C-6
  6
Continuous
 62
     6
370
     5
100
AcDbLine
 10
-285.5378846864443
 20
710.9180677259292
 30
0.0
 11
-266.2370836412583
 21
710.9180677259292
 31
0.0
  0
LINE
  5
1EE
330
1F
100
AcDbEntity
  8
C-2
  6
Continuous
 62
     3
370
     5
100
AcDbLine
 10
-233.5376636402026
 20
743.6174877269849
 30
0.0
 11
-446.8945065060177
 21
530.2612634607266
 31
0.0
  0
LINE
  5
1EF
330
1F
100
AcDbEntity
  8
C-1
  6
Continuous
 62
     2
370
     5
100
AcDbLine
 10
82.63005437077709
 20
487.9724368533573
 30
0.0
 11
82.63005437077709
 21
567.9718347497891
 31
0.0
  0
LINE
  5
1F0
330
1F
100
AcDbEntity
  8
C-5
  6
Continuous
 62
     7
370
     5
100
AcDbLine
 10
57.6299718908362
 20
387.9729729729732
 30
0.0
 11
57.6299718908362
 21
452.9725688212628
 31
0.0
  0
LINE
  5
1F1
330
1F
100
AcDbEntity
  8
C-5
  6
Continuous
 62
     7
370
     5
100
AcDbLine
 10
57.6299718908362
 20
452.9725688212628
 30
0.0
 11
532.6310441300677
 21
452.9725688212628
 31
0.0
  0
LINE
  5
1F2
330
1F
100
AcDbEntity
  8
C-5
  6
Continuous
 62
     7
370
     5
100
AcDbLine
 10
532.6310441300677
 20
452.9725688212628
 30
0.0
 11
532.6310441300677
 21
387.9729729729732
 31
0.0
  0
LINE
  5
1F3
330
1F
100
AcDbEntity
  8
C-5
  6
Continuous
 62
     7
370
     5
100
AcDbLine
 10
532.6310441300677
 20
387.9729729729732
 30
0.0
 11
57.6299718908362
 21
387.9729729729732
 31
0.0
  0
LINE
  5
1F4
330
1F
100
AcDbEntity
  8
C-1
  6
Continuous
 62
     2
370
     5
100
AcDbLine
 10
67.63049976245782
 20
587.9728904930323
 30
0.0
 11
82.63005437077709
 21
587.9728904930323
 31
0.0
  0
LINE
  5
1F5
330
1F
100
AcDbEntity
  8
C-1
  6
Continuous
 62
     2
370
     5
100
AcDbLine
 10
67.63049976245782
 20
587.9728904930323
 30
0.0
 11
97.63010385874168
 21
567.9718347497891
 31
0.0
  0
LINE
  5
1F6
330
1F
100
AcDbEntity
  8
C-1
  6
Continuous
 62
     2
370
     5
100
AcDbLine
 10
82.63005437077709
 20
567.9718347497891
 30
0.0
 11
97.63010385874168
 21
567.9718347497891
 31
0.0
  0
LINE
  5
1F7
330
1F
100
AcDbEntity
  8
C-1
  6
Continuous
 62
     2
370
     5
100
AcDbLine
 10
82.63005437077709
 20
587.9728904930323
 30
0.0
 11
82.63005437077709
 21
667.972412109375
 31
0.0
  0
LINE
  5
1F8
330
1F
100
AcDbEntity
  8
C-1
  6
Continuous
 62
     2
370
     5
100
AcDbLine
 10
492.6294275232266
 20
587.9728904930323
 30
0.0
 11
507.6307142103042
 21
587.9728904930323
 31
0.0
  0
LINE
  5
1F9
330
1F
100
AcDbEntity
  8
C-1
  6
Continuous
 62
     2
370
     5
100
AcDbLine
 10
492.6294275232266
 20
587.9728904930323
 30
0.0
 11
522.6305162584458
 21
567.9718347497891
 31
0.0
  0
LINE
  5
1FA
330
1F
100
AcDbEntity
  8
C-1
  6
Continuous
 62
     2
370
     5
100
AcDbLine
 10
507.6307142103042
 20
567.9718347497891
 30
0.0
 11
522.6305162584458
 21
567.9718347497891
 31
0.0
  0
LINE
  5
1FB
330
1F
100
AcDbEntity
  8
C-1
  6
Continuous
 62
     2
370
     5
100
AcDbLine
 10
507.6307142103042
 20
487.9724368533573
 30
0.0
 11
507.6307142103042
 21
567.9718347497891
 31
0.0
  0
LINE
  5
1FC
330
1F
100
AcDbEntity
  8
C-1
  6
Continuous
 62
     2
370
     5
100
AcDbLine
 10
507.6307142103042
 20
587.9728904930323
 30
0.0
 11
507.6307142103042
 21
667.972412109375
 31
0.0
  0
LINE
  5
1FD
330
1F
100
AcDbEntity
  8
C-1
  6
Continuous
 62
     2
370
     5
100
AcDbLine
 10
82.63005437077709
 20
652.9726100612334
 30
0.0
 11
507.6307142103042
 21
652.9726100612334
 31
0.0
  0
LINE
  5
1FE
330
1F
100
AcDbEntity
  8
C-1
  6
Continuous
 62
     2
370
     5
100
AcDbLine
 10
82.63005437077709
 20
502.9722389014992
 30
0.0
 11
507.6307142103042
 21
502.9722389014992
 31
0.0
  0
LINE
  5
1FF
330
1F
100
AcDbEntity
  8
C-4
  6
Continuous
 62
     7
370
     5
100
AcDbLine
 10
586.0909126900339
 20
502.9722389014992
 30
0.0
 11
586.0909126900339
 21
652.9726100612334
 31
0.0
  0
LINE
  5
200
330
1F
100
AcDbEntity
  8
C-4
  6
Continuous
 62
     7
370
     5
100
AcDbLine
 10
520.9568332981422
 20
502.9722389014992
 30
0.0
 11
589.0913679793078
 21
502.9722389014992
 31
0.0
  0
LINE
  5
201
330
1F
100
AcDbEntity
  8
C-4
  6
Continuous
 62
     7
370
     5
100
AcDbLine
 10
520.9568332981422
 20
652.9726100612334
 30
0.0
 11
589.0913679793078
 21
652.9726100612334
 31
0.0
  0
LINE
  5
202
330
1F
100
AcDbEntity
  8
C-6
  6
Continuous
 62
     6
370
     5
100
AcDbLine
 10
82.63005437077709
 20
606.2567138671875
 30
0.0
 11
143.8793285472974
 21
606.2567138671875
 31
0.0
  0
LINE
  5
203
330
1F
100
AcDbEntity
  8
C-6
  6
Continuous
 62
     6
370
     5
100
AcDbLine
 10
151.3777449324326
 20
606.2567138671875
 30
0.0
 11
293.8793285472974
 21
606.2567138671875
 31
0.0
  0
LINE
  5
204
330
1F
100
AcDbEntity
  8
C-6
  6
Continuous
 62
     6
370
     5
100
AcDbLine
 10
301.3777449324326
 20
606.2567138671875
 30
0.0
 11
443.8785862278294
 21
606.2567138671875
 31
0.0
  0
LINE
  5
205
330
1F
100
AcDbEntity
  8
C-6
  6
Continuous
 62
     6
370
     5
100
AcDbLine
 10
451.3770026129646
 20
606.2567138671875
 30
0.0
 11
507.6307142103042
 21
606.2567138671875
 31
0.0
  0
LINE
  5
206
330
1F
100
AcDbEntity
  8
C-6
  6
Continuous
 62
     6
370
     5
100
AcDbLine
 10
451.3770026129646
 20
577.9723626214106
 30
0.0
 11
507.6307142103042
 21
577.9723626214106
 31
0.0
  0
LINE
  5
207
330
1F
100
AcDbEntity
  8
C-6
  6
Continuous
 62
     6
370
     5
100
AcDbLine
 10
451.3770026129646
 20
549.6880113756336
 30
0.0
 11
507.6307142103042
 21
549.6880113756336
 31
0.0
  0
LINE
  5
208
330
1F
100
AcDbEntity
  8
C-6
  6
Continuous
 62
     6
370
     5
100
AcDbLine
 10
301.3777449324326
 20
549.6880113756336
 30
0.0
 11
443.8785862278294
 21
549.6880113756336
 31
0.0
  0
LINE
  5
209
330
1F
100
AcDbEntity
  8
C-6
  6
Continuous
 62
     6
370
     5
100
AcDbLine
 10
82.63005437077709
 20
549.6880113756336
 30
0.0
 11
143.8793285472974
 21
549.6880113756336
 31
0.0
  0
LINE
  5
20A
330
1F
100
AcDbEntity
  8
C-6
  6
Continuous
 62
     6
370
     5
100
AcDbLine
 10
151.3777449324326
 20
549.6880113756336
 30
0.0
 11
293.8793285472974
 21
549.6880113756336
 31
0.0
  0
LINE
  5
20B
330
1F
100
AcDbEntity
  8
C-4
  6
Continuous
 62
     7
370
     5
100
AcDbLine
 10
82.63005437077709
 20
715.8574614653717
 30
0.0
 11
507.6307142103042
 21
715.8574614653717
 31
0.0
  0
LINE
  5
20C
330
1F
100
AcDbEntity
  8
C-4
  6
Continuous
 62
     7
370
     5
100
AcDbLine
 10
132.6302193306589
 20
663.432881123311
 30
0.0
 11
132.6302193306589
 21
781.9746192725929
 31
0.0
  0
LINE
  5
20D
330
1F
100
AcDbEntity
  8
C-4
  6
Continuous
 62
     7
370
     5
100
AcDbLine
 10
162.6298234269427
 20
663.432881123311
 30
0.0
 11
162.6298234269427
 21
718.8579167546453
 31
0.0
  0
LINE
  5
20E
330
1F
100
AcDbEntity
  8
C-4
  6
Continuous
 62
     7
370
     5
100
AcDbLine
 10
282.6304667704815
 20
663.432881123311
 30
0.0
 11
282.6304667704815
 21
781.9746192725929
 31
0.0
  0
LINE
  5
20F
330
1F
100
AcDbEntity
  8
C-4
  6
Continuous
 62
     7
370
     5
100
AcDbLine
 10
312.6308131862334
 20
663.432881123311
 30
0.0
 11
312.6308131862334
 21
718.8579167546453
 31
0.0
  0
LINE
  5
210
330
1F
100
AcDbEntity
  8
C-4
  6
Continuous
 62
     7
370
     5
100
AcDbLine
 10
432.6294770111909
 20
663.432881123311
 30
0.0
 11
432.6294770111909
 21
781.9746192725929
 31
0.0
  0
LINE
  5
211
330
1F
100
AcDbEntity
  8
C-4
  6
Continuous
 62
     7
370
     5
100
AcDbLine
 10
462.6300708667651
 20
663.432881123311
 30
0.0
 11
462.6300708667651
 21
718.8579167546453
 31
0.0
  0
LINE
  5
212
330
1F
100
AcDbEntity
  8
C-4
  6
Continuous
 62
     7
370
     5
100
AcDbLine
 10
82.63005437077709
 20
778.9741639833193
 30
0.0
 11
507.6307142103042
 21
778.9741639833193
 31
0.0
  0
LINE
  5
213
330
1F
100
AcDbEntity
  8
C-6
  6
Continuous
 62
     6
370
     5
100
AcDbLine
 10
82.62931205130911
 20
577.9723626214106
 30
0.0
 11
143.8793285472974
 21
577.9723626214106
 31
0.0
  0
LINE
  5
214
330
1F
100
AcDbEntity
  8
C-6
  6
Continuous
 62
     6
370
     5
100
AcDbLine
 10
151.3777449324326
 20
577.9723626214106
 30
0.0
 11
293.8793285472974
 21
577.9723626214106
 31
0.0
  0
LINE
  5
215
330
1F
100
AcDbEntity
  8
C-6
  6
Continuous
 62
     6
370
     5
100
AcDbLine
 10
301.3777449324326
 20
577.9723626214106
 30
0.0
 11
443.8785862278294
 21
577.9723626214106
 31
0.0
  0
LINE
  5
216
330
1F
100
AcDbEntity
  8
C-2
  6
Continuous
 62
     3
370
     5
100
AcDbLine
 10
150.6304766680745
 20
652.9726100612334
 30
0.0
 11
144.6305558488177
 21
652.9726100612334
 31
0.0
  0
LINE
  5
217
330
1F
100
AcDbEntity
  8
C-2
  6
Continuous
 62
     3
370
     5
100
AcDbLine
 10
153.880598738387
 20
622.7225968644427
 30
0.0
 11
151.3802193306589
 21
622.7225968644427
 31
0.0
  0
LINE
  5
218
330
1F
100
AcDbEntity
  8
C-2
  6
Continuous
 62
     3
370
     5
100
AcDbLine
 10
143.8808131862334
 20
622.7225968644427
 30
0.0
 11
141.3806812183279
 21
622.7225968644427
 31
0.0
  0
LINE
  5
219
330
1F
100
AcDbEntity
  8
C-2
  6
Continuous
 62
     3
370
     5
100
AcDbLine
 10
134.1306944151182
 20
652.9726100612334
 30
0.0
 11
138.629892710093
 21
652.9726100612334
 31
0.0
  0
LINE
  5
21A
330
1F
100
AcDbEntity
  8
C-2
  6
Continuous
 62
     3
370
     5
100
AcDbLine
 10
161.1303381017737
 20
652.9726100612334
 30
0.0
 11
156.6303974873313
 21
652.9726100612334
 31
0.0
  0
LINE
  5
21B
330
1F
100
AcDbEntity
  8
C-2
  6
Continuous
 62
     3
370
     5
100
AcDbLine
 10
132.6302193306589
 20
651.4721349767738
 30
0.0
 11
132.6302193306589
 21
642.9723296294342
 31
0.0
  0
LINE
  5
21C
330
1F
100
AcDbEntity
  8
C-2
  6
Continuous
 62
     3
370
     5
100
AcDbLine
 10
162.6308131862334
 20
651.4721349767738
 30
0.0
 11
162.6308131862334
 21
642.9723296294342
 31
0.0
  0
LINE
  5
21D
330
1F
100
AcDbEntity
  8
C-2
  6
Continuous
 62
     3
370
     5
100
AcDbLine
 10
132.6302193306589
 20
642.9723296294342
 30
0.0
 11
141.3806812183279
 21
622.7225968644427
 31
0.0
  0
LINE
  5
21E
330
1F
100
AcDbEntity
  8
C-2
  6
Continuous
 62
     3
370
     5
100
AcDbLine
 10
153.880598738387
 20
622.7225968644427
 30
0.0
 11
162.6308131862334
 21
642.9723296294342
 31
0.0
  0
LINE
  5
21F
330
1F
100
AcDbEntity
  8
C-2
  6
Continuous
 62
     3
370
     5
100
AcDbLine
 10
150.6304766680745
 20
502.9722389014992
 30
0.0
 11
144.6305558488177
 21
502.9722389014992
 31
0.0
  0
LINE
  5
220
330
1F
100
AcDbEntity
  8
C-2
  6
Continuous
 62
     3
370
     5
100
AcDbLine
 10
134.1306944151182
 20
502.9722389014992
 30
0.0
 11
138.629892710093
 21
502.9722389014992
 31
0.0
  0
LINE
  5
221
330
1F
100
AcDbEntity
  8
C-2
  6
Continuous
 62
     3
370
     5
100
AcDbLine
 10
161.1303381017737
 20
502.9722389014992
 30
0.0
 11
156.6303974873313
 21
502.9722389014992
 31
0.0
  0
LINE
  5
222
330
1F
100
AcDbEntity
  8
C-2
  6
Continuous
 62
     3
370
     5
100
AcDbLine
 10
132.6302193306589
 20
504.4725902660474
 30
0.0
 11
132.6302193306589
 21
512.9727667731208
 31
0.0
  0
LINE
  5
223
330
1F
100
AcDbEntity
  8
C-2
  6
Continuous
 62
     3
370
     5
100
AcDbLine
 10
162.6308131862334
 20
504.4725902660474
 30
0.0
 11
162.6308131862334
 21
512.9727667731208
 31
0.0
  0
LINE
  5
224
330
1F
100
AcDbEntity
  8
C-2
  6
Continuous
 62
     3
370
     5
100
AcDbLine
 10
132.6302193306589
 20
512.9727667731208
 30
0.0
 11
141.3806812183279
 21
533.2226232580238
 31
0.0
  0
LINE
  5
225
330
1F
100
AcDbEntity
  8
C-2
  6
Continuous
 62
     3
370
     5
100
AcDbLine
 10
153.880598738387
 20
533.2226232580238
 30
0.0
 11
162.6308131862334
 21
512.9727667731208
 31
0.0
  0
LINE
  5
226
330
1F
100
AcDbEntity
  8
C-2
  6
Continuous
 62
     3
370
     5
100
AcDbLine
 10
143.8808131862334
 20
533.2226232580238
 30
0.0
 11
141.3806812183279
 21
533.2226232580238
 31
0.0
  0
LINE
  5
227
330
1F
100
AcDbEntity
  8
C-2
  6
Continuous
 62
     3
370
     5
100
AcDbLine
 10
143.8808131862334
 20
622.7225968644427
 30
0.0
 11
143.8808131862334
 21
533.2226232580238
 31
0.0
  0
LINE
  5
228
330
1F
100
AcDbEntity
  8
C-2
  6
Continuous
 62
     3
370
     5
100
AcDbLine
 10
151.3802193306589
 20
622.7225968644427
 30
0.0
 11
151.3802193306589
 21
533.2226232580238
 31
0.0
  0
LINE
  5
229
330
1F
100
AcDbEntity
  8
C-2
  6
Continuous
 62
     3
370
     5
100
AcDbLine
 10
153.880598738387
 20
533.2226232580238
 30
0.0
 11
151.3802193306589
 21
533.2226232580238
 31
0.0
  0
LINE
  5
22A
330
1F
100
AcDbEntity
  8
C-2
  6
Continuous
 62
     3
370
     5
100
AcDbLine
 10
300.6304766680745
 20
652.9726100612334
 30
0.0
 11
294.6305558488177
 21
652.9726100612334
 31
0.0
  0
LINE
  5
22B
330
1F
100
AcDbEntity
  8
C-2
  6
Continuous
 62
     3
370
     5
100
AcDbLine
 10
303.8803512985643
 20
622.7225968644427
 30
0.0
 11
301.3802193306589
 21
622.7225968644427
 31
0.0
  0
LINE
  5
22C
330
1F
100
AcDbEntity
  8
C-2
  6
Continuous
 62
     3
370
     5
100
AcDbLine
 10
293.8805657464107
 20
622.7225968644427
 30
0.0
 11
291.3806812183279
 21
622.7225968644427
 31
0.0
  0
LINE
  5
22D
330
1F
100
AcDbEntity
  8
C-2
  6
Continuous
 62
     3
370
     5
100
AcDbLine
 10
284.1306944151185
 20
652.9726100612334
 30
0.0
 11
288.629892710093
 21
652.9726100612334
 31
0.0
  0
LINE
  5
22E
330
1F
100
AcDbEntity
  8
C-2
  6
Continuous
 62
     3
370
     5
100
AcDbLine
 10
311.1303381017737
 20
652.9726100612334
 30
0.0
 11
306.6303974873313
 21
652.9726100612334
 31
0.0
  0
LINE
  5
22F
330
1F
100
AcDbEntity
  8
C-2
  6
Continuous
 62
     3
370
     5
100
AcDbLine
 10
282.6299718908362
 20
651.4721349767738
 30
0.0
 11
282.6299718908362
 21
642.9723296294342
 31
0.0
  0
LINE
  5
230
330
1F
100
AcDbEntity
  8
C-2
  6
Continuous
 62
     3
370
     5
100
AcDbLine
 10
312.6308131862334
 20
651.4721349767738
 30
0.0
 11
312.6308131862334
 21
642.9723296294342
 31
0.0
  0
LINE
  5
231
330
1F
100
AcDbEntity
  8
C-2
  6
Continuous
 62
     3
370
     5
100
AcDbLine
 10
282.6299718908362
 20
642.9723296294342
 30
0.0
 11
291.3806812183279
 21
622.7225968644427
 31
0.0
  0
LINE
  5
232
330
1F
100
AcDbEntity
  8
C-2
  6
Continuous
 62
     3
370
     5
100
AcDbLine
 10
303.8803512985643
 20
622.7225968644427
 30
0.0
 11
312.6308131862334
 21
642.9723296294342
 31
0.0
  0
LINE
  5
233
330
1F
100
AcDbEntity
  8
C-2
  6
Continuous
 62
     3
370
     5
100
AcDbLine
 10
300.6304766680745
 20
502.9722389014992
 30
0.0
 11
294.6305558488177
 21
502.9722389014992
 31
0.0
  0
LINE
  5
234
330
1F
100
AcDbEntity
  8
C-2
  6
Continuous
 62
     3
370
     5
100
AcDbLine
 10
284.1306944151185
 20
502.9722389014992
 30
0.0
 11
288.629892710093
 21
502.9722389014992
 31
0.0
  0
LINE
  5
235
330
1F
100
AcDbEntity
  8
C-2
  6
Continuous
 62
     3
370
     5
100
AcDbLine
 10
311.1303381017737
 20
502.9722389014992
 30
0.0
 11
306.6303974873313
 21
502.9722389014992
 31
0.0
  0
LINE
  5
236
330
1F
100
AcDbEntity
  8
C-2
  6
Continuous
 62
     3
370
     5
100
AcDbLine
 10
282.6299718908362
 20
504.4725902660474
 30
0.0
 11
282.6299718908362
 21
512.9727667731208
 31
0.0
  0
LINE
  5
237
330
1F
100
AcDbEntity
  8
C-2
  6
Continuous
 62
     3
370
     5
100
AcDbLine
 10
312.6308131862334
 20
504.4725902660474
 30
0.0
 11
312.6308131862334
 21
512.9727667731208
 31
0.0
  0
LINE
  5
238
330
1F
100
AcDbEntity
  8
C-2
  6
Continuous
 62
     3
370
     5
100
AcDbLine
 10
282.6299718908362
 20
512.9727667731208
 30
0.0
 11
291.3806812183279
 21
533.2226232580238
 31
0.0
  0
LINE
  5
239
330
1F
100
AcDbEntity
  8
C-2
  6
Continuous
 62
     3
370
     5
100
AcDbLine
 10
303.8803512985643
 20
533.2226232580238
 30
0.0
 11
312.6308131862334
 21
512.9727667731208
 31
0.0
  0
LINE
  5
23A
330
1F
100
AcDbEntity
  8
C-2
  6
Continuous
 62
     3
370
     5
100
AcDbLine
 10
293.8805657464107
 20
533.2226232580238
 30
0.0
 11
291.3806812183279
 21
533.2226232580238
 31
0.0
  0
LINE
  5
23B
330
1F
100
AcDbEntity
  8
C-2
  6
Continuous
 62
     3
370
     5
100
AcDbLine
 10
293.8805657464107
 20
622.7225968644427
 30
0.0
 11
293.8805657464107
 21
533.2226232580238
 31
0.0
  0
LINE
  5
23C
330
1F
100
AcDbEntity
  8
C-2
  6
Continuous
 62
     3
370
     5
100
AcDbLine
 10
301.3802193306589
 20
622.7225968644427
 30
0.0
 11
301.3802193306589
 21
533.2226232580238
 31
0.0
  0
LINE
  5
23D
330
1F
100
AcDbEntity
  8
C-2
  6
Continuous
 62
     3
370
     5
100
AcDbLine
 10
303.8803512985643
 20
533.2226232580238
 30
0.0
 11
301.3802193306589
 21
533.2226232580238
 31
0.0
  0
LINE
  5
23E
330
1F
100
AcDbEntity
  8
C-2
  6
Continuous
 62
     3
370
     5
100
AcDbLine
 10
450.6304766680745
 20
652.9726100612334
 30
0.0
 11
444.6305558488177
 21
652.9726100612334
 31
0.0
  0
LINE
  5
23F
330
1F
100
AcDbEntity
  8
C-2
  6
Continuous
 62
     3
370
     5
100
AcDbLine
 10
453.8803512985643
 20
622.7225968644427
 30
0.0
 11
451.3802193306589
 21
622.7225968644427
 31
0.0
  0
LINE
  5
240
330
1F
100
AcDbEntity
  8
C-2
  6
Continuous
 62
     3
370
     5
100
AcDbLine
 10
443.8805657464107
 20
622.7225968644427
 30
0.0
 11
441.3804337785052
 21
622.7225968644427
 31
0.0
  0
LINE
  5
241
330
1F
100
AcDbEntity
  8
C-2
  6
Continuous
 62
     3
370
     5
100
AcDbLine
 10
434.1306944151185
 20
652.9726100612334
 30
0.0
 11
438.629892710093
 21
652.9726100612334
 31
0.0
  0
LINE
  5
242
330
1F
100
AcDbEntity
  8
C-2
  6
Continuous
 62
     3
370
     5
100
AcDbLine
 10
461.130338101774
 20
652.9726100612334
 30
0.0
 11
456.6303974873313
 21
652.9726100612334
 31
0.0
  0
LINE
  5
243
330
1F
100
AcDbEntity
  8
C-2
  6
Continuous
 62
     3
370
     5
100
AcDbLine
 10
432.6299718908362
 20
651.4721349767738
 30
0.0
 11
432.6299718908362
 21
642.9723296294342
 31
0.0
  0
LINE
  5
244
330
1F
100
AcDbEntity
  8
C-2
  6
Continuous
 62
     3
370
     5
100
AcDbLine
 10
462.6308131862334
 20
651.4721349767738
 30
0.0
 11
462.6308131862334
 21
642.9723296294342
 31
0.0
  0
LINE
  5
245
330
1F
100
AcDbEntity
  8
C-2
  6
Continuous
 62
     3
370
     5
100
AcDbLine
 10
432.6299718908362
 20
642.9723296294342
 30
0.0
 11
441.3804337785052
 21
622.7225968644427
 31
0.0
  0
LINE
  5
246
330
1F
100
AcDbEntity
  8
C-2
  6
Continuous
 62
     3
370
     5
100
AcDbLine
 10
453.8803512985643
 20
622.7225968644427
 30
0.0
 11
462.6308131862334
 21
642.9723296294342
 31
0.0
  0
LINE
  5
247
330
1F
100
AcDbEntity
  8
C-2
  6
Continuous
 62
     3
370
     5
100
AcDbLine
 10
450.6304766680745
 20
502.9722389014992
 30
0.0
 11
444.6305558488177
 21
502.9722389014992
 31
0.0
  0
LINE
  5
248
330
1F
100
AcDbEntity
  8
C-2
  6
Continuous
 62
     3
370
     5
100
AcDbLine
 10
434.1306944151185
 20
502.9722389014992
 30
0.0
 11
438.629892710093
 21
502.9722389014992
 31
0.0
  0
LINE
  5
249
330
1F
100
AcDbEntity
  8
C-2
  6
Continuous
 62
     3
370
     5
100
AcDbLine
 10
461.130338101774
 20
502.9722389014992
 30
0.0
 11
456.6303974873313
 21
502.9722389014992
 31
0.0
  0
LINE
  5
24A
330
1F
100
AcDbEntity
  8
C-2
  6
Continuous
 62
     3
370
     5
100
AcDbLine
 10
432.6299718908362
 20
504.4725902660474
 30
0.0
 11
432.6299718908362
 21
512.9727667731208
 31
0.0
  0
LINE
  5
24B
330
1F
100
AcDbEntity
  8
C-2
  6
Continuous
 62
     3
370
     5
100
AcDbLine
 10
462.6308131862334
 20
504.4725902660474
 30
0.0
 11
462.6308131862334
 21
512.9727667731208
 31
0.0
  0
LINE
  5
24C
330
1F
100
AcDbEntity
  8
C-2
  6
Continuous
 62
     3
370
     5
100
AcDbLine
 10
432.6299718908362
 20
512.9727667731208
 30
0.0
 11
441.3804337785052
 21
533.2226232580238
 31
0.0
  0
LINE
  5
24D
330
1F
100
AcDbEntity
  8
C-2
  6
Continuous
 62
     3
370
     5
100
AcDbLine
 10
453.8803512985643
 20
533.2226232580238
 30
0.0
 11
462.6308131862334
 21
512.9727667731208
 31
0.0
  0
LINE
  5
24E
330
1F
100
AcDbEntity
  8
C-2
  6
Continuous
 62
     3
370
     5
100
AcDbLine
 10
443.8805657464107
 20
533.2226232580238
 30
0.0
 11
441.3804337785052
 21
533.2226232580238
 31
0.0
  0
LINE
  5
24F
330
1F
100
AcDbEntity
  8
C-2
  6
Continuous
 62
     3
370
     5
100
AcDbLine
 10
443.8805657464107
 20
622.7225968644427
 30
0.0
 11
443.8805657464107
 21
533.2226232580238
 31
0.0
  0
LINE
  5
250
330
1F
100
AcDbEntity
  8
C-2
  6
Continuous
 62
     3
370
     5
100
AcDbLine
 10
451.3802193306589
 20
622.7225968644427
 30
0.0
 11
451.3802193306589
 21
533.2226232580238
 31
0.0
  0
LINE
  5
251
330
1F
100
AcDbEntity
  8
C-2
  6
Continuous
 62
     3
370
     5
100
AcDbLine
 10
453.8803512985643
 20
533.2226232580238
 30
0.0
 11
451.3802193306589
 21
533.2226232580238
 31
0.0
  0
ARC
  5
252
330
1F
100
AcDbEntity
  8
D-1
  6
Continuous
 62
     2
370
     5
100
AcDbCircle
 10
-702.4669337917019
 20
-457.4054284997888
 30
0.0
 40
5.000000064437454
100
AcDbArc
 50
0.0
 51
180.0
  0
ARC
  5
253
330
1F
100
AcDbEntity
  8
D-1
  6
Continuous
 62
     2
370
     5
100
AcDbCircle
 10
-702.4669337917019
 20
-324.9056099556587
 30
0.0
 40
5.000000064437454
100
AcDbArc
 50
180.0
 51
0.0
  0
ARC
  5
254
330
1F
100
AcDbEntity
  8
D-1
  6
Continuous
 62
     2
370
     5
100
AcDbCircle
 10
-766.2173296954179
 20
-448.6554614917651
 30
0.0
 40
3.750000531608994
100
AcDbArc
 50
90.0
 51
270.0
  0
ARC
  5
255
330
1F
100
AcDbEntity
  8
D-1
  6
Continuous
 62
     2
370
     5
100
AcDbCircle
 10
-737.4672967034417
 20
-479.9056264516469
 30
0.0
 40
5.000000064437454
100
AcDbArc
 50
270.0
 51
0.0
  0
ARC
  5
256
330
1F
100
AcDbEntity
  8
D-1
  6
Continuous
 62
     2
370
     5
100
AcDbCircle
 10
-737.4672967034417
 20
-457.4054284997888
 30
0.0
 40
5.000000064437454
100
AcDbArc
 50
0.0
 51
90.0
  0
ARC
  5
257
330
1F
100
AcDbEntity
  8
D-1
  6
Continuous
 62
     2
370
     5
100
AcDbCircle
 10
-818.7171317435599
 20
-448.6554614917651
 30
0.0
 40
3.750000531608994
100
AcDbArc
 50
270.0
 51
90.0
  0
ARC
  5
258
330
1F
100
AcDbEntity
  8
D-1
  6
Continuous
 62
     2
370
     5
100
AcDbCircle
 10
-698.9676398199958
 20
-291.4057221283782
 30
0.0
 40
1.500000019331236
100
AcDbArc
 50
0.0
 51
90.0
  0
ARC
  5
259
330
1F
100
AcDbEntity
  8
D-1
  6
Continuous
 62
     2
370
     5
100
AcDbCircle
 10
-730.9670525628167
 20
-291.4057221283782
 30
0.0
 40
1.500000019331236
100
AcDbArc
 50
90.0
 51
180.0
  0
ARC
  5
25A
330
1F
100
AcDbEntity
  8
D-1
  6
Continuous
 62
     2
370
     5
100
AcDbCircle
 10
-698.9676398199958
 20
-490.9053163270693
 30
0.0
 40
1.500000019331236
100
AcDbArc
 50
270.0
 51
0.0
  0
ARC
  5
25B
330
1F
100
AcDbEntity
  8
D-1
  6
Continuous
 62
     2
370
     5
100
AcDbCircle
 10
-860.9674814585093
 20
-490.9053163270693
 30
0.0
 40
1.500000019331236
100
AcDbArc
 50
180.0
 51
270.0
  0
ARC
  5
25C
330
1F
100
AcDbEntity
  8
D-1
  6
Continuous
 62
     2
370
     5
100
AcDbCircle
 10
-848.9666500607052
 20
-446.4052437447212
 30
0.0
 40
1.500000019331236
100
AcDbArc
 50
0.0
 51
90.0
  0
ARC
  5
25D
330
1F
100
AcDbEntity
  8
D-1
  6
Continuous
 62
     2
370
     5
100
AcDbCircle
 10
-749.9669667836781
 20
-479.9056264516469
 30
0.0
 40
5.000000064437454
100
AcDbArc
 50
180.0
 51
270.0
  0
ARC
  5
25E
330
1F
100
AcDbEntity
  8
D-1
  6
Continuous
 62
     2
370
     5
100
AcDbCircle
 10
-749.9669667836781
 20
-457.4054284997888
 30
0.0
 40
5.000000064437454
100
AcDbArc
 50
90.0
 51
180.0
  0
ARC
  5
25F
330
1F
100
AcDbEntity
  8
D-1
  6
Continuous
 62
     2
370
     5
100
AcDbCircle
 10
-764.9677585911106
 20
-479.9056264516469
 30
0.0
 40
5.000000064437454
100
AcDbArc
 50
270.0
 51
0.0
  0
ARC
  5
260
330
1F
100
AcDbEntity
  8
D-1
  6
Continuous
 62
     2
370
     5
100
AcDbCircle
 10
-819.9671977275125
 20
-479.9056264516469
 30
0.0
 40
5.000000064437454
100
AcDbArc
 50
180.0
 51
270.0
  0
ARC
  5
261
330
1F
100
AcDbEntity
  8
D-9
  6
Continuous
 62
     4
370
     5
100
AcDbCircle
 10
-792.4672307194891
 20
-344.2811378272803
 30
0.0
 40
118.1243458309689
100
AcDbArc
 50
262.7046203613281
 51
277.2953796386718
  0
ARC
  5
262
330
1F
100
AcDbEntity
  8
D-9
  6
Continuous
 62
     4
370
     5
100
AcDbCircle
 10
-792.4672307194891
 20
-344.2811378272803
 30
0.0
 40
122.1243497487661
100
AcDbArc
 50
255.295166015625
 51
284.704833984375
  0
ARC
  5
263
330
1F
100
AcDbEntity
  8
D-A
  6
Continuous
 62
     3
370
     5
100
AcDbCircle
 10
-578.96823367557
 20
-396.155164563978
 30
0.0
 40
10.00000012887491
100
AcDbArc
 50
0.0
 51
92.1597900390625
  0
ARC
  5
264
330
1F
100
AcDbEntity
  8
D-A
  6
Continuous
 62
     3
370
     5
100
AcDbCircle
 10
-698.9661551810599
 20
-448.6559563714104
 30
0.0
 40
10.00000012887491
100
AcDbArc
 50
359.9990997314453
 51
89.99777221679688
  0
ARC
  5
265
330
1F
100
AcDbEntity
  8
D-A
  6
Continuous
 62
     3
370
     5
100
AcDbCircle
 10
-685.9691310573269
 20
-392.6642835462416
 30
0.0
 40
6.500001533611401
100
AcDbArc
 50
1.3473663330078
 51
90.00068664550781
  0
ARC
  5
266
330
1F
100
AcDbEntity
  8
D-A
  6
Continuous
 62
     3
370
     5
100
AcDbCircle
 10
-685.9691310573269
 20
-414.6631684174409
 30
0.0
 40
6.500001533611401
100
AcDbArc
 50
269.997314453125
 51
0.008056640625
  0
ARC
  5
267
330
1F
100
AcDbEntity
  8
D-3
  6
Continuous
 62
     2
370
     5
100
AcDbCircle
 10
-764.9657790725294
 20
-338.6745226061021
 30
0.0
 40
7.500000096656181
100
AcDbArc
 50
136.4337005615234
 51
180.0
  0
ARC
  5
268
330
1F
100
AcDbEntity
  8
D-3
  6
Continuous
 62
     2
370
     5
100
AcDbCircle
 10
-764.9657790725294
 20
-391.1396830790751
 30
0.0
 40
7.500000096656181
100
AcDbArc
 50
180.0
 51
223.5664672851562
  0
ARC
  5
269
330
1F
100
AcDbEntity
  8
D-2
  6
Continuous
 62
     3
370
     5
100
AcDbCircle
 10
-755.472131677576
 20
-383.656113083298
 30
0.0
 40
6.935327922975695
100
AcDbArc
 50
115.6855621337891
 51
244.3132934570312
  0
ARC
  5
26A
330
1F
100
AcDbEntity
  8
D-2
  6
Continuous
 62
     3
370
     5
100
AcDbCircle
 10
-755.472131677576
 20
-346.1551233240075
 30
0.0
 40
6.935327922975695
100
AcDbArc
 50
115.6867065429688
 51
244.3144378662109
  0
ARC
  5
26B
330
1F
100
AcDbEntity
  8
C-2
  6
Continuous
 62
     3
370
     5
100
AcDbCircle
 10
141.6305954391893
 20
652.9726100612334
 30
0.0
 40
2.999991339606208
100
AcDbArc
 50
179.9994049072266
 51
0.0005950927733807
  0
ARC
  5
26C
330
1F
100
AcDbEntity
  8
C-2
  6
Continuous
 62
     3
370
     5
100
AcDbCircle
 10
153.6304370777029
 20
652.9726100612334
 30
0.0
 40
2.999991339606208
100
AcDbArc
 50
179.9994049072266
 51
0.0005950927733807
  0
ARC
  5
26D
330
1F
100
AcDbEntity
  8
C-2
  6
Continuous
 62
     3
370
     5
100
AcDbCircle
 10
134.1306944151182
 20
651.4721349767738
 30
0.0
 40
1.500000140151462
100
AcDbArc
 50
90.0
 51
180.0
  0
ARC
  5
26E
330
1F
100
AcDbEntity
  8
C-2
  6
Continuous
 62
     3
370
     5
100
AcDbCircle
 10
161.1303381017737
 20
651.4721349767738
 30
0.0
 40
1.500000140151462
100
AcDbArc
 50
0.0
 51
90.0
  0
ARC
  5
26F
330
1F
100
AcDbEntity
  8
C-2
  6
Continuous
 62
     3
370
     5
100
AcDbCircle
 10
141.6305954391893
 20
502.9722389014992
 30
0.0
 40
2.999991339606208
100
AcDbArc
 50
359.9994049072266
 51
180.0005950927735
  0
ARC
  5
270
330
1F
100
AcDbEntity
  8
C-2
  6
Continuous
 62
     3
370
     5
100
AcDbCircle
 10
153.6304370777029
 20
502.9722389014992
 30
0.0
 40
2.999991339606208
100
AcDbArc
 50
359.9994049072266
 51
180.0005950927735
  0
ARC
  5
271
330
1F
100
AcDbEntity
  8
C-2
  6
Continuous
 62
     3
370
     5
100
AcDbCircle
 10
134.1306944151182
 20
504.4725902660474
 30
0.0
 40
1.500000140151462
100
AcDbArc
 50
180.0
 51
270.0
  0
ARC
  5
272
330
1F
100
AcDbEntity
  8
C-2
  6
Continuous
 62
     3
370
     5
100
AcDbCircle
 10
161.1303381017737
 20
504.4725902660474
 30
0.0
 40
1.500000140151462
100
AcDbArc
 50
270.0
 51
0.0
  0
ARC
  5
273
330
1F
100
AcDbEntity
  8
C-2
  6
Continuous
 62
     3
370
     5
100
AcDbCircle
 10
291.6305954391893
 20
652.9726100612334
 30
0.0
 40
2.999991339606208
100
AcDbArc
 50
179.9994049072266
 51
0.0005950927733807
  0
ARC
  5
274
330
1F
100
AcDbEntity
  8
C-2
  6
Continuous
 62
     3
370
     5
100
AcDbCircle
 10
303.6304370777029
 20
652.9726100612334
 30
0.0
 40
2.999991339606208
100
AcDbArc
 50
179.9994049072266
 51
0.0005950927733807
  0
ARC
  5
275
330
1F
100
AcDbEntity
  8
C-2
  6
Continuous
 62
     3
370
     5
100
AcDbCircle
 10
284.1306944151185
 20
651.4721349767738
 30
0.0
 40
1.500000140151462
100
AcDbArc
 50
90.0
 51
180.0
  0
ARC
  5
276
330
1F
100
AcDbEntity
  8
C-2
  6
Continuous
 62
     3
370
     5
100
AcDbCircle
 10
311.1303381017737
 20
651.4721349767738
 30
0.0
 40
1.500000140151462
100
AcDbArc
 50
0.0
 51
90.0
  0
ARC
  5
277
330
1F
100
AcDbEntity
  8
C-2
  6
Continuous
 62
     3
370
     5
100
AcDbCircle
 10
291.6305954391893
 20
502.9722389014992
 30
0.0
 40
2.999991339606208
100
AcDbArc
 50
359.9994049072266
 51
180.0005950927735
  0
ARC
  5
278
330
1F
100
AcDbEntity
  8
C-2
  6
Continuous
 62
     3
370
     5
100
AcDbCircle
 10
303.6304370777029
 20
502.9722389014992
 30
0.0
 40
2.999991339606208
100
AcDbArc
 50
359.9994049072266
 51
180.0005950927735
  0
ARC
  5
279
330
1F
100
AcDbEntity
  8
C-2
  6
Continuous
 62
     3
370
     5
100
AcDbCircle
 10
284.1306944151185
 20
504.4725902660474
 30
0.0
 40
1.500000140151462
100
AcDbArc
 50
180.0
 51
270.0
  0
ARC
  5
27A
330
1F
100
AcDbEntity
  8
C-2
  6
Continuous
 62
     3
370
     5
100
AcDbCircle
 10
311.1303381017737
 20
504.4725902660474
 30
0.0
 40
1.500000140151462
100
AcDbArc
 50
270.0
 51
0.0
  0
ARC
  5
27B
330
1F
100
AcDbEntity
  8
C-2
  6
Continuous
 62
     3
370
     5
100
AcDbCircle
 10
441.6305954391893
 20
652.9726100612334
 30
0.0
 40
2.999991339606208
100
AcDbArc
 50
179.9994049072266
 51
0.0005950927733807
  0
ARC
  5
27C
330
1F
100
AcDbEntity
  8
C-2
  6
Continuous
 62
     3
370
     5
100
AcDbCircle
 10
453.6301896378802
 20
652.9726100612334
 30
0.0
 40
2.999991339606208
100
AcDbArc
 50
179.9994049072266
 51
0.0005950927733807
  0
ARC
  5
27D
330
1F
100
AcDbEntity
  8
C-2
  6
Continuous
 62
     3
370
     5
100
AcDbCircle
 10
434.1306944151185
 20
651.4721349767738
 30
0.0
 40
1.500000140151462
100
AcDbArc
 50
90.0
 51
180.0
  0
ARC
  5
27E
330
1F
100
AcDbEntity
  8
C-2
  6
Continuous
 62
     3
370
     5
100
AcDbCircle
 10
461.130338101774
 20
651.4721349767738
 30
0.0
 40
1.500000140151462
100
AcDbArc
 50
0.0
 51
90.0
  0
ARC
  5
27F
330
1F
100
AcDbEntity
  8
C-2
  6
Continuous
 62
     3
370
     5
100
AcDbCircle
 10
441.6305954391893
 20
502.9722389014992
 30
0.0
 40
2.999991339606208
100
AcDbArc
 50
359.9994049072266
 51
180.0005950927735
  0
ARC
  5
280
330
1F
100
AcDbEntity
  8
C-2
  6
Continuous
 62
     3
370
     5
100
AcDbCircle
 10
453.6301896378802
 20
502.9722389014992
 30
0.0
 40
2.999991339606208
100
AcDbArc
 50
359.9994049072266
 51
180.0005950927735
  0
ARC
  5
281
330
1F
100
AcDbEntity
  8
C-2
  6
Continuous
 62
     3
370
     5
100
AcDbCircle
 10
434.1306944151185
 20
504.4725902660474
 30
0.0
 40
1.500000140151462
100
AcDbArc
 50
180.0
 51
270.0
  0
ARC
  5
282
330
1F
100
AcDbEntity
  8
C-2
  6
Continuous
 62
     3
370
     5
100
AcDbCircle
 10
461.130338101774
 20
504.4725902660474
 30
0.0
 40
1.500000140151462
100
AcDbArc
 50
270.0
 51
0.0
  0
TEXT
  5
283
330
1F
100
AcDbEntity
  8
D-5
  6
Continuous
 62
     2
370
     5
100
AcDbText
 10
-1161.961937981683
 20
-967.7082030920081
 30
0.0
 40
30.48
  1
断面詳細図　Ｓ＝１：２
 41
1.113636363636364
  7
ＭＳ ゴシック
100
AcDbText
  0
TEXT
  5
284
330
1F
100
AcDbEntity
  8
D-5
  6
Continuous
 62
     2
370
     5
100
AcDbText
 10
199.0078982791388
 20
-861.9488968802787
 30
0.0
 40
30.48
  1
処理：陽極酸化塗装複合皮膜（１３ミクロン以上）
 41
1.119565217391304
  7
ＭＳ ゴシック
100
AcDbText
  0
TEXT
  5
285
330
1F
100
AcDbEntity
  8
D-5
  6
Continuous
 62
     2
370
     5
100
AcDbText
 10
199.0078982791388
 20
-796.9488061523438
 30
0.0
 40
30.48
  1
材質：硬質アルミ押出形材（Ａ６０６３Ｓ－Ｔ５）
 41
1.119565217391304
  7
ＭＳ ゴシック
100
AcDbText
  0
TEXT
  5
286
330
1F
100
AcDbEntity
  8
D-5
  6
Continuous
 62
     2
370
     5
100
AcDbText
 10
84.70554661106434
 20
-329.2658903874577
 30
0.0
 40
30.48
  1
仕　様
 41
1.083333333333333
  7
ＭＳ ゴシック
100
AcDbText
  0
TEXT
  5
287
330
1F
100
AcDbEntity
  8
D-5
  6
Continuous
 62
     2
370
     5
100
AcDbText
 10
199.0075052235357
 20
-522.1856266826271
 30
0.0
 40
30.48
  1
処理：陽極酸化複合皮膜
 50
359.9999710668298
 41
1.113636363636363
  7
ＭＳ ゴシック
100
AcDbText
  0
TEXT
  5
288
330
1F
100
AcDbEntity
  8
D-5
  6
Continuous
 62
     2
370
     5
100
AcDbText
 10
199.0074776314401
 20
-457.1860926942567
 30
0.0
 40
30.48
  1
材質：硬質アルミ押出形材　Ａ６０６３Ｓ
 41
1.118421052631579
  7
ＭＳ ゴシック
100
AcDbText
  0
TEXT
  5
289
330
1F
100
AcDbEntity
  8
D-4
  6
Continuous
 62
     2
370
     5
100
AcDbText
 10
-770.4124533163533
 20
-52.09468842377525
 30
0.0
 40
30.48
  1
1
 41
0.9999999999999998
  7
ＭＳ ゴシック
100
AcDbText
  0
TEXT
  5
28A
330
1F
100
AcDbEntity
  8
D-4
  6
Continuous
 62
     2
370
     5
100
AcDbText
 10
-725.6758282635662
 20
-52.09468842377525
 30
0.0
 40
30.48
  1
7
 41
0.9999999999999998
  7
ＭＳ ゴシック
100
AcDbText
  0
TEXT
  5
28B
330
1F
100
AcDbEntity
  8
D-4
  6
Continuous
 62
     2
370
     5
100
AcDbText
 10
-821.2167605838259
 20
-160.8462225506755
 30
0.0
 40
30.48
  1
25
 41
1.0625
  7
ＭＳ ゴシック
100
AcDbText
  0
TEXT
  5
28C
330
1F
100
AcDbEntity
  8
D-4
  6
Continuous
 62
     2
370
     5
100
AcDbText
 10
-853.7174616633234
 20
-684.8846713999155
 30
0.0
 40
30.48
  1
25～30
 41
1.104166666666667
  7
ＭＳ ゴシック
100
AcDbText
  0
TEXT
  5
28D
330
1F
100
AcDbEntity
  8
D-4
  6
Continuous
 62
     2
370
     5
100
AcDbText
 10
-201.4229214469201
 20
-506.1557421700963
 30
0.0
 40
30.48
  1
50～60
 50
90.00000250447816
 41
1.104166666666666
  7
ＭＳ ゴシック
100
AcDbText
  0
TEXT
  5
28E
330
1F
100
AcDbEntity
  8
D-4
  6
Continuous
 62
     2
370
     5
100
AcDbText
 10
-730.3360480231207
 20
-839.3484858002533
 30
0.0
 40
30.48
  1
75～80
 41
1.104166666666667
  7
ＭＳ ゴシック
100
AcDbText
  0
TEXT
  5
28F
330
1F
100
AcDbEntity
  8
D-4
  6
Continuous
 62
     2
370
     5
100
AcDbText
 10
-490.0570226010103
 20
-456.1551070745516
 30
0.0
 40
30.48
  1
20
 50
90.00000250447816
 41
1.062499999999999
  7
ＭＳ ゴシック
100
AcDbText
  0
TEXT
  5
290
330
1F
100
AcDbEntity
  8
D-4
  6
Continuous
 62
     2
370
     5
100
AcDbText
 10
-490.0570226010103
 20
-358.658620720033
 30
0.0
 40
30.48
  1
19
 50
90.00000250447816
 41
1.0625
  7
ＭＳ ゴシック
100
AcDbText
  0
TEXT
  5
291
330
1F
100
AcDbEntity
  8
D-4
  6
Continuous
 62
     2
370
     5
100
AcDbText
 10
-801.169205679749
 20
-552.3828733371754
 30
0.0
 40
30.48
  1
26.5
 50
0.0003240514445394
 41
1.09375
  7
ＭＳ ゴシック
100
AcDbText
  0
TEXT
  5
292
330
1F
100
AcDbEntity
  8
D-5
  6
Continuous
 62
     7
370
     5
100
AcDbText
 10
-570.2043852934967
 20
-174.1048784575591
 30
0.0
 40
22.86
  1
塩ビクッション
 41
1.142857142857143
  7
ＭＳ ゴシック
100
AcDbText
  0
TEXT
  5
293
330
1F
100
AcDbEntity
  8
D-5
  6
Continuous
 62
     7
370
     5
100
AcDbText
 10
-555.9167315508867
 20
-268.4895616026182
 30
0.0
 40
22.86
  1
ｔ＝２．３（ＳＰＨＣ）
 41
1.151515151515152
  7
ＭＳ ゴシック
100
AcDbText
  0
TEXT
  5
294
330
1F
100
AcDbEntity
  8
D-5
  6
Continuous
 62
     7
370
     5
100
AcDbText
 10
-565.554030134871
 20
-118.0058167493664
 30
0.0
 40
22.86
  1
アルミニウム製受枠ＡＦ３０Ａ
 41
1.154761904761905
  7
ＭＳ ゴシック
100
AcDbText
  0
TEXT
  5
295
330
1F
100
AcDbEntity
  8
D-4
  6
Continuous
 62
     2
370
     5
100
AcDbText
 10
-954.7574224637638
 20
-400.8191497793658
 30
0.0
 40
30.48
  1
40
 50
90.00000250447816
 41
1.062499999999999
  7
ＭＳ ゴシック
100
AcDbText
  0
TEXT
  5
296
330
1F
100
AcDbEntity
  8
D-4
  6
Continuous
 62
     2
370
     5
100
AcDbText
 10
-1307.141051515179
 20
-386.155247290451
 30
0.0
 40
30.48
  1
30
 50
90.00000250447816
 41
1.062499999999999
  7
ＭＳ ゴシック
100
AcDbText
  0
TEXT
  5
297
330
1F
100
AcDbEntity
  8
D-5
  6
Continuous
 62
     7
370
     5
100
AcDbText
 10
-604.1945819698108
 20
-49.00289201060929
 30
0.0
 40
22.86
  1
アルミニウム製グレーチングＡＭＧ（Ｐ＝３０）
 50
0.0000926618049912
 41
1.159090909090909
  7
ＭＳ ゴシック
100
AcDbText
  0
TEXT
  5
298
330
1F
100
AcDbEntity
  8
C-5
  6
Continuous
 62
     2
370
     5
100
AcDbText
 10
-668.2635580526814
 20
409.582862845756
 30
0.0
 40
30.48
  1
平面詳細図　Ｓ＝１：１０
 41
1.114583333333333
  7
ＭＳ ゴシック
100
AcDbText
  0
TEXT
  5
299
330
1F
100
AcDbEntity
  8
C-5
  6
Continuous
 62
     2
370
     5
100
AcDbText
 10
-308.0441407899598
 20
609.4614111328125
 30
0.0
 40
30.48
  1
Ａ
 41
0.9999999999999998
  7
ＭＳ ゴシック
100
AcDbText
  0
TEXT
  5
29A
330
1F
100
AcDbEntity
  8
C-4
  6
Continuous
 62
     2
370
     5
100
AcDbText
 10
-629.0915288151921
 20
1032.765623548353
 30
0.0
 40
30.48
  1
7
 41
0.9999999999999998
  7
ＭＳ ゴシック
100
AcDbText
  0
TEXT
  5
29B
330
1F
100
AcDbEntity
  8
C-4
  6
Continuous
 62
     2
370
     5
100
AcDbText
 10
-581.6008985364759
 20
1032.765623548353
 30
0.0
 40
30.48
  1
1
 41
0.9999999999999998
  7
ＭＳ ゴシック
100
AcDbText
  0
TEXT
  5
29C
330
1F
100
AcDbEntity
  8
C-4
  6
Continuous
 62
     2
370
     5
100
AcDbText
 10
-256.2890418800147
 20
1032.765623548353
 30
0.0
 40
30.48
  1
1
 41
0.9999999999999998
  7
ＭＳ ゴシック
100
AcDbText
  0
TEXT
  5
29D
330
1F
100
AcDbEntity
  8
C-4
  6
Continuous
 62
     2
370
     5
100
AcDbText
 10
-211.1728441393053
 20
1032.765623548353
 30
0.0
 40
30.48
  1
7
 41
0.9999999999999998
  7
ＭＳ ゴシック
100
AcDbText
  0
TEXT
  5
29E
330
1F
100
AcDbEntity
  8
C-4
  6
Continuous
 62
     2
370
     5
100
AcDbText
 10
-577.416159140097
 20
973.6299803367823
 30
0.0
 40
30.48
  1
25
 41
1.0625
  7
ＭＳ ゴシック
100
AcDbText
  0
TEXT
  5
29F
330
1F
100
AcDbEntity
  8
C-4
  6
Continuous
 62
     2
370
     5
100
AcDbText
 10
-285.3479663745776
 20
973.6299803367823
 30
0.0
 40
30.48
  1
25
 41
1.0625
  7
ＭＳ ゴシック
100
AcDbText
  0
TEXT
  5
2A0
330
1F
100
AcDbEntity
  8
C-5
  6
Continuous
 62
     2
370
     5
100
AcDbText
 10
73.55544433978226
 20
409.5828628457502
 30
0.0
 40
30.48
  1
Ａ断面図　Ｓ＝１：２
 50
359.9999362819893
 41
1.1125
  7
ＭＳ ゴシック
100
AcDbText
  0
TEXT
  5
2A1
330
1F
100
AcDbEntity
  8
C-4
  6
Continuous
 62
     2
370
     5
100
AcDbText
 10
575.4516394423806
 20
556.7227335346123
 30
0.0
 40
30.48
  1
30
 50
90.00000250447816
 41
1.062499999999999
  7
ＭＳ ゴシック
100
AcDbText
  0
TEXT
  5
2A2
330
1F
100
AcDbEntity
  8
C-4
  6
Continuous
 62
     2
370
     5
100
AcDbText
 10
186.3808379302155
 20
789.6144279191302
 30
0.0
 40
30.48
  1
30
 41
1.0625
  7
ＭＳ ゴシック
100
AcDbText
  0
TEXT
  5
2A3
330
1F
100
AcDbEntity
  8
C-4
  6
Continuous
 62
     2
370
     5
100
AcDbText
 10
336.3796007311024
 20
789.6144279191302
 30
0.0
 40
30.48
  1
30
 41
1.0625
  7
ＭＳ ゴシック
100
AcDbText
  0
TEXT
  5
2A4
330
1F
100
AcDbEntity
  8
C-4
  6
Continuous
 62
     2
370
     5
100
AcDbText
 10
137.6300213788008
 20
726.4967356418919
 30
0.0
 40
30.48
  1
6
 41
0.9999999999999998
  7
ＭＳ ゴシック
100
AcDbText
  0
TEXT
  5
2A5
330
1F
100
AcDbEntity
  8
C-4
  6
Continuous
 62
     2
370
     5
100
AcDbText
 10
287.6305162584461
 20
726.4967356418919
 30
0.0
 40
30.48
  1
6
 41
0.9999999999999998
  7
ＭＳ ゴシック
100
AcDbText
  0
TEXT
  5
2A6
330
1F
100
AcDbEntity
  8
C-4
  6
Continuous
 62
     2
370
     5
100
AcDbText
 10
437.6305162584461
 20
726.4967356418919
 30
0.0
 40
30.48
  1
6
 41
0.9999999999999998
  7
ＭＳ ゴシック
100
AcDbText
  0
TEXT
  5
2A7
330
1F
100
AcDbEntity
  8
C-4
  6
Continuous
 62
     2
370
     5
100
AcDbText
 10
201.3803925385348
 20
726.4967356418919
 30
0.0
 40
30.48
  1
24
 41
1.0625
  7
ＭＳ ゴシック
100
AcDbText
  0
TEXT
  5
2A8
330
1F
100
AcDbEntity
  8
C-4
  6
Continuous
 62
     2
370
     5
100
AcDbText
 10
351.3806399783574
 20
726.4967356418919
 30
0.0
 40
30.48
  1
24
 41
1.0625
  7
ＭＳ ゴシック
100
AcDbText
  0
TEXT
  5
2A9
330
1F
100
AcDbEntity
  8
C-4
  6
Continuous
 62
     2
370
     5
100
AcDbText
 10
-463.5376842601879
 20
973.6299803367823
 30
0.0
 40
30.48
  1
□300
 41
1.1
  7
ＭＳ ゴシック
100
AcDbText
  0
TEXT
  5
2AA
330
1F
100
AcDbEntity
  8
C-4
  6
Continuous
 62
     2
370
     5
100
AcDbText
 10
-463.5376842601879
 20
1032.765623548353
 30
0.0
 40
30.48
  1
□350
 41
1.1
  7
ＭＳ ゴシック
100
AcDbText
  0
TEXT
  5
2AB
330
1F
100
AcDbEntity
  8
C-4
  6
Continuous
 62
     2
370
     5
100
AcDbText
 10
-463.5376842601879
 20
1096.63157384924
 30
0.0
 40
30.48
  1
□366
 41
1.1
  7
ＭＳ ゴシック
100
AcDbText
  0
TEXT
  5
2AC
330
1F
100
AcDbEntity
  8
D-4
  6
Continuous
 62
     2
370
     5
100
AcDbText
 10
-1436.150879731049
 20
-161.6927141839104
 30
0.0
 40
30.48
  1
□300
 41
1.1
  7
ＭＳ ゴシック
100
AcDbText
  0
TEXT
  5
2AD
330
1F
100
AcDbEntity
  8
D-4
  6
Continuous
 62
     2
370
     5
100
AcDbText
 10
-1436.150879731049
 20
-52.60503305796014
 30
0.0
 40
30.48
  1
□350
 41
1.1
  7
ＭＳ ゴシック
100
AcDbText
  0
TEXT
  5
2AE
330
1F
100
AcDbEntity
  8
D-4
  6
Continuous
 62
     2
370
     5
100
AcDbText
 10
-1436.150879731049
 20
57.60713834195521
 30
0.0
 40
30.48
  1
□366
 41
1.1
  7
ＭＳ ゴシック
100
AcDbText
  0
TEXT
  5
2AF
330
1F
100
AcDbEntity
  8
D-5
  6
Continuous
 62
     2
370
     5
100
AcDbText
 10
139.2957450248102
 20
-731.94883914432
 30
0.0
 40
30.48
  1
アルミニウム製受枠　ＡＦ３０Ａ（四方枠）
 41
1.11875
  7
ＭＳ ゴシック
100
AcDbText
  0
TEXT
  5
2B0
330
1F
100
AcDbEntity
  8
D-5
  6
Continuous
 62
     7
370
     5
100
AcDbText
 10
-485.5261477908572
 20
-231.9204302153716
 30
0.0
 40
22.86
  1
溶接用アンカ－
 41
1.142857142857143
  7
ＭＳ ゴシック
100
AcDbText
  0
LWPOLYLINE
  5
2B1
330
1F
100
AcDbEntity
  8
D-4
  6
Continuous
 62
     7
370
     5
100
AcDbPolyline
 90
        4
 70
     1
 43
1.0
 10
-696.9676596151816
 20
47.96170621304896
 42
0.4142135623731
 10
-697.4676596151814
 20
48.46170621304896
 42
0.4142135623731
 10
-697.9676596151814
 20
47.96170621304896
 42
0.4142135623731
 10
-697.4676596151814
 20
47.46170621304896
 42
0.4142135623731
  0
LWPOLYLINE
  5
2B2
330
1F
100
AcDbEntity
  8
D-4
  6
Continuous
 62
     7
370
     5
100
AcDbPolyline
 90
        4
 70
     1
 43
1.0
 10
-861.9674616633234
 20
-171.4864864864865
 42
0.4142135623731
 10
-862.4674616633234
 20
-170.9864864864865
 42
0.4142135623731
 10
-862.9674616633234
 20
-171.4864864864865
 42
0.4142135623731
 10
-862.4674616633234
 20
-171.9864864864865
 42
0.4142135623731
  0
LWPOLYLINE
  5
2B3
330
1F
100
AcDbEntity
  8
D-4
  6
Continuous
 62
     7
370
     5
100
AcDbPolyline
 90
        4
 70
     1
 43
1.0
 10
-736.9668018237963
 20
-171.4864864864865
 42
0.4142135623731
 10
-737.4668018237963
 20
-170.9864864864865
 42
0.4142135623731
 10
-737.9668018237963
 20
-171.4864864864865
 42
0.4142135623731
 10
-737.4668018237963
 20
-171.9864864864865
 42
0.4142135623731
  0
LWPOLYLINE
  5
2B4
330
1F
100
AcDbEntity
  8
D-4
  6
Continuous
 62
     7
370
     5
100
AcDbPolyline
 90
        4
 70
     1
 43
1.0
 10
-736.9668018237963
 20
-62.73396260029557
 42
0.4142135623731
 10
-737.4668018237963
 20
-62.23396260029557
 42
0.4142135623731
 10
-737.9668018237963
 20
-62.73396260029557
 42
0.4142135623731
 10
-737.4668018237963
 20
-63.23396260029557
 42
0.4142135623731
  0
LWPOLYLINE
  5
2B5
330
1F
100
AcDbEntity
  8
D-4
  6
Continuous
 62
     7
370
     5
100
AcDbPolyline
 90
        4
 70
     1
 43
1.0
 10
-731.9665378879857
 20
-62.73396260029557
 42
0.4142135623731
 10
-732.4665378879856
 20
-62.23396260029557
 42
0.4142135623731
 10
-732.9665378879856
 20
-62.73396260029557
 42
0.4142135623731
 10
-732.4665378879856
 20
-63.23396260029557
 42
0.4142135623731
  0
LWPOLYLINE
  5
2B6
330
1F
100
AcDbEntity
  8
D-4
  6
Continuous
 62
     7
370
     5
100
AcDbPolyline
 90
        4
 70
     1
 43
1.0
 10
-696.9676596151816
 20
-62.73396260029557
 42
0.4142135623731
 10
-697.4676596151814
 20
-62.23396260029557
 42
0.4142135623731
 10
-697.9676596151814
 20
-62.73396260029557
 42
0.4142135623731
 10
-697.4676596151814
 20
-63.23396260029557
 42
0.4142135623731
  0
LWPOLYLINE
  5
2B7
330
1F
100
AcDbEntity
  8
D-4
  6
Continuous
 62
     7
370
     5
100
AcDbPolyline
 90
        4
 70
     1
 43
1.0
 10
-861.9674616633234
 20
-695.524440456081
 42
0.4142135623731
 10
-862.4674616633234
 20
-695.024440456081
 42
0.4142135623731
 10
-862.9674616633234
 20
-695.524440456081
 42
0.4142135623731
 10
-862.4674616633234
 20
-696.0244404560809
 42
0.4142135623731
  0
LWPOLYLINE
  5
2B8
330
1F
100
AcDbEntity
  8
D-4
  6
Continuous
 62
     7
370
     5
100
AcDbPolyline
 90
        4
 70
     1
 43
1.0
 10
-711.9674616633234
 20
-695.524440456081
 42
0.4142135623731
 10
-712.4674616633234
 20
-695.024440456081
 42
0.4142135623731
 10
-712.9674616633234
 20
-695.524440456081
 42
0.4142135623731
 10
-712.4674616633234
 20
-696.0244404560809
 42
0.4142135623731
  0
LWPOLYLINE
  5
2B9
330
1F
100
AcDbEntity
  8
D-4
  6
Continuous
 62
     7
370
     5
100
AcDbPolyline
 90
        4
 70
     1
 43
1.0
 10
-190.2826604069888
 20
-289.9054944837416
 42
0.4142135623731
 10
-190.7826604069888
 20
-289.4054944837415
 42
0.4142135623731
 10
-191.2826604069888
 20
-289.9054944837416
 42
0.4142135623731
 10
-190.7826604069888
 20
-290.4054944837416
 42
0.4142135623731
  0
LWPOLYLINE
  5
2BA
330
1F
100
AcDbEntity
  8
D-4
  6
Continuous
 62
     7
370
     5
100
AcDbPolyline
 90
        4
 70
     1
 43
1.0
 10
-190.2826604069888
 20
-589.9057419235642
 42
0.4142135623731
 10
-190.7826604069888
 20
-589.4057419235642
 42
0.4142135623731
 10
-191.2826604069888
 20
-589.9057419235642
 42
0.4142135623731
 10
-190.7826604069888
 20
-590.4057419235642
 42
0.4142135623731
  0
LWPOLYLINE
  5
2BB
330
1F
100
AcDbEntity
  8
D-4
  6
Continuous
 62
     7
370
     5
100
AcDbPolyline
 90
        4
 70
     1
 43
1.0
 10
-461.9666368639146
 20
-849.988749736064
 42
0.4142135623731
 10
-462.4666368639146
 20
-849.488749736064
 42
0.4142135623731
 10
-462.9666368639146
 20
-849.988749736064
 42
0.4142135623731
 10
-462.4666368639146
 20
-850.488749736064
 42
0.4142135623731
  0
LWPOLYLINE
  5
2BC
330
1F
100
AcDbEntity
  8
D-4
  6
Continuous
 62
     7
370
     5
100
AcDbPolyline
 90
        4
 70
     1
 43
1.0
 10
-861.9674616633234
 20
-849.988749736064
 42
0.4142135623731
 10
-862.4674616633234
 20
-849.488749736064
 42
0.4142135623731
 10
-862.9674616633234
 20
-849.988749736064
 42
0.4142135623731
 10
-862.4674616633234
 20
-850.488749736064
 42
0.4142135623731
  0
LWPOLYLINE
  5
2BD
330
1F
100
AcDbEntity
  8
D-4
  6
Continuous
 62
     7
370
     5
100
AcDbPolyline
 90
        4
 70
     1
 43
1.0
 10
-478.9167595940667
 20
-289.9124227987753
 42
0.4142135623731
 10
-479.4167595940667
 20
-289.4124227987753
 42
0.4142135623731
 10
-479.9167595940667
 20
-289.9124227987753
 42
0.4142135623731
 10
-479.4167595940667
 20
-290.4124227987753
 42
0.4142135623731
  0
LWPOLYLINE
  5
2BE
330
1F
100
AcDbEntity
  8
D-4
  6
Continuous
 62
     7
370
     5
100
AcDbPolyline
 90
        4
 70
     1
 43
1.0
 10
-478.9167595940667
 20
-384.9055604676942
 42
0.4142135623731
 10
-479.4167595940667
 20
-384.4055604676942
 42
0.4142135623731
 10
-479.9167595940667
 20
-384.9055604676942
 42
0.4142135623731
 10
-479.4167595940667
 20
-385.4055604676941
 42
0.4142135623731
  0
LWPOLYLINE
  5
2BF
330
1F
100
AcDbEntity
  8
D-4
  6
Continuous
 62
     7
370
     5
100
AcDbPolyline
 90
        4
 70
     1
 43
1.0
 10
-478.9167595940667
 20
-484.9036634290541
 42
0.4142135623731
 10
-479.4167595940667
 20
-484.4036634290541
 42
0.4142135623731
 10
-479.9167595940667
 20
-484.9036634290541
 42
0.4142135623731
 10
-479.4167595940667
 20
-485.403663429054
 42
0.4142135623731
  0
LWPOLYLINE
  5
2C0
330
1F
100
AcDbEntity
  8
D-4
  6
Continuous
 62
     7
370
     5
100
AcDbPolyline
 90
        4
 70
     1
 43
1.0
 10
-696.9666698558909
 20
-563.0221475137246
 42
0.4142135623731
 10
-697.4666698558908
 20
-562.5221475137246
 42
0.4142135623731
 10
-697.9666698558908
 20
-563.0221475137246
 42
0.4142135623731
 10
-697.4666698558908
 20
-563.5221475137246
 42
0.4142135623731
  0
LWPOLYLINE
  5
2C1
330
1F
100
AcDbEntity
  8
D-4
  6
Continuous
 62
     7
370
     5
100
AcDbPolyline
 90
        4
 70
     1
 43
1.0
 10
-568.4657262853675
 20
-563.0221475137246
 42
0.4142135623731
 10
-568.9657262853675
 20
-562.5221475137246
 42
0.4142135623731
 10
-569.4657262853674
 20
-563.0221475137246
 42
0.4142135623731
 10
-568.9657262853675
 20
-563.5221475137246
 42
0.4142135623731
  0
LWPOLYLINE
  5
2C2
330
1F
100
AcDbEntity
  8
D-4
  6
Continuous
 62
     7
370
     5
100
AcDbPolyline
 90
        4
 70
     1
 43
1.0
 10
-938.6178852802998
 20
-492.4057914115286
 42
0.4142135623731
 10
-939.1178852802998
 20
-491.9057914115286
 42
0.4142135623731
 10
-939.6178852802997
 20
-492.4057914115286
 42
0.4142135623731
 10
-939.1178852802998
 20
-492.9057914115286
 42
0.4142135623731
  0
LWPOLYLINE
  5
2C3
330
1F
100
AcDbEntity
  8
D-4
  6
Continuous
 62
     7
370
     5
100
AcDbPolyline
 90
        4
 70
     1
 43
1.0
 10
-938.6178852802998
 20
-289.9054944837416
 42
0.4142135623731
 10
-939.1178852802998
 20
-289.4054944837415
 42
0.4142135623731
 10
-939.6178852802997
 20
-289.9054944837416
 42
0.4142135623731
 10
-939.1178852802998
 20
-290.4054944837416
 42
0.4142135623731
  0
LWPOLYLINE
  5
2C4
330
1F
100
AcDbEntity
  8
D-4
  6
Continuous
 62
     7
370
     5
100
AcDbPolyline
 90
        4
 70
     1
 43
1.0
 10
-1296.000788508235
 20
-289.9054944837416
 42
0.4142135623731
 10
-1296.500788508235
 20
-289.4054944837415
 42
0.4142135623731
 10
-1297.000788508235
 20
-289.9054944837416
 42
0.4142135623731
 10
-1296.500788508235
 20
-290.4054944837416
 42
0.4142135623731
  0
LWPOLYLINE
  5
2C5
330
1F
100
AcDbEntity
  8
D-4
  6
Continuous
 62
     7
370
     5
100
AcDbPolyline
 90
        4
 70
     1
 43
1.0
 10
-1296.000788508235
 20
-439.9057419235642
 42
0.4142135623731
 10
-1296.500788508235
 20
-439.4057419235642
 42
0.4142135623731
 10
-1297.000788508235
 20
-439.9057419235642
 42
0.4142135623731
 10
-1296.500788508235
 20
-440.4057419235642
 42
0.4142135623731
  0
LWPOLYLINE
  5
2C6
330
1F
100
AcDbEntity
  8
C-4
  6
Continuous
 62
     7
370
     5
100
AcDbPolyline
 90
        4
 70
     1
 43
1.0
 10
-591.0375580658784
 20
1080.991540857264
 42
0.4142135623731
 10
-591.5375580658783
 20
1081.491540857264
 42
0.4142135623731
 10
-592.0375580658783
 20
1080.991540857264
 42
0.4142135623731
 10
-591.5375580658783
 20
1080.491540857264
 42
0.4142135623731
  0
LWPOLYLINE
  5
2C7
330
1F
100
AcDbEntity
  8
C-4
  6
Continuous
 62
     7
370
     5
100
AcDbPolyline
 90
        4
 70
     1
 43
1.0
 10
-225.0378104544974
 20
1080.991540857264
 42
0.4142135623731
 10
-225.5378104544974
 20
1081.491540857264
 42
0.4142135623731
 10
-226.0378104544974
 20
1080.991540857264
 42
0.4142135623731
 10
-225.5378104544974
 20
1080.491540857264
 42
0.4142135623731
  0
LWPOLYLINE
  5
2C8
330
1F
100
AcDbEntity
  8
C-4
  6
Continuous
 62
     7
370
     5
100
AcDbPolyline
 90
        4
 70
     1
 43
1.0
 10
-591.0375580658784
 20
1017.125590556377
 42
0.4142135623731
 10
-591.5375580658783
 20
1017.625590556377
 42
0.4142135623731
 10
-592.0375580658783
 20
1017.125590556377
 42
0.4142135623731
 10
-591.5375580658783
 20
1016.625590556377
 42
0.4142135623731
  0
LWPOLYLINE
  5
2C9
330
1F
100
AcDbEntity
  8
C-4
  6
Continuous
 62
     7
370
     5
100
AcDbPolyline
 90
        4
 70
     1
 43
1.0
 10
-584.0376092034417
 20
1017.125590556377
 42
0.4142135623731
 10
-584.5376092034417
 20
1017.625590556377
 42
0.4142135623731
 10
-585.0376092034417
 20
1017.125590556377
 42
0.4142135623731
 10
-584.5376092034417
 20
1016.625590556377
 42
0.4142135623731
  0
LWPOLYLINE
  5
2CA
330
1F
100
AcDbEntity
  8
C-4
  6
Continuous
 62
     7
370
     5
100
AcDbPolyline
 90
        4
 70
     1
 43
1.0
 10
-583.0378286000844
 20
1017.125590556377
 42
0.4142135623731
 10
-583.5378286000844
 20
1017.625590556377
 42
0.4142135623731
 10
-584.0378286000844
 20
1017.125590556377
 42
0.4142135623731
 10
-583.5378286000844
 20
1016.625590556377
 42
0.4142135623731
  0
LWPOLYLINE
  5
2CB
330
1F
100
AcDbEntity
  8
C-4
  6
Continuous
 62
     7
370
     5
100
AcDbPolyline
 90
        4
 70
     1
 43
1.0
 10
-233.0376636402026
 20
1017.125590556377
 42
0.4142135623731
 10
-233.5376636402026
 20
1017.625590556377
 42
0.4142135623731
 10
-234.0376636402026
 20
1017.125590556377
 42
0.4142135623731
 10
-233.5376636402026
 20
1016.625590556377
 42
0.4142135623731
  0
LWPOLYLINE
  5
2CC
330
1F
100
AcDbEntity
  8
C-4
  6
Continuous
 62
     7
370
     5
100
AcDbPolyline
 90
        4
 70
     1
 43
1.0
 10
-232.0377593169341
 20
1017.125590556377
 42
0.4142135623731
 10
-232.5377593169341
 20
1017.625590556377
 42
0.4142135623731
 10
-233.0377593169341
 20
1017.125590556377
 42
0.4142135623731
 10
-232.5377593169341
 20
1016.625590556377
 42
0.4142135623731
  0
LWPOLYLINE
  5
2CD
330
1F
100
AcDbEntity
  8
C-4
  6
Continuous
 62
     7
370
     5
100
AcDbPolyline
 90
        4
 70
     1
 43
1.0
 10
-225.0378104544974
 20
1017.125590556377
 42
0.4142135623731
 10
-225.5378104544974
 20
1017.625590556377
 42
0.4142135623731
 10
-226.0378104544974
 20
1017.125590556377
 42
0.4142135623731
 10
-225.5378104544974
 20
1016.625590556377
 42
0.4142135623731
  0
LWPOLYLINE
  5
2CE
330
1F
100
AcDbEntity
  8
C-4
  6
Continuous
 62
     7
370
     5
100
AcDbPolyline
 90
        4
 70
     1
 43
1.0
 10
-583.0378286000844
 20
957.9899473448061
 42
0.4142135623731
 10
-583.5378286000844
 20
958.489947344806
 42
0.4142135623731
 10
-584.0378286000844
 20
957.9899473448061
 42
0.4142135623731
 10
-583.5378286000844
 20
957.4899473448061
 42
0.4142135623731
  0
LWPOLYLINE
  5
2CF
330
1F
100
AcDbEntity
  8
C-4
  6
Continuous
 62
     7
370
     5
100
AcDbPolyline
 90
        4
 70
     1
 43
1.0
 10
-558.0376224002323
 20
957.9899473448061
 42
0.4142135623731
 10
-558.5376224002323
 20
958.489947344806
 42
0.4142135623731
 10
-559.0376224002323
 20
957.9899473448061
 42
0.4142135623731
 10
-558.5376224002323
 20
957.4899473448061
 42
0.4142135623731
  0
LWPOLYLINE
  5
2D0
330
1F
100
AcDbEntity
  8
C-4
  6
Continuous
 62
     7
370
     5
100
AcDbPolyline
 90
        4
 70
     1
 43
1.0
 10
-258.0377461201435
 20
957.9899473448061
 42
0.4142135623731
 10
-258.5377461201435
 20
958.489947344806
 42
0.4142135623731
 10
-259.0377461201435
 20
957.9899473448061
 42
0.4142135623731
 10
-258.5377461201435
 20
957.4899473448061
 42
0.4142135623731
  0
LWPOLYLINE
  5
2D1
330
1F
100
AcDbEntity
  8
C-4
  6
Continuous
 62
     7
370
     5
100
AcDbPolyline
 90
        4
 70
     1
 43
1.0
 10
-233.0376636402026
 20
957.9899473448061
 42
0.4142135623731
 10
-233.5376636402026
 20
958.489947344806
 42
0.4142135623731
 10
-234.0376636402026
 20
957.9899473448061
 42
0.4142135623731
 10
-233.5376636402026
 20
957.4899473448061
 42
0.4142135623731
  0
LWPOLYLINE
  5
2D2
330
1F
100
AcDbEntity
  8
C-4
  6
Continuous
 62
     7
370
     5
100
AcDbPolyline
 90
        4
 70
     1
 43
1.0
 10
586.5909126900339
 20
502.9722389014992
 42
0.4142135623731
 10
586.0909126900339
 20
503.4722389014992
 42
0.4142135623731
 10
585.5909126900339
 20
502.9722389014992
 42
0.4142135623731
 10
586.0909126900339
 20
502.4722389014993
 42
0.4142135623731
  0
LWPOLYLINE
  5
2D3
330
1F
100
AcDbEntity
  8
C-4
  6
Continuous
 62
     7
370
     5
100
AcDbPolyline
 90
        4
 70
     1
 43
1.0
 10
586.5909126900339
 20
652.9726100612334
 42
0.4142135623731
 10
586.0909126900339
 20
653.4726100612334
 42
0.4142135623731
 10
585.5909126900339
 20
652.9726100612334
 42
0.4142135623731
 10
586.0909126900339
 20
652.4726100612334
 42
0.4142135623731
  0
LWPOLYLINE
  5
2D4
330
1F
100
AcDbEntity
  8
C-4
  6
Continuous
 62
     7
370
     5
100
AcDbPolyline
 90
        4
 70
     1
 43
1.0
 10
133.1302193306589
 20
715.8574614653717
 42
0.4142135623731
 10
132.6302193306589
 20
716.3574614653716
 42
0.4142135623731
 10
132.1302193306589
 20
715.8574614653717
 42
0.4142135623731
 10
132.6302193306589
 20
715.3574614653717
 42
0.4142135623731
  0
LWPOLYLINE
  5
2D5
330
1F
100
AcDbEntity
  8
C-4
  6
Continuous
 62
     7
370
     5
100
AcDbPolyline
 90
        4
 70
     1
 43
1.0
 10
163.1298234269427
 20
715.8574614653717
 42
0.4142135623731
 10
162.6298234269427
 20
716.3574614653716
 42
0.4142135623731
 10
162.1298234269427
 20
715.8574614653717
 42
0.4142135623731
 10
162.6298234269427
 20
715.3574614653717
 42
0.4142135623731
  0
LWPOLYLINE
  5
2D6
330
1F
100
AcDbEntity
  8
C-4
  6
Continuous
 62
     7
370
     5
100
AcDbPolyline
 90
        4
 70
     1
 43
1.0
 10
283.1304667704815
 20
715.8574614653717
 42
0.4142135623731
 10
282.6304667704815
 20
716.3574614653716
 42
0.4142135623731
 10
282.1304667704815
 20
715.8574614653717
 42
0.4142135623731
 10
282.6304667704815
 20
715.3574614653717
 42
0.4142135623731
  0
LWPOLYLINE
  5
2D7
330
1F
100
AcDbEntity
  8
C-4
  6
Continuous
 62
     7
370
     5
100
AcDbPolyline
 90
        4
 70
     1
 43
1.0
 10
313.1308131862334
 20
715.8574614653717
 42
0.4142135623731
 10
312.6308131862334
 20
716.3574614653716
 42
0.4142135623731
 10
312.1308131862334
 20
715.8574614653717
 42
0.4142135623731
 10
312.6308131862334
 20
715.3574614653717
 42
0.4142135623731
  0
LWPOLYLINE
  5
2D8
330
1F
100
AcDbEntity
  8
C-4
  6
Continuous
 62
     7
370
     5
100
AcDbPolyline
 90
        4
 70
     1
 43
1.0
 10
433.1294770111908
 20
715.8574614653717
 42
0.4142135623731
 10
432.6294770111909
 20
716.3574614653716
 42
0.4142135623731
 10
432.1294770111909
 20
715.8574614653717
 42
0.4142135623731
 10
432.6294770111909
 20
715.3574614653717
 42
0.4142135623731
  0
LWPOLYLINE
  5
2D9
330
1F
100
AcDbEntity
  8
C-4
  6
Continuous
 62
     7
370
     5
100
AcDbPolyline
 90
        4
 70
     1
 43
1.0
 10
463.1300708667651
 20
715.8574614653717
 42
0.4142135623731
 10
462.6300708667651
 20
716.3574614653716
 42
0.4142135623731
 10
462.1300708667651
 20
715.8574614653717
 42
0.4142135623731
 10
462.6300708667651
 20
715.3574614653717
 42
0.4142135623731
  0
LWPOLYLINE
  5
2DA
330
1F
100
AcDbEntity
  8
C-4
  6
Continuous
 62
     7
370
     5
100
AcDbPolyline
 90
        4
 70
     1
 43
1.0
 10
133.1302193306589
 20
778.9741639833193
 42
0.4142135623731
 10
132.6302193306589
 20
779.4741639833193
 42
0.4142135623731
 10
132.1302193306589
 20
778.9741639833193
 42
0.4142135623731
 10
132.6302193306589
 20
778.4741639833193
 42
0.4142135623731
  0
LWPOLYLINE
  5
2DB
330
1F
100
AcDbEntity
  8
C-4
  6
Continuous
 62
     7
370
     5
100
AcDbPolyline
 90
        4
 70
     1
 43
1.0
 10
283.1304667704815
 20
778.9741639833193
 42
0.4142135623731
 10
282.6304667704815
 20
779.4741639833193
 42
0.4142135623731
 10
282.1304667704815
 20
778.9741639833193
 42
0.4142135623731
 10
282.6304667704815
 20
778.4741639833193
 42
0.4142135623731
  0
LWPOLYLINE
  5
2DC
330
1F
100
AcDbEntity
  8
C-4
  6
Continuous
 62
     7
370
     5
100
AcDbPolyline
 90
        4
 70
     1
 43
1.0
 10
433.1294770111908
 20
778.9741639833193
 42
0.4142135623731
 10
432.6294770111909
 20
779.4741639833193
 42
0.4142135623731
 10
432.1294770111909
 20
778.9741639833193
 42
0.4142135623731
 10
432.6294770111909
 20
778.4741639833193
 42
0.4142135623731
  0
LINE
  5
2DD
330
1F
100
AcDbEntity
  8
D-0
  6
Continuous
 62
     7
370
     5
100
AcDbLine
 10
-435.6236210384884
 20
-311.078656428569
 30
0.0
 11
-435.6236210384884
 21
-309.5783777172501
 31
0.0
  0
LINE
  5
2DE
330
1F
100
AcDbEntity
  8
D-0
  6
Continuous
 62
     7
370
     5
100
AcDbLine
 10
-435.6236210384884
 20
-309.5783777172501
 30
0.0
 11
-434.1233387508908
 21
-309.5783777172501
 31
0.0
  0
LINE
  5
2DF
330
1F
100
AcDbEntity
  8
D-0
  6
Continuous
 62
     7
370
     5
100
AcDbLine
 10
-434.1233387508908
 20
-309.5783777172501
 30
0.0
 11
-434.1233387508908
 21
-311.078656428569
 31
0.0
  0
LINE
  5
2E0
330
1F
100
AcDbEntity
  8
D-0
  6
Continuous
 62
     7
370
     5
100
AcDbLine
 10
-434.1233387508908
 20
-311.078656428569
 30
0.0
 11
-435.6236210384884
 21
-311.078656428569
 31
0.0
  0
LINE
  5
2E1
330
1F
100
AcDbEntity
  8
D-0
  6
Continuous
 62
     7
370
     5
100
AcDbLine
 10
-384.8677959957638
 20
-313.7858970100815
 30
0.0
 11
-384.8677959957638
 21
-312.2856194908554
 31
0.0
  0
LINE
  5
2E2
330
1F
100
AcDbEntity
  8
D-0
  6
Continuous
 62
     7
370
     5
100
AcDbLine
 10
-384.8677959957638
 20
-312.2856194908554
 30
0.0
 11
-383.3675137081661
 21
-312.2856194908554
 31
0.0
  0
LINE
  5
2E3
330
1F
100
AcDbEntity
  8
D-0
  6
Continuous
 62
     7
370
     5
100
AcDbLine
 10
-383.3675137081661
 20
-312.2856194908554
 30
0.0
 11
-383.3675137081661
 21
-313.7858970100815
 31
0.0
  0
LINE
  5
2E4
330
1F
100
AcDbEntity
  8
D-0
  6
Continuous
 62
     7
370
     5
100
AcDbLine
 10
-383.3675137081661
 20
-313.7858970100815
 30
0.0
 11
-384.8677959957638
 21
-313.7858970100815
 31
0.0
  0
LINE
  5
2E5
330
1F
100
AcDbEntity
  8
D-0
  6
Continuous
 62
     7
370
     5
100
AcDbLine
 10
-319.899953893713
 20
-311.7554671699936
 30
0.0
 11
-319.899953893713
 21
-310.2551872665817
 31
0.0
  0
LINE
  5
2E6
330
1F
100
AcDbEntity
  8
D-0
  6
Continuous
 62
     7
370
     5
100
AcDbLine
 10
-319.899953893713
 20
-310.2551872665817
 30
0.0
 11
-318.3996716061154
 21
-310.2551872665817
 31
0.0
  0
LINE
  5
2E7
330
1F
100
AcDbEntity
  8
D-0
  6
Continuous
 62
     7
370
     5
100
AcDbLine
 10
-318.3996716061154
 20
-310.2551872665817
 30
0.0
 11
-318.3996716061154
 21
-311.7554671699936
 31
0.0
  0
LINE
  5
2E8
330
1F
100
AcDbEntity
  8
D-0
  6
Continuous
 62
     7
370
     5
100
AcDbLine
 10
-318.3996716061154
 20
-311.7554671699936
 30
0.0
 11
-319.899953893713
 21
-311.7554671699936
 31
0.0
  0
LINE
  5
2E9
330
1F
100
AcDbEntity
  8
D-0
  6
Continuous
 62
     7
370
     5
100
AcDbLine
 10
-344.2631664791622
 20
-344.2393906052048
 30
0.0
 11
-344.2631664791622
 21
-342.7391130859787
 31
0.0
  0
LINE
  5
2EA
330
1F
100
AcDbEntity
  8
D-0
  6
Continuous
 62
     7
370
     5
100
AcDbLine
 10
-344.2631664791622
 20
-342.7391130859787
 30
0.0
 11
-342.7628841915646
 21
-342.7391130859787
 31
0.0
  0
LINE
  5
2EB
330
1F
100
AcDbEntity
  8
D-0
  6
Continuous
 62
     7
370
     5
100
AcDbLine
 10
-342.7628841915646
 20
-342.7391130859787
 30
0.0
 11
-342.7628841915646
 21
-344.2393906052048
 31
0.0
  0
LINE
  5
2EC
330
1F
100
AcDbEntity
  8
D-0
  6
Continuous
 62
     7
370
     5
100
AcDbLine
 10
-342.7628841915646
 20
-344.2393906052048
 30
0.0
 11
-344.2631664791622
 21
-344.2393906052048
 31
0.0
  0
LINE
  5
2ED
330
1F
100
AcDbEntity
  8
D-0
  6
Continuous
 62
     7
370
     5
100
AcDbLine
 10
-394.8277035275021
 20
-348.1704409058029
 30
0.0
 11
-394.8277035275021
 21
-346.6701586182053
 31
0.0
  0
LINE
  5
2EE
330
1F
100
AcDbEntity
  8
D-0
  6
Continuous
 62
     7
370
     5
100
AcDbLine
 10
-394.8277035275021
 20
-346.6701586182053
 30
0.0
 11
-393.327917150549
 21
-346.6701586182053
 31
0.0
  0
LINE
  5
2EF
330
1F
100
AcDbEntity
  8
D-0
  6
Continuous
 62
     7
370
     5
100
AcDbLine
 10
-393.327917150549
 20
-346.6701586182053
 30
0.0
 11
-393.327917150549
 21
-348.1704409058029
 31
0.0
  0
LINE
  5
2F0
330
1F
100
AcDbEntity
  8
D-0
  6
Continuous
 62
     7
370
     5
100
AcDbLine
 10
-393.327917150549
 20
-348.1704409058029
 30
0.0
 11
-394.8277035275021
 21
-348.1704409058029
 31
0.0
  0
LINE
  5
2F1
330
1F
100
AcDbEntity
  8
D-0
  6
Continuous
 62
     7
370
     5
100
AcDbLine
 10
-411.9372311153927
 20
-382.1373016769821
 30
0.0
 11
-411.9372311153927
 21
-380.6370193893845
 31
0.0
  0
LINE
  5
2F2
330
1F
100
AcDbEntity
  8
D-0
  6
Continuous
 62
     7
370
     5
100
AcDbLine
 10
-411.9372311153927
 20
-380.6370193893845
 30
0.0
 11
-410.436948827795
 21
-380.6370193893845
 31
0.0
  0
LINE
  5
2F3
330
1F
100
AcDbEntity
  8
D-0
  6
Continuous
 62
     7
370
     5
100
AcDbLine
 10
-410.436948827795
 20
-380.6370193893845
 30
0.0
 11
-410.436948827795
 21
-382.1373016769821
 31
0.0
  0
LINE
  5
2F4
330
1F
100
AcDbEntity
  8
D-0
  6
Continuous
 62
     7
370
     5
100
AcDbLine
 10
-410.436948827795
 20
-382.1373016769821
 30
0.0
 11
-411.9372311153927
 21
-382.1373016769821
 31
0.0
  0
LINE
  5
2F5
330
1F
100
AcDbEntity
  8
D-0
  6
Continuous
 62
     7
370
     5
100
AcDbLine
 10
-443.2934895077267
 20
-367.5655634338791
 30
0.0
 11
-443.2934895077267
 21
-366.065285914653
 31
0.0
  0
LINE
  5
2F6
330
1F
100
AcDbEntity
  8
D-0
  6
Continuous
 62
     7
370
     5
100
AcDbLine
 10
-443.2934895077267
 20
-366.065285914653
 30
0.0
 11
-441.7941990414181
 21
-366.065285914653
 31
0.0
  0
LINE
  5
2F7
330
1F
100
AcDbEntity
  8
D-0
  6
Continuous
 62
     7
370
     5
100
AcDbLine
 10
-441.7941990414181
 20
-366.065285914653
 30
0.0
 11
-441.7941990414181
 21
-367.5655634338791
 31
0.0
  0
LINE
  5
2F8
330
1F
100
AcDbEntity
  8
D-0
  6
Continuous
 62
     7
370
     5
100
AcDbLine
 10
-441.7941990414181
 20
-367.5655634338791
 30
0.0
 11
-443.2934895077267
 21
-367.5655634338791
 31
0.0
  0
LINE
  5
2F9
330
1F
100
AcDbEntity
  8
D-0
  6
Continuous
 62
     7
370
     5
100
AcDbLine
 10
-454.0183964291134
 20
-408.785594218486
 30
0.0
 11
-454.0183964291134
 21
-407.2853119308884
 31
0.0
  0
LINE
  5
2FA
330
1F
100
AcDbEntity
  8
D-0
  6
Continuous
 62
     7
370
     5
100
AcDbLine
 10
-454.0183964291134
 20
-407.2853119308884
 30
0.0
 11
-452.5181141415158
 21
-407.2853119308884
 31
0.0
  0
LINE
  5
2FB
330
1F
100
AcDbEntity
  8
D-0
  6
Continuous
 62
     7
370
     5
100
AcDbLine
 10
-452.5181141415158
 20
-407.2853119308884
 30
0.0
 11
-452.5181141415158
 21
-408.785594218486
 31
0.0
  0
LINE
  5
2FC
330
1F
100
AcDbEntity
  8
D-0
  6
Continuous
 62
     7
370
     5
100
AcDbLine
 10
-452.5181141415158
 20
-408.785594218486
 30
0.0
 11
-454.0183964291134
 21
-408.785594218486
 31
0.0
  0
LINE
  5
2FD
330
1F
100
AcDbEntity
  8
D-0
  6
Continuous
 62
     7
370
     5
100
AcDbLine
 10
-416.6749325314083
 20
-417.3279697830612
 30
0.0
 11
-416.6749325314083
 21
-415.8276970322067
 31
0.0
  0
LINE
  5
2FE
330
1F
100
AcDbEntity
  8
D-0
  6
Continuous
 62
     7
370
     5
100
AcDbLine
 10
-416.6749325314083
 20
-415.8276970322067
 30
0.0
 11
-415.1746502438107
 21
-415.8276970322067
 31
0.0
  0
LINE
  5
2FF
330
1F
100
AcDbEntity
  8
D-0
  6
Continuous
 62
     7
370
     5
100
AcDbLine
 10
-415.1746502438107
 20
-415.8276970322067
 30
0.0
 11
-415.1746502438107
 21
-417.3279697830612
 31
0.0
  0
LINE
  5
300
330
1F
100
AcDbEntity
  8
D-0
  6
Continuous
 62
     7
370
     5
100
AcDbLine
 10
-415.1746502438107
 20
-417.3279697830612
 30
0.0
 11
-416.6749325314083
 21
-417.3279697830612
 31
0.0
  0
LINE
  5
301
330
1F
100
AcDbEntity
  8
D-0
  6
Continuous
 62
     7
370
     5
100
AcDbLine
 10
-364.4698467770138
 20
-422.0527584488327
 30
0.0
 11
-364.4698467770138
 21
-420.5524856979782
 31
0.0
  0
LINE
  5
302
330
1F
100
AcDbEntity
  8
D-0
  6
Continuous
 62
     7
370
     5
100
AcDbLine
 10
-364.4698467770138
 20
-420.5524856979782
 30
0.0
 11
-362.9700604000607
 21
-420.5524856979782
 31
0.0
  0
LINE
  5
303
330
1F
100
AcDbEntity
  8
D-0
  6
Continuous
 62
     7
370
     5
100
AcDbLine
 10
-362.9700604000607
 20
-420.5524856979782
 30
0.0
 11
-362.9700604000607
 21
-422.0527584488327
 31
0.0
  0
LINE
  5
304
330
1F
100
AcDbEntity
  8
D-0
  6
Continuous
 62
     7
370
     5
100
AcDbLine
 10
-362.9700604000607
 20
-422.0527584488327
 30
0.0
 11
-364.4698467770138
 21
-422.0527584488327
 31
0.0
  0
LINE
  5
305
330
1F
100
AcDbEntity
  8
D-0
  6
Continuous
 62
     7
370
     5
100
AcDbLine
 10
-309.7487774410763
 20
-415.2975399429733
 30
0.0
 11
-309.7487774410763
 21
-413.7972576553757
 31
0.0
  0
LINE
  5
306
330
1F
100
AcDbEntity
  8
D-0
  6
Continuous
 62
     7
370
     5
100
AcDbLine
 10
-309.7487774410763
 20
-413.7972576553757
 30
0.0
 11
-308.2484951534786
 21
-413.7972576553757
 31
0.0
  0
LINE
  5
307
330
1F
100
AcDbEntity
  8
D-0
  6
Continuous
 62
     7
370
     5
100
AcDbLine
 10
-308.2484951534786
 20
-413.7972576553757
 30
0.0
 11
-308.2484951534786
 21
-415.2975399429733
 31
0.0
  0
LINE
  5
308
330
1F
100
AcDbEntity
  8
D-0
  6
Continuous
 62
     7
370
     5
100
AcDbLine
 10
-308.2484951534786
 20
-415.2975399429733
 30
0.0
 11
-309.7487774410763
 21
-415.2975399429733
 31
0.0
  0
LINE
  5
309
330
1F
100
AcDbEntity
  8
D-0
  6
Continuous
 62
     7
370
     5
100
AcDbLine
 10
-321.9304028072872
 20
-375.3696949417526
 30
0.0
 11
-321.9304028072872
 21
-373.869412654155
 31
0.0
  0
LINE
  5
30A
330
1F
100
AcDbEntity
  8
D-0
  6
Continuous
 62
     7
370
     5
100
AcDbLine
 10
-321.9304028072872
 20
-373.869412654155
 30
0.0
 11
-320.4301205196896
 21
-373.869412654155
 31
0.0
  0
LINE
  5
30B
330
1F
100
AcDbEntity
  8
D-0
  6
Continuous
 62
     7
370
     5
100
AcDbLine
 10
-320.4301205196896
 20
-373.869412654155
 30
0.0
 11
-320.4301205196896
 21
-375.3696949417526
 31
0.0
  0
LINE
  5
30C
330
1F
100
AcDbEntity
  8
D-0
  6
Continuous
 62
     7
370
     5
100
AcDbLine
 10
-320.4301205196896
 20
-375.3696949417526
 30
0.0
 11
-321.9304028072872
 21
-375.3696949417526
 31
0.0
  0
LINE
  5
30D
330
1F
100
AcDbEntity
  8
D-0
  6
Continuous
 62
     7
370
     5
100
AcDbLine
 10
-362.959150365881
 20
-384.4873077804978
 30
0.0
 11
-362.959150365881
 21
-382.9870350296433
 31
0.0
  0
LINE
  5
30E
330
1F
100
AcDbEntity
  8
D-0
  6
Continuous
 62
     7
370
     5
100
AcDbLine
 10
-362.959150365881
 20
-382.9870350296433
 30
0.0
 11
-361.458906225256
 21
-382.9870350296433
 31
0.0
  0
LINE
  5
30F
330
1F
100
AcDbEntity
  8
D-0
  6
Continuous
 62
     7
370
     5
100
AcDbLine
 10
-361.458906225256
 20
-382.9870350296433
 30
0.0
 11
-361.458906225256
 21
-384.4873077804978
 31
0.0
  0
LINE
  5
310
330
1F
100
AcDbEntity
  8
D-0
  6
Continuous
 62
     7
370
     5
100
AcDbLine
 10
-361.458906225256
 20
-384.4873077804978
 30
0.0
 11
-362.959150365881
 21
-384.4873077804978
 31
0.0
  0
LINE
  5
311
330
1F
100
AcDbEntity
  8
D-0
  6
Continuous
 62
     7
370
     5
100
AcDbLine
 10
-302.47430234342
 20
-344.9989445145065
 30
0.0
 11
-302.47430234342
 21
-343.4986669952805
 31
0.0
  0
LINE
  5
312
330
1F
100
AcDbEntity
  8
D-0
  6
Continuous
 62
     7
370
     5
100
AcDbLine
 10
-302.47430234342
 20
-343.4986669952805
 30
0.0
 11
-300.974058202795
 21
-343.4986669952805
 31
0.0
  0
LINE
  5
313
330
1F
100
AcDbEntity
  8
D-0
  6
Continuous
 62
     7
370
     5
100
AcDbLine
 10
-300.974058202795
 20
-343.4986669952805
 30
0.0
 11
-300.974058202795
 21
-344.9989445145065
 31
0.0
  0
LINE
  5
314
330
1F
100
AcDbEntity
  8
D-0
  6
Continuous
 62
     7
370
     5
100
AcDbLine
 10
-300.974058202795
 20
-344.9989445145065
 30
0.0
 11
-302.47430234342
 21
-344.9989445145065
 31
0.0
  0
LINE
  5
315
330
1F
100
AcDbEntity
  8
D-0
  6
Continuous
 62
     7
370
     5
100
AcDbLine
 10
-456.4749279537716
 20
-334.1060621673996
 30
0.0
 11
-456.4749279537716
 21
-332.6057846481735
 31
0.0
  0
LINE
  5
316
330
1F
100
AcDbEntity
  8
D-0
  6
Continuous
 62
     7
370
     5
100
AcDbLine
 10
-456.4749279537716
 20
-332.6057846481735
 30
0.0
 11
-454.9746647396603
 21
-332.6057846481735
 31
0.0
  0
LINE
  5
317
330
1F
100
AcDbEntity
  8
D-0
  6
Continuous
 62
     7
370
     5
100
AcDbLine
 10
-454.9746647396603
 20
-332.6057846481735
 30
0.0
 11
-454.9746647396603
 21
-334.1060621673996
 31
0.0
  0
LINE
  5
318
330
1F
100
AcDbEntity
  8
D-0
  6
Continuous
 62
     7
370
     5
100
AcDbLine
 10
-454.9746647396603
 20
-334.1060621673996
 30
0.0
 11
-456.4749279537716
 21
-334.1060621673996
 31
0.0
  0
LINE
  5
319
330
1F
100
AcDbEntity
  8
D-0
  6
Continuous
 62
     7
370
     5
100
AcDbLine
 10
-795.937437109045
 20
-604.9617512161667
 30
0.0
 11
-795.937437109045
 21
-603.461468928569
 31
0.0
  0
LINE
  5
31A
330
1F
100
AcDbEntity
  8
D-0
  6
Continuous
 62
     7
370
     5
100
AcDbLine
 10
-795.937437109045
 20
-603.461468928569
 30
0.0
 11
-794.437159589819
 21
-603.461468928569
 31
0.0
  0
LINE
  5
31B
330
1F
100
AcDbEntity
  8
D-0
  6
Continuous
 62
     7
370
     5
100
AcDbLine
 10
-794.437159589819
 20
-603.461468928569
 30
0.0
 11
-794.437159589819
 21
-604.9617512161667
 31
0.0
  0
LINE
  5
31C
330
1F
100
AcDbEntity
  8
D-0
  6
Continuous
 62
     7
370
     5
100
AcDbLine
 10
-794.437159589819
 20
-604.9617512161667
 30
0.0
 11
-795.937437109045
 21
-604.9617512161667
 31
0.0
  0
LINE
  5
31D
330
1F
100
AcDbEntity
  8
D-0
  6
Continuous
 62
     7
370
     5
100
AcDbLine
 10
-826.5435352840939
 20
-615.8219463760788
 30
0.0
 11
-826.5435352840939
 21
-614.3216640884812
 31
0.0
  0
LINE
  5
31E
330
1F
100
AcDbEntity
  8
D-0
  6
Continuous
 62
     7
370
     5
100
AcDbLine
 10
-826.5435352840939
 20
-614.3216640884812
 30
0.0
 11
-825.0432529964962
 21
-614.3216640884812
 31
0.0
  0
LINE
  5
31F
330
1F
100
AcDbEntity
  8
D-0
  6
Continuous
 62
     7
370
     5
100
AcDbLine
 10
-825.0432529964962
 20
-614.3216640884812
 30
0.0
 11
-825.0432529964962
 21
-615.8219463760788
 31
0.0
  0
LINE
  5
320
330
1F
100
AcDbEntity
  8
D-0
  6
Continuous
 62
     7
370
     5
100
AcDbLine
 10
-825.0432529964962
 20
-615.8219463760788
 30
0.0
 11
-826.5435352840939
 21
-615.8219463760788
 31
0.0
  0
LINE
  5
321
330
1F
100
AcDbEntity
  8
D-0
  6
Continuous
 62
     7
370
     5
100
AcDbLine
 10
-849.3965378323117
 20
-544.9193508560593
 30
0.0
 11
-849.3965378323117
 21
-543.4190685684616
 31
0.0
  0
LINE
  5
322
330
1F
100
AcDbEntity
  8
D-0
  6
Continuous
 62
     7
370
     5
100
AcDbLine
 10
-849.3965378323117
 20
-543.4190685684616
 30
0.0
 11
-847.896255544714
 21
-543.4190685684616
 31
0.0
  0
LINE
  5
323
330
1F
100
AcDbEntity
  8
D-0
  6
Continuous
 62
     7
370
     5
100
AcDbLine
 10
-847.896255544714
 20
-543.4190685684616
 30
0.0
 11
-847.896255544714
 21
-544.9193508560593
 31
0.0
  0
LINE
  5
324
330
1F
100
AcDbEntity
  8
D-0
  6
Continuous
 62
     7
370
     5
100
AcDbLine
 10
-847.896255544714
 20
-544.9193508560593
 30
0.0
 11
-849.3965378323117
 21
-544.9193508560593
 31
0.0
  0
LINE
  5
325
330
1F
100
AcDbEntity
  8
D-0
  6
Continuous
 62
     7
370
     5
100
AcDbLine
 10
-769.5353951969662
 20
-581.2770969803269
 30
0.0
 11
-769.5353951969662
 21
-579.7768146927292
 31
0.0
  0
LINE
  5
326
330
1F
100
AcDbEntity
  8
D-0
  6
Continuous
 62
     7
370
     5
100
AcDbLine
 10
-769.5353951969662
 20
-579.7768146927292
 30
0.0
 11
-768.0351152935543
 21
-579.7768146927292
 31
0.0
  0
LINE
  5
327
330
1F
100
AcDbEntity
  8
D-0
  6
Continuous
 62
     7
370
     5
100
AcDbLine
 10
-768.0351152935543
 20
-579.7768146927292
 30
0.0
 11
-768.0351152935543
 21
-581.2770969803269
 31
0.0
  0
LINE
  5
328
330
1F
100
AcDbEntity
  8
D-0
  6
Continuous
 62
     7
370
     5
100
AcDbLine
 10
-768.0351152935543
 20
-581.2770969803269
 30
0.0
 11
-769.5353951969662
 21
-581.2770969803269
 31
0.0
  0
LINE
  5
329
330
1F
100
AcDbEntity
  8
D-0
  6
Continuous
 62
     7
370
     5
100
AcDbLine
 10
-836.0119476833859
 20
-706.6169674332077
 30
0.0
 11
-836.0119476833859
 21
-705.1166851456101
 31
0.0
  0
LINE
  5
32A
330
1F
100
AcDbEntity
  8
D-0
  6
Continuous
 62
     7
370
     5
100
AcDbLine
 10
-836.0119476833859
 20
-705.1166851456101
 30
0.0
 11
-834.5116653957882
 21
-705.1166851456101
 31
0.0
  0
LINE
  5
32B
330
1F
100
AcDbEntity
  8
D-0
  6
Continuous
 62
     7
370
     5
100
AcDbLine
 10
-834.5116653957882
 20
-705.1166851456101
 30
0.0
 11
-834.5116653957882
 21
-706.6169674332077
 31
0.0
  0
LINE
  5
32C
330
1F
100
AcDbEntity
  8
D-0
  6
Continuous
 62
     7
370
     5
100
AcDbLine
 10
-834.5116653957882
 20
-706.6169674332077
 30
0.0
 11
-836.0119476833859
 21
-706.6169674332077
 31
0.0
  0
LINE
  5
32D
330
1F
100
AcDbEntity
  8
D-0
  6
Continuous
 62
     7
370
     5
100
AcDbLine
 10
-765.6216874638119
 20
-710.3290111954148
 30
0.0
 11
-765.6216874638119
 21
-708.8287289078171
 31
0.0
  0
LINE
  5
32E
330
1F
100
AcDbEntity
  8
D-0
  6
Continuous
 62
     7
370
     5
100
AcDbLine
 10
-765.6216874638119
 20
-708.8287289078171
 30
0.0
 11
-764.1214075604
 21
-708.8287289078171
 31
0.0
  0
LINE
  5
32F
330
1F
100
AcDbEntity
  8
D-0
  6
Continuous
 62
     7
370
     5
100
AcDbLine
 10
-764.1214075604
 20
-708.8287289078171
 30
0.0
 11
-764.1214075604
 21
-710.3290111954148
 31
0.0
  0
LINE
  5
330
330
1F
100
AcDbEntity
  8
D-0
  6
Continuous
 62
     7
370
     5
100
AcDbLine
 10
-764.1214075604
 20
-710.3290111954148
 30
0.0
 11
-765.6216874638119
 21
-710.3290111954148
 31
0.0
  0
LINE
  5
331
330
1F
100
AcDbEntity
  8
D-0
  6
Continuous
 62
     7
370
     5
100
AcDbLine
 10
-741.2317407050648
 20
-736.2355740005905
 30
0.0
 11
-741.2317407050648
 21
-734.7352917129929
 31
0.0
  0
LINE
  5
332
330
1F
100
AcDbEntity
  8
D-0
  6
Continuous
 62
     7
370
     5
100
AcDbLine
 10
-741.2317407050648
 20
-734.7352917129929
 30
0.0
 11
-739.7314610996762
 21
-734.7352917129929
 31
0.0
  0
LINE
  5
333
330
1F
100
AcDbEntity
  8
D-0
  6
Continuous
 62
     7
370
     5
100
AcDbLine
 10
-739.7314610996762
 20
-734.7352917129929
 30
0.0
 11
-739.7314610996762
 21
-736.2355740005905
 31
0.0
  0
LINE
  5
334
330
1F
100
AcDbEntity
  8
D-0
  6
Continuous
 62
     7
370
     5
100
AcDbLine
 10
-739.7314610996762
 20
-736.2355740005905
 30
0.0
 11
-741.2317407050648
 21
-736.2355740005905
 31
0.0
  0
LINE
  5
335
330
1F
100
AcDbEntity
  8
D-0
  6
Continuous
 62
     7
370
     5
100
AcDbLine
 10
-734.953160277895
 20
-774.4476253921921
 30
0.0
 11
-734.953160277895
 21
-772.9473431045944
 31
0.0
  0
LINE
  5
336
330
1F
100
AcDbEntity
  8
D-0
  6
Continuous
 62
     7
370
     5
100
AcDbLine
 10
-734.953160277895
 20
-772.9473431045944
 30
0.0
 11
-733.4528809705296
 21
-772.9473431045944
 31
0.0
  0
LINE
  5
337
330
1F
100
AcDbEntity
  8
D-0
  6
Continuous
 62
     7
370
     5
100
AcDbLine
 10
-733.4528809705296
 20
-772.9473431045944
 30
0.0
 11
-733.4528809705296
 21
-774.4476253921921
 31
0.0
  0
LINE
  5
338
330
1F
100
AcDbEntity
  8
D-0
  6
Continuous
 62
     7
370
     5
100
AcDbLine
 10
-733.4528809705296
 20
-774.4476253921921
 30
0.0
 11
-734.953160277895
 21
-774.4476253921921
 31
0.0
  0
LINE
  5
339
330
1F
100
AcDbEntity
  8
D-0
  6
Continuous
 62
     7
370
     5
100
AcDbLine
 10
-809.1813173809567
 20
-779.9061901504929
 30
0.0
 11
-809.1813173809567
 21
-778.4059078628952
 31
0.0
  0
LINE
  5
33A
330
1F
100
AcDbEntity
  8
D-0
  6
Continuous
 62
     7
370
     5
100
AcDbLine
 10
-809.1813173809567
 20
-778.4059078628952
 30
0.0
 11
-807.6810398617306
 21
-778.4059078628952
 31
0.0
  0
LINE
  5
33B
330
1F
100
AcDbEntity
  8
D-0
  6
Continuous
 62
     7
370
     5
100
AcDbLine
 10
-807.6810398617306
 20
-778.4059078628952
 30
0.0
 11
-807.6810398617306
 21
-779.9061901504929
 31
0.0
  0
LINE
  5
33C
330
1F
100
AcDbEntity
  8
D-0
  6
Continuous
 62
     7
370
     5
100
AcDbLine
 10
-807.6810398617306
 20
-779.9061901504929
 30
0.0
 11
-809.1813173809567
 21
-779.9061901504929
 31
0.0
  0
LINE
  5
33D
330
1F
100
AcDbEntity
  8
D-0
  6
Continuous
 62
     7
370
     5
100
AcDbLine
 10
-843.9107075253048
 20
-770.6097347671921
 30
0.0
 11
-843.9107075253048
 21
-769.1094524795944
 31
0.0
  0
LINE
  5
33E
330
1F
100
AcDbEntity
  8
D-0
  6
Continuous
 62
     7
370
     5
100
AcDbLine
 10
-843.9107075253048
 20
-769.1094524795944
 30
0.0
 11
-842.4104252377072
 21
-769.1094524795944
 31
0.0
  0
LINE
  5
33F
330
1F
100
AcDbEntity
  8
D-0
  6
Continuous
 62
     7
370
     5
100
AcDbLine
 10
-842.4104252377072
 20
-769.1094524795944
 30
0.0
 11
-842.4104252377072
 21
-770.6097347671921
 31
0.0
  0
LINE
  5
340
330
1F
100
AcDbEntity
  8
D-0
  6
Continuous
 62
     7
370
     5
100
AcDbLine
 10
-842.4104252377072
 20
-770.6097347671921
 30
0.0
 11
-843.9107075253048
 21
-770.6097347671921
 31
0.0
  0
LINE
  5
341
330
1F
100
AcDbEntity
  8
D-0
  6
Continuous
 62
     7
370
     5
100
AcDbLine
 10
-846.1214867153683
 20
-730.3117687637741
 30
0.0
 11
-846.1214867153683
 21
-728.8114864761765
 31
0.0
  0
LINE
  5
342
330
1F
100
AcDbEntity
  8
D-0
  6
Continuous
 62
     7
370
     5
100
AcDbLine
 10
-846.1214867153683
 20
-728.8114864761765
 30
0.0
 11
-844.6221962490597
 21
-728.8114864761765
 31
0.0
  0
LINE
  5
343
330
1F
100
AcDbEntity
  8
D-0
  6
Continuous
 62
     7
370
     5
100
AcDbLine
 10
-844.6221962490597
 20
-728.8114864761765
 30
0.0
 11
-844.6221962490597
 21
-730.3117687637741
 31
0.0
  0
LINE
  5
344
330
1F
100
AcDbEntity
  8
D-0
  6
Continuous
 62
     7
370
     5
100
AcDbLine
 10
-844.6221962490597
 20
-730.3117687637741
 30
0.0
 11
-846.1214867153683
 21
-730.3117687637741
 31
0.0
  0
LINE
  5
345
330
1F
100
AcDbEntity
  8
D-0
  6
Continuous
 62
     7
370
     5
100
AcDbLine
 10
-788.6223402538815
 20
-750.0576717789108
 30
0.0
 11
-788.6223402538815
 21
-748.5573894913132
 31
0.0
  0
LINE
  5
346
330
1F
100
AcDbEntity
  8
D-0
  6
Continuous
 62
     7
370
     5
100
AcDbLine
 10
-788.6223402538815
 20
-748.5573894913132
 30
0.0
 11
-787.1220579662838
 21
-748.5573894913132
 31
0.0
  0
LINE
  5
347
330
1F
100
AcDbEntity
  8
D-0
  6
Continuous
 62
     7
370
     5
100
AcDbLine
 10
-787.1220579662838
 20
-748.5573894913132
 30
0.0
 11
-787.1220579662838
 21
-750.0576717789108
 31
0.0
  0
LINE
  5
348
330
1F
100
AcDbEntity
  8
D-0
  6
Continuous
 62
     7
370
     5
100
AcDbLine
 10
-787.1220579662838
 20
-750.0576717789108
 30
0.0
 11
-788.6223402538815
 21
-750.0576717789108
 31
0.0
  0
LINE
  5
349
330
1F
100
AcDbEntity
  8
D-0
  6
Continuous
 62
     7
370
     5
100
AcDbLine
 10
-800.4689970531979
 20
-716.4896709854538
 30
0.0
 11
-800.4689970531979
 21
-714.9893886978562
 31
0.0
  0
LINE
  5
34A
330
1F
100
AcDbEntity
  8
D-0
  6
Continuous
 62
     7
370
     5
100
AcDbLine
 10
-800.4689970531979
 20
-714.9893886978562
 30
0.0
 11
-798.9697065868893
 21
-714.9893886978562
 31
0.0
  0
LINE
  5
34B
330
1F
100
AcDbEntity
  8
D-0
  6
Continuous
 62
     7
370
     5
100
AcDbLine
 10
-798.9697065868893
 20
-714.9893886978562
 30
0.0
 11
-798.9697065868893
 21
-716.4896709854538
 31
0.0
  0
LINE
  5
34C
330
1F
100
AcDbEntity
  8
D-0
  6
Continuous
 62
     7
370
     5
100
AcDbLine
 10
-798.9697065868893
 20
-716.4896709854538
 30
0.0
 11
-800.4689970531979
 21
-716.4896709854538
 31
0.0
  0
LINE
  5
34D
330
1F
100
AcDbEntity
  8
D-0
  6
Continuous
 62
     7
370
     5
100
AcDbLine
 10
-746.5719029226818
 20
-614.0139706070358
 30
0.0
 11
-746.5719029226818
 21
-612.5136883194382
 31
0.0
  0
LINE
  5
34E
330
1F
100
AcDbEntity
  8
D-0
  6
Continuous
 62
     7
370
     5
100
AcDbLine
 10
-746.5719029226818
 20
-612.5136883194382
 30
0.0
 11
-745.072614840559
 21
-612.5136883194382
 31
0.0
  0
LINE
  5
34F
330
1F
100
AcDbEntity
  8
D-0
  6
Continuous
 62
     7
370
     5
100
AcDbLine
 10
-745.072614840559
 20
-612.5136883194382
 30
0.0
 11
-745.072614840559
 21
-614.0139706070358
 31
0.0
  0
LINE
  5
350
330
1F
100
AcDbEntity
  8
D-0
  6
Continuous
 62
     7
370
     5
100
AcDbLine
 10
-745.072614840559
 20
-614.0139706070358
 30
0.0
 11
-746.5719029226818
 21
-614.0139706070358
 31
0.0
  0
LINE
  5
351
330
1F
100
AcDbEntity
  8
D-0
  6
Continuous
 62
     7
370
     5
100
AcDbLine
 10
-827.530511907629
 20
-577.3175556595261
 30
0.0
 11
-827.530511907629
 21
-575.8172924454148
 31
0.0
  0
LINE
  5
352
330
1F
100
AcDbEntity
  8
D-0
  6
Continuous
 62
     7
370
     5
100
AcDbLine
 10
-827.530511907629
 20
-575.8172924454148
 30
0.0
 11
-826.0302296200314
 21
-575.8172924454148
 31
0.0
  0
LINE
  5
353
330
1F
100
AcDbEntity
  8
D-0
  6
Continuous
 62
     7
370
     5
100
AcDbLine
 10
-826.0302296200314
 20
-575.8172924454148
 30
0.0
 11
-826.0302296200314
 21
-577.3175556595261
 31
0.0
  0
LINE
  5
354
330
1F
100
AcDbEntity
  8
D-0
  6
Continuous
 62
     7
370
     5
100
AcDbLine
 10
-826.0302296200314
 20
-577.3175556595261
 30
0.0
 11
-827.530511907629
 21
-577.3175556595261
 31
0.0
  0
LINE
  5
355
330
1F
100
AcDbEntity
  8
D-0
  6
Continuous
 62
     7
370
     5
100
AcDbLine
 10
-788.0386772671261
 20
-642.4791271622116
 30
0.0
 11
-788.0386772671261
 21
-640.978844874614
 31
0.0
  0
LINE
  5
356
330
1F
100
AcDbEntity
  8
D-0
  6
Continuous
 62
     7
370
     5
100
AcDbLine
 10
-788.0386772671261
 20
-640.978844874614
 30
0.0
 11
-786.5383949795284
 21
-640.978844874614
 31
0.0
  0
LINE
  5
357
330
1F
100
AcDbEntity
  8
D-0
  6
Continuous
 62
     7
370
     5
100
AcDbLine
 10
-786.5383949795284
 20
-640.978844874614
 30
0.0
 11
-786.5383949795284
 21
-642.4791271622116
 31
0.0
  0
LINE
  5
358
330
1F
100
AcDbEntity
  8
D-0
  6
Continuous
 62
     7
370
     5
100
AcDbLine
 10
-786.5383949795284
 20
-642.4791271622116
 30
0.0
 11
-788.0386772671261
 21
-642.4791271622116
 31
0.0
  0
LINE
  5
359
330
1F
100
AcDbEntity
  8
D-0
  6
Continuous
 62
     7
370
     5
100
AcDbLine
 10
-836.4162483730831
 20
-641.4916546280319
 30
0.0
 11
-836.4162483730831
 21
-639.9914104874069
 31
0.0
  0
LINE
  5
35A
330
1F
100
AcDbEntity
  8
D-0
  6
Continuous
 62
     7
370
     5
100
AcDbLine
 10
-836.4162483730831
 20
-639.9914104874069
 30
0.0
 11
-834.9159660854855
 21
-639.9914104874069
 31
0.0
  0
LINE
  5
35B
330
1F
100
AcDbEntity
  8
D-0
  6
Continuous
 62
     7
370
     5
100
AcDbLine
 10
-834.9159660854855
 20
-639.9914104874069
 30
0.0
 11
-834.9159660854855
 21
-641.4916546280319
 31
0.0
  0
LINE
  5
35C
330
1F
100
AcDbEntity
  8
D-0
  6
Continuous
 62
     7
370
     5
100
AcDbLine
 10
-834.9159660854855
 20
-641.4916546280319
 30
0.0
 11
-836.4162483730831
 21
-641.4916546280319
 31
0.0
  0
LINE
  5
35D
330
1F
100
AcDbEntity
  8
D-0
  6
Continuous
 62
     7
370
     5
100
AcDbLine
 10
-822.0714321651974
 20
-748.8893444473679
 30
0.0
 11
-822.0714321651974
 21
-747.3890621597702
 31
0.0
  0
LINE
  5
35E
330
1F
100
AcDbEntity
  8
D-0
  6
Continuous
 62
     7
370
     5
100
AcDbLine
 10
-822.0714321651974
 20
-747.3890621597702
 30
0.0
 11
-820.5711594143429
 21
-747.3890621597702
 31
0.0
  0
LINE
  5
35F
330
1F
100
AcDbEntity
  8
D-0
  6
Continuous
 62
     7
370
     5
100
AcDbLine
 10
-820.5711594143429
 20
-747.3890621597702
 30
0.0
 11
-820.5711594143429
 21
-748.8893444473679
 31
0.0
  0
LINE
  5
360
330
1F
100
AcDbEntity
  8
D-0
  6
Continuous
 62
     7
370
     5
100
AcDbLine
 10
-820.5711594143429
 20
-748.8893444473679
 30
0.0
 11
-822.0714321651974
 21
-748.8893444473679
 31
0.0
  0
LINE
  5
361
330
1F
100
AcDbEntity
  8
D-0
  6
Continuous
 62
     7
370
     5
100
AcDbLine
 10
-771.5455117741146
 20
-778.3970196182663
 30
0.0
 11
-771.5455117741146
 21
-776.8967373306687
 31
0.0
  0
LINE
  5
362
330
1F
100
AcDbEntity
  8
D-0
  6
Continuous
 62
     7
370
     5
100
AcDbLine
 10
-771.5455117741146
 20
-776.8967373306687
 30
0.0
 11
-770.0462236919918
 21
-776.8967373306687
 31
0.0
  0
LINE
  5
363
330
1F
100
AcDbEntity
  8
D-0
  6
Continuous
 62
     7
370
     5
100
AcDbLine
 10
-770.0462236919918
 20
-776.8967373306687
 30
0.0
 11
-770.0462236919918
 21
-778.3970196182663
 31
0.0
  0
LINE
  5
364
330
1F
100
AcDbEntity
  8
D-0
  6
Continuous
 62
     7
370
     5
100
AcDbLine
 10
-770.0462236919918
 20
-778.3970196182663
 30
0.0
 11
-771.5455117741146
 21
-778.3970196182663
 31
0.0
  0
LINE
  5
365
330
1F
100
AcDbEntity
  8
D-0
  6
Continuous
 62
     7
370
     5
100
AcDbLine
 10
-730.9463044920483
 20
-709.4084103043015
 30
0.0
 11
-730.9463044920483
 21
-707.9081280167038
 31
0.0
  0
LINE
  5
366
330
1F
100
AcDbEntity
  8
D-0
  6
Continuous
 62
     7
370
     5
100
AcDbLine
 10
-730.9463044920483
 20
-707.9081280167038
 30
0.0
 11
-729.4460245886364
 21
-707.9081280167038
 31
0.0
  0
LINE
  5
367
330
1F
100
AcDbEntity
  8
D-0
  6
Continuous
 62
     7
370
     5
100
AcDbLine
 10
-729.4460245886364
 20
-707.9081280167038
 30
0.0
 11
-729.4460245886364
 21
-709.4084103043015
 31
0.0
  0
LINE
  5
368
330
1F
100
AcDbEntity
  8
D-0
  6
Continuous
 62
     7
370
     5
100
AcDbLine
 10
-729.4460245886364
 20
-709.4084103043015
 30
0.0
 11
-730.9463044920483
 21
-709.4084103043015
 31
0.0
  0
LINE
  5
369
330
1F
100
AcDbEntity
  8
D-0
  6
Continuous
 62
     7
370
     5
100
AcDbLine
 10
-853.7318935909786
 20
-596.3123447830612
 30
0.0
 11
-853.7318935909786
 21
-594.8120624954636
 31
0.0
  0
LINE
  5
36A
330
1F
100
AcDbEntity
  8
D-0
  6
Continuous
 62
     7
370
     5
100
AcDbLine
 10
-853.7318935909786
 20
-594.8120624954636
 30
0.0
 11
-852.231611303381
 21
-594.8120624954636
 31
0.0
  0
LINE
  5
36B
330
1F
100
AcDbEntity
  8
D-0
  6
Continuous
 62
     7
370
     5
100
AcDbLine
 10
-852.231611303381
 20
-594.8120624954636
 30
0.0
 11
-852.231611303381
 21
-596.3123447830612
 31
0.0
  0
LINE
  5
36C
330
1F
100
AcDbEntity
  8
D-0
  6
Continuous
 62
     7
370
     5
100
AcDbLine
 10
-852.231611303381
 20
-596.3123447830612
 30
0.0
 11
-853.7318935909786
 21
-596.3123447830612
 31
0.0
  0
LINE
  5
36D
330
1F
100
AcDbEntity
  8
D-0
  6
Continuous
 62
     7
370
     5
100
AcDbLine
 10
-736.810177258543
 20
-640.0463802750046
 30
0.0
 11
-736.810177258543
 21
-638.5460979874069
 31
0.0
  0
LINE
  5
36E
330
1F
100
AcDbEntity
  8
D-0
  6
Continuous
 62
     7
370
     5
100
AcDbLine
 10
-736.810177258543
 20
-638.5460979874069
 30
0.0
 11
-735.309897802166
 21
-638.5460979874069
 31
0.0
  0
LINE
  5
36F
330
1F
100
AcDbEntity
  8
D-0
  6
Continuous
 62
     7
370
     5
100
AcDbLine
 10
-735.309897802166
 20
-638.5460979874069
 30
0.0
 11
-735.309897802166
 21
-640.0463802750046
 31
0.0
  0
LINE
  5
370
330
1F
100
AcDbEntity
  8
D-0
  6
Continuous
 62
     7
370
     5
100
AcDbLine
 10
-735.309897802166
 20
-640.0463802750046
 30
0.0
 11
-736.810177258543
 21
-640.0463802750046
 31
0.0
  0
LINE
  5
371
330
1F
100
AcDbEntity
  8
D-0
  6
Continuous
 62
     7
370
     5
100
AcDbLine
 10
-760.1487389126339
 20
-751.684296839946
 30
0.0
 11
-760.1487389126339
 21
-750.1840145523483
 31
0.0
  0
LINE
  5
372
330
1F
100
AcDbEntity
  8
D-0
  6
Continuous
 62
     7
370
     5
100
AcDbLine
 10
-760.1487389126339
 20
-750.1840145523483
 30
0.0
 11
-758.6494508305111
 21
-750.1840145523483
 31
0.0
  0
LINE
  5
373
330
1F
100
AcDbEntity
  8
D-0
  6
Continuous
 62
     7
370
     5
100
AcDbLine
 10
-758.6494508305111
 20
-750.1840145523483
 30
0.0
 11
-758.6494508305111
 21
-751.684296839946
 31
0.0
  0
LINE
  5
374
330
1F
100
AcDbEntity
  8
D-0
  6
Continuous
 62
     7
370
     5
100
AcDbLine
 10
-758.6494508305111
 20
-751.684296839946
 30
0.0
 11
-760.1487389126339
 21
-751.684296839946
 31
0.0
  0
LINE
  5
375
330
1F
100
AcDbEntity
  8
D-0
  6
Continuous
 62
     7
370
     5
100
AcDbLine
 10
-734.055866293005
 20
-581.371739619487
 30
0.0
 11
-734.055866293005
 21
-579.8714573318894
 31
0.0
  0
LINE
  5
376
330
1F
100
AcDbEntity
  8
D-0
  6
Continuous
 62
     7
370
     5
100
AcDbLine
 10
-734.055866293005
 20
-579.8714573318894
 30
0.0
 11
-732.5555869856396
 21
-579.8714573318894
 31
0.0
  0
LINE
  5
377
330
1F
100
AcDbEntity
  8
D-0
  6
Continuous
 62
     7
370
     5
100
AcDbLine
 10
-732.5555869856396
 20
-579.8714573318894
 30
0.0
 11
-732.5555869856396
 21
-581.371739619487
 31
0.0
  0
LINE
  5
378
330
1F
100
AcDbEntity
  8
D-0
  6
Continuous
 62
     7
370
     5
100
AcDbLine
 10
-732.5555869856396
 20
-581.371739619487
 30
0.0
 11
-734.055866293005
 21
-581.371739619487
 31
0.0
  0
LINE
  5
379
330
1F
100
AcDbEntity
  8
D-0
  6
Continuous
 62
     7
370
     5
100
AcDbLine
 10
-687.3321714916744
 20
-580.0622112686569
 30
0.0
 11
-687.3321714916744
 21
-578.5619289810593
 31
0.0
  0
LINE
  5
37A
330
1F
100
AcDbEntity
  8
D-0
  6
Continuous
 62
     7
370
     5
100
AcDbLine
 10
-687.3321714916744
 20
-578.5619289810593
 30
0.0
 11
-685.8318892040768
 21
-578.5619289810593
 31
0.0
  0
LINE
  5
37B
330
1F
100
AcDbEntity
  8
D-0
  6
Continuous
 62
     7
370
     5
100
AcDbLine
 10
-685.8318892040768
 20
-578.5619289810593
 30
0.0
 11
-685.8318892040768
 21
-580.0622112686569
 31
0.0
  0
LINE
  5
37C
330
1F
100
AcDbEntity
  8
D-0
  6
Continuous
 62
     7
370
     5
100
AcDbLine
 10
-685.8318892040768
 20
-580.0622112686569
 30
0.0
 11
-687.3321714916744
 21
-580.0622112686569
 31
0.0
  0
LINE
  5
37D
330
1F
100
AcDbEntity
  8
D-0
  6
Continuous
 62
     7
370
     5
100
AcDbLine
 10
-685.6312265911617
 20
-551.4199001724655
 30
0.0
 11
-685.6312265911617
 21
-549.9196369583542
 31
0.0
  0
LINE
  5
37E
330
1F
100
AcDbEntity
  8
D-0
  6
Continuous
 62
     7
370
     5
100
AcDbLine
 10
-685.6312265911617
 20
-549.9196369583542
 30
0.0
 11
-684.1309443035641
 21
-549.9196369583542
 31
0.0
  0
LINE
  5
37F
330
1F
100
AcDbEntity
  8
D-0
  6
Continuous
 62
     7
370
     5
100
AcDbLine
 10
-684.1309443035641
 20
-549.9196369583542
 30
0.0
 11
-684.1309443035641
 21
-551.4199001724655
 31
0.0
  0
LINE
  5
380
330
1F
100
AcDbEntity
  8
D-0
  6
Continuous
 62
     7
370
     5
100
AcDbLine
 10
-684.1309443035641
 20
-551.4199001724655
 30
0.0
 11
-685.6312265911617
 21
-551.4199001724655
 31
0.0
  0
LINE
  5
381
330
1F
100
AcDbEntity
  8
D-0
  6
Continuous
 62
     7
370
     5
100
AcDbLine
 10
-652.3728886166134
 20
-578.0055172378952
 30
0.0
 11
-652.3728886166134
 21
-576.5052349502976
 31
0.0
  0
LINE
  5
382
330
1F
100
AcDbEntity
  8
D-0
  6
Continuous
 62
     7
370
     5
100
AcDbLine
 10
-652.3728886166134
 20
-576.5052349502976
 30
0.0
 11
-650.8726063290158
 21
-576.5052349502976
 31
0.0
  0
LINE
  5
383
330
1F
100
AcDbEntity
  8
D-0
  6
Continuous
 62
     7
370
     5
100
AcDbLine
 10
-650.8726063290158
 20
-576.5052349502976
 30
0.0
 11
-650.8726063290158
 21
-578.0055172378952
 31
0.0
  0
LINE
  5
384
330
1F
100
AcDbEntity
  8
D-0
  6
Continuous
 62
     7
370
     5
100
AcDbLine
 10
-650.8726063290158
 20
-578.0055172378952
 30
0.0
 11
-652.3728886166134
 21
-578.0055172378952
 31
0.0
  0
LINE
  5
385
330
1F
100
AcDbEntity
  8
D-0
  6
Continuous
 62
     7
370
     5
100
AcDbLine
 10
-823.2075443783322
 20
-544.7067959244187
 30
0.0
 11
-823.2075443783322
 21
-543.206513636821
 31
0.0
  0
LINE
  5
386
330
1F
100
AcDbEntity
  8
D-0
  6
Continuous
 62
     7
370
     5
100
AcDbLine
 10
-823.2075443783322
 20
-543.206513636821
 30
0.0
 11
-821.7072620907345
 21
-543.206513636821
 31
0.0
  0
LINE
  5
387
330
1F
100
AcDbEntity
  8
D-0
  6
Continuous
 62
     7
370
     5
100
AcDbLine
 10
-821.7072620907345
 20
-543.206513636821
 30
0.0
 11
-821.7072620907345
 21
-544.7067959244187
 31
0.0
  0
LINE
  5
388
330
1F
100
AcDbEntity
  8
D-0
  6
Continuous
 62
     7
370
     5
100
AcDbLine
 10
-821.7072620907345
 20
-544.7067959244187
 30
0.0
 11
-823.2075443783322
 21
-544.7067959244187
 31
0.0
  0
LINE
  5
389
330
1F
100
AcDbEntity
  8
D-0
  6
Continuous
 62
     7
370
     5
100
AcDbLine
 10
-833.0500355282345
 20
-512.3789532120163
 30
0.0
 11
-833.0500355282345
 21
-510.8786709244187
 31
0.0
  0
LINE
  5
38A
330
1F
100
AcDbEntity
  8
D-0
  6
Continuous
 62
     7
370
     5
100
AcDbLine
 10
-833.0500355282345
 20
-510.8786709244187
 30
0.0
 11
-831.5497532406368
 21
-510.8786709244187
 31
0.0
  0
LINE
  5
38B
330
1F
100
AcDbEntity
  8
D-0
  6
Continuous
 62
     7
370
     5
100
AcDbLine
 10
-831.5497532406368
 20
-510.8786709244187
 30
0.0
 11
-831.5497532406368
 21
-512.3789532120163
 31
0.0
  0
LINE
  5
38C
330
1F
100
AcDbEntity
  8
D-0
  6
Continuous
 62
     7
370
     5
100
AcDbLine
 10
-831.5497532406368
 20
-512.3789532120163
 30
0.0
 11
-833.0500355282345
 21
-512.3789532120163
 31
0.0
  0
LINE
  5
38D
330
1F
100
AcDbEntity
  8
D-0
  6
Continuous
 62
     7
370
     5
100
AcDbLine
 10
-775.6009235897579
 20
-507.0365650589401
 30
0.0
 11
-775.6009235897579
 21
-505.5362827713425
 31
0.0
  0
LINE
  5
38E
330
1F
100
AcDbEntity
  8
D-0
  6
Continuous
 62
     7
370
     5
100
AcDbLine
 10
-775.6009235897579
 20
-505.5362827713425
 30
0.0
 11
-774.1006436863461
 21
-505.5362827713425
 31
0.0
  0
LINE
  5
38F
330
1F
100
AcDbEntity
  8
D-0
  6
Continuous
 62
     7
370
     5
100
AcDbLine
 10
-774.1006436863461
 20
-505.5362827713425
 30
0.0
 11
-774.1006436863461
 21
-507.0365650589401
 31
0.0
  0
LINE
  5
390
330
1F
100
AcDbEntity
  8
D-0
  6
Continuous
 62
     7
370
     5
100
AcDbLine
 10
-774.1006436863461
 20
-507.0365650589401
 30
0.0
 11
-775.6009235897579
 21
-507.0365650589401
 31
0.0
  0
LINE
  5
391
330
1F
100
AcDbEntity
  8
D-0
  6
Continuous
 62
     7
370
     5
100
AcDbLine
 10
-718.8529029408016
 20
-511.6845447952683
 30
0.0
 11
-718.8529029408016
 21
-510.1842625076706
 31
0.0
  0
LINE
  5
392
330
1F
100
AcDbEntity
  8
D-0
  6
Continuous
 62
     7
370
     5
100
AcDbLine
 10
-718.8529029408016
 20
-510.1842625076706
 30
0.0
 11
-717.3526230373898
 21
-510.1842625076706
 31
0.0
  0
LINE
  5
393
330
1F
100
AcDbEntity
  8
D-0
  6
Continuous
 62
     7
370
     5
100
AcDbLine
 10
-717.3526230373898
 20
-510.1842625076706
 30
0.0
 11
-717.3526230373898
 21
-511.6845447952683
 31
0.0
  0
LINE
  5
394
330
1F
100
AcDbEntity
  8
D-0
  6
Continuous
 62
     7
370
     5
100
AcDbLine
 10
-717.3526230373898
 20
-511.6845447952683
 30
0.0
 11
-718.8529029408016
 21
-511.6845447952683
 31
0.0
  0
LINE
  5
395
330
1F
100
AcDbEntity
  8
D-0
  6
Continuous
 62
     7
370
     5
100
AcDbLine
 10
-684.7131195583859
 20
-505.5107624466355
 30
0.0
 11
-684.7131195583859
 21
-504.0104801590378
 31
0.0
  0
LINE
  5
396
330
1F
100
AcDbEntity
  8
D-0
  6
Continuous
 62
     7
370
     5
100
AcDbLine
 10
-684.7131195583859
 20
-504.0104801590378
 30
0.0
 11
-683.2128420391598
 21
-504.0104801590378
 31
0.0
  0
LINE
  5
397
330
1F
100
AcDbEntity
  8
D-0
  6
Continuous
 62
     7
370
     5
100
AcDbLine
 10
-683.2128420391598
 20
-504.0104801590378
 30
0.0
 11
-683.2128420391598
 21
-505.5107624466355
 31
0.0
  0
LINE
  5
398
330
1F
100
AcDbEntity
  8
D-0
  6
Continuous
 62
     7
370
     5
100
AcDbLine
 10
-683.2128420391598
 20
-505.5107624466355
 30
0.0
 11
-684.7131195583859
 21
-505.5107624466355
 31
0.0
  0
LINE
  5
399
330
1F
100
AcDbEntity
  8
D-0
  6
Continuous
 62
     7
370
     5
100
AcDbLine
 10
-658.2248678722897
 20
-516.0845692093308
 30
0.0
 11
-658.2248678722897
 21
-514.5842869217331
 31
0.0
  0
LINE
  5
39A
330
1F
100
AcDbEntity
  8
D-0
  6
Continuous
 62
     7
370
     5
100
AcDbLine
 10
-658.2248678722897
 20
-514.5842869217331
 30
0.0
 11
-656.7245903530636
 21
-514.5842869217331
 31
0.0
  0
LINE
  5
39B
330
1F
100
AcDbEntity
  8
D-0
  6
Continuous
 62
     7
370
     5
100
AcDbLine
 10
-656.7245903530636
 20
-514.5842869217331
 30
0.0
 11
-656.7245903530636
 21
-516.0845692093308
 31
0.0
  0
LINE
  5
39C
330
1F
100
AcDbEntity
  8
D-0
  6
Continuous
 62
     7
370
     5
100
AcDbLine
 10
-656.7245903530636
 20
-516.0845692093308
 30
0.0
 11
-658.2248678722897
 21
-516.0845692093308
 31
0.0
  0
LINE
  5
39D
330
1F
100
AcDbEntity
  8
D-0
  6
Continuous
 62
     7
370
     5
100
AcDbLine
 10
-652.7157440701046
 20
-540.8753330643112
 30
0.0
 11
-652.7157440701046
 21
-539.3750698501999
 31
0.0
  0
LINE
  5
39E
330
1F
100
AcDbEntity
  8
D-0
  6
Continuous
 62
     7
370
     5
100
AcDbLine
 10
-652.7157440701046
 20
-539.3750698501999
 30
0.0
 11
-651.2154713192501
 21
-539.3750698501999
 31
0.0
  0
LINE
  5
39F
330
1F
100
AcDbEntity
  8
D-0
  6
Continuous
 62
     7
370
     5
100
AcDbLine
 10
-651.2154713192501
 20
-539.3750698501999
 30
0.0
 11
-651.2154713192501
 21
-540.8753330643112
 31
0.0
  0
LINE
  5
3A0
330
1F
100
AcDbEntity
  8
D-0
  6
Continuous
 62
     7
370
     5
100
AcDbLine
 10
-651.2154713192501
 20
-540.8753330643112
 30
0.0
 11
-652.7157440701046
 21
-540.8753330643112
 31
0.0
  0
LINE
  5
3A1
330
1F
100
AcDbEntity
  8
D-0
  6
Continuous
 62
     7
370
     5
100
AcDbLine
 10
-580.9584942379513
 20
-532.1379978592331
 30
0.0
 11
-580.9584942379513
 21
-530.6377155716355
 31
0.0
  0
LINE
  5
3A2
330
1F
100
AcDbEntity
  8
D-0
  6
Continuous
 62
     7
370
     5
100
AcDbLine
 10
-580.9584942379513
 20
-530.6377155716355
 30
0.0
 11
-579.4582119503536
 21
-530.6377155716355
 31
0.0
  0
LINE
  5
3A3
330
1F
100
AcDbEntity
  8
D-0
  6
Continuous
 62
     7
370
     5
100
AcDbLine
 10
-579.4582119503536
 20
-530.6377155716355
 30
0.0
 11
-579.4582119503536
 21
-532.1379978592331
 31
0.0
  0
LINE
  5
3A4
330
1F
100
AcDbEntity
  8
D-0
  6
Continuous
 62
     7
370
     5
100
AcDbLine
 10
-579.4582119503536
 20
-532.1379978592331
 30
0.0
 11
-580.9584942379513
 21
-532.1379978592331
 31
0.0
  0
LINE
  5
3A5
330
1F
100
AcDbEntity
  8
D-0
  6
Continuous
 62
     7
370
     5
100
AcDbLine
 10
-580.040391973547
 20
-577.1290333206589
 30
0.0
 11
-580.040391973547
 21
-575.6287510330612
 31
0.0
  0
LINE
  5
3A6
330
1F
100
AcDbEntity
  8
D-0
  6
Continuous
 62
     7
370
     5
100
AcDbLine
 10
-580.040391973547
 20
-575.6287510330612
 30
0.0
 11
-578.5401096859493
 21
-575.6287510330612
 31
0.0
  0
LINE
  5
3A7
330
1F
100
AcDbEntity
  8
D-0
  6
Continuous
 62
     7
370
     5
100
AcDbLine
 10
-578.5401096859493
 20
-575.6287510330612
 30
0.0
 11
-578.5401096859493
 21
-577.1290333206589
 31
0.0
  0
LINE
  5
3A8
330
1F
100
AcDbEntity
  8
D-0
  6
Continuous
 62
     7
370
     5
100
AcDbLine
 10
-578.5401096859493
 20
-577.1290333206589
 30
0.0
 11
-580.040391973547
 21
-577.1290333206589
 31
0.0
  0
LINE
  5
3A9
330
1F
100
AcDbEntity
  8
D-0
  6
Continuous
 62
     7
370
     5
100
AcDbLine
 10
-552.6984348812618
 20
-510.9946186478073
 30
0.0
 11
-552.6984348812618
 21
-509.4943363602097
 31
0.0
  0
LINE
  5
3AA
330
1F
100
AcDbEntity
  8
D-0
  6
Continuous
 62
     7
370
     5
100
AcDbLine
 10
-552.6984348812618
 20
-509.4943363602097
 30
0.0
 11
-551.1986485043087
 21
-509.4943363602097
 31
0.0
  0
LINE
  5
3AB
330
1F
100
AcDbEntity
  8
D-0
  6
Continuous
 62
     7
370
     5
100
AcDbLine
 10
-551.1986485043087
 20
-509.4943363602097
 30
0.0
 11
-551.1986485043087
 21
-510.9946186478073
 31
0.0
  0
LINE
  5
3AC
330
1F
100
AcDbEntity
  8
D-0
  6
Continuous
 62
     7
370
     5
100
AcDbLine
 10
-551.1986485043087
 20
-510.9946186478073
 30
0.0
 11
-552.6984348812618
 21
-510.9946186478073
 31
0.0
  0
LINE
  5
3AD
330
1F
100
AcDbEntity
  8
D-0
  6
Continuous
 62
     7
370
     5
100
AcDbLine
 10
-481.6135349789181
 20
-509.019673579448
 30
0.0
 11
-481.6135349789181
 21
-507.5193912918503
 31
0.0
  0
LINE
  5
3AE
330
1F
100
AcDbEntity
  8
D-0
  6
Continuous
 62
     7
370
     5
100
AcDbLine
 10
-481.6135349789181
 20
-507.5193912918503
 30
0.0
 11
-480.1132526913204
 21
-507.5193912918503
 31
0.0
  0
LINE
  5
3AF
330
1F
100
AcDbEntity
  8
D-0
  6
Continuous
 62
     7
370
     5
100
AcDbLine
 10
-480.1132526913204
 20
-507.5193912918503
 30
0.0
 11
-480.1132526913204
 21
-509.019673579448
 31
0.0
  0
LINE
  5
3B0
330
1F
100
AcDbEntity
  8
D-0
  6
Continuous
 62
     7
370
     5
100
AcDbLine
 10
-480.1132526913204
 20
-509.019673579448
 30
0.0
 11
-481.6135349789181
 21
-509.019673579448
 31
0.0
  0
LINE
  5
3B1
330
1F
100
AcDbEntity
  8
D-0
  6
Continuous
 62
     7
370
     5
100
AcDbLine
 10
-515.0373592892208
 20
-503.151581996196
 30
0.0
 11
-515.0373592892208
 21
-501.6512997085983
 31
0.0
  0
LINE
  5
3B2
330
1F
100
AcDbEntity
  8
D-0
  6
Continuous
 62
     7
370
     5
100
AcDbLine
 10
-515.0373592892208
 20
-501.6512997085983
 30
0.0
 11
-513.5370770016232
 21
-501.6512997085983
 31
0.0
  0
LINE
  5
3B3
330
1F
100
AcDbEntity
  8
D-0
  6
Continuous
 62
     7
370
     5
100
AcDbLine
 10
-513.5370770016232
 20
-501.6512997085983
 30
0.0
 11
-513.5370770016232
 21
-503.151581996196
 31
0.0
  0
LINE
  5
3B4
330
1F
100
AcDbEntity
  8
D-0
  6
Continuous
 62
     7
370
     5
100
AcDbLine
 10
-513.5370770016232
 20
-503.151581996196
 30
0.0
 11
-515.0373592892208
 21
-503.151581996196
 31
0.0
  0
LINE
  5
3B5
330
1F
100
AcDbEntity
  8
D-0
  6
Continuous
 62
     7
370
     5
100
AcDbLine
 10
-530.312665990881
 20
-534.7686893875534
 30
0.0
 11
-530.312665990881
 21
-533.2684070999558
 31
0.0
  0
LINE
  5
3B6
330
1F
100
AcDbEntity
  8
D-0
  6
Continuous
 62
     7
370
     5
100
AcDbLine
 10
-530.312665990881
 20
-533.2684070999558
 30
0.0
 11
-528.8123837032833
 21
-533.2684070999558
 31
0.0
  0
LINE
  5
3B7
330
1F
100
AcDbEntity
  8
D-0
  6
Continuous
 62
     7
370
     5
100
AcDbLine
 10
-528.8123837032833
 20
-533.2684070999558
 30
0.0
 11
-528.8123837032833
 21
-534.7686893875534
 31
0.0
  0
LINE
  5
3B8
330
1F
100
AcDbEntity
  8
D-0
  6
Continuous
 62
     7
370
     5
100
AcDbLine
 10
-528.8123837032833
 20
-534.7686893875534
 30
0.0
 11
-530.312665990881
 21
-534.7686893875534
 31
0.0
  0
LINE
  5
3B9
330
1F
100
AcDbEntity
  8
D-0
  6
Continuous
 62
     7
370
     5
100
AcDbLine
 10
-497.2866955318966
 20
-548.2028324539597
 30
0.0
 11
-497.2866955318966
 21
-546.702550166362
 31
0.0
  0
LINE
  5
3BA
330
1F
100
AcDbEntity
  8
D-0
  6
Continuous
 62
     7
370
     5
100
AcDbLine
 10
-497.2866955318966
 20
-546.702550166362
 30
0.0
 11
-495.786413244299
 21
-546.702550166362
 31
0.0
  0
LINE
  5
3BB
330
1F
100
AcDbEntity
  8
D-0
  6
Continuous
 62
     7
370
     5
100
AcDbLine
 10
-495.786413244299
 20
-546.702550166362
 30
0.0
 11
-495.786413244299
 21
-548.2028324539597
 31
0.0
  0
LINE
  5
3BC
330
1F
100
AcDbEntity
  8
D-0
  6
Continuous
 62
     7
370
     5
100
AcDbLine
 10
-495.786413244299
 20
-548.2028324539597
 30
0.0
 11
-497.2866955318966
 21
-548.2028324539597
 31
0.0
  0
LINE
  5
3BD
330
1F
100
AcDbEntity
  8
D-0
  6
Continuous
 62
     7
370
     5
100
AcDbLine
 10
-547.8205433407345
 20
-564.9957592422898
 30
0.0
 11
-547.8205433407345
 21
-563.4954769546921
 31
0.0
  0
LINE
  5
3BE
330
1F
100
AcDbEntity
  8
D-0
  6
Continuous
 62
     7
370
     5
100
AcDbLine
 10
-547.8205433407345
 20
-563.4954769546921
 30
0.0
 11
-546.3202610531368
 21
-563.4954769546921
 31
0.0
  0
LINE
  5
3BF
330
1F
100
AcDbEntity
  8
D-0
  6
Continuous
 62
     7
370
     5
100
AcDbLine
 10
-546.3202610531368
 20
-563.4954769546921
 30
0.0
 11
-546.3202610531368
 21
-564.9957592422898
 31
0.0
  0
LINE
  5
3C0
330
1F
100
AcDbEntity
  8
D-0
  6
Continuous
 62
     7
370
     5
100
AcDbLine
 10
-546.3202610531368
 20
-564.9957592422898
 30
0.0
 11
-547.8205433407345
 21
-564.9957592422898
 31
0.0
  0
LINE
  5
3C1
330
1F
100
AcDbEntity
  8
D-0
  6
Continuous
 62
     7
370
     5
100
AcDbLine
 10
-516.8785229244747
 20
-577.8700191910202
 30
0.0
 11
-516.8785229244747
 21
-576.3697369034226
 31
0.0
  0
LINE
  5
3C2
330
1F
100
AcDbEntity
  8
D-0
  6
Continuous
 62
     7
370
     5
100
AcDbLine
 10
-516.8785229244747
 20
-576.3697369034226
 30
0.0
 11
-515.3782406368771
 21
-576.3697369034226
 31
0.0
  0
LINE
  5
3C3
330
1F
100
AcDbEntity
  8
D-0
  6
Continuous
 62
     7
370
     5
100
AcDbLine
 10
-515.3782406368771
 20
-576.3697369034226
 30
0.0
 11
-515.3782406368771
 21
-577.8700191910202
 31
0.0
  0
LINE
  5
3C4
330
1F
100
AcDbEntity
  8
D-0
  6
Continuous
 62
     7
370
     5
100
AcDbLine
 10
-515.3782406368771
 20
-577.8700191910202
 30
0.0
 11
-516.8785229244747
 21
-577.8700191910202
 31
0.0
  0
LINE
  5
3C5
330
1F
100
AcDbEntity
  8
D-0
  6
Continuous
 62
     7
370
     5
100
AcDbLine
 10
-479.3745174923458
 20
-576.7507488663132
 30
0.0
 11
-479.3745174923458
 21
-575.2504665787155
 31
0.0
  0
LINE
  5
3C6
330
1F
100
AcDbEntity
  8
D-0
  6
Continuous
 62
     7
370
     5
100
AcDbLine
 10
-479.3745174923458
 20
-575.2504665787155
 30
0.0
 11
-477.8742352047482
 21
-575.2504665787155
 31
0.0
  0
LINE
  5
3C7
330
1F
100
AcDbEntity
  8
D-0
  6
Continuous
 62
     7
370
     5
100
AcDbLine
 10
-477.8742352047482
 20
-575.2504665787155
 30
0.0
 11
-477.8742352047482
 21
-576.7507488663132
 31
0.0
  0
LINE
  5
3C8
330
1F
100
AcDbEntity
  8
D-0
  6
Continuous
 62
     7
370
     5
100
AcDbLine
 10
-477.8742352047482
 20
-576.7507488663132
 30
0.0
 11
-479.3745174923458
 21
-576.7507488663132
 31
0.0
  0
LINE
  5
3C9
330
1F
100
AcDbEntity
  8
D-0
  6
Continuous
 62
     7
370
     5
100
AcDbLine
 10
-530.7694950619259
 20
-402.6888496811325
 30
0.0
 11
-530.7694950619259
 21
-401.1885673935349
 31
0.0
  0
LINE
  5
3CA
330
1F
100
AcDbEntity
  8
D-0
  6
Continuous
 62
     7
370
     5
100
AcDbLine
 10
-530.7694950619259
 20
-401.1885673935349
 30
0.0
 11
-529.2692127743283
 21
-401.1885673935349
 31
0.0
  0
LINE
  5
3CB
330
1F
100
AcDbEntity
  8
D-0
  6
Continuous
 62
     7
370
     5
100
AcDbLine
 10
-529.2692127743283
 20
-401.1885673935349
 30
0.0
 11
-529.2692127743283
 21
-402.6888496811325
 31
0.0
  0
LINE
  5
3CC
330
1F
100
AcDbEntity
  8
D-0
  6
Continuous
 62
     7
370
     5
100
AcDbLine
 10
-529.2692127743283
 20
-402.6888496811325
 30
0.0
 11
-530.7694950619259
 21
-402.6888496811325
 31
0.0
  0
LINE
  5
3CD
330
1F
100
AcDbEntity
  8
D-0
  6
Continuous
 62
     7
370
     5
100
AcDbLine
 10
-552.1920719662228
 20
-428.7022049362595
 30
0.0
 11
-552.1920719662228
 21
-427.2019226486618
 31
0.0
  0
LINE
  5
3CE
330
1F
100
AcDbEntity
  8
D-0
  6
Continuous
 62
     7
370
     5
100
AcDbLine
 10
-552.1920719662228
 20
-427.2019226486618
 30
0.0
 11
-550.6917896786251
 21
-427.2019226486618
 31
0.0
  0
LINE
  5
3CF
330
1F
100
AcDbEntity
  8
D-0
  6
Continuous
 62
     7
370
     5
100
AcDbLine
 10
-550.6917896786251
 20
-427.2019226486618
 30
0.0
 11
-550.6917896786251
 21
-428.7022049362595
 31
0.0
  0
LINE
  5
3D0
330
1F
100
AcDbEntity
  8
D-0
  6
Continuous
 62
     7
370
     5
100
AcDbLine
 10
-550.6917896786251
 20
-428.7022049362595
 30
0.0
 11
-552.1920719662228
 21
-428.7022049362595
 31
0.0
  0
LINE
  5
3D1
330
1F
100
AcDbEntity
  8
D-0
  6
Continuous
 62
     7
370
     5
100
AcDbLine
 10
-533.0644932308712
 20
-469.6350986893112
 30
0.0
 11
-533.0644932308712
 21
-468.1348354751999
 31
0.0
  0
LINE
  5
3D2
330
1F
100
AcDbEntity
  8
D-0
  6
Continuous
 62
     7
370
     5
100
AcDbLine
 10
-533.0644932308712
 20
-468.1348354751999
 30
0.0
 11
-531.5642109432736
 21
-468.1348354751999
 31
0.0
  0
LINE
  5
3D3
330
1F
100
AcDbEntity
  8
D-0
  6
Continuous
 62
     7
370
     5
100
AcDbLine
 10
-531.5642109432736
 20
-468.1348354751999
 30
0.0
 11
-531.5642109432736
 21
-469.6350986893112
 31
0.0
  0
LINE
  5
3D4
330
1F
100
AcDbEntity
  8
D-0
  6
Continuous
 62
     7
370
     5
100
AcDbLine
 10
-531.5642109432736
 20
-469.6350986893112
 30
0.0
 11
-533.0644932308712
 21
-469.6350986893112
 31
0.0
  0
LINE
  5
3D5
330
1F
100
AcDbEntity
  8
D-0
  6
Continuous
 62
     7
370
     5
100
AcDbLine
 10
-533.6848202267208
 20
-308.9070172245438
 30
0.0
 11
-533.6848202267208
 21
-307.4067373211319
 31
0.0
  0
LINE
  5
3D6
330
1F
100
AcDbEntity
  8
D-0
  6
Continuous
 62
     7
370
     5
100
AcDbLine
 10
-533.6848202267208
 20
-307.4067373211319
 30
0.0
 11
-532.1845379391232
 21
-307.4067373211319
 31
0.0
  0
LINE
  5
3D7
330
1F
100
AcDbEntity
  8
D-0
  6
Continuous
 62
     7
370
     5
100
AcDbLine
 10
-532.1845379391232
 20
-307.4067373211319
 30
0.0
 11
-532.1845379391232
 21
-308.9070172245438
 31
0.0
  0
LINE
  5
3D8
330
1F
100
AcDbEntity
  8
D-0
  6
Continuous
 62
     7
370
     5
100
AcDbLine
 10
-532.1845379391232
 20
-308.9070172245438
 30
0.0
 11
-533.6848202267208
 21
-308.9070172245438
 31
0.0
  0
LINE
  5
3D9
330
1F
100
AcDbEntity
  8
D-0
  6
Continuous
 62
     7
370
     5
100
AcDbLine
 10
-548.067792944006
 20
-334.4769222671921
 30
0.0
 11
-548.067792944006
 21
-332.9766399795944
 31
0.0
  0
LINE
  5
3DA
330
1F
100
AcDbEntity
  8
D-0
  6
Continuous
 62
     7
370
     5
100
AcDbLine
 10
-548.067792944006
 20
-332.9766399795944
 30
0.0
 11
-546.5675106564083
 21
-332.9766399795944
 31
0.0
  0
LINE
  5
3DB
330
1F
100
AcDbEntity
  8
D-0
  6
Continuous
 62
     7
370
     5
100
AcDbLine
 10
-546.5675106564083
 20
-332.9766399795944
 30
0.0
 11
-546.5675106564083
 21
-334.4769222671921
 31
0.0
  0
LINE
  5
3DC
330
1F
100
AcDbEntity
  8
D-0
  6
Continuous
 62
     7
370
     5
100
AcDbLine
 10
-546.5675106564083
 20
-334.4769222671921
 30
0.0
 11
-548.067792944006
 21
-334.4769222671921
 31
0.0
  0
LINE
  5
3DD
330
1F
100
AcDbEntity
  8
D-0
  6
Continuous
 62
     7
370
     5
100
AcDbLine
 10
-540.0773563900509
 20
-368.0377466614182
 30
0.0
 11
-540.0773563900509
 21
-366.5374691421921
 31
0.0
  0
LINE
  5
3DE
330
1F
100
AcDbEntity
  8
D-0
  6
Continuous
 62
     7
370
     5
100
AcDbLine
 10
-540.0773563900509
 20
-366.5374691421921
 30
0.0
 11
-538.5770931759396
 21
-366.5374691421921
 31
0.0
  0
LINE
  5
3DF
330
1F
100
AcDbEntity
  8
D-0
  6
Continuous
 62
     7
370
     5
100
AcDbLine
 10
-538.5770931759396
 20
-366.5374691421921
 30
0.0
 11
-538.5770931759396
 21
-368.0377466614182
 31
0.0
  0
LINE
  5
3E0
330
1F
100
AcDbEntity
  8
D-0
  6
Continuous
 62
     7
370
     5
100
AcDbLine
 10
-538.5770931759396
 20
-368.0377466614182
 30
0.0
 11
-540.0773563900509
 21
-368.0377466614182
 31
0.0
  0
LINE
  5
3E1
330
1F
100
AcDbEntity
  8
D-0
  6
Continuous
 62
     7
370
     5
100
AcDbLine
 10
-575.2363148251095
 20
-363.2433445389206
 30
0.0
 11
-575.2363148251095
 21
-361.743062251323
 31
0.0
  0
LINE
  5
3E2
330
1F
100
AcDbEntity
  8
D-0
  6
Continuous
 62
     7
370
     5
100
AcDbLine
 10
-575.2363148251095
 20
-361.743062251323
 30
0.0
 11
-573.7360516109982
 21
-361.743062251323
 31
0.0
  0
LINE
  5
3E3
330
1F
100
AcDbEntity
  8
D-0
  6
Continuous
 62
     7
370
     5
100
AcDbLine
 10
-573.7360516109982
 20
-361.743062251323
 30
0.0
 11
-573.7360516109982
 21
-363.2433445389206
 31
0.0
  0
LINE
  5
3E4
330
1F
100
AcDbEntity
  8
D-0
  6
Continuous
 62
     7
370
     5
100
AcDbLine
 10
-573.7360516109982
 20
-363.2433445389206
 30
0.0
 11
-575.2363148251095
 21
-363.2433445389206
 31
0.0
  0
LINE
  5
3E5
330
1F
100
AcDbEntity
  8
D-0
  6
Continuous
 62
     7
370
     5
100
AcDbLine
 10
-583.2267513790646
 20
-307.3088819916184
 30
0.0
 11
-583.2267513790646
 21
-305.8086032802994
 31
0.0
  0
LINE
  5
3E6
330
1F
100
AcDbEntity
  8
D-0
  6
Continuous
 62
     7
370
     5
100
AcDbLine
 10
-583.2267513790646
 20
-305.8086032802994
 30
0.0
 11
-581.7264690914669
 21
-305.8086032802994
 31
0.0
  0
LINE
  5
3E7
330
1F
100
AcDbEntity
  8
D-0
  6
Continuous
 62
     7
370
     5
100
AcDbLine
 10
-581.7264690914669
 20
-305.8086032802994
 30
0.0
 11
-581.7264690914669
 21
-307.3088819916184
 31
0.0
  0
LINE
  5
3E8
330
1F
100
AcDbEntity
  8
D-0
  6
Continuous
 62
     7
370
     5
100
AcDbLine
 10
-581.7264690914669
 20
-307.3088819916184
 30
0.0
 11
-583.2267513790646
 21
-307.3088819916184
 31
0.0
  0
LINE
  5
3E9
330
1F
100
AcDbEntity
  8
D-0
  6
Continuous
 62
     7
370
     5
100
AcDbLine
 10
-599.2080917873898
 20
-324.8883612091477
 30
0.0
 11
-599.2080917873898
 21
-323.3880836899216
 31
0.0
  0
LINE
  5
3EA
330
1F
100
AcDbEntity
  8
D-0
  6
Continuous
 62
     7
370
     5
100
AcDbLine
 10
-599.2080917873898
 20
-323.3880836899216
 30
0.0
 11
-597.7078094997921
 21
-323.3880836899216
 31
0.0
  0
LINE
  5
3EB
330
1F
100
AcDbEntity
  8
D-0
  6
Continuous
 62
     7
370
     5
100
AcDbLine
 10
-597.7078094997921
 20
-323.3880836899216
 30
0.0
 11
-597.7078094997921
 21
-324.8883612091477
 31
0.0
  0
LINE
  5
3EC
330
1F
100
AcDbEntity
  8
D-0
  6
Continuous
 62
     7
370
     5
100
AcDbLine
 10
-597.7078094997921
 20
-324.8883612091477
 30
0.0
 11
-599.2080917873898
 21
-324.8883612091477
 31
0.0
  0
LINE
  5
3ED
330
1F
100
AcDbEntity
  8
D-0
  6
Continuous
 62
     7
370
     5
100
AcDbLine
 10
-637.5633183041134
 20
-307.3088819916184
 30
0.0
 11
-637.5633183041134
 21
-305.8086032802994
 31
0.0
  0
LINE
  5
3EE
330
1F
100
AcDbEntity
  8
D-0
  6
Continuous
 62
     7
370
     5
100
AcDbLine
 10
-637.5633183041134
 20
-305.8086032802994
 30
0.0
 11
-636.0630455532589
 21
-305.8086032802994
 31
0.0
  0
LINE
  5
3EF
330
1F
100
AcDbEntity
  8
D-0
  6
Continuous
 62
     7
370
     5
100
AcDbLine
 10
-636.0630455532589
 20
-305.8086032802994
 30
0.0
 11
-636.0630455532589
 21
-307.3088819916184
 31
0.0
  0
LINE
  5
3F0
330
1F
100
AcDbEntity
  8
D-0
  6
Continuous
 62
     7
370
     5
100
AcDbLine
 10
-636.0630455532589
 20
-307.3088819916184
 30
0.0
 11
-637.5633183041134
 21
-307.3088819916184
 31
0.0
  0
LINE
  5
3F1
330
1F
100
AcDbEntity
  8
D-0
  6
Continuous
 62
     7
370
     5
100
AcDbLine
 10
-666.6726103344479
 20
-312.8645737106735
 30
0.0
 11
-666.6726103344479
 21
-311.3642938072617
 31
0.0
  0
LINE
  5
3F2
330
1F
100
AcDbEntity
  8
D-0
  6
Continuous
 62
     7
370
     5
100
AcDbLine
 10
-666.6726103344479
 20
-311.3642938072617
 30
0.0
 11
-665.1723280468502
 21
-311.3642938072617
 31
0.0
  0
LINE
  5
3F3
330
1F
100
AcDbEntity
  8
D-0
  6
Continuous
 62
     7
370
     5
100
AcDbLine
 10
-665.1723280468502
 20
-311.3642938072617
 30
0.0
 11
-665.1723280468502
 21
-312.8645737106735
 31
0.0
  0
LINE
  5
3F4
330
1F
100
AcDbEntity
  8
D-0
  6
Continuous
 62
     7
370
     5
100
AcDbLine
 10
-665.1723280468502
 20
-312.8645737106735
 30
0.0
 11
-666.6726103344479
 21
-312.8645737106735
 31
0.0
  0
LINE
  5
3F5
330
1F
100
AcDbEntity
  8
D-0
  6
Continuous
 62
     7
370
     5
100
AcDbLine
 10
-675.1461163082638
 20
-341.6307480270798
 30
0.0
 11
-675.1461163082638
 21
-340.1304705078537
 31
0.0
  0
LINE
  5
3F6
330
1F
100
AcDbEntity
  8
D-0
  6
Continuous
 62
     7
370
     5
100
AcDbLine
 10
-675.1461163082638
 20
-340.1304705078537
 30
0.0
 11
-673.6458340206661
 21
-340.1304705078537
 31
0.0
  0
LINE
  5
3F7
330
1F
100
AcDbEntity
  8
D-0
  6
Continuous
 62
     7
370
     5
100
AcDbLine
 10
-673.6458340206661
 20
-340.1304705078537
 30
0.0
 11
-673.6458340206661
 21
-341.6307480270798
 31
0.0
  0
LINE
  5
3F8
330
1F
100
AcDbEntity
  8
D-0
  6
Continuous
 62
     7
370
     5
100
AcDbLine
 10
-673.6458340206661
 20
-341.6307480270798
 30
0.0
 11
-675.1461163082638
 21
-341.6307480270798
 31
0.0
  0
LINE
  5
3F9
330
1F
100
AcDbEntity
  8
D-0
  6
Continuous
 62
     7
370
     5
100
AcDbLine
 10
-696.6940537014523
 20
-364.8414785797531
 30
0.0
 11
-696.6940537014523
 21
-363.3411962921555
 31
0.0
  0
LINE
  5
3FA
330
1F
100
AcDbEntity
  8
D-0
  6
Continuous
 62
     7
370
     5
100
AcDbLine
 10
-696.6940537014523
 20
-363.3411962921555
 30
0.0
 11
-695.1937714138546
 21
-363.3411962921555
 31
0.0
  0
LINE
  5
3FB
330
1F
100
AcDbEntity
  8
D-0
  6
Continuous
 62
     7
370
     5
100
AcDbLine
 10
-695.1937714138546
 20
-363.3411962921555
 30
0.0
 11
-695.1937714138546
 21
-364.8414785797531
 31
0.0
  0
LINE
  5
3FC
330
1F
100
AcDbEntity
  8
D-0
  6
Continuous
 62
     7
370
     5
100
AcDbLine
 10
-695.1937714138546
 20
-364.8414785797531
 30
0.0
 11
-696.6940537014523
 21
-364.8414785797531
 31
0.0
  0
TEXT
  5
3FD
330
1F
100
AcDbEntity
  8
D-5
  6
Continuous
 62
     2
370
     5
100
AcDbText
 10
139.295322871136
 20
-392.1864968459477
 30
0.0
 40
30.48
  1
アルミニウム製グレーチング　ＡＭＧ　３５０×３５０×３０（Ｐ＝３０）
 50
0.00001529919715
 41
1.121323529411764
  7
ＭＳ ゴシック
100
AcDbText
  0
TEXT
  5
3FE
330
1F
100
AcDbEntity
  8
F-4
  6
Continuous
 62
     2
370
     5
100
AcDbText
 10
-895.7343954604977
 20
-1359.421981667394
 30
0.0
 40
30.48
  1
アルミニウム製グレーチング　ＡＭＧ　３５０×３５０×３０（Ｐ＝３０）＋ＡＦ３０Ａ
 41
0.7743749999999999
  7
ＭＳ ゴシック
100
AcDbText
  0
ENDSEC
  0
SECTION
  2
OBJECTS
  0
DICTIONARY
  5
C
330
0
100
AcDbDictionary
281
     1
  3
ACAD_GROUP
350
D
  3
ACAD_LAYOUT
350
1A
  3
ACAD_MLEADERSTYLE
350
400
  3
ACAD_MLINESTYLE
350
17
  3
ACAD_PLOTSETTINGS
350
19
  3
ACAD_PLOTSTYLENAME
350
E
  3
ACAD_TABLESTYLE
350
3FF
  3
ACAD_VISUALSTYLE
350
2A
  0
DICTIONARY
  5
D
102
{ACAD_REACTORS
330
C
102
}
330
C
100
AcDbDictionary
281
     1
  0
DICTIONARY
  5
1A
102
{ACAD_REACTORS
330
C
102
}
330
C
100
AcDbDictionary
281
     1
  3
Layout1
350
1E
  3
Layout2
350
26
  3
Model
350
22
  0
DICTIONARY
  5
400
102
{ACAD_REACTORS
330
C
102
}
330
C
100
AcDbDictionary
281
     1
  0
DICTIONARY
  5
17
102
{ACAD_REACTORS
330
C
102
}
330
C
100
AcDbDictionary
281
     1
  3
Standard
350
18
  0
DICTIONARY
  5
19
102
{ACAD_REACTORS
330
C
102
}
330
C
100
AcDbDictionary
281
     1
  0
ACDBDICTIONARYWDFLT
  5
E
102
{ACAD_REACTORS
330
C
102
}
330
C
100
AcDbDictionary
281
     1
  3
Normal
350
F
100
AcDbDictionaryWithDefault
340
F
  0
DICTIONARY
  5
3FF
102
{ACAD_REACTORS
330
C
102
}
330
C
100
AcDbDictionary
281
     1
  0
DICTIONARY
  5
2A
102
{ACAD_REACTORS
330
C
102
}
330
C
100
AcDbDictionary
281
     1
  3
2dWireframe
350
2F
  3
3D Hidden
350
31
  3
3dWireframe
350
30
  3
Basic
350
32
  3
Brighten
350
36
  3
ColorChange
350
3A
  3
Conceptual
350
34
  3
Dim
350
35
  3
Facepattern
350
39
  3
Flat
350
2B
  3
FlatWithEdges
350
2C
  3
Gouraud
350
2D
  3
GouraudWithEdges
350
2E
  3
Linepattern
350
38
  3
Realistic
350
33
  3
Thicken
350
37
  0
LAYOUT
  5
1E
102
{ACAD_REACTORS
330
1A
102
}
330
1A
100
AcDbPlotSettings
  1

  2
none_device
  4

  6

 40
0.0
 41
0.0
 42
0.0
 43
0.0
 44
0.0
 45
0.0
 46
0.0
 47
0.0
 48
0.0
 49
0.0
140
0.0
141
0.0
142
1.0
143
1.0
 70
   688
 72
     0
 73
     0
 74
     5
  7

 75
    16
 76
     0
 77
     5
 78
   300
147
1.0
148
0.0
149
0.0
100
AcDbLayout
  1
Layout1
 70
     1
 71
     1
 10
0.0
 20
0.0
 11
420.0
 21
297.0
 12
0.0
 22
0.0
 32
0.0
 14
1.000000000000000E+20
 24
1.000000000000000E+20
 34
1.000000000000000E+20
 15
-1.000000000000000E+20
 25
-1.000000000000000E+20
 35
-1.000000000000000E+20
146
0.0
 13
0.0
 23
0.0
 33
0.0
 16
1.0
 26
0.0
 36
0.0
 17
0.0
 27
1.0
 37
0.0
 76
     0
330
1B
  0
LAYOUT
  5
26
102
{ACAD_REACTORS
330
1A
102
}
330
1A
100
AcDbPlotSettings
  1

  2
none_device
  4

  6

 40
0.0
 41
0.0
 42
0.0
 43
0.0
 44
0.0
 45
0.0
 46
0.0
 47
0.0
 48
0.0
 49
0.0
140
0.0
141
0.0
142
1.0
143
1.0
 70
   688
 72
     0
 73
     0
 74
     5
  7

 75
    16
 76
     0
 77
     5
 78
   300
147
1.0
148
0.0
149
0.0
100
AcDbLayout
  1
Layout2
 70
     1
 71
     2
 10
0.0
 20
0.0
 11
0.0
 21
0.0
 12
0.0
 22
0.0
 32
0.0
 14
0.0
 24
0.0
 34
0.0
 15
0.0
 25
0.0
 35
0.0
146
0.0
 13
0.0
 23
0.0
 33
0.0
 16
1.0
 26
0.0
 36
0.0
 17
0.0
 27
1.0
 37
0.0
 76
     0
330
23
  0
LAYOUT
  5
22
102
{ACAD_REACTORS
330
1A
102
}
330
1A
100
AcDbPlotSettings
  1

  2
none_device
  4

  6

 40
0.0
 41
0.0
 42
0.0
 43
0.0
 44
0.0
 45
0.0
 46
0.0
 47
0.0
 48
0.0
 49
0.0
140
0.0
141
0.0
142
1.0
143
1.0
 70
  1712
 72
     0
 73
     0
 74
     0
  7

 75
     0
 76
     0
 77
     5
 78
   300
147
1.0
148
0.0
149
0.0
100
AcDbLayout
  1
Model
 70
     1
 71
     0
 10
-2100.0
 20
-1485.0
 11
2100.0
 21
1485.0
 12
0.0
 22
0.0
 32
0.0
 14
-2100.0
 24
-1485.0
 34
0.0
 15
2100.0
 25
1485.0
 35
0.0
146
0.0
 13
0.0
 23
0.0
 33
0.0
 16
1.0
 26
0.0
 36
0.0
 17
0.0
 27
1.0
 37
0.0
 76
     0
330
1F
331
29
  0
MLINESTYLE
  5
18
102
{ACAD_REACTORS
330
17
102
}
330
17
100
AcDbMlineStyle
  2
Standard
 70
     0
  3

 62
   256
 51
90.0
 52
90.0
 71
     2
 49
0.5
 62
   256
  6
BYLAYER
 49
-0.5
 62
   256
  6
BYLAYER
  0
ACDBPLACEHOLDER
  5
F
102
{ACAD_REACTORS
330
E
102
}
330
E
  0
VISUALSTYLE
  5
2F
102
{ACAD_REACTORS
330
2A
102
}
330
2A
100
AcDbVisualStyle
  2
2dWireframe
 70
     4
 71
     0
 72
     2
 73
     0
 90
        0
 40
-0.6
 41
-30.0
 62
     5
 63
     7
421
 16777215
 74
     1
 91
        4
 64
     7
 65
   257
 75
     1
175
     1
 42
1.0
 92
        0
 66
   257
 43
1.0
 76
     1
 77
     6
 78
     2
 67
     7
 79
     5
170
     0
171
     0
290
     0
174
     0
 93
        1
 44
0.0
173
     0
291
     0
 45
0.0
1001
ACAD
1000
AcDbSavedByObjectVersion
1070
     0
  0
VISUALSTYLE
  5
31
102
{ACAD_REACTORS
330
2A
102
}
330
2A
100
AcDbVisualStyle
  2
3D Hidden
 70
     6
 71
     1
 72
     2
 73
     2
 90
        0
 40
-0.6
 41
-30.0
 62
     5
 63
     7
421
 16777215
 74
     2
 91
        2
 64
     7
 65
   257
 75
     2
175
     1
 42
40.0
 92
        0
 66
   257
 43
1.0
 76
     1
 77
     6
 78
     2
 67
     7
 79
     3
170
     0
171
     0
290
     0
174
     0
 93
        1
 44
0.0
173
     0
291
     0
 45
0.0
1001
ACAD
1000
AcDbSavedByObjectVersion
1070
     0
  0
VISUALSTYLE
  5
30
102
{ACAD_REACTORS
330
2A
102
}
330
2A
100
AcDbVisualStyle
  2
3dWireframe
 70
     5
 71
     0
 72
     2
 73
     0
 90
        0
 40
-0.6
 41
-30.0
 62
     5
 63
     7
421
 16777215
 74
     1
 91
        4
 64
     7
 65
   257
 75
     1
175
     1
 42
1.0
 92
        0
 66
   257
 43
1.0
 76
     1
 77
     6
 78
     2
 67
     7
 79
     5
170
     0
171
     0
290
     0
174
     0
 93
        1
 44
0.0
173
     0
291
     0
 45
0.0
1001
ACAD
1000
AcDbSavedByObjectVersion
1070
     0
  0
VISUALSTYLE
  5
32
102
{ACAD_REACTORS
330
2A
102
}
330
2A
100
AcDbVisualStyle
  2
Basic
 70
     7
 71
     1
 72
     0
 73
     1
 90
        0
 40
-0.6
 41
-30.0
 62
     5
 63
     7
421
 16777215
 74
     0
 91
        4
 64
     7
 65
   257
 75
     1
175
     1
 42
1.0
 92
        8
 66
     7
 43
1.0
 76
     1
 77
     6
 78
     2
 67
     7
 79
     5
170
     0
171
     0
290
     0
174
     0
 93
        1
 44
0.0
173
     0
291
     1
 45
0.0
1001
ACAD
1000
AcDbSavedByObjectVersion
1070
     0
  0
VISUALSTYLE
  5
36
102
{ACAD_REACTORS
330
2A
102
}
330
2A
100
AcDbVisualStyle
  2
Brighten
 70
    12
 71
     2
 72
     2
 73
     0
 90
        0
 40
-0.6
 41
-30.0
 62
     5
 63
     7
421
 16777215
 74
     1
 91
        4
 64
     7
 65
   257
 75
     1
175
     1
 42
1.0
 92
        8
 66
     7
 43
1.0
 76
     1
 77
     6
 78
     2
 67
     7
 79
     5
170
     0
171
     0
290
     0
174
     0
 93
        1
 44
50.0
173
     0
291
     1
 45
0.0
1001
ACAD
1000
AcDbSavedByObjectVersion
1070
     0
  0
VISUALSTYLE
  5
3A
102
{ACAD_REACTORS
330
2A
102
}
330
2A
100
AcDbVisualStyle
  2
ColorChange
 70
    16
 71
     2
 72
     2
 73
     3
 90
        0
 40
-0.6
 41
-30.0
 62
     5
 63
     8
421
  8421504
 74
     1
 91
        4
 64
     7
 65
   257
 75
     1
175
     1
 42
1.0
 92
        8
 66
     8
424
  8421504
 43
1.0
 76
     1
 77
     6
 78
     2
 67
     7
 79
     5
170
     0
171
     0
290
     0
174
     0
 93
        1
 44
0.0
173
     0
291
     1
 45
0.0
1001
ACAD
1000
AcDbSavedByObjectVersion
1070
     0
  0
VISUALSTYLE
  5
34
102
{ACAD_REACTORS
330
2A
102
}
330
2A
100
AcDbVisualStyle
  2
Conceptual
 70
     9
 71
     3
 72
     2
 73
     0
 90
        0
 40
-0.6
 41
-30.0
 62
     5
 63
     7
421
 16777215
 74
     2
 91
        2
 64
     7
 65
   257
 75
     1
175
     1
 42
40.0
 92
        8
 66
     7
 43
1.0
 76
     1
 77
     6
 78
     2
 67
     7
 79
     3
170
     0
171
     0
290
     0
174
     0
 93
        1
 44
0.0
173
     0
291
     0
 45
0.0
1001
ACAD
1000
AcDbSavedByObjectVersion
1070
     0
  0
VISUALSTYLE
  5
35
102
{ACAD_REACTORS
330
2A
102
}
330
2A
100
AcDbVisualStyle
  2
Dim
 70
    11
 71
     2
 72
     2
 73
     0
 90
        0
 40
-0.6
 41
-30.0
 62
     5
 63
     7
421
 16777215
 74
     1
 91
        4
 64
     7
 65
   257
 75
     1
175
     1
 42
1.0
 92
        8
 66
     7
 43
1.0
 76
     1
 77
     6
 78
     2
 67
     7
 79
     5
170
     0
171
     0
290
     0
174
     0
 93
        1
 44
-50.0
173
     0
291
     1
 45
0.0
1001
ACAD
1000
AcDbSavedByObjectVersion
1070
     0
  0
VISUALSTYLE
  5
39
102
{ACAD_REACTORS
330
2A
102
}
330
2A
100
AcDbVisualStyle
  2
Facepattern
 70
    15
 71
     2
 72
     2
 73
     0
 90
        0
 40
-0.6
 41
-30.0
 62
     5
 63
     7
421
 16777215
 74
     1
 91
        4
 64
     7
 65
   257
 75
     1
175
     1
 42
1.0
 92
        8
 66
     7
 43
1.0
 76
     1
 77
     6
 78
     2
 67
     7
 79
     5
170
     0
171
     0
290
     0
174
     0
 93
        1
 44
0.0
173
     0
291
     1
 45
0.0
1001
ACAD
1000
AcDbSavedByObjectVersion
1070
     0
  0
VISUALSTYLE
  5
2B
102
{ACAD_REACTORS
330
2A
102
}
330
2A
100
AcDbVisualStyle
  2
Flat
 70
     0
 71
     2
 72
     1
 73
     1
 90
        2
 40
-0.6
 41
30.0
 62
     5
 63
     7
421
 16777215
 74
     0
 91
        4
 64
     7
 65
   257
 75
     1
175
     1
 42
1.0
 92
        8
 66
     7
 43
1.0
 76
     1
 77
     6
 78
     2
 67
     7
 79
     5
170
     0
171
     0
290
     0
174
     0
 93
       13
 44
0.0
173
     0
291
     1
 45
0.0
1001
ACAD
1000
AcDbSavedByObjectVersion
1070
     0
  0
VISUALSTYLE
  5
2C
102
{ACAD_REACTORS
330
2A
102
}
330
2A
100
AcDbVisualStyle
  2
FlatWithEdges
 70
     1
 71
     2
 72
     1
 73
     1
 90
        2
 40
-0.6
 41
30.0
 62
     5
 63
     7
421
 16777215
 74
     1
 91
        4
 64
     7
 65
   257
 75
     1
175
     1
 42
1.0
 92
        0
 66
   257
 43
1.0
 76
     1
 77
     6
 78
     2
 67
     7
 79
     5
170
     0
171
     0
290
     0
174
     0
 93
       13
 44
0.0
173
     0
291
     1
 45
0.0
1001
ACAD
1000
AcDbSavedByObjectVersion
1070
     0
  0
VISUALSTYLE
  5
2D
102
{ACAD_REACTORS
330
2A
102
}
330
2A
100
AcDbVisualStyle
  2
Gouraud
 70
     2
 71
     2
 72
     2
 73
     1
 90
        2
 40
-0.6
 41
30.0
 62
     5
 63
     7
421
 16777215
 74
     0
 91
        4
 64
     7
 65
   257
 75
     1
175
     1
 42
1.0
 92
        0
 66
     7
 43
1.0
 76
     1
 77
     6
 78
     2
 67
     7
 79
     5
170
     0
171
     0
290
     0
174
     0
 93
       13
 44
0.0
173
     0
291
     1
 45
0.0
1001
ACAD
1000
AcDbSavedByObjectVersion
1070
     0
  0
VISUALSTYLE
  5
2E
102
{ACAD_REACTORS
330
2A
102
}
330
2A
100
AcDbVisualStyle
  2
GouraudWithEdges
 70
     3
 71
     2
 72
     2
 73
     1
 90
        2
 40
-0.6
 41
30.0
 62
     5
 63
     7
421
 16777215
 74
     1
 91
        4
 64
     7
 65
   257
 75
     1
175
     1
 42
1.0
 92
        0
 66
   257
 43
1.0
 76
     1
 77
     6
 78
     2
 67
     7
 79
     5
170
     0
171
     0
290
     0
174
     0
 93
       13
 44
0.0
173
     0
291
     1
 45
0.0
1001
ACAD
1000
AcDbSavedByObjectVersion
1070
     0
  0
VISUALSTYLE
  5
38
102
{ACAD_REACTORS
330
2A
102
}
330
2A
100
AcDbVisualStyle
  2
Linepattern
 70
    14
 71
     2
 72
     2
 73
     0
 90
        0
 40
-0.6
 41
-30.0
 62
     5
 63
     7
421
 16777215
 74
     1
 91
        4
 64
     7
 65
   257
 75
     7
175
     7
 42
1.0
 92
        8
 66
     7
 43
1.0
 76
     1
 77
     6
 78
     2
 67
     7
 79
     5
170
     0
171
     0
290
     0
174
     0
 93
        1
 44
0.0
173
     0
291
     1
 45
0.0
1001
ACAD
1000
AcDbSavedByObjectVersion
1070
     0
  0
VISUALSTYLE
  5
33
102
{ACAD_REACTORS
330
2A
102
}
330
2A
100
AcDbVisualStyle
  2
Realistic
 70
     8
 71
     2
 72
     2
 73
     0
 90
        0
 40
-0.6
 41
-30.0
 62
     5
 63
     7
421
 16777215
 74
     1
 91
        0
 64
     7
 65
   257
 75
     1
175
     1
 42
1.0
 92
        8
 66
     8
424
  7895160
 43
1.0
 76
     1
 77
     6
 78
     2
 67
     7
 79
     5
170
     0
171
     0
290
     0
174
     0
 93
       13
 44
0.0
173
     0
291
     0
 45
0.0
1001
ACAD
1000
AcDbSavedByObjectVersion
1070
     0
  0
VISUALSTYLE
  5
37
102
{ACAD_REACTORS
330
2A
102
}
330
2A
100
AcDbVisualStyle
  2
Thicken
 70
    13
 71
     2
 72
     2
 73
     0
 90
        0
 40
-0.6
 41
-30.0
 62
     5
 63
     7
421
 16777215
 74
     1
 91
        4
 64
     7
 65
   257
 75
     1
175
     1
 42
1.0
 92
       12
 66
     7
 43
1.0
 76
     1
 77
     6
 78
     2
 67
     7
 79
     5
170
     0
171
     0
290
     0
174
     0
 93
        1
 44
0.0
173
     0
291
     1
 45
0.0
1001
ACAD
1000
AcDbSavedByObjectVersion
1070
     0
  0
ENDSEC
  0
EOF
