  0
SECTION
  2
HEADER
  9
$ACADVER
  1
AC1015
  9
$ACADMAINTVER
 70
     6
  9
$DWGCODEPAGE
  3
ANSI_932
  9
$INSBASE
 10
0.0
 20
0.0
 30
0.0
  9
$EXTMIN
 10
-2100.0
 20
-1485.0
 30
0.0
  9
$EXTMAX
 10
2100.0
 20
1485.0
 30
0.0
  9
$LIMMIN
 10
-2100.0
 20
-1485.0
  9
$LIMMAX
 10
2100.0
 20
1485.0
  9
$ORTHOMODE
 70
     0
  9
$REGENMODE
 70
     1
  9
$FILLMODE
 70
     1
  9
$QTEXTMODE
 70
     0
  9
$MIRRTEXT
 70
     1
  9
$LTSCALE
 40
10.0
  9
$ATTMODE
 70
     1
  9
$TEXTSIZE
 40
2.5
  9
$TRACEWID
 40
1.0
  9
$TEXTSTYLE
  7
Standard
  9
$CLAYER
  8
0
  9
$CELTYPE
  6
ByLayer
  9
$CECOLOR
 62
   256
  9
$CELTSCALE
 40
1.0
  9
$DISPSILH
 70
     0
  9
$DIMSCALE
 40
1.0
  9
$DIMASZ
 40
2.5
  9
$DIMEXO
 40
0.625
  9
$DIMDLI
 40
3.75
  9
$DIMRND
 40
0.0
  9
$DIMDLE
 40
0.0
  9
$DIMEXE
 40
1.25
  9
$DIMTP
 40
0.0
  9
$DIMTM
 40
0.0
  9
$DIMTXT
 40
2.5
  9
$DIMCEN
 40
2.5
  9
$DIMTSZ
 40
0.0
  9
$DIMTOL
 70
     0
  9
$DIMLIM
 70
     0
  9
$DIMTIH
 70
     0
  9
$DIMTOH
 70
     0
  9
$DIMSE1
 70
     0
  9
$DIMSE2
 70
     0
  9
$DIMTAD
 70
     1
  9
$DIMZIN
 70
     8
  9
$DIMBLK
  1

  9
$DIMASO
 70
     1
  9
$DIMSHO
 70
     1
  9
$DIMPOST
  1

  9
$DIMAPOST
  1

  9
$DIMALT
 70
     0
  9
$DIMALTD
 70
     3
  9
$DIMALTF
 40
0.03937007874016
  9
$DIMLFAC
 40
1.0
  9
$DIMTOFL
 70
     1
  9
$DIMTVP
 40
0.0
  9
$DIMTIX
 70
     0
  9
$DIMSOXD
 70
     0
  9
$DIMSAH
 70
     0
  9
$DIMBLK1
  1

  9
$DIMBLK2
  1

  9
$DIMSTYLE
  2
ISO-25
  9
$DIMCLRD
 70
     0
  9
$DIMCLRE
 70
     0
  9
$DIMCLRT
 70
     0
  9
$DIMTFAC
 40
1.0
  9
$DIMGAP
 40
0.625
  9
$DIMJUST
 70
     0
  9
$DIMSD1
 70
     0
  9
$DIMSD2
 70
     0
  9
$DIMTOLJ
 70
     0
  9
$DIMTZIN
 70
     8
  9
$DIMALTZ
 70
     0
  9
$DIMALTTZ
 70
     0
  9
$DIMUPT
 70
     0
  9
$DIMDEC
 70
     2
  9
$DIMTDEC
 70
     2
  9
$DIMALTU
 70
     2
  9
$DIMALTTD
 70
     3
  9
$DIMTXSTY
  7
Standard
  9
$DIMAUNIT
 70
     0
  9
$DIMADEC
 70
     0
  9
$DIMALTRND
 40
0.0
  9
$DIMAZIN
 70
     0
  9
$DIMDSEP
 70
    44
  9
$DIMATFIT
 70
     3
  9
$DIMFRAC
 70
     0
  9
$DIMLDRBLK
  1

  9
$DIMLUNIT
 70
     2
  9
$DIMLWD
 70
    -2
  9
$DIMLWE
 70
    -2
  9
$DIMTMOVE
 70
     0
  9
$LUNITS
 70
     2
  9
$LUPREC
 70
     4
  9
$SKETCHINC
 40
1.0
  9
$FILLETRAD
 40
10.0
  9
$AUNITS
 70
     0
  9
$AUPREC
 70
     0
  9
$MENU
  1
.
  9
$ELEVATION
 40
0.0
  9
$PELEVATION
 40
0.0
  9
$THICKNESS
 40
0.0
  9
$LIMCHECK
 70
     0
  9
$CHAMFERA
 40
10.0
  9
$CHAMFERB
 40
10.0
  9
$CHAMFERC
 40
20.0
  9
$CHAMFERD
 40
0.0
  9
$SKPOLY
 70
     0
  9
$TDCREATE
 40
2456898.435953785
  9
$TDUCREATE
 40
2456898.060953785
  9
$TDUPDATE
 40
2456898.435953796
  9
$TDUUPDATE
 40
2456898.060953796
  9
$TDINDWG
 40
0.0000000116
  9
$TDUSRTIMER
 40
0.0000000116
  9
$USRTIMER
 70
     1
  9
$ANGBASE
 50
0.0
  9
$ANGDIR
 70
     0
  9
$PDMODE
 70
     0
  9
$PDSIZE
 40
0.0
  9
$PLINEWID
 40
0.0
  9
$SPLFRAME
 70
     0
  9
$SPLINETYPE
 70
     6
  9
$SPLINESEGS
 70
     8
  9
$HANDSEED
  5
1DF
  9
$SURFTAB1
 70
     6
  9
$SURFTAB2
 70
     6
  9
$SURFTYPE
 70
     6
  9
$SURFU
 70
     6
  9
$SURFV
 70
     6
  9
$UCSBASE
  2

  9
$UCSNAME
  2

  9
$UCSORG
 10
0.0
 20
0.0
 30
0.0
  9
$UCSXDIR
 10
1.0
 20
0.0
 30
0.0
  9
$UCSYDIR
 10
0.0
 20
1.0
 30
0.0
  9
$UCSORTHOREF
  2

  9
$UCSORTHOVIEW
 70
     0
  9
$UCSORGTOP
 10
0.0
 20
0.0
 30
0.0
  9
$UCSORGBOTTOM
 10
0.0
 20
0.0
 30
0.0
  9
$UCSORGLEFT
 10
0.0
 20
0.0
 30
0.0
  9
$UCSORGRIGHT
 10
0.0
 20
0.0
 30
0.0
  9
$UCSORGFRONT
 10
0.0
 20
0.0
 30
0.0
  9
$UCSORGBACK
 10
0.0
 20
0.0
 30
0.0
  9
$PUCSBASE
  2

  9
$PUCSNAME
  2

  9
$PUCSORG
 10
0.0
 20
0.0
 30
0.0
  9
$PUCSXDIR
 10
1.0
 20
0.0
 30
0.0
  9
$PUCSYDIR
 10
0.0
 20
1.0
 30
0.0
  9
$PUCSORTHOREF
  2

  9
$PUCSORTHOVIEW
 70
     0
  9
$PUCSORGTOP
 10
0.0
 20
0.0
 30
0.0
  9
$PUCSORGBOTTOM
 10
0.0
 20
0.0
 30
0.0
  9
$PUCSORGLEFT
 10
0.0
 20
0.0
 30
0.0
  9
$PUCSORGRIGHT
 10
0.0
 20
0.0
 30
0.0
  9
$PUCSORGFRONT
 10
0.0
 20
0.0
 30
0.0
  9
$PUCSORGBACK
 10
0.0
 20
0.0
 30
0.0
  9
$USERI1
 70
     0
  9
$USERI2
 70
     0
  9
$USERI3
 70
     0
  9
$USERI4
 70
     0
  9
$USERI5
 70
     0
  9
$USERR1
 40
0.0
  9
$USERR2
 40
0.0
  9
$USERR3
 40
0.0
  9
$USERR4
 40
0.0
  9
$USERR5
 40
0.0
  9
$WORLDVIEW
 70
     1
  9
$SHADEDGE
 70
     3
  9
$SHADEDIF
 70
    70
  9
$TILEMODE
 70
     1
  9
$MAXACTVP
 70
    64
  9
$PINSBASE
 10
0.0
 20
0.0
 30
0.0
  9
$PLIMCHECK
 70
     0
  9
$PEXTMIN
 10
1.000000000000000E+20
 20
1.000000000000000E+20
 30
1.000000000000000E+20
  9
$PEXTMAX
 10
-1.000000000000000E+20
 20
-1.000000000000000E+20
 30
-1.000000000000000E+20
  9
$PLIMMIN
 10
0.0
 20
0.0
  9
$PLIMMAX
 10
420.0
 20
297.0
  9
$UNITMODE
 70
     0
  9
$VISRETAIN
 70
     1
  9
$PLINEGEN
 70
     0
  9
$PSLTSCALE
 70
     1
  9
$TREEDEPTH
 70
  3020
  9
$CMLSTYLE
  2
Standard
  9
$CMLJUST
 70
     0
  9
$CMLSCALE
 40
20.0
  9
$PROXYGRAPHICS
 70
     1
  9
$MEASUREMENT
 70
     1
  9
$CELWEIGHT
370
    -1
  9
$ENDCAPS
280
     0
  9
$JOINSTYLE
280
     0
  9
$LWDISPLAY
290
     0
  9
$INSUNITS
 70
     4
  9
$HYPERLINKBASE
  1

  9
$STYLESHEET
  1

  9
$XEDIT
290
     1
  9
$CEPSNTYPE
380
     0
  9
$PSTYLEMODE
290
     1
  9
$FINGERPRINTGUID
  2
{4EF89CCF-A309-481B-B83E-7F325EE38946}
  9
$VERSIONGUID
  2
{FAEB1C32-E019-11D5-929B-00C0DF256EC4}
  9
$EXTNAMES
290
     1
  9
$PSVPSCALE
 40
0.0
  9
$OLESTARTUP
290
     0
  0
ENDSEC
  0
SECTION
  2
CLASSES
  0
CLASS
  1
ACDBDICTIONARYWDFLT
  2
AcDbDictionaryWithDefault
  3
ObjectDBX Classes
 90
        0
280
     0
281
     0
  0
CLASS
  1
VISUALSTYLE
  2
AcDbVisualStyle
  3
ObjectDBX Classes
 90
     4095
280
     0
281
     0
  0
CLASS
  1
DICTIONARYVAR
  2
AcDbDictionaryVar
  3
ObjectDBX Classes
 90
        0
280
     0
281
     0
  0
CLASS
  1
ACDBPLACEHOLDER
  2
AcDbPlaceHolder
  3
ObjectDBX Classes
 90
        0
280
     0
281
     0
  0
CLASS
  1
LAYOUT
  2
AcDbLayout
  3
ObjectDBX Classes
 90
        0
280
     0
281
     0
  0
ENDSEC
  0
SECTION
  2
TABLES
  0
TABLE
  2
VPORT
  5
8
330
0
100
AcDbSymbolTable
 70
     1
  0
VPORT
  5
29
330
8
100
AcDbSymbolTableRecord
100
AcDbViewportTableRecord
  2
*Active
 70
     0
 10
0.0
 20
0.0
 11
1.0
 21
1.0
 12
0.0
 22
0.0
 13
0.0
 23
0.0
 14
10.0
 24
10.0
 15
10.0
 25
10.0
 16
0.0
 26
0.0
 36
1.0
 17
0.0
 27
0.0
 37
0.0
 40
3267.0
 41
1.414141414141414
 42
50.0
 43
0.0
 44
0.0
 50
0.0
 51
0.0
 71
     0
 72
 10000
 73
     1
 74
     3
 75
     0
 76
     0
 77
     0
 78
     0
281
     0
 65
     1
110
0.0
120
0.0
130
0.0
111
1.0
121
0.0
131
0.0
112
0.0
122
1.0
132
0.0
 79
     0
146
0.0
  0
ENDTAB
  0
TABLE
  2
LTYPE
  5
5
330
0
100
AcDbSymbolTable
 70
     3
  0
LTYPE
  5
14
330
5
100
AcDbSymbolTableRecord
100
AcDbLinetypeTableRecord
  2
ByBlock
 70
     0
  3

 72
    65
 73
     0
 40
0.0
  0
LTYPE
  5
15
330
5
100
AcDbSymbolTableRecord
100
AcDbLinetypeTableRecord
  2
ByLayer
 70
     0
  3

 72
    65
 73
     0
 40
0.0
  0
LTYPE
  5
16
330
5
100
AcDbSymbolTableRecord
100
AcDbLinetypeTableRecord
  2
Continuous
 70
     0
  3
Solid line
 72
    65
 73
     0
 40
0.0
  0
LTYPE
  5
3C
330
5
100
AcDbSymbolTableRecord
100
AcDbLinetypeTableRecord
  2
JWW_CENTER1
 70
     0
  3
-----  --  ----------  --  -----
 72
    65
 73
     4
 40
6.773333333333333
 49
4.233333333333333
 74
     0
 49
-0.8466666666666667
 74
     0
 49
0.8466666666666667
 74
     0
 49
-0.8466666666666667
 74
     0
  0
LTYPE
  5
3D
330
5
100
AcDbSymbolTableRecord
100
AcDbLinetypeTableRecord
  2
JWW_DASHED1
 70
     0
  3
-  --  --  --  --  --  --  --  -
 72
    65
 73
     2
 40
1.693333333333333
 49
0.8466666666666667
 74
     0
 49
-0.8466666666666667
 74
     0
  0
ENDTAB
  0
TABLE
  2
LAYER
  5
2
330
0
100
AcDbSymbolTable
 70
    13
  0
LAYER
  5
10
330
2
100
AcDbSymbolTableRecord
100
AcDbLayerTableRecord
  2
0
 70
     0
 62
     7
  6
Continuous
370
    -3
390
F
  0
LAYER
  5
3E
330
2
100
AcDbSymbolTableRecord
100
AcDbLayerTableRecord
  2
0-F
 70
     0
 62
     7
  6
Continuous
370
    -3
390
F
  0
LAYER
  5
3F
330
2
100
AcDbSymbolTableRecord
100
AcDbLayerTableRecord
  2
0-B
 70
     0
 62
     7
  6
Continuous
370
    -3
390
F
  0
LAYER
  5
40
330
2
100
AcDbSymbolTableRecord
100
AcDbLayerTableRecord
  2
0-1
 70
     0
 62
     7
  6
Continuous
370
    -3
390
F
  0
LAYER
  5
41
330
2
100
AcDbSymbolTableRecord
100
AcDbLayerTableRecord
  2
0-4
 70
     0
 62
     7
  6
Continuous
370
    -3
390
F
  0
LAYER
  5
42
330
2
100
AcDbSymbolTableRecord
100
AcDbLayerTableRecord
  2
0-D
 70
     0
 62
     7
  6
Continuous
370
    -3
390
F
  0
LAYER
  5
43
330
2
100
AcDbSymbolTableRecord
100
AcDbLayerTableRecord
  2
0-0
 70
     0
 62
     7
  6
Continuous
370
    -3
390
F
  0
LAYER
  5
44
330
2
100
AcDbSymbolTableRecord
100
AcDbLayerTableRecord
  2
0-3
 70
     0
 62
     7
  6
Continuous
370
    -3
390
F
  0
LAYER
  5
45
330
2
100
AcDbSymbolTableRecord
100
AcDbLayerTableRecord
  2
0-8
 70
     0
 62
     7
  6
Continuous
370
    -3
390
F
  0
LAYER
  5
46
330
2
100
AcDbSymbolTableRecord
100
AcDbLayerTableRecord
  2
0-9
 70
     0
 62
     7
  6
Continuous
370
    -3
390
F
  0
LAYER
  5
47
330
2
100
AcDbSymbolTableRecord
100
AcDbLayerTableRecord
  2
0-C
 70
     0
 62
     7
  6
Continuous
370
    -3
390
F
  0
LAYER
  5
48
330
2
100
AcDbSymbolTableRecord
100
AcDbLayerTableRecord
  2
0-5
 70
     0
 62
     7
  6
Continuous
370
    -3
390
F
  0
LAYER
  5
49
330
2
100
AcDbSymbolTableRecord
100
AcDbLayerTableRecord
  2
F-4
 70
     0
 62
     7
  6
Continuous
370
    -3
390
F
  0
ENDTAB
  0
TABLE
  2
STYLE
  5
3
330
0
100
AcDbSymbolTable
 70
     2
  0
STYLE
  5
11
330
3
100
AcDbSymbolTableRecord
100
AcDbTextStyleTableRecord
  2
Standard
 70
     0
 40
0.0
 41
1.0
 50
0.0
 71
     0
 42
2.5
  3
txt
  4

1001
ACAD
1000

1071
        0
  0
STYLE
  5
3B
330
3
100
AcDbSymbolTableRecord
100
AcDbTextStyleTableRecord
  2
ＭＳ ゴシック
 70
     0
 40
1.0
 41
1.0
 50
0.0
 71
     0
 42
10.0
  3

  4

1001
ACAD
1000
MS Gothic
1071
    32817
  0
ENDTAB
  0
TABLE
  2
VIEW
  5
6
330
0
100
AcDbSymbolTable
 70
     0
  0
ENDTAB
  0
TABLE
  2
UCS
  5
7
330
0
100
AcDbSymbolTable
 70
     0
  0
ENDTAB
  0
TABLE
  2
APPID
  5
9
330
0
100
AcDbSymbolTable
 70
     1
  0
APPID
  5
12
330
9
100
AcDbSymbolTableRecord
100
AcDbRegAppTableRecord
  2
ACAD
 70
     0
  0
ENDTAB
  0
TABLE
  2
DIMSTYLE
  5
A
330
0
100
AcDbSymbolTable
 70
     1
100
AcDbDimStyleTable
  0
DIMSTYLE
105
27
330
A
100
AcDbSymbolTableRecord
100
AcDbDimStyleTableRecord
  2
ISO-25
 70
     0
 41
2.5
 42
0.625
 43
3.75
 44
1.25
 73
     0
 74
     0
 77
     1
 78
     8
140
2.5
141
2.5
143
0.03937007874016
147
0.625
171
     3
172
     1
271
     2
272
     2
274
     3
278
    44
283
     0
284
     8
340
11
  0
ENDTAB
  0
TABLE
  2
BLOCK_RECORD
  5
1
330
0
100
AcDbSymbolTable
 70
     1
  0
BLOCK_RECORD
  5
1F
330
1
100
AcDbSymbolTableRecord
100
AcDbBlockTableRecord
  2
*Model_Space
340
22
  0
BLOCK_RECORD
  5
1B
330
1
100
AcDbSymbolTableRecord
100
AcDbBlockTableRecord
  2
*Paper_Space
340
1E
  0
BLOCK_RECORD
  5
23
330
1
100
AcDbSymbolTableRecord
100
AcDbBlockTableRecord
  2
*Paper_Space0
340
26
  0
ENDTAB
  0
ENDSEC
  0
SECTION
  2
BLOCKS
  0
BLOCK
  5
20
330
1F
100
AcDbEntity
  8
0
100
AcDbBlockBegin
  2
*Model_Space
 70
     0
 10
0.0
 20
0.0
 30
0.0
  3
*Model_Space
  1

  0
ENDBLK
  5
21
330
1F
100
AcDbEntity
  8
0
100
AcDbBlockEnd
  0
BLOCK
  5
1C
330
1B
100
AcDbEntity
 67
     1
  8
0
100
AcDbBlockBegin
  2
*Paper_Space
 70
     0
 10
0.0
 20
0.0
 30
0.0
  3
*Paper_Space
  1

  0
ENDBLK
  5
1D
330
1B
100
AcDbEntity
 67
     1
  8
0
100
AcDbBlockEnd
  0
BLOCK
  5
24
330
23
100
AcDbEntity
  8
0
100
AcDbBlockBegin
  2
*Paper_Space0
 70
     0
 10
0.0
 20
0.0
 30
0.0
  3
*Paper_Space0
  1

  0
ENDBLK
  5
25
330
23
100
AcDbEntity
  8
0
100
AcDbBlockEnd
  0
ENDSEC
  0
SECTION
  2
ENTITIES
  0
LWPOLYLINE
  5
4A
330
1F
100
AcDbEntity
  8
0-F
  6
Continuous
 62
     7
370
     9
100
AcDbPolyline
 90
        4
 70
     1
 43
1.0
 10
13.49093929377327
 20
-622.1485873705037
 42
0.4142135623731
 10
12.99093929377327
 20
-621.6485873705037
 42
0.4142135623731
 10
12.49093929377327
 20
-622.1485873705037
 42
0.4142135623731
 10
12.99093929377327
 20
-622.6485873705037
 42
0.4142135623731
  0
LWPOLYLINE
  5
4B
330
1F
100
AcDbEntity
  8
0-F
  6
Continuous
 62
     7
370
     9
100
AcDbPolyline
 90
        4
 70
     1
 43
1.0
 10
0.1576444510788096
 20
678.4674952003891
 42
0.4142135623731
 10
-0.3423555489211905
 20
678.9674952003891
 42
0.4142135623731
 10
-0.8423555489211905
 20
678.4674952003891
 42
0.4142135623731
 10
-0.3423555489211905
 20
677.9674952003892
 42
0.4142135623731
  0
LINE
  5
4C
330
1F
100
AcDbEntity
  8
0-B
  6
Continuous
 62
     2
370
     9
100
AcDbLine
 10
-28.58737957336357
 20
690.1341335882188
 30
0.0
 11
-35.34227071241047
 21
690.1341335882188
 31
0.0
  0
LINE
  5
4D
330
1F
100
AcDbEntity
  8
0-B
  6
Continuous
 62
     2
370
     9
100
AcDbLine
 10
-35.34227071241047
 20
666.8008568125593
 30
0.0
 11
-28.58737957336357
 21
666.8008568125593
 31
0.0
  0
LINE
  5
4E
330
1F
100
AcDbEntity
  8
0-B
  6
Continuous
 62
     2
370
     9
100
AcDbLine
 10
27.90266847552234
 20
690.1341335882188
 30
0.0
 11
34.65755961456951
 21
690.1341335882188
 31
0.0
  0
LINE
  5
4F
330
1F
100
AcDbEntity
  8
0-B
  6
Continuous
 62
     2
370
     9
100
AcDbLine
 10
34.65755961456951
 20
666.8008568125593
 30
0.0
 11
27.90266847552234
 21
666.8008568125593
 31
0.0
  0
LINE
  5
50
330
1F
100
AcDbEntity
  8
0-B
  6
Continuous
 62
     2
370
     9
100
AcDbLine
 10
27.90266847552234
 20
686.1347095338634
 30
0.0
 11
34.65755961456951
 21
686.1347095338634
 31
0.0
  0
LINE
  5
51
330
1F
100
AcDbEntity
  8
0-B
  6
Continuous
 62
     2
370
     9
100
AcDbLine
 10
34.65755961456951
 20
670.8009414919652
 30
0.0
 11
27.90266847552234
 21
670.8009414919652
 31
0.0
  0
LINE
  5
52
330
1F
100
AcDbEntity
  8
0-B
  6
Continuous
 62
     2
370
     9
100
AcDbLine
 10
-35.34227071241047
 20
670.8009414919652
 30
0.0
 11
-28.58737957336357
 21
670.8009414919652
 31
0.0
  0
LINE
  5
53
330
1F
100
AcDbEntity
  8
0-B
  6
Continuous
 62
     2
370
     9
100
AcDbLine
 10
-28.58737957336357
 20
686.1347095338634
 30
0.0
 11
-35.34227071241047
 21
686.1347095338634
 31
0.0
  0
LINE
  5
54
330
1F
100
AcDbEntity
  8
0-1
  6
JWW_CENTER1
 62
     4
370
     9
100
AcDbLine
 10
540.3336649714606
 20
678.4674952003891
 30
0.0
 11
-541.0183760693013
 21
678.4674952003891
 31
0.0
  0
LINE
  5
55
330
1F
100
AcDbEntity
  8
0-4
  6
Continuous
 62
     6
370
     9
100
AcDbLine
 10
261.3649187419719
 20
726.1342350778226
 30
0.0
 11
-271.9682543446191
 21
726.1342350778226
 31
0.0
  0
LINE
  5
56
330
1F
100
AcDbEntity
  8
0-4
  6
Continuous
 62
     6
370
     9
100
AcDbLine
 10
-271.9682543446191
 20
630.800755322956
 30
0.0
 11
-271.9682543446191
 21
726.1342350778226
 31
0.0
  0
LINE
  5
57
330
1F
100
AcDbEntity
  8
0-4
  6
Continuous
 62
     6
370
     9
100
AcDbLine
 10
261.3649187419719
 20
630.800755322956
 30
0.0
 11
-271.9682543446191
 21
630.800755322956
 31
0.0
  0
LINE
  5
58
330
1F
100
AcDbEntity
  8
0-4
  6
Continuous
 62
     6
370
     9
100
AcDbLine
 10
261.3649187419719
 20
630.800755322956
 30
0.0
 11
261.3649187419719
 21
726.1342350778226
 31
0.0
  0
LINE
  5
59
330
1F
100
AcDbEntity
  8
0-D
  6
Continuous
 62
     2
370
     9
100
AcDbLine
 10
28.03215098537665
 20
645.1343370387397
 30
0.0
 11
28.03215098537665
 21
666.8008568125593
 31
0.0
  0
LINE
  5
5A
330
1F
100
AcDbEntity
  8
0-D
  6
Continuous
 62
     2
370
     9
100
AcDbLine
 10
28.03215098537665
 20
690.1341335882188
 30
0.0
 11
28.03215098537665
 21
711.8006533620385
 31
0.0
  0
LINE
  5
5B
330
1F
100
AcDbEntity
  8
0-D
  6
Continuous
 62
     2
370
     9
100
AcDbLine
 10
261.3649187419719
 20
711.8006533620385
 30
0.0
 11
28.03215098537665
 21
711.8006533620385
 31
0.0
  0
LINE
  5
5C
330
1F
100
AcDbEntity
  8
0-D
  6
Continuous
 62
     2
370
     9
100
AcDbLine
 10
261.3649187419719
 20
645.1343370387397
 30
0.0
 11
28.03215098537665
 21
645.1343370387397
 31
0.0
  0
LINE
  5
5D
330
1F
100
AcDbEntity
  8
0-1
  6
Continuous
 62
     4
370
     9
100
AcDbLine
 10
482.9907499826709
 20
678.4674952003891
 30
0.0
 11
482.9907499826709
 21
195.1343896687973
 31
0.0
  0
LINE
  5
5E
330
1F
100
AcDbEntity
  8
0-1
  6
Continuous
 62
     4
370
     9
100
AcDbLine
 10
-483.6761217055624
 20
195.1343896687973
 30
0.0
 11
-483.6761217055624
 21
1161.801261357031
 31
0.0
  0
LINE
  5
5F
330
1F
100
AcDbEntity
  8
0-1
  6
Continuous
 62
     4
370
     9
100
AcDbLine
 10
-0.3423555489211871
 20
1161.801261357031
 30
0.0
 11
-483.6761217055624
 21
1161.801261357031
 31
0.0
  0
LINE
  5
60
330
1F
100
AcDbEntity
  8
0-1
  6
Continuous
 62
     4
370
     9
100
AcDbLine
 10
482.9907499826709
 20
195.1343896687973
 30
0.0
 11
-483.6761217055624
 21
195.1343896687973
 31
0.0
  0
LINE
  5
61
330
1F
100
AcDbEntity
  8
0-1
  6
JWW_CENTER1
 62
     4
370
     9
100
AcDbLine
 10
-0.3423555489211871
 20
1220.983356485782
 30
0.0
 11
-0.3423555489211871
 21
119.5932364201245
 31
0.0
  0
LINE
  5
62
330
1F
100
AcDbEntity
  8
0-F
  6
Continuous
 62
     7
370
     9
100
AcDbLine
 10
-678.739540924866
 20
195.1343896687973
 30
0.0
 11
-678.739540924866
 21
678.4674952003891
 31
0.0
  0
LINE
  5
63
330
1F
100
AcDbEntity
  8
0-F
  6
Continuous
 62
     7
370
     9
100
AcDbLine
 10
-523.6756472495222
 20
195.1343896687973
 30
0.0
 11
-682.7396256042715
 21
195.1343896687973
 31
0.0
  0
LINE
  5
64
330
1F
100
AcDbEntity
  8
0-F
  6
Continuous
 62
     7
370
     9
100
AcDbLine
 10
-581.0185622383102
 20
678.4674952003891
 30
0.0
 11
-682.7396256042715
 21
678.4674952003891
 31
0.0
  0
LINE
  5
65
330
1F
100
AcDbEntity
  8
0-F
  6
Continuous
 62
     7
370
     9
100
AcDbLine
 10
-678.739540924866
 20
195.1343896687973
 30
0.0
 11
-683.9604606971767
 21
234.7923720617649
 31
0.0
  0
LINE
  5
66
330
1F
100
AcDbEntity
  8
0-F
  6
Continuous
 62
     7
370
     9
100
AcDbLine
 10
-678.739540924866
 20
195.1343896687973
 30
0.0
 11
-673.5186211525541
 21
234.7923720617649
 31
0.0
  0
LINE
  5
67
330
1F
100
AcDbEntity
  8
0-F
  6
Continuous
 62
     7
370
     9
100
AcDbLine
 10
-678.739540924866
 20
678.4674952003891
 30
0.0
 11
-683.9604606971767
 21
638.8101734324715
 31
0.0
  0
LINE
  5
68
330
1F
100
AcDbEntity
  8
0-F
  6
Continuous
 62
     7
370
     9
100
AcDbLine
 10
-678.739540924866
 20
678.4674952003891
 30
0.0
 11
-673.5186211525541
 21
638.8101734324715
 31
0.0
  0
LINE
  5
69
330
1F
100
AcDbEntity
  8
0-F
  6
Continuous
 62
     7
370
     9
100
AcDbLine
 10
694.5565829578063
 20
195.1343896687973
 30
0.0
 11
694.5565829578063
 21
1161.800600731981
 31
0.0
  0
LINE
  5
6A
330
1F
100
AcDbEntity
  8
0-F
  6
Continuous
 62
     7
370
     9
100
AcDbLine
 10
522.9909361516811
 20
195.1343896687973
 30
0.0
 11
698.5566676372118
 21
195.1343896687973
 31
0.0
  0
LINE
  5
6B
330
1F
100
AcDbEntity
  8
0-F
  6
Continuous
 62
     7
370
     9
100
AcDbLine
 10
39.65783062008911
 20
1161.800600731981
 30
0.0
 11
698.5566676372118
 21
1161.800600731981
 31
0.0
  0
LINE
  5
6C
330
1F
100
AcDbEntity
  8
0-F
  6
Continuous
 62
     7
370
     9
100
AcDbLine
 10
694.5565829578063
 20
195.1343896687973
 30
0.0
 11
689.3356631854954
 21
234.7923720617649
 31
0.0
  0
LINE
  5
6D
330
1F
100
AcDbEntity
  8
0-F
  6
Continuous
 62
     7
370
     9
100
AcDbLine
 10
694.5565829578063
 20
195.1343896687973
 30
0.0
 11
699.7781633551682
 21
234.7923720617649
 31
0.0
  0
LINE
  5
6E
330
1F
100
AcDbEntity
  8
0-F
  6
Continuous
 62
     7
370
     9
100
AcDbLine
 10
694.5565829578063
 20
1161.800600731981
 30
0.0
 11
689.3356631854954
 21
1122.143278964063
 31
0.0
  0
LINE
  5
6F
330
1F
100
AcDbEntity
  8
0-F
  6
Continuous
 62
     7
370
     9
100
AcDbLine
 10
694.5565829578063
 20
1161.800600731981
 30
0.0
 11
699.7781633551682
 21
1122.143278964063
 31
0.0
  0
LINE
  5
70
330
1F
100
AcDbEntity
  8
0-F
  6
Continuous
 62
     7
370
     9
100
AcDbLine
 10
-0.3423555489211871
 20
678.4674952003891
 30
0.0
 11
341.4260685846153
 21
1020.235919333925
 31
0.0
  0
LINE
  5
71
330
1F
100
AcDbEntity
  8
0-F
  6
Continuous
 62
     7
370
     9
100
AcDbLine
 10
341.4260685846153
 20
1020.235919333925
 30
0.0
 11
317.0754292315351
 21
988.501473793938
 31
0.0
  0
LINE
  5
72
330
1F
100
AcDbEntity
  8
0-F
  6
Continuous
 62
     7
370
     9
100
AcDbLine
 10
341.4260685846153
 20
1020.235919333925
 30
0.0
 11
309.6916230446283
 21
995.8852799808446
 31
0.0
  0
LINE
  5
73
330
1F
100
AcDbEntity
  8
0-F
  6
Continuous
 62
     7
370
     9
100
AcDbLine
 10
-483.6761217055624
 20
23.79071287956386
 30
0.0
 11
482.9907499826709
 21
23.79071287956386
 31
0.0
  0
LINE
  5
74
330
1F
100
AcDbEntity
  8
0-F
  6
Continuous
 62
     7
370
     9
100
AcDbLine
 10
-483.6761217055624
 20
155.1342034997877
 30
0.0
 11
-483.6761217055624
 21
19.79062820015798
 31
0.0
  0
LINE
  5
75
330
1F
100
AcDbEntity
  8
0-F
  6
Continuous
 62
     7
370
     9
100
AcDbLine
 10
482.9907499826709
 20
155.1342034997877
 30
0.0
 11
482.9907499826709
 21
19.79062820015798
 31
0.0
  0
LINE
  5
76
330
1F
100
AcDbEntity
  8
0-F
  6
Continuous
 62
     7
370
     9
100
AcDbLine
 10
-483.6761217055624
 20
23.79071287956386
 30
0.0
 11
-444.0174786875446
 21
29.01163265187535
 31
0.0
  0
LINE
  5
77
330
1F
100
AcDbEntity
  8
0-F
  6
Continuous
 62
     7
370
     9
100
AcDbLine
 10
-483.6761217055624
 20
23.79071287956386
 30
0.0
 11
-444.0174786875446
 21
18.56979310725237
 31
0.0
  0
LINE
  5
78
330
1F
100
AcDbEntity
  8
0-F
  6
Continuous
 62
     7
370
     9
100
AcDbLine
 10
482.9907499826709
 20
23.79071287956386
 30
0.0
 11
443.3327675897036
 21
29.01163265187535
 31
0.0
  0
LINE
  5
79
330
1F
100
AcDbEntity
  8
0-F
  6
Continuous
 62
     7
370
     9
100
AcDbLine
 10
482.9907499826709
 20
23.79071287956386
 30
0.0
 11
443.3327675897036
 21
18.56979310725237
 31
0.0
  0
ARC
  5
7A
330
1F
100
AcDbEntity
  8
0-B
  6
Continuous
 62
     2
370
     9
100
AcDbCircle
 10
-35.34227071241047
 20
678.4674952003891
 30
0.0
 40
11.66666419349582
100
AcDbArc
 50
90.0
 51
270.0
  0
ARC
  5
7B
330
1F
100
AcDbEntity
  8
0-B
  6
Continuous
 62
     2
370
     9
100
AcDbCircle
 10
-28.58737957336357
 20
694.1342182676251
 30
0.0
 40
4.000000165849732
100
AcDbArc
 50
270.0
 51
323.9680633544922
  0
ARC
  5
7C
330
1F
100
AcDbEntity
  8
0-B
  6
Continuous
 62
     2
370
     9
100
AcDbCircle
 10
-28.58737957336357
 20
662.8014327582035
 30
0.0
 40
4.000000165849732
100
AcDbArc
 50
36.03193664550781
 51
90.0
  0
ARC
  5
7D
330
1F
100
AcDbEntity
  8
0-B
  6
Continuous
 62
     2
370
     9
100
AcDbCircle
 10
34.65755961456951
 20
678.4674952003891
 30
0.0
 40
11.66666419349582
100
AcDbArc
 50
270.0
 51
90.0
  0
ARC
  5
7E
330
1F
100
AcDbEntity
  8
0-B
  6
Continuous
 62
     2
370
     9
100
AcDbCircle
 10
27.90266847552234
 20
694.1342182676251
 30
0.0
 40
4.000000165849732
100
AcDbArc
 50
216.0319366455078
 51
270.0
  0
ARC
  5
7F
330
1F
100
AcDbEntity
  8
0-B
  6
Continuous
 62
     2
370
     9
100
AcDbCircle
 10
27.90266847552234
 20
662.8014327582035
 30
0.0
 40
4.000000165849732
100
AcDbArc
 50
90.0
 51
143.9680633544922
  0
ARC
  5
80
330
1F
100
AcDbEntity
  8
0-B
  6
Continuous
 62
     2
370
     9
100
AcDbCircle
 10
-0.3423555489211871
 20
678.4674952003891
 30
0.0
 40
28.3333335941516
100
AcDbArc
 50
28.02754211425781
 51
151.9724426269531
  0
ARC
  5
81
330
1F
100
AcDbEntity
  8
0-B
  6
Continuous
 62
     2
370
     9
100
AcDbCircle
 10
-0.3423555489211871
 20
678.4674952003891
 30
0.0
 40
28.3333335941516
100
AcDbArc
 50
208.0275573730469
 51
331.9724426269531
  0
ARC
  5
82
330
1F
100
AcDbEntity
  8
0-B
  6
Continuous
 62
     2
370
     9
100
AcDbCircle
 10
34.65755961456951
 20
678.4674952003891
 30
0.0
 40
7.666664027646087
100
AcDbArc
 50
270.0
 51
90.0
  0
ARC
  5
83
330
1F
100
AcDbEntity
  8
0-B
  6
Continuous
 62
     2
370
     9
100
AcDbCircle
 10
-35.34227071241047
 20
678.4674952003891
 30
0.0
 40
7.666664027646087
100
AcDbArc
 50
90.0
 51
270.0
  0
ARC
  5
84
330
1F
100
AcDbEntity
  8
0-B
  6
Continuous
 62
     2
370
     9
100
AcDbCircle
 10
-28.58737957336357
 20
694.1342182676251
 30
0.0
 40
8.000000331699464
100
AcDbArc
 50
270.0
 51
323.9680633544922
  0
ARC
  5
85
330
1F
100
AcDbEntity
  8
0-B
  6
Continuous
 62
     2
370
     9
100
AcDbCircle
 10
-0.3423555489211871
 20
678.4674952003891
 30
0.0
 40
24.33333665401012
100
AcDbArc
 50
28.02754211425781
 51
153.5666198730468
  0
ARC
  5
86
330
1F
100
AcDbEntity
  8
0-B
  6
Continuous
 62
     2
370
     9
100
AcDbCircle
 10
-28.58737957336357
 20
662.8014327582035
 30
0.0
 40
8.000000331699464
100
AcDbArc
 50
32.02981567382812
 51
90.0
  0
ARC
  5
87
330
1F
100
AcDbEntity
  8
0-B
  6
Continuous
 62
     2
370
     9
100
AcDbCircle
 10
27.90266847552234
 20
694.1342182676251
 30
0.0
 40
8.000000331699464
100
AcDbArc
 50
212.029800415039
 51
270.0
  0
ARC
  5
88
330
1F
100
AcDbEntity
  8
0-B
  6
Continuous
 62
     2
370
     9
100
AcDbCircle
 10
-0.3423555489211871
 20
678.4674952003891
 30
0.0
 40
24.33333665401012
100
AcDbArc
 50
208.0275573730469
 51
331.9724426269531
  0
ARC
  5
89
330
1F
100
AcDbEntity
  8
0-B
  6
Continuous
 62
     2
370
     9
100
AcDbCircle
 10
27.90266847552234
 20
662.8014327582035
 30
0.0
 40
8.000000331699464
100
AcDbArc
 50
90.0
 51
147.9701843261718
  0
CIRCLE
  5
8A
330
1F
100
AcDbEntity
  8
0-B
  6
Continuous
 62
     2
370
     9
100
AcDbCircle
 10
-0.3423555489211871
 20
678.4674952003891
 30
0.0
 40
16.66666682008918
  0
CIRCLE
  5
8B
330
1F
100
AcDbEntity
  8
0-B
  6
Continuous
 62
     2
370
     9
100
AcDbCircle
 10
-0.3423555489211871
 20
678.4674952003891
 30
0.0
 40
12.66666600909779
  0
ARC
  5
8C
330
1F
100
AcDbEntity
  8
0-1
  6
Continuous
 62
     4
370
     9
100
AcDbCircle
 10
-0.3423555489211871
 20
678.4674952003891
 30
0.0
 40
483.3333532659856
100
AcDbArc
 50
0.0
 51
90.0
  0
TEXT
  5
8D
330
1F
100
AcDbEntity
  8
0-D
  6
Continuous
 62
     6
370
     9
100
AcDbText
 10
88.69820455114849
 20
671.2867725190024
 30
0.0
 40
15.24
  1
複数回使用
 41
1.120000000000004
  7
ＭＳ ゴシック
100
AcDbText
  0
TEXT
  5
8E
330
1F
100
AcDbEntity
  8
0-F
  6
Continuous
 62
     2
370
     9
100
AcDbText
 10
-697.7125735532215
 20
404.3012722091771
 30
0.0
 40
30.48
  1
145
 50
90.00000250447822
 41
1.083333333333334
  7
ＭＳ ゴシック
100
AcDbText
  0
TEXT
  5
8F
330
1F
100
AcDbEntity
  8
0-F
  6
Continuous
 62
     2
370
     9
100
AcDbText
 10
675.5835503294496
 20
645.9678249749728
 30
0.0
 40
30.48
  1
290
 50
90.00000250447822
 41
1.083333333333334
  7
ＭＳ ゴシック
100
AcDbText
  0
TEXT
  5
90
330
1F
100
AcDbEntity
  8
0-F
  6
Continuous
 62
     2
370
     9
100
AcDbText
 10
126.1896763055431
 20
831.8316439291439
 30
0.0
 40
30.48
  1
R145
 50
45.00023006357629
 41
1.093750000000001
  7
ＭＳ ゴシック
100
AcDbText
  0
TEXT
  5
91
330
1F
100
AcDbEntity
  8
0-F
  6
Continuous
 62
     2
370
     9
100
AcDbText
 10
-32.84268586144604
 20
42.76440755359076
 30
0.0
 40
30.48
  1
290
 41
1.083333333333333
  7
ＭＳ ゴシック
100
AcDbText
  0
LINE
  5
92
330
1F
100
AcDbEntity
  8
0-0
  6
Continuous
 62
     3
370
     9
100
AcDbLine
 10
-189.8155655928099
 20
-656.4680294902399
 30
0.0
 11
-188.6746661309866
 21
-650.7222431154856
 31
0.0
  0
LINE
  5
93
330
1F
100
AcDbEntity
  8
0-0
  6
Continuous
 62
     3
370
     9
100
AcDbLine
 10
-115.3413218003283
 20
-737.3889828358143
 30
0.0
 11
-118.674835804008
 21
-734.0557991446598
 31
0.0
  0
LINE
  5
94
330
1F
100
AcDbEntity
  8
0-0
  6
Continuous
 62
     3
370
     9
100
AcDbLine
 10
-100.6219350551851
 20
-737.3889828358143
 30
0.0
 11
-115.3413218003283
 21
-737.3889828358143
 31
0.0
  0
LINE
  5
95
330
1F
100
AcDbEntity
  8
0-0
  6
Continuous
 62
     3
370
     9
100
AcDbLine
 10
-175.9741495394786
 20
-672.7197360394925
 30
0.0
 11
-243.6750046915063
 21
-650.7222431154856
 31
0.0
  0
LINE
  5
96
330
1F
100
AcDbEntity
  8
0-0
  6
Continuous
 62
     3
370
     9
100
AcDbLine
 10
189.1328363701183
 20
-656.4680294902399
 30
0.0
 11
187.9919369082964
 21
-650.7222431154856
 31
0.0
  0
LINE
  5
97
330
1F
100
AcDbEntity
  8
0-0
  6
Continuous
 62
     3
370
     9
100
AcDbLine
 10
114.6585925776381
 20
-737.3889828358143
 30
0.0
 11
117.9921065813179
 21
-734.0557991446598
 31
0.0
  0
LINE
  5
98
330
1F
100
AcDbEntity
  8
0-0
  6
Continuous
 62
     3
370
     9
100
AcDbLine
 10
99.9392058324952
 20
-737.3889828358143
 30
0.0
 11
114.6585925776381
 21
-737.3889828358143
 31
0.0
  0
LINE
  5
99
330
1F
100
AcDbEntity
  8
0-0
  6
Continuous
 62
     3
370
     9
100
AcDbLine
 10
-137.8118222603302
 20
-738.0749593723925
 30
0.0
 11
-139.5373748916449
 21
-746.7028051070953
 31
0.0
  0
LINE
  5
9A
330
1F
100
AcDbEntity
  8
0-0
  6
Continuous
 62
     3
370
     9
100
AcDbLine
 10
138.5956806492482
 20
-697.6305028570742
 30
0.0
 11
133.9792327979368
 21
-713.1556870072883
 31
0.0
  0
LINE
  5
9B
330
1F
100
AcDbEntity
  8
0-0
  6
JWW_DASHED1
 62
     3
370
     9
100
AcDbLine
 10
171.242449383663
 20
-705.6902110485418
 30
0.0
 11
173.2104514084273
 21
-689.6647685790073
 31
0.0
  0
LINE
  5
9C
330
1F
100
AcDbEntity
  8
0-0
  6
Continuous
 62
     3
370
     9
100
AcDbLine
 10
173.2104514084273
 20
-689.6647685790073
 30
0.0
 11
177.9920555223066
 21
-650.7222431154856
 31
0.0
  0
LINE
  5
9D
330
1F
100
AcDbEntity
  8
0-0
  6
JWW_DASHED1
 62
     3
370
     9
100
AcDbLine
 10
162.0148386814427
 20
-714.4473741368357
 30
0.0
 11
129.5352080847465
 21
-716.7184379034137
 31
0.0
  0
LINE
  5
9E
330
1F
100
AcDbEntity
  8
0-0
  6
Continuous
 62
     3
370
     9
100
AcDbLine
 10
202.0315404767089
 20
-664.0310302220331
 30
0.0
 11
242.9916148437655
 21
-650.7222431154856
 31
0.0
  0
LINE
  5
9F
330
1F
100
AcDbEntity
  8
0-0
  6
Continuous
 62
     3
370
     9
100
AcDbLine
 10
-83.99796629010267
 20
-752.8680883887727
 30
0.0
 11
-75.34179625636851
 21
-874.0555423767488
 31
0.0
  0
LINE
  5
A0
330
1F
100
AcDbEntity
  8
0-0
  6
Continuous
 62
     3
370
     9
100
AcDbLine
 10
-71.51743784033526
 20
-740.9235745891716
 30
0.0
 11
-62.00840086669898
 21
-874.0555423767488
 31
0.0
  0
LINE
  5
A1
330
1F
100
AcDbEntity
  8
0-0
  6
JWW_DASHED1
 62
     3
370
     9
100
AcDbLine
 10
-194.2318440538878
 20
-680.806942748678
 30
0.0
 11
-199.3992531971261
 21
-679.1277990271451
 31
0.0
  0
LINE
  5
A2
330
1F
100
AcDbEntity
  8
0-0
  6
Continuous
 62
     3
370
     9
100
AcDbLine
 10
-139.278409871938
 20
-697.6305028570742
 30
0.0
 11
-134.6619620206269
 21
-713.1556870072883
 31
0.0
  0
LINE
  5
A3
330
1F
100
AcDbEntity
  8
0-3
  6
Continuous
 62
     4
370
     9
100
AcDbLine
 10
-133.6749881955174
 20
-984.0555588727369
 30
0.0
 11
132.9915983477781
 21
-984.0555588727369
 31
0.0
  0
LINE
  5
A4
330
1F
100
AcDbEntity
  8
0-0
  6
Continuous
 62
     3
370
     9
100
AcDbLine
 10
-132.9093237622504
 20
-734.0557991446598
 30
0.0
 11
-118.674835804008
 21
-734.0557991446598
 31
0.0
  0
LINE
  5
A5
330
1F
100
AcDbEntity
  8
0-0
  6
Continuous
 62
     3
370
     9
100
AcDbLine
 10
-207.0076719011263
 20
-814.055428279497
 30
0.0
 11
-207.0076719011263
 21
-834.055603942133
 31
0.0
  0
LINE
  5
A6
330
1F
100
AcDbEntity
  8
0-0
  6
Continuous
 62
     3
370
     9
100
AcDbLine
 10
-159.7577864304162
 20
-733.3886504220151
 30
0.0
 11
-180.9248736662289
 21
-733.3886504220151
 31
0.0
  0
LINE
  5
A7
330
1F
100
AcDbEntity
  8
0-0
  6
Continuous
 62
     3
370
     9
100
AcDbLine
 10
-159.7577864304162
 20
-733.3886504220151
 30
0.0
 11
-162.4749372621903
 21
-730.7221199847173
 31
0.0
  0
LINE
  5
A8
330
1F
100
AcDbEntity
  8
0-0
  6
Continuous
 62
     3
370
     9
100
AcDbLine
 10
-178.2083834595045
 20
-730.7221199847173
 30
0.0
 11
-180.9248736662289
 21
-733.3886504220151
 31
0.0
  0
LINE
  5
A9
330
1F
100
AcDbEntity
  8
0-0
  6
Continuous
 62
     3
370
     9
100
AcDbLine
 10
-162.4749372621903
 20
-730.7221199847173
 30
0.0
 11
-178.2083834595045
 21
-730.7221199847173
 31
0.0
  0
LINE
  5
AA
330
1F
100
AcDbEntity
  8
0-0
  6
Continuous
 62
     3
370
     9
100
AcDbLine
 10
-187.0079091291467
 20
-814.055428279497
 30
0.0
 11
-207.0076719011263
 21
-814.055428279497
 31
0.0
  0
LINE
  5
AB
330
1F
100
AcDbEntity
  8
0-0
  6
Continuous
 62
     3
370
     9
100
AcDbLine
 10
-160.3411183498073
 20
-807.3887305846621
 30
0.0
 11
-160.3411183498073
 21
-764.0555258807605
 31
0.0
  0
LINE
  5
AC
330
1F
100
AcDbEntity
  8
0-0
  6
Continuous
 62
     3
370
     9
100
AcDbLine
 10
-187.0079091291467
 20
-834.055603942133
 30
0.0
 11
-207.0076719011263
 21
-834.055603942133
 31
0.0
  0
LINE
  5
AD
330
1F
100
AcDbEntity
  8
0-0
  6
Continuous
 62
     3
370
     9
100
AcDbLine
 10
-187.5311241689641
 20
-746.310971874152
 30
0.0
 11
-194.8389584750893
 21
-684.6831602311577
 31
0.0
  0
LINE
  5
AE
330
1F
100
AcDbEntity
  8
0-0
  6
Continuous
 62
     3
370
     9
100
AcDbLine
 10
-180.3408811217872
 20
-807.3887305846621
 30
0.0
 11
-180.3408811217872
 21
-764.0555258807605
 31
0.0
  0
LINE
  5
AF
330
1F
100
AcDbEntity
  8
0-0
  6
Continuous
 62
     3
370
     9
100
AcDbLine
 10
-178.2083834595045
 20
-764.0555258807605
 30
0.0
 11
-178.2083834595045
 21
-727.3888537154311
 31
0.0
  0
LINE
  5
B0
330
1F
100
AcDbEntity
  8
0-0
  6
Continuous
 62
     3
370
     9
100
AcDbLine
 10
-162.4749372621903
 20
-764.0555258807605
 30
0.0
 11
-162.4749372621903
 21
-727.3888537154311
 31
0.0
  0
LINE
  5
B1
330
1F
100
AcDbEntity
  8
0-0
  6
Continuous
 62
     3
370
     9
100
AcDbLine
 10
-159.7577864304162
 20
-764.0555258807605
 30
0.0
 11
-159.7577864304162
 21
-733.3886504220151
 31
0.0
  0
LINE
  5
B2
330
1F
100
AcDbEntity
  8
0-0
  6
Continuous
 62
     3
370
     9
100
AcDbLine
 10
-180.9248736662289
 20
-764.0555258807605
 30
0.0
 11
-180.9248736662289
 21
-733.3886504220151
 31
0.0
  0
LINE
  5
B3
330
1F
100
AcDbEntity
  8
0-0
  6
Continuous
 62
     3
370
     9
100
AcDbLine
 10
-159.7577864304162
 20
-764.0555258807605
 30
0.0
 11
-180.9248736662289
 21
-764.0555258807605
 31
0.0
  0
LINE
  5
B4
330
1F
100
AcDbEntity
  8
0-0
  6
JWW_CENTER1
 62
     3
370
     9
100
AcDbLine
 10
-170.341660360848
 20
-807.3887305846621
 30
0.0
 11
-170.341660360848
 21
-720.7220734424651
 31
0.0
  0
LINE
  5
B5
330
1F
100
AcDbEntity
  8
0-0
  6
Continuous
 62
     3
370
     9
100
AcDbLine
 10
83.31457644236168
 20
-752.8680883887727
 30
0.0
 11
74.65840640862923
 21
-874.0555423767488
 31
0.0
  0
LINE
  5
B6
330
1F
100
AcDbEntity
  8
0-0
  6
Continuous
 62
     3
370
     9
100
AcDbLine
 10
-247.0078580701352
 20
-680.7221350078493
 30
0.0
 11
-250.3413720738166
 21
-677.388868738563
 31
0.0
  0
LINE
  5
B7
330
1F
100
AcDbEntity
  8
0-0
  6
Continuous
 62
     3
370
     9
100
AcDbLine
 10
-247.0078580701352
 20
-680.7221350078493
 30
0.0
 11
-230.3416093018367
 21
-680.7221350078493
 31
0.0
  0
LINE
  5
B8
330
1F
100
AcDbEntity
  8
0-0
  6
Continuous
 62
     3
370
     9
100
AcDbLine
 10
-199.3992531971261
 20
-679.1277990271451
 30
0.0
 11
-201.9419990156297
 21
-678.301522245516
 31
0.0
  0
LINE
  5
B9
330
1F
100
AcDbEntity
  8
0-0
  6
Continuous
 62
     3
370
     9
100
AcDbLine
 10
246.3251288474453
 20
-680.7221350078493
 30
0.0
 11
249.6586428511264
 21
-677.388868738563
 31
0.0
  0
LINE
  5
BA
330
1F
100
AcDbEntity
  8
0-0
  6
Continuous
 62
     3
370
     9
100
AcDbLine
 10
246.3251288474453
 20
-680.7221350078493
 30
0.0
 11
229.6582194540957
 21
-680.7221350078493
 31
0.0
  0
LINE
  5
BB
330
1F
100
AcDbEntity
  8
0-0
  6
JWW_CENTER1
 62
     3
370
     9
100
AcDbLine
 10
-187.0085697541975
 20
-824.0554748217493
 30
0.0
 11
-211.7502991370392
 21
-824.0554748217493
 31
0.0
  0
LINE
  5
BC
330
1F
100
AcDbEntity
  8
0-0
  6
Continuous
 62
     3
370
     9
100
AcDbLine
 10
-130.2185979324872
 20
-716.7185204815449
 30
0.0
 11
-93.16413886264796
 21
-719.3095745068489
 31
0.0
  0
LINE
  5
BD
330
1F
100
AcDbEntity
  8
0-0
  6
JWW_DASHED1
 62
     3
370
     9
100
AcDbLine
 10
-162.6975679041328
 20
-714.4473741368357
 30
0.0
 11
-130.2185979324872
 21
-716.7185204815449
 31
0.0
  0
LINE
  5
BE
330
1F
100
AcDbEntity
  8
0-0
  6
Continuous
 62
     3
370
     9
100
AcDbLine
 10
-173.8931806311174
 20
-689.66493373527
 30
0.0
 11
-178.6747847449965
 21
-650.7222431154856
 31
0.0
  0
LINE
  5
BF
330
1F
100
AcDbEntity
  8
0-0
  6
JWW_DASHED1
 62
     3
370
     9
100
AcDbLine
 10
-171.9258392314026
 20
-705.6902110485418
 30
0.0
 11
-173.8931806311174
 21
-689.66493373527
 31
0.0
  0
LINE
  5
C0
330
1F
100
AcDbEntity
  8
0-0
  6
Continuous
 62
     3
370
     9
100
AcDbLine
 10
-247.3731837229366
 20
-653.6422058376951
 30
0.0
 11
-250.3413720738166
 21
-677.388868738563
 31
0.0
  0
LINE
  5
C1
330
1F
100
AcDbEntity
  8
0-0
  6
Continuous
 62
     3
370
     9
100
AcDbLine
 10
246.6897938751973
 20
-653.6422058376951
 30
0.0
 11
249.6586428511264
 21
-677.388868738563
 31
0.0
  0
LINE
  5
C2
330
1F
100
AcDbEntity
  8
0-0
  6
Continuous
 62
     3
370
     9
100
AcDbLine
 10
-162.4749372621903
 20
-750.7222956473532
 30
0.0
 11
-144.4405340147744
 21
-750.7222956473532
 31
0.0
  0
LINE
  5
C3
330
1F
100
AcDbEntity
  8
0-0
  6
Continuous
 62
     3
370
     9
100
AcDbLine
 10
-182.5658662911087
 20
-750.7222956473532
 30
0.0
 11
-178.2083834595045
 21
-750.7222956473532
 31
0.0
  0
LINE
  5
C4
330
1F
100
AcDbEntity
  8
0-0
  6
Continuous
 62
     3
370
     9
100
AcDbLine
 10
166.3247565094275
 20
-717.3888897513099
 30
0.0
 11
146.3249937374477
 21
-717.3888897513099
 31
0.0
  0
LINE
  5
C5
330
1F
100
AcDbEntity
  8
0-0
  6
Continuous
 62
     3
370
     9
100
AcDbLine
 10
-162.4749372621903
 20
-727.3888537154311
 30
0.0
 11
-178.2083834595045
 21
-727.3888537154311
 31
0.0
  0
LINE
  5
C6
330
1F
100
AcDbEntity
  8
0-0
  6
Continuous
 62
     3
370
     9
100
AcDbLine
 10
-162.4749372621903
 20
-727.3888537154311
 30
0.0
 11
-170.341660360848
 21
-722.8471390729322
 31
0.0
  0
LINE
  5
C7
330
1F
100
AcDbEntity
  8
0-0
  6
Continuous
 62
     3
370
     9
100
AcDbLine
 10
-178.2083834595045
 20
-727.3888537154311
 30
0.0
 11
-170.341660360848
 21
-722.8471390729322
 31
0.0
  0
LINE
  5
C8
330
1F
100
AcDbEntity
  8
0-0
  6
Continuous
 62
     3
370
     9
100
AcDbLine
 10
-144.0712446116725
 20
-694.055530397519
 30
0.0
 11
-168.930565253464
 21
-694.055530397519
 31
0.0
  0
LINE
  5
C9
330
1F
100
AcDbEntity
  8
0-0
  6
JWW_DASHED1
 62
     3
370
     9
100
AcDbLine
 10
139.6586263551376
 20
-750.7224608036155
 30
0.0
 11
149.6585077411274
 21
-750.7224608036155
 31
0.0
  0
LINE
  5
CA
330
1F
100
AcDbEntity
  8
0-0
  6
JWW_DASHED1
 62
     3
370
     9
100
AcDbLine
 10
156.3248751234375
 20
-728.210919012365
 30
0.0
 11
149.6585077411274
 21
-750.7224608036155
 31
0.0
  0
LINE
  5
CB
330
1F
100
AcDbEntity
  8
0-0
  6
JWW_DASHED1
 62
     3
370
     9
100
AcDbLine
 10
139.6586263551376
 20
-750.7224608036155
 30
0.0
 11
136.3251123514579
 21
-734.0557991446598
 31
0.0
  0
LINE
  5
CC
330
1F
100
AcDbEntity
  8
0-0
  6
JWW_DASHED1
 62
     3
370
     9
100
AcDbLine
 10
-185.1594802384815
 20
-707.3153486722146
 30
0.0
 11
-187.3963566587076
 21
-689.0986954890545
 31
0.0
  0
LINE
  5
CD
330
1F
100
AcDbEntity
  8
0-0
  6
JWW_DASHED1
 62
     3
370
     9
100
AcDbLine
 10
-139.5611573934542
 20
-729.4309283239578
 30
0.0
 11
-163.6277279749183
 21
-727.7480685865174
 31
0.0
  0
LINE
  5
CE
330
1F
100
AcDbEntity
  8
0-0
  6
JWW_DASHED1
 62
     3
370
     9
100
AcDbLine
 10
138.8784281707641
 20
-729.4309283239578
 30
0.0
 11
162.9449987522281
 21
-727.7480685865174
 31
0.0
  0
LINE
  5
CF
330
1F
100
AcDbEntity
  8
0-0
  6
Continuous
 62
     3
370
     9
100
AcDbLine
 10
160.5495723199365
 20
-734.0557991446598
 30
0.0
 11
117.9921065813179
 21
-734.0557991446598
 31
0.0
  0
LINE
  5
D0
330
1F
100
AcDbEntity
  8
0-0
  6
Continuous
 62
     3
370
     9
100
AcDbLine
 10
193.5484542061468
 20
-680.8071079049404
 30
0.0
 11
201.2586091678887
 21
-678.3017699799099
 31
0.0
  0
LINE
  5
D1
330
1F
100
AcDbEntity
  8
0-0
  6
Continuous
 62
     3
370
     9
100
AcDbLine
 10
183.7084440823241
 20
-713.5662654760337
 30
0.0
 11
186.7136274360178
 21
-689.0986954890545
 31
0.0
  0
LINE
  5
D2
330
1F
100
AcDbEntity
  8
0-0
  6
Continuous
 62
     3
370
     9
100
AcDbLine
 10
92.4814096399564
 20
-719.3095745068489
 30
0.0
 11
129.5352080847465
 21
-716.7184379034137
 31
0.0
  0
LINE
  5
D3
330
1F
100
AcDbEntity
  8
0-0
  6
Continuous
 62
     3
370
     9
100
AcDbLine
 10
70.83470861764512
 20
-740.9234920110401
 30
0.0
 11
61.32501101895799
 21
-874.0555423767488
 31
0.0
  0
LINE
  5
D4
330
1F
100
AcDbEntity
  8
0-3
  6
Continuous
 62
     4
370
     9
100
AcDbLine
 10
-125.3412031863181
 20
-734.0554688321346
 30
0.0
 11
-125.3412031863181
 21
-984.0555588727369
 31
0.0
  0
LINE
  5
D5
330
1F
100
AcDbEntity
  8
0-3
  6
Continuous
 62
     4
370
     9
100
AcDbLine
 10
-133.6749881955174
 20
-734.0554688321346
 30
0.0
 11
-133.6749881955174
 21
-984.0555588727369
 31
0.0
  0
LINE
  5
D6
330
1F
100
AcDbEntity
  8
0-3
  6
Continuous
 62
     4
370
     9
100
AcDbLine
 10
132.9915983477781
 20
-734.0554688321346
 30
0.0
 11
132.9915983477781
 21
-984.0555588727369
 31
0.0
  0
LINE
  5
D7
330
1F
100
AcDbEntity
  8
0-3
  6
Continuous
 62
     4
370
     9
100
AcDbLine
 10
124.6584739636279
 20
-734.0554688321346
 30
0.0
 11
124.6584739636279
 21
-984.0555588727369
 31
0.0
  0
LINE
  5
D8
330
1F
100
AcDbEntity
  8
0-8
  6
Continuous
 62
     4
370
     9
100
AcDbLine
 10
172.3866519707363
 20
-670.474601806138
 30
0.0
 11
172.9911238917362
 21
-677.388868738563
 31
0.0
  0
LINE
  5
D9
330
1F
100
AcDbEntity
  8
0-8
  6
Continuous
 62
     4
370
     9
100
AcDbLine
 10
146.9043619065366
 20
-664.3889238430189
 30
0.0
 11
165.7453883403369
 21
-664.3889238430189
 31
0.0
  0
LINE
  5
DA
330
1F
100
AcDbEntity
  8
0-8
  6
Continuous
 62
     4
370
     9
100
AcDbLine
 10
139.6586263551376
 20
-677.388868738563
 30
0.0
 11
172.9911238917362
 21
-677.388868738563
 31
0.0
  0
LINE
  5
DB
330
1F
100
AcDbEntity
  8
0-8
  6
Continuous
 62
     4
370
     9
100
AcDbLine
 10
140.2630982761372
 20
-670.474601806138
 30
0.0
 11
139.6586263551376
 21
-677.388868738563
 31
0.0
  0
LINE
  5
DC
330
1F
100
AcDbEntity
  8
0-8
  6
Continuous
 62
     4
370
     9
100
AcDbLine
 10
147.9917507392875
 20
-717.3888897513099
 30
0.0
 11
146.3249937374477
 21
-715.7222979057325
 31
0.0
  0
LINE
  5
DD
330
1F
100
AcDbEntity
  8
0-8
  6
Continuous
 62
     4
370
     9
100
AcDbLine
 10
147.9917507392875
 20
-717.3888897513099
 30
0.0
 11
164.6579995075876
 21
-717.3888897513099
 31
0.0
  0
LINE
  5
DE
330
1F
100
AcDbEntity
  8
0-8
  6
Continuous
 62
     4
370
     9
100
AcDbLine
 10
166.3254171344767
 20
-715.7222979057325
 30
0.0
 11
164.6579995075876
 21
-717.3888897513099
 31
0.0
  0
LINE
  5
DF
330
1F
100
AcDbEntity
  8
0-8
  6
Continuous
 62
     4
370
     9
100
AcDbLine
 10
146.3243331123968
 20
-677.388868738563
 30
0.0
 11
146.3243331123968
 21
-715.7222979057325
 31
0.0
  0
LINE
  5
E0
330
1F
100
AcDbEntity
  8
0-8
  6
Continuous
 62
     4
370
     9
100
AcDbLine
 10
164.6579995075876
 20
-677.388868738563
 30
0.0
 11
164.6579995075876
 21
-717.3888897513099
 31
0.0
  0
LINE
  5
E1
330
1F
100
AcDbEntity
  8
0-8
  6
Continuous
 62
     4
370
     9
100
AcDbLine
 10
147.9917507392875
 20
-677.388868738563
 30
0.0
 11
147.9917507392875
 21
-717.3888897513099
 31
0.0
  0
LINE
  5
E2
330
1F
100
AcDbEntity
  8
0-8
  6
Continuous
 62
     4
370
     9
100
AcDbLine
 10
166.3247565094275
 20
-677.388868738563
 30
0.0
 11
166.3247565094275
 21
-715.7222979057325
 31
0.0
  0
LINE
  5
E3
330
1F
100
AcDbEntity
  8
0-8
  6
Continuous
 62
     4
370
     9
100
AcDbLine
 10
146.3249937374477
 20
-715.7222979057325
 30
0.0
 11
166.3254171344767
 21
-715.7222979057325
 31
0.0
  0
LINE
  5
E4
330
1F
100
AcDbEntity
  8
0-0
  6
Continuous
 62
     3
370
     9
100
AcDbLine
 10
164.6579995075876
 20
-719.6926544578758
 30
0.0
 11
156.3248751234375
 21
-724.5039866990179
 31
0.0
  0
LINE
  5
E5
330
1F
100
AcDbEntity
  8
0-8
  6
JWW_CENTER1
 62
     4
370
     9
100
AcDbLine
 10
156.3248751234375
 20
-647.7031866357362
 30
0.0
 11
156.3248751234375
 21
-723.1351715948512
 31
0.0
  0
LINE
  5
E6
330
1F
100
AcDbEntity
  8
0-0
  6
Continuous
 62
     3
370
     9
100
AcDbLine
 10
143.3878547639316
 20
-694.055530397519
 30
0.0
 11
147.9917507392875
 21
-694.055530397519
 31
0.0
  0
LINE
  5
E7
330
1F
100
AcDbEntity
  8
0-0
  6
Continuous
 62
     3
370
     9
100
AcDbLine
 10
164.6579995075876
 20
-694.055530397519
 30
0.0
 11
168.2471754057229
 21
-694.055530397519
 31
0.0
  0
LINE
  5
E8
330
1F
100
AcDbEntity
  8
0-9
  6
Continuous
 62
     3
370
     9
100
AcDbLine
 10
-122.0083498076877
 20
-984.0555588727369
 30
0.0
 11
-120.0086377805104
 21
-984.0555588727369
 31
0.0
  0
LINE
  5
E9
330
1F
100
AcDbEntity
  8
0-9
  6
Continuous
 62
     3
370
     9
100
AcDbLine
 10
-120.0086377805104
 20
-961.0555674349404
 30
0.0
 11
-120.0086377805104
 21
-984.0555588727369
 31
0.0
  0
LINE
  5
EA
330
1F
100
AcDbEntity
  8
0-9
  6
Continuous
 62
     3
370
     9
100
AcDbLine
 10
-122.0083498076877
 20
-959.0555250952372
 30
0.0
 11
-122.0083498076877
 21
-984.0555588727369
 31
0.0
  0
LINE
  5
EB
330
1F
100
AcDbEntity
  8
0-9
  6
Continuous
 62
     3
370
     9
100
AcDbLine
 10
121.3249599599482
 20
-984.0555588727369
 30
0.0
 11
119.3252479327694
 21
-984.0555588727369
 31
0.0
  0
LINE
  5
EC
330
1F
100
AcDbEntity
  8
0-9
  6
Continuous
 62
     3
370
     9
100
AcDbLine
 10
119.3252479327694
 20
-961.0555674349404
 30
0.0
 11
119.3252479327694
 21
-984.0555588727369
 31
0.0
  0
LINE
  5
ED
330
1F
100
AcDbEntity
  8
0-9
  6
Continuous
 62
     3
370
     9
100
AcDbLine
 10
121.3249599599482
 20
-959.0555250952372
 30
0.0
 11
121.3249599599482
 21
-984.0555588727369
 31
0.0
  0
LINE
  5
EE
330
1F
100
AcDbEntity
  8
0-9
  6
Continuous
 62
     3
370
     9
100
AcDbLine
 10
74.65840640862923
 20
-964.0554657882318
 30
0.0
 11
76.39056529044639
 21
-961.0555674349404
 31
0.0
  0
LINE
  5
EF
330
1F
100
AcDbEntity
  8
0-9
  6
Continuous
 62
     3
370
     9
100
AcDbLine
 10
76.39056529044639
 20
-961.0555674349404
 30
0.0
 11
119.3252479327694
 21
-961.0555674349404
 31
0.0
  0
LINE
  5
F0
330
1F
100
AcDbEntity
  8
0-9
  6
Continuous
 62
     3
370
     9
100
AcDbLine
 10
73.50363382075018
 20
-962.055423448529
 30
0.0
 11
75.23579270256734
 21
-959.0555250952372
 31
0.0
  0
LINE
  5
F1
330
1F
100
AcDbEntity
  8
0-9
  6
Continuous
 62
     3
370
     9
100
AcDbLine
 10
-75.34179625636851
 20
-964.0554657882318
 30
0.0
 11
-77.07395513818567
 21
-961.0555674349404
 31
0.0
  0
LINE
  5
F2
330
1F
100
AcDbEntity
  8
0-9
  6
Continuous
 62
     3
370
     9
100
AcDbLine
 10
-75.34179625636851
 20
-964.0554657882318
 30
0.0
 11
74.65840640862923
 21
-964.0554657882318
 31
0.0
  0
LINE
  5
F3
330
1F
100
AcDbEntity
  8
0-9
  6
Continuous
 62
     3
370
     9
100
AcDbLine
 10
-74.18702366849116
 20
-962.055423448529
 30
0.0
 11
-75.91918255030804
 21
-959.0555250952372
 31
0.0
  0
LINE
  5
F4
330
1F
100
AcDbEntity
  8
0-9
  6
Continuous
 62
     3
370
     9
100
AcDbLine
 10
-120.0086377805104
 20
-961.0555674349404
 30
0.0
 11
-77.07395513818567
 21
-961.0555674349404
 31
0.0
  0
LINE
  5
F5
330
1F
100
AcDbEntity
  8
0-9
  6
Continuous
 62
     2
370
     9
100
AcDbLine
 10
19.65806784810924
 20
-984.0555588727369
 30
0.0
 11
-20.34145769585022
 21
-984.0552285602115
 31
0.0
  0
LINE
  5
F6
330
1F
100
AcDbEntity
  8
0-9
  6
Continuous
 62
     2
370
     9
100
AcDbLine
 10
-20.34145769585022
 20
-984.0552285602115
 30
0.0
 11
-20.34145769585022
 21
-968.7495370829503
 31
0.0
  0
LINE
  5
F7
330
1F
100
AcDbEntity
  8
0-9
  6
Continuous
 62
     2
370
     9
100
AcDbLine
 10
-16.84080555445005
 20
-971.6080616754836
 30
0.0
 11
-22.00821469769009
 21
-967.3889797919122
 31
0.0
  0
LINE
  5
F8
330
1F
100
AcDbEntity
  8
0-9
  6
Continuous
 62
     2
370
     9
100
AcDbLine
 10
-16.84080555445005
 20
-971.6080616754836
 30
0.0
 11
-12.35978583844597
 21
-971.6080616754836
 31
0.0
  0
LINE
  5
F9
330
1F
100
AcDbEntity
  8
0-9
  6
Continuous
 62
     2
370
     9
100
AcDbLine
 10
-12.35978583844597
 20
-971.6080616754836
 30
0.0
 11
-12.35978583844597
 21
-964.0554657882318
 31
0.0
  0
LINE
  5
FA
330
1F
100
AcDbEntity
  8
0-9
  6
Continuous
 62
     2
370
     9
100
AcDbLine
 10
-22.00821469769009
 20
-967.3889797919122
 30
0.0
 11
-22.00821469769009
 21
-964.0554657882318
 31
0.0
  0
LINE
  5
FB
330
1F
100
AcDbEntity
  8
0-9
  6
Continuous
 62
     2
370
     9
100
AcDbLine
 10
19.65806784810924
 20
-984.0555588727369
 30
0.0
 11
19.65806784810924
 21
-968.7495370829503
 31
0.0
  0
LINE
  5
FC
330
1F
100
AcDbEntity
  8
0-9
  6
Continuous
 62
     2
370
     9
100
AcDbLine
 10
16.15741570671078
 20
-971.6080616754836
 30
0.0
 11
21.32548547499995
 21
-967.3889797919122
 31
0.0
  0
LINE
  5
FD
330
1F
100
AcDbEntity
  8
0-9
  6
Continuous
 62
     2
370
     9
100
AcDbLine
 10
16.15741570671078
 20
-971.6080616754836
 30
0.0
 11
11.67639599070528
 21
-971.6080616754836
 31
0.0
  0
LINE
  5
FE
330
1F
100
AcDbEntity
  8
0-9
  6
Continuous
 62
     2
370
     9
100
AcDbLine
 10
11.67639599070528
 20
-971.6080616754836
 30
0.0
 11
11.67639599070528
 21
-964.0554657882318
 31
0.0
  0
LINE
  5
FF
330
1F
100
AcDbEntity
  8
0-9
  6
Continuous
 62
     2
370
     9
100
AcDbLine
 10
21.32548547499995
 20
-967.3889797919122
 30
0.0
 11
21.32548547499995
 21
-964.0554657882318
 31
0.0
  0
LINE
  5
100
330
1F
100
AcDbEntity
  8
0-9
  6
Continuous
 62
     3
370
     9
100
AcDbLine
 10
-15.34184731538003
 20
-964.0554657882318
 30
0.0
 11
-15.34184731538003
 21
-962.055423448529
 31
0.0
  0
LINE
  5
101
330
1F
100
AcDbEntity
  8
0-9
  6
Continuous
 62
     3
370
     9
100
AcDbLine
 10
14.65845746763906
 20
-964.0554657882318
 30
0.0
 11
14.65845746763906
 21
-962.055423448529
 31
0.0
  0
LINE
  5
102
330
1F
100
AcDbEntity
  8
0-9
  6
Continuous
 62
     2
370
     9
100
AcDbLine
 10
-22.00821469769009
 20
-964.0554657882318
 30
0.0
 11
21.32548547499995
 21
-964.0554657882318
 31
0.0
  0
LINE
  5
103
330
1F
100
AcDbEntity
  8
0-9
  6
Continuous
 62
     3
370
     9
100
AcDbLine
 10
-47.00824847518957
 20
-964.0554657882318
 30
0.0
 11
-47.00824847518957
 21
-962.055423448529
 31
0.0
  0
LINE
  5
104
330
1F
100
AcDbEntity
  8
0-9
  6
Continuous
 62
     3
370
     9
100
AcDbLine
 10
-60.34164386485911
 20
-964.0554657882318
 30
0.0
 11
-60.34164386485911
 21
-962.055423448529
 31
0.0
  0
LINE
  5
105
330
1F
100
AcDbEntity
  8
0-9
  6
Continuous
 62
     3
370
     9
100
AcDbLine
 10
46.32485862744859
 20
-964.0554657882318
 30
0.0
 11
46.32485862744859
 21
-962.055423448529
 31
0.0
  0
LINE
  5
106
330
1F
100
AcDbEntity
  8
0-9
  6
Continuous
 62
     3
370
     9
100
AcDbLine
 10
59.65825401711813
 20
-964.0554657882318
 30
0.0
 11
59.65825401711813
 21
-962.055423448529
 31
0.0
  0
LINE
  5
107
330
1F
100
AcDbEntity
  8
0-9
  6
Continuous
 62
     3
370
     9
100
AcDbLine
 10
-74.18702366849116
 20
-962.055423448529
 30
0.0
 11
-13.67442968848932
 21
-962.055423448529
 31
0.0
  0
LINE
  5
108
330
1F
100
AcDbEntity
  8
0-9
  6
Continuous
 62
     3
370
     9
100
AcDbLine
 10
12.99170046579919
 20
-962.055423448529
 30
0.0
 11
73.50363382075018
 21
-962.055423448529
 31
0.0
  0
LINE
  5
109
330
1F
100
AcDbEntity
  8
0-9
  6
Continuous
 62
     3
370
     9
100
AcDbLine
 10
121.3249599599482
 20
-959.0555250952372
 30
0.0
 11
12.99170046579919
 21
-959.0555250952372
 31
0.0
  0
LINE
  5
10A
330
1F
100
AcDbEntity
  8
0-9
  6
Continuous
 62
     3
370
     9
100
AcDbLine
 10
-13.67442968848932
 20
-959.0555250952372
 30
0.0
 11
-122.0083498076877
 21
-959.0555250952372
 31
0.0
  0
LINE
  5
10B
330
1F
100
AcDbEntity
  8
0-3
  6
Continuous
 62
     6
370
     9
100
AcDbLine
 10
-251.1750808872611
 20
-674.0556850474082
 30
0.0
 11
-247.8415668835814
 21
-650.7222431154856
 31
0.0
  0
LINE
  5
10C
330
1F
100
AcDbEntity
  8
0-3
  6
Continuous
 62
     6
370
     9
100
AcDbLine
 10
-269.5087472824503
 20
-674.0556850474082
 30
0.0
 11
-251.1750808872611
 21
-674.0556850474082
 31
0.0
  0
LINE
  5
10D
330
1F
100
AcDbEntity
  8
0-3
  6
Continuous
 62
     6
370
     9
100
AcDbLine
 10
268.825357434711
 20
-674.0556850474082
 30
0.0
 11
250.4916910395201
 21
-674.0556850474082
 31
0.0
  0
LINE
  5
10E
330
1F
100
AcDbEntity
  8
0-3
  6
Continuous
 62
     6
370
     9
100
AcDbLine
 10
250.4916910395201
 20
-674.0556850474082
 30
0.0
 11
247.1581770358404
 21
-650.7222431154856
 31
0.0
  0
LINE
  5
10F
330
1F
100
AcDbEntity
  8
0-3
  6
Continuous
 62
     6
370
     9
100
AcDbLine
 10
-277.841211041551
 20
-647.3887291118059
 30
0.0
 11
-269.5087472824503
 21
-674.0556850474082
 31
0.0
  0
LINE
  5
110
330
1F
100
AcDbEntity
  8
0-3
  6
Continuous
 62
     6
370
     9
100
AcDbLine
 10
277.1584818188595
 20
-647.3887291118059
 30
0.0
 11
268.825357434711
 21
-674.0556850474082
 31
0.0
  0
LINE
  5
111
330
1F
100
AcDbEntity
  8
0-3
  6
Continuous
 62
     6
370
     9
100
AcDbLine
 10
-14.00804533887763
 20
-644.0558757331763
 30
0.0
 11
-14.00804533887763
 21
-647.3893897368561
 31
0.0
  0
LINE
  5
112
330
1F
100
AcDbEntity
  8
0-3
  6
Continuous
 62
     6
370
     9
100
AcDbLine
 10
13.3253161161875
 20
-644.0558757331763
 30
0.0
 11
13.3253161161875
 21
-647.3893897368561
 31
0.0
  0
LINE
  5
113
330
1F
100
AcDbEntity
  8
0-4
  6
Continuous
 62
     6
370
     9
100
AcDbLine
 10
-267.0089420922167
 20
-480.7214518971961
 30
0.0
 11
-267.0089420922167
 21
-454.0546611178564
 31
0.0
  0
LINE
  5
114
330
1F
100
AcDbEntity
  8
0-4
  6
Continuous
 62
     6
370
     9
100
AcDbLine
 10
266.3242309943757
 20
-480.7214518971961
 30
0.0
 11
266.3242309943757
 21
-454.0546611178564
 31
0.0
  0
LINE
  5
115
330
1F
100
AcDbEntity
  8
0-4
  6
Continuous
 62
     6
370
     9
100
AcDbLine
 10
13.82474865419455
 20
-461.7215451388054
 30
0.0
 11
13.82474865419455
 21
-454.0546611178564
 31
0.0
  0
LINE
  5
116
330
1F
100
AcDbEntity
  8
0-4
  6
Continuous
 62
     6
370
     9
100
AcDbLine
 10
-14.50945975203551
 20
-461.7215451388054
 30
0.0
 11
-14.50945975203551
 21
-454.0546611178564
 31
0.0
  0
LINE
  5
117
330
1F
100
AcDbEntity
  8
0-B
  6
Continuous
 62
     2
370
     9
100
AcDbLine
 10
-36.9693902112334
 20
-417.3879889525273
 30
0.0
 11
-47.00956972528955
 21
-417.3879889525273
 31
0.0
  0
LINE
  5
118
330
1F
100
AcDbEntity
  8
0-B
  6
Continuous
 62
     2
370
     9
100
AcDbLine
 10
-25.68921747781358
 20
-423.6130588012541
 30
0.0
 11
-17.00926494227074
 21
-437.3880820370317
 31
0.0
  0
LINE
  5
119
330
1F
100
AcDbEntity
  8
0-B
  6
Continuous
 62
     2
370
     9
100
AcDbLine
 10
-17.00926494227074
 20
-443.7214943940037
 30
0.0
 11
-17.00926494227074
 21
-450.0549067509755
 31
0.0
  0
LINE
  5
11A
330
1F
100
AcDbEntity
  8
0-B
  6
Continuous
 62
     2
370
     9
100
AcDbLine
 10
36.28467911339216
 20
-417.3879889525273
 30
0.0
 11
46.32419800239917
 21
-417.3879889525273
 31
0.0
  0
LINE
  5
11B
330
1F
100
AcDbEntity
  8
0-B
  6
Continuous
 62
     2
370
     9
100
AcDbLine
 10
25.00450637997263
 20
-423.6130588012541
 30
0.0
 11
16.32455384442951
 21
-437.3880820370317
 31
0.0
  0
LINE
  5
11C
330
1F
100
AcDbEntity
  8
0-B
  6
Continuous
 62
     2
370
     9
100
AcDbLine
 10
16.32455384442951
 20
-443.7214943940037
 30
0.0
 11
16.32455384442951
 21
-450.0549067509755
 31
0.0
  0
LINE
  5
11D
330
1F
100
AcDbEntity
  8
0-8
  6
Continuous
 62
     6
370
     9
100
AcDbLine
 10
12.99103984074977
 20
-386.3095440874608
 30
0.0
 11
-13.675750938591
 21
-386.3095440874608
 31
0.0
  0
LINE
  5
11E
330
1F
100
AcDbEntity
  8
0-8
  6
Continuous
 62
     6
370
     9
100
AcDbLine
 10
-13.675750938591
 20
-386.3095440874608
 30
0.0
 11
-11.4203770169564
 21
-384.0545004783525
 31
0.0
  0
LINE
  5
11F
330
1F
100
AcDbEntity
  8
0-8
  6
Continuous
 62
     6
370
     9
100
AcDbLine
 10
-11.4203770169564
 20
-384.0545004783525
 30
0.0
 11
10.73566591911517
 21
-384.0545004783525
 31
0.0
  0
LINE
  5
120
330
1F
100
AcDbEntity
  8
0-8
  6
Continuous
 62
     6
370
     9
100
AcDbLine
 10
10.73566591911517
 20
-384.0545004783525
 30
0.0
 11
12.99103984074977
 21
-386.3095440874608
 31
0.0
  0
LINE
  5
121
330
1F
100
AcDbEntity
  8
0-B
  6
Continuous
 62
     2
370
     9
100
AcDbLine
 10
-17.00926494227074
 20
-443.7214943940037
 30
0.0
 11
-11.4203770169564
 21
-443.7214943940037
 31
0.0
  0
LINE
  5
122
330
1F
100
AcDbEntity
  8
0-B
  6
Continuous
 62
     2
370
     9
100
AcDbLine
 10
10.73566591911517
 20
-443.7214943940037
 30
0.0
 11
16.32455384442951
 21
-443.7214943940037
 31
0.0
  0
LINE
  5
123
330
1F
100
AcDbEntity
  8
0-B
  6
Continuous
 62
     2
370
     9
100
AcDbLine
 10
-17.00926494227074
 20
-437.3880820370317
 30
0.0
 11
-13.675750938591
 21
-437.3880820370317
 31
0.0
  0
LINE
  5
124
330
1F
100
AcDbEntity
  8
0-B
  6
Continuous
 62
     2
370
     9
100
AcDbLine
 10
12.99103984074977
 20
-437.3880820370317
 30
0.0
 11
16.32455384442951
 21
-437.3880820370317
 31
0.0
  0
LINE
  5
125
330
1F
100
AcDbEntity
  8
0-B
  6
Continuous
 62
     2
370
     9
100
AcDbLine
 10
18.99083654733262
 20
-454.0546611178564
 30
0.0
 11
12.99103984074977
 21
-454.0546611178564
 31
0.0
  0
LINE
  5
126
330
1F
100
AcDbEntity
  8
0-B
  6
Continuous
 62
     2
370
     9
100
AcDbLine
 10
-13.675750938591
 20
-454.0546611178564
 30
0.0
 11
-19.67554764517386
 21
-454.0546611178564
 31
0.0
  0
LINE
  5
127
330
1F
100
AcDbEntity
  8
0-4
  6
Continuous
 62
     6
370
     9
100
AcDbLine
 10
-267.0089420922167
 20
-480.7214518971961
 30
0.0
 11
-13.675750938591
 21
-480.7214518971961
 31
0.0
  0
LINE
  5
128
330
1F
100
AcDbEntity
  8
0-4
  6
Continuous
 62
     6
370
     9
100
AcDbLine
 10
12.99103984074977
 20
-480.7214518971961
 30
0.0
 11
266.3242309943757
 21
-480.7214518971961
 31
0.0
  0
LINE
  5
129
330
1F
100
AcDbEntity
  8
0-4
  6
Continuous
 62
     6
370
     9
100
AcDbLine
 10
-267.0089420922167
 20
-461.7215451388054
 30
0.0
 11
-13.675750938591
 21
-461.7215451388054
 31
0.0
  0
LINE
  5
12A
330
1F
100
AcDbEntity
  8
0-4
  6
Continuous
 62
     6
370
     9
100
AcDbLine
 10
12.99103984074977
 20
-461.7215451388054
 30
0.0
 11
266.3242309943757
 21
-461.7215451388054
 31
0.0
  0
LINE
  5
12B
330
1F
100
AcDbEntity
  8
0-4
  6
Continuous
 62
     6
370
     9
100
AcDbLine
 10
-267.0089420922167
 20
-454.0546611178564
 30
0.0
 11
-13.675750938591
 21
-454.0546611178564
 31
0.0
  0
LINE
  5
12C
330
1F
100
AcDbEntity
  8
0-4
  6
Continuous
 62
     6
370
     9
100
AcDbLine
 10
12.99103984074977
 20
-454.0546611178564
 30
0.0
 11
266.3242309943757
 21
-454.0546611178564
 31
0.0
  0
LINE
  5
12D
330
1F
100
AcDbEntity
  8
0-C
  6
Continuous
 62
     2
370
     9
100
AcDbLine
 10
166.3240958843767
 20
-664.3889238430189
 30
0.0
 11
166.3240958843767
 21
-660.3894997886628
 31
0.0
  0
LINE
  5
12E
330
1F
100
AcDbEntity
  8
0-C
  6
Continuous
 62
     2
370
     9
100
AcDbLine
 10
-167.0088069822177
 20
-660.3894997886628
 30
0.0
 11
-167.0088069822177
 21
-664.3889238430189
 31
0.0
  0
LINE
  5
12F
330
1F
100
AcDbEntity
  8
0-C
  6
Continuous
 62
     2
370
     9
100
AcDbLine
 10
16.32455384442951
 20
-660.3894997886628
 30
0.0
 11
166.3240958843767
 21
-660.3894997886628
 31
0.0
  0
LINE
  5
130
330
1F
100
AcDbEntity
  8
0-C
  6
Continuous
 62
     2
370
     9
100
AcDbLine
 10
14.65779684258964
 20
-658.7227427868229
 30
0.0
 11
14.65779684258964
 21
-652.0557147794631
 31
0.0
  0
LINE
  5
131
330
1F
100
AcDbEntity
  8
0-C
  6
Continuous
 62
     2
370
     9
100
AcDbLine
 10
-15.34250794043087
 20
-658.7227427868229
 30
0.0
 11
-15.34250794043087
 21
-652.0557147794631
 31
0.0
  0
LINE
  5
132
330
1F
100
AcDbEntity
  8
0-C
  6
Continuous
 62
     2
370
     9
100
AcDbLine
 10
-17.00926494227074
 20
-660.3894997886628
 30
0.0
 11
-167.0088069822177
 21
-660.3894997886628
 31
0.0
  0
LINE
  5
133
330
1F
100
AcDbEntity
  8
0-C
  6
Continuous
 62
     2
370
     9
100
AcDbLine
 10
-67.00933249726943
 20
-697.7227426297185
 30
0.0
 11
-67.00933249726943
 21
-664.3889238430189
 31
0.0
  0
LINE
  5
134
330
1F
100
AcDbEntity
  8
0-C
  6
Continuous
 62
     2
370
     9
100
AcDbLine
 10
-104.6946884901212
 20
-704.3894403245532
 30
0.0
 11
-73.67569987957948
 21
-704.3894403245532
 31
0.0
  0
LINE
  5
135
330
1F
100
AcDbEntity
  8
0-C
  6
Continuous
 62
     2
370
     9
100
AcDbLine
 10
-111.2705502405433
 20
-698.818719588122
 30
0.0
 11
-117.0094000522681
 21
-664.3889238430189
 31
0.0
  0
LINE
  5
136
330
1F
100
AcDbEntity
  8
0-C
  6
Continuous
 62
     2
370
     9
100
AcDbLine
 10
66.32462139942847
 20
-697.7227426297185
 30
0.0
 11
66.32462139942847
 21
-664.3889238430189
 31
0.0
  0
LINE
  5
137
330
1F
100
AcDbEntity
  8
0-C
  6
Continuous
 62
     2
370
     9
100
AcDbLine
 10
104.0099773922799
 20
-704.3894403245532
 30
0.0
 11
72.99098878173852
 21
-704.3894403245532
 31
0.0
  0
LINE
  5
138
330
1F
100
AcDbEntity
  8
0-C
  6
Continuous
 62
     2
370
     9
100
AcDbLine
 10
110.5858391427023
 20
-698.818719588122
 30
0.0
 11
116.3246889544271
 21
-664.3889238430189
 31
0.0
  0
LINE
  5
139
330
1F
100
AcDbEntity
  8
0-C
  6
Continuous
 62
     2
370
     9
100
AcDbLine
 10
12.99103984074977
 20
-652.0557147794631
 30
0.0
 11
12.99103984074977
 21
-663.3048381355201
 31
0.0
  0
LINE
  5
13A
330
1F
100
AcDbEntity
  8
0-C
  6
Continuous
 62
     2
370
     9
100
AcDbLine
 10
-13.675750938591
 20
-652.0557147794631
 30
0.0
 11
-13.675750938591
 21
-663.3048381355201
 31
0.0
  0
LINE
  5
13B
330
1F
100
AcDbEntity
  8
0-C
  6
Continuous
 62
     2
370
     9
100
AcDbLine
 10
166.3240958843767
 20
-664.3889238430189
 30
0.0
 11
12.99103984074977
 21
-664.3889238430189
 31
0.0
  0
LINE
  5
13C
330
1F
100
AcDbEntity
  8
0-C
  6
Continuous
 62
     2
370
     9
100
AcDbLine
 10
-13.675750938591
 20
-664.3889238430189
 30
0.0
 11
-167.0088069822177
 21
-664.3889238430189
 31
0.0
  0
LINE
  5
13D
330
1F
100
AcDbEntity
  8
0-C
  6
Continuous
 62
     2
370
     9
100
AcDbLine
 10
-11.4203770169564
 20
-652.0557147794631
 30
0.0
 11
-15.34250794043087
 21
-652.0557147794631
 31
0.0
  0
LINE
  5
13E
330
1F
100
AcDbEntity
  8
0-C
  6
Continuous
 62
     2
370
     9
100
AcDbLine
 10
14.65779684258964
 20
-652.0557147794631
 30
0.0
 11
10.73566591911517
 21
-652.0557147794631
 31
0.0
  0
LINE
  5
13F
330
1F
100
AcDbEntity
  8
0-1
  6
Continuous
 62
     4
370
     9
100
AcDbLine
 10
482.9907499826709
 20
-480.7217822097211
 30
0.0
 11
441.3231461867713
 21
-647.3885639555436
 31
0.0
  0
LINE
  5
140
330
1F
100
AcDbEntity
  8
0-1
  6
Continuous
 62
     4
370
     9
100
AcDbLine
 10
-483.6761217055624
 20
-480.7217822097211
 30
0.0
 11
-483.6761217055624
 21
-647.3885639555436
 31
0.0
  0
LINE
  5
141
330
1F
100
AcDbEntity
  8
0-1
  6
Continuous
 62
     4
370
     9
100
AcDbLine
 10
482.9907499826709
 20
-480.7217822097211
 30
0.0
 11
12.99103984074977
 21
-480.7217822097211
 31
0.0
  0
LINE
  5
142
330
1F
100
AcDbEntity
  8
0-1
  6
Continuous
 62
     4
370
     9
100
AcDbLine
 10
-13.675750938591
 20
-480.7217822097211
 30
0.0
 11
-483.6761217055624
 21
-480.7217822097211
 31
0.0
  0
LINE
  5
143
330
1F
100
AcDbEntity
  8
0-1
  6
Continuous
 62
     4
370
     9
100
AcDbLine
 10
-13.675750938591
 20
-647.3885639555436
 30
0.0
 11
-483.6761217055624
 21
-647.3885639555436
 31
0.0
  0
LINE
  5
144
330
1F
100
AcDbEntity
  8
0-1
  6
Continuous
 62
     4
370
     9
100
AcDbLine
 10
441.3231461867713
 20
-647.3885639555436
 30
0.0
 11
12.99103984074977
 21
-647.3885639555436
 31
0.0
  0
LINE
  5
145
330
1F
100
AcDbEntity
  8
0-0
  6
Continuous
 62
     3
370
     9
100
AcDbLine
 10
146.3249937374477
 20
-715.7222979057325
 30
0.0
 11
146.3249937374477
 21
-717.3888897513099
 31
0.0
  0
LINE
  5
146
330
1F
100
AcDbEntity
  8
0-0
  6
Continuous
 62
     3
370
     9
100
AcDbLine
 10
147.9917507392875
 20
-719.6926544578758
 30
0.0
 11
156.3248751234375
 21
-724.5039866990179
 31
0.0
  0
LINE
  5
147
330
1F
100
AcDbEntity
  8
0-0
  6
Continuous
 62
     3
370
     9
100
AcDbLine
 10
147.9917507392875
 20
-717.3888897513099
 30
0.0
 11
147.9917507392875
 21
-719.6926544578758
 31
0.0
  0
LINE
  5
148
330
1F
100
AcDbEntity
  8
0-0
  6
Continuous
 62
     3
370
     9
100
AcDbLine
 10
166.3247565094275
 20
-715.7229585307824
 30
0.0
 11
166.3247565094275
 21
-717.3888897513099
 31
0.0
  0
LINE
  5
149
330
1F
100
AcDbEntity
  8
0-0
  6
Continuous
 62
     3
370
     9
100
AcDbLine
 10
164.6579995075876
 20
-717.3888897513099
 30
0.0
 11
164.6579995075876
 21
-719.6926544578758
 31
0.0
  0
LINE
  5
14A
330
1F
100
AcDbEntity
  8
0-0
  6
Continuous
 62
     3
370
     9
100
AcDbLine
 10
-244.0654340962186
 20
-650.7222431154856
 30
0.0
 11
-13.675750938591
 21
-650.7222431154856
 31
0.0
  0
LINE
  5
14B
330
1F
100
AcDbEntity
  8
0-0
  6
Continuous
 62
     3
370
     9
100
AcDbLine
 10
12.99103984074977
 20
-650.7222431154856
 30
0.0
 11
243.3820442484776
 21
-650.7222431154856
 31
0.0
  0
LINE
  5
14C
330
1F
100
AcDbEntity
  8
0-3
  6
Continuous
 62
     6
370
     9
100
AcDbLine
 10
247.1581770358404
 20
-650.7222431154856
 30
0.0
 11
12.99103984074977
 21
-650.7222431154856
 31
0.0
  0
LINE
  5
14D
330
1F
100
AcDbEntity
  8
0-3
  6
Continuous
 62
     6
370
     9
100
AcDbLine
 10
-13.675750938591
 20
-650.7222431154856
 30
0.0
 11
-247.8415668835814
 21
-650.7222431154856
 31
0.0
  0
LINE
  5
14E
330
1F
100
AcDbEntity
  8
0-3
  6
Continuous
 62
     6
370
     9
100
AcDbLine
 10
277.1584818188595
 20
-647.3887291118059
 30
0.0
 11
12.99103984074977
 21
-647.3887291118059
 31
0.0
  0
LINE
  5
14F
330
1F
100
AcDbEntity
  8
0-3
  6
Continuous
 62
     6
370
     9
100
AcDbLine
 10
-13.675750938591
 20
-647.3887291118059
 30
0.0
 11
-277.841211041551
 21
-647.3887291118059
 31
0.0
  0
LINE
  5
150
330
1F
100
AcDbEntity
  8
0-0
  6
Continuous
 62
     3
370
     9
100
AcDbLine
 10
94.10852913878047
 20
-719.2526781743937
 30
0.0
 11
12.99103984074977
 21
-719.2526781743937
 31
0.0
  0
LINE
  5
151
330
1F
100
AcDbEntity
  8
0-0
  6
Continuous
 62
     3
370
     9
100
AcDbLine
 10
-13.675750938591
 20
-719.2526781743937
 30
0.0
 11
-94.79191898652145
 21
-719.2526781743937
 31
0.0
  0
LINE
  5
152
330
1F
100
AcDbEntity
  8
0-0
  6
Continuous
 62
     3
370
     9
100
AcDbLine
 10
-75.34179625636851
 20
-874.0555423767488
 30
0.0
 11
-13.675750938591
 21
-874.0555423767488
 31
0.0
  0
LINE
  5
153
330
1F
100
AcDbEntity
  8
0-0
  6
Continuous
 62
     3
370
     9
100
AcDbLine
 10
12.99103984074977
 20
-874.0555423767488
 30
0.0
 11
74.65840640862923
 21
-874.0555423767488
 31
0.0
  0
LINE
  5
154
330
1F
100
AcDbEntity
  8
0-8
  6
Continuous
 62
     6
370
     9
100
AcDbLine
 10
-11.4203770169564
 20
-384.0545004783525
 30
0.0
 11
-11.4203770169564
 21
-964.0554657882318
 31
0.0
  0
LINE
  5
155
330
1F
100
AcDbEntity
  8
0-8
  6
Continuous
 62
     6
370
     9
100
AcDbLine
 10
-13.675750938591
 20
-386.3095440874608
 30
0.0
 11
-13.675750938591
 21
-964.0554657882318
 31
0.0
  0
LINE
  5
156
330
1F
100
AcDbEntity
  8
0-8
  6
Continuous
 62
     6
370
     9
100
AcDbLine
 10
10.73566591911517
 20
-384.0545004783525
 30
0.0
 11
10.73566591911517
 21
-964.0554657882318
 31
0.0
  0
LINE
  5
157
330
1F
100
AcDbEntity
  8
0-8
  6
Continuous
 62
     6
370
     9
100
AcDbLine
 10
12.99103984074977
 20
-386.3095440874608
 30
0.0
 11
12.99103984074977
 21
-964.0554657882318
 31
0.0
  0
LINE
  5
158
330
1F
100
AcDbEntity
  8
0-0
  6
JWW_CENTER1
 62
     3
370
     9
100
AcDbLine
 10
-0.3423555489211871
 20
-354.0254585056462
 30
0.0
 11
-0.3423555489211871
 21
-1003.553329184639
 31
0.0
  0
ARC
  5
159
330
1F
100
AcDbEntity
  8
0-0
  6
Continuous
 62
     3
370
     9
100
AcDbCircle
 10
-199.6245263392706
 20
-654.520424263902
 30
0.0
 40
10.0000000920535
100
AcDbArc
 50
251.9994812011719
 51
348.7692108154297
  0
ARC
  5
15A
330
1F
100
AcDbEntity
  8
0-0
  6
Continuous
 62
     3
370
     9
100
AcDbCircle
 10
-100.6219350551851
 20
-754.055561916639
 30
0.0
 40
16.66666682008918
100
AcDbArc
 50
4.085662841796871
 51
90.0
  0
ARC
  5
15B
330
1F
100
AcDbEntity
  8
0-0
  6
Continuous
 62
     3
370
     9
100
AcDbCircle
 10
198.9411364915296
 20
-654.520424263902
 30
0.0
 40
10.0000000920535
100
AcDbArc
 50
191.2307891845703
 51
288.0005187988281
  0
ARC
  5
15C
330
1F
100
AcDbEntity
  8
0-0
  6
Continuous
 62
     3
370
     9
100
AcDbCircle
 10
196.6388581913262
 20
-690.3175487068091
 30
0.0
 40
10.0000000920535
100
AcDbArc
 50
108.0002136230468
 51
172.9998321533203
  0
ARC
  5
15D
330
1F
100
AcDbEntity
  8
0-0
  6
JWW_DASHED1
 62
     3
370
     9
100
AcDbCircle
 10
161.3172186283532
 20
-704.4715229870498
 30
0.0
 40
10.0000000920535
100
AcDbArc
 50
274.0002593994141
 51
352.9998321533203
  0
ARC
  5
15E
330
1F
100
AcDbEntity
  8
0-0
  6
Continuous
 62
     3
370
     9
100
AcDbCircle
 10
99.9392058324952
 20
-754.055561916639
 30
0.0
 40
16.66666682008918
100
AcDbArc
 50
90.0
 51
175.9143371582031
  0
ARC
  5
15F
330
1F
100
AcDbEntity
  8
0-0
  6
Continuous
 62
     3
370
     9
100
AcDbCircle
 10
-201.45908210388
 20
-685.4681479471452
 30
0.0
 40
6.666666728035669
100
AcDbArc
 50
6.762680053710941
 51
71.99925231933594
  0
ARC
  5
160
330
1F
100
AcDbEntity
  8
0-0
  6
Continuous
 62
     3
370
     9
100
AcDbCircle
 10
-144.4405340147744
 20
-745.7219420637017
 30
0.0
 40
5.000000046026752
100
AcDbArc
 50
270.0
 51
348.689697265625
  0
ARC
  5
161
330
1F
100
AcDbEntity
  8
0-0
  6
Continuous
 62
     3
370
     9
100
AcDbCircle
 10
-132.9093237622504
 20
-739.0557398376546
 30
0.0
 40
5.000000046026752
100
AcDbArc
 50
90.0
 51
168.6898803710938
  0
ARC
  5
162
330
1F
100
AcDbEntity
  8
0-0
  6
Continuous
 62
     3
370
     9
100
AcDbCircle
 10
143.3878547639316
 20
-699.0554710905138
 30
0.0
 40
5.000000046026752
100
AcDbArc
 50
90.0
 51
163.4409027099609
  0
ARC
  5
163
330
1F
100
AcDbEntity
  8
0-0
  6
Continuous
 62
     3
370
     9
100
AcDbCircle
 10
129.1863980582025
 20
-711.7305536175865
 30
0.0
 40
5.000000046026752
100
AcDbArc
 50
273.9993591308594
 51
343.4409027099609
  0
ARC
  5
164
330
1F
100
AcDbEntity
  8
0-0
  6
Continuous
 62
     3
370
     9
100
AcDbCircle
 10
168.2471754057229
 20
-689.0555071263927
 30
0.0
 40
5.000000046026752
100
AcDbArc
 50
270.0
 51
352.9997253417969
  0
ARC
  5
165
330
1F
100
AcDbEntity
  8
0-0
  6
JWW_DASHED1
 62
     3
370
     9
100
AcDbCircle
 10
-161.9999478510448
 20
-704.4715229870498
 30
0.0
 40
10.0000000920535
100
AcDbArc
 50
187.0001678466797
 51
265.9997406005859
  0
ARC
  5
166
330
1F
100
AcDbEntity
  8
0-0
  6
Continuous
 62
     3
370
     9
100
AcDbCircle
 10
94.10852913878047
 20
-742.5859549500534
 30
0.0
 40
23.33333096755824
100
AcDbArc
 50
94.00021362304693
 51
175.9143981933594
  0
ARC
  5
167
330
1F
100
AcDbEntity
  8
0-0
  6
Continuous
 62
     3
370
     9
100
AcDbCircle
 10
-94.79191898652145
 20
-742.5859549500534
 30
0.0
 40
23.33333096755824
100
AcDbArc
 50
4.085601806640622
 51
86.00007629394531
  0
ARC
  5
168
330
1F
100
AcDbEntity
  8
0-0
  6
JWW_DASHED1
 62
     3
370
     9
100
AcDbCircle
 10
-197.3222480390672
 20
-690.3175487068091
 30
0.0
 40
10.0000000920535
100
AcDbArc
 50
7.000167846679695
 51
71.99978637695314
  0
ARC
  5
169
330
1F
100
AcDbEntity
  8
0-0
  6
Continuous
 62
     3
370
     9
100
AcDbCircle
 10
-144.0712446116725
 20
-699.0554710905138
 30
0.0
 40
5.000000046026752
100
AcDbArc
 50
16.55908203125
 51
90.0
  0
ARC
  5
16A
330
1F
100
AcDbEntity
  8
0-0
  6
Continuous
 62
     3
370
     9
100
AcDbCircle
 10
-129.8697879059432
 20
-711.7305536175865
 30
0.0
 40
5.000000046026752
100
AcDbArc
 50
196.5590972900391
 51
266.0006408691406
  0
ARC
  5
16B
330
1F
100
AcDbEntity
  8
0-0
  6
Continuous
 62
     3
370
     9
100
AcDbCircle
 10
-168.930565253464
 20
-689.0555071263927
 30
0.0
 40
5.000000046026752
100
AcDbArc
 50
187.0002746582031
 51
270.0
  0
ARC
  5
16C
330
1F
100
AcDbEntity
  8
0-0
  6
Continuous
 62
     3
370
     9
100
AcDbCircle
 10
160.5495723199365
 20
-710.7223572127374
 30
0.0
 40
23.33333096755824
100
AcDbArc
 50
270.0
 51
352.9994812011719
  0
ARC
  5
16D
330
1F
100
AcDbEntity
  8
0-0
  6
Continuous
 62
     3
370
     9
100
AcDbCircle
 10
-187.0079091291467
 20
-807.3887305846621
 30
0.0
 40
6.666666728035669
100
AcDbArc
 50
270.0
 51
0.0
  0
ARC
  5
16E
330
1F
100
AcDbEntity
  8
0-0
  6
Continuous
 62
     3
370
     9
100
AcDbCircle
 10
-187.0079091291467
 20
-807.3887305846621
 30
0.0
 40
26.66666691214268
100
AcDbArc
 50
270.0
 51
0.0
  0
ARC
  5
16F
330
1F
100
AcDbEntity
  8
0-0
  6
JWW_CENTER1
 62
     3
370
     9
100
AcDbCircle
 10
-187.0085697541975
 20
-807.3887305846621
 30
0.0
 40
16.66666682008918
100
AcDbArc
 50
270.0
 51
0.0
  0
ARC
  5
170
330
1F
100
AcDbEntity
  8
0-0
  6
Continuous
 62
     3
370
     9
100
AcDbCircle
 10
-182.5658662911087
 20
-745.7219420637017
 30
0.0
 40
5.000000046026752
100
AcDbArc
 50
186.7625885009766
 51
270.0
  0
ARC
  5
171
330
1F
100
AcDbEntity
  8
0-0
  6
Continuous
 62
     3
370
     9
100
AcDbCircle
 10
-213.2723792528708
 20
-713.1736890399087
 30
0.0
 40
36.66666700419619
100
AcDbArc
 50
72.00022888183592
 51
117.7433776855469
  0
ARC
  5
172
330
1F
100
AcDbEntity
  8
0-0
  6
Continuous
 62
     3
370
     9
100
AcDbCircle
 10
212.5896500301792
 20
-713.1736890399087
 30
0.0
 40
36.66666700419619
100
AcDbArc
 50
62.25660705566405
 51
108.0005493164062
  0
ARC
  5
173
330
1F
100
AcDbEntity
  8
0-0
  6
Continuous
 62
     3
370
     9
100
AcDbCircle
 10
-244.0654340962186
 20
-654.0555919629035
 30
0.0
 40
3.333333364017835
100
AcDbArc
 50
90.0
 51
172.875732421875
  0
ARC
  5
174
330
1F
100
AcDbEntity
  8
0-0
  6
Continuous
 62
     3
370
     9
100
AcDbCircle
 10
243.3820442484776
 20
-654.0555919629035
 30
0.0
 40
3.333333364017835
100
AcDbArc
 50
7.124267578125002
 51
90.0
  0
ARC
  5
175
330
1F
100
AcDbEntity
  8
0-0
  6
JWW_DASHED1
 62
     3
370
     9
100
AcDbCircle
 10
161.3172186283532
 20
-704.4715229870498
 30
0.0
 40
23.33333096755824
100
AcDbArc
 50
274.0002593994141
 51
352.9998321533203
  0
ARC
  5
176
330
1F
100
AcDbEntity
  8
0-0
  6
JWW_DASHED1
 62
     3
370
     9
100
AcDbCircle
 10
139.3435082061575
 20
-736.0814407050606
 30
0.0
 40
6.666666728035669
100
AcDbArc
 50
93.99983215332037
 51
162.3113555908203
  0
ARC
  5
177
330
1F
100
AcDbEntity
  8
0-0
  6
JWW_DASHED1
 62
     3
370
     9
100
AcDbCircle
 10
-161.9999478510448
 20
-704.4715229870498
 30
0.0
 40
23.33333096755824
100
AcDbArc
 50
187.0001678466797
 51
265.9997406005859
  0
ARC
  5
178
330
1F
100
AcDbEntity
  8
0-0
  6
JWW_DASHED1
 62
     3
370
     9
100
AcDbCircle
 10
-140.0262374288476
 20
-736.0814407050606
 30
0.0
 40
6.666666728035669
100
AcDbArc
 50
17.68864440917968
 51
86.00016784667967
  0
ARC
  5
179
330
1F
100
AcDbEntity
  8
0-8
  6
Continuous
 62
     4
370
     9
100
AcDbCircle
 10
165.7453883403369
 20
-671.0554563815911
 30
0.0
 40
6.666666728035669
100
AcDbArc
 50
5.000015258789053
 51
89.99999999999999
  0
ARC
  5
17A
330
1F
100
AcDbEntity
  8
0-8
  6
Continuous
 62
     4
370
     9
100
AcDbCircle
 10
146.9043619065366
 20
-671.0554563815911
 30
0.0
 40
6.666666728035669
100
AcDbArc
 50
90.0
 51
174.9999847412109
  0
ARC
  5
17B
330
1F
100
AcDbEntity
  8
0-B
  6
Continuous
 62
     2
370
     9
100
AcDbCircle
 10
-36.9693902112334
 20
-430.7213843421969
 30
0.0
 40
13.33333345607134
100
AcDbArc
 50
32.21649169921875
 51
90.0
  0
ARC
  5
17C
330
1F
100
AcDbEntity
  8
0-B
  6
Continuous
 62
     2
370
     9
100
AcDbCircle
 10
-8.592901801785882
 20
-417.2717189436789
 30
0.0
 40
38.4165156700743
100
AcDbArc
 50
180.1736145019531
 51
253.2320709228515
  0
ARC
  5
17D
330
1F
100
AcDbEntity
  8
0-B
  6
Continuous
 62
     2
370
     9
100
AcDbCircle
 10
-8.592901801785882
 20
-417.2717189436789
 30
0.0
 40
34.41652131049943
100
AcDbArc
 50
180.1736145019531
 51
255.4090423583985
  0
ARC
  5
17E
330
1F
100
AcDbEntity
  8
0-B
  6
Continuous
 62
     2
370
     9
100
AcDbCircle
 10
-17.67583561799652
 20
-450.0549067509755
 30
0.0
 40
0.6666666808678376
100
AcDbArc
 50
308.2657165527344
 51
0.0
  0
ARC
  5
17F
330
1F
100
AcDbEntity
  8
0-B
  6
Continuous
 62
     2
370
     9
100
AcDbCircle
 10
36.28467911339216
 20
-430.7213843421969
 30
0.0
 40
13.33333345607134
100
AcDbArc
 50
90.0
 51
147.7835083007812
  0
ARC
  5
180
330
1F
100
AcDbEntity
  8
0-B
  6
Continuous
 62
     2
370
     9
100
AcDbCircle
 10
7.908190703944928
 20
-417.2717189436789
 30
0.0
 40
38.4165156700743
100
AcDbArc
 50
286.7679138183594
 51
359.8263702392579
  0
ARC
  5
181
330
1F
100
AcDbEntity
  8
0-B
  6
Continuous
 62
     2
370
     9
100
AcDbCircle
 10
7.908190703944928
 20
-417.2717189436789
 30
0.0
 40
34.41652131049943
100
AcDbArc
 50
284.5909423828125
 51
359.8263702392578
  0
ARC
  5
182
330
1F
100
AcDbEntity
  8
0-B
  6
Continuous
 62
     2
370
     9
100
AcDbCircle
 10
16.99112452015529
 20
-450.0549067509755
 30
0.0
 40
0.6666666808678376
100
AcDbArc
 50
180.0
 51
231.7342834472656
  0
ARC
  5
183
330
1F
100
AcDbEntity
  8
0-B
  6
Continuous
 62
     2
370
     9
100
AcDbCircle
 10
16.32455384442951
 20
-450.0549067509755
 30
0.0
 40
4.000000165849732
100
AcDbArc
 50
213.5567016601563
 51
270.0
  0
ARC
  5
184
330
1F
100
AcDbEntity
  8
0-B
  6
Continuous
 62
     2
370
     9
100
AcDbCircle
 10
-17.00926494227074
 20
-450.0549067509755
 30
0.0
 40
4.000000165849732
100
AcDbArc
 50
270.0
 51
326.4436187744141
  0
ARC
  5
185
330
1F
100
AcDbEntity
  8
0-C
  6
Continuous
 62
     2
370
     9
100
AcDbCircle
 10
16.32455384442951
 20
-658.7227427868229
 30
0.0
 40
1.666666682008917
100
AcDbArc
 50
180.0
 51
270.0
  0
ARC
  5
186
330
1F
100
AcDbEntity
  8
0-C
  6
Continuous
 62
     2
370
     9
100
AcDbCircle
 10
-17.00926494227074
 20
-658.7227427868229
 30
0.0
 40
1.666666682008917
100
AcDbArc
 50
270.0
 51
0.0
  0
ARC
  5
187
330
1F
100
AcDbEntity
  8
0-C
  6
Continuous
 62
     2
370
     9
100
AcDbCircle
 10
-73.67569987957948
 20
-697.7227426297185
 30
0.0
 40
6.666666728035669
100
AcDbArc
 50
270.0
 51
0.0
  0
ARC
  5
188
330
1F
100
AcDbEntity
  8
0-C
  6
Continuous
 62
     2
370
     9
100
AcDbCircle
 10
-104.6946884901212
 20
-697.7227426297185
 30
0.0
 40
6.666666728035669
100
AcDbArc
 50
189.4628143310547
 51
270.0
  0
ARC
  5
189
330
1F
100
AcDbEntity
  8
0-C
  6
Continuous
 62
     2
370
     9
100
AcDbCircle
 10
72.99098878173852
 20
-697.7227426297185
 30
0.0
 40
6.666666728035669
100
AcDbArc
 50
180.0
 51
270.0
  0
ARC
  5
18A
330
1F
100
AcDbEntity
  8
0-C
  6
Continuous
 62
     2
370
     9
100
AcDbCircle
 10
104.0099773922799
 20
-697.7227426297185
 30
0.0
 40
6.666666728035669
100
AcDbArc
 50
270.0
 51
350.5371856689453
  0
ARC
  5
18B
330
1F
100
AcDbEntity
  8
0-C
  6
Continuous
 62
     2
370
     9
100
AcDbCircle
 10
-17.00926494227074
 20
-658.7227427868229
 30
0.0
 40
5.66666684785865
100
AcDbArc
 50
270.0
 51
350.4709777832031
  0
ARC
  5
18C
330
1F
100
AcDbEntity
  8
0-C
  6
Continuous
 62
     2
370
     9
100
AcDbCircle
 10
16.32455384442951
 20
-658.7227427868229
 30
0.0
 40
5.66666684785865
100
AcDbArc
 50
189.5361938476562
 51
270.0
  0
TEXT
  5
18D
330
1F
100
AcDbEntity
  8
0-5
  6
Continuous
 62
     6
370
     9
100
AcDbText
 10
106.9816487143629
 20
-210.6022488613381
 30
0.0
 40
19.05
  1
長ネジボルト：ＳＷＲＭ
 41
1.109090909090909
  7
ＭＳ ゴシック
100
AcDbText
  0
TEXT
  5
18E
330
1F
100
AcDbEntity
  8
0-5
  6
Continuous
 62
     6
370
     9
100
AcDbText
 10
201.0136143521987
 20
-259.165366302677
 30
0.0
 40
19.05
  1
（別途）
 41
1.090000000000003
  7
ＭＳ ゴシック
100
AcDbText
  0
LINE
  5
18F
330
1F
100
AcDbEntity
  8
0-5
  6
Continuous
 62
     7
370
     9
100
AcDbLine
 10
12.99103984074975
 20
-386.3095440874608
 30
0.0
 11
22.5581256498765
 21
-363.2125557746787
 31
0.0
  0
LINE
  5
190
330
1F
100
AcDbEntity
  8
0-5
  6
Continuous
 62
     7
370
     9
100
AcDbLine
 10
12.99103984074975
 20
-386.3095440874608
 30
0.0
 11
28.21007556596726
 21
-366.47571058018
 31
0.0
  0
LINE
  5
191
330
1F
100
AcDbEntity
  8
0-5
  6
Continuous
 62
     7
370
     9
100
AcDbLine
 10
12.99103984074975
 20
-386.3095440874608
 30
0.0
 11
106.6945320532255
 21
-224.0103347288183
 31
0.0
  0
LINE
  5
192
330
1F
100
AcDbEntity
  8
0-5
  6
Continuous
 62
     7
370
     9
100
AcDbLine
 10
106.6945320532255
 20
-224.0103347288183
 30
0.0
 11
416.9118089426593
 21
-224.0103347288183
 31
0.0
  0
TEXT
  5
193
330
1F
100
AcDbEntity
  8
0-5
  6
Continuous
 62
     7
370
     9
100
AcDbText
 10
-572.1534254943915
 20
-297.6886778314897
 30
0.0
 40
22.86
  1
固定プレート
 41
1.138888888888889
  7
ＭＳ ゴシック
100
AcDbText
  0
TEXT
  5
194
330
1F
100
AcDbEntity
  8
0-5
  6
Continuous
 62
     7
370
     9
100
AcDbText
 10
-534.7615304349674
 20
-339.5468413714111
 30
0.0
 40
22.86
  1
ＳＰＨＣ
 41
1.124999999999995
  7
ＭＳ ゴシック
100
AcDbText
  0
LINE
  5
195
330
1F
100
AcDbEntity
  8
0-5
  6
Continuous
 62
     7
370
     9
100
AcDbLine
 10
-267.0089420922167
 20
-461.7215451388054
 30
0.0
 11
-282.2279778174354
 21
-441.8877116315246
 31
0.0
  0
LINE
  5
196
330
1F
100
AcDbEntity
  8
0-5
  6
Continuous
 62
     7
370
     9
100
AcDbLine
 10
-267.0089420922167
 20
-461.7215451388054
 30
0.0
 11
-276.576027901344
 21
-438.6245568260233
 31
0.0
  0
LINE
  5
197
330
1F
100
AcDbEntity
  8
0-5
  6
Continuous
 62
     7
370
     9
100
AcDbLine
 10
-356.7755857270825
 20
-306.241157538289
 30
0.0
 11
-577.2887031684754
 21
-306.241157538289
 31
0.0
  0
LINE
  5
198
330
1F
100
AcDbEntity
  8
0-5
  6
Continuous
 62
     7
370
     9
100
AcDbLine
 10
-267.0089420922167
 20
-461.7215451388054
 30
0.0
 11
-356.7755857270825
 21
-306.241157538289
 31
0.0
  0
LINE
  5
199
330
1F
100
AcDbEntity
  8
0-5
  6
Continuous
 62
     7
370
     9
100
AcDbLine
 10
-47.00924110605836
 20
-417.3881263664413
 30
0.0
 11
-62.22827683127701
 21
-397.5542928591603
 31
0.0
  0
LINE
  5
19A
330
1F
100
AcDbEntity
  8
0-5
  6
Continuous
 62
     7
370
     9
100
AcDbLine
 10
-47.00924110605836
 20
-417.3881263664413
 30
0.0
 11
-56.57632691518568
 21
-394.2911380536592
 31
0.0
  0
TEXT
  5
19B
330
1F
100
AcDbEntity
  8
0-5
  6
Continuous
 62
     6
370
     9
100
AcDbText
 10
-348.6127951978942
 20
-215.2743995877588
 30
0.0
 40
19.05
  1
（別途）
 41
1.089999999999998
  7
ＭＳ ゴシック
100
AcDbText
  0
TEXT
  5
19C
330
1F
100
AcDbEntity
  8
0-5
  6
Continuous
 62
     6
370
     9
100
AcDbText
 10
-436.4870040038368
 20
-171.581889173232
 30
0.0
 40
19.05
  1
蝶ナット：ＳＰＨＣ
 41
1.106666666666666
  7
ＭＳ ゴシック
100
AcDbText
  0
LINE
  5
19D
330
1F
100
AcDbEntity
  8
0-5
  6
Continuous
 62
     7
370
     9
100
AcDbLine
 10
-182.1106073537287
 20
-183.3856958535057
 30
0.0
 11
-449.0226048493979
 21
-183.3856958535057
 31
0.0
  0
LINE
  5
19E
330
1F
100
AcDbEntity
  8
0-5
  6
Continuous
 62
     7
370
     9
100
AcDbLine
 10
-47.00924110605836
 20
-417.3881263664413
 30
0.0
 11
-182.1106073537287
 21
-183.3856958535057
 31
0.0
  0
TEXT
  5
19F
330
1F
100
AcDbEntity
  8
0-5
  6
Continuous
 62
     7
370
     9
100
AcDbText
 10
486.4282961117941
 20
-290.9623944472357
 30
0.0
 40
22.86
  1
抜型本体
 41
1.125
  7
ＭＳ ゴシック
100
AcDbText
  0
TEXT
  5
1A0
330
1F
100
AcDbEntity
  8
0-5
  6
Continuous
 62
     7
370
     9
100
AcDbText
 10
444.0917528229794
 20
-335.0173923868187
 30
0.0
 40
22.86
  1
特殊発砲樹脂
 41
1.138888888888889
  7
ＭＳ ゴシック
100
AcDbText
  0
LINE
  5
1A1
330
1F
100
AcDbEntity
  8
0-5
  6
Continuous
 62
     7
370
     9
100
AcDbLine
 10
339.0305981524931
 20
-480.7217822097211
 30
0.0
 11
443.7398576099376
 21
-299.3600248065156
 31
0.0
  0
LINE
  5
1A2
330
1F
100
AcDbEntity
  8
0-5
  6
Continuous
 62
     7
370
     9
100
AcDbLine
 10
339.0305981524931
 20
-480.7217822097211
 30
0.0
 11
348.5976839616204
 21
-457.6247938969389
 31
0.0
  0
LINE
  5
1A3
330
1F
100
AcDbEntity
  8
0-5
  6
Continuous
 62
     7
370
     9
100
AcDbLine
 10
339.0305981524931
 20
-480.7217822097211
 30
0.0
 11
354.2496338777112
 21
-460.8879487024402
 31
0.0
  0
LINE
  5
1A4
330
1F
100
AcDbEntity
  8
0-5
  6
Continuous
 62
     7
370
     9
100
AcDbLine
 10
443.7398576099376
 20
-299.3600248065156
 30
0.0
 11
648.1393144197237
 21
-299.3600248065156
 31
0.0
  0
TEXT
  5
1A5
330
1F
100
AcDbEntity
  8
0-5
  6
Continuous
 62
     7
370
     9
100
AcDbText
 10
391.7280015182573
 20
-794.5036725587801
 30
0.0
 40
22.86
  1
リング
 41
1.111111111111111
  7
ＭＳ ゴシック
100
AcDbText
  0
LINE
  5
1A6
330
1F
100
AcDbEntity
  8
0-5
  6
Continuous
 62
     7
370
     9
100
AcDbLine
 10
268.825357434711
 20
-674.0556850474082
 30
0.0
 11
278.3924432438383
 21
-697.1526733601905
 31
0.0
  0
LINE
  5
1A7
330
1F
100
AcDbEntity
  8
0-5
  6
Continuous
 62
     7
370
     9
100
AcDbLine
 10
268.825357434711
 20
-674.0556850474082
 30
0.0
 11
284.044393159929
 21
-693.8895185546892
 31
0.0
  0
LINE
  5
1A8
330
1F
100
AcDbEntity
  8
0-5
  6
Continuous
 62
     7
370
     9
100
AcDbLine
 10
268.825357434711
 20
-674.0556850474082
 30
0.0
 11
345.1816178011811
 21
-806.3086074780921
 31
0.0
  0
LINE
  5
1A9
330
1F
100
AcDbEntity
  8
0-5
  6
Continuous
 62
     7
370
     9
100
AcDbLine
 10
345.1816178011811
 20
-806.3086074780921
 30
0.0
 11
556.9173471565548
 21
-806.3086074780921
 31
0.0
  0
TEXT
  5
1AA
330
1F
100
AcDbEntity
  8
0-5
  6
Continuous
 62
     7
370
     9
100
AcDbText
 10
349.1581175215592
 20
-846.1402757759479
 30
0.0
 40
22.86
  1
クロロプレン
 41
1.138888888888889
  7
ＭＳ ゴシック
100
AcDbText
  0
LINE
  5
1AB
330
1F
100
AcDbEntity
  8
0-5
  6
Continuous
 62
     7
370
     9
100
AcDbLine
 10
76.39056529044639
 20
-961.0555674349404
 30
0.0
 11
91.6096010156639
 21
-980.8894009422213
 31
0.0
  0
LINE
  5
1AC
330
1F
100
AcDbEntity
  8
0-5
  6
Continuous
 62
     7
370
     9
100
AcDbLine
 10
76.39056529044639
 20
-961.0555674349404
 30
0.0
 11
85.95765109957314
 21
-984.1525557477224
 31
0.0
  0
LINE
  5
1AD
330
1F
100
AcDbEntity
  8
0-5
  6
Continuous
 62
     7
370
     9
100
AcDbLine
 10
76.39056529044639
 20
-961.0555674349404
 30
0.0
 11
150.1614540801029
 21
-1088.830494938139
 31
0.0
  0
LINE
  5
1AE
330
1F
100
AcDbEntity
  8
0-5
  6
Continuous
 62
     7
370
     9
100
AcDbLine
 10
522.8670442398942
 20
-1088.830494938139
 30
0.0
 11
150.1614540801029
 21
-1088.830494938139
 31
0.0
  0
TEXT
  5
1AF
330
1F
100
AcDbEntity
  8
0-5
  6
Continuous
 62
     6
370
     9
100
AcDbText
 10
160.352767486898
 20
-1078.333171096233
 30
0.0
 40
19.05
  1
位置決めプレート：ＳＧＨＣ
 41
1.110769230769231
  7
ＭＳ ゴシック
100
AcDbText
  0
TEXT
  5
1B0
330
1F
100
AcDbEntity
  8
0-5
  6
Continuous
 62
     6
370
     9
100
AcDbText
 10
314.1921540296397
 20
-1128.632144291362
 30
0.0
 40
19.05
  1
（別途）
 41
1.090000000000003
  7
ＭＳ ゴシック
100
AcDbText
  0
LINE
  5
1B1
330
1F
100
AcDbEntity
  8
0-5
  6
Continuous
 62
     7
370
     9
100
AcDbLine
 10
227.0400268690082
 20
-917.4837368759606
 30
0.0
 11
592.9122656740225
 21
-917.4837368759606
 31
0.0
  0
TEXT
  5
1B2
330
1F
100
AcDbEntity
  8
0-5
  6
Continuous
 62
     6
370
     9
100
AcDbText
 10
233.6049325737844
 20
-910.1241267405273
 30
0.0
 40
19.05
  1
引き上げプレート：ＳＧＨＣ
 41
1.110769230769231
  7
ＭＳ ゴシック
100
AcDbText
  0
TEXT
  5
1B3
330
1F
100
AcDbEntity
  8
0-5
  6
Continuous
 62
     6
370
     9
100
AcDbText
 10
382.3540969905252
 20
-949.5028868651921
 30
0.0
 40
19.05
  1
（別途）
 41
1.089999999999998
  7
ＭＳ ゴシック
100
AcDbText
  0
LINE
  5
1B4
330
1F
100
AcDbEntity
  8
0-5
  6
Continuous
 62
     7
370
     9
100
AcDbLine
 10
104.0099773922799
 20
-704.3894403245532
 30
0.0
 11
113.5770632014067
 21
-727.4864286373354
 31
0.0
  0
LINE
  5
1B5
330
1F
100
AcDbEntity
  8
0-5
  6
Continuous
 62
     7
370
     9
100
AcDbLine
 10
104.0099773922799
 20
-704.3894403245532
 30
0.0
 11
119.2290131174974
 21
-724.2232738318341
 31
0.0
  0
LINE
  5
1B6
330
1F
100
AcDbEntity
  8
0-5
  6
Continuous
 62
     7
370
     9
100
AcDbLine
 10
104.0099773922799
 20
-704.3894403245532
 30
0.0
 11
227.0400268690082
 21
-917.4837368759606
 31
0.0
  0
LINE
  5
1B7
330
1F
100
AcDbEntity
  8
0-5
  6
Continuous
 62
     7
370
     9
100
AcDbLine
 10
-133.6749881955174
 20
-919.6873259866159
 30
0.0
 11
-181.7876821883382
 21
-1003.020728053233
 31
0.0
  0
LINE
  5
1B8
330
1F
100
AcDbEntity
  8
0-5
  6
Continuous
 62
     7
370
     9
100
AcDbLine
 10
-133.6749881955174
 20
-919.6873259866159
 30
0.0
 11
-148.8940219265137
 21
-939.5209886898465
 31
0.0
  0
LINE
  5
1B9
330
1F
100
AcDbEntity
  8
0-5
  6
Continuous
 62
     7
370
     9
100
AcDbLine
 10
-133.6749881955174
 20
-919.6873259866159
 30
0.0
 11
-143.2422489377049
 21
-942.7842250707586
 31
0.0
  0
LINE
  5
1BA
330
1F
100
AcDbEntity
  8
0-5
  6
Continuous
 62
     7
370
     9
100
AcDbLine
 10
-181.7876821883382
 20
-1003.020728053233
 30
0.0
 11
-638.2923151850937
 21
-1003.020728053233
 31
0.0
  0
TEXT
  5
1BB
330
1F
100
AcDbEntity
  8
0-5
  6
Continuous
 62
     6
370
     9
100
AcDbText
 10
-634.855372454962
 20
-994.2460376873314
 30
0.0
 40
19.05
  1
スペーサー：硬質ポリ塩化ビニル管
 41
1.1125
  7
ＭＳ ゴシック
100
AcDbText
  0
TEXT
  5
1BC
330
1F
100
AcDbEntity
  8
0-5
  6
Continuous
 62
     6
370
     9
100
AcDbText
 10
-459.6005164957378
 20
-1034.665949460153
 30
0.0
 40
19.05
  1
（別途）
 41
1.090000000000003
  7
ＭＳ ゴシック
100
AcDbText
  0
LINE
  5
1BD
330
1F
100
AcDbEntity
  8
0-5
  6
Continuous
 62
     7
370
     9
100
AcDbLine
 10
-247.0078580701352
 20
-680.7221350078493
 30
0.0
 11
-304.6569817705682
 21
-780.5733462688227
 31
0.0
  0
LINE
  5
1BE
330
1F
100
AcDbEntity
  8
0-5
  6
Continuous
 62
     7
370
     9
100
AcDbLine
 10
-247.0078580701352
 20
-680.7221350078493
 30
0.0
 11
-256.5749438792625
 21
-703.8191233206314
 31
0.0
  0
LINE
  5
1BF
330
1F
100
AcDbEntity
  8
0-5
  6
Continuous
 62
     7
370
     9
100
AcDbLine
 10
-247.0078580701352
 20
-680.7221350078493
 30
0.0
 11
-262.2268937953532
 21
-700.5559685151302
 31
0.0
  0
LINE
  5
1C0
330
1F
100
AcDbEntity
  8
0-5
  6
Continuous
 62
     7
370
     9
100
AcDbLine
 10
-304.6569817705682
 20
-780.5733462688227
 30
0.0
 11
-565.4298522956026
 21
-780.5733462688227
 31
0.0
  0
TEXT
  5
1C1
330
1F
100
AcDbEntity
  8
0-5
  6
Continuous
 62
     6
370
     9
100
AcDbText
 10
-556.8662978513623
 20
-769.3751060232332
 30
0.0
 40
19.05
  1
ルーフドレイン本体
 41
1.106666666666666
  7
ＭＳ ゴシック
100
AcDbText
  0
TEXT
  5
1C2
330
1F
100
AcDbEntity
  8
0-5
  6
Continuous
 62
     6
370
     9
100
AcDbText
 10
-472.9641354467401
 20
-815.0536396384202
 30
0.0
 40
19.05
  1
（別途）
 41
1.089999999999998
  7
ＭＳ ゴシック
100
AcDbText
  0
LINE
  5
1C3
330
1F
100
AcDbEntity
  8
0-4
  6
Continuous
 62
     7
370
     9
100
AcDbLine
 10
629.4136680004376
 20
-647.3885639555436
 30
0.0
 11
629.4136680004376
 21
-480.7217822097211
 31
0.0
  0
LINE
  5
1C4
330
1F
100
AcDbEntity
  8
0-4
  6
Continuous
 62
     7
370
     9
100
AcDbLine
 10
629.4136680004376
 20
-647.3885639555436
 30
0.0
 11
626.1505131949364
 21
-622.6024424211984
 31
0.0
  0
LINE
  5
1C5
330
1F
100
AcDbEntity
  8
0-4
  6
Continuous
 62
     7
370
     9
100
AcDbLine
 10
629.4136680004376
 20
-647.3885639555436
 30
0.0
 11
632.676822805939
 21
-622.6024424211984
 31
0.0
  0
LINE
  5
1C6
330
1F
100
AcDbEntity
  8
0-4
  6
Continuous
 62
     7
370
     9
100
AcDbLine
 10
629.4136680004376
 20
-480.7217822097211
 30
0.0
 11
626.1505131949364
 21
-505.5079037440664
 31
0.0
  0
LINE
  5
1C7
330
1F
100
AcDbEntity
  8
0-4
  6
Continuous
 62
     7
370
     9
100
AcDbLine
 10
629.4136680004376
 20
-480.7217822097211
 30
0.0
 11
632.676822805939
 21
-505.5079037440664
 31
0.0
  0
LINE
  5
1C8
330
1F
100
AcDbEntity
  8
0-4
  6
Continuous
 62
     7
370
     9
100
AcDbLine
 10
632.4136680004376
 20
-647.3885639555436
 30
0.0
 11
461.3231461867713
 21
-647.3885639555436
 31
0.0
  0
LINE
  5
1C9
330
1F
100
AcDbEntity
  8
0-4
  6
Continuous
 62
     7
370
     9
100
AcDbLine
 10
632.4136680004376
 20
-480.7217822097211
 30
0.0
 11
502.9907499826709
 21
-480.7217822097211
 31
0.0
  0
TEXT
  5
1CA
330
1F
100
AcDbEntity
  8
0-4
  6
Continuous
 62
     2
370
   211
100
AcDbText
 10
613.7736680004376
 20
-585.3051730826325
 30
0.0
 40
30.48
  1
50
 50
90.0
 41
1.0625
  7
ＭＳ ゴシック
100
AcDbText
  0
TEXT
  5
1CB
330
1F
100
AcDbEntity
  8
F-4
  6
Continuous
 62
     2
370
     0
100
AcDbText
 10
-606.3910823449612
 20
-1348.094557508731
 30
0.0
 40
30.48
  1
複数回使用抜型　ＢＷ５０Ｅ－５０
 41
1.1171875
  7
ＭＳ ゴシック
100
AcDbText
  0
LINE
  5
1CC
330
1F
100
AcDbEntity
  8
0-4
  6
Continuous
 62
     7
370
     9
100
AcDbLine
 10
-250.3413720738166
 20
-331.8585950197228
 30
0.0
 11
249.6586428511264
 21
-331.8585950197228
 31
0.0
  0
LINE
  5
1CD
330
1F
100
AcDbEntity
  8
0-4
  6
Continuous
 62
     7
370
     9
100
AcDbLine
 10
-250.3413720738166
 20
-331.8585950197228
 30
0.0
 11
-225.5552505394714
 21
-328.5954402142215
 31
0.0
  0
LINE
  5
1CE
330
1F
100
AcDbEntity
  8
0-4
  6
Continuous
 62
     7
370
     9
100
AcDbLine
 10
-250.3413720738166
 20
-331.8585950197228
 30
0.0
 11
-225.5552505394714
 21
-335.121749825224
 31
0.0
  0
LINE
  5
1CF
330
1F
100
AcDbEntity
  8
0-4
  6
Continuous
 62
     7
370
     9
100
AcDbLine
 10
249.6586428511264
 20
-331.8585950197228
 30
0.0
 11
224.8725213167812
 21
-328.5954402142215
 31
0.0
  0
LINE
  5
1D0
330
1F
100
AcDbEntity
  8
0-4
  6
Continuous
 62
     7
370
     9
100
AcDbLine
 10
249.6586428511264
 20
-331.8585950197228
 30
0.0
 11
224.8725213167812
 21
-335.121749825224
 31
0.0
  0
LINE
  5
1D1
330
1F
100
AcDbEntity
  8
0-4
  6
Continuous
 62
     7
370
     9
100
AcDbLine
 10
-250.3413720738166
 20
-328.8585950197228
 30
0.0
 11
-250.3413720738166
 21
-657.388868738563
 31
0.0
  0
LINE
  5
1D2
330
1F
100
AcDbEntity
  8
0-4
  6
Continuous
 62
     7
370
     9
100
AcDbLine
 10
249.6586428511264
 20
-328.8585950197228
 30
0.0
 11
249.6586428511264
 21
-657.388868738563
 31
0.0
  0
TEXT
  5
1D3
330
1F
100
AcDbEntity
  8
0-4
  6
Continuous
 62
     2
370
   211
100
AcDbText
 10
-82.28604833503243
 20
-316.2185950197228
 30
0.0
 40
30.48
  1
φ150
 41
1.1
  7
ＭＳ ゴシック
100
AcDbText
  0
ENDSEC
  0
SECTION
  2
OBJECTS
  0
DICTIONARY
  5
C
330
0
100
AcDbDictionary
281
     1
  3
ACAD_GROUP
350
D
  3
ACAD_LAYOUT
350
1A
  3
ACAD_MLEADERSTYLE
350
1D5
  3
ACAD_MLINESTYLE
350
17
  3
ACAD_PLOTSETTINGS
350
19
  3
ACAD_PLOTSTYLENAME
350
E
  3
ACAD_TABLESTYLE
350
1D4
  3
ACAD_VISUALSTYLE
350
2A
  3
AcDbVariableDictionary
350
1D6
  0
DICTIONARY
  5
D
102
{ACAD_REACTORS
330
C
102
}
330
C
100
AcDbDictionary
281
     1
  0
DICTIONARY
  5
1A
102
{ACAD_REACTORS
330
C
102
}
330
C
100
AcDbDictionary
281
     1
  3
Layout1
350
1E
  3
Layout2
350
26
  3
Model
350
22
  0
DICTIONARY
  5
1D5
102
{ACAD_REACTORS
330
C
102
}
330
C
100
AcDbDictionary
281
     1
  0
DICTIONARY
  5
17
102
{ACAD_REACTORS
330
C
102
}
330
C
100
AcDbDictionary
281
     1
  3
Standard
350
18
  0
DICTIONARY
  5
19
102
{ACAD_REACTORS
330
C
102
}
330
C
100
AcDbDictionary
281
     1
  0
ACDBDICTIONARYWDFLT
  5
E
102
{ACAD_REACTORS
330
C
102
}
330
C
100
AcDbDictionary
281
     1
  3
Normal
350
F
100
AcDbDictionaryWithDefault
340
F
  0
DICTIONARY
  5
1D4
102
{ACAD_REACTORS
330
C
102
}
330
C
100
AcDbDictionary
281
     1
  0
DICTIONARY
  5
2A
102
{ACAD_REACTORS
330
C
102
}
330
C
100
AcDbDictionary
281
     1
  3
2dWireframe
350
2F
  3
3D Hidden
350
31
  3
3dWireframe
350
30
  3
Basic
350
32
  3
Brighten
350
36
  3
ColorChange
350
3A
  3
Conceptual
350
34
  3
Dim
350
35
  3
Facepattern
350
39
  3
Flat
350
2B
  3
FlatWithEdges
350
2C
  3
Gouraud
350
2D
  3
GouraudWithEdges
350
2E
  3
Linepattern
350
38
  3
Realistic
350
33
  3
Thicken
350
37
  0
DICTIONARY
  5
1D6
102
{ACAD_REACTORS
330
C
102
}
330
C
100
AcDbDictionary
281
     1
  3
PSOLHEIGHT
350
1D8
  3
PSOLWIDTH
350
1D7
  0
LAYOUT
  5
1E
102
{ACAD_REACTORS
330
1A
102
}
102
{ACAD_XDICTIONARY
360
1D9
102
}
330
1A
100
AcDbPlotSettings
  1

  2
none_device
  4

  6

 40
0.0
 41
0.0
 42
0.0
 43
0.0
 44
0.0
 45
0.0
 46
0.0
 47
0.0
 48
0.0
 49
0.0
140
0.0
141
0.0
142
1.0
143
1.0
 70
   688
 72
     0
 73
     0
 74
     5
  7

 75
    16
147
1.0
148
0.0
149
0.0
100
AcDbLayout
  1
Layout1
 70
     1
 71
     1
 10
0.0
 20
0.0
 11
420.0
 21
297.0
 12
0.0
 22
0.0
 32
0.0
 14
1.000000000000000E+20
 24
1.000000000000000E+20
 34
1.000000000000000E+20
 15
-1.000000000000000E+20
 25
-1.000000000000000E+20
 35
-1.000000000000000E+20
146
0.0
 13
0.0
 23
0.0
 33
0.0
 16
1.0
 26
0.0
 36
0.0
 17
0.0
 27
1.0
 37
0.0
 76
     0
330
1B
  0
LAYOUT
  5
26
102
{ACAD_REACTORS
330
1A
102
}
102
{ACAD_XDICTIONARY
360
1DD
102
}
330
1A
100
AcDbPlotSettings
  1

  2
none_device
  4

  6

 40
0.0
 41
0.0
 42
0.0
 43
0.0
 44
0.0
 45
0.0
 46
0.0
 47
0.0
 48
0.0
 49
0.0
140
0.0
141
0.0
142
1.0
143
1.0
 70
   688
 72
     0
 73
     0
 74
     5
  7

 75
    16
147
1.0
148
0.0
149
0.0
100
AcDbLayout
  1
Layout2
 70
     1
 71
     2
 10
0.0
 20
0.0
 11
0.0
 21
0.0
 12
0.0
 22
0.0
 32
0.0
 14
0.0
 24
0.0
 34
0.0
 15
0.0
 25
0.0
 35
0.0
146
0.0
 13
0.0
 23
0.0
 33
0.0
 16
1.0
 26
0.0
 36
0.0
 17
0.0
 27
1.0
 37
0.0
 76
     0
330
23
  0
LAYOUT
  5
22
102
{ACAD_REACTORS
330
1A
102
}
102
{ACAD_XDICTIONARY
360
1DB
102
}
330
1A
100
AcDbPlotSettings
  1

  2
none_device
  4

  6

 40
0.0
 41
0.0
 42
0.0
 43
0.0
 44
0.0
 45
0.0
 46
0.0
 47
0.0
 48
0.0
 49
0.0
140
0.0
141
0.0
142
1.0
143
1.0
 70
  1712
 72
     0
 73
     0
 74
     0
  7

 75
     0
147
1.0
148
0.0
149
0.0
100
AcDbLayout
  1
Model
 70
     1
 71
     0
 10
-2100.0
 20
-1485.0
 11
2100.0
 21
1485.0
 12
0.0
 22
0.0
 32
0.0
 14
-2100.0
 24
-1485.0
 34
0.0
 15
2100.0
 25
1485.0
 35
0.0
146
0.0
 13
0.0
 23
0.0
 33
0.0
 16
1.0
 26
0.0
 36
0.0
 17
0.0
 27
1.0
 37
0.0
 76
     0
330
1F
331
29
  0
MLINESTYLE
  5
18
102
{ACAD_REACTORS
330
17
102
}
330
17
100
AcDbMlineStyle
  2
Standard
 70
     0
  3

 62
   256
 51
90.0
 52
90.0
 71
     2
 49
0.5
 62
   256
  6
BYLAYER
 49
-0.5
 62
   256
  6
BYLAYER
  0
ACDBPLACEHOLDER
  5
F
102
{ACAD_REACTORS
330
E
102
}
330
E
  0
VISUALSTYLE
  5
2F
102
{ACAD_REACTORS
330
2A
102
}
330
2A
100
AcDbVisualStyle
  2
2dWireframe
 70
     4
 71
     0
 72
     2
 73
     0
 90
        0
 40
-0.6
 41
-30.0
 62
     5
 63
     7
 74
     1
 91
        4
 64
     7
 65
   257
 75
     1
175
     1
 42
1.0
 92
        0
 66
   257
 43
1.0
 76
     1
 77
     6
 78
     2
 67
     7
 79
     5
170
     0
171
     0
290
     0
174
     0
 93
        1
 44
0.0
173
     0
291
     0
 45
0.0
1001
ACAD
1000
AcDbSavedByObjectVersion
1070
     0
  0
VISUALSTYLE
  5
31
102
{ACAD_REACTORS
330
2A
102
}
330
2A
100
AcDbVisualStyle
  2
3D Hidden
 70
     6
 71
     1
 72
     2
 73
     2
 90
        0
 40
-0.6
 41
-30.0
 62
     5
 63
     7
 74
     2
 91
        2
 64
     7
 65
   257
 75
     2
175
     1
 42
40.0
 92
        0
 66
   257
 43
1.0
 76
     1
 77
     6
 78
     2
 67
     7
 79
     3
170
     0
171
     0
290
     0
174
     0
 93
        1
 44
0.0
173
     0
291
     0
 45
0.0
1001
ACAD
1000
AcDbSavedByObjectVersion
1070
     0
  0
VISUALSTYLE
  5
30
102
{ACAD_REACTORS
330
2A
102
}
330
2A
100
AcDbVisualStyle
  2
3dWireframe
 70
     5
 71
     0
 72
     2
 73
     0
 90
        0
 40
-0.6
 41
-30.0
 62
     5
 63
     7
 74
     1
 91
        4
 64
     7
 65
   257
 75
     1
175
     1
 42
1.0
 92
        0
 66
   257
 43
1.0
 76
     1
 77
     6
 78
     2
 67
     7
 79
     5
170
     0
171
     0
290
     0
174
     0
 93
        1
 44
0.0
173
     0
291
     0
 45
0.0
1001
ACAD
1000
AcDbSavedByObjectVersion
1070
     0
  0
VISUALSTYLE
  5
32
102
{ACAD_REACTORS
330
2A
102
}
330
2A
100
AcDbVisualStyle
  2
Basic
 70
     7
 71
     1
 72
     0
 73
     1
 90
        0
 40
-0.6
 41
-30.0
 62
     5
 63
     7
 74
     0
 91
        4
 64
     7
 65
   257
 75
     1
175
     1
 42
1.0
 92
        8
 66
     7
 43
1.0
 76
     1
 77
     6
 78
     2
 67
     7
 79
     5
170
     0
171
     0
290
     0
174
     0
 93
        1
 44
0.0
173
     0
291
     1
 45
0.0
1001
ACAD
1000
AcDbSavedByObjectVersion
1070
     0
  0
VISUALSTYLE
  5
36
102
{ACAD_REACTORS
330
2A
102
}
330
2A
100
AcDbVisualStyle
  2
Brighten
 70
    12
 71
     2
 72
     2
 73
     0
 90
        0
 40
-0.6
 41
-30.0
 62
     5
 63
     7
 74
     1
 91
        4
 64
     7
 65
   257
 75
     1
175
     1
 42
1.0
 92
        8
 66
     7
 43
1.0
 76
     1
 77
     6
 78
     2
 67
     7
 79
     5
170
     0
171
     0
290
     0
174
     0
 93
        1
 44
50.0
173
     0
291
     1
 45
0.0
1001
ACAD
1000
AcDbSavedByObjectVersion
1070
     0
  0
VISUALSTYLE
  5
3A
102
{ACAD_REACTORS
330
2A
102
}
330
2A
100
AcDbVisualStyle
  2
ColorChange
 70
    16
 71
     2
 72
     2
 73
     3
 90
        0
 40
-0.6
 41
-30.0
 62
     5
 63
     8
 74
     1
 91
        4
 64
     7
 65
   257
 75
     1
175
     1
 42
1.0
 92
        8
 66
     8
 43
1.0
 76
     1
 77
     6
 78
     2
 67
     7
 79
     5
170
     0
171
     0
290
     0
174
     0
 93
        1
 44
0.0
173
     0
291
     1
 45
0.0
1001
ACAD
1000
AcDbSavedByObjectVersion
1070
     0
  0
VISUALSTYLE
  5
34
102
{ACAD_REACTORS
330
2A
102
}
330
2A
100
AcDbVisualStyle
  2
Conceptual
 70
     9
 71
     3
 72
     2
 73
     0
 90
        0
 40
-0.6
 41
-30.0
 62
     5
 63
     7
 74
     2
 91
        2
 64
     7
 65
   257
 75
     1
175
     1
 42
40.0
 92
        8
 66
     7
 43
1.0
 76
     1
 77
     6
 78
     2
 67
     7
 79
     3
170
     0
171
     0
290
     0
174
     0
 93
        1
 44
0.0
173
     0
291
     0
 45
0.0
1001
ACAD
1000
AcDbSavedByObjectVersion
1070
     0
  0
VISUALSTYLE
  5
35
102
{ACAD_REACTORS
330
2A
102
}
330
2A
100
AcDbVisualStyle
  2
Dim
 70
    11
 71
     2
 72
     2
 73
     0
 90
        0
 40
-0.6
 41
-30.0
 62
     5
 63
     7
 74
     1
 91
        4
 64
     7
 65
   257
 75
     1
175
     1
 42
1.0
 92
        8
 66
     7
 43
1.0
 76
     1
 77
     6
 78
     2
 67
     7
 79
     5
170
     0
171
     0
290
     0
174
     0
 93
        1
 44
-50.0
173
     0
291
     1
 45
0.0
1001
ACAD
1000
AcDbSavedByObjectVersion
1070
     0
  0
VISUALSTYLE
  5
39
102
{ACAD_REACTORS
330
2A
102
}
330
2A
100
AcDbVisualStyle
  2
Facepattern
 70
    15
 71
     2
 72
     2
 73
     0
 90
        0
 40
-0.6
 41
-30.0
 62
     5
 63
     7
 74
     1
 91
        4
 64
     7
 65
   257
 75
     1
175
     1
 42
1.0
 92
        8
 66
     7
 43
1.0
 76
     1
 77
     6
 78
     2
 67
     7
 79
     5
170
     0
171
     0
290
     0
174
     0
 93
        1
 44
0.0
173
     0
291
     1
 45
0.0
1001
ACAD
1000
AcDbSavedByObjectVersion
1070
     0
  0
VISUALSTYLE
  5
2B
102
{ACAD_REACTORS
330
2A
102
}
330
2A
100
AcDbVisualStyle
  2
Flat
 70
     0
 71
     2
 72
     1
 73
     1
 90
        2
 40
-0.6
 41
30.0
 62
     5
 63
     7
 74
     0
 91
        4
 64
     7
 65
   257
 75
     1
175
     1
 42
1.0
 92
        8
 66
     7
 43
1.0
 76
     1
 77
     6
 78
     2
 67
     7
 79
     5
170
     0
171
     0
290
     0
174
     0
 93
       13
 44
0.0
173
     0
291
     1
 45
0.0
1001
ACAD
1000
AcDbSavedByObjectVersion
1070
     0
  0
VISUALSTYLE
  5
2C
102
{ACAD_REACTORS
330
2A
102
}
330
2A
100
AcDbVisualStyle
  2
FlatWithEdges
 70
     1
 71
     2
 72
     1
 73
     1
 90
        2
 40
-0.6
 41
30.0
 62
     5
 63
     7
 74
     1
 91
        4
 64
     7
 65
   257
 75
     1
175
     1
 42
1.0
 92
        0
 66
   257
 43
1.0
 76
     1
 77
     6
 78
     2
 67
     7
 79
     5
170
     0
171
     0
290
     0
174
     0
 93
       13
 44
0.0
173
     0
291
     1
 45
0.0
1001
ACAD
1000
AcDbSavedByObjectVersion
1070
     0
  0
VISUALSTYLE
  5
2D
102
{ACAD_REACTORS
330
2A
102
}
330
2A
100
AcDbVisualStyle
  2
Gouraud
 70
     2
 71
     2
 72
     2
 73
     1
 90
        2
 40
-0.6
 41
30.0
 62
     5
 63
     7
 74
     0
 91
        4
 64
     7
 65
   257
 75
     1
175
     1
 42
1.0
 92
        0
 66
     7
 43
1.0
 76
     1
 77
     6
 78
     2
 67
     7
 79
     5
170
     0
171
     0
290
     0
174
     0
 93
       13
 44
0.0
173
     0
291
     1
 45
0.0
1001
ACAD
1000
AcDbSavedByObjectVersion
1070
     0
  0
VISUALSTYLE
  5
2E
102
{ACAD_REACTORS
330
2A
102
}
330
2A
100
AcDbVisualStyle
  2
GouraudWithEdges
 70
     3
 71
     2
 72
     2
 73
     1
 90
        2
 40
-0.6
 41
30.0
 62
     5
 63
     7
 74
     1
 91
        4
 64
     7
 65
   257
 75
     1
175
     1
 42
1.0
 92
        0
 66
   257
 43
1.0
 76
     1
 77
     6
 78
     2
 67
     7
 79
     5
170
     0
171
     0
290
     0
174
     0
 93
       13
 44
0.0
173
     0
291
     1
 45
0.0
1001
ACAD
1000
AcDbSavedByObjectVersion
1070
     0
  0
VISUALSTYLE
  5
38
102
{ACAD_REACTORS
330
2A
102
}
330
2A
100
AcDbVisualStyle
  2
Linepattern
 70
    14
 71
     2
 72
     2
 73
     0
 90
        0
 40
-0.6
 41
-30.0
 62
     5
 63
     7
 74
     1
 91
        4
 64
     7
 65
   257
 75
     7
175
     7
 42
1.0
 92
        8
 66
     7
 43
1.0
 76
     1
 77
     6
 78
     2
 67
     7
 79
     5
170
     0
171
     0
290
     0
174
     0
 93
        1
 44
0.0
173
     0
291
     1
 45
0.0
1001
ACAD
1000
AcDbSavedByObjectVersion
1070
     0
  0
VISUALSTYLE
  5
33
102
{ACAD_REACTORS
330
2A
102
}
330
2A
100
AcDbVisualStyle
  2
Realistic
 70
     8
 71
     2
 72
     2
 73
     0
 90
        0
 40
-0.6
 41
-30.0
 62
     5
 63
     7
 74
     1
 91
        0
 64
     7
 65
   257
 75
     1
175
     1
 42
1.0
 92
        8
 66
     8
 43
1.0
 76
     1
 77
     6
 78
     2
 67
     7
 79
     5
170
     0
171
     0
290
     0
174
     0
 93
       13
 44
0.0
173
     0
291
     0
 45
0.0
1001
ACAD
1000
AcDbSavedByObjectVersion
1070
     0
  0
VISUALSTYLE
  5
37
102
{ACAD_REACTORS
330
2A
102
}
330
2A
100
AcDbVisualStyle
  2
Thicken
 70
    13
 71
     2
 72
     2
 73
     0
 90
        0
 40
-0.6
 41
-30.0
 62
     5
 63
     7
 74
     1
 91
        4
 64
     7
 65
   257
 75
     1
175
     1
 42
1.0
 92
       12
 66
     7
 43
1.0
 76
     1
 77
     6
 78
     2
 67
     7
 79
     5
170
     0
171
     0
290
     0
174
     0
 93
        1
 44
0.0
173
     0
291
     1
 45
0.0
1001
ACAD
1000
AcDbSavedByObjectVersion
1070
     0
  0
DICTIONARYVAR
  5
1D8
102
{ACAD_REACTORS
330
1D6
102
}
330
1D6
100
DictionaryVariables
280
     0
  1
80.000000
  0
DICTIONARYVAR
  5
1D7
102
{ACAD_REACTORS
330
1D6
102
}
330
1D6
100
DictionaryVariables
280
     0
  1
5.000000
  0
DICTIONARY
  5
1D9
330
1E
100
AcDbDictionary
280
     1
281
     1
  3
ACAD_XREC_ROUNDTRIP
360
1DA
  0
DICTIONARY
  5
1DD
330
26
100
AcDbDictionary
280
     1
281
     1
  3
ACAD_XREC_ROUNDTRIP
360
1DE
  0
DICTIONARY
  5
1DB
330
22
100
AcDbDictionary
280
     1
281
     1
  3
ACAD_XREC_ROUNDTRIP
360
1DC
  0
XRECORD
  5
1DA
102
{ACAD_REACTORS
330
1D9
102
}
330
1D9
100
AcDbXrecord
280
     1
102
SHADEPLOT
 70
     0
102
SHADEPLOTRESLEVEL
 70
     5
102
SHADEPLOTCUSTOMDPI
 70
   300
  0
XRECORD
  5
1DE
102
{ACAD_REACTORS
330
1DD
102
}
330
1DD
100
AcDbXrecord
280
     1
102
SHADEPLOT
 70
     0
102
SHADEPLOTRESLEVEL
 70
     5
102
SHADEPLOTCUSTOMDPI
 70
   300
  0
XRECORD
  5
1DC
102
{ACAD_REACTORS
330
1DB
102
}
330
1DB
100
AcDbXrecord
280
     1
102
SHADEPLOT
 70
     0
102
SHADEPLOTRESLEVEL
 70
     5
102
SHADEPLOTCUSTOMDPI
 70
   300
  0
ENDSEC
  0
EOF
