  0
SECTION
  2
HEADER
  9
$ACADVER
  1
AC1015
  9
$ACADMAINTVER
 70
     6
  9
$DWGCODEPAGE
  3
ANSI_932
  9
$INSBASE
 10
0.0
 20
0.0
 30
0.0
  9
$EXTMIN
 10
-2100.0
 20
-1485.0
 30
0.0
  9
$EXTMAX
 10
2100.0
 20
1485.0
 30
0.0
  9
$LIMMIN
 10
-2100.0
 20
-1485.0
  9
$LIMMAX
 10
2100.0
 20
1485.0
  9
$ORTHOMODE
 70
     0
  9
$REGENMODE
 70
     1
  9
$FILLMODE
 70
     1
  9
$QTEXTMODE
 70
     0
  9
$MIRRTEXT
 70
     1
  9
$LTSCALE
 40
10.0
  9
$ATTMODE
 70
     1
  9
$TEXTSIZE
 40
2.5
  9
$TRACEWID
 40
1.0
  9
$TEXTSTYLE
  7
Standard
  9
$CLAYER
  8
0
  9
$CELTYPE
  6
ByLayer
  9
$CECOLOR
 62
   256
  9
$CELTSCALE
 40
1.0
  9
$DISPSILH
 70
     0
  9
$DIMSCALE
 40
1.0
  9
$DIMASZ
 40
2.5
  9
$DIMEXO
 40
0.625
  9
$DIMDLI
 40
3.75
  9
$DIMRND
 40
0.0
  9
$DIMDLE
 40
0.0
  9
$DIMEXE
 40
1.25
  9
$DIMTP
 40
0.0
  9
$DIMTM
 40
0.0
  9
$DIMTXT
 40
2.5
  9
$DIMCEN
 40
2.5
  9
$DIMTSZ
 40
0.0
  9
$DIMTOL
 70
     0
  9
$DIMLIM
 70
     0
  9
$DIMTIH
 70
     0
  9
$DIMTOH
 70
     0
  9
$DIMSE1
 70
     0
  9
$DIMSE2
 70
     0
  9
$DIMTAD
 70
     1
  9
$DIMZIN
 70
     8
  9
$DIMBLK
  1

  9
$DIMASO
 70
     1
  9
$DIMSHO
 70
     1
  9
$DIMPOST
  1

  9
$DIMAPOST
  1

  9
$DIMALT
 70
     0
  9
$DIMALTD
 70
     3
  9
$DIMALTF
 40
0.03937007874016
  9
$DIMLFAC
 40
1.0
  9
$DIMTOFL
 70
     1
  9
$DIMTVP
 40
0.0
  9
$DIMTIX
 70
     0
  9
$DIMSOXD
 70
     0
  9
$DIMSAH
 70
     0
  9
$DIMBLK1
  1

  9
$DIMBLK2
  1

  9
$DIMSTYLE
  2
ISO-25
  9
$DIMCLRD
 70
     0
  9
$DIMCLRE
 70
     0
  9
$DIMCLRT
 70
     0
  9
$DIMTFAC
 40
1.0
  9
$DIMGAP
 40
0.625
  9
$DIMJUST
 70
     0
  9
$DIMSD1
 70
     0
  9
$DIMSD2
 70
     0
  9
$DIMTOLJ
 70
     0
  9
$DIMTZIN
 70
     8
  9
$DIMALTZ
 70
     0
  9
$DIMALTTZ
 70
     0
  9
$DIMUPT
 70
     0
  9
$DIMDEC
 70
     2
  9
$DIMTDEC
 70
     2
  9
$DIMALTU
 70
     2
  9
$DIMALTTD
 70
     3
  9
$DIMTXSTY
  7
Standard
  9
$DIMAUNIT
 70
     0
  9
$DIMADEC
 70
     0
  9
$DIMALTRND
 40
0.0
  9
$DIMAZIN
 70
     0
  9
$DIMDSEP
 70
    44
  9
$DIMATFIT
 70
     3
  9
$DIMFRAC
 70
     0
  9
$DIMLDRBLK
  1

  9
$DIMLUNIT
 70
     2
  9
$DIMLWD
 70
    -2
  9
$DIMLWE
 70
    -2
  9
$DIMTMOVE
 70
     0
  9
$LUNITS
 70
     2
  9
$LUPREC
 70
     4
  9
$SKETCHINC
 40
1.0
  9
$FILLETRAD
 40
10.0
  9
$AUNITS
 70
     0
  9
$AUPREC
 70
     0
  9
$MENU
  1
.
  9
$ELEVATION
 40
0.0
  9
$PELEVATION
 40
0.0
  9
$THICKNESS
 40
0.0
  9
$LIMCHECK
 70
     0
  9
$CHAMFERA
 40
10.0
  9
$CHAMFERB
 40
10.0
  9
$CHAMFERC
 40
20.0
  9
$CHAMFERD
 40
0.0
  9
$SKPOLY
 70
     0
  9
$TDCREATE
 40
2456898.435955417
  9
$TDUCREATE
 40
2456898.060955417
  9
$TDUPDATE
 40
2456898.435955428
  9
$TDUUPDATE
 40
2456898.060955428
  9
$TDINDWG
 40
0.0000000116
  9
$TDUSRTIMER
 40
0.0000000116
  9
$USRTIMER
 70
     1
  9
$ANGBASE
 50
0.0
  9
$ANGDIR
 70
     0
  9
$PDMODE
 70
     0
  9
$PDSIZE
 40
0.0
  9
$PLINEWID
 40
0.0
  9
$SPLFRAME
 70
     0
  9
$SPLINETYPE
 70
     6
  9
$SPLINESEGS
 70
     8
  9
$HANDSEED
  5
217
  9
$SURFTAB1
 70
     6
  9
$SURFTAB2
 70
     6
  9
$SURFTYPE
 70
     6
  9
$SURFU
 70
     6
  9
$SURFV
 70
     6
  9
$UCSBASE
  2

  9
$UCSNAME
  2

  9
$UCSORG
 10
0.0
 20
0.0
 30
0.0
  9
$UCSXDIR
 10
1.0
 20
0.0
 30
0.0
  9
$UCSYDIR
 10
0.0
 20
1.0
 30
0.0
  9
$UCSORTHOREF
  2

  9
$UCSORTHOVIEW
 70
     0
  9
$UCSORGTOP
 10
0.0
 20
0.0
 30
0.0
  9
$UCSORGBOTTOM
 10
0.0
 20
0.0
 30
0.0
  9
$UCSORGLEFT
 10
0.0
 20
0.0
 30
0.0
  9
$UCSORGRIGHT
 10
0.0
 20
0.0
 30
0.0
  9
$UCSORGFRONT
 10
0.0
 20
0.0
 30
0.0
  9
$UCSORGBACK
 10
0.0
 20
0.0
 30
0.0
  9
$PUCSBASE
  2

  9
$PUCSNAME
  2

  9
$PUCSORG
 10
0.0
 20
0.0
 30
0.0
  9
$PUCSXDIR
 10
1.0
 20
0.0
 30
0.0
  9
$PUCSYDIR
 10
0.0
 20
1.0
 30
0.0
  9
$PUCSORTHOREF
  2

  9
$PUCSORTHOVIEW
 70
     0
  9
$PUCSORGTOP
 10
0.0
 20
0.0
 30
0.0
  9
$PUCSORGBOTTOM
 10
0.0
 20
0.0
 30
0.0
  9
$PUCSORGLEFT
 10
0.0
 20
0.0
 30
0.0
  9
$PUCSORGRIGHT
 10
0.0
 20
0.0
 30
0.0
  9
$PUCSORGFRONT
 10
0.0
 20
0.0
 30
0.0
  9
$PUCSORGBACK
 10
0.0
 20
0.0
 30
0.0
  9
$USERI1
 70
     0
  9
$USERI2
 70
     0
  9
$USERI3
 70
     0
  9
$USERI4
 70
     0
  9
$USERI5
 70
     0
  9
$USERR1
 40
0.0
  9
$USERR2
 40
0.0
  9
$USERR3
 40
0.0
  9
$USERR4
 40
0.0
  9
$USERR5
 40
0.0
  9
$WORLDVIEW
 70
     1
  9
$SHADEDGE
 70
     3
  9
$SHADEDIF
 70
    70
  9
$TILEMODE
 70
     1
  9
$MAXACTVP
 70
    64
  9
$PINSBASE
 10
0.0
 20
0.0
 30
0.0
  9
$PLIMCHECK
 70
     0
  9
$PEXTMIN
 10
1.000000000000000E+20
 20
1.000000000000000E+20
 30
1.000000000000000E+20
  9
$PEXTMAX
 10
-1.000000000000000E+20
 20
-1.000000000000000E+20
 30
-1.000000000000000E+20
  9
$PLIMMIN
 10
0.0
 20
0.0
  9
$PLIMMAX
 10
420.0
 20
297.0
  9
$UNITMODE
 70
     0
  9
$VISRETAIN
 70
     1
  9
$PLINEGEN
 70
     0
  9
$PSLTSCALE
 70
     1
  9
$TREEDEPTH
 70
  3020
  9
$CMLSTYLE
  2
Standard
  9
$CMLJUST
 70
     0
  9
$CMLSCALE
 40
20.0
  9
$PROXYGRAPHICS
 70
     1
  9
$MEASUREMENT
 70
     1
  9
$CELWEIGHT
370
    -1
  9
$ENDCAPS
280
     0
  9
$JOINSTYLE
280
     0
  9
$LWDISPLAY
290
     0
  9
$INSUNITS
 70
     4
  9
$HYPERLINKBASE
  1

  9
$STYLESHEET
  1

  9
$XEDIT
290
     1
  9
$CEPSNTYPE
380
     0
  9
$PSTYLEMODE
290
     1
  9
$FINGERPRINTGUID
  2
{E46E1FBF-8EBC-423A-8CCF-EC96121879FA}
  9
$VERSIONGUID
  2
{FAEB1C32-E019-11D5-929B-00C0DF256EC4}
  9
$EXTNAMES
290
     1
  9
$PSVPSCALE
 40
0.0
  9
$OLESTARTUP
290
     0
  0
ENDSEC
  0
SECTION
  2
CLASSES
  0
CLASS
  1
ACDBDICTIONARYWDFLT
  2
AcDbDictionaryWithDefault
  3
ObjectDBX Classes
 90
        0
280
     0
281
     0
  0
CLASS
  1
VISUALSTYLE
  2
AcDbVisualStyle
  3
ObjectDBX Classes
 90
     4095
280
     0
281
     0
  0
CLASS
  1
DICTIONARYVAR
  2
AcDbDictionaryVar
  3
ObjectDBX Classes
 90
        0
280
     0
281
     0
  0
CLASS
  1
ACDBPLACEHOLDER
  2
AcDbPlaceHolder
  3
ObjectDBX Classes
 90
        0
280
     0
281
     0
  0
CLASS
  1
LAYOUT
  2
AcDbLayout
  3
ObjectDBX Classes
 90
        0
280
     0
281
     0
  0
ENDSEC
  0
SECTION
  2
TABLES
  0
TABLE
  2
VPORT
  5
8
330
0
100
AcDbSymbolTable
 70
     1
  0
VPORT
  5
29
330
8
100
AcDbSymbolTableRecord
100
AcDbViewportTableRecord
  2
*Active
 70
     0
 10
0.0
 20
0.0
 11
1.0
 21
1.0
 12
0.0
 22
0.0
 13
0.0
 23
0.0
 14
10.0
 24
10.0
 15
10.0
 25
10.0
 16
0.0
 26
0.0
 36
1.0
 17
0.0
 27
0.0
 37
0.0
 40
3267.0
 41
1.414141414141414
 42
50.0
 43
0.0
 44
0.0
 50
0.0
 51
0.0
 71
     0
 72
 10000
 73
     1
 74
     3
 75
     0
 76
     0
 77
     0
 78
     0
281
     0
 65
     1
110
0.0
120
0.0
130
0.0
111
1.0
121
0.0
131
0.0
112
0.0
122
1.0
132
0.0
 79
     0
146
0.0
  0
ENDTAB
  0
TABLE
  2
LTYPE
  5
5
330
0
100
AcDbSymbolTable
 70
     6
  0
LTYPE
  5
14
330
5
100
AcDbSymbolTableRecord
100
AcDbLinetypeTableRecord
  2
ByBlock
 70
     0
  3

 72
    65
 73
     0
 40
0.0
  0
LTYPE
  5
15
330
5
100
AcDbSymbolTableRecord
100
AcDbLinetypeTableRecord
  2
ByLayer
 70
     0
  3

 72
    65
 73
     0
 40
0.0
  0
LTYPE
  5
16
330
5
100
AcDbSymbolTableRecord
100
AcDbLinetypeTableRecord
  2
Continuous
 70
     0
  3
Solid line
 72
    65
 73
     0
 40
0.0
  0
LTYPE
  5
3C
330
5
100
AcDbSymbolTableRecord
100
AcDbLinetypeTableRecord
  2
JWW_CENTER1
 70
     0
  3
-----  --  ----------  --  -----
 72
    65
 73
     4
 40
6.773333333333333
 49
4.233333333333333
 74
     0
 49
-0.8466666666666667
 74
     0
 49
0.8466666666666667
 74
     0
 49
-0.8466666666666667
 74
     0
  0
LTYPE
  5
3D
330
5
100
AcDbSymbolTableRecord
100
AcDbLinetypeTableRecord
  2
JWW_CENTER2
 70
     0
  3
-------------  --  -------------
 72
    65
 73
     4
 40
13.54666666666667
 49
11.00666666666667
 74
     0
 49
-0.8466666666666667
 74
     0
 49
0.8466666666666667
 74
     0
 49
-0.8466666666666667
 74
     0
  0
LTYPE
  5
3E
330
5
100
AcDbSymbolTableRecord
100
AcDbLinetypeTableRecord
  2
JWW_HOJO
 70
     0
  3
  -   -   -   -   -   -   -   - 
 72
    65
 73
     2
 40
1.693333333333333
 49
-1.27
 74
     0
 49
0.4233333333333333
 74
     0
  0
LTYPE
  5
3F
330
5
100
AcDbSymbolTableRecord
100
AcDbLinetypeTableRecord
  2
JWW_PHANTOM2
 70
     0
  3
------------  -  -  ------------
 72
    65
 73
     6
 40
13.54666666666667
 49
10.16
 74
     0
 49
-0.8466666666666667
 74
     0
 49
0.4233333333333333
 74
     0
 49
-0.8466666666666667
 74
     0
 49
0.4233333333333333
 74
     0
 49
-0.8466666666666667
 74
     0
  0
LTYPE
  5
40
330
5
100
AcDbSymbolTableRecord
100
AcDbLinetypeTableRecord
  2
JWW_DASHED1
 70
     0
  3
-  --  --  --  --  --  --  --  -
 72
    65
 73
     2
 40
1.693333333333333
 49
0.8466666666666667
 74
     0
 49
-0.8466666666666667
 74
     0
  0
ENDTAB
  0
TABLE
  2
LAYER
  5
2
330
0
100
AcDbSymbolTable
 70
    14
  0
LAYER
  5
10
330
2
100
AcDbSymbolTableRecord
100
AcDbLayerTableRecord
  2
0
 70
     0
 62
     7
  6
Continuous
370
    -3
390
F
  0
LAYER
  5
41
330
2
100
AcDbSymbolTableRecord
100
AcDbLayerTableRecord
  2
0-F
 70
     0
 62
     7
  6
Continuous
370
    -3
390
F
  0
LAYER
  5
42
330
2
100
AcDbSymbolTableRecord
100
AcDbLayerTableRecord
  2
0-B
 70
     0
 62
     7
  6
Continuous
370
    -3
390
F
  0
LAYER
  5
43
330
2
100
AcDbSymbolTableRecord
100
AcDbLayerTableRecord
  2
0-1
 70
     0
 62
     7
  6
Continuous
370
    -3
390
F
  0
LAYER
  5
44
330
2
100
AcDbSymbolTableRecord
100
AcDbLayerTableRecord
  2
0-4
 70
     0
 62
     7
  6
Continuous
370
    -3
390
F
  0
LAYER
  5
45
330
2
100
AcDbSymbolTableRecord
100
AcDbLayerTableRecord
  2
0-D
 70
     0
 62
     7
  6
Continuous
370
    -3
390
F
  0
LAYER
  5
46
330
2
100
AcDbSymbolTableRecord
100
AcDbLayerTableRecord
  2
0-5
 70
     0
 62
     7
  6
Continuous
370
    -3
390
F
  0
LAYER
  5
47
330
2
100
AcDbSymbolTableRecord
100
AcDbLayerTableRecord
  2
0-C
 70
     0
 62
     7
  6
Continuous
370
    -3
390
F
  0
LAYER
  5
48
330
2
100
AcDbSymbolTableRecord
100
AcDbLayerTableRecord
  2
0-2
 70
     0
 62
     7
  6
Continuous
370
    -3
390
F
  0
LAYER
  5
49
330
2
100
AcDbSymbolTableRecord
100
AcDbLayerTableRecord
  2
0-3
 70
     0
 62
     7
  6
Continuous
370
    -3
390
F
  0
LAYER
  5
4A
330
2
100
AcDbSymbolTableRecord
100
AcDbLayerTableRecord
  2
0-0
 70
     0
 62
     7
  6
Continuous
370
    -3
390
F
  0
LAYER
  5
4B
330
2
100
AcDbSymbolTableRecord
100
AcDbLayerTableRecord
  2
0-9
 70
     0
 62
     7
  6
Continuous
370
    -3
390
F
  0
LAYER
  5
4C
330
2
100
AcDbSymbolTableRecord
100
AcDbLayerTableRecord
  2
0-8
 70
     0
 62
     7
  6
Continuous
370
    -3
390
F
  0
LAYER
  5
4D
330
2
100
AcDbSymbolTableRecord
100
AcDbLayerTableRecord
  2
F-4
 70
     0
 62
     7
  6
Continuous
370
    -3
390
F
  0
ENDTAB
  0
TABLE
  2
STYLE
  5
3
330
0
100
AcDbSymbolTable
 70
     2
  0
STYLE
  5
11
330
3
100
AcDbSymbolTableRecord
100
AcDbTextStyleTableRecord
  2
Standard
 70
     0
 40
0.0
 41
1.0
 50
0.0
 71
     0
 42
2.5
  3
txt
  4

1001
ACAD
1000

1071
        0
  0
STYLE
  5
3B
330
3
100
AcDbSymbolTableRecord
100
AcDbTextStyleTableRecord
  2
ＭＳ ゴシック
 70
     0
 40
1.0
 41
1.0
 50
0.0
 71
     0
 42
10.0
  3

  4

1001
ACAD
1000
MS Gothic
1071
    32817
  0
ENDTAB
  0
TABLE
  2
VIEW
  5
6
330
0
100
AcDbSymbolTable
 70
     0
  0
ENDTAB
  0
TABLE
  2
UCS
  5
7
330
0
100
AcDbSymbolTable
 70
     0
  0
ENDTAB
  0
TABLE
  2
APPID
  5
9
330
0
100
AcDbSymbolTable
 70
     1
  0
APPID
  5
12
330
9
100
AcDbSymbolTableRecord
100
AcDbRegAppTableRecord
  2
ACAD
 70
     0
  0
ENDTAB
  0
TABLE
  2
DIMSTYLE
  5
A
330
0
100
AcDbSymbolTable
 70
     1
100
AcDbDimStyleTable
  0
DIMSTYLE
105
27
330
A
100
AcDbSymbolTableRecord
100
AcDbDimStyleTableRecord
  2
ISO-25
 70
     0
 41
2.5
 42
0.625
 43
3.75
 44
1.25
 73
     0
 74
     0
 77
     1
 78
     8
140
2.5
141
2.5
143
0.03937007874016
147
0.625
171
     3
172
     1
271
     2
272
     2
274
     3
278
    44
283
     0
284
     8
340
11
  0
ENDTAB
  0
TABLE
  2
BLOCK_RECORD
  5
1
330
0
100
AcDbSymbolTable
 70
     1
  0
BLOCK_RECORD
  5
1F
330
1
100
AcDbSymbolTableRecord
100
AcDbBlockTableRecord
  2
*Model_Space
340
22
  0
BLOCK_RECORD
  5
1B
330
1
100
AcDbSymbolTableRecord
100
AcDbBlockTableRecord
  2
*Paper_Space
340
1E
  0
BLOCK_RECORD
  5
23
330
1
100
AcDbSymbolTableRecord
100
AcDbBlockTableRecord
  2
*Paper_Space0
340
26
  0
ENDTAB
  0
ENDSEC
  0
SECTION
  2
BLOCKS
  0
BLOCK
  5
20
330
1F
100
AcDbEntity
  8
0
100
AcDbBlockBegin
  2
*Model_Space
 70
     0
 10
0.0
 20
0.0
 30
0.0
  3
*Model_Space
  1

  0
ENDBLK
  5
21
330
1F
100
AcDbEntity
  8
0
100
AcDbBlockEnd
  0
BLOCK
  5
1C
330
1B
100
AcDbEntity
 67
     1
  8
0
100
AcDbBlockBegin
  2
*Paper_Space
 70
     0
 10
0.0
 20
0.0
 30
0.0
  3
*Paper_Space
  1

  0
ENDBLK
  5
1D
330
1B
100
AcDbEntity
 67
     1
  8
0
100
AcDbBlockEnd
  0
BLOCK
  5
24
330
23
100
AcDbEntity
  8
0
100
AcDbBlockBegin
  2
*Paper_Space0
 70
     0
 10
0.0
 20
0.0
 30
0.0
  3
*Paper_Space0
  1

  0
ENDBLK
  5
25
330
23
100
AcDbEntity
  8
0
100
AcDbBlockEnd
  0
ENDSEC
  0
SECTION
  2
ENTITIES
  0
LWPOLYLINE
  5
4E
330
1F
100
AcDbEntity
  8
0-F
  6
Continuous
 62
     7
370
     9
100
AcDbPolyline
 90
        4
 70
     1
 43
1.0
 10
13.49083812816747
 20
-622.1485735919023
 42
0.4142135623731
 10
12.99083812816747
 20
-621.6485735919024
 42
0.4142135623731
 10
12.49083812816747
 20
-622.1485735919023
 42
0.4142135623731
 10
12.99083812816747
 20
-622.6485735919023
 42
0.4142135623731
  0
LWPOLYLINE
  5
4F
330
1F
100
AcDbEntity
  8
0-F
  6
Continuous
 62
     7
370
     9
100
AcDbPolyline
 90
        4
 70
     1
 43
1.0
 10
0.1575432854731958
 20
678.4675721864443
 42
0.4142135623731
 10
-0.3424567145268043
 20
678.9675721864443
 42
0.4142135623731
 10
-0.8424567145268043
 20
678.4675721864443
 42
0.4142135623731
 10
-0.3424567145268043
 20
677.9675721864443
 42
0.4142135623731
  0
LINE
  5
50
330
1F
100
AcDbEntity
  8
0-B
  6
Continuous
 62
     2
370
     9
100
AcDbLine
 10
-28.58748073897004
 20
690.134210574274
 30
0.0
 11
-35.34237187801637
 21
690.134210574274
 31
0.0
  0
LINE
  5
51
330
1F
100
AcDbEntity
  8
0-B
  6
Continuous
 62
     2
370
     9
100
AcDbLine
 10
-35.34237187801637
 20
666.8009337986143
 30
0.0
 11
-28.58748073897004
 21
666.8009337986143
 31
0.0
  0
LINE
  5
52
330
1F
100
AcDbEntity
  8
0-B
  6
Continuous
 62
     2
370
     9
100
AcDbLine
 10
27.90256730991587
 20
690.134210574274
 30
0.0
 11
34.65745844896276
 21
690.134210574274
 31
0.0
  0
LINE
  5
53
330
1F
100
AcDbEntity
  8
0-B
  6
Continuous
 62
     2
370
     9
100
AcDbLine
 10
34.65745844896276
 20
666.8009337986143
 30
0.0
 11
27.90256730991587
 21
666.8009337986143
 31
0.0
  0
LINE
  5
54
330
1F
100
AcDbEntity
  8
0-B
  6
Continuous
 62
     2
370
     9
100
AcDbLine
 10
27.90256730991587
 20
686.1347865199178
 30
0.0
 11
34.65745844896276
 21
686.1347865199178
 31
0.0
  0
LINE
  5
55
330
1F
100
AcDbEntity
  8
0-B
  6
Continuous
 62
     2
370
     9
100
AcDbLine
 10
34.65745844896276
 20
670.8010184780198
 30
0.0
 11
27.90256730991587
 21
670.8010184780198
 31
0.0
  0
LINE
  5
56
330
1F
100
AcDbEntity
  8
0-B
  6
Continuous
 62
     2
370
     9
100
AcDbLine
 10
-35.34237187801637
 20
670.8010184780198
 30
0.0
 11
-28.58748073897004
 21
670.8010184780198
 31
0.0
  0
LINE
  5
57
330
1F
100
AcDbEntity
  8
0-B
  6
Continuous
 62
     2
370
     9
100
AcDbLine
 10
-28.58748073897004
 20
686.1347865199178
 30
0.0
 11
-35.34237187801637
 21
686.1347865199178
 31
0.0
  0
LINE
  5
58
330
1F
100
AcDbEntity
  8
0-1
  6
JWW_CENTER1
 62
     4
370
     9
100
AcDbLine
 10
540.3335638058536
 20
678.4675721864443
 30
0.0
 11
-541.0184772349083
 21
678.4675721864443
 31
0.0
  0
LINE
  5
59
330
1F
100
AcDbEntity
  8
0-4
  6
Continuous
 62
     6
370
     9
100
AcDbLine
 10
261.3648175763649
 20
726.1343120638774
 30
0.0
 11
-271.9683555102256
 21
726.1343120638774
 31
0.0
  0
LINE
  5
5A
330
1F
100
AcDbEntity
  8
0-4
  6
Continuous
 62
     6
370
     9
100
AcDbLine
 10
-271.9683555102256
 20
630.800832309011
 30
0.0
 11
-271.9683555102256
 21
726.1343120638774
 31
0.0
  0
LINE
  5
5B
330
1F
100
AcDbEntity
  8
0-4
  6
Continuous
 62
     6
370
     9
100
AcDbLine
 10
261.3648175763649
 20
630.800832309011
 30
0.0
 11
-271.9683555102256
 21
630.800832309011
 31
0.0
  0
LINE
  5
5C
330
1F
100
AcDbEntity
  8
0-4
  6
Continuous
 62
     6
370
     9
100
AcDbLine
 10
261.3648175763649
 20
630.800832309011
 30
0.0
 11
261.3648175763649
 21
726.1343120638774
 31
0.0
  0
LINE
  5
5D
330
1F
100
AcDbEntity
  8
0-D
  6
Continuous
 62
     2
370
     9
100
AcDbLine
 10
28.03171950724447
 20
645.1344140247949
 30
0.0
 11
28.03171950724447
 21
666.8009337986143
 31
0.0
  0
LINE
  5
5E
330
1F
100
AcDbEntity
  8
0-D
  6
Continuous
 62
     2
370
     9
100
AcDbLine
 10
28.03171950724447
 20
690.134210574274
 30
0.0
 11
28.03171950724447
 21
711.8007303480937
 31
0.0
  0
LINE
  5
5F
330
1F
100
AcDbEntity
  8
0-D
  6
Continuous
 62
     2
370
     9
100
AcDbLine
 10
261.3648175763649
 20
711.8007303480937
 30
0.0
 11
28.03171950724447
 21
711.8007303480937
 31
0.0
  0
LINE
  5
60
330
1F
100
AcDbEntity
  8
0-D
  6
Continuous
 62
     2
370
     9
100
AcDbLine
 10
261.3648175763649
 20
645.1344140247949
 30
0.0
 11
28.03171950724447
 21
645.1344140247949
 31
0.0
  0
LINE
  5
61
330
1F
100
AcDbEntity
  8
0-1
  6
Continuous
 62
     4
370
     9
100
AcDbLine
 10
482.990648817065
 20
678.4675721864443
 30
0.0
 11
482.990648817065
 21
195.1344666548521
 31
0.0
  0
LINE
  5
62
330
1F
100
AcDbEntity
  8
0-1
  6
Continuous
 62
     4
370
     9
100
AcDbLine
 10
-483.675892558644
 20
195.1344666548521
 30
0.0
 11
-483.675892558644
 21
1161.801338343085
 31
0.0
  0
LINE
  5
63
330
1F
100
AcDbEntity
  8
0-1
  6
Continuous
 62
     4
370
     9
100
AcDbLine
 10
-0.3424567145270885
 20
1161.801338343085
 30
0.0
 11
-483.675892558644
 21
1161.801338343085
 31
0.0
  0
LINE
  5
64
330
1F
100
AcDbEntity
  8
0-1
  6
Continuous
 62
     4
370
     9
100
AcDbLine
 10
482.990648817065
 20
195.1344666548521
 30
0.0
 11
-483.675892558644
 21
195.1344666548521
 31
0.0
  0
LINE
  5
65
330
1F
100
AcDbEntity
  8
0-1
  6
JWW_CENTER1
 62
     4
370
     9
100
AcDbLine
 10
-0.3424567145270885
 20
1220.983433471836
 30
0.0
 11
-0.3424567145270885
 21
119.5933134061796
 31
0.0
  0
LINE
  5
66
330
1F
100
AcDbEntity
  8
0-F
  6
Continuous
 62
     7
370
     9
100
AcDbLine
 10
-678.7396420904724
 20
195.1344666548521
 30
0.0
 11
-678.7396420904724
 21
678.4675721864443
 31
0.0
  0
LINE
  5
67
330
1F
100
AcDbEntity
  8
0-F
  6
Continuous
 62
     7
370
     9
100
AcDbLine
 10
-523.675748415128
 20
195.1344666548521
 30
0.0
 11
-682.739726769878
 21
195.1344666548521
 31
0.0
  0
LINE
  5
68
330
1F
100
AcDbEntity
  8
0-F
  6
Continuous
 62
     7
370
     9
100
AcDbLine
 10
-581.0186634039172
 20
678.4675721864443
 30
0.0
 11
-682.739726769878
 21
678.4675721864443
 31
0.0
  0
LINE
  5
69
330
1F
100
AcDbEntity
  8
0-F
  6
Continuous
 62
     7
370
     9
100
AcDbLine
 10
-678.7396420904724
 20
195.1344666548521
 30
0.0
 11
-683.9605618627837
 21
234.79244904782
 31
0.0
  0
LINE
  5
6A
330
1F
100
AcDbEntity
  8
0-F
  6
Continuous
 62
     7
370
     9
100
AcDbLine
 10
-678.7396420904724
 20
195.1344666548521
 30
0.0
 11
-673.5183920056352
 21
234.79244904782
 31
0.0
  0
LINE
  5
6B
330
1F
100
AcDbEntity
  8
0-F
  6
Continuous
 62
     7
370
     9
100
AcDbLine
 10
-678.7396420904724
 20
678.4675721864443
 30
0.0
 11
-683.9605618627837
 21
638.8102504185264
 31
0.0
  0
LINE
  5
6C
330
1F
100
AcDbEntity
  8
0-F
  6
Continuous
 62
     7
370
     9
100
AcDbLine
 10
-678.7396420904724
 20
678.4675721864443
 30
0.0
 11
-673.5183920056352
 21
638.8102504185264
 31
0.0
  0
LINE
  5
6D
330
1F
100
AcDbEntity
  8
0-F
  6
Continuous
 62
     7
370
     9
100
AcDbLine
 10
694.5564817921996
 20
195.1344666548521
 30
0.0
 11
694.5564817921996
 21
1161.800677718036
 31
0.0
  0
LINE
  5
6E
330
1F
100
AcDbEntity
  8
0-F
  6
Continuous
 62
     7
370
     9
100
AcDbLine
 10
522.9908349860744
 20
195.1344666548521
 30
0.0
 11
698.5565664716057
 21
195.1344666548521
 31
0.0
  0
LINE
  5
6F
330
1F
100
AcDbEntity
  8
0-F
  6
Continuous
 62
     7
370
     9
100
AcDbLine
 10
39.65772945448236
 20
1161.800677718036
 30
0.0
 11
698.5565664716057
 21
1161.800677718036
 31
0.0
  0
LINE
  5
70
330
1F
100
AcDbEntity
  8
0-F
  6
Continuous
 62
     7
370
     9
100
AcDbLine
 10
694.5564817921996
 20
195.1344666548521
 30
0.0
 11
689.3355620198884
 21
234.79244904782
 31
0.0
  0
LINE
  5
71
330
1F
100
AcDbEntity
  8
0-F
  6
Continuous
 62
     7
370
     9
100
AcDbLine
 10
694.5564817921996
 20
195.1344666548521
 30
0.0
 11
699.7777318770363
 21
234.79244904782
 31
0.0
  0
LINE
  5
72
330
1F
100
AcDbEntity
  8
0-F
  6
Continuous
 62
     7
370
     9
100
AcDbLine
 10
694.5564817921996
 20
1161.800677718036
 30
0.0
 11
689.3355620198884
 21
1122.143355950118
 31
0.0
  0
LINE
  5
73
330
1F
100
AcDbEntity
  8
0-F
  6
Continuous
 62
     7
370
     9
100
AcDbLine
 10
694.5564817921996
 20
1161.800677718036
 30
0.0
 11
699.7777318770363
 21
1122.143355950118
 31
0.0
  0
LINE
  5
74
330
1F
100
AcDbEntity
  8
0-F
  6
Continuous
 62
     7
370
     9
100
AcDbLine
 10
-0.3424567145270885
 20
678.4675721864443
 30
0.0
 11
341.425637106484
 21
1020.23599631998
 31
0.0
  0
LINE
  5
75
330
1F
100
AcDbEntity
  8
0-F
  6
Continuous
 62
     7
370
     9
100
AcDbLine
 10
341.425637106484
 20
1020.23599631998
 30
0.0
 11
317.0753280659284
 21
988.5015507799932
 31
0.0
  0
LINE
  5
76
330
1F
100
AcDbEntity
  8
0-F
  6
Continuous
 62
     7
370
     9
100
AcDbLine
 10
341.425637106484
 20
1020.23599631998
 30
0.0
 11
309.6915218790218
 21
995.8853569668997
 31
0.0
  0
LINE
  5
77
330
1F
100
AcDbEntity
  8
0-F
  6
Continuous
 62
     7
370
     9
100
AcDbLine
 10
-483.675892558644
 20
23.79078986561858
 30
0.0
 11
482.990648817065
 21
23.79078986561858
 31
0.0
  0
LINE
  5
78
330
1F
100
AcDbEntity
  8
0-F
  6
Continuous
 62
     7
370
     9
100
AcDbLine
 10
-483.675892558644
 20
155.1342804858425
 30
0.0
 11
-483.675892558644
 21
19.79070518621306
 31
0.0
  0
LINE
  5
79
330
1F
100
AcDbEntity
  8
0-F
  6
Continuous
 62
     7
370
     9
100
AcDbLine
 10
482.990648817065
 20
155.1342804858425
 30
0.0
 11
482.990648817065
 21
19.79070518621306
 31
0.0
  0
LINE
  5
7A
330
1F
100
AcDbEntity
  8
0-F
  6
Continuous
 62
     7
370
     9
100
AcDbLine
 10
-483.675892558644
 20
23.79078986561858
 30
0.0
 11
-444.0179101656759
 21
29.01170963793042
 31
0.0
  0
LINE
  5
7B
330
1F
100
AcDbEntity
  8
0-F
  6
Continuous
 62
     7
370
     9
100
AcDbLine
 10
-483.675892558644
 20
23.79078986561858
 30
0.0
 11
-444.0179101656759
 21
18.56987009330744
 31
0.0
  0
LINE
  5
7C
330
1F
100
AcDbEntity
  8
0-F
  6
Continuous
 62
     7
370
     9
100
AcDbLine
 10
482.990648817065
 20
23.79078986561858
 30
0.0
 11
443.3329967366222
 21
29.01170963793042
 31
0.0
  0
LINE
  5
7D
330
1F
100
AcDbEntity
  8
0-F
  6
Continuous
 62
     7
370
     9
100
AcDbLine
 10
482.990648817065
 20
23.79078986561858
 30
0.0
 11
443.3329967366222
 21
18.56987009330744
 31
0.0
  0
ARC
  5
7E
330
1F
100
AcDbEntity
  8
0-B
  6
Continuous
 62
     2
370
     9
100
AcDbCircle
 10
-35.34237187801637
 20
678.4675721864443
 30
0.0
 40
11.66666419349582
100
AcDbArc
 50
90.0
 51
270.0
  0
ARC
  5
7F
330
1F
100
AcDbEntity
  8
0-B
  6
Continuous
 62
     2
370
     9
100
AcDbCircle
 10
-28.58748073897004
 20
694.1342952536795
 30
0.0
 40
4.000000165849732
100
AcDbArc
 50
270.0
 51
323.9680633544922
  0
ARC
  5
80
330
1F
100
AcDbEntity
  8
0-B
  6
Continuous
 62
     2
370
     9
100
AcDbCircle
 10
-28.58748073897004
 20
662.8015097442583
 30
0.0
 40
4.000000165849732
100
AcDbArc
 50
36.03193664550781
 51
90.0
  0
ARC
  5
81
330
1F
100
AcDbEntity
  8
0-B
  6
Continuous
 62
     2
370
     9
100
AcDbCircle
 10
34.65745844896276
 20
678.4675721864443
 30
0.0
 40
11.66666419349582
100
AcDbArc
 50
270.0
 51
90.0
  0
ARC
  5
82
330
1F
100
AcDbEntity
  8
0-B
  6
Continuous
 62
     2
370
     9
100
AcDbCircle
 10
27.90256730991587
 20
694.1342952536795
 30
0.0
 40
4.000000165849732
100
AcDbArc
 50
216.0319366455078
 51
270.0
  0
ARC
  5
83
330
1F
100
AcDbEntity
  8
0-B
  6
Continuous
 62
     2
370
     9
100
AcDbCircle
 10
27.90256730991587
 20
662.8015097442583
 30
0.0
 40
4.000000165849732
100
AcDbArc
 50
90.0
 51
143.9680633544922
  0
ARC
  5
84
330
1F
100
AcDbEntity
  8
0-B
  6
Continuous
 62
     2
370
     9
100
AcDbCircle
 10
-0.3424567145270885
 20
678.4675721864443
 30
0.0
 40
28.3333335941516
100
AcDbArc
 50
28.02752685546875
 51
151.9724273681641
  0
ARC
  5
85
330
1F
100
AcDbEntity
  8
0-B
  6
Continuous
 62
     2
370
     9
100
AcDbCircle
 10
-0.3424567145270885
 20
678.4675721864443
 30
0.0
 40
28.3333335941516
100
AcDbArc
 50
208.0275573730469
 51
331.9724426269531
  0
ARC
  5
86
330
1F
100
AcDbEntity
  8
0-B
  6
Continuous
 62
     2
370
     9
100
AcDbCircle
 10
34.65745844896276
 20
678.4675721864443
 30
0.0
 40
7.666664027646087
100
AcDbArc
 50
270.0
 51
90.0
  0
ARC
  5
87
330
1F
100
AcDbEntity
  8
0-B
  6
Continuous
 62
     2
370
     9
100
AcDbCircle
 10
-35.34237187801637
 20
678.4675721864443
 30
0.0
 40
7.666664027646087
100
AcDbArc
 50
90.0
 51
270.0
  0
ARC
  5
88
330
1F
100
AcDbEntity
  8
0-B
  6
Continuous
 62
     2
370
     9
100
AcDbCircle
 10
-28.58748073897004
 20
694.1342952536795
 30
0.0
 40
8.000000331699464
100
AcDbArc
 50
270.0
 51
323.9680633544922
  0
ARC
  5
89
330
1F
100
AcDbEntity
  8
0-B
  6
Continuous
 62
     2
370
     9
100
AcDbCircle
 10
-0.3424567145270885
 20
678.4675721864443
 30
0.0
 40
24.33333665401012
100
AcDbArc
 50
28.02752685546875
 51
153.5666046142578
  0
ARC
  5
8A
330
1F
100
AcDbEntity
  8
0-B
  6
Continuous
 62
     2
370
     9
100
AcDbCircle
 10
-28.58748073897004
 20
662.8015097442583
 30
0.0
 40
8.000000331699464
100
AcDbArc
 50
32.02981567382812
 51
90.0
  0
ARC
  5
8B
330
1F
100
AcDbEntity
  8
0-B
  6
Continuous
 62
     2
370
     9
100
AcDbCircle
 10
27.90256730991587
 20
694.1342952536795
 30
0.0
 40
8.000000331699464
100
AcDbArc
 50
212.02978515625
 51
270.0
  0
ARC
  5
8C
330
1F
100
AcDbEntity
  8
0-B
  6
Continuous
 62
     2
370
     9
100
AcDbCircle
 10
-0.3424567145270885
 20
678.4675721864443
 30
0.0
 40
24.33333665401012
100
AcDbArc
 50
208.0275573730469
 51
331.9724426269531
  0
ARC
  5
8D
330
1F
100
AcDbEntity
  8
0-B
  6
Continuous
 62
     2
370
     9
100
AcDbCircle
 10
27.90256730991587
 20
662.8015097442583
 30
0.0
 40
8.000000331699464
100
AcDbArc
 50
90.0
 51
147.9701843261718
  0
CIRCLE
  5
8E
330
1F
100
AcDbEntity
  8
0-B
  6
Continuous
 62
     2
370
     9
100
AcDbCircle
 10
-0.3424567145270885
 20
678.4675721864443
 30
0.0
 40
16.66666682008918
  0
CIRCLE
  5
8F
330
1F
100
AcDbEntity
  8
0-B
  6
Continuous
 62
     2
370
     9
100
AcDbCircle
 10
-0.3424567145270885
 20
678.4675721864443
 30
0.0
 40
12.66666600909779
  0
ARC
  5
90
330
1F
100
AcDbEntity
  8
0-1
  6
Continuous
 62
     4
370
     9
100
AcDbCircle
 10
-0.3424567145270885
 20
678.4675721864443
 30
0.0
 40
483.3333532659856
100
AcDbArc
 50
0.0
 51
90.0
  0
TEXT
  5
91
330
1F
100
AcDbEntity
  8
0-D
  6
Continuous
 62
     6
370
     9
100
AcDbText
 10
88.69793822927932
 20
671.2868495050571
 30
0.0
 40
15.24
  1
複数回使用
 41
1.119999999999999
  7
ＭＳ ゴシック
100
AcDbText
  0
TEXT
  5
92
330
1F
100
AcDbEntity
  8
0-F
  6
Continuous
 62
     2
370
     9
100
AcDbText
 10
-697.7126747188291
 20
404.3013491952317
 30
0.0
 40
30.48
  1
145
 50
90.00000250447822
 41
1.083333333333334
  7
ＭＳ ゴシック
100
AcDbText
  0
TEXT
  5
93
330
1F
100
AcDbEntity
  8
0-F
  6
Continuous
 62
     2
370
     9
100
AcDbText
 10
675.5834491638424
 20
645.9679019610277
 30
0.0
 40
30.48
  1
290
 50
90.00000250447822
 41
1.083333333333334
  7
ＭＳ ゴシック
100
AcDbText
  0
TEXT
  5
94
330
1F
100
AcDbEntity
  8
0-F
  6
Continuous
 62
     2
370
     9
100
AcDbText
 10
126.1895150910231
 20
831.8316807508991
 30
0.0
 40
30.48
  1
R145
 50
45.00028812018451
 41
1.093750000000001
  7
ＭＳ ゴシック
100
AcDbText
  0
TEXT
  5
95
330
1F
100
AcDbEntity
  8
0-F
  6
Continuous
 62
     2
370
     9
100
AcDbText
 10
-32.84245671452652
 20
42.76448453964548
 30
0.0
 40
30.48
  1
290
 41
1.083333333333333
  7
ＭＳ ゴシック
100
AcDbText
  0
LINE
  5
96
330
1F
100
AcDbEntity
  8
0-4
  6
Continuous
 62
     6
370
     9
100
AcDbLine
 10
-267.0090432578229
 20
-515.6193513076885
 30
0.0
 11
-267.0090432578229
 21
-488.9525605283492
 31
0.0
  0
LINE
  5
97
330
1F
100
AcDbEntity
  8
0-4
  6
Continuous
 62
     6
370
     9
100
AcDbLine
 10
266.3241298287687
 20
-515.6193513076885
 30
0.0
 11
266.3241298287687
 21
-488.9525605283492
 31
0.0
  0
LINE
  5
98
330
1F
100
AcDbEntity
  8
0-4
  6
Continuous
 62
     6
370
     9
100
AcDbLine
 10
13.82431717606323
 20
-496.6194445492981
 30
0.0
 11
13.82431717606323
 21
-488.9525605283492
 31
0.0
  0
LINE
  5
99
330
1F
100
AcDbEntity
  8
0-4
  6
Continuous
 62
     6
370
     9
100
AcDbLine
 10
-14.50923060511684
 20
-496.6194445492981
 30
0.0
 11
-14.50923060511684
 21
-488.9525605283492
 31
0.0
  0
LINE
  5
9A
330
1F
100
AcDbEntity
  8
0-B
  6
Continuous
 62
     2
370
     9
100
AcDbLine
 10
-36.96949137683987
 20
-452.2858883630201
 30
0.0
 11
-47.00934057837173
 21
-452.2858883630201
 31
0.0
  0
LINE
  5
9B
330
1F
100
AcDbEntity
  8
0-B
  6
Continuous
 62
     2
370
     9
100
AcDbLine
 10
-25.68931864342062
 20
-458.5109582117465
 30
0.0
 11
-17.00903579535179
 21
-472.2859814475245
 31
0.0
  0
LINE
  5
9C
330
1F
100
AcDbEntity
  8
0-B
  6
Continuous
 62
     2
370
     9
100
AcDbLine
 10
-17.00903579535179
 20
-478.6193938044964
 30
0.0
 11
-17.00903579535179
 21
-484.9528061614683
 31
0.0
  0
LINE
  5
9D
330
1F
100
AcDbEntity
  8
0-B
  6
Continuous
 62
     2
370
     9
100
AcDbLine
 10
36.28490826031111
 20
-452.2858883630201
 30
0.0
 11
46.32409683679271
 21
-452.2858883630201
 31
0.0
  0
LINE
  5
9E
330
1F
100
AcDbEntity
  8
0-B
  6
Continuous
 62
     2
370
     9
100
AcDbLine
 10
25.00440521436587
 20
-458.5109582117465
 30
0.0
 11
16.32445267882304
 21
-472.2859814475245
 31
0.0
  0
LINE
  5
9F
330
1F
100
AcDbEntity
  8
0-B
  6
Continuous
 62
     2
370
     9
100
AcDbLine
 10
16.32445267882304
 20
-478.6193938044964
 30
0.0
 11
16.32445267882304
 21
-484.9528061614683
 31
0.0
  0
LINE
  5
A0
330
1F
100
AcDbEntity
  8
0-B
  6
Continuous
 62
     2
370
     9
100
AcDbLine
 10
-17.00903579535179
 20
-478.6193938044964
 30
0.0
 11
-11.42080849508829
 21
-478.6193938044964
 31
0.0
  0
LINE
  5
A1
330
1F
100
AcDbEntity
  8
0-B
  6
Continuous
 62
     2
370
     9
100
AcDbLine
 10
10.73589506603412
 20
-478.6193938044964
 30
0.0
 11
16.32445267882304
 21
-478.6193938044964
 31
0.0
  0
LINE
  5
A2
330
1F
100
AcDbEntity
  8
0-B
  6
Continuous
 62
     2
370
     9
100
AcDbLine
 10
-17.00903579535179
 20
-472.2859814475245
 30
0.0
 11
-13.67552179167149
 21
-472.2859814475245
 31
0.0
  0
LINE
  5
A3
330
1F
100
AcDbEntity
  8
0-B
  6
Continuous
 62
     2
370
     9
100
AcDbLine
 10
12.9909386751433
 20
-472.2859814475245
 30
0.0
 11
16.32445267882304
 21
-472.2859814475245
 31
0.0
  0
LINE
  5
A4
330
1F
100
AcDbEntity
  8
0-B
  6
Continuous
 62
     2
370
     9
100
AcDbLine
 10
18.99073538172672
 20
-488.9525605283492
 30
0.0
 11
12.9909386751433
 21
-488.9525605283492
 31
0.0
  0
LINE
  5
A5
330
1F
100
AcDbEntity
  8
0-B
  6
Continuous
 62
     2
370
     9
100
AcDbLine
 10
-13.67552179167149
 20
-488.9525605283492
 30
0.0
 11
-19.67564881078033
 21
-488.9525605283492
 31
0.0
  0
LINE
  5
A6
330
1F
100
AcDbEntity
  8
0-4
  6
Continuous
 62
     6
370
     9
100
AcDbLine
 10
-267.0090432578229
 20
-515.6193513076885
 30
0.0
 11
-13.67552179167149
 21
-515.6193513076885
 31
0.0
  0
LINE
  5
A7
330
1F
100
AcDbEntity
  8
0-4
  6
Continuous
 62
     6
370
     9
100
AcDbLine
 10
12.9909386751433
 20
-515.6193513076885
 30
0.0
 11
266.3241298287687
 21
-515.6193513076885
 31
0.0
  0
LINE
  5
A8
330
1F
100
AcDbEntity
  8
0-4
  6
Continuous
 62
     6
370
     9
100
AcDbLine
 10
-267.0090432578229
 20
-496.6194445492981
 30
0.0
 11
-13.67552179167149
 21
-496.6194445492981
 31
0.0
  0
LINE
  5
A9
330
1F
100
AcDbEntity
  8
0-4
  6
Continuous
 62
     6
370
     9
100
AcDbLine
 10
12.9909386751433
 20
-496.6194445492981
 30
0.0
 11
266.3241298287687
 21
-496.6194445492981
 31
0.0
  0
LINE
  5
AA
330
1F
100
AcDbEntity
  8
0-4
  6
Continuous
 62
     6
370
     9
100
AcDbLine
 10
-267.0090432578229
 20
-488.9525605283492
 30
0.0
 11
-13.67552179167149
 21
-488.9525605283492
 31
0.0
  0
LINE
  5
AB
330
1F
100
AcDbEntity
  8
0-4
  6
Continuous
 62
     6
370
     9
100
AcDbLine
 10
12.9909386751433
 20
-488.9525605283492
 30
0.0
 11
266.3241298287687
 21
-488.9525605283492
 31
0.0
  0
LINE
  5
AC
330
1F
100
AcDbEntity
  8
0-1
  6
Continuous
 62
     4
370
     9
100
AcDbLine
 10
482.990648817065
 20
-515.6196816202139
 30
0.0
 11
12.9909386751433
 21
-515.6196816202139
 31
0.0
  0
LINE
  5
AD
330
1F
100
AcDbEntity
  8
0-1
  6
Continuous
 62
     4
370
     9
100
AcDbLine
 10
-13.67552179167149
 20
-515.6196816202139
 30
0.0
 11
-483.675892558644
 21
-515.6196816202139
 31
0.0
  0
ARC
  5
AE
330
1F
100
AcDbEntity
  8
0-B
  6
Continuous
 62
     2
370
     9
100
AcDbCircle
 10
-36.96949137683987
 20
-465.6192837526897
 30
0.0
 40
13.33333345607134
100
AcDbArc
 50
32.21649169921875
 51
90.0
  0
ARC
  5
AF
330
1F
100
AcDbEntity
  8
0-B
  6
Continuous
 62
     2
370
     9
100
AcDbCircle
 10
-8.592672654867783
 20
-452.1696183541713
 30
0.0
 40
38.4165156700743
100
AcDbArc
 50
180.1736145019531
 51
253.2320709228515
  0
ARC
  5
B0
330
1F
100
AcDbEntity
  8
0-B
  6
Continuous
 62
     2
370
     9
100
AcDbCircle
 10
-8.592672654867783
 20
-452.1696183541713
 30
0.0
 40
34.41652131049943
100
AcDbArc
 50
180.1736145019531
 51
255.4090423583985
  0
ARC
  5
B1
330
1F
100
AcDbEntity
  8
0-B
  6
Continuous
 62
     2
370
     9
100
AcDbCircle
 10
-17.67593678360299
 20
-484.9528061614683
 30
0.0
 40
0.6666666808678376
100
AcDbArc
 50
308.2657165527344
 51
0.0
  0
ARC
  5
B2
330
1F
100
AcDbEntity
  8
0-B
  6
Continuous
 62
     2
370
     9
100
AcDbCircle
 10
36.28490826031111
 20
-465.6192837526897
 30
0.0
 40
13.33333345607134
100
AcDbArc
 50
90.0
 51
147.7835083007812
  0
ARC
  5
B3
330
1F
100
AcDbEntity
  8
0-B
  6
Continuous
 62
     2
370
     9
100
AcDbCircle
 10
7.90808953833789
 20
-452.1696183541713
 30
0.0
 40
38.4165156700743
100
AcDbArc
 50
286.7679138183594
 51
359.8263702392579
  0
ARC
  5
B4
330
1F
100
AcDbEntity
  8
0-B
  6
Continuous
 62
     2
370
     9
100
AcDbCircle
 10
7.90808953833789
 20
-452.1696183541713
 30
0.0
 40
34.41652131049943
100
AcDbArc
 50
284.5909423828125
 51
359.8263702392578
  0
ARC
  5
B5
330
1F
100
AcDbEntity
  8
0-B
  6
Continuous
 62
     2
370
     9
100
AcDbCircle
 10
16.99102335454882
 20
-484.9528061614683
 30
0.0
 40
0.6666666808678376
100
AcDbArc
 50
180.0
 51
231.7342834472656
  0
ARC
  5
B6
330
1F
100
AcDbEntity
  8
0-B
  6
Continuous
 62
     2
370
     9
100
AcDbCircle
 10
16.32445267882304
 20
-484.9528061614683
 30
0.0
 40
4.000000165849732
100
AcDbArc
 50
213.5567016601563
 51
270.0
  0
ARC
  5
B7
330
1F
100
AcDbEntity
  8
0-B
  6
Continuous
 62
     2
370
     9
100
AcDbCircle
 10
-17.00903579535179
 20
-484.9528061614683
 30
0.0
 40
4.000000165849732
100
AcDbArc
 50
270.0
 51
326.4436187744141
  0
LINE
  5
B8
330
1F
100
AcDbEntity
  8
0-4
  6
Continuous
 62
     7
370
     9
100
AcDbLine
 10
694.5564817921996
 20
-515.6196816202138
 30
0.0
 11
691.2933269866983
 21
-540.4058031545591
 31
0.0
  0
LINE
  5
B9
330
1F
100
AcDbEntity
  8
0-4
  6
Continuous
 62
     7
370
     9
100
AcDbLine
 10
694.5564817921996
 20
-515.6196816202138
 30
0.0
 11
697.819636597701
 21
-540.4058031545591
 31
0.0
  0
LINE
  5
BA
330
1F
100
AcDbEntity
  8
0-4
  6
Continuous
 62
     7
370
     9
100
AcDbLine
 10
697.5564817921996
 20
-515.6196816202138
 30
0.0
 11
502.990648817065
 21
-515.6196816202138
 31
0.0
  0
LINE
  5
BB
330
1F
100
AcDbEntity
  8
0-5
  6
Continuous
 62
     7
370
     9
100
AcDbLine
 10
348.0034744630166
 20
-515.6196816202139
 30
0.0
 11
452.7128316473494
 21
-334.2579213003236
 31
0.0
  0
LINE
  5
BC
330
1F
100
AcDbEntity
  8
0-5
  6
Continuous
 62
     7
370
     9
100
AcDbLine
 10
452.7128316473494
 20
-334.2579213003236
 30
0.0
 11
657.1122292138614
 21
-334.2579213003236
 31
0.0
  0
TEXT
  5
BD
330
1F
100
AcDbEntity
  8
0-5
  6
Continuous
 62
     7
370
     9
100
AcDbText
 10
453.0646580831603
 20
-369.9153444290187
 30
0.0
 40
22.86
  1
特殊発砲樹脂
 41
1.138888888888889
  7
ＭＳ ゴシック
100
AcDbText
  0
TEXT
  5
BE
330
1F
100
AcDbEntity
  8
0-5
  6
Continuous
 62
     7
370
     9
100
AcDbText
 10
495.4011251043806
 20
-325.86029236768
 30
0.0
 40
22.86
  1
抜型本体
 41
1.125
  7
ＭＳ ゴシック
100
AcDbText
  0
LINE
  5
BF
330
1F
100
AcDbEntity
  8
0-5
  6
Continuous
 62
     7
370
     9
100
AcDbLine
 10
348.0034744630166
 20
-515.6196816202139
 30
0.0
 11
357.5704877653817
 21
-492.5227206761155
 31
0.0
  0
LINE
  5
C0
330
1F
100
AcDbEntity
  8
0-5
  6
Continuous
 62
     7
370
     9
100
AcDbLine
 10
348.0034744630166
 20
-515.6196816202139
 30
0.0
 11
363.2225081940135
 21
-495.7858333371163
 31
0.0
  0
LINE
  5
C1
330
1F
100
AcDbEntity
  8
0-5
  6
Continuous
 62
     7
370
     9
100
AcDbLine
 10
-47.00934057837173
 20
-452.2858883630201
 30
0.0
 11
-182.1107414176873
 21
-218.2835327359088
 31
0.0
  0
TEXT
  5
C2
330
1F
100
AcDbEntity
  8
0-5
  6
Continuous
 62
     6
370
     9
100
AcDbText
 10
-348.6127687746341
 20
-250.1722438713605
 30
0.0
 40
19.05
  1
（別途）
 41
1.089999999999998
  7
ＭＳ ゴシック
100
AcDbText
  0
LINE
  5
C3
330
1F
100
AcDbEntity
  8
0-5
  6
Continuous
 62
     7
370
     9
100
AcDbLine
 10
-182.1107414176873
 20
-218.2835327359088
 30
0.0
 11
-449.0228408950946
 21
-218.2835327359088
 31
0.0
  0
TEXT
  5
C4
330
1F
100
AcDbEntity
  8
0-5
  6
Continuous
 62
     6
370
     9
100
AcDbText
 10
-436.4870792423284
 20
-206.4796911501822
 30
0.0
 40
19.05
  1
蝶ナット：ＳＰＨＣ
 41
1.106666666666666
  7
ＭＳ ゴシック
100
AcDbText
  0
LINE
  5
C5
330
1F
100
AcDbEntity
  8
0-5
  6
Continuous
 62
     7
370
     9
100
AcDbLine
 10
-47.00934057837173
 20
-452.2858883630201
 30
0.0
 11
-62.22837430936806
 21
-432.4521019398784
 31
0.0
  0
LINE
  5
C6
330
1F
100
AcDbEntity
  8
0-5
  6
Continuous
 62
     7
370
     9
100
AcDbLine
 10
-47.00934057837173
 20
-452.2858883630201
 30
0.0
 11
-56.57635388073629
 21
-429.1889892788774
 31
0.0
  0
LINE
  5
C7
330
1F
100
AcDbEntity
  8
0-5
  6
Continuous
 62
     7
370
     9
100
AcDbLine
 10
-356.7757569930416
 20
-333.472139616715
 30
0.0
 11
-577.2886832493765
 21
-333.472139616715
 31
0.0
  0
TEXT
  5
C8
330
1F
100
AcDbEntity
  8
0-5
  6
Continuous
 62
     7
370
     9
100
AcDbText
 10
-572.1535976022057
 20
-324.9196133551018
 30
0.0
 40
22.86
  1
固定プレート
 41
1.138888888888889
  7
ＭＳ ゴシック
100
AcDbText
  0
TEXT
  5
C9
330
1F
100
AcDbEntity
  8
0-5
  6
Continuous
 62
     7
370
     9
100
AcDbText
 10
-534.761720556703
 20
-366.7778946710857
 30
0.0
 40
22.86
  1
ＳＰＨＣ
 41
1.125
  7
ＭＳ ゴシック
100
AcDbText
  0
LINE
  5
CA
330
1F
100
AcDbEntity
  8
0-5
  6
Continuous
 62
     7
370
     9
100
AcDbLine
 10
-267.0090432578223
 20
-488.9525605283492
 30
0.0
 11
-356.7757569930416
 21
-333.472139616715
 31
0.0
  0
LINE
  5
CB
330
1F
100
AcDbEntity
  8
0-5
  6
Continuous
 62
     7
370
     9
100
AcDbLine
 10
-267.0090432578223
 20
-488.9525605283492
 30
0.0
 11
-282.2280769888187
 21
-469.1186503852961
 31
0.0
  0
LINE
  5
CC
330
1F
100
AcDbEntity
  8
0-5
  6
Continuous
 62
     7
370
     9
100
AcDbLine
 10
-267.0090432578223
 20
-488.9525605283492
 30
0.0
 11
-276.5760565601875
 21
-465.8555377242952
 31
0.0
  0
LINE
  5
CD
330
1F
100
AcDbEntity
  8
0-1
  6
Continuous
 62
     4
370
     9
100
AcDbLine
 10
-13.67552179167149
 20
-648.9530149535472
 30
0.0
 11
-483.675892558644
 21
-648.9530149535472
 31
0.0
  0
LINE
  5
CE
330
1F
100
AcDbEntity
  8
0-1
  6
Continuous
 62
     4
370
     9
100
AcDbLine
 10
-483.675892558644
 20
-515.6196816202139
 30
0.0
 11
-483.675892558644
 21
-648.9530149535472
 31
0.0
  0
LINE
  5
CF
330
1F
100
AcDbEntity
  8
0-1
  6
Continuous
 62
     4
370
     9
100
AcDbLine
 10
482.990648817065
 20
-515.6196816202139
 30
0.0
 11
449.6565887966783
 21
-648.9530149535472
 31
0.0
  0
LINE
  5
D0
330
1F
100
AcDbEntity
  8
0-1
  6
Continuous
 62
     4
370
     9
100
AcDbLine
 10
449.6565887966783
 20
-648.9530149535472
 30
0.0
 11
12.9909386751433
 21
-648.9530149535472
 31
0.0
  0
LINE
  5
D1
330
1F
100
AcDbEntity
  8
0-4
  6
Continuous
 62
     7
370
     9
100
AcDbLine
 10
694.5564817921996
 20
-648.9530149535472
 30
0.0
 11
691.2933269866983
 21
-624.166893419202
 31
0.0
  0
LINE
  5
D2
330
1F
100
AcDbEntity
  8
0-4
  6
Continuous
 62
     7
370
     9
100
AcDbLine
 10
694.5564817921996
 20
-648.9530149535472
 30
0.0
 11
697.819636597701
 21
-624.166893419202
 31
0.0
  0
LINE
  5
D3
330
1F
100
AcDbEntity
  8
0-4
  6
Continuous
 62
     7
370
     9
100
AcDbLine
 10
697.5564817921996
 20
-648.9530149535472
 30
0.0
 11
461.3230450211654
 21
-648.9530149535472
 31
0.0
  0
LINE
  5
D4
330
1F
100
AcDbEntity
  8
0-4
  6
Continuous
 62
     7
370
     9
100
AcDbLine
 10
694.5564817921996
 20
-648.9530149535472
 30
0.0
 11
694.5564817921996
 21
-515.6196816202138
 31
0.0
  0
TEXT
  5
D5
330
1F
100
AcDbEntity
  8
0-4
  6
Continuous
 62
     2
370
   211
100
AcDbText
 10
678.9164817921996
 20
-603.5363482868805
 30
0.0
 40
30.48
  1
40
 50
90.0
 41
1.0625
  7
ＭＳ ゴシック
100
AcDbText
  0
LINE
  5
D6
330
1F
100
AcDbEntity
  8
0-C
  6
Continuous
 62
     2
370
     9
100
AcDbLine
 10
166.3239947187697
 20
-665.9528793722347
 30
0.0
 11
166.3239947187697
 21
-661.9534553178787
 31
0.0
  0
LINE
  5
D7
330
1F
100
AcDbEntity
  8
0-C
  6
Continuous
 62
     2
370
     9
100
AcDbLine
 10
-167.0089081478244
 20
-661.9534553178787
 30
0.0
 11
-167.0089081478244
 21
-665.9528793722347
 31
0.0
  0
LINE
  5
D8
330
1F
100
AcDbEntity
  8
0-C
  6
Continuous
 62
     2
370
     9
100
AcDbLine
 10
16.32445267882304
 20
-661.9534553178787
 30
0.0
 11
166.3239947187697
 21
-661.9534553178787
 31
0.0
  0
LINE
  5
D9
330
1F
100
AcDbEntity
  8
0-C
  6
Continuous
 62
     2
370
     9
100
AcDbLine
 10
14.65769567698317
 20
-660.2866983160388
 30
0.0
 11
14.65769567698317
 21
-653.6196703086785
 31
0.0
  0
LINE
  5
DA
330
1F
100
AcDbEntity
  8
0-C
  6
Continuous
 62
     2
370
     9
100
AcDbLine
 10
-15.34260910603678
 20
-660.2866983160388
 30
0.0
 11
-15.34260910603678
 21
-653.6196703086785
 31
0.0
  0
LINE
  5
DB
330
1F
100
AcDbEntity
  8
0-C
  6
Continuous
 62
     2
370
     9
100
AcDbLine
 10
-17.00936610787664
 20
-661.9534553178787
 30
0.0
 11
-167.0089081478244
 21
-661.9534553178787
 31
0.0
  0
LINE
  5
DC
330
1F
100
AcDbEntity
  8
0-C
  6
Continuous
 62
     2
370
     9
100
AcDbLine
 10
-67.00910335035076
 20
-699.2866981589341
 30
0.0
 11
-67.00910335035076
 21
-665.9528793722347
 31
0.0
  0
LINE
  5
DD
330
1F
100
AcDbEntity
  8
0-C
  6
Continuous
 62
     2
370
     9
100
AcDbLine
 10
-104.694789655727
 20
-705.953395853769
 30
0.0
 11
-73.67580104518652
 21
-705.953395853769
 31
0.0
  0
LINE
  5
DE
330
1F
100
AcDbEntity
  8
0-C
  6
Continuous
 62
     2
370
     9
100
AcDbLine
 10
-111.2706514061495
 20
-700.3826751173378
 30
0.0
 11
-117.0091709053503
 21
-665.9528793722347
 31
0.0
  0
LINE
  5
DF
330
1F
100
AcDbEntity
  8
0-C
  6
Continuous
 62
     2
370
     9
100
AcDbLine
 10
66.32418992129715
 20
-699.2866981589341
 30
0.0
 11
66.32418992129715
 21
-665.9528793722347
 31
0.0
  0
LINE
  5
E0
330
1F
100
AcDbEntity
  8
0-C
  6
Continuous
 62
     2
370
     9
100
AcDbLine
 10
104.0098762266734
 20
-705.953395853769
 30
0.0
 11
72.99088761613177
 21
-705.953395853769
 31
0.0
  0
LINE
  5
E1
330
1F
100
AcDbEntity
  8
0-C
  6
Continuous
 62
     2
370
     9
100
AcDbLine
 10
110.5857379770953
 20
-700.3826751173378
 30
0.0
 11
116.3242574762955
 21
-665.9528793722347
 31
0.0
  0
LINE
  5
E2
330
1F
100
AcDbEntity
  8
0-C
  6
Continuous
 62
     2
370
     9
100
AcDbLine
 10
12.99060836261788
 20
-653.6196703086785
 30
0.0
 11
12.99060836261788
 21
-664.8687936647357
 31
0.0
  0
LINE
  5
E3
330
1F
100
AcDbEntity
  8
0-C
  6
Continuous
 62
     2
370
     9
100
AcDbLine
 10
-13.67585210419691
 20
-653.6196703086785
 30
0.0
 11
-13.67585210419691
 21
-664.8687936647357
 31
0.0
  0
LINE
  5
E4
330
1F
100
AcDbEntity
  8
0-C
  6
Continuous
 62
     2
370
     9
100
AcDbLine
 10
166.3239947187697
 20
-665.9528793722347
 30
0.0
 11
12.9909386751433
 21
-665.9528793722347
 31
0.0
  0
LINE
  5
E5
330
1F
100
AcDbEntity
  8
0-C
  6
Continuous
 62
     2
370
     9
100
AcDbLine
 10
-13.67552179167149
 20
-665.9528793722347
 30
0.0
 11
-167.0089081478244
 21
-665.9528793722347
 31
0.0
  0
LINE
  5
E6
330
1F
100
AcDbEntity
  8
0-C
  6
Continuous
 62
     2
370
     9
100
AcDbLine
 10
-11.42080849508829
 20
-653.6196703086785
 30
0.0
 11
-15.34260910603678
 21
-653.6196703086785
 31
0.0
  0
LINE
  5
E7
330
1F
100
AcDbEntity
  8
0-C
  6
Continuous
 62
     2
370
     9
100
AcDbLine
 10
14.65769567698317
 20
-653.6196703086785
 30
0.0
 11
10.73589506603412
 21
-653.6196703086785
 31
0.0
  0
LINE
  5
E8
330
1F
100
AcDbEntity
  8
0-2
  6
Continuous
 62
     4
370
     9
100
AcDbLine
 10
-133.675749986175
 20
-985.6197621363467
 30
0.0
 11
132.990506244596
 21
-985.6197621363467
 31
0.0
  0
LINE
  5
E9
330
1F
100
AcDbEntity
  8
0-3
  6
Continuous
 62
     4
370
     9
100
AcDbLine
 10
172.3858901800793
 20
-672.0385573353542
 30
0.0
 11
172.9906924136048
 21
-678.9529894240413
 31
0.0
  0
LINE
  5
EA
330
1F
100
AcDbEntity
  8
0-3
  6
Continuous
 62
     4
370
     9
100
AcDbLine
 10
146.9036001158804
 20
-665.9528793722347
 30
0.0
 11
165.7446265496799
 21
-665.9528793722347
 31
0.0
  0
LINE
  5
EB
330
1F
100
AcDbEntity
  8
0-3
  6
Continuous
 62
     4
370
     9
100
AcDbLine
 10
139.6572039394306
 20
-678.9529894240413
 30
0.0
 11
172.9906924136048
 21
-678.9529894240413
 31
0.0
  0
LINE
  5
EC
330
1F
100
AcDbEntity
  8
0-3
  6
Continuous
 62
     4
370
     9
100
AcDbLine
 10
140.262336485481
 20
-672.0385573353542
 30
0.0
 11
139.6572039394306
 21
-678.9529894240413
 31
0.0
  0
LINE
  5
ED
330
1F
100
AcDbEntity
  8
0-3
  6
Continuous
 62
     4
370
     9
100
AcDbLine
 10
147.9909889486305
 20
-718.9531755930502
 30
0.0
 11
146.3242319467901
 21
-717.2864185912103
 31
0.0
  0
LINE
  5
EE
330
1F
100
AcDbEntity
  8
0-3
  6
Continuous
 62
     4
370
     9
100
AcDbLine
 10
146.3242319467901
 20
-717.2864185912103
 30
0.0
 11
166.3239947187697
 21
-717.2864185912103
 31
0.0
  0
LINE
  5
EF
330
1F
100
AcDbEntity
  8
0-3
  6
Continuous
 62
     4
370
     9
100
AcDbLine
 10
147.9909889486305
 20
-718.9531755930502
 30
0.0
 11
164.6572377169298
 21
-718.9531755930502
 31
0.0
  0
LINE
  5
F0
330
1F
100
AcDbEntity
  8
0-3
  6
Continuous
 62
     4
370
     9
100
AcDbLine
 10
166.3239947187697
 20
-717.2864185912103
 30
0.0
 11
164.6572377169298
 21
-718.9531755930502
 31
0.0
  0
LINE
  5
F1
330
1F
100
AcDbEntity
  8
0-3
  6
Continuous
 62
     4
370
     9
100
AcDbLine
 10
146.3242319467901
 20
-678.9529894240413
 30
0.0
 11
146.3242319467901
 21
-717.2864185912103
 31
0.0
  0
LINE
  5
F2
330
1F
100
AcDbEntity
  8
0-3
  6
Continuous
 62
     4
370
     9
100
AcDbLine
 10
164.6572377169298
 20
-678.9529894240413
 30
0.0
 11
164.6572377169298
 21
-718.9531755930502
 31
0.0
  0
LINE
  5
F3
330
1F
100
AcDbEntity
  8
0-3
  6
Continuous
 62
     4
370
     9
100
AcDbLine
 10
147.9909889486305
 20
-678.9529894240413
 30
0.0
 11
147.9909889486305
 21
-718.9531755930502
 31
0.0
  0
LINE
  5
F4
330
1F
100
AcDbEntity
  8
0-3
  6
Continuous
 62
     4
370
     9
100
AcDbLine
 10
166.3239947187697
 20
-678.9529894240413
 30
0.0
 11
166.3239947187697
 21
-717.2864185912103
 31
0.0
  0
LINE
  5
F5
330
1F
100
AcDbEntity
  8
0-3
  6
Continuous
 62
     3
370
     9
100
AcDbLine
 10
146.3242319467901
 20
-718.9531755930502
 30
0.0
 11
166.3239947187697
 21
-718.9531755930502
 31
0.0
  0
LINE
  5
F6
330
1F
100
AcDbEntity
  8
0-3
  6
Continuous
 62
     3
370
     9
100
AcDbLine
 10
147.9909889486305
 20
-722.2863592842054
 30
0.0
 11
164.6572377169298
 21
-722.2863592842054
 31
0.0
  0
LINE
  5
F7
330
1F
100
AcDbEntity
  8
0-3
  6
Continuous
 62
     3
370
     9
100
AcDbLine
 10
164.6572377169298
 20
-722.2863592842054
 30
0.0
 11
156.3241133327801
 21
-727.0973612128219
 31
0.0
  0
LINE
  5
F8
330
1F
100
AcDbEntity
  8
0-3
  6
Continuous
 62
     3
370
     9
100
AcDbLine
 10
147.9909889486305
 20
-722.2863592842054
 30
0.0
 11
156.3241133327801
 21
-727.0973612128219
 31
0.0
  0
LINE
  5
F9
330
1F
100
AcDbEntity
  8
0-3
  6
JWW_CENTER2
 62
     3
370
     9
100
AcDbLine
 10
156.3241133327801
 20
-728.2078719223318
 30
0.0
 11
156.3241133327801
 21
-641.5665662664394
 31
0.0
  0
LINE
  5
FA
330
1F
100
AcDbEntity
  8
0-0
  6
Continuous
 62
     3
370
     9
100
AcDbLine
 10
-280.3424386474921
 20
-682.2861731151966
 30
0.0
 11
-283.675952651173
 21
-678.9526591115159
 31
0.0
  0
LINE
  5
FB
330
1F
100
AcDbEntity
  8
0-0
  6
Continuous
 62
     3
370
     9
100
AcDbLine
 10
-280.3424386474921
 20
-682.2861731151966
 30
0.0
 11
-263.675529254142
 21
-682.2861731151966
 31
0.0
  0
LINE
  5
FC
330
1F
100
AcDbEntity
  8
0-0
  6
Continuous
 62
     3
370
     9
100
AcDbLine
 10
-280.7071036752438
 20
-655.2058310543853
 30
0.0
 11
-283.675952651173
 21
-678.9526591115159
 31
0.0
  0
LINE
  5
FD
330
1F
100
AcDbEntity
  8
0-0
  6
Continuous
 62
     3
370
     9
100
AcDbLine
 10
-121.4733446825733
 20
-738.2992498777844
 30
0.0
 11
-119.2116948229614
 21
-749.6065082382656
 31
0.0
  0
LINE
  5
FE
330
1F
100
AcDbEntity
  8
0-0
  6
Continuous
 62
     3
370
     9
100
AcDbLine
 10
-115.9432523867343
 20
-752.2863337546996
 30
0.0
 11
-111.4083917291316
 21
-752.2863337546996
 31
0.0
  0
LINE
  5
FF
330
1F
100
AcDbEntity
  8
0-0
  6
Continuous
 62
     3
370
     9
100
AcDbLine
 10
-199.4277612398946
 20
-677.4933383754624
 30
0.0
 11
-277.0089246438124
 21
-652.2865289572269
 31
0.0
  0
LINE
  5
100
330
1F
100
AcDbEntity
  8
0-0
  6
Continuous
 62
     3
370
     9
100
AcDbLine
 10
-175.4424475396161
 20
-685.2867320935379
 30
0.0
 11
-199.4274309273703
 21
-677.4933383754624
 31
0.0
  0
LINE
  5
101
330
1F
100
AcDbEntity
  8
0-0
  6
Continuous
 62
     3
370
     9
100
AcDbLine
 10
-175.9405588275217
 20
-681.2288427222334
 30
0.0
 11
-178.6755465356543
 21
-658.9528963395364
 31
0.0
  0
LINE
  5
102
330
1F
100
AcDbEntity
  8
0-0
  6
Continuous
 62
     3
370
     9
100
AcDbLine
 10
-75.52026618554919
 20
-909.1411819413352
 30
0.0
 11
-84.80832407986952
 21
-745.0544713293561
 31
0.0
  0
LINE
  5
103
330
1F
100
AcDbEntity
  8
0-0
  6
Continuous
 62
     3
370
     9
100
AcDbLine
 10
-188.6757582341687
 20
-658.9528963395364
 30
0.0
 11
-190.7834824570671
 21
-672.2004104726707
 31
0.0
  0
LINE
  5
104
330
1F
100
AcDbEntity
  8
0-0
  6
JWW_HOJO
 62
     7
370
     9
100
AcDbLine
 10
-75.52026618554919
 20
-909.1411819413352
 30
0.0
 11
-75.34222773450097
 21
-912.2860874931621
 31
0.0
  0
LINE
  5
105
330
1F
100
AcDbEntity
  8
0-0
  6
JWW_HOJO
 62
     7
370
     9
100
AcDbLine
 10
-72.19236749479649
 20
-912.2860874931621
 30
0.0
 11
-75.34222773450097
 21
-912.2860874931621
 31
0.0
  0
LINE
  5
106
330
1F
100
AcDbEntity
  8
0-0
  6
Continuous
 62
     3
370
     9
100
AcDbLine
 10
-187.3436078202928
 20
-749.3270638420004
 30
0.0
 11
-193.1927820154141
 21
-697.6463661591051
 31
0.0
  0
LINE
  5
107
330
1F
100
AcDbEntity
  8
0-0
  6
Continuous
 62
     3
370
     9
100
AcDbLine
 10
-71.56642525966276
 20
-743.0653293029823
 30
0.0
 11
-61.98769234322242
 21
-912.2860874931621
 31
0.0
  0
LINE
  5
108
330
1F
100
AcDbEntity
  8
0-0
  6
Continuous
 62
     3
370
     9
100
AcDbLine
 10
156.3241133327801
 20
-740.0139021957693
 30
0.0
 11
169.6575087224505
 21
-740.0139021957693
 31
0.0
  0
LINE
  5
109
330
1F
100
AcDbEntity
  8
0-0
  6
Continuous
 62
     3
370
     9
100
AcDbLine
 10
156.3241133327801
 20
-740.0139021957693
 30
0.0
 11
142.9907179431103
 21
-740.0139021957693
 31
0.0
  0
LINE
  5
10A
330
1F
100
AcDbEntity
  8
0-0
  6
Continuous
 62
     3
370
     9
100
AcDbLine
 10
-197.7570404877537
 20
-692.0554963586405
 30
0.0
 11
-235.2765795929861
 21
-679.8653126184686
 31
0.0
  0
LINE
  5
10B
330
1F
100
AcDbEntity
  8
0-0
  6
Continuous
 62
     3
370
     9
100
AcDbLine
 10
-94.79235046465305
 20
-735.6197546738749
 30
0.0
 11
-101.2433540805739
 21
-735.6197546738749
 31
0.0
  0
LINE
  5
10C
330
1F
100
AcDbEntity
  8
0-0
  6
Continuous
 62
     3
370
     9
100
AcDbLine
 10
-108.1399492929035
 20
-749.6065082382656
 30
0.0
 11
-106.1461828911786
 21
-739.6389974797389
 31
0.0
  0
LINE
  5
10D
330
1F
100
AcDbEntity
  8
0-0
  6
JWW_PHANTOM2
 62
     3
370
     9
100
AcDbLine
 10
-141.2247124356497
 20
-685.6193568063509
 30
0.0
 11
-170.9779434498677
 21
-685.6193568063509
 31
0.0
  0
LINE
  5
10E
330
1F
100
AcDbEntity
  8
0-0
  6
Continuous
 62
     3
370
     9
100
AcDbLine
 10
-122.0015144102672
 20
-709.347026737024
 30
0.0
 11
-120.4183264772871
 21
-715.7365922232693
 31
0.0
  0
LINE
  5
10F
330
1F
100
AcDbEntity
  8
0-0
  6
Continuous
 62
     3
370
     9
100
AcDbLine
 10
-174.3596830822173
 20
-694.1040946395387
 30
0.0
 11
-175.9405588275217
 21
-681.2285124097084
 31
0.0
  0
LINE
  5
110
330
1F
100
AcDbEntity
  8
0-0
  6
Continuous
 62
     3
370
     9
100
AcDbLine
 10
-165.1317420674718
 20
-702.8610099934385
 30
0.0
 11
-126.5059863155568
 21
-705.5619755114822
 31
0.0
  0
LINE
  5
111
330
1F
100
AcDbEntity
  8
0-0
  6
JWW_DASHED1
 62
     3
370
     9
100
AcDbLine
 10
-186.9419477897259
 20
-701.0353726670078
 30
0.0
 11
-187.1236196785514
 21
-699.5582150545965
 31
0.0
  0
LINE
  5
112
330
1F
100
AcDbEntity
  8
0-0
  6
JWW_PHANTOM2
 62
     3
370
     9
100
AcDbLine
 10
-136.2964495606093
 20
-689.7743580600459
 30
0.0
 11
-134.3390175366494
 21
-701.1912801788721
 31
0.0
  0
LINE
  5
113
330
1F
100
AcDbEntity
  8
0-0
  6
JWW_DASHED1
 62
     3
370
     9
100
AcDbLine
 10
-191.6806112753375
 20
-694.0301046339082
 30
0.0
 11
-197.7573708002785
 21
-692.0554963586405
 31
0.0
  0
LINE
  5
114
330
1F
100
AcDbEntity
  8
0-0
  6
JWW_DASHED1
 62
     3
370
     9
100
AcDbLine
 10
-186.9241109133685
 20
-701.1833526782689
 30
0.0
 11
-187.1236196785514
 21
-699.5582150545965
 31
0.0
  0
LINE
  5
115
330
1F
100
AcDbEntity
  8
0-0
  6
Continuous
 62
     3
370
     9
100
AcDbLine
 10
-130.9192919639088
 20
-735.6197546738749
 30
0.0
 11
-124.7417871188009
 21
-735.6197546738749
 31
0.0
  0
LINE
  5
116
330
1F
100
AcDbEntity
  8
0-0
  6
Continuous
 62
     3
370
     9
100
AcDbLine
 10
-136.2858795598049
 20
-721.9732230103759
 30
0.0
 11
-134.1930194005386
 21
-732.9125132178547
 31
0.0
  0
LINE
  5
117
330
1F
100
AcDbEntity
  8
0-0
  6
Continuous
 62
     3
370
     9
100
AcDbLine
 10
-142.5839484765874
 20
-717.8033576930497
 30
0.0
 11
-140.8478258444688
 21
-717.9249127022999
 31
0.0
  0
LINE
  5
118
330
1F
100
AcDbEntity
  8
0-0
  6
Continuous
 62
     3
370
     9
100
AcDbLine
 10
-147.8435148143399
 20
-721.8503467510254
 30
0.0
 11
-153.1569220936899
 21
-749.5797529237293
 31
0.0
  0
LINE
  5
119
330
1F
100
AcDbEntity
  8
0-0
  6
JWW_DASHED1
 62
     3
370
     9
100
AcDbLine
 10
-171.544099117952
 20
-715.7785419139614
 30
0.0
 11
-142.5839484765874
 21
-717.8033576930497
 31
0.0
  0
LINE
  5
11A
330
1F
100
AcDbEntity
  8
0-0
  6
Continuous
 62
     3
370
     9
100
AcDbLine
 10
-93.23459659610762
 20
-721.1074738819925
 30
0.0
 11
-115.9138545719969
 21
-719.5216434488111
 31
0.0
  0
LINE
  5
11B
330
1F
100
AcDbEntity
  8
0-0
  6
Continuous
 62
     3
370
     9
100
AcDbLine
 10
279.6575252184385
 20
-682.2861731151966
 30
0.0
 11
282.9910392221183
 21
-678.9526591115159
 31
0.0
  0
LINE
  5
11C
330
1F
100
AcDbEntity
  8
0-0
  6
Continuous
 62
     3
370
     9
100
AcDbLine
 10
279.6575252184385
 20
-682.2861731151966
 30
0.0
 11
262.9906158250884
 21
-682.2861731151966
 31
0.0
  0
LINE
  5
11D
330
1F
100
AcDbEntity
  8
0-0
  6
Continuous
 62
     3
370
     9
100
AcDbLine
 10
280.0221902461891
 20
-655.2058310543853
 30
0.0
 11
282.9910392221183
 21
-678.9526591115159
 31
0.0
  0
LINE
  5
11E
330
1F
100
AcDbEntity
  8
0-0
  6
Continuous
 62
     3
370
     9
100
AcDbLine
 10
120.7884312535191
 20
-738.2992498777844
 30
0.0
 11
118.5271117064332
 21
-749.6065082382656
 31
0.0
  0
LINE
  5
11F
330
1F
100
AcDbEntity
  8
0-0
  6
Continuous
 62
     3
370
     9
100
AcDbLine
 10
115.2583389576796
 20
-752.2863337546996
 30
0.0
 11
110.7238086126023
 21
-752.2863337546996
 31
0.0
  0
LINE
  5
120
330
1F
100
AcDbEntity
  8
0-0
  6
Continuous
 62
     3
370
     9
100
AcDbLine
 10
198.742847810841
 20
-677.4933383754624
 30
0.0
 11
276.3240112147582
 21
-652.2865289572269
 31
0.0
  0
LINE
  5
121
330
1F
100
AcDbEntity
  8
0-0
  6
Continuous
 62
     3
370
     9
100
AcDbLine
 10
175.255975710993
 20
-681.2288427222334
 30
0.0
 11
177.990963419125
 21
-658.9528963395364
 31
0.0
  0
LINE
  5
122
330
1F
100
AcDbEntity
  8
0-0
  6
Continuous
 62
     3
370
     9
100
AcDbLine
 10
74.83535275649501
 20
-909.1411819413352
 30
0.0
 11
84.1237409633402
 21
-745.0544713293561
 31
0.0
  0
LINE
  5
123
330
1F
100
AcDbEntity
  8
0-0
  6
Continuous
 62
     3
370
     9
100
AcDbLine
 10
187.9911751176405
 20
-658.9528963395364
 30
0.0
 11
190.0988993405372
 21
-672.2004104726707
 31
0.0
  0
LINE
  5
124
330
1F
100
AcDbEntity
  8
0-0
  6
JWW_HOJO
 62
     7
370
     9
100
AcDbLine
 10
71.5077843782683
 20
-912.2860874931621
 30
0.0
 11
74.65764461797164
 21
-912.2860874931621
 31
0.0
  0
LINE
  5
125
330
1F
100
AcDbEntity
  8
0-0
  6
Continuous
 62
     3
370
     9
100
AcDbLine
 10
70.88151183060859
 20
-743.0653293029823
 30
0.0
 11
61.3031092266931
 21
-912.2860874931621
 31
0.0
  0
LINE
  5
126
330
1F
100
AcDbEntity
  8
0-0
  6
Continuous
 62
     3
370
     9
100
AcDbLine
 10
94.10776734812373
 20
-735.6197546738749
 30
0.0
 11
100.5587709640446
 21
-735.6197546738749
 31
0.0
  0
LINE
  5
127
330
1F
100
AcDbEntity
  8
0-0
  6
Continuous
 62
     3
370
     9
100
AcDbLine
 10
107.4550358638498
 20
-749.6065082382656
 30
0.0
 11
105.4615997746492
 21
-739.6389974797389
 31
0.0
  0
LINE
  5
128
330
1F
100
AcDbEntity
  8
0-0
  6
Continuous
 62
     3
370
     9
100
AcDbLine
 10
121.3169312937373
 20
-709.347026737024
 30
0.0
 11
119.7334130482324
 21
-715.7365922232693
 31
0.0
  0
LINE
  5
129
330
1F
100
AcDbEntity
  8
0-0
  6
JWW_DASHED1
 62
     3
370
     9
100
AcDbLine
 10
173.6747696531631
 20
-694.1040946395387
 30
0.0
 11
175.2556453984675
 21
-681.2285124097084
 31
0.0
  0
LINE
  5
12A
330
1F
100
AcDbEntity
  8
0-0
  6
Continuous
 62
     3
370
     9
100
AcDbLine
 10
186.2573646731971
 20
-701.0353726670078
 30
0.0
 11
186.4387062494973
 21
-699.5582150545965
 31
0.0
  0
LINE
  5
12B
330
1F
100
AcDbEntity
  8
0-0
  6
JWW_DASHED1
 62
     3
370
     9
100
AcDbLine
 10
186.2391974843149
 20
-701.1833526782689
 30
0.0
 11
186.4387062494973
 21
-699.5582150545965
 31
0.0
  0
LINE
  5
12C
330
1F
100
AcDbEntity
  8
0-0
  6
Continuous
 62
     3
370
     9
100
AcDbLine
 10
130.2343785348546
 20
-735.6197546738749
 30
0.0
 11
124.0568736897472
 21
-735.6197546738749
 31
0.0
  0
LINE
  5
12D
330
1F
100
AcDbEntity
  8
0-0
  6
JWW_DASHED1
 62
     3
370
     9
100
AcDbLine
 10
141.8993653600592
 20
-717.8033576930497
 30
0.0
 11
140.1632427279401
 21
-717.9249127022999
 31
0.0
  0
LINE
  5
12E
330
1F
100
AcDbEntity
  8
0-0
  6
Continuous
 62
     3
370
     9
100
AcDbLine
 10
92.55001347957887
 20
-721.1074738819925
 30
0.0
 11
115.2289411429422
 21
-719.5216434488111
 31
0.0
  0
LINE
  5
12F
330
1F
100
AcDbEntity
  8
0-0
  6
Continuous
 62
     3
370
     9
100
AcDbLine
 10
142.9907179431103
 20
-740.0139021957693
 30
0.0
 11
138.2903707104151
 21
-724.6295963375255
 31
0.0
  0
LINE
  5
130
330
1F
100
AcDbEntity
  8
0-0
  6
Continuous
 62
     3
370
     9
100
AcDbLine
 10
135.0595839020525
 20
-724.8033407257471
 30
0.0
 11
133.5084362840098
 21
-732.9125132178547
 31
0.0
  0
LINE
  5
131
330
1F
100
AcDbEntity
  8
0-0
  6
Continuous
 62
     3
370
     9
100
AcDbLine
 10
169.6575087224505
 20
-740.0139021957693
 30
0.0
 11
175.9370801378248
 21
-715.929494737949
 31
0.0
  0
LINE
  5
132
330
1F
100
AcDbEntity
  8
0-0
  6
JWW_DASHED1
 62
     3
370
     9
100
AcDbLine
 10
174.7575341105613
 20
-685.2867320935379
 30
0.0
 11
198.742847810841
 21
-677.4933383754624
 31
0.0
  0
LINE
  5
133
330
1F
100
AcDbEntity
  8
0-0
  6
Continuous
 62
     3
370
     9
100
AcDbLine
 10
129.0749815716242
 20
-705.3343901816629
 30
0.0
 11
125.8210728865026
 21
-705.5619755114822
 31
0.0
  0
LINE
  5
134
330
1F
100
AcDbEntity
  8
0-0
  6
JWW_DASHED1
 62
     3
370
     9
100
AcDbLine
 10
135.0595839020525
 20
-724.8033407257471
 30
0.0
 11
135.6009661307513
 21
-721.9732230103759
 31
0.0
  0
LINE
  5
135
330
1F
100
AcDbEntity
  8
0-0
  6
JWW_HOJO
 62
     7
370
     9
100
AcDbLine
 10
74.83535275649501
 20
-909.1411819413352
 30
0.0
 11
74.61470398970391
 21
-913.0398606755248
 31
0.0
  0
LINE
  5
136
330
1F
100
AcDbEntity
  8
0-0
  6
Continuous
 62
     3
370
     9
100
AcDbLine
 10
190.9956978462839
 20
-694.0301046339082
 30
0.0
 11
234.5916661639313
 21
-679.8653126184686
 31
0.0
  0
LINE
  5
137
330
1F
100
AcDbEntity
  8
0-0
  6
Continuous
 62
     3
370
     9
100
AcDbLine
 10
135.6118664440811
 20
-689.7743580600459
 30
0.0
 11
133.6544344201207
 21
-701.1912801788721
 31
0.0
  0
LINE
  5
138
330
1F
100
AcDbEntity
  8
0-0
  6
Continuous
 62
     3
370
     9
100
AcDbLine
 10
140.4122983718935
 20
-685.6193568063509
 30
0.0
 11
146.3242319467901
 21
-685.6193568063509
 31
0.0
  0
LINE
  5
139
330
1F
100
AcDbEntity
  8
0-0
  6
Continuous
 62
     3
370
     9
100
AcDbLine
 10
166.3239947187697
 20
-685.6193568063509
 30
0.0
 11
170.2930300208129
 21
-685.6193568063509
 31
0.0
  0
LINE
  5
13A
330
1F
100
AcDbEntity
  8
0-0
  6
Continuous
 62
     3
370
     9
100
AcDbLine
 10
140.5397990065956
 20
-685.6193568063509
 30
0.0
 11
146.3242319467901
 21
-685.6193568063509
 31
0.0
  0
LINE
  5
13B
330
1F
100
AcDbEntity
  8
0-0
  6
Continuous
 62
     3
370
     9
100
AcDbLine
 10
166.3239947187697
 20
-685.6193568063509
 30
0.0
 11
170.2930300208129
 21
-685.6193568063509
 31
0.0
  0
LINE
  5
13C
330
1F
100
AcDbEntity
  8
0-0
  6
Continuous
 62
     3
370
     9
100
AcDbLine
 10
-207.0090943168333
 20
-812.2852917581135
 30
0.0
 11
-207.0090943168333
 21
-832.285384842618
 31
0.0
  0
LINE
  5
13D
330
1F
100
AcDbEntity
  8
0-0
  6
Continuous
 62
     3
370
     9
100
AcDbLine
 10
-159.7588785335978
 20
-731.618679056894
 30
0.0
 11
-180.9253051443602
 21
-731.618679056894
 31
0.0
  0
LINE
  5
13E
330
1F
100
AcDbEntity
  8
0-0
  6
Continuous
 62
     3
370
     9
100
AcDbLine
 10
-159.7588785335978
 20
-731.618679056894
 30
0.0
 11
-162.4760293653725
 21
-728.95239635399
 31
0.0
  0
LINE
  5
13F
330
1F
100
AcDbEntity
  8
0-0
  6
Continuous
 62
     3
370
     9
100
AcDbLine
 10
-178.2091452501612
 20
-728.95239635399
 30
0.0
 11
-180.9253051443602
 21
-731.618679056894
 31
0.0
  0
LINE
  5
140
330
1F
100
AcDbEntity
  8
0-0
  6
Continuous
 62
     3
370
     9
100
AcDbLine
 10
-162.4760293653725
 20
-728.95239635399
 30
0.0
 11
-178.2091452501612
 21
-728.95239635399
 31
0.0
  0
LINE
  5
141
330
1F
100
AcDbEntity
  8
0-0
  6
Continuous
 62
     3
370
     9
100
AcDbLine
 10
-187.008670919804
 20
-812.2852917581135
 30
0.0
 11
-207.0090943168333
 21
-812.2852917581135
 31
0.0
  0
LINE
  5
142
330
1F
100
AcDbEntity
  8
0-0
  6
Continuous
 62
     3
370
     9
100
AcDbLine
 10
-160.3418801404644
 20
-805.6189243758035
 30
0.0
 11
-160.3418801404644
 21
-762.2855545156394
 31
0.0
  0
LINE
  5
143
330
1F
100
AcDbEntity
  8
0-0
  6
Continuous
 62
     3
370
     9
100
AcDbLine
 10
-187.008670919804
 20
-832.285384842618
 30
0.0
 11
-207.0090943168333
 21
-832.285384842618
 31
0.0
  0
LINE
  5
144
330
1F
100
AcDbEntity
  8
0-0
  6
Continuous
 62
     3
370
     9
100
AcDbLine
 10
-180.3423035374942
 20
-805.6189243758035
 30
0.0
 11
-180.3423035374942
 21
-762.2855545156394
 31
0.0
  0
LINE
  5
145
330
1F
100
AcDbEntity
  8
0-0
  6
Continuous
 62
     3
370
     9
100
AcDbLine
 10
-178.2091452501612
 20
-762.2855545156394
 30
0.0
 11
-178.2091452501612
 21
-725.6188823503103
 31
0.0
  0
LINE
  5
146
330
1F
100
AcDbEntity
  8
0-0
  6
Continuous
 62
     3
370
     9
100
AcDbLine
 10
-162.4760293653725
 20
-762.2855545156394
 30
0.0
 11
-162.4760293653725
 21
-725.6188823503103
 31
0.0
  0
LINE
  5
147
330
1F
100
AcDbEntity
  8
0-0
  6
Continuous
 62
     3
370
     9
100
AcDbLine
 10
-159.7588785335978
 20
-762.2855545156394
 30
0.0
 11
-159.7588785335978
 21
-731.618679056894
 31
0.0
  0
LINE
  5
148
330
1F
100
AcDbEntity
  8
0-0
  6
Continuous
 62
     3
370
     9
100
AcDbLine
 10
-180.9253051443602
 20
-762.2855545156394
 30
0.0
 11
-180.9253051443602
 21
-731.618679056894
 31
0.0
  0
LINE
  5
149
330
1F
100
AcDbEntity
  8
0-0
  6
JWW_CENTER1
 62
     3
370
     9
100
AcDbLine
 10
-187.0093315448543
 20
-822.2858337691537
 30
0.0
 11
-214.0863704804133
 21
-822.2858337691537
 31
0.0
  0
LINE
  5
14A
330
1F
100
AcDbEntity
  8
0-0
  6
Continuous
 62
     3
370
     9
100
AcDbLine
 10
-162.4760293653725
 20
-725.6188823503103
 30
0.0
 11
-178.2091452501612
 21
-725.6188823503103
 31
0.0
  0
LINE
  5
14B
330
1F
100
AcDbEntity
  8
0-0
  6
Continuous
 62
     3
370
     9
100
AcDbLine
 10
-178.2091452501612
 20
-725.6188823503103
 30
0.0
 11
-170.3424221515041
 21
-721.0770851296797
 31
0.0
  0
LINE
  5
14C
330
1F
100
AcDbEntity
  8
0-0
  6
Continuous
 62
     3
370
     9
100
AcDbLine
 10
-162.4756990528476
 20
-725.6188823503103
 30
0.0
 11
-170.3424221515041
 21
-721.0770851296797
 31
0.0
  0
LINE
  5
14D
330
1F
100
AcDbEntity
  8
0-0
  6
Continuous
 62
     3
370
     9
100
AcDbLine
 10
-180.9253051443602
 20
-762.2855545156394
 30
0.0
 11
-159.7588785335978
 21
-762.2855545156394
 31
0.0
  0
LINE
  5
14E
330
1F
100
AcDbEntity
  8
0-0
  6
JWW_CENTER1
 62
     3
370
     9
100
AcDbLine
 10
-170.3424221515041
 20
-805.6189243758035
 30
0.0
 11
-170.3424221515041
 21
-720.0623650524599
 31
0.0
  0
LINE
  5
14F
330
1F
100
AcDbEntity
  8
0-0
  6
Continuous
 62
     3
370
     9
100
AcDbLine
 10
-156.4309798428451
 20
-752.2860034421751
 30
0.0
 11
-159.7588785335978
 21
-752.2860034421751
 31
0.0
  0
LINE
  5
150
330
1F
100
AcDbEntity
  8
0-0
  6
Continuous
 62
     3
370
     9
100
AcDbLine
 10
-180.9253051443602
 20
-752.2860034421751
 30
0.0
 11
-184.0315641307461
 21
-752.2860034421751
 31
0.0
  0
LINE
  5
151
330
1F
100
AcDbEntity
  8
0-0
  6
Continuous
 62
     3
370
     9
100
AcDbLine
 10
170.0829512548262
 20
-652.2865289572269
 30
0.0
 11
276.7144406194694
 21
-652.2865289572269
 31
0.0
  0
LINE
  5
152
330
1F
100
AcDbEntity
  8
0-2
  6
Continuous
 62
     4
370
     9
100
AcDbLine
 10
-133.675749986175
 20
-735.6197546738749
 30
0.0
 11
-130.9192919639088
 21
-735.6197546738749
 31
0.0
  0
LINE
  5
153
330
1F
100
AcDbEntity
  8
0-2
  6
Continuous
 62
     4
370
     9
100
AcDbLine
 10
132.990506244596
 20
-735.6197546738749
 30
0.0
 11
130.2343785348546
 21
-735.6197546738749
 31
0.0
  0
LINE
  5
154
330
1F
100
AcDbEntity
  8
0-0
  6
JWW_DASHED1
 62
     3
370
     9
100
AcDbLine
 10
170.8591856888972
 20
-715.7785419139614
 30
0.0
 11
166.3239947187697
 21
-716.0956419380923
 31
0.0
  0
LINE
  5
155
330
1F
100
AcDbEntity
  8
0-0
  6
JWW_DASHED1
 62
     3
370
     9
100
AcDbLine
 10
146.3242319467901
 20
-717.4941851695221
 30
0.0
 11
141.8993653600592
 21
-717.8033576930497
 31
0.0
  0
LINE
  5
156
330
1F
100
AcDbEntity
  8
0-0
  6
JWW_DASHED1
 62
     3
370
     9
100
AcDbLine
 10
146.3242319467901
 20
-704.1280888398637
 30
0.0
 11
129.0749815716242
 21
-705.3343901816629
 31
0.0
  0
LINE
  5
157
330
1F
100
AcDbEntity
  8
0-3
  6
Continuous
 62
     6
370
     9
100
AcDbLine
 10
-284.509331152093
 20
-675.6198057328866
 30
0.0
 11
-281.1758171484121
 21
-652.2865289572269
 31
0.0
  0
LINE
  5
158
330
1F
100
AcDbEntity
  8
0-3
  6
Continuous
 62
     6
370
     9
100
AcDbLine
 10
-302.8426672347575
 20
-675.6198057328866
 30
0.0
 11
-284.509331152093
 21
-675.6198057328866
 31
0.0
  0
LINE
  5
159
330
1F
100
AcDbEntity
  8
0-3
  6
Continuous
 62
     6
370
     9
100
AcDbLine
 10
302.1577538057028
 20
-675.6198057328866
 30
0.0
 11
283.8244177230382
 21
-675.6198057328866
 31
0.0
  0
LINE
  5
15A
330
1F
100
AcDbEntity
  8
0-3
  6
Continuous
 62
     6
370
     9
100
AcDbLine
 10
283.8244177230382
 20
-675.6198057328866
 30
0.0
 11
280.4909037193585
 21
-652.2865289572269
 31
0.0
  0
LINE
  5
15B
330
1F
100
AcDbEntity
  8
0-3
  6
Continuous
 62
     6
370
     9
100
AcDbLine
 10
-311.1751309938563
 20
-648.9530149535472
 30
0.0
 11
-302.8426672347575
 21
-675.6198057328866
 31
0.0
  0
LINE
  5
15C
330
1F
100
AcDbEntity
  8
0-3
  6
Continuous
 62
     6
370
     9
100
AcDbLine
 10
310.490878189853
 20
-648.9530149535472
 30
0.0
 11
302.1577538057028
 21
-675.6198057328866
 31
0.0
  0
LINE
  5
15D
330
1F
100
AcDbEntity
  8
0-3
  6
Continuous
 62
     6
370
     9
100
AcDbLine
 10
-14.00880712953494
 20
-648.9530149535472
 30
0.0
 11
-14.00880712953494
 21
-652.2865289572269
 31
0.0
  0
LINE
  5
15E
330
1F
100
AcDbEntity
  8
0-3
  6
Continuous
 62
     6
370
     9
100
AcDbLine
 10
13.32455432553047
 20
-648.9530149535472
 30
0.0
 11
13.32455432553047
 21
-652.2865289572269
 31
0.0
  0
LINE
  5
15F
330
1F
100
AcDbEntity
  8
0-3
  6
Continuous
 62
     3
370
     9
100
AcDbLine
 10
146.3242319467901
 20
-705.3687426842771
 30
0.0
 11
146.3242319467901
 21
-718.9531755930502
 31
0.0
  0
LINE
  5
160
330
1F
100
AcDbEntity
  8
0-3
  6
Continuous
 62
     3
370
     9
100
AcDbLine
 10
147.9909889486305
 20
-707.035499686117
 30
0.0
 11
147.9909889486305
 21
-722.2863592842054
 31
0.0
  0
LINE
  5
161
330
1F
100
AcDbEntity
  8
0-3
  6
Continuous
 62
     3
370
     9
100
AcDbLine
 10
164.6572377169298
 20
-707.035499686117
 30
0.0
 11
164.6572377169298
 21
-722.2863592842054
 31
0.0
  0
LINE
  5
162
330
1F
100
AcDbEntity
  8
0-3
  6
Continuous
 62
     3
370
     9
100
AcDbLine
 10
166.3239947187697
 20
-705.3687426842771
 30
0.0
 11
166.3239947187697
 21
-718.9531755930502
 31
0.0
  0
LINE
  5
163
330
1F
100
AcDbEntity
  8
0-2
  6
Continuous
 62
     4
370
     9
100
AcDbLine
 10
-125.3426256020248
 20
-735.6197546738749
 30
0.0
 11
-125.3426256020248
 21
-985.6197621363467
 31
0.0
  0
LINE
  5
164
330
1F
100
AcDbEntity
  8
0-2
  6
Continuous
 62
     4
370
     9
100
AcDbLine
 10
-133.675749986175
 20
-735.6197546738749
 30
0.0
 11
-133.675749986175
 21
-985.6197621363467
 31
0.0
  0
LINE
  5
165
330
1F
100
AcDbEntity
  8
0-2
  6
Continuous
 62
     4
370
     9
100
AcDbLine
 10
132.990506244596
 20
-735.6197546738749
 30
0.0
 11
132.990506244596
 21
-985.6197621363467
 31
0.0
  0
LINE
  5
166
330
1F
100
AcDbEntity
  8
0-2
  6
Continuous
 62
     4
370
     9
100
AcDbLine
 10
124.6577121729712
 20
-735.6197546738749
 30
0.0
 11
124.6577121729712
 21
-985.6197621363467
 31
0.0
  0
LINE
  5
167
330
1F
100
AcDbEntity
  8
0-9
  6
Continuous
 62
     3
370
     9
100
AcDbLine
 10
-122.009111598345
 20
-985.6197621363467
 30
0.0
 11
-120.0090692586417
 21
-985.6197621363467
 31
0.0
  0
LINE
  5
168
330
1F
100
AcDbEntity
  8
0-9
  6
Continuous
 62
     3
370
     9
100
AcDbLine
 10
-120.0090692586417
 20
-962.6197706985499
 30
0.0
 11
-120.0090692586417
 21
-985.6197621363467
 31
0.0
  0
LINE
  5
169
330
1F
100
AcDbEntity
  8
0-9
  6
Continuous
 62
     3
370
     9
100
AcDbLine
 10
-122.009111598345
 20
-960.6197283588463
 30
0.0
 11
-122.009111598345
 21
-985.6197621363467
 31
0.0
  0
LINE
  5
16A
330
1F
100
AcDbEntity
  8
0-9
  6
Continuous
 62
     3
370
     9
100
AcDbLine
 10
121.3241981692909
 20
-985.6197621363467
 30
0.0
 11
119.3241558295881
 21
-985.6197621363467
 31
0.0
  0
LINE
  5
16B
330
1F
100
AcDbEntity
  8
0-9
  6
Continuous
 62
     3
370
     9
100
AcDbLine
 10
119.3241558295881
 20
-962.6197706985499
 30
0.0
 11
119.3241558295881
 21
-985.6197621363467
 31
0.0
  0
LINE
  5
16C
330
1F
100
AcDbEntity
  8
0-9
  6
Continuous
 62
     3
370
     9
100
AcDbLine
 10
121.3241981692909
 20
-960.6197283588463
 30
0.0
 11
121.3241981692909
 21
-985.6197621363467
 31
0.0
  0
LINE
  5
16D
330
1F
100
AcDbEntity
  8
0-9
  6
Continuous
 62
     3
370
     9
100
AcDbLine
 10
74.65764461797164
 20
-965.6196690518414
 30
0.0
 11
76.38980349978851
 21
-962.6197706985499
 31
0.0
  0
LINE
  5
16E
330
1F
100
AcDbEntity
  8
0-9
  6
Continuous
 62
     3
370
     9
100
AcDbLine
 10
76.38980349978851
 20
-962.6197706985499
 30
0.0
 11
119.3241558295881
 21
-962.6197706985499
 31
0.0
  0
LINE
  5
16F
330
1F
100
AcDbEntity
  8
0-9
  6
Continuous
 62
     3
370
     9
100
AcDbLine
 10
73.5028720300943
 20
-963.6196267121386
 30
0.0
 11
75.23503091191117
 21
-960.6197283588463
 31
0.0
  0
LINE
  5
170
330
1F
100
AcDbEntity
  8
0-9
  6
Continuous
 62
     3
370
     9
100
AcDbLine
 10
-75.34255804702639
 20
-965.6196690518414
 30
0.0
 11
-77.07471692884326
 21
-962.6197706985499
 31
0.0
  0
LINE
  5
171
330
1F
100
AcDbEntity
  8
0-9
  6
Continuous
 62
     3
370
     9
100
AcDbLine
 10
-75.34255804702639
 20
-965.6196690518414
 30
0.0
 11
74.65764461797164
 21
-965.6196690518414
 31
0.0
  0
LINE
  5
172
330
1F
100
AcDbEntity
  8
0-9
  6
Continuous
 62
     3
370
     9
100
AcDbLine
 10
-74.1877854591479
 20
-963.6196267121386
 30
0.0
 11
-75.91994434096478
 21
-960.6197283588463
 31
0.0
  0
LINE
  5
173
330
1F
100
AcDbEntity
  8
0-9
  6
Continuous
 62
     3
370
     9
100
AcDbLine
 10
-120.0090692586417
 20
-962.6197706985499
 30
0.0
 11
-77.07471692884326
 21
-962.6197706985499
 31
0.0
  0
LINE
  5
174
330
1F
100
AcDbEntity
  8
0-9
  6
Continuous
 62
     2
370
     9
100
AcDbLine
 10
19.65763636997792
 20
-985.6197621363467
 30
0.0
 11
-20.34221948650611
 21
-985.6194318238213
 31
0.0
  0
LINE
  5
175
330
1F
100
AcDbEntity
  8
0-9
  6
Continuous
 62
     2
370
     9
100
AcDbLine
 10
-20.34221948650611
 20
-985.6194318238213
 30
0.0
 11
-20.34254979903153
 21
-970.3137403465598
 31
0.0
  0
LINE
  5
176
330
1F
100
AcDbEntity
  8
0-9
  6
Continuous
 62
     2
370
     9
100
AcDbLine
 10
-16.84156734510793
 20
-973.1722649390931
 30
0.0
 11
-22.00897648834712
 21
-968.953183055522
 31
0.0
  0
LINE
  5
177
330
1F
100
AcDbEntity
  8
0-9
  6
Continuous
 62
     2
370
     9
100
AcDbLine
 10
-16.84156734510793
 20
-973.1722649390931
 30
0.0
 11
-12.36087794162756
 21
-973.1722649390931
 31
0.0
  0
LINE
  5
178
330
1F
100
AcDbEntity
  8
0-9
  6
Continuous
 62
     2
370
     9
100
AcDbLine
 10
-12.36087794162756
 20
-973.1722649390931
 30
0.0
 11
-12.36087794162756
 21
-965.6196690518414
 31
0.0
  0
LINE
  5
179
330
1F
100
AcDbEntity
  8
0-9
  6
Continuous
 62
     2
370
     9
100
AcDbLine
 10
-22.00897648834712
 20
-968.953183055522
 30
0.0
 11
-22.00897648834712
 21
-965.6196690518414
 31
0.0
  0
LINE
  5
17A
330
1F
100
AcDbEntity
  8
0-9
  6
Continuous
 62
     2
370
     9
100
AcDbLine
 10
19.65763636997792
 20
-985.6197621363467
 30
0.0
 11
19.65763636997792
 21
-970.3137403465598
 31
0.0
  0
LINE
  5
17B
330
1F
100
AcDbEntity
  8
0-9
  6
Continuous
 62
     2
370
     9
100
AcDbLine
 10
16.15665391605319
 20
-973.1722649390931
 30
0.0
 11
21.32439337181779
 21
-968.953183055522
 31
0.0
  0
LINE
  5
17C
330
1F
100
AcDbEntity
  8
0-9
  6
Continuous
 62
     2
370
     9
100
AcDbLine
 10
16.15665391605319
 20
-973.1722649390931
 30
0.0
 11
11.67596451257396
 21
-973.1722649390931
 31
0.0
  0
LINE
  5
17D
330
1F
100
AcDbEntity
  8
0-9
  6
Continuous
 62
     2
370
     9
100
AcDbLine
 10
11.67596451257396
 20
-973.1722649390931
 30
0.0
 11
11.67596451257396
 21
-965.6196690518414
 31
0.0
  0
LINE
  5
17E
330
1F
100
AcDbEntity
  8
0-9
  6
Continuous
 62
     2
370
     9
100
AcDbLine
 10
21.32439337181779
 20
-968.953183055522
 30
0.0
 11
21.32439337181779
 21
-965.6196690518414
 31
0.0
  0
LINE
  5
17F
330
1F
100
AcDbEntity
  8
0-9
  6
Continuous
 62
     3
370
     9
100
AcDbLine
 10
-15.34227879351135
 20
-965.6196690518414
 30
0.0
 11
-15.34227879351135
 21
-963.6196267121386
 31
0.0
  0
LINE
  5
180
330
1F
100
AcDbEntity
  8
0-9
  6
Continuous
 62
     3
370
     9
100
AcDbLine
 10
14.65769567698317
 20
-965.6196690518414
 30
0.0
 11
14.65769567698317
 21
-963.6196267121386
 31
0.0
  0
LINE
  5
181
330
1F
100
AcDbEntity
  8
0-9
  6
Continuous
 62
     2
370
     9
100
AcDbLine
 10
-22.00897648834712
 20
-965.6196690518414
 30
0.0
 11
21.32439337181779
 21
-965.6196690518414
 31
0.0
  0
LINE
  5
182
330
1F
100
AcDbEntity
  8
0-9
  6
Continuous
 62
     3
370
     9
100
AcDbLine
 10
-47.00901026584631
 20
-965.6196690518414
 30
0.0
 11
-47.00901026584631
 21
-963.6196267121386
 31
0.0
  0
LINE
  5
183
330
1F
100
AcDbEntity
  8
0-9
  6
Continuous
 62
     3
370
     9
100
AcDbLine
 10
-60.34240565551613
 20
-965.6196690518414
 30
0.0
 11
-60.34240565551613
 21
-963.6196267121386
 31
0.0
  0
LINE
  5
184
330
1F
100
AcDbEntity
  8
0-9
  6
Continuous
 62
     3
370
     9
100
AcDbLine
 10
46.32442714931699
 20
-965.6196690518414
 30
0.0
 11
46.32442714931699
 21
-963.6196267121386
 31
0.0
  0
LINE
  5
185
330
1F
100
AcDbEntity
  8
0-9
  6
Continuous
 62
     3
370
     9
100
AcDbLine
 10
59.65749222646195
 20
-965.6196690518414
 30
0.0
 11
59.65749222646195
 21
-963.6196267121386
 31
0.0
  0
LINE
  5
186
330
1F
100
AcDbEntity
  8
0-0
  6
Continuous
 62
     3
370
     9
100
AcDbLine
 10
-277.3993540485242
 20
-652.2865289572269
 30
0.0
 11
-13.67552179167149
 21
-652.2865289572269
 31
0.0
  0
LINE
  5
187
330
1F
100
AcDbEntity
  8
0-0
  6
Continuous
 62
     3
370
     9
100
AcDbLine
 10
12.9909386751433
 20
-652.2865289572269
 30
0.0
 11
142.5652754107341
 21
-652.2865289572269
 31
0.0
  0
LINE
  5
188
330
1F
100
AcDbEntity
  8
0-3
  6
Continuous
 62
     6
370
     9
100
AcDbLine
 10
310.490878189853
 20
-648.9530149535472
 30
0.0
 11
12.9909386751433
 21
-648.9530149535472
 31
0.0
  0
LINE
  5
189
330
1F
100
AcDbEntity
  8
0-3
  6
Continuous
 62
     6
370
     9
100
AcDbLine
 10
-13.67552179167149
 20
-648.9530149535472
 30
0.0
 11
-311.1751309938563
 21
-648.9530149535472
 31
0.0
  0
LINE
  5
18A
330
1F
100
AcDbEntity
  8
0-0
  6
Continuous
 62
     3
370
     9
100
AcDbLine
 10
-13.67552179167149
 20
-722.541360553611
 30
0.0
 11
-72.7278040980434
 21
-722.541360553611
 31
0.0
  0
LINE
  5
18B
330
1F
100
AcDbEntity
  8
0-0
  6
Continuous
 62
     3
370
     9
100
AcDbLine
 10
12.9909386751433
 20
-722.541360553611
 30
0.0
 11
72.04322098151465
 21
-722.541360553611
 31
0.0
  0
LINE
  5
18C
330
1F
100
AcDbEntity
  8
0-0
  6
Continuous
 62
     3
370
     9
100
AcDbLine
 10
71.5077843782683
 20
-912.2860874931621
 30
0.0
 11
12.9909386751433
 21
-912.2860874931621
 31
0.0
  0
LINE
  5
18D
330
1F
100
AcDbEntity
  8
0-0
  6
Continuous
 62
     3
370
     9
100
AcDbLine
 10
-72.19236749479649
 20
-912.2860874931621
 30
0.0
 11
-13.67552179167149
 21
-912.2860874931621
 31
0.0
  0
LINE
  5
18E
330
1F
100
AcDbEntity
  8
0-3
  6
Continuous
 62
     6
370
     9
100
AcDbLine
 10
280.4909037193585
 20
-652.2865289572269
 30
0.0
 11
12.9909386751433
 21
-652.2865289572269
 31
0.0
  0
LINE
  5
18F
330
1F
100
AcDbEntity
  8
0-3
  6
Continuous
 62
     6
370
     9
100
AcDbLine
 10
-13.67552179167149
 20
-652.2865289572269
 30
0.0
 11
-281.1758171484121
 21
-652.2865289572269
 31
0.0
  0
LINE
  5
190
330
1F
100
AcDbEntity
  8
0-0
  6
Continuous
 62
     3
370
     9
100
AcDbLine
 10
-188.6757582341687
 20
-658.9528963395364
 30
0.0
 11
-15.34260910603678
 21
-658.9528963395364
 31
0.0
  0
LINE
  5
191
330
1F
100
AcDbEntity
  8
0-0
  6
Continuous
 62
     3
370
     9
100
AcDbLine
 10
14.65769567698317
 20
-658.9528963395364
 30
0.0
 11
187.9911751176405
 21
-658.9528963395364
 31
0.0
  0
LINE
  5
192
330
1F
100
AcDbEntity
  8
0-9
  6
Continuous
 62
     3
370
     9
100
AcDbLine
 10
-74.1877854591479
 20
-963.6196267121386
 30
0.0
 11
-13.67552179167149
 21
-963.6196267121386
 31
0.0
  0
LINE
  5
193
330
1F
100
AcDbEntity
  8
0-9
  6
Continuous
 62
     3
370
     9
100
AcDbLine
 10
12.9909386751433
 20
-963.6196267121386
 30
0.0
 11
73.5028720300943
 21
-963.6196267121386
 31
0.0
  0
LINE
  5
194
330
1F
100
AcDbEntity
  8
0-9
  6
Continuous
 62
     3
370
     9
100
AcDbLine
 10
121.3241981692909
 20
-960.6197283588463
 30
0.0
 11
12.9909386751433
 21
-960.6197283588463
 31
0.0
  0
LINE
  5
195
330
1F
100
AcDbEntity
  8
0-9
  6
Continuous
 62
     3
370
     9
100
AcDbLine
 10
-13.67552179167149
 20
-960.6197283588463
 30
0.0
 11
-122.009111598345
 21
-960.6197283588463
 31
0.0
  0
LINE
  5
196
330
1F
100
AcDbEntity
  8
0-8
  6
Continuous
 62
     6
370
     9
100
AcDbLine
 10
12.9909386751433
 20
-387.8739950854645
 30
0.0
 11
-13.67552179167149
 21
-387.8739950854645
 31
0.0
  0
LINE
  5
197
330
1F
100
AcDbEntity
  8
0-8
  6
Continuous
 62
     6
370
     9
100
AcDbLine
 10
-13.67552179167149
 20
-387.8739950854645
 30
0.0
 11
-11.42080849508829
 21
-385.618951476356
 31
0.0
  0
LINE
  5
198
330
1F
100
AcDbEntity
  8
0-8
  6
Continuous
 62
     6
370
     9
100
AcDbLine
 10
-11.42080849508829
 20
-385.618951476356
 30
0.0
 11
10.73589506603412
 21
-385.618951476356
 31
0.0
  0
LINE
  5
199
330
1F
100
AcDbEntity
  8
0-8
  6
Continuous
 62
     6
370
     9
100
AcDbLine
 10
10.73589506603412
 20
-385.618951476356
 30
0.0
 11
12.9909386751433
 21
-387.8739950854645
 31
0.0
  0
LINE
  5
19A
330
1F
100
AcDbEntity
  8
0-8
  6
Continuous
 62
     6
370
     9
100
AcDbLine
 10
-11.42080849508829
 20
-385.618951476356
 30
0.0
 11
-11.42080849508829
 21
-965.6196690518414
 31
0.0
  0
LINE
  5
19B
330
1F
100
AcDbEntity
  8
0-8
  6
Continuous
 62
     6
370
     9
100
AcDbLine
 10
-13.67552179167149
 20
-387.8739950854645
 30
0.0
 11
-13.67552179167149
 21
-965.6196690518414
 31
0.0
  0
LINE
  5
19C
330
1F
100
AcDbEntity
  8
0-8
  6
Continuous
 62
     6
370
     9
100
AcDbLine
 10
10.73589506603412
 20
-385.618951476356
 30
0.0
 11
10.73589506603412
 21
-965.6196690518414
 31
0.0
  0
LINE
  5
19D
330
1F
100
AcDbEntity
  8
0-8
  6
Continuous
 62
     6
370
     9
100
AcDbLine
 10
12.9909386751433
 20
-387.8739950854645
 30
0.0
 11
12.9909386751433
 21
-965.6196690518414
 31
0.0
  0
ARC
  5
19E
330
1F
100
AcDbEntity
  8
0-C
  6
Continuous
 62
     2
370
     9
100
AcDbCircle
 10
16.32445267882304
 20
-660.2866983160388
 30
0.0
 40
1.666666682008917
100
AcDbArc
 50
180.0
 51
270.0
  0
ARC
  5
19F
330
1F
100
AcDbEntity
  8
0-C
  6
Continuous
 62
     2
370
     9
100
AcDbCircle
 10
-17.00936610787664
 20
-660.2866983160388
 30
0.0
 40
1.666666682008917
100
AcDbArc
 50
270.0
 51
0.0
  0
ARC
  5
1A0
330
1F
100
AcDbEntity
  8
0-C
  6
Continuous
 62
     2
370
     9
100
AcDbCircle
 10
-73.67580104518652
 20
-699.2866981589341
 30
0.0
 40
6.666666728035669
100
AcDbArc
 50
270.0
 51
0.0
  0
ARC
  5
1A1
330
1F
100
AcDbEntity
  8
0-C
  6
Continuous
 62
     2
370
     9
100
AcDbCircle
 10
-104.694789655727
 20
-699.2866981589341
 30
0.0
 40
6.666666728035669
100
AcDbArc
 50
189.4628143310547
 51
270.0
  0
ARC
  5
1A2
330
1F
100
AcDbEntity
  8
0-C
  6
Continuous
 62
     2
370
     9
100
AcDbCircle
 10
72.99088761613177
 20
-699.2866981589341
 30
0.0
 40
6.666666728035669
100
AcDbArc
 50
180.0
 51
270.0
  0
ARC
  5
1A3
330
1F
100
AcDbEntity
  8
0-C
  6
Continuous
 62
     2
370
     9
100
AcDbCircle
 10
104.0098762266734
 20
-699.2866981589341
 30
0.0
 40
6.666666728035669
100
AcDbArc
 50
270.0
 51
350.5371856689453
  0
ARC
  5
1A4
330
1F
100
AcDbEntity
  8
0-C
  6
Continuous
 62
     2
370
     9
100
AcDbCircle
 10
-17.00936610787664
 20
-660.2866983160388
 30
0.0
 40
5.66666684785865
100
AcDbArc
 50
270.0
 51
350.4709777832031
  0
ARC
  5
1A5
330
1F
100
AcDbEntity
  8
0-C
  6
Continuous
 62
     2
370
     9
100
AcDbCircle
 10
16.32445267882304
 20
-660.2866983160388
 30
0.0
 40
5.66666684785865
100
AcDbArc
 50
189.5361938476562
 51
270.0
  0
ARC
  5
1A6
330
1F
100
AcDbEntity
  8
0-3
  6
Continuous
 62
     4
370
     9
100
AcDbCircle
 10
165.7446265496799
 20
-672.6199073795942
 30
0.0
 40
6.666666728035669
100
AcDbArc
 50
5.000015258789053
 51
89.99999999999999
  0
ARC
  5
1A7
330
1F
100
AcDbEntity
  8
0-3
  6
Continuous
 62
     4
370
     9
100
AcDbCircle
 10
146.9036001158804
 20
-672.6199073795942
 30
0.0
 40
6.666666728035669
100
AcDbArc
 50
90.0
 51
174.9999847412109
  0
ARC
  5
1A8
330
1F
100
AcDbEntity
  8
0-0
  6
Continuous
 62
     3
370
     9
100
AcDbCircle
 10
170.2930300208129
 20
-680.6194161133558
 30
0.0
 40
5.000000046026752
100
AcDbArc
 50
270.0
 51
352.9995880126953
  0
ARC
  5
1A9
330
1F
100
AcDbEntity
  8
0-0
  6
Continuous
 62
     3
370
     9
100
AcDbCircle
 10
-277.3993540485242
 20
-655.6193823358567
 30
0.0
 40
3.333333364017835
100
AcDbArc
 50
90.0
 51
172.875732421875
  0
ARC
  5
1AA
330
1F
100
AcDbEntity
  8
0-0
  6
Continuous
 62
     3
370
     9
100
AcDbCircle
 10
-124.7417871188009
 20
-738.9529383650301
 30
0.0
 40
3.333333364017835
100
AcDbArc
 50
11.30934143066407
 51
90.00000000000001
  0
ARC
  5
1AB
330
1F
100
AcDbEntity
  8
0-0
  6
Continuous
 62
     3
370
     9
100
AcDbCircle
 10
-115.9432523867343
 20
-748.9528197510199
 30
0.0
 40
3.333333364017835
100
AcDbArc
 50
191.3091430664063
 51
270.0
  0
ARC
  5
1AC
330
1F
100
AcDbEntity
  8
0-0
  6
Continuous
 62
     3
370
     9
100
AcDbCircle
 10
-111.4083917291316
 20
-748.9528197510199
 30
0.0
 40
3.333333364017835
100
AcDbArc
 50
270.0
 51
348.6908569335938
  0
ARC
  5
1AD
330
1F
100
AcDbEntity
  8
0-0
  6
JWW_PHANTOM2
 62
     3
370
     9
100
AcDbCircle
 10
-170.9779434498677
 20
-680.6194161133558
 30
0.0
 40
5.000000046026752
100
AcDbArc
 50
187.0004119873047
 51
270.0
  0
ARC
  5
1AE
330
1F
100
AcDbEntity
  8
0-0
  6
Continuous
 62
     3
370
     9
100
AcDbCircle
 10
-197.3672717080922
 20
-671.1533197679873
 30
0.0
 40
6.666666728035669
100
AcDbArc
 50
251.9996948242187
 51
350.9597778320312
  0
ARC
  5
1AF
330
1F
100
AcDbEntity
  8
0-0
  6
Continuous
 62
     3
370
     9
100
AcDbCircle
 10
-246.6069598302261
 20
-714.7373968347301
 30
0.0
 40
36.66666958476279
100
AcDbArc
 50
71.99943542480469
 51
117.7433776855469
  0
ARC
  5
1B0
330
1F
100
AcDbEntity
  8
0-0
  6
Continuous
 62
     3
370
     9
100
AcDbCircle
 10
-94.79235046465305
 20
-745.6196360598651
 30
0.0
 40
10.0000000920535
100
AcDbArc
 50
3.239257812500011
 51
90.0
  0
ARC
  5
1B1
330
1F
100
AcDbEntity
  8
0-0
  6
Continuous
 62
     3
370
     9
100
AcDbCircle
 10
-72.19236749479649
 20
-908.9529038020078
 30
0.0
 40
3.333333364017835
100
AcDbArc
 50
183.2379455566406
 51
270.0
  0
ARC
  5
1B2
330
1F
100
AcDbEntity
  8
0-0
  6
Continuous
 62
     3
370
     9
100
AcDbCircle
 10
-184.0315641307461
 20
-748.9524894384945
 30
0.0
 40
3.333333364017835
100
AcDbArc
 50
186.4559936523438
 51
270.0000000000001
  0
ARC
  5
1B3
330
1F
100
AcDbEntity
  8
0-0
  6
Continuous
 62
     3
370
     9
100
AcDbCircle
 10
-199.8175300195561
 20
-698.396175591166
 30
0.0
 40
6.666666728035669
100
AcDbArc
 50
6.457000732421872
 51
72.00018310546875
  0
ARC
  5
1B4
330
1F
100
AcDbEntity
  8
0-0
  6
Continuous
 62
     3
370
     9
100
AcDbCircle
 10
-94.8623767199814
 20
-744.3842672158539
 30
0.0
 40
23.33333354812484
100
AcDbArc
 50
3.239624023437499
 51
86.00007629394531
  0
ARC
  5
1B5
330
1F
100
AcDbEntity
  8
0-0
  6
Continuous
 62
     3
370
     9
100
AcDbCircle
 10
-101.2433540805739
 20
-740.6193650543455
 30
0.0
 40
5.000000046026752
100
AcDbArc
 50
90.0
 51
168.6902008056641
  0
ARC
  5
1B6
330
1F
100
AcDbEntity
  8
0-0
  6
JWW_PHANTOM2
 62
     3
370
     9
100
AcDbCircle
 10
-141.2247124356497
 20
-690.619297499346
 30
0.0
 40
5.000000046026752
100
AcDbArc
 50
9.728439331054691
 51
90.0
  0
ARC
  5
1B7
330
1F
100
AcDbEntity
  8
0-0
  6
JWW_PHANTOM2
 62
     3
370
     9
100
AcDbCircle
 10
-129.4107546616095
 20
-700.3466710520979
 30
0.0
 40
5.000000046026752
100
AcDbArc
 50
189.7284393310547
 51
265.9999084472656
  0
ARC
  5
1B8
330
1F
100
AcDbEntity
  8
0-0
  6
Continuous
 62
     3
370
     9
100
AcDbCircle
 10
-126.8547963421014
 20
-710.5496946410472
 30
0.0
 40
5.000000046026752
100
AcDbArc
 50
13.91806030273438
 51
86.0
  0
ARC
  5
1B9
330
1F
100
AcDbEntity
  8
0-0
  6
Continuous
 62
     3
370
     9
100
AcDbCircle
 10
-115.5650445454523
 20
-714.5339243192461
 30
0.0
 40
5.000000046026752
100
AcDbArc
 50
193.9179077148438
 51
266.0
  0
ARC
  5
1BA
330
1F
100
AcDbEntity
  8
0-0
  6
Continuous
 62
     3
370
     9
100
AcDbCircle
 10
-156.4309798428451
 20
-748.9524894384945
 30
0.0
 40
3.333333364017835
100
AcDbArc
 50
270.0
 51
349.1540832519531
  0
ARC
  5
1BB
330
1F
100
AcDbEntity
  8
0-0
  6
Continuous
 62
     3
370
     9
100
AcDbCircle
 10
-164.4341220143832
 20
-692.8855717343095
 30
0.0
 40
10.0000000920535
100
AcDbArc
 50
186.9997100830078
 51
266.0002899169922
  0
ARC
  5
1BC
330
1F
100
AcDbEntity
  8
0-0
  6
JWW_DASHED1
 62
     3
370
     9
100
AcDbCircle
 10
-193.7404401820908
 20
-700.3704535539077
 30
0.0
 40
6.666666728035669
100
AcDbArc
 50
6.999053955078136
 51
72.00112915039062
  0
ARC
  5
1BD
330
1F
100
AcDbEntity
  8
0-0
  6
JWW_DASHED1
 62
     3
370
     9
100
AcDbCircle
 10
-170.3813990294702
 20
-699.1525912737288
 30
0.0
 40
16.66666682008918
100
AcDbArc
 50
186.9994506835938
 51
266.0002746582031
  0
ARC
  5
1BE
330
1F
100
AcDbEntity
  8
0-0
  6
Continuous
 62
     3
370
     9
100
AcDbCircle
 10
-130.9192919639088
 20
-732.2862406701952
 30
0.0
 40
3.333333364017835
100
AcDbArc
 50
190.82763671875
 51
270.0
  0
ARC
  5
1BF
330
1F
100
AcDbEntity
  8
0-0
  6
Continuous
 62
     3
370
     9
100
AcDbCircle
 10
-141.196635871014
 20
-722.9126318318649
 30
0.0
 40
5.000000046026752
100
AcDbArc
 50
10.8302001953125
 51
86.0
  0
ARC
  5
1C0
330
1F
100
AcDbEntity
  8
0-0
  6
Continuous
 62
     3
370
     9
100
AcDbCircle
 10
-142.9327585031319
 20
-722.7914071351402
 30
0.0
 40
5.000000046026752
100
AcDbArc
 50
85.99998474121095
 51
169.1521148681641
  0
ARC
  5
1C1
330
1F
100
AcDbEntity
  8
0-0
  6
Continuous
 62
     3
370
     9
100
AcDbCircle
 10
276.7144406194694
 20
-655.6193823358567
 30
0.0
 40
3.333333364017835
100
AcDbArc
 50
7.124267578125002
 51
90.0
  0
ARC
  5
1C2
330
1F
100
AcDbEntity
  8
0-0
  6
Continuous
 62
     3
370
     9
100
AcDbCircle
 10
124.0568736897472
 20
-738.9529383650301
 30
0.0
 40
3.333333364017835
100
AcDbArc
 50
90.0
 51
168.6906585693359
  0
ARC
  5
1C3
330
1F
100
AcDbEntity
  8
0-0
  6
Continuous
 62
     3
370
     9
100
AcDbCircle
 10
115.2583389576796
 20
-748.9528197510199
 30
0.0
 40
3.333333364017835
100
AcDbArc
 50
270.0
 51
348.6908569335938
  0
ARC
  5
1C4
330
1F
100
AcDbEntity
  8
0-0
  6
Continuous
 62
     3
370
     9
100
AcDbCircle
 10
110.7238086126023
 20
-748.9528197510199
 30
0.0
 40
3.333333364017835
100
AcDbArc
 50
191.3091430664063
 51
270.0
  0
ARC
  5
1C5
330
1F
100
AcDbEntity
  8
0-0
  6
Continuous
 62
     3
370
     9
100
AcDbCircle
 10
170.2930300208129
 20
-680.6194161133558
 30
0.0
 40
5.000000046026752
100
AcDbArc
 50
270.0
 51
352.9995880126953
  0
ARC
  5
1C6
330
1F
100
AcDbEntity
  8
0-0
  6
Continuous
 62
     3
370
     9
100
AcDbCircle
 10
196.682358279038
 20
-671.1533197679873
 30
0.0
 40
6.666666728035669
100
AcDbArc
 50
189.0402221679687
 51
288.0003051757812
  0
ARC
  5
1C7
330
1F
100
AcDbEntity
  8
0-0
  6
Continuous
 62
     3
370
     9
100
AcDbCircle
 10
245.9220464011725
 20
-714.7373968347301
 30
0.0
 40
36.66666958476279
100
AcDbArc
 50
62.25660705566405
 51
108.0005493164062
  0
ARC
  5
1C8
330
1F
100
AcDbEntity
  8
0-0
  6
Continuous
 62
     3
370
     9
100
AcDbCircle
 10
94.10776734812373
 20
-745.6196360598651
 30
0.0
 40
10.0000000920535
100
AcDbArc
 50
90.0
 51
176.7607421875
  0
ARC
  5
1C9
330
1F
100
AcDbEntity
  8
0-0
  6
Continuous
 62
     3
370
     9
100
AcDbCircle
 10
71.5077843782683
 20
-908.9529038020078
 30
0.0
 40
3.333333364017835
100
AcDbArc
 50
270.0
 51
356.7620544433594
  0
ARC
  5
1CA
330
1F
100
AcDbEntity
  8
0-0
  6
Continuous
 62
     3
370
     9
100
AcDbCircle
 10
94.17779360345321
 20
-744.3842672158539
 30
0.0
 40
23.33333354812484
100
AcDbArc
 50
93.99992370605474
 51
176.7603759765625
  0
ARC
  5
1CB
330
1F
100
AcDbEntity
  8
0-0
  6
Continuous
 62
     3
370
     9
100
AcDbCircle
 10
100.5587709640446
 20
-740.6193650543455
 30
0.0
 40
5.000000046026752
100
AcDbArc
 50
11.30979919433594
 51
90.0
  0
ARC
  5
1CC
330
1F
100
AcDbEntity
  8
0-0
  6
Continuous
 62
     3
370
     9
100
AcDbCircle
 10
140.5397990065956
 20
-690.619297499346
 30
0.0
 40
5.000000046026752
100
AcDbArc
 50
90.0
 51
170.2715606689453
  0
ARC
  5
1CD
330
1F
100
AcDbEntity
  8
0-0
  6
Continuous
 62
     3
370
     9
100
AcDbCircle
 10
128.7265018576051
 20
-700.3466710520979
 30
0.0
 40
5.000000046026752
100
AcDbArc
 50
274.0000915527344
 51
350.2715606689453
  0
ARC
  5
1CE
330
1F
100
AcDbEntity
  8
0-0
  6
Continuous
 62
     3
370
     9
100
AcDbCircle
 10
126.1698829130466
 20
-710.5496946410472
 30
0.0
 40
5.000000046026752
100
AcDbArc
 50
93.99998474121094
 51
166.0819244384766
  0
ARC
  5
1CF
330
1F
100
AcDbEntity
  8
0-0
  6
Continuous
 62
     3
370
     9
100
AcDbCircle
 10
114.880461428923
 20
-714.5339243192461
 30
0.0
 40
5.000000046026752
100
AcDbArc
 50
274.0
 51
346.0820922851562
  0
ARC
  5
1D0
330
1F
100
AcDbEntity
  8
0-0
  6
Continuous
 62
     3
370
     9
100
AcDbCircle
 10
193.055526753036
 20
-700.3704535539077
 30
0.0
 40
6.666666728035669
100
AcDbArc
 50
107.9988708496094
 51
173.0009460449218
  0
ARC
  5
1D1
330
1F
100
AcDbEntity
  8
0-0
  6
Continuous
 62
     3
370
     9
100
AcDbCircle
 10
130.2343785348546
 20
-732.2862406701952
 30
0.0
 40
3.333333364017835
100
AcDbArc
 50
270.0
 51
349.17236328125
  0
ARC
  5
1D2
330
1F
100
AcDbEntity
  8
0-0
  6
Continuous
 62
     3
370
     9
100
AcDbCircle
 10
136.6966127766301
 20
-725.1164769995771
 30
0.0
 40
1.666666682008917
100
AcDbArc
 50
83.81648254394531
 51
169.1725616455078
  0
ARC
  5
1D3
330
1F
100
AcDbEntity
  8
0-0
  6
Continuous
 62
     3
370
     9
100
AcDbCircle
 10
136.6966127766301
 20
-725.1164769995771
 30
0.0
 40
1.666666682008917
100
AcDbArc
 50
16.9904022216797
 51
83.81649780273439
  0
ARC
  5
1D4
330
1F
100
AcDbEntity
  8
0-0
  6
JWW_DASHED1
 62
     3
370
     9
100
AcDbCircle
 10
140.5120527544841
 20
-722.9126318318649
 30
0.0
 40
5.000000046026752
100
AcDbArc
 50
93.99998474121094
 51
169.1697998046875
  0
ARC
  5
1D5
330
1F
100
AcDbEntity
  8
0-0
  6
Continuous
 62
     3
370
     9
100
AcDbCircle
 10
179.1625819457852
 20
-716.7704704269468
 30
0.0
 40
3.333333364017835
100
AcDbArc
 50
118.249282836914
 51
165.3855438232422
  0
ARC
  5
1D6
330
1F
100
AcDbEntity
  8
0-0
  6
JWW_DASHED1
 62
     3
370
     9
100
AcDbCircle
 10
169.6964856004161
 20
-699.1525912737288
 30
0.0
 40
16.66666682008918
100
AcDbArc
 50
273.9997253417969
 51
298.2485656738281
  0
ARC
  5
1D7
330
1F
100
AcDbEntity
  8
0-0
  6
Continuous
 62
     3
370
     9
100
AcDbCircle
 10
169.6964856004161
 20
-699.1525912737288
 30
0.0
 40
16.66666682008918
100
AcDbArc
 50
298.2485656738281
 51
353.0005493164062
  0
ARC
  5
1D8
330
1F
100
AcDbEntity
  8
0-0
  6
JWW_DASHED1
 62
     3
370
     9
100
AcDbCircle
 10
163.7495388978539
 20
-692.8855717343095
 30
0.0
 40
10.0000000920535
100
AcDbArc
 50
284.9185943603516
 51
353.0002899169922
  0
ARC
  5
1D9
330
1F
100
AcDbEntity
  8
0-0
  6
Continuous
 62
     3
370
     9
100
AcDbCircle
 10
-187.008670919804
 20
-805.6189243758035
 30
0.0
 40
6.666666728035669
100
AcDbArc
 50
270.0
 51
0.0
  0
ARC
  5
1DA
330
1F
100
AcDbEntity
  8
0-0
  6
Continuous
 62
     3
370
     9
100
AcDbCircle
 10
-187.008670919804
 20
-805.6189243758035
 30
0.0
 40
26.66666691214268
100
AcDbArc
 50
270.0
 51
0.0
  0
ARC
  5
1DB
330
1F
100
AcDbEntity
  8
0-0
  6
JWW_CENTER1
 62
     3
370
     9
100
AcDbCircle
 10
-187.0093315448543
 20
-805.6189243758035
 30
0.0
 40
16.66666682008918
100
AcDbArc
 50
270.0
 51
0.0
  0
LINE
  5
1DC
330
1F
100
AcDbEntity
  8
0-5
  6
Continuous
 62
     7
370
     9
100
AcDbLine
 10
-280.3424386474921
 20
-682.2861731151966
 30
0.0
 11
-337.9917108444937
 21
-782.1373586818669
 31
0.0
  0
LINE
  5
1DD
330
1F
100
AcDbEntity
  8
0-5
  6
Continuous
 62
     7
370
     9
100
AcDbLine
 10
-280.3424386474921
 20
-682.2861731151966
 30
0.0
 11
-289.9094519498567
 21
-705.383134059295
 31
0.0
  0
LINE
  5
1DE
330
1F
100
AcDbEntity
  8
0-5
  6
Continuous
 62
     7
370
     9
100
AcDbLine
 10
-280.3424386474921
 20
-682.2861731151966
 30
0.0
 11
-295.561472378489
 21
-702.1200213982943
 31
0.0
  0
LINE
  5
1DF
330
1F
100
AcDbEntity
  8
0-5
  6
Continuous
 62
     7
370
     9
100
AcDbLine
 10
-337.9917108444937
 20
-782.1373586818669
 30
0.0
 11
-598.7645808825005
 21
-782.1373586818669
 31
0.0
  0
TEXT
  5
1E0
330
1F
100
AcDbEntity
  8
0-5
  6
Continuous
 62
     6
370
     9
100
AcDbText
 10
-590.2007232626738
 20
-770.9391260620401
 30
0.0
 40
19.05
  1
ルーフドレイン本体
 41
1.106666666666666
  7
ＭＳ ゴシック
100
AcDbText
  0
TEXT
  5
1E1
330
1F
100
AcDbEntity
  8
0-5
  6
Continuous
 62
     6
370
     9
100
AcDbText
 10
-506.2988117075639
 20
-816.6176926596435
 30
0.0
 40
19.05
  1
（別途）
 41
1.089999999999998
  7
ＭＳ ゴシック
100
AcDbText
  0
LINE
  5
1E2
330
1F
100
AcDbEntity
  8
0-5
  6
Continuous
 62
     7
370
     9
100
AcDbLine
 10
-133.675749986175
 20
-902.6503219935066
 30
0.0
 11
-181.7884439789964
 21
-985.9836931301461
 31
0.0
  0
LINE
  5
1E3
330
1F
100
AcDbEntity
  8
0-5
  6
Continuous
 62
     7
370
     9
100
AcDbLine
 10
-133.675749986175
 20
-902.6503219935066
 30
0.0
 11
-148.8947837171713
 21
-922.483984696737
 31
0.0
  0
LINE
  5
1E4
330
1F
100
AcDbEntity
  8
0-5
  6
Continuous
 62
     7
370
     9
100
AcDbLine
 10
-133.675749986175
 20
-902.6503219935066
 30
0.0
 11
-143.2432581681849
 21
-925.7472210776493
 31
0.0
  0
LINE
  5
1E5
330
1F
100
AcDbEntity
  8
0-5
  6
Continuous
 62
     7
370
     9
100
AcDbLine
 10
-181.7884439789964
 20
-985.9836931301461
 30
0.0
 11
-638.2931420364287
 21
-985.9836931301461
 31
0.0
  0
TEXT
  5
1E6
330
1F
100
AcDbEntity
  8
0-5
  6
Continuous
 62
     6
370
     9
100
AcDbText
 10
-634.8562111480203
 20
-977.209009853119
 30
0.0
 40
19.05
  1
スペーサー：硬質ポリ塩化ビニル管
 41
1.1125
  7
ＭＳ ゴシック
100
AcDbText
  0
TEXT
  5
1E7
330
1F
100
AcDbEntity
  8
0-5
  6
Continuous
 62
     6
370
     9
100
AcDbText
 10
-459.6015229881812
 20
-1017.628923480125
 30
0.0
 40
19.05
  1
（別途）
 41
1.089999999999998
  7
ＭＳ ゴシック
100
AcDbText
  0
LINE
  5
1E8
330
1F
100
AcDbEntity
  8
0-5
  6
Continuous
 62
     7
370
     9
100
AcDbLine
 10
74.65764461797164
 20
-965.6196690518414
 30
0.0
 11
89.87667834896797
 21
-985.4534554749832
 31
0.0
  0
LINE
  5
1E9
330
1F
100
AcDbEntity
  8
0-5
  6
Continuous
 62
     7
370
     9
100
AcDbLine
 10
74.65764461797164
 20
-965.6196690518414
 30
0.0
 11
84.22465792033677
 21
-988.7166299959398
 31
0.0
  0
LINE
  5
1EA
330
1F
100
AcDbEntity
  8
0-5
  6
Continuous
 62
     7
370
     9
100
AcDbLine
 10
507.0228558985889
 20
-1068.953229892345
 30
0.0
 11
134.3171179340612
 21
-1068.953229892345
 31
0.0
  0
LINE
  5
1EB
330
1F
100
AcDbEntity
  8
0-5
  6
Continuous
 62
     7
370
     9
100
AcDbLine
 10
74.65764461797164
 20
-965.6196690518414
 30
0.0
 11
134.3171179340612
 21
-1068.953229892345
 31
0.0
  0
TEXT
  5
1EC
330
1F
100
AcDbEntity
  8
0-5
  6
Continuous
 62
     6
370
     9
100
AcDbText
 10
144.5084730464981
 20
-1058.45590150011
 30
0.0
 40
19.05
  1
位置決めプレート：ＳＧＨＣ
 41
1.11076923076923
  7
ＭＳ ゴシック
100
AcDbText
  0
TEXT
  5
1ED
330
1F
100
AcDbEntity
  8
0-5
  6
Continuous
 62
     6
370
     9
100
AcDbText
 10
266.1701106362364
 20
-1098.310013042683
 30
0.0
 40
19.05
  1
（別途）
 41
1.089999999999998
  7
ＭＳ ゴシック
100
AcDbText
  0
LINE
  5
1EE
330
1F
100
AcDbEntity
  8
0-5
  6
Continuous
 62
     7
370
     9
100
AcDbLine
 10
227.0399253187338
 20
-919.047674100969
 30
0.0
 11
592.9121177015463
 21
-919.047674100969
 31
0.0
  0
LINE
  5
1EF
330
1F
100
AcDbEntity
  8
0-5
  6
Continuous
 62
     7
370
     9
100
AcDbLine
 10
104.0098762266734
 20
-705.95336488697
 30
0.0
 11
227.0399253187338
 21
-919.047674100969
 31
0.0
  0
LINE
  5
1F0
330
1F
100
AcDbEntity
  8
0-5
  6
Continuous
 62
     7
370
     9
100
AcDbLine
 10
104.0098762266734
 20
-705.95336488697
 30
0.0
 11
119.2289099576703
 21
-725.7871513101117
 31
0.0
  0
LINE
  5
1F1
330
1F
100
AcDbEntity
  8
0-5
  6
Continuous
 62
     7
370
     9
100
AcDbLine
 10
104.0098762266734
 20
-705.95336488697
 30
0.0
 11
113.576889529038
 21
-729.0503258310682
 31
0.0
  0
TEXT
  5
1F2
330
1F
100
AcDbEntity
  8
0-5
  6
Continuous
 62
     6
370
     9
100
AcDbText
 10
233.6048023906301
 20
-911.6880373096367
 30
0.0
 40
19.05
  1
引き上げプレート：ＳＧＨＣ
 41
1.110769230769231
  7
ＭＳ ゴシック
100
AcDbText
  0
TEXT
  5
1F3
330
1F
100
AcDbEntity
  8
0-5
  6
Continuous
 62
     6
370
     9
100
AcDbText
 10
355.4757740703178
 20
-951.0667860229495
 30
0.0
 40
19.05
  1
（別途）
 41
1.089999999999998
  7
ＭＳ ゴシック
100
AcDbText
  0
LINE
  5
1F4
330
1F
100
AcDbEntity
  8
0-5
  6
Continuous
 62
     7
370
     9
100
AcDbLine
 10
302.1577538057028
 20
-675.6198057328866
 30
0.0
 11
311.7250145478903
 21
-698.7168285369407
 31
0.0
  0
LINE
  5
1F5
330
1F
100
AcDbEntity
  8
0-5
  6
Continuous
 62
     7
370
     9
100
AcDbLine
 10
302.1577538057028
 20
-675.6198057328866
 30
0.0
 11
317.3767875366991
 21
-695.4536540159842
 31
0.0
  0
LINE
  5
1F6
330
1F
100
AcDbEntity
  8
0-5
  6
Continuous
 62
     7
370
     9
100
AcDbLine
 10
302.1577538057028
 20
-675.6198057328866
 30
0.0
 11
378.5142189133887
 21
-807.8727411939824
 31
0.0
  0
LINE
  5
1F7
330
1F
100
AcDbEntity
  8
0-5
  6
Continuous
 62
     7
370
     9
100
AcDbLine
 10
378.5142189133887
 20
-807.8727411939824
 30
0.0
 11
590.2497123413872
 21
-807.8727411939824
 31
0.0
  0
TEXT
  5
1F8
330
1F
100
AcDbEntity
  8
0-5
  6
Continuous
 62
     7
370
     9
100
AcDbText
 10
425.0604126290773
 20
-796.0678040436974
 30
0.0
 40
22.86
  1
リング
 41
1.111111111111111
  7
ＭＳ ゴシック
100
AcDbText
  0
TEXT
  5
1F9
330
1F
100
AcDbEntity
  8
0-5
  6
Continuous
 62
     7
370
     9
100
AcDbText
 10
382.490543871159
 20
-847.7044122705765
 30
0.0
 40
22.86
  1
クロロプレン
 41
1.138888888888889
  7
ＭＳ ゴシック
100
AcDbText
  0
LINE
  5
1FA
330
1F
100
AcDbEntity
  8
0-5
  6
Continuous
 62
     7
370
     9
100
AcDbLine
 10
12.99081416970807
 20
-387.8739942999414
 30
0.0
 11
22.55807491189557
 21
-364.7769714958874
 31
0.0
  0
LINE
  5
1FB
330
1F
100
AcDbEntity
  8
0-5
  6
Continuous
 62
     7
370
     9
100
AcDbLine
 10
12.99081416970807
 20
-387.8739942999414
 30
0.0
 11
87.44941710035107
 21
-258.907868576003
 31
0.0
  0
LINE
  5
1FC
330
1F
100
AcDbEntity
  8
0-5
  6
Continuous
 62
     7
370
     9
100
AcDbLine
 10
12.99081416970807
 20
-387.8739942999414
 30
0.0
 11
28.20984790070497
 21
-368.0400841568882
 31
0.0
  0
LINE
  5
1FD
330
1F
100
AcDbEntity
  8
0-0
  6
JWW_CENTER1
 62
     3
370
     9
100
AcDbLine
 10
-0.3424567145270885
 20
-355.5899095036497
 30
0.0
 11
-0.3424567145270885
 21
-997.001340814983
 31
0.0
  0
LINE
  5
1FE
330
1F
100
AcDbEntity
  8
0-4
  6
Continuous
 62
     7
370
     9
100
AcDbLine
 10
-283.675952651173
 20
-337.2812027588869
 30
0.0
 11
282.9910392221183
 21
-337.2812027588869
 31
0.0
  0
TEXT
  5
1FF
330
1F
100
AcDbEntity
  8
0-4
  6
Continuous
 62
     2
370
   211
100
AcDbText
 10
-80.92894269063746
 20
-321.6412027588869
 30
0.0
 40
30.48
  1
φ170
 41
1.1
  7
ＭＳ ゴシック
100
AcDbText
  0
LINE
  5
200
330
1F
100
AcDbEntity
  8
0-4
  6
Continuous
 62
     7
370
     9
100
AcDbLine
 10
-283.675952651173
 20
-337.2812027588869
 30
0.0
 11
-258.8898311168277
 21
-340.5443575643882
 31
0.0
  0
LINE
  5
201
330
1F
100
AcDbEntity
  8
0-4
  6
Continuous
 62
     7
370
     9
100
AcDbLine
 10
-283.675952651173
 20
-337.2812027588869
 30
0.0
 11
-258.8898311168277
 21
-334.0180479533856
 31
0.0
  0
LINE
  5
202
330
1F
100
AcDbEntity
  8
0-4
  6
Continuous
 62
     7
370
     9
100
AcDbLine
 10
-283.675952651173
 20
-334.2812027588869
 30
0.0
 11
-283.675952651173
 21
-658.9526591115159
 31
0.0
  0
LINE
  5
203
330
1F
100
AcDbEntity
  8
0-4
  6
Continuous
 62
     7
370
     9
100
AcDbLine
 10
282.9910392221183
 20
-334.2812027588869
 30
0.0
 11
282.9910392221183
 21
-658.9526591115159
 31
0.0
  0
LINE
  5
204
330
1F
100
AcDbEntity
  8
0-4
  6
Continuous
 62
     7
370
     9
100
AcDbLine
 10
282.9910392221183
 20
-337.2812027588869
 30
0.0
 11
258.204917687773
 21
-340.5443575643882
 31
0.0
  0
LINE
  5
205
330
1F
100
AcDbEntity
  8
0-4
  6
Continuous
 62
     7
370
     9
100
AcDbLine
 10
282.9910392221183
 20
-337.2812027588869
 30
0.0
 11
258.204917687773
 21
-334.0180479533856
 31
0.0
  0
TEXT
  5
206
330
1F
100
AcDbEntity
  8
0-5
  6
Continuous
 62
     6
370
     9
100
AcDbText
 10
195.0346105264879
 20
-294.0629090901498
 30
0.0
 40
19.05
  1
（別途）
 41
1.090000000000003
  7
ＭＳ ゴシック
100
AcDbText
  0
TEXT
  5
207
330
1F
100
AcDbEntity
  8
0-5
  6
Continuous
 62
     6
370
     9
100
AcDbText
 10
90.33098212508774
 20
-245.4997509002217
 30
0.0
 40
19.05
  1
長ネジボルト：ＳＷＲＭ
 41
1.109090909090909
  7
ＭＳ ゴシック
100
AcDbText
  0
LINE
  5
208
330
1F
100
AcDbEntity
  8
0-5
  6
Continuous
 62
     7
370
     9
100
AcDbLine
 10
87.44941710035107
 20
-258.907868576003
 30
0.0
 11
404.4418673292887
 21
-258.907868576003
 31
0.0
  0
LINE
  5
209
330
1F
100
AcDbEntity
  8
0-1
  6
Continuous
 62
     4
370
     9
100
AcDbLine
 10
-17.00936610787664
 20
-515.6196816202139
 30
0.0
 11
-17.00936610787664
 21
-648.9530149535472
 31
0.0
  0
LINE
  5
20A
330
1F
100
AcDbEntity
  8
0-1
  6
Continuous
 62
     4
370
     9
100
AcDbLine
 10
16.32412236629762
 20
-515.6196816202139
 30
0.0
 11
16.32412236629762
 21
-648.9530149535472
 31
0.0
  0
TEXT
  5
20B
330
1F
100
AcDbEntity
  8
F-4
  6
Continuous
 62
     2
370
     9
100
AcDbText
 10
-606.3913046347126
 20
-1348.094550476074
 30
0.0
 40
30.48
  1
複数回使用抜型　ＢＷ５０Ｗ－４０
 41
1.1171875
  7
ＭＳ ゴシック
100
AcDbText
  0
ENDSEC
  0
SECTION
  2
OBJECTS
  0
DICTIONARY
  5
C
330
0
100
AcDbDictionary
281
     1
  3
ACAD_GROUP
350
D
  3
ACAD_LAYOUT
350
1A
  3
ACAD_MLEADERSTYLE
350
20D
  3
ACAD_MLINESTYLE
350
17
  3
ACAD_PLOTSETTINGS
350
19
  3
ACAD_PLOTSTYLENAME
350
E
  3
ACAD_TABLESTYLE
350
20C
  3
ACAD_VISUALSTYLE
350
2A
  3
AcDbVariableDictionary
350
20E
  0
DICTIONARY
  5
D
102
{ACAD_REACTORS
330
C
102
}
330
C
100
AcDbDictionary
281
     1
  0
DICTIONARY
  5
1A
102
{ACAD_REACTORS
330
C
102
}
330
C
100
AcDbDictionary
281
     1
  3
Layout1
350
1E
  3
Layout2
350
26
  3
Model
350
22
  0
DICTIONARY
  5
20D
102
{ACAD_REACTORS
330
C
102
}
330
C
100
AcDbDictionary
281
     1
  0
DICTIONARY
  5
17
102
{ACAD_REACTORS
330
C
102
}
330
C
100
AcDbDictionary
281
     1
  3
Standard
350
18
  0
DICTIONARY
  5
19
102
{ACAD_REACTORS
330
C
102
}
330
C
100
AcDbDictionary
281
     1
  0
ACDBDICTIONARYWDFLT
  5
E
102
{ACAD_REACTORS
330
C
102
}
330
C
100
AcDbDictionary
281
     1
  3
Normal
350
F
100
AcDbDictionaryWithDefault
340
F
  0
DICTIONARY
  5
20C
102
{ACAD_REACTORS
330
C
102
}
330
C
100
AcDbDictionary
281
     1
  0
DICTIONARY
  5
2A
102
{ACAD_REACTORS
330
C
102
}
330
C
100
AcDbDictionary
281
     1
  3
2dWireframe
350
2F
  3
3D Hidden
350
31
  3
3dWireframe
350
30
  3
Basic
350
32
  3
Brighten
350
36
  3
ColorChange
350
3A
  3
Conceptual
350
34
  3
Dim
350
35
  3
Facepattern
350
39
  3
Flat
350
2B
  3
FlatWithEdges
350
2C
  3
Gouraud
350
2D
  3
GouraudWithEdges
350
2E
  3
Linepattern
350
38
  3
Realistic
350
33
  3
Thicken
350
37
  0
DICTIONARY
  5
20E
102
{ACAD_REACTORS
330
C
102
}
330
C
100
AcDbDictionary
281
     1
  3
PSOLHEIGHT
350
210
  3
PSOLWIDTH
350
20F
  0
LAYOUT
  5
1E
102
{ACAD_REACTORS
330
1A
102
}
102
{ACAD_XDICTIONARY
360
211
102
}
330
1A
100
AcDbPlotSettings
  1

  2
none_device
  4

  6

 40
0.0
 41
0.0
 42
0.0
 43
0.0
 44
0.0
 45
0.0
 46
0.0
 47
0.0
 48
0.0
 49
0.0
140
0.0
141
0.0
142
1.0
143
1.0
 70
   688
 72
     0
 73
     0
 74
     5
  7

 75
    16
147
1.0
148
0.0
149
0.0
100
AcDbLayout
  1
Layout1
 70
     1
 71
     1
 10
0.0
 20
0.0
 11
420.0
 21
297.0
 12
0.0
 22
0.0
 32
0.0
 14
1.000000000000000E+20
 24
1.000000000000000E+20
 34
1.000000000000000E+20
 15
-1.000000000000000E+20
 25
-1.000000000000000E+20
 35
-1.000000000000000E+20
146
0.0
 13
0.0
 23
0.0
 33
0.0
 16
1.0
 26
0.0
 36
0.0
 17
0.0
 27
1.0
 37
0.0
 76
     0
330
1B
  0
LAYOUT
  5
26
102
{ACAD_REACTORS
330
1A
102
}
102
{ACAD_XDICTIONARY
360
215
102
}
330
1A
100
AcDbPlotSettings
  1

  2
none_device
  4

  6

 40
0.0
 41
0.0
 42
0.0
 43
0.0
 44
0.0
 45
0.0
 46
0.0
 47
0.0
 48
0.0
 49
0.0
140
0.0
141
0.0
142
1.0
143
1.0
 70
   688
 72
     0
 73
     0
 74
     5
  7

 75
    16
147
1.0
148
0.0
149
0.0
100
AcDbLayout
  1
Layout2
 70
     1
 71
     2
 10
0.0
 20
0.0
 11
0.0
 21
0.0
 12
0.0
 22
0.0
 32
0.0
 14
0.0
 24
0.0
 34
0.0
 15
0.0
 25
0.0
 35
0.0
146
0.0
 13
0.0
 23
0.0
 33
0.0
 16
1.0
 26
0.0
 36
0.0
 17
0.0
 27
1.0
 37
0.0
 76
     0
330
23
  0
LAYOUT
  5
22
102
{ACAD_REACTORS
330
1A
102
}
102
{ACAD_XDICTIONARY
360
213
102
}
330
1A
100
AcDbPlotSettings
  1

  2
none_device
  4

  6

 40
0.0
 41
0.0
 42
0.0
 43
0.0
 44
0.0
 45
0.0
 46
0.0
 47
0.0
 48
0.0
 49
0.0
140
0.0
141
0.0
142
1.0
143
1.0
 70
  1712
 72
     0
 73
     0
 74
     0
  7

 75
     0
147
1.0
148
0.0
149
0.0
100
AcDbLayout
  1
Model
 70
     1
 71
     0
 10
-2100.0
 20
-1485.0
 11
2100.0
 21
1485.0
 12
0.0
 22
0.0
 32
0.0
 14
-2100.0
 24
-1485.0
 34
0.0
 15
2100.0
 25
1485.0
 35
0.0
146
0.0
 13
0.0
 23
0.0
 33
0.0
 16
1.0
 26
0.0
 36
0.0
 17
0.0
 27
1.0
 37
0.0
 76
     0
330
1F
331
29
  0
MLINESTYLE
  5
18
102
{ACAD_REACTORS
330
17
102
}
330
17
100
AcDbMlineStyle
  2
Standard
 70
     0
  3

 62
   256
 51
90.0
 52
90.0
 71
     2
 49
0.5
 62
   256
  6
BYLAYER
 49
-0.5
 62
   256
  6
BYLAYER
  0
ACDBPLACEHOLDER
  5
F
102
{ACAD_REACTORS
330
E
102
}
330
E
  0
VISUALSTYLE
  5
2F
102
{ACAD_REACTORS
330
2A
102
}
330
2A
100
AcDbVisualStyle
  2
2dWireframe
 70
     4
 71
     0
 72
     2
 73
     0
 90
        0
 40
-0.6
 41
-30.0
 62
     5
 63
     7
 74
     1
 91
        4
 64
     7
 65
   257
 75
     1
175
     1
 42
1.0
 92
        0
 66
   257
 43
1.0
 76
     1
 77
     6
 78
     2
 67
     7
 79
     5
170
     0
171
     0
290
     0
174
     0
 93
        1
 44
0.0
173
     0
291
     0
 45
0.0
1001
ACAD
1000
AcDbSavedByObjectVersion
1070
     0
  0
VISUALSTYLE
  5
31
102
{ACAD_REACTORS
330
2A
102
}
330
2A
100
AcDbVisualStyle
  2
3D Hidden
 70
     6
 71
     1
 72
     2
 73
     2
 90
        0
 40
-0.6
 41
-30.0
 62
     5
 63
     7
 74
     2
 91
        2
 64
     7
 65
   257
 75
     2
175
     1
 42
40.0
 92
        0
 66
   257
 43
1.0
 76
     1
 77
     6
 78
     2
 67
     7
 79
     3
170
     0
171
     0
290
     0
174
     0
 93
        1
 44
0.0
173
     0
291
     0
 45
0.0
1001
ACAD
1000
AcDbSavedByObjectVersion
1070
     0
  0
VISUALSTYLE
  5
30
102
{ACAD_REACTORS
330
2A
102
}
330
2A
100
AcDbVisualStyle
  2
3dWireframe
 70
     5
 71
     0
 72
     2
 73
     0
 90
        0
 40
-0.6
 41
-30.0
 62
     5
 63
     7
 74
     1
 91
        4
 64
     7
 65
   257
 75
     1
175
     1
 42
1.0
 92
        0
 66
   257
 43
1.0
 76
     1
 77
     6
 78
     2
 67
     7
 79
     5
170
     0
171
     0
290
     0
174
     0
 93
        1
 44
0.0
173
     0
291
     0
 45
0.0
1001
ACAD
1000
AcDbSavedByObjectVersion
1070
     0
  0
VISUALSTYLE
  5
32
102
{ACAD_REACTORS
330
2A
102
}
330
2A
100
AcDbVisualStyle
  2
Basic
 70
     7
 71
     1
 72
     0
 73
     1
 90
        0
 40
-0.6
 41
-30.0
 62
     5
 63
     7
 74
     0
 91
        4
 64
     7
 65
   257
 75
     1
175
     1
 42
1.0
 92
        8
 66
     7
 43
1.0
 76
     1
 77
     6
 78
     2
 67
     7
 79
     5
170
     0
171
     0
290
     0
174
     0
 93
        1
 44
0.0
173
     0
291
     1
 45
0.0
1001
ACAD
1000
AcDbSavedByObjectVersion
1070
     0
  0
VISUALSTYLE
  5
36
102
{ACAD_REACTORS
330
2A
102
}
330
2A
100
AcDbVisualStyle
  2
Brighten
 70
    12
 71
     2
 72
     2
 73
     0
 90
        0
 40
-0.6
 41
-30.0
 62
     5
 63
     7
 74
     1
 91
        4
 64
     7
 65
   257
 75
     1
175
     1
 42
1.0
 92
        8
 66
     7
 43
1.0
 76
     1
 77
     6
 78
     2
 67
     7
 79
     5
170
     0
171
     0
290
     0
174
     0
 93
        1
 44
50.0
173
     0
291
     1
 45
0.0
1001
ACAD
1000
AcDbSavedByObjectVersion
1070
     0
  0
VISUALSTYLE
  5
3A
102
{ACAD_REACTORS
330
2A
102
}
330
2A
100
AcDbVisualStyle
  2
ColorChange
 70
    16
 71
     2
 72
     2
 73
     3
 90
        0
 40
-0.6
 41
-30.0
 62
     5
 63
     8
 74
     1
 91
        4
 64
     7
 65
   257
 75
     1
175
     1
 42
1.0
 92
        8
 66
     8
 43
1.0
 76
     1
 77
     6
 78
     2
 67
     7
 79
     5
170
     0
171
     0
290
     0
174
     0
 93
        1
 44
0.0
173
     0
291
     1
 45
0.0
1001
ACAD
1000
AcDbSavedByObjectVersion
1070
     0
  0
VISUALSTYLE
  5
34
102
{ACAD_REACTORS
330
2A
102
}
330
2A
100
AcDbVisualStyle
  2
Conceptual
 70
     9
 71
     3
 72
     2
 73
     0
 90
        0
 40
-0.6
 41
-30.0
 62
     5
 63
     7
 74
     2
 91
        2
 64
     7
 65
   257
 75
     1
175
     1
 42
40.0
 92
        8
 66
     7
 43
1.0
 76
     1
 77
     6
 78
     2
 67
     7
 79
     3
170
     0
171
     0
290
     0
174
     0
 93
        1
 44
0.0
173
     0
291
     0
 45
0.0
1001
ACAD
1000
AcDbSavedByObjectVersion
1070
     0
  0
VISUALSTYLE
  5
35
102
{ACAD_REACTORS
330
2A
102
}
330
2A
100
AcDbVisualStyle
  2
Dim
 70
    11
 71
     2
 72
     2
 73
     0
 90
        0
 40
-0.6
 41
-30.0
 62
     5
 63
     7
 74
     1
 91
        4
 64
     7
 65
   257
 75
     1
175
     1
 42
1.0
 92
        8
 66
     7
 43
1.0
 76
     1
 77
     6
 78
     2
 67
     7
 79
     5
170
     0
171
     0
290
     0
174
     0
 93
        1
 44
-50.0
173
     0
291
     1
 45
0.0
1001
ACAD
1000
AcDbSavedByObjectVersion
1070
     0
  0
VISUALSTYLE
  5
39
102
{ACAD_REACTORS
330
2A
102
}
330
2A
100
AcDbVisualStyle
  2
Facepattern
 70
    15
 71
     2
 72
     2
 73
     0
 90
        0
 40
-0.6
 41
-30.0
 62
     5
 63
     7
 74
     1
 91
        4
 64
     7
 65
   257
 75
     1
175
     1
 42
1.0
 92
        8
 66
     7
 43
1.0
 76
     1
 77
     6
 78
     2
 67
     7
 79
     5
170
     0
171
     0
290
     0
174
     0
 93
        1
 44
0.0
173
     0
291
     1
 45
0.0
1001
ACAD
1000
AcDbSavedByObjectVersion
1070
     0
  0
VISUALSTYLE
  5
2B
102
{ACAD_REACTORS
330
2A
102
}
330
2A
100
AcDbVisualStyle
  2
Flat
 70
     0
 71
     2
 72
     1
 73
     1
 90
        2
 40
-0.6
 41
30.0
 62
     5
 63
     7
 74
     0
 91
        4
 64
     7
 65
   257
 75
     1
175
     1
 42
1.0
 92
        8
 66
     7
 43
1.0
 76
     1
 77
     6
 78
     2
 67
     7
 79
     5
170
     0
171
     0
290
     0
174
     0
 93
       13
 44
0.0
173
     0
291
     1
 45
0.0
1001
ACAD
1000
AcDbSavedByObjectVersion
1070
     0
  0
VISUALSTYLE
  5
2C
102
{ACAD_REACTORS
330
2A
102
}
330
2A
100
AcDbVisualStyle
  2
FlatWithEdges
 70
     1
 71
     2
 72
     1
 73
     1
 90
        2
 40
-0.6
 41
30.0
 62
     5
 63
     7
 74
     1
 91
        4
 64
     7
 65
   257
 75
     1
175
     1
 42
1.0
 92
        0
 66
   257
 43
1.0
 76
     1
 77
     6
 78
     2
 67
     7
 79
     5
170
     0
171
     0
290
     0
174
     0
 93
       13
 44
0.0
173
     0
291
     1
 45
0.0
1001
ACAD
1000
AcDbSavedByObjectVersion
1070
     0
  0
VISUALSTYLE
  5
2D
102
{ACAD_REACTORS
330
2A
102
}
330
2A
100
AcDbVisualStyle
  2
Gouraud
 70
     2
 71
     2
 72
     2
 73
     1
 90
        2
 40
-0.6
 41
30.0
 62
     5
 63
     7
 74
     0
 91
        4
 64
     7
 65
   257
 75
     1
175
     1
 42
1.0
 92
        0
 66
     7
 43
1.0
 76
     1
 77
     6
 78
     2
 67
     7
 79
     5
170
     0
171
     0
290
     0
174
     0
 93
       13
 44
0.0
173
     0
291
     1
 45
0.0
1001
ACAD
1000
AcDbSavedByObjectVersion
1070
     0
  0
VISUALSTYLE
  5
2E
102
{ACAD_REACTORS
330
2A
102
}
330
2A
100
AcDbVisualStyle
  2
GouraudWithEdges
 70
     3
 71
     2
 72
     2
 73
     1
 90
        2
 40
-0.6
 41
30.0
 62
     5
 63
     7
 74
     1
 91
        4
 64
     7
 65
   257
 75
     1
175
     1
 42
1.0
 92
        0
 66
   257
 43
1.0
 76
     1
 77
     6
 78
     2
 67
     7
 79
     5
170
     0
171
     0
290
     0
174
     0
 93
       13
 44
0.0
173
     0
291
     1
 45
0.0
1001
ACAD
1000
AcDbSavedByObjectVersion
1070
     0
  0
VISUALSTYLE
  5
38
102
{ACAD_REACTORS
330
2A
102
}
330
2A
100
AcDbVisualStyle
  2
Linepattern
 70
    14
 71
     2
 72
     2
 73
     0
 90
        0
 40
-0.6
 41
-30.0
 62
     5
 63
     7
 74
     1
 91
        4
 64
     7
 65
   257
 75
     7
175
     7
 42
1.0
 92
        8
 66
     7
 43
1.0
 76
     1
 77
     6
 78
     2
 67
     7
 79
     5
170
     0
171
     0
290
     0
174
     0
 93
        1
 44
0.0
173
     0
291
     1
 45
0.0
1001
ACAD
1000
AcDbSavedByObjectVersion
1070
     0
  0
VISUALSTYLE
  5
33
102
{ACAD_REACTORS
330
2A
102
}
330
2A
100
AcDbVisualStyle
  2
Realistic
 70
     8
 71
     2
 72
     2
 73
     0
 90
        0
 40
-0.6
 41
-30.0
 62
     5
 63
     7
 74
     1
 91
        0
 64
     7
 65
   257
 75
     1
175
     1
 42
1.0
 92
        8
 66
     8
 43
1.0
 76
     1
 77
     6
 78
     2
 67
     7
 79
     5
170
     0
171
     0
290
     0
174
     0
 93
       13
 44
0.0
173
     0
291
     0
 45
0.0
1001
ACAD
1000
AcDbSavedByObjectVersion
1070
     0
  0
VISUALSTYLE
  5
37
102
{ACAD_REACTORS
330
2A
102
}
330
2A
100
AcDbVisualStyle
  2
Thicken
 70
    13
 71
     2
 72
     2
 73
     0
 90
        0
 40
-0.6
 41
-30.0
 62
     5
 63
     7
 74
     1
 91
        4
 64
     7
 65
   257
 75
     1
175
     1
 42
1.0
 92
       12
 66
     7
 43
1.0
 76
     1
 77
     6
 78
     2
 67
     7
 79
     5
170
     0
171
     0
290
     0
174
     0
 93
        1
 44
0.0
173
     0
291
     1
 45
0.0
1001
ACAD
1000
AcDbSavedByObjectVersion
1070
     0
  0
DICTIONARYVAR
  5
210
102
{ACAD_REACTORS
330
20E
102
}
330
20E
100
DictionaryVariables
280
     0
  1
80.000000
  0
DICTIONARYVAR
  5
20F
102
{ACAD_REACTORS
330
20E
102
}
330
20E
100
DictionaryVariables
280
     0
  1
5.000000
  0
DICTIONARY
  5
211
330
1E
100
AcDbDictionary
280
     1
281
     1
  3
ACAD_XREC_ROUNDTRIP
360
212
  0
DICTIONARY
  5
215
330
26
100
AcDbDictionary
280
     1
281
     1
  3
ACAD_XREC_ROUNDTRIP
360
216
  0
DICTIONARY
  5
213
330
22
100
AcDbDictionary
280
     1
281
     1
  3
ACAD_XREC_ROUNDTRIP
360
214
  0
XRECORD
  5
212
102
{ACAD_REACTORS
330
211
102
}
330
211
100
AcDbXrecord
280
     1
102
SHADEPLOT
 70
     0
102
SHADEPLOTRESLEVEL
 70
     5
102
SHADEPLOTCUSTOMDPI
 70
   300
  0
XRECORD
  5
216
102
{ACAD_REACTORS
330
215
102
}
330
215
100
AcDbXrecord
280
     1
102
SHADEPLOT
 70
     0
102
SHADEPLOTRESLEVEL
 70
     5
102
SHADEPLOTCUSTOMDPI
 70
   300
  0
XRECORD
  5
214
102
{ACAD_REACTORS
330
213
102
}
330
213
100
AcDbXrecord
280
     1
102
SHADEPLOT
 70
     0
102
SHADEPLOTRESLEVEL
 70
     5
102
SHADEPLOTCUSTOMDPI
 70
   300
  0
ENDSEC
  0
EOF
