  0
SECTION
  2
HEADER
  9
$ACADVER
  1
AC1015
  9
$ACADMAINTVER
 70
     6
  9
$DWGCODEPAGE
  3
ANSI_932
  9
$INSBASE
 10
0.0
 20
0.0
 30
0.0
  9
$EXTMIN
 10
-2100.0
 20
-1485.0
 30
0.0
  9
$EXTMAX
 10
2100.0
 20
1485.0
 30
0.0
  9
$LIMMIN
 10
-2100.0
 20
-1485.0
  9
$LIMMAX
 10
2100.0
 20
1485.0
  9
$ORTHOMODE
 70
     0
  9
$REGENMODE
 70
     1
  9
$FILLMODE
 70
     1
  9
$QTEXTMODE
 70
     0
  9
$MIRRTEXT
 70
     1
  9
$LTSCALE
 40
10.0
  9
$ATTMODE
 70
     1
  9
$TEXTSIZE
 40
2.5
  9
$TRACEWID
 40
1.0
  9
$TEXTSTYLE
  7
Standard
  9
$CLAYER
  8
0
  9
$CELTYPE
  6
ByLayer
  9
$CECOLOR
 62
   256
  9
$CELTSCALE
 40
1.0
  9
$DISPSILH
 70
     0
  9
$DIMSCALE
 40
1.0
  9
$DIMASZ
 40
2.5
  9
$DIMEXO
 40
0.625
  9
$DIMDLI
 40
3.75
  9
$DIMRND
 40
0.0
  9
$DIMDLE
 40
0.0
  9
$DIMEXE
 40
1.25
  9
$DIMTP
 40
0.0
  9
$DIMTM
 40
0.0
  9
$DIMTXT
 40
2.5
  9
$DIMCEN
 40
2.5
  9
$DIMTSZ
 40
0.0
  9
$DIMTOL
 70
     0
  9
$DIMLIM
 70
     0
  9
$DIMTIH
 70
     0
  9
$DIMTOH
 70
     0
  9
$DIMSE1
 70
     0
  9
$DIMSE2
 70
     0
  9
$DIMTAD
 70
     1
  9
$DIMZIN
 70
     8
  9
$DIMBLK
  1

  9
$DIMASO
 70
     1
  9
$DIMSHO
 70
     1
  9
$DIMPOST
  1

  9
$DIMAPOST
  1

  9
$DIMALT
 70
     0
  9
$DIMALTD
 70
     3
  9
$DIMALTF
 40
0.03937007874016
  9
$DIMLFAC
 40
1.0
  9
$DIMTOFL
 70
     1
  9
$DIMTVP
 40
0.0
  9
$DIMTIX
 70
     0
  9
$DIMSOXD
 70
     0
  9
$DIMSAH
 70
     0
  9
$DIMBLK1
  1

  9
$DIMBLK2
  1

  9
$DIMSTYLE
  2
ISO-25
  9
$DIMCLRD
 70
     0
  9
$DIMCLRE
 70
     0
  9
$DIMCLRT
 70
     0
  9
$DIMTFAC
 40
1.0
  9
$DIMGAP
 40
0.625
  9
$DIMJUST
 70
     0
  9
$DIMSD1
 70
     0
  9
$DIMSD2
 70
     0
  9
$DIMTOLJ
 70
     0
  9
$DIMTZIN
 70
     8
  9
$DIMALTZ
 70
     0
  9
$DIMALTTZ
 70
     0
  9
$DIMUPT
 70
     0
  9
$DIMDEC
 70
     2
  9
$DIMTDEC
 70
     2
  9
$DIMALTU
 70
     2
  9
$DIMALTTD
 70
     3
  9
$DIMTXSTY
  7
Standard
  9
$DIMAUNIT
 70
     0
  9
$DIMADEC
 70
     0
  9
$DIMALTRND
 40
0.0
  9
$DIMAZIN
 70
     0
  9
$DIMDSEP
 70
    44
  9
$DIMATFIT
 70
     3
  9
$DIMFRAC
 70
     0
  9
$DIMLDRBLK
  1

  9
$DIMLUNIT
 70
     2
  9
$DIMLWD
 70
    -2
  9
$DIMLWE
 70
    -2
  9
$DIMTMOVE
 70
     0
  9
$LUNITS
 70
     2
  9
$LUPREC
 70
     4
  9
$SKETCHINC
 40
1.0
  9
$FILLETRAD
 40
10.0
  9
$AUNITS
 70
     0
  9
$AUPREC
 70
     0
  9
$MENU
  1
.
  9
$ELEVATION
 40
0.0
  9
$PELEVATION
 40
0.0
  9
$THICKNESS
 40
0.0
  9
$LIMCHECK
 70
     0
  9
$CHAMFERA
 40
10.0
  9
$CHAMFERB
 40
10.0
  9
$CHAMFERC
 40
20.0
  9
$CHAMFERD
 40
0.0
  9
$SKPOLY
 70
     0
  9
$TDCREATE
 40
2456898.435958657
  9
$TDUCREATE
 40
2456898.060958657
  9
$TDUPDATE
 40
2456898.435958669
  9
$TDUUPDATE
 40
2456898.060958669
  9
$TDINDWG
 40
0.0000000116
  9
$TDUSRTIMER
 40
0.0000000116
  9
$USRTIMER
 70
     1
  9
$ANGBASE
 50
0.0
  9
$ANGDIR
 70
     0
  9
$PDMODE
 70
     0
  9
$PDSIZE
 40
0.0
  9
$PLINEWID
 40
0.0
  9
$SPLFRAME
 70
     0
  9
$SPLINETYPE
 70
     6
  9
$SPLINESEGS
 70
     8
  9
$HANDSEED
  5
231
  9
$SURFTAB1
 70
     6
  9
$SURFTAB2
 70
     6
  9
$SURFTYPE
 70
     6
  9
$SURFU
 70
     6
  9
$SURFV
 70
     6
  9
$UCSBASE
  2

  9
$UCSNAME
  2

  9
$UCSORG
 10
0.0
 20
0.0
 30
0.0
  9
$UCSXDIR
 10
1.0
 20
0.0
 30
0.0
  9
$UCSYDIR
 10
0.0
 20
1.0
 30
0.0
  9
$UCSORTHOREF
  2

  9
$UCSORTHOVIEW
 70
     0
  9
$UCSORGTOP
 10
0.0
 20
0.0
 30
0.0
  9
$UCSORGBOTTOM
 10
0.0
 20
0.0
 30
0.0
  9
$UCSORGLEFT
 10
0.0
 20
0.0
 30
0.0
  9
$UCSORGRIGHT
 10
0.0
 20
0.0
 30
0.0
  9
$UCSORGFRONT
 10
0.0
 20
0.0
 30
0.0
  9
$UCSORGBACK
 10
0.0
 20
0.0
 30
0.0
  9
$PUCSBASE
  2

  9
$PUCSNAME
  2

  9
$PUCSORG
 10
0.0
 20
0.0
 30
0.0
  9
$PUCSXDIR
 10
1.0
 20
0.0
 30
0.0
  9
$PUCSYDIR
 10
0.0
 20
1.0
 30
0.0
  9
$PUCSORTHOREF
  2

  9
$PUCSORTHOVIEW
 70
     0
  9
$PUCSORGTOP
 10
0.0
 20
0.0
 30
0.0
  9
$PUCSORGBOTTOM
 10
0.0
 20
0.0
 30
0.0
  9
$PUCSORGLEFT
 10
0.0
 20
0.0
 30
0.0
  9
$PUCSORGRIGHT
 10
0.0
 20
0.0
 30
0.0
  9
$PUCSORGFRONT
 10
0.0
 20
0.0
 30
0.0
  9
$PUCSORGBACK
 10
0.0
 20
0.0
 30
0.0
  9
$USERI1
 70
     0
  9
$USERI2
 70
     0
  9
$USERI3
 70
     0
  9
$USERI4
 70
     0
  9
$USERI5
 70
     0
  9
$USERR1
 40
0.0
  9
$USERR2
 40
0.0
  9
$USERR3
 40
0.0
  9
$USERR4
 40
0.0
  9
$USERR5
 40
0.0
  9
$WORLDVIEW
 70
     1
  9
$SHADEDGE
 70
     3
  9
$SHADEDIF
 70
    70
  9
$TILEMODE
 70
     1
  9
$MAXACTVP
 70
    64
  9
$PINSBASE
 10
0.0
 20
0.0
 30
0.0
  9
$PLIMCHECK
 70
     0
  9
$PEXTMIN
 10
1.000000000000000E+20
 20
1.000000000000000E+20
 30
1.000000000000000E+20
  9
$PEXTMAX
 10
-1.000000000000000E+20
 20
-1.000000000000000E+20
 30
-1.000000000000000E+20
  9
$PLIMMIN
 10
0.0
 20
0.0
  9
$PLIMMAX
 10
420.0
 20
297.0
  9
$UNITMODE
 70
     0
  9
$VISRETAIN
 70
     1
  9
$PLINEGEN
 70
     0
  9
$PSLTSCALE
 70
     1
  9
$TREEDEPTH
 70
  3020
  9
$CMLSTYLE
  2
Standard
  9
$CMLJUST
 70
     0
  9
$CMLSCALE
 40
20.0
  9
$PROXYGRAPHICS
 70
     1
  9
$MEASUREMENT
 70
     1
  9
$CELWEIGHT
370
    -1
  9
$ENDCAPS
280
     0
  9
$JOINSTYLE
280
     0
  9
$LWDISPLAY
290
     0
  9
$INSUNITS
 70
     4
  9
$HYPERLINKBASE
  1

  9
$STYLESHEET
  1

  9
$XEDIT
290
     1
  9
$CEPSNTYPE
380
     0
  9
$PSTYLEMODE
290
     1
  9
$FINGERPRINTGUID
  2
{5FC17A24-9FD8-4612-A230-0533D90CA7BD}
  9
$VERSIONGUID
  2
{FAEB1C32-E019-11D5-929B-00C0DF256EC4}
  9
$EXTNAMES
290
     1
  9
$PSVPSCALE
 40
0.0
  9
$OLESTARTUP
290
     0
  0
ENDSEC
  0
SECTION
  2
CLASSES
  0
CLASS
  1
ACDBDICTIONARYWDFLT
  2
AcDbDictionaryWithDefault
  3
ObjectDBX Classes
 90
        0
280
     0
281
     0
  0
CLASS
  1
VISUALSTYLE
  2
AcDbVisualStyle
  3
ObjectDBX Classes
 90
     4095
280
     0
281
     0
  0
CLASS
  1
DICTIONARYVAR
  2
AcDbDictionaryVar
  3
ObjectDBX Classes
 90
        0
280
     0
281
     0
  0
CLASS
  1
ACDBPLACEHOLDER
  2
AcDbPlaceHolder
  3
ObjectDBX Classes
 90
        0
280
     0
281
     0
  0
CLASS
  1
LAYOUT
  2
AcDbLayout
  3
ObjectDBX Classes
 90
        0
280
     0
281
     0
  0
ENDSEC
  0
SECTION
  2
TABLES
  0
TABLE
  2
VPORT
  5
8
330
0
100
AcDbSymbolTable
 70
     1
  0
VPORT
  5
29
330
8
100
AcDbSymbolTableRecord
100
AcDbViewportTableRecord
  2
*Active
 70
     0
 10
0.0
 20
0.0
 11
1.0
 21
1.0
 12
0.0
 22
0.0
 13
0.0
 23
0.0
 14
10.0
 24
10.0
 15
10.0
 25
10.0
 16
0.0
 26
0.0
 36
1.0
 17
0.0
 27
0.0
 37
0.0
 40
3267.0
 41
1.414141414141414
 42
50.0
 43
0.0
 44
0.0
 50
0.0
 51
0.0
 71
     0
 72
 10000
 73
     1
 74
     3
 75
     0
 76
     0
 77
     0
 78
     0
281
     0
 65
     1
110
0.0
120
0.0
130
0.0
111
1.0
121
0.0
131
0.0
112
0.0
122
1.0
132
0.0
 79
     0
146
0.0
  0
ENDTAB
  0
TABLE
  2
LTYPE
  5
5
330
0
100
AcDbSymbolTable
 70
     4
  0
LTYPE
  5
14
330
5
100
AcDbSymbolTableRecord
100
AcDbLinetypeTableRecord
  2
ByBlock
 70
     0
  3

 72
    65
 73
     0
 40
0.0
  0
LTYPE
  5
15
330
5
100
AcDbSymbolTableRecord
100
AcDbLinetypeTableRecord
  2
ByLayer
 70
     0
  3

 72
    65
 73
     0
 40
0.0
  0
LTYPE
  5
16
330
5
100
AcDbSymbolTableRecord
100
AcDbLinetypeTableRecord
  2
Continuous
 70
     0
  3
Solid line
 72
    65
 73
     0
 40
0.0
  0
LTYPE
  5
3C
330
5
100
AcDbSymbolTableRecord
100
AcDbLinetypeTableRecord
  2
JWW_CENTER1
 70
     0
  3
-----  --  ----------  --  -----
 72
    65
 73
     4
 40
6.773333333333333
 49
4.233333333333333
 74
     0
 49
-0.8466666666666667
 74
     0
 49
0.8466666666666667
 74
     0
 49
-0.8466666666666667
 74
     0
  0
LTYPE
  5
3D
330
5
100
AcDbSymbolTableRecord
100
AcDbLinetypeTableRecord
  2
JWW_DASHED1
 70
     0
  3
-  --  --  --  --  --  --  --  -
 72
    65
 73
     2
 40
1.693333333333333
 49
0.8466666666666667
 74
     0
 49
-0.8466666666666667
 74
     0
  0
LTYPE
  5
3E
330
5
100
AcDbSymbolTableRecord
100
AcDbLinetypeTableRecord
  2
JWW_PHANTOM1
 70
     0
  3
----  -  -  --------  -  -  ----
 72
    65
 73
     6
 40
6.773333333333333
 49
3.386666666666667
 74
     0
 49
-0.8466666666666667
 74
     0
 49
0.4233333333333333
 74
     0
 49
-0.8466666666666667
 74
     0
 49
0.4233333333333333
 74
     0
 49
-0.8466666666666667
 74
     0
  0
ENDTAB
  0
TABLE
  2
LAYER
  5
2
330
0
100
AcDbSymbolTable
 70
    15
  0
LAYER
  5
10
330
2
100
AcDbSymbolTableRecord
100
AcDbLayerTableRecord
  2
0
 70
     0
 62
     7
  6
Continuous
370
    -3
390
F
  0
LAYER
  5
3F
330
2
100
AcDbSymbolTableRecord
100
AcDbLayerTableRecord
  2
0-5
 70
     0
 62
     7
  6
Continuous
370
    -3
390
F
  0
LAYER
  5
40
330
2
100
AcDbSymbolTableRecord
100
AcDbLayerTableRecord
  2
0-F
 70
     0
 62
     7
  6
Continuous
370
    -3
390
F
  0
LAYER
  5
41
330
2
100
AcDbSymbolTableRecord
100
AcDbLayerTableRecord
  2
0-B
 70
     0
 62
     7
  6
Continuous
370
    -3
390
F
  0
LAYER
  5
42
330
2
100
AcDbSymbolTableRecord
100
AcDbLayerTableRecord
  2
0-1
 70
     0
 62
     7
  6
Continuous
370
    -3
390
F
  0
LAYER
  5
43
330
2
100
AcDbSymbolTableRecord
100
AcDbLayerTableRecord
  2
0-4
 70
     0
 62
     7
  6
Continuous
370
    -3
390
F
  0
LAYER
  5
44
330
2
100
AcDbSymbolTableRecord
100
AcDbLayerTableRecord
  2
0-D
 70
     0
 62
     7
  6
Continuous
370
    -3
390
F
  0
LAYER
  5
45
330
2
100
AcDbSymbolTableRecord
100
AcDbLayerTableRecord
  2
0-0
 70
     0
 62
     7
  6
Continuous
370
    -3
390
F
  0
LAYER
  5
46
330
2
100
AcDbSymbolTableRecord
100
AcDbLayerTableRecord
  2
0-A
 70
     0
 62
     7
  6
Continuous
370
    -3
390
F
  0
LAYER
  5
47
330
2
100
AcDbSymbolTableRecord
100
AcDbLayerTableRecord
  2
0-3
 70
     0
 62
     7
  6
Continuous
370
    -3
390
F
  0
LAYER
  5
48
330
2
100
AcDbSymbolTableRecord
100
AcDbLayerTableRecord
  2
0-9
 70
     0
 62
     7
  6
Continuous
370
    -3
390
F
  0
LAYER
  5
49
330
2
100
AcDbSymbolTableRecord
100
AcDbLayerTableRecord
  2
0-8
 70
     0
 62
     7
  6
Continuous
370
    -3
390
F
  0
LAYER
  5
4A
330
2
100
AcDbSymbolTableRecord
100
AcDbLayerTableRecord
  2
0-C
 70
     0
 62
     7
  6
Continuous
370
    -3
390
F
  0
LAYER
  5
4B
330
2
100
AcDbSymbolTableRecord
100
AcDbLayerTableRecord
  2
0-2
 70
     0
 62
     7
  6
Continuous
370
    -3
390
F
  0
LAYER
  5
4C
330
2
100
AcDbSymbolTableRecord
100
AcDbLayerTableRecord
  2
F-4
 70
     0
 62
     7
  6
Continuous
370
    -3
390
F
  0
ENDTAB
  0
TABLE
  2
STYLE
  5
3
330
0
100
AcDbSymbolTable
 70
     2
  0
STYLE
  5
11
330
3
100
AcDbSymbolTableRecord
100
AcDbTextStyleTableRecord
  2
Standard
 70
     0
 40
0.0
 41
1.0
 50
0.0
 71
     0
 42
2.5
  3
txt
  4

1001
ACAD
1000

1071
        0
  0
STYLE
  5
3B
330
3
100
AcDbSymbolTableRecord
100
AcDbTextStyleTableRecord
  2
ＭＳ ゴシック
 70
     0
 40
1.0
 41
1.0
 50
0.0
 71
     0
 42
10.0
  3

  4

1001
ACAD
1000
MS Gothic
1071
    32817
  0
ENDTAB
  0
TABLE
  2
VIEW
  5
6
330
0
100
AcDbSymbolTable
 70
     0
  0
ENDTAB
  0
TABLE
  2
UCS
  5
7
330
0
100
AcDbSymbolTable
 70
     0
  0
ENDTAB
  0
TABLE
  2
APPID
  5
9
330
0
100
AcDbSymbolTable
 70
     1
  0
APPID
  5
12
330
9
100
AcDbSymbolTableRecord
100
AcDbRegAppTableRecord
  2
ACAD
 70
     0
  0
ENDTAB
  0
TABLE
  2
DIMSTYLE
  5
A
330
0
100
AcDbSymbolTable
 70
     1
100
AcDbDimStyleTable
  0
DIMSTYLE
105
27
330
A
100
AcDbSymbolTableRecord
100
AcDbDimStyleTableRecord
  2
ISO-25
 70
     0
 41
2.5
 42
0.625
 43
3.75
 44
1.25
 73
     0
 74
     0
 77
     1
 78
     8
140
2.5
141
2.5
143
0.03937007874016
147
0.625
171
     3
172
     1
271
     2
272
     2
274
     3
278
    44
283
     0
284
     8
340
11
  0
ENDTAB
  0
TABLE
  2
BLOCK_RECORD
  5
1
330
0
100
AcDbSymbolTable
 70
     1
  0
BLOCK_RECORD
  5
1F
330
1
100
AcDbSymbolTableRecord
100
AcDbBlockTableRecord
  2
*Model_Space
340
22
  0
BLOCK_RECORD
  5
1B
330
1
100
AcDbSymbolTableRecord
100
AcDbBlockTableRecord
  2
*Paper_Space
340
1E
  0
BLOCK_RECORD
  5
23
330
1
100
AcDbSymbolTableRecord
100
AcDbBlockTableRecord
  2
*Paper_Space0
340
26
  0
ENDTAB
  0
ENDSEC
  0
SECTION
  2
BLOCKS
  0
BLOCK
  5
20
330
1F
100
AcDbEntity
  8
0
100
AcDbBlockBegin
  2
*Model_Space
 70
     0
 10
0.0
 20
0.0
 30
0.0
  3
*Model_Space
  1

  0
ENDBLK
  5
21
330
1F
100
AcDbEntity
  8
0
100
AcDbBlockEnd
  0
BLOCK
  5
1C
330
1B
100
AcDbEntity
 67
     1
  8
0
100
AcDbBlockBegin
  2
*Paper_Space
 70
     0
 10
0.0
 20
0.0
 30
0.0
  3
*Paper_Space
  1

  0
ENDBLK
  5
1D
330
1B
100
AcDbEntity
 67
     1
  8
0
100
AcDbBlockEnd
  0
BLOCK
  5
24
330
23
100
AcDbEntity
  8
0
100
AcDbBlockBegin
  2
*Paper_Space0
 70
     0
 10
0.0
 20
0.0
 30
0.0
  3
*Paper_Space0
  1

  0
ENDBLK
  5
25
330
23
100
AcDbEntity
  8
0
100
AcDbBlockEnd
  0
ENDSEC
  0
SECTION
  2
ENTITIES
  0
LINE
  5
4D
330
1F
100
AcDbEntity
  8
0-5
  6
Continuous
 62
     7
370
     9
100
AcDbLine
 10
97.54071428849463
 20
-868.8151815020764
 30
0.0
 11
112.7597500137121
 21
-888.6490150093573
 31
0.0
  0
LINE
  5
4E
330
1F
100
AcDbEntity
  8
0-5
  6
Continuous
 62
     7
370
     9
100
AcDbLine
 10
97.54071428849463
 20
-868.8151815020764
 30
0.0
 11
107.1078000976214
 21
-891.9121698148585
 31
0.0
  0
LINE
  5
4F
330
1F
100
AcDbEntity
  8
0-5
  6
Continuous
 62
     7
370
     9
100
AcDbLine
 10
97.54071428849463
 20
-868.8151815020764
 30
0.0
 11
171.3116030781512
 21
-996.590109005275
 31
0.0
  0
LINE
  5
50
330
1F
100
AcDbEntity
  8
0-5
  6
Continuous
 62
     7
370
     9
100
AcDbLine
 10
-190.342734956649
 20
-888.8153090237975
 30
0.0
 11
-238.4554289494698
 21
-972.148711090415
 31
0.0
  0
LINE
  5
51
330
1F
100
AcDbEntity
  8
0-5
  6
Continuous
 62
     7
370
     9
100
AcDbLine
 10
-190.342734956649
 20
-888.8153090237975
 30
0.0
 11
-205.5617686876454
 21
-908.6489717270281
 31
0.0
  0
LINE
  5
52
330
1F
100
AcDbEntity
  8
0-5
  6
Continuous
 62
     7
370
     9
100
AcDbLine
 10
-190.342734956649
 20
-888.8153090237975
 30
0.0
 11
-199.9099956988365
 21
-911.9122081079402
 31
0.0
  0
LINE
  5
53
330
1F
100
AcDbEntity
  8
0-5
  6
Continuous
 62
     7
370
     9
100
AcDbLine
 10
-305.34245452485
 20
-652.1486038664915
 30
0.0
 11
-362.991578225283
 21
-751.9998151274649
 31
0.0
  0
LINE
  5
54
330
1F
100
AcDbEntity
  8
0-5
  6
Continuous
 62
     7
370
     9
100
AcDbLine
 10
-305.34245452485
 20
-652.1486038664915
 30
0.0
 11
-314.9095403339773
 21
-675.2455921792737
 31
0.0
  0
LINE
  5
55
330
1F
100
AcDbEntity
  8
0-5
  6
Continuous
 62
     7
370
     9
100
AcDbLine
 10
-305.34245452485
 20
-652.1486038664915
 30
0.0
 11
-320.561490250068
 21
-671.9824373737724
 31
0.0
  0
TEXT
  5
56
330
1F
100
AcDbEntity
  8
0-5
  6
Continuous
 62
     6
370
     9
100
AcDbText
 10
201.0135138052223
 20
-230.5922060264824
 30
0.0
 40
19.05
  1
（別途）
 41
1.09
  7
ＭＳ ゴシック
100
AcDbText
  0
TEXT
  5
57
330
1F
100
AcDbEntity
  8
0-5
  6
Continuous
 62
     6
370
     9
100
AcDbText
 10
106.9815481673864
 20
-182.0290885851435
 30
0.0
 40
19.05
  1
長ネジボルト：ＳＷＲＭ
 41
1.109090909090909
  7
ＭＳ ゴシック
100
AcDbText
  0
TEXT
  5
58
330
1F
100
AcDbEntity
  8
0-5
  6
Continuous
 62
     6
370
     9
100
AcDbText
 10
181.5029164849462
 20
-986.0927851633688
 30
0.0
 40
19.05
  1
位置決めプレート：ＳＧＨＣ
 41
1.110769230769231
  7
ＭＳ ゴシック
100
AcDbText
  0
TEXT
  5
59
330
1F
100
AcDbEntity
  8
0-5
  6
Continuous
 62
     6
370
     9
100
AcDbText
 10
335.342303027688
 20
-1036.391758358498
 30
0.0
 40
19.05
  1
（別途）
 41
1.09
  7
ＭＳ ゴシック
100
AcDbText
  0
TEXT
  5
5A
330
1F
100
AcDbEntity
  8
0-5
  6
Continuous
 62
     6
370
     9
100
AcDbText
 10
-615.200894306077
 20
-740.8015748818755
 30
0.0
 40
19.05
  1
ルーフドレイン本体
 41
1.106666666666666
  7
ＭＳ ゴシック
100
AcDbText
  0
TEXT
  5
5B
330
1F
100
AcDbEntity
  8
0-5
  6
Continuous
 62
     6
370
     9
100
AcDbText
 10
-531.2987319014549
 20
-786.4801084970625
 30
0.0
 40
19.05
  1
（別途）
 41
1.089999999999999
  7
ＭＳ ゴシック
100
AcDbText
  0
LINE
  5
5C
330
1F
100
AcDbEntity
  8
0-5
  6
Continuous
 62
     7
370
     9
100
AcDbLine
 10
544.0171932379423
 20
-996.590109005275
 30
0.0
 11
171.3116030781512
 21
-996.590109005275
 31
0.0
  0
LINE
  5
5D
330
1F
100
AcDbEntity
  8
0-5
  6
Continuous
 62
     7
370
     9
100
AcDbLine
 10
-362.991578225283
 20
-751.9998151274649
 30
0.0
 11
-623.7644487503175
 21
-751.9998151274649
 31
0.0
  0
TEXT
  5
5E
330
1F
100
AcDbEntity
  8
0-5
  6
Continuous
 62
     6
370
     9
100
AcDbText
 10
290.320942299196
 20
-875.2160677009975
 30
0.0
 40
19.05
  1
引き上げプレート：ＳＧＨＣ
 41
1.110769230769231
  7
ＭＳ ゴシック
100
AcDbText
  0
TEXT
  5
5F
330
1F
100
AcDbEntity
  8
0-5
  6
Continuous
 62
     6
370
     9
100
AcDbText
 10
439.0701067159369
 20
-914.5948278256624
 30
0.0
 40
19.05
  1
（別途）
 41
1.09
  7
ＭＳ ゴシック
100
AcDbText
  0
LINE
  5
60
330
1F
100
AcDbEntity
  8
0-5
  6
Continuous
 62
     7
370
     9
100
AcDbLine
 10
283.7560365944202
 20
-882.5756778364308
 30
0.0
 11
649.6282753994344
 21
-882.5756778364308
 31
0.0
  0
TEXT
  5
61
330
1F
100
AcDbEntity
  8
0-5
  6
Continuous
 62
     6
370
     9
100
AcDbText
 10
-691.5231192160934
 20
-963.3740207245131
 30
0.0
 40
19.05
  1
スペーサー：硬質ポリ塩化ビニル管
 41
1.1125
  7
ＭＳ ゴシック
100
AcDbText
  0
TEXT
  5
62
330
1F
100
AcDbEntity
  8
0-5
  6
Continuous
 62
     6
370
     9
100
AcDbText
 10
-516.268263256869
 20
-1003.793932497335
 30
0.0
 40
19.05
  1
（別途）
 41
1.090000000000001
  7
ＭＳ ゴシック
100
AcDbText
  0
LINE
  5
63
330
1F
100
AcDbEntity
  8
0-5
  6
Continuous
 62
     7
370
     9
100
AcDbLine
 10
-238.4554289494698
 20
-972.148711090415
 30
0.0
 11
-694.9600619462249
 21
-972.148711090415
 31
0.0
  0
LINE
  5
64
330
1F
100
AcDbEntity
  8
0-5
  6
Continuous
 62
     7
370
     9
100
AcDbLine
 10
160.7259871176914
 20
-669.4813812850235
 30
0.0
 11
283.7560365944202
 21
-882.5756778364308
 31
0.0
  0
LINE
  5
65
330
1F
100
AcDbEntity
  8
0-5
  6
Continuous
 62
     7
370
     9
100
AcDbLine
 10
160.7259871176914
 20
-669.4813812850235
 30
0.0
 11
175.9450228429094
 21
-689.3152147923045
 31
0.0
  0
LINE
  5
66
330
1F
100
AcDbEntity
  8
0-5
  6
Continuous
 62
     7
370
     9
100
AcDbLine
 10
160.7259871176914
 20
-669.4813812850235
 30
0.0
 11
170.2930729268186
 21
-692.5783695978056
 31
0.0
  0
LINE
  5
67
330
1F
100
AcDbEntity
  8
0-5
  6
Continuous
 62
     7
370
     9
100
AcDbLine
 10
330.6074070580985
 20
-634.4428195560934
 30
0.0
 11
340.1744928672258
 21
-657.5398078688755
 31
0.0
  0
LINE
  5
68
330
1F
100
AcDbEntity
  8
0-5
  6
Continuous
 62
     7
370
     9
100
AcDbLine
 10
330.6074070580985
 20
-634.4428195560934
 30
0.0
 11
345.8264427833166
 21
-654.2766530633742
 31
0.0
  0
LINE
  5
69
330
1F
100
AcDbEntity
  8
0-5
  6
Continuous
 62
     7
370
     9
100
AcDbLine
 10
330.6074070580985
 20
-634.4428195560934
 30
0.0
 11
406.9636674245686
 21
-766.6957419867771
 31
0.0
  0
TEXT
  5
6A
330
1F
100
AcDbEntity
  8
0-5
  6
Continuous
 62
     7
370
     9
100
AcDbText
 10
453.510051141645
 20
-754.8908070674651
 30
0.0
 40
22.86
  1
リング
 41
1.111111111111111
  7
ＭＳ ゴシック
100
AcDbText
  0
LINE
  5
6B
330
1F
100
AcDbEntity
  8
0-5
  6
Continuous
 62
     7
370
     9
100
AcDbLine
 10
406.9636674245686
 20
-766.6957419867771
 30
0.0
 11
618.6993967799426
 21
-766.6957419867771
 31
0.0
  0
LINE
  5
6C
330
1F
100
AcDbEntity
  8
0-5
  6
Continuous
 62
     7
370
     9
100
AcDbLine
 10
12.99093929377327
 20
-357.7363838112663
 30
0.0
 11
22.55802510290003
 21
-334.6393954984841
 31
0.0
  0
LINE
  5
6D
330
1F
100
AcDbEntity
  8
0-5
  6
Continuous
 62
     7
370
     9
100
AcDbLine
 10
12.99093929377327
 20
-357.7363838112663
 30
0.0
 11
28.20997501899078
 21
-337.9025503039853
 31
0.0
  0
LINE
  5
6E
330
1F
100
AcDbEntity
  8
0-5
  6
Continuous
 62
     7
370
     9
100
AcDbLine
 10
12.99093929377327
 20
-357.7363838112663
 30
0.0
 11
106.6944315062489
 21
-195.4371744526237
 31
0.0
  0
LINE
  5
6F
330
1F
100
AcDbEntity
  8
0-5
  6
Continuous
 62
     7
370
     9
100
AcDbLine
 10
106.6944315062489
 20
-195.4371744526237
 30
0.0
 11
416.9117083956827
 21
-195.4371744526237
 31
0.0
  0
LWPOLYLINE
  5
70
330
1F
100
AcDbEntity
  8
0-F
  6
Continuous
 62
     7
370
     9
100
AcDbPolyline
 90
        4
 70
     1
 43
1.0
 10
13.49093929377327
 20
-622.1485873705037
 42
0.4142135623731
 10
12.99093929377327
 20
-621.6485873705037
 42
0.4142135623731
 10
12.49093929377327
 20
-622.1485873705037
 42
0.4142135623731
 10
12.99093929377327
 20
-622.6485873705037
 42
0.4142135623731
  0
LWPOLYLINE
  5
71
330
1F
100
AcDbEntity
  8
0-F
  6
Continuous
 62
     7
370
     9
100
AcDbPolyline
 90
        4
 70
     1
 43
1.0
 10
0.1576444510788096
 20
678.4674952003891
 42
0.4142135623731
 10
-0.3423555489211905
 20
678.9674952003891
 42
0.4142135623731
 10
-0.8423555489211905
 20
678.4674952003891
 42
0.4142135623731
 10
-0.3423555489211905
 20
677.9674952003892
 42
0.4142135623731
  0
LINE
  5
72
330
1F
100
AcDbEntity
  8
0-B
  6
Continuous
 62
     2
370
     9
100
AcDbLine
 10
-28.58754472962723
 20
690.1341335882189
 30
0.0
 11
-35.34227071241047
 21
690.1341335882189
 31
0.0
  0
LINE
  5
73
330
1F
100
AcDbEntity
  8
0-B
  6
Continuous
 62
     2
370
     9
100
AcDbLine
 10
-35.34227071241047
 20
666.8008568125593
 30
0.0
 11
-28.58754472962723
 21
666.8008568125593
 31
0.0
  0
LINE
  5
74
330
1F
100
AcDbEntity
  8
0-B
  6
Continuous
 62
     2
370
     9
100
AcDbLine
 10
27.90283363178409
 20
690.1341335882189
 30
0.0
 11
34.65772477083041
 21
690.1341335882189
 31
0.0
  0
LINE
  5
75
330
1F
100
AcDbEntity
  8
0-B
  6
Continuous
 62
     2
370
     9
100
AcDbLine
 10
34.65772477083041
 20
666.8008568125593
 30
0.0
 11
27.90283363178409
 21
666.8008568125593
 31
0.0
  0
LINE
  5
76
330
1F
100
AcDbEntity
  8
0-B
  6
Continuous
 62
     2
370
     9
100
AcDbLine
 10
27.90283363178409
 20
686.134379221338
 30
0.0
 11
34.65772477083041
 21
686.134379221338
 31
0.0
  0
LINE
  5
77
330
1F
100
AcDbEntity
  8
0-B
  6
Continuous
 62
     2
370
     9
100
AcDbLine
 10
34.65772477083041
 20
670.8009414919652
 30
0.0
 11
27.90283363178409
 21
670.8009414919652
 31
0.0
  0
LINE
  5
78
330
1F
100
AcDbEntity
  8
0-B
  6
Continuous
 62
     2
370
     9
100
AcDbLine
 10
-35.34227071241047
 20
670.8009414919652
 30
0.0
 11
-28.58754472962723
 21
670.8009414919652
 31
0.0
  0
LINE
  5
79
330
1F
100
AcDbEntity
  8
0-B
  6
Continuous
 62
     2
370
     9
100
AcDbLine
 10
-28.58754472962723
 20
686.134379221338
 30
0.0
 11
-35.34227071241047
 21
686.134379221338
 31
0.0
  0
LINE
  5
7A
330
1F
100
AcDbEntity
  8
0-1
  6
JWW_CENTER1
 62
     4
370
     9
100
AcDbLine
 10
540.3338301277222
 20
678.4676603566518
 30
0.0
 11
-541.0184586474338
 21
678.4676603566518
 31
0.0
  0
LINE
  5
7B
330
1F
100
AcDbEntity
  8
0-4
  6
Continuous
 62
     6
370
     9
100
AcDbLine
 10
261.3650838982335
 20
726.1342350778223
 30
0.0
 11
-271.9682543446197
 21
726.1342350778223
 31
0.0
  0
LINE
  5
7C
330
1F
100
AcDbEntity
  8
0-4
  6
Continuous
 62
     6
370
     9
100
AcDbLine
 10
-271.9682543446197
 20
630.800755322956
 30
0.0
 11
-271.9682543446197
 21
726.1342350778223
 31
0.0
  0
LINE
  5
7D
330
1F
100
AcDbEntity
  8
0-4
  6
Continuous
 62
     6
370
     9
100
AcDbLine
 10
261.3650838982335
 20
630.800755322956
 30
0.0
 11
-271.9682543446197
 21
630.800755322956
 31
0.0
  0
LINE
  5
7E
330
1F
100
AcDbEntity
  8
0-4
  6
Continuous
 62
     6
370
     9
100
AcDbLine
 10
261.3650838982335
 20
630.800755322956
 30
0.0
 11
261.3650838982335
 21
726.1342350778223
 31
0.0
  0
LINE
  5
7F
330
1F
100
AcDbEntity
  8
0-D
  6
Continuous
 62
     2
370
     9
100
AcDbLine
 10
28.03173809471902
 20
645.1341718824774
 30
0.0
 11
28.03173809471902
 21
666.8008568125593
 31
0.0
  0
LINE
  5
80
330
1F
100
AcDbEntity
  8
0-D
  6
Continuous
 62
     2
370
     9
100
AcDbLine
 10
28.03173809471902
 20
690.1341335882189
 30
0.0
 11
28.03173809471902
 21
711.8006533620385
 31
0.0
  0
LINE
  5
81
330
1F
100
AcDbEntity
  8
0-D
  6
Continuous
 62
     2
370
     9
100
AcDbLine
 10
261.3650838982335
 20
711.8006533620385
 30
0.0
 11
28.03173809471902
 21
711.8006533620385
 31
0.0
  0
LINE
  5
82
330
1F
100
AcDbEntity
  8
0-D
  6
Continuous
 62
     2
370
     9
100
AcDbLine
 10
261.3650838982335
 20
645.1341718824774
 30
0.0
 11
28.03173809471902
 21
645.1341718824774
 31
0.0
  0
LINE
  5
83
330
1F
100
AcDbEntity
  8
0-1
  6
Continuous
 62
     4
370
     9
100
AcDbLine
 10
482.9909151389331
 20
678.4676603566518
 30
0.0
 11
482.9909151389331
 21
195.1343896687975
 31
0.0
  0
LINE
  5
84
330
1F
100
AcDbEntity
  8
0-1
  6
Continuous
 62
     4
370
     9
100
AcDbLine
 10
-483.6757088149071
 20
195.1343896687975
 30
0.0
 11
-483.6757088149071
 21
1161.801261357031
 31
0.0
  0
LINE
  5
85
330
1F
100
AcDbEntity
  8
0-1
  6
Continuous
 62
     4
370
     9
100
AcDbLine
 10
-0.3423555489211905
 20
1161.801261357031
 30
0.0
 11
-483.6757088149071
 21
1161.801261357031
 31
0.0
  0
LINE
  5
86
330
1F
100
AcDbEntity
  8
0-1
  6
Continuous
 62
     4
370
     9
100
AcDbLine
 10
482.9909151389331
 20
195.1343896687975
 30
0.0
 11
-483.6757088149071
 21
195.1343896687975
 31
0.0
  0
LINE
  5
87
330
1F
100
AcDbEntity
  8
0-1
  6
JWW_CENTER1
 62
     4
370
     9
100
AcDbLine
 10
-0.3423555489211905
 20
1220.983026173256
 30
0.0
 11
-0.3423555489211905
 21
119.5929061075995
 31
0.0
  0
LINE
  5
88
330
1F
100
AcDbEntity
  8
0-F
  6
Continuous
 62
     7
370
     9
100
AcDbLine
 10
-678.7394170576695
 20
195.1343896687975
 30
0.0
 11
-678.7394170576695
 21
678.4676603566518
 31
0.0
  0
LINE
  5
89
330
1F
100
AcDbEntity
  8
0-F
  6
Continuous
 62
     7
370
     9
100
AcDbLine
 10
-523.6757298276536
 20
195.1343896687975
 30
0.0
 11
-682.7394191589442
 21
195.1343896687975
 31
0.0
  0
LINE
  5
8A
330
1F
100
AcDbEntity
  8
0-F
  6
Continuous
 62
     7
370
     9
100
AcDbLine
 10
-581.0184796601803
 20
678.4676603566518
 30
0.0
 11
-682.7394191589442
 21
678.4676603566518
 31
0.0
  0
LINE
  5
8B
330
1F
100
AcDbEntity
  8
0-F
  6
Continuous
 62
     7
370
     9
100
AcDbLine
 10
-678.7394170576695
 20
195.1343896687975
 30
0.0
 11
-683.9604606971775
 21
234.7922069055027
 31
0.0
  0
LINE
  5
8C
330
1F
100
AcDbEntity
  8
0-F
  6
Continuous
 62
     7
370
     9
100
AcDbLine
 10
-678.7394170576695
 20
195.1343896687975
 30
0.0
 11
-673.5183734181614
 21
234.7922069055027
 31
0.0
  0
LINE
  5
8D
330
1F
100
AcDbEntity
  8
0-F
  6
Continuous
 62
     7
370
     9
100
AcDbLine
 10
-678.7394170576695
 20
678.4676603566518
 30
0.0
 11
-683.9604606971775
 21
638.8098431199465
 31
0.0
  0
LINE
  5
8E
330
1F
100
AcDbEntity
  8
0-F
  6
Continuous
 62
     7
370
     9
100
AcDbLine
 10
-678.7394170576695
 20
678.4676603566518
 30
0.0
 11
-673.5183734181614
 21
638.8098431199465
 31
0.0
  0
LINE
  5
8F
330
1F
100
AcDbEntity
  8
0-F
  6
Continuous
 62
     7
370
     9
100
AcDbLine
 10
694.5567481140672
 20
195.1343896687975
 30
0.0
 11
694.5567481140672
 21
1161.800931044506
 31
0.0
  0
LINE
  5
90
330
1F
100
AcDbEntity
  8
0-F
  6
Continuous
 62
     7
370
     9
100
AcDbLine
 10
522.9909361516798
 20
195.1343896687975
 30
0.0
 11
698.5566676372111
 21
195.1343896687975
 31
0.0
  0
LINE
  5
91
330
1F
100
AcDbEntity
  8
0-F
  6
Continuous
 62
     7
370
     9
100
AcDbLine
 10
39.65766546382535
 20
1161.800931044506
 30
0.0
 11
698.5566676372111
 21
1161.800931044506
 31
0.0
  0
LINE
  5
92
330
1F
100
AcDbEntity
  8
0-F
  6
Continuous
 62
     7
370
     9
100
AcDbLine
 10
694.5567481140672
 20
195.1343896687975
 30
0.0
 11
689.3356631854938
 21
234.7922069055027
 31
0.0
  0
LINE
  5
93
330
1F
100
AcDbEntity
  8
0-F
  6
Continuous
 62
     7
370
     9
100
AcDbLine
 10
694.5567481140672
 20
195.1343896687975
 30
0.0
 11
699.7778330426413
 21
234.7922069055027
 31
0.0
  0
LINE
  5
94
330
1F
100
AcDbEntity
  8
0-F
  6
Continuous
 62
     7
370
     9
100
AcDbLine
 10
694.5567481140672
 20
1161.800931044506
 30
0.0
 11
689.3356631854938
 21
1122.143278964063
 31
0.0
  0
LINE
  5
95
330
1F
100
AcDbEntity
  8
0-F
  6
Continuous
 62
     7
370
     9
100
AcDbLine
 10
694.5567481140672
 20
1161.800931044506
 30
0.0
 11
699.7778330426413
 21
1122.143278964063
 31
0.0
  0
LINE
  5
96
330
1F
100
AcDbEntity
  8
0-F
  6
Continuous
 62
     7
370
     9
100
AcDbLine
 10
-0.3423555489211905
 20
678.4674952003891
 30
0.0
 11
341.42573827209
 21
1020.235919333925
 31
0.0
  0
LINE
  5
97
330
1F
100
AcDbEntity
  8
0-F
  6
Continuous
 62
     7
370
     9
100
AcDbLine
 10
341.42573827209
 20
1020.235919333925
 30
0.0
 11
317.0754292315344
 21
988.501473793938
 31
0.0
  0
LINE
  5
98
330
1F
100
AcDbEntity
  8
0-F
  6
Continuous
 62
     7
370
     9
100
AcDbLine
 10
341.42573827209
 20
1020.235919333925
 30
0.0
 11
309.6916230446277
 21
995.8852799808448
 31
0.0
  0
LINE
  5
99
330
1F
100
AcDbEntity
  8
0-F
  6
Continuous
 62
     7
370
     9
100
AcDbLine
 10
-483.6757088149071
 20
23.79071287956393
 30
0.0
 11
482.9907499826701
 21
23.79071287956393
 31
0.0
  0
LINE
  5
9A
330
1F
100
AcDbEntity
  8
0-F
  6
Continuous
 62
     7
370
     9
100
AcDbLine
 10
-483.6757088149071
 20
155.1342034997878
 30
0.0
 11
-483.6757088149071
 21
19.79062820015798
 31
0.0
  0
LINE
  5
9B
330
1F
100
AcDbEntity
  8
0-F
  6
Continuous
 62
     7
370
     9
100
AcDbLine
 10
482.9907499826701
 20
155.1342034997878
 30
0.0
 11
482.9907499826701
 21
19.79062820015798
 31
0.0
  0
LINE
  5
9C
330
1F
100
AcDbEntity
  8
0-F
  6
Continuous
 62
     7
370
     9
100
AcDbLine
 10
-483.6757088149071
 20
23.79071287956393
 30
0.0
 11
-444.0178915782022
 21
29.01163265187535
 31
0.0
  0
LINE
  5
9D
330
1F
100
AcDbEntity
  8
0-F
  6
Continuous
 62
     7
370
     9
100
AcDbLine
 10
-483.6757088149071
 20
23.79071287956393
 30
0.0
 11
-444.0178915782022
 21
18.56979310725251
 31
0.0
  0
LINE
  5
9E
330
1F
100
AcDbEntity
  8
0-F
  6
Continuous
 62
     7
370
     9
100
AcDbLine
 10
482.9907499826701
 20
23.79071287956393
 30
0.0
 11
443.3330979022276
 21
29.01163265187535
 31
0.0
  0
LINE
  5
9F
330
1F
100
AcDbEntity
  8
0-F
  6
Continuous
 62
     7
370
     9
100
AcDbLine
 10
482.9907499826701
 20
23.79071287956393
 30
0.0
 11
443.3330979022276
 21
18.56979310725251
 31
0.0
  0
ARC
  5
A0
330
1F
100
AcDbEntity
  8
0-B
  6
Continuous
 62
     2
370
     9
100
AcDbCircle
 10
-35.34227071241047
 20
678.4676603566518
 30
0.0
 40
11.66666419349582
100
AcDbArc
 50
90.0
 51
270.0
  0
ARC
  5
A1
330
1F
100
AcDbEntity
  8
0-B
  6
Continuous
 62
     2
370
     9
100
AcDbCircle
 10
-28.58754472962723
 20
694.1342182676248
 30
0.0
 40
4.000000165849732
100
AcDbArc
 50
270.0
 51
323.9680633544922
  0
ARC
  5
A2
330
1F
100
AcDbEntity
  8
0-B
  6
Continuous
 62
     2
370
     9
100
AcDbCircle
 10
-28.58754472962723
 20
662.8011024456785
 30
0.0
 40
4.000000165849732
100
AcDbArc
 50
36.03193664550781
 51
90.0
  0
ARC
  5
A3
330
1F
100
AcDbEntity
  8
0-B
  6
Continuous
 62
     2
370
     9
100
AcDbCircle
 10
34.65772477083041
 20
678.4676603566518
 30
0.0
 40
11.66666419349582
100
AcDbArc
 50
270.0
 51
90.0
  0
ARC
  5
A4
330
1F
100
AcDbEntity
  8
0-B
  6
Continuous
 62
     2
370
     9
100
AcDbCircle
 10
27.90283363178409
 20
694.1342182676248
 30
0.0
 40
4.000000165849732
100
AcDbArc
 50
216.0319366455078
 51
270.0
  0
ARC
  5
A5
330
1F
100
AcDbEntity
  8
0-B
  6
Continuous
 62
     2
370
     9
100
AcDbCircle
 10
27.90283363178409
 20
662.8011024456785
 30
0.0
 40
4.000000165849732
100
AcDbArc
 50
90.0
 51
143.9680633544922
  0
ARC
  5
A6
330
1F
100
AcDbEntity
  8
0-B
  6
Continuous
 62
     2
370
     9
100
AcDbCircle
 10
-0.3423555489211905
 20
678.4676603566518
 30
0.0
 40
28.3333335941516
100
AcDbArc
 50
28.02755737304687
 51
151.9724426269531
  0
ARC
  5
A7
330
1F
100
AcDbEntity
  8
0-B
  6
Continuous
 62
     2
370
     9
100
AcDbCircle
 10
-0.3423555489211905
 20
678.4676603566518
 30
0.0
 40
28.3333335941516
100
AcDbArc
 50
208.0275573730469
 51
331.9724426269531
  0
ARC
  5
A8
330
1F
100
AcDbEntity
  8
0-B
  6
Continuous
 62
     2
370
     9
100
AcDbCircle
 10
34.65772477083041
 20
678.4676603566518
 30
0.0
 40
7.666664027646087
100
AcDbArc
 50
270.0
 51
90.0
  0
ARC
  5
A9
330
1F
100
AcDbEntity
  8
0-B
  6
Continuous
 62
     2
370
     9
100
AcDbCircle
 10
-35.34227071241047
 20
678.4676603566518
 30
0.0
 40
7.666664027646087
100
AcDbArc
 50
90.0
 51
270.0
  0
ARC
  5
AA
330
1F
100
AcDbEntity
  8
0-B
  6
Continuous
 62
     2
370
     9
100
AcDbCircle
 10
-28.58754472962723
 20
694.1342182676248
 30
0.0
 40
8.000000331699464
100
AcDbArc
 50
270.0
 51
323.9680633544922
  0
ARC
  5
AB
330
1F
100
AcDbEntity
  8
0-B
  6
Continuous
 62
     2
370
     9
100
AcDbCircle
 10
-0.3423555489211905
 20
678.4676603566518
 30
0.0
 40
24.33333665401012
100
AcDbArc
 50
28.02755737304687
 51
153.5666198730469
  0
ARC
  5
AC
330
1F
100
AcDbEntity
  8
0-B
  6
Continuous
 62
     2
370
     9
100
AcDbCircle
 10
-28.58754472962723
 20
662.8011024456785
 30
0.0
 40
8.000000331699464
100
AcDbArc
 50
32.02981567382812
 51
90.0
  0
ARC
  5
AD
330
1F
100
AcDbEntity
  8
0-B
  6
Continuous
 62
     2
370
     9
100
AcDbCircle
 10
27.90283363178409
 20
694.1342182676248
 30
0.0
 40
8.000000331699464
100
AcDbArc
 50
212.0298156738282
 51
270.0
  0
ARC
  5
AE
330
1F
100
AcDbEntity
  8
0-B
  6
Continuous
 62
     2
370
     9
100
AcDbCircle
 10
-0.3423555489211905
 20
678.4676603566518
 30
0.0
 40
24.33333665401012
100
AcDbArc
 50
208.0275573730469
 51
331.9724426269531
  0
ARC
  5
AF
330
1F
100
AcDbEntity
  8
0-B
  6
Continuous
 62
     2
370
     9
100
AcDbCircle
 10
27.90283363178409
 20
662.8011024456785
 30
0.0
 40
8.000000331699464
100
AcDbArc
 50
90.0
 51
147.9701843261718
  0
CIRCLE
  5
B0
330
1F
100
AcDbEntity
  8
0-B
  6
Continuous
 62
     2
370
     9
100
AcDbCircle
 10
-0.3423555489211905
 20
678.4676603566518
 30
0.0
 40
16.66666682008918
  0
CIRCLE
  5
B1
330
1F
100
AcDbEntity
  8
0-B
  6
Continuous
 62
     2
370
     9
100
AcDbCircle
 10
-0.3423555489211905
 20
678.4676603566518
 30
0.0
 40
12.66666600909779
  0
ARC
  5
B2
330
1F
100
AcDbEntity
  8
0-1
  6
Continuous
 62
     4
370
     9
100
AcDbCircle
 10
-0.3423555489211905
 20
678.4676603566518
 30
0.0
 40
483.3333532659856
100
AcDbArc
 50
0.0
 51
90.0
  0
TEXT
  5
B3
330
1F
100
AcDbEntity
  8
0-D
  6
Continuous
 62
     6
370
     9
100
AcDbText
 10
88.69820455114707
 20
671.2867725190024
 30
0.0
 40
15.24
  1
複数回使用
 41
1.119999999999999
  7
ＭＳ ゴシック
100
AcDbText
  0
TEXT
  5
B4
330
1F
100
AcDbEntity
  8
0-F
  6
Continuous
 62
     2
370
     9
100
AcDbText
 10
675.5833851731855
 20
645.9676598187103
 30
0.0
 40
30.48
  1
290
 50
90.00000250447822
 41
1.083333333333332
  7
ＭＳ ゴシック
100
AcDbText
  0
TEXT
  5
B5
330
1F
100
AcDbEntity
  8
0-F
  6
Continuous
 62
     2
370
     9
100
AcDbText
 10
126.1896763055424
 20
831.8316439291439
 30
0.0
 40
30.48
  1
R145
 50
45.00023006357634
 41
1.09375
  7
ＭＳ ゴシック
100
AcDbText
  0
TEXT
  5
B6
330
1F
100
AcDbEntity
  8
0-F
  6
Continuous
 62
     2
370
     9
100
AcDbText
 10
-32.84247941611813
 20
42.76407724106541
 30
0.0
 40
30.48
  1
290
 41
1.083333333333333
  7
ＭＳ ゴシック
100
AcDbText
  0
TEXT
  5
B7
330
1F
100
AcDbEntity
  8
0-F
  6
Continuous
 62
     2
370
     9
100
AcDbText
 10
-697.712738712026
 20
404.301107051792
 30
0.0
 40
30.48
  1
145
 50
90.0000025
 41
1.083333333333333
  7
ＭＳ ゴシック
100
AcDbText
  0
LINE
  5
B8
330
1F
100
AcDbEntity
  8
0-0
  6
Continuous
 62
     3
370
     9
100
AcDbLine
 10
-248.1500141727724
 20
-627.8940434327321
 30
0.0
 11
-247.00911471095
 21
-622.1485873705037
 31
0.0
  0
LINE
  5
B9
330
1F
100
AcDbEntity
  8
0-0
  6
Continuous
 62
     3
370
     9
100
AcDbLine
 10
-115.2301070263331
 20
-706.5781203580812
 30
0.0
 11
-105.3085097088008
 21
-845.4818040536348
 31
0.0
  0
LINE
  5
BA
330
1F
100
AcDbEntity
  8
0-0
  6
Continuous
 62
     3
370
     9
100
AcDbLine
 10
-168.675499374771
 20
-708.815327090832
 30
0.0
 11
-172.0090133784511
 21
-705.4818130871523
 31
0.0
  0
LINE
  5
BB
330
1F
100
AcDbEntity
  8
0-0
  6
Continuous
 62
     3
370
     9
100
AcDbLine
 10
-143.9560660873754
 20
-708.815327090832
 30
0.0
 11
-168.675499374771
 21
-708.815327090832
 31
0.0
  0
LINE
  5
BC
330
1F
100
AcDbEntity
  8
0-0
  6
Continuous
 62
     3
370
     9
100
AcDbLine
 10
247.4652671372417
 20
-627.8940434327321
 30
0.0
 11
246.3243676754193
 21
-622.1485873705037
 31
0.0
  0
LINE
  5
BD
330
1F
100
AcDbEntity
  8
0-0
  6
Continuous
 62
     3
370
     9
100
AcDbLine
 10
167.9907523392407
 20
-708.815327090832
 30
0.0
 11
171.3242663429207
 21
-705.4818130871523
 31
0.0
  0
LINE
  5
BE
330
1F
100
AcDbEntity
  8
0-0
  6
Continuous
 62
     3
370
     9
100
AcDbLine
 10
193.5694936607797
 20
-669.007547967715
 30
0.0
 11
189.0012714381385
 21
-683.8105037817182
 31
0.0
  0
LINE
  5
BF
330
1F
100
AcDbEntity
  8
0-0
  6
Continuous
 62
     3
370
     9
100
AcDbLine
 10
-127.3324276348182
 20
-724.2944326437906
 30
0.0
 11
-118.6759272885596
 21
-845.4818040536348
 31
0.0
  0
LINE
  5
C0
330
1F
100
AcDbEntity
  8
0-0
  6
JWW_DASHED1
 62
     3
370
     9
100
AcDbLine
 10
229.7053535982142
 20
-676.0562520978706
 30
0.0
 11
231.5428821755503
 21
-661.0909476777626
 31
0.0
  0
LINE
  5
C1
330
1F
100
AcDbEntity
  8
0-0
  6
Continuous
 62
     3
370
     9
100
AcDbLine
 10
231.5428821755503
 20
-661.0909476777626
 30
0.0
 11
236.3241559769044
 21
-622.1485873705037
 31
0.0
  0
LINE
  5
C2
330
1F
100
AcDbEntity
  8
0-0
  6
JWW_DASHED1
 62
     3
370
     9
100
AcDbLine
 10
184.572441101105
 20
-687.3238729553352
 30
0.0
 11
220.4774125834691
 21
-684.813167451771
 31
0.0
  0
LINE
  5
C3
330
1F
100
AcDbEntity
  8
0-0
  6
JWW_DASHED1
 62
     3
370
     9
100
AcDbLine
 10
-252.5656320088004
 20
-652.2331218474334
 30
0.0
 11
-256.0629810249482
 21
-651.0970119172254
 31
0.0
  0
LINE
  5
C4
330
1F
100
AcDbEntity
  8
0-0
  6
Continuous
 62
     3
370
     9
100
AcDbLine
 10
-194.2542406963105
 20
-669.007547967715
 30
0.0
 11
-189.6860184736692
 21
-683.8105037817182
 31
0.0
  0
LINE
  5
C5
330
1F
100
AcDbEntity
  8
0-0
  6
Continuous
 62
     3
370
     9
100
AcDbLine
 10
-194.4795138384536
 20
-709.5013862055413
 30
0.0
 11
-196.205066469768
 21
-718.128819049588
 31
0.0
  0
LINE
  5
C6
330
1F
100
AcDbEntity
  8
0-0
  6
Continuous
 62
     3
370
     9
100
AcDbLine
 10
-189.576685027849
 20
-705.4818130871523
 30
0.0
 11
-172.0090133784511
 21
-705.4818130871523
 31
0.0
  0
LINE
  5
C7
330
1F
100
AcDbEntity
  8
0-0
  6
Continuous
 62
     3
370
     9
100
AcDbLine
 10
-244.2027794973883
 20
-717.7418579263905
 30
0.0
 11
-251.5033469279603
 21
-656.6460971832599
 31
0.0
  0
LINE
  5
C8
330
1F
100
AcDbEntity
  8
0-0
  6
Continuous
 62
     3
370
     9
100
AcDbLine
 10
-263.6753634792493
 20
-782.1483411089661
 30
0.0
 11
-263.6753634792493
 21
-802.1481038809454
 31
0.0
  0
LINE
  5
C9
330
1F
100
AcDbEntity
  8
0-0
  6
Continuous
 62
     3
370
     9
100
AcDbLine
 10
-216.4254780085389
 20
-701.4813980952214
 30
0.0
 11
-237.5922349318265
 21
-701.4813980952214
 31
0.0
  0
LINE
  5
CA
330
1F
100
AcDbEntity
  8
0-0
  6
Continuous
 62
     3
370
     9
100
AcDbLine
 10
-216.4254780085389
 20
-701.4813980952214
 30
0.0
 11
-219.1426288403136
 21
-698.814785079792
 31
0.0
  0
LINE
  5
CB
330
1F
100
AcDbEntity
  8
0-0
  6
Continuous
 62
     3
370
     9
100
AcDbLine
 10
-234.8754144125769
 20
-698.814785079792
 30
0.0
 11
-237.5922349318265
 21
-701.4813980952214
 31
0.0
  0
LINE
  5
CC
330
1F
100
AcDbEntity
  8
0-0
  6
Continuous
 62
     3
370
     9
100
AcDbLine
 10
-219.1426288403136
 20
-698.814785079792
 30
0.0
 11
-234.8754144125769
 21
-698.814785079792
 31
0.0
  0
LINE
  5
CD
330
1F
100
AcDbEntity
  8
0-0
  6
Continuous
 62
     3
370
     9
100
AcDbLine
 10
-243.6752703947449
 20
-782.1483411089661
 30
0.0
 11
-263.6753634792493
 21
-782.1483411089661
 31
0.0
  0
LINE
  5
CE
330
1F
100
AcDbEntity
  8
0-0
  6
Continuous
 62
     3
370
     9
100
AcDbLine
 10
-217.0088099279303
 20
-775.4816434141309
 30
0.0
 11
-217.0088099279303
 21
-732.1482735539669
 31
0.0
  0
LINE
  5
CF
330
1F
100
AcDbEntity
  8
0-0
  6
Continuous
 62
     3
370
     9
100
AcDbLine
 10
-243.6752703947449
 20
-802.1481038809454
 30
0.0
 11
-263.6753634792493
 21
-802.1481038809454
 31
0.0
  0
LINE
  5
D0
330
1F
100
AcDbEntity
  8
0-0
  6
Continuous
 62
     3
370
     9
100
AcDbLine
 10
-237.00857269991
 20
-775.4816434141309
 30
0.0
 11
-237.00857269991
 21
-732.1482735539669
 31
0.0
  0
LINE
  5
D1
330
1F
100
AcDbEntity
  8
0-0
  6
Continuous
 62
     3
370
     9
100
AcDbLine
 10
-234.8754144125769
 20
-732.1482735539669
 30
0.0
 11
-234.8754144125769
 21
-695.4816013886374
 31
0.0
  0
LINE
  5
D2
330
1F
100
AcDbEntity
  8
0-0
  6
Continuous
 62
     3
370
     9
100
AcDbLine
 10
-219.1426288403136
 20
-732.1482735539669
 30
0.0
 11
-219.1426288403136
 21
-695.4816013886374
 31
0.0
  0
LINE
  5
D3
330
1F
100
AcDbEntity
  8
0-0
  6
Continuous
 62
     3
370
     9
100
AcDbLine
 10
-216.4254780085389
 20
-732.1482735539669
 30
0.0
 11
-216.4254780085389
 21
-701.4813980952214
 31
0.0
  0
LINE
  5
D4
330
1F
100
AcDbEntity
  8
0-0
  6
Continuous
 62
     3
370
     9
100
AcDbLine
 10
-237.5922349318265
 20
-732.1482735539669
 30
0.0
 11
-237.5922349318265
 21
-701.4813980952214
 31
0.0
  0
LINE
  5
D5
330
1F
100
AcDbEntity
  8
0-0
  6
Continuous
 62
     3
370
     9
100
AcDbLine
 10
-216.4254780085389
 20
-732.1482735539669
 30
0.0
 11
-237.5922349318265
 21
-732.1482735539669
 31
0.0
  0
LINE
  5
D6
330
1F
100
AcDbEntity
  8
0-0
  6
JWW_PHANTOM1
 62
     3
370
     9
100
AcDbLine
 10
212.9905488887198
 20
-705.4818130871523
 30
0.0
 11
206.323851193885
 21
-722.148722480502
 31
0.0
  0
LINE
  5
D7
330
1F
100
AcDbEntity
  8
0-0
  6
JWW_PHANTOM1
 62
     3
370
     9
100
AcDbLine
 10
206.323851193885
 20
-722.148722480502
 30
0.0
 11
196.3243001204202
 21
-722.148722480502
 31
0.0
  0
LINE
  5
D8
330
1F
100
AcDbEntity
  8
0-0
  6
JWW_PHANTOM1
 62
     3
370
     9
100
AcDbLine
 10
196.3243001204202
 20
-722.148722480502
 30
0.0
 11
192.99078611674
 21
-705.4818130871523
 31
0.0
  0
LINE
  5
D9
330
1F
100
AcDbEntity
  8
0-0
  6
Continuous
 62
     3
370
     9
100
AcDbLine
 10
-305.3424718063615
 20
-652.1483966847353
 30
0.0
 11
-308.6758206537789
 21
-648.815212993581
 31
0.0
  0
LINE
  5
DA
330
1F
100
AcDbEntity
  8
0-0
  6
Continuous
 62
     3
370
     9
100
AcDbLine
 10
-305.3424718063615
 20
-652.1483966847353
 30
0.0
 11
-288.6757275692741
 21
-652.1483966847353
 31
0.0
  0
LINE
  5
DB
330
1F
100
AcDbEntity
  8
0-0
  6
Continuous
 62
     3
370
     9
100
AcDbLine
 10
-256.0629810249482
 20
-651.0970119172254
 30
0.0
 11
-260.2761172830673
 21
-649.7277013442709
 31
0.0
  0
LINE
  5
DC
330
1F
100
AcDbEntity
  8
0-0
  6
Continuous
 62
     3
370
     9
100
AcDbLine
 10
304.6575596145685
 20
-652.1483966847353
 30
0.0
 11
307.9910736182482
 21
-648.815212993581
 31
0.0
  0
LINE
  5
DD
330
1F
100
AcDbEntity
  8
0-0
  6
Continuous
 62
     3
370
     9
100
AcDbLine
 10
304.6575596145685
 20
-652.1483966847353
 30
0.0
 11
287.9906502212183
 21
-652.1483966847353
 31
0.0
  0
LINE
  5
DE
330
1F
100
AcDbEntity
  8
0-0
  6
Continuous
 62
     3
370
     9
100
AcDbLine
 10
-130.6920363279842
 20
-691.1396432457149
 30
0.0
 11
-185.2571881366357
 21
-687.3238729553352
 31
0.0
  0
LINE
  5
DF
330
1F
100
AcDbEntity
  8
0-0
  6
JWW_DASHED1
 62
     3
370
     9
100
AcDbLine
 10
-185.2571881366357
 20
-687.3240381115976
 30
0.0
 11
-221.1621596189998
 21
-684.813167451771
 31
0.0
  0
LINE
  5
E0
330
1F
100
AcDbEntity
  8
0-0
  6
Continuous
 62
     3
370
     9
100
AcDbLine
 10
-232.2276292110806
 20
-661.0909476777626
 30
0.0
 11
-237.0092333249601
 21
-622.1485873705037
 31
0.0
  0
LINE
  5
E1
330
1F
100
AcDbEntity
  8
0-0
  6
JWW_DASHED1
 62
     3
370
     9
100
AcDbLine
 10
-230.390100633745
 20
-676.0562520978706
 30
0.0
 11
-232.2276292110806
 21
-661.0909476777626
 31
0.0
  0
LINE
  5
E2
330
1F
100
AcDbEntity
  8
0-0
  6
JWW_DASHED1
 62
     3
370
     9
100
AcDbLine
 10
-243.6237416408236
 20
-677.6813897215435
 30
0.0
 11
-245.7308052386709
 21
-660.5249571659407
 31
0.0
  0
LINE
  5
E3
330
1F
100
AcDbEntity
  8
0-0
  6
Continuous
 62
     3
370
     9
100
AcDbLine
 10
218.8813424620086
 20
-705.4818130871523
 30
0.0
 11
171.3242663429207
 21
-705.4818130871523
 31
0.0
  0
LINE
  5
E4
330
1F
100
AcDbEntity
  8
0-0
  6
Continuous
 62
     3
370
     9
100
AcDbLine
 10
251.8808849732697
 20
-652.2331218474334
 30
0.0
 11
259.5917005600617
 21
-649.7277013442709
 31
0.0
  0
LINE
  5
E5
330
1F
100
AcDbEntity
  8
0-0
  6
Continuous
 62
     3
370
     9
100
AcDbLine
 10
242.0412051619712
 20
-684.9925271529198
 30
0.0
 11
245.0457278906151
 21
-660.5249571659407
 31
0.0
  0
LINE
  5
E6
330
1F
100
AcDbEntity
  8
0-0
  6
Continuous
 62
     3
370
     9
100
AcDbLine
 10
198.3471340243576
 20
-665.4819572306681
 30
0.0
 11
202.990997815255
 21
-665.4819572306681
 31
0.0
  0
LINE
  5
E7
330
1F
100
AcDbEntity
  8
0-0
  6
Continuous
 62
     3
370
     9
100
AcDbLine
 10
-199.0322113724134
 20
-665.4819572306681
 30
0.0
 11
-227.2650138334264
 21
-665.4819572306681
 31
0.0
  0
LINE
  5
E8
330
1F
100
AcDbEntity
  8
0-0
  6
JWW_CENTER1
 62
     3
370
     9
100
AcDbLine
 10
-243.6756007072699
 20
-792.1482224949556
 30
0.0
 11
-266.0645139735636
 21
-792.1482224949556
 31
0.0
  0
LINE
  5
E9
330
1F
100
AcDbEntity
  8
0-0
  6
Continuous
 62
     3
370
     9
100
AcDbLine
 10
-219.1426288403136
 20
-722.1485573242393
 30
0.0
 11
-201.1082255928977
 21
-722.1485573242393
 31
0.0
  0
LINE
  5
EA
330
1F
100
AcDbEntity
  8
0-0
  6
Continuous
 62
     3
370
     9
100
AcDbLine
 10
-239.2375216195326
 20
-722.1485573242393
 30
0.0
 11
-234.8754144125769
 21
-722.1485573242393
 31
0.0
  0
LINE
  5
EB
330
1F
100
AcDbEntity
  8
0-0
  6
Continuous
 62
     3
370
     9
100
AcDbLine
 10
-219.1426288403136
 20
-695.4816013886374
 30
0.0
 11
-234.8754144125769
 21
-695.4816013886374
 31
0.0
  0
LINE
  5
EC
330
1F
100
AcDbEntity
  8
0-0
  6
Continuous
 62
     3
370
     9
100
AcDbLine
 10
-219.1426288403136
 20
-695.4816013886374
 30
0.0
 11
-227.0090216264452
 21
-690.9398041680071
 31
0.0
  0
LINE
  5
ED
330
1F
100
AcDbEntity
  8
0-0
  6
Continuous
 62
     3
370
     9
100
AcDbLine
 10
-234.8754144125769
 20
-695.4816013886374
 30
0.0
 11
-227.0090216264452
 21
-690.9398041680071
 31
0.0
  0
LINE
  5
EE
330
1F
100
AcDbEntity
  8
0-0
  6
JWW_CENTER1
 62
     3
370
     9
100
AcDbLine
 10
-227.0090216264452
 20
-775.4816434141309
 30
0.0
 11
-227.0090216264452
 21
-690.2976766191412
 31
0.0
  0
LINE
  5
EF
330
1F
100
AcDbEntity
  8
0-0
  6
Continuous
 62
     3
370
     9
100
AcDbLine
 10
201.3239105008901
 20
-688.8152340063276
 30
0.0
 11
221.3243338979199
 21
-688.8152340063276
 31
0.0
  0
LINE
  5
F0
330
1F
100
AcDbEntity
  8
0-0
  6
Continuous
 62
     3
370
     9
100
AcDbLine
 10
202.990997815255
 20
-692.1484176974826
 30
0.0
 11
219.6575768960797
 21
-692.1484176974826
 31
0.0
  0
LINE
  5
F1
330
1F
100
AcDbEntity
  8
0-0
  6
Continuous
 62
     3
370
     9
100
AcDbLine
 10
219.6575768960797
 20
-692.1484176974826
 30
0.0
 11
211.32445251193
 21
-696.9595847823615
 31
0.0
  0
LINE
  5
F2
330
1F
100
AcDbEntity
  8
0-0
  6
Continuous
 62
     3
370
     9
100
AcDbLine
 10
202.990997815255
 20
-692.1484176974826
 30
0.0
 11
211.32445251193
 21
-696.9595847823615
 31
0.0
  0
LINE
  5
F3
330
1F
100
AcDbEntity
  8
0-0
  6
Continuous
 62
     3
370
     9
100
AcDbLine
 10
143.271153895582
 20
-708.815327090832
 30
0.0
 11
167.9907523392407
 21
-708.815327090832
 31
0.0
  0
LINE
  5
F4
330
1F
100
AcDbEntity
  8
0-0
  6
Continuous
 62
     3
370
     9
100
AcDbLine
 10
126.6468548179747
 20
-724.2944326437906
 30
0.0
 11
117.9910150967665
 21
-845.4818040536348
 31
0.0
  0
LINE
  5
F5
330
1F
100
AcDbEntity
  8
0-0
  6
Continuous
 62
     3
370
     9
100
AcDbLine
 10
130.0071241361911
 20
-691.1396432457149
 30
0.0
 11
184.572441101105
 21
-687.3238729553352
 31
0.0
  0
LINE
  5
F6
330
1F
100
AcDbEntity
  8
0-0
  6
Continuous
 62
     3
370
     9
100
AcDbLine
 10
221.3243338979199
 20
-680.2495696044815
 30
0.0
 11
221.3243338979199
 21
-688.8152340063276
 31
0.0
  0
LINE
  5
F7
330
1F
100
AcDbEntity
  8
0-0
  6
Continuous
 62
     3
370
     9
100
AcDbLine
 10
219.6575768960797
 20
-681.9163266063214
 30
0.0
 11
219.6575768960797
 21
-692.1484176974826
 31
0.0
  0
LINE
  5
F8
330
1F
100
AcDbEntity
  8
0-0
  6
Continuous
 62
     3
370
     9
100
AcDbLine
 10
202.990997815255
 20
-681.9163266063214
 30
0.0
 11
202.990997815255
 21
-692.1484176974826
 31
0.0
  0
LINE
  5
F9
330
1F
100
AcDbEntity
  8
0-0
  6
Continuous
 62
     3
370
     9
100
AcDbLine
 10
201.3239105008901
 20
-680.2498999170066
 30
0.0
 11
201.3239105008901
 21
-688.8152340063276
 31
0.0
  0
LINE
  5
FA
330
1F
100
AcDbEntity
  8
0-A
  6
Continuous
 62
     4
370
     9
100
AcDbLine
 10
209.6570348850397
 20
-638.5831219024197
 30
0.0
 11
212.9905488887198
 21
-638.5831219024197
 31
0.0
  0
LINE
  5
FB
330
1F
100
AcDbEntity
  8
0-A
  6
Continuous
 62
     4
370
     9
100
AcDbLine
 10
209.6570348850397
 20
-628.9763124213428
 30
0.0
 11
209.6570348850397
 21
-638.5831219024197
 31
0.0
  0
LINE
  5
FC
330
1F
100
AcDbEntity
  8
0-A
  6
Continuous
 62
     4
370
     9
100
AcDbLine
 10
202.990997815255
 20
-681.9163266063214
 30
0.0
 11
219.6572465835546
 21
-681.9163266063214
 31
0.0
  0
LINE
  5
FD
330
1F
100
AcDbEntity
  8
0-A
  6
Continuous
 62
     4
370
     9
100
AcDbLine
 10
201.3239105008901
 20
-680.2498999170066
 30
0.0
 11
221.3240035853945
 21
-680.2498999170066
 31
0.0
  0
LINE
  5
FE
330
1F
100
AcDbEntity
  8
0-A
  6
Continuous
 62
     4
370
     9
100
AcDbLine
 10
201.3239105008901
 20
-680.2498999170066
 30
0.0
 11
202.990997815255
 21
-681.9163266063214
 31
0.0
  0
LINE
  5
FF
330
1F
100
AcDbEntity
  8
0-A
  6
Continuous
 62
     4
370
     9
100
AcDbLine
 10
221.3240035853945
 20
-680.2498999170066
 30
0.0
 11
219.6572465835546
 21
-681.9163266063214
 31
0.0
  0
LINE
  5
100
330
1F
100
AcDbEntity
  8
0-A
  6
Continuous
 62
     4
370
     9
100
AcDbLine
 10
219.6572465835546
 20
-641.9163055935749
 30
0.0
 11
219.6572465835546
 21
-681.9163266063214
 31
0.0
  0
LINE
  5
101
330
1F
100
AcDbEntity
  8
0-A
  6
Continuous
 62
     4
370
     9
100
AcDbLine
 10
202.990997815255
 20
-641.9163055935749
 30
0.0
 11
202.990997815255
 21
-681.9163266063214
 31
0.0
  0
LINE
  5
102
330
1F
100
AcDbEntity
  8
0-A
  6
Continuous
 62
     4
370
     9
100
AcDbLine
 10
201.3239105008901
 20
-641.9163055935749
 30
0.0
 11
201.3239105008901
 21
-680.2498999170066
 31
0.0
  0
LINE
  5
103
330
1F
100
AcDbEntity
  8
0-A
  6
Continuous
 62
     4
370
     9
100
AcDbLine
 10
212.9905488887198
 20
-628.9764775776055
 30
0.0
 11
212.9905488887198
 21
-638.5831219024197
 31
0.0
  0
LINE
  5
104
330
1F
100
AcDbEntity
  8
0-A
  6
Continuous
 62
     4
370
     9
100
AcDbLine
 10
193.8244949301854
 20
-641.9163055935749
 30
0.0
 11
228.8240797811496
 21
-641.9163055935749
 31
0.0
  0
LINE
  5
105
330
1F
100
AcDbEntity
  8
0-A
  6
JWW_CENTER1
 62
     4
370
     9
100
AcDbLine
 10
211.32445251193
 20
-624.8753172655076
 30
0.0
 11
211.32445251193
 21
-698.1016403380221
 31
0.0
  0
LINE
  5
106
330
1F
100
AcDbEntity
  8
0-3
  6
Continuous
 62
     4
370
     9
100
AcDbLine
 10
-190.3420191485907
 20
-705.4818130871523
 30
0.0
 11
-190.3420191485907
 21
-888.8146784450117
 31
0.0
  0
LINE
  5
107
330
1F
100
AcDbEntity
  8
0-3
  6
Continuous
 62
     4
370
     9
100
AcDbLine
 10
-178.6753807607609
 20
-705.4818130871523
 30
0.0
 11
-178.6753807607609
 21
-888.8146784450117
 31
0.0
  0
LINE
  5
108
330
1F
100
AcDbEntity
  8
0-3
  6
Continuous
 62
     4
370
     9
100
AcDbLine
 10
177.9906337252305
 20
-705.4818130871523
 30
0.0
 11
177.9906337252305
 21
-888.8146784450117
 31
0.0
  0
LINE
  5
109
330
1F
100
AcDbEntity
  8
0-A
  6
Continuous
 62
     4
370
     9
100
AcDbLine
 10
221.3240035853945
 20
-641.9163055935749
 30
0.0
 11
221.3240035853945
 21
-680.2498999170066
 31
0.0
  0
LINE
  5
10A
330
1F
100
AcDbEntity
  8
0-3
  6
Continuous
 62
     4
370
     9
100
AcDbLine
 10
189.6579327381104
 20
-705.4814827746269
 30
0.0
 11
189.6579327381104
 21
-888.8146784450117
 31
0.0
  0
LINE
  5
10B
330
1F
100
AcDbEntity
  8
0-0
  6
Continuous
 62
     3
370
     9
100
AcDbLine
 10
114.544864522015
 20
-706.5781203580812
 30
0.0
 11
104.6239278295328
 21
-845.4818040536348
 31
0.0
  0
LINE
  5
10C
330
1F
100
AcDbEntity
  8
0-0
  6
Continuous
 62
     3
370
     9
100
AcDbLine
 10
219.6575768960797
 20
-665.4819572306681
 30
0.0
 11
226.5796061728452
 21
-665.4819572306681
 31
0.0
  0
LINE
  5
10D
330
1F
100
AcDbEntity
  8
0-0
  6
JWW_DASHED1
 62
     3
370
     9
100
AcDbLine
 10
-196.4564343013971
 20
-699.9066331316319
 30
0.0
 11
-222.0923196897846
 21
-698.1141922139772
 31
0.0
  0
LINE
  5
10E
330
1F
100
AcDbEntity
  8
0-0
  6
JWW_DASHED1
 62
     3
370
     9
100
AcDbLine
 10
195.7713569533413
 20
-699.9066331316319
 30
0.0
 11
221.4069120292038
 21
-698.1141922139772
 31
0.0
  0
LINE
  5
10F
330
1F
100
AcDbEntity
  8
0-3
  6
Continuous
 62
     4
370
     9
100
AcDbLine
 10
-190.3420191485907
 20
-888.8146784450117
 30
0.0
 11
189.6579327381104
 21
-888.8146784450117
 31
0.0
  0
LINE
  5
110
330
1F
100
AcDbEntity
  8
0-9
  6
Continuous
 62
     3
370
     9
100
AcDbLine
 10
174.6574500340755
 20
-888.8148436012741
 30
0.0
 11
174.6574500340755
 21
-863.8148098237747
 31
0.0
  0
LINE
  5
111
330
1F
100
AcDbEntity
  8
0-9
  6
Continuous
 62
     3
370
     9
100
AcDbLine
 10
174.6574500340755
 20
-888.8148436012741
 30
0.0
 11
172.6574076943723
 21
-888.8148436012741
 31
0.0
  0
LINE
  5
112
330
1F
100
AcDbEntity
  8
0-9
  6
Continuous
 62
     3
370
     9
100
AcDbLine
 10
172.6574076943723
 20
-888.8148436012741
 30
0.0
 11
172.6574076943723
 21
-865.8148521634774
 31
0.0
  0
LINE
  5
113
330
1F
100
AcDbEntity
  8
0-9
  6
Continuous
 62
     3
370
     9
100
AcDbLine
 10
-173.3421547299031
 20
-888.8148436012741
 30
0.0
 11
-175.3425273821312
 21
-888.8148436012741
 31
0.0
  0
LINE
  5
114
330
1F
100
AcDbEntity
  8
0-9
  6
Continuous
 62
     3
370
     9
100
AcDbLine
 10
-175.3425273821312
 20
-888.8148436012741
 30
0.0
 11
-175.3425273821312
 21
-863.8148098237747
 31
0.0
  0
LINE
  5
115
330
1F
100
AcDbEntity
  8
0-9
  6
Continuous
 62
     3
370
     9
100
AcDbLine
 10
-173.3421547299031
 20
-888.8148436012741
 30
0.0
 11
-173.3421547299031
 21
-865.8148521634774
 31
0.0
  0
LINE
  5
116
330
1F
100
AcDbEntity
  8
0-9
  6
Continuous
 62
     3
370
     9
100
AcDbLine
 10
98.50290642622366
 20
-866.8148733333293
 30
0.0
 11
100.2350653080407
 21
-863.8148098237747
 31
0.0
  0
LINE
  5
117
330
1F
100
AcDbEntity
  8
0-9
  6
Continuous
 62
     3
370
     9
100
AcDbLine
 10
99.65734870157654
 20
-868.8147505167697
 30
0.0
 11
101.3895075833936
 21
-865.8148521634774
 31
0.0
  0
LINE
  5
118
330
1F
100
AcDbEntity
  8
0-9
  6
Continuous
 62
     3
370
     9
100
AcDbLine
 10
-100.342591205895
 20
-868.8147505167697
 30
0.0
 11
-102.0747500877121
 21
-865.8148521634774
 31
0.0
  0
LINE
  5
119
330
1F
100
AcDbEntity
  8
0-9
  6
Continuous
 62
     3
370
     9
100
AcDbLine
 10
-99.18781861801673
 20
-866.8148733333293
 30
0.0
 11
-100.9199774998342
 21
-863.8148098237747
 31
0.0
  0
LINE
  5
11A
330
1F
100
AcDbEntity
  8
0-9
  6
Continuous
 62
     2
370
     9
100
AcDbLine
 10
19.65730667608305
 20
-888.8148436012741
 30
0.0
 11
-20.34221886787613
 21
-888.8146784450117
 31
0.0
  0
LINE
  5
11B
330
1F
100
AcDbEntity
  8
0-9
  6
Continuous
 62
     2
370
     9
100
AcDbLine
 10
-20.34221886787613
 20
-888.8146784450117
 30
0.0
 11
-20.34254918040117
 21
-873.5088218114873
 31
0.0
  0
LINE
  5
11C
330
1F
100
AcDbEntity
  8
0-9
  6
Continuous
 62
     2
370
     9
100
AcDbLine
 10
-16.84156672647682
 20
-876.3675115602836
 30
0.0
 11
-22.00930618224142
 21
-872.1482645204494
 31
0.0
  0
LINE
  5
11D
330
1F
100
AcDbEntity
  8
0-9
  6
Continuous
 62
     2
370
     9
100
AcDbLine
 10
-16.84156672647682
 20
-876.3675115602836
 30
0.0
 11
-12.36120763552206
 21
-876.3675115602836
 31
0.0
  0
LINE
  5
11E
330
1F
100
AcDbEntity
  8
0-9
  6
Continuous
 62
     2
370
     9
100
AcDbLine
 10
-12.36120763552206
 20
-876.3675115602836
 30
0.0
 11
-12.36120763552206
 21
-868.8147505167697
 31
0.0
  0
LINE
  5
11F
330
1F
100
AcDbEntity
  8
0-9
  6
Continuous
 62
     2
370
     9
100
AcDbLine
 10
-22.00930618224142
 20
-872.1482645204494
 30
0.0
 11
-22.00930618224142
 21
-868.8147505167697
 31
0.0
  0
LINE
  5
120
330
1F
100
AcDbEntity
  8
0-9
  6
Continuous
 62
     2
370
     9
100
AcDbLine
 10
19.65730667608305
 20
-888.8148436012741
 30
0.0
 11
19.65730667608305
 21
-873.5088218114873
 31
0.0
  0
LINE
  5
121
330
1F
100
AcDbEntity
  8
0-9
  6
Continuous
 62
     2
370
     9
100
AcDbLine
 10
16.15665453468373
 20
-876.3675115602836
 30
0.0
 11
21.32406367792291
 21
-872.1482645204494
 31
0.0
  0
LINE
  5
122
330
1F
100
AcDbEntity
  8
0-9
  6
Continuous
 62
     2
370
     9
100
AcDbLine
 10
16.15665453468373
 20
-876.3675115602836
 30
0.0
 11
11.67596513120393
 21
-876.3675115602836
 31
0.0
  0
LINE
  5
123
330
1F
100
AcDbEntity
  8
0-9
  6
Continuous
 62
     2
370
     9
100
AcDbLine
 10
11.67596513120393
 20
-876.3675115602836
 30
0.0
 11
11.67596513120393
 21
-868.8147505167697
 31
0.0
  0
LINE
  5
124
330
1F
100
AcDbEntity
  8
0-9
  6
Continuous
 62
     2
370
     9
100
AcDbLine
 10
21.32406367792291
 20
-872.1482645204494
 30
0.0
 11
21.32406367792291
 21
-868.8147505167697
 31
0.0
  0
LINE
  5
125
330
1F
100
AcDbEntity
  8
0-9
  6
Continuous
 62
     3
370
     9
100
AcDbLine
 10
-15.34260848740623
 20
-868.8147505167697
 30
0.0
 11
-15.34260848740623
 21
-866.8148733333293
 31
0.0
  0
LINE
  5
126
330
1F
100
AcDbEntity
  8
0-9
  6
Continuous
 62
     3
370
     9
100
AcDbLine
 10
14.6573659830881
 20
-868.8147505167697
 30
0.0
 11
14.6573659830881
 21
-866.8148733333293
 31
0.0
  0
LINE
  5
127
330
1F
100
AcDbEntity
  8
0-9
  6
Continuous
 62
     3
370
     9
100
AcDbLine
 10
-13.67552117304132
 20
-866.8148733333293
 30
0.0
 11
-99.18781861801673
 21
-866.8148733333293
 31
0.0
  0
LINE
  5
128
330
1F
100
AcDbEntity
  8
0-9
  6
Continuous
 62
     3
370
     9
100
AcDbLine
 10
98.50290642622366
 20
-866.8148733333293
 30
0.0
 11
12.99093929377327
 21
-866.8148733333293
 31
0.0
  0
LINE
  5
129
330
1F
100
AcDbEntity
  8
0-9
  6
Continuous
 62
     3
370
     9
100
AcDbLine
 10
-137.0092633712242
 20
-865.8148521634774
 30
0.0
 11
-137.0092633712242
 21
-863.8148098237747
 31
0.0
  0
LINE
  5
12A
330
1F
100
AcDbEntity
  8
0-9
  6
Continuous
 62
     3
370
     9
100
AcDbLine
 10
-123.6758679815545
 20
-865.8148521634774
 30
0.0
 11
-123.6758679815545
 21
-863.8148098237747
 31
0.0
  0
LINE
  5
12B
330
1F
100
AcDbEntity
  8
0-9
  6
Continuous
 62
     3
370
     9
100
AcDbLine
 10
136.324020866906
 20
-865.8148521634774
 30
0.0
 11
136.324020866906
 21
-863.8148098237747
 31
0.0
  0
LINE
  5
12C
330
1F
100
AcDbEntity
  8
0-9
  6
Continuous
 62
     3
370
     9
100
AcDbLine
 10
122.9909557897615
 20
-865.8148521634774
 30
0.0
 11
122.9909557897615
 21
-863.8148098237747
 31
0.0
  0
LINE
  5
12D
330
1F
100
AcDbEntity
  8
0-9
  6
Continuous
 62
     3
370
     9
100
AcDbLine
 10
172.6574076943723
 20
-865.8148521634774
 30
0.0
 11
101.3895075833936
 21
-865.8148521634774
 31
0.0
  0
LINE
  5
12E
330
1F
100
AcDbEntity
  8
0-9
  6
Continuous
 62
     3
370
     9
100
AcDbLine
 10
174.6574500340755
 20
-863.8148098237747
 30
0.0
 11
12.99093929377327
 21
-863.8148098237747
 31
0.0
  0
LINE
  5
12F
330
1F
100
AcDbEntity
  8
0-9
  6
Continuous
 62
     3
370
     9
100
AcDbLine
 10
-102.0747500877121
 20
-865.8148521634774
 30
0.0
 11
-173.3421547299031
 21
-865.8148521634774
 31
0.0
  0
LINE
  5
130
330
1F
100
AcDbEntity
  8
0-9
  6
Continuous
 62
     3
370
     9
100
AcDbLine
 10
-13.67552117304132
 20
-863.8148098237747
 30
0.0
 11
-175.3425273821312
 21
-863.8148098237747
 31
0.0
  0
LINE
  5
131
330
1F
100
AcDbEntity
  8
0-4
  6
Continuous
 62
     6
370
     9
100
AcDbLine
 10
-267.0088774829294
 20
-485.4816149389136
 30
0.0
 11
-267.0088774829294
 21
-458.8148241595735
 31
0.0
  0
LINE
  5
132
330
1F
100
AcDbEntity
  8
0-4
  6
Continuous
 62
     6
370
     9
100
AcDbLine
 10
266.3241304473991
 20
-485.4816149389136
 30
0.0
 11
266.3241304473991
 21
-458.8148241595735
 31
0.0
  0
LINE
  5
133
330
1F
100
AcDbEntity
  8
0-4
  6
Continuous
 62
     6
370
     9
100
AcDbLine
 10
13.82431779469321
 20
-466.4817081805224
 30
0.0
 11
13.82431779469321
 21
-458.8148241595735
 31
0.0
  0
LINE
  5
134
330
1F
100
AcDbEntity
  8
0-4
  6
Continuous
 62
     6
370
     9
100
AcDbLine
 10
-14.5092299864863
 20
-466.4817081805224
 30
0.0
 11
-14.5092299864863
 21
-458.8148241595735
 31
0.0
  0
LINE
  5
135
330
1F
100
AcDbEntity
  8
0-B
  6
Continuous
 62
     2
370
     9
100
AcDbLine
 10
-36.96949075820952
 20
-422.1481519942444
 30
0.0
 11
-47.00933995974081
 21
-422.1481519942444
 31
0.0
  0
LINE
  5
136
330
1F
100
AcDbEntity
  8
0-B
  6
Continuous
 62
     2
370
     9
100
AcDbLine
 10
-25.68931802478989
 20
-428.3732218429716
 30
0.0
 11
-17.00903517672144
 21
-442.1482450787488
 31
0.0
  0
LINE
  5
137
330
1F
100
AcDbEntity
  8
0-B
  6
Continuous
 62
     2
370
     9
100
AcDbLine
 10
-17.00903517672144
 20
-448.4816574357208
 30
0.0
 11
-17.00903517672144
 21
-454.8150697926927
 31
0.0
  0
LINE
  5
138
330
1F
100
AcDbEntity
  8
0-B
  6
Continuous
 62
     2
370
     9
100
AcDbLine
 10
36.28490887894147
 20
-422.1481519942444
 30
0.0
 11
46.32409745542268
 21
-422.1481519942444
 31
0.0
  0
LINE
  5
139
330
1F
100
AcDbEntity
  8
0-B
  6
Continuous
 62
     2
370
     9
100
AcDbLine
 10
25.00440583299642
 20
-428.3732218429716
 30
0.0
 11
16.32445329745339
 21
-442.1482450787488
 31
0.0
  0
LINE
  5
13A
330
1F
100
AcDbEntity
  8
0-B
  6
Continuous
 62
     2
370
     9
100
AcDbLine
 10
16.32445329745339
 20
-448.4816574357208
 30
0.0
 11
16.32445329745339
 21
-454.8150697926927
 31
0.0
  0
LINE
  5
13B
330
1F
100
AcDbEntity
  8
0-8
  6
Continuous
 62
     6
370
     9
100
AcDbLine
 10
12.99093929377327
 20
-357.7363838112663
 30
0.0
 11
-13.67552117304132
 21
-357.7363838112663
 31
0.0
  0
LINE
  5
13C
330
1F
100
AcDbEntity
  8
0-8
  6
Continuous
 62
     6
370
     9
100
AcDbLine
 10
-13.67552117304132
 20
-357.7363838112663
 30
0.0
 11
-11.42080787645794
 21
-355.4813402021579
 31
0.0
  0
LINE
  5
13D
330
1F
100
AcDbEntity
  8
0-8
  6
Continuous
 62
     6
370
     9
100
AcDbLine
 10
-11.42080787645794
 20
-355.4813402021579
 30
0.0
 11
10.73589568466485
 21
-355.4813402021579
 31
0.0
  0
LINE
  5
13E
330
1F
100
AcDbEntity
  8
0-8
  6
Continuous
 62
     6
370
     9
100
AcDbLine
 10
10.73589568466485
 20
-355.4813402021579
 30
0.0
 11
12.99093929377327
 21
-357.7363838112663
 31
0.0
  0
LINE
  5
13F
330
1F
100
AcDbEntity
  8
0-B
  6
Continuous
 62
     2
370
     9
100
AcDbLine
 10
-17.00903517672144
 20
-448.4816574357208
 30
0.0
 11
-11.42080787645794
 21
-448.4816574357208
 31
0.0
  0
LINE
  5
140
330
1F
100
AcDbEntity
  8
0-B
  6
Continuous
 62
     2
370
     9
100
AcDbLine
 10
10.73589568466485
 20
-448.4816574357208
 30
0.0
 11
16.32445329745339
 21
-448.4816574357208
 31
0.0
  0
LINE
  5
141
330
1F
100
AcDbEntity
  8
0-B
  6
Continuous
 62
     2
370
     9
100
AcDbLine
 10
-17.00903517672144
 20
-442.1482450787488
 30
0.0
 11
-13.67552117304132
 21
-442.1482450787488
 31
0.0
  0
LINE
  5
142
330
1F
100
AcDbEntity
  8
0-B
  6
Continuous
 62
     2
370
     9
100
AcDbLine
 10
12.99093929377327
 20
-442.1482450787488
 30
0.0
 11
16.32445329745339
 21
-442.1482450787488
 31
0.0
  0
LINE
  5
143
330
1F
100
AcDbEntity
  8
0-B
  6
Continuous
 62
     2
370
     9
100
AcDbLine
 10
18.99073600035689
 20
-458.8148241595735
 30
0.0
 11
12.99093929377327
 21
-458.8148241595735
 31
0.0
  0
LINE
  5
144
330
1F
100
AcDbEntity
  8
0-B
  6
Continuous
 62
     2
370
     9
100
AcDbLine
 10
-13.67552117304132
 20
-458.8148241595735
 30
0.0
 11
-19.67564819215035
 21
-458.8148241595735
 31
0.0
  0
LINE
  5
145
330
1F
100
AcDbEntity
  8
0-0
  6
Continuous
 62
     3
370
     9
100
AcDbLine
 10
-118.6759272885596
 20
-845.4818040536348
 30
0.0
 11
-13.67552117304132
 21
-845.4818040536348
 31
0.0
  0
LINE
  5
146
330
1F
100
AcDbEntity
  8
0-0
  6
Continuous
 62
     3
370
     9
100
AcDbLine
 10
12.99093929377327
 20
-845.4818040536348
 30
0.0
 11
117.9910150967665
 21
-845.4818040536348
 31
0.0
  0
LINE
  5
147
330
1F
100
AcDbEntity
  8
0-4
  6
Continuous
 62
     6
370
     9
100
AcDbLine
 10
-267.0088774829294
 20
-485.4816149389136
 30
0.0
 11
-13.67552117304132
 21
-485.4816149389136
 31
0.0
  0
LINE
  5
148
330
1F
100
AcDbEntity
  8
0-4
  6
Continuous
 62
     6
370
     9
100
AcDbLine
 10
12.99093929377327
 20
-485.4816149389136
 30
0.0
 11
266.3241304473991
 21
-485.4816149389136
 31
0.0
  0
LINE
  5
149
330
1F
100
AcDbEntity
  8
0-4
  6
Continuous
 62
     6
370
     9
100
AcDbLine
 10
-267.0088774829294
 20
-466.4817081805224
 30
0.0
 11
-13.67552117304132
 21
-466.4817081805224
 31
0.0
  0
LINE
  5
14A
330
1F
100
AcDbEntity
  8
0-4
  6
Continuous
 62
     6
370
     9
100
AcDbLine
 10
12.99093929377327
 20
-466.4817081805224
 30
0.0
 11
266.3241304473991
 21
-466.4817081805224
 31
0.0
  0
LINE
  5
14B
330
1F
100
AcDbEntity
  8
0-4
  6
Continuous
 62
     6
370
     9
100
AcDbLine
 10
-267.0088774829294
 20
-458.8148241595735
 30
0.0
 11
-13.67552117304132
 21
-458.8148241595735
 31
0.0
  0
LINE
  5
14C
330
1F
100
AcDbEntity
  8
0-4
  6
Continuous
 62
     6
370
     9
100
AcDbLine
 10
12.99093929377327
 20
-458.8148241595735
 30
0.0
 11
266.3241304473991
 21
-458.8148241595735
 31
0.0
  0
LINE
  5
14D
330
1F
100
AcDbEntity
  8
0-0
  6
JWW_CENTER1
 62
     3
370
     9
100
AcDbLine
 10
-0.3424560958967349
 20
-325.4522982294515
 30
0.0
 11
-0.3424560958967349
 21
-918.0970489546464
 31
0.0
  0
LINE
  5
14E
330
1F
100
AcDbEntity
  8
0-C
  6
Continuous
 62
     2
370
     9
100
AcDbLine
 10
166.3239953374004
 20
-669.4813812850235
 30
0.0
 11
166.3239953374004
 21
-665.4814617618803
 31
0.0
  0
LINE
  5
14F
330
1F
100
AcDbEntity
  8
0-C
  6
Continuous
 62
     2
370
     9
100
AcDbLine
 10
-167.0087423729311
 20
-665.4814617618803
 30
0.0
 11
-167.0087423729311
 21
-669.4813812850235
 31
0.0
  0
LINE
  5
150
330
1F
100
AcDbEntity
  8
0-C
  6
Continuous
 62
     2
370
     9
100
AcDbLine
 10
16.32445329745339
 20
-665.4814617618803
 30
0.0
 11
166.3239953374004
 21
-665.4814617618803
 31
0.0
  0
LINE
  5
151
330
1F
100
AcDbEntity
  8
0-C
  6
Continuous
 62
     2
370
     9
100
AcDbLine
 10
14.65769629561314
 20
-663.8147047600404
 30
0.0
 11
14.65769629561314
 21
-655.481415219628
 31
0.0
  0
LINE
  5
152
330
1F
100
AcDbEntity
  8
0-C
  6
Continuous
 62
     2
370
     9
100
AcDbLine
 10
-15.34260848740623
 20
-663.8147047600404
 30
0.0
 11
-15.34260848740623
 21
-655.481415219628
 31
0.0
  0
LINE
  5
153
330
1F
100
AcDbEntity
  8
0-C
  6
Continuous
 62
     2
370
     9
100
AcDbLine
 10
-17.00936548924648
 20
-665.4814617618803
 30
0.0
 11
-167.0087423729311
 21
-665.4814617618803
 31
0.0
  0
LINE
  5
154
330
1F
100
AcDbEntity
  8
0-C
  6
Continuous
 62
     2
370
     9
100
AcDbLine
 10
-67.00910273172059
 20
-702.8148697591984
 30
0.0
 11
-67.00910273172059
 21
-669.4813812850235
 31
0.0
  0
LINE
  5
155
330
1F
100
AcDbEntity
  8
0-C
  6
Continuous
 62
     2
370
     9
100
AcDbLine
 10
-104.6947890370969
 20
-709.4815674540331
 30
0.0
 11
-73.67580042655541
 21
-709.4815674540331
 31
0.0
  0
LINE
  5
156
330
1F
100
AcDbEntity
  8
0-C
  6
Continuous
 62
     2
370
     9
100
AcDbLine
 10
-111.2706507875191
 20
-703.9108467176018
 30
0.0
 11
-117.0091702867197
 21
-669.4813812850235
 31
0.0
  0
LINE
  5
157
330
1F
100
AcDbEntity
  8
0-C
  6
Continuous
 62
     2
370
     9
100
AcDbLine
 10
66.32419053992712
 20
-702.8148697591984
 30
0.0
 11
66.32419053992712
 21
-669.4813812850235
 31
0.0
  0
LINE
  5
158
330
1F
100
AcDbEntity
  8
0-C
  6
Continuous
 62
     2
370
     9
100
AcDbLine
 10
104.0098768453034
 20
-709.4815674540331
 30
0.0
 11
72.99088823476231
 21
-709.4815674540331
 31
0.0
  0
LINE
  5
159
330
1F
100
AcDbEntity
  8
0-C
  6
Continuous
 62
     2
370
     9
100
AcDbLine
 10
110.585738595726
 20
-703.9108467176018
 30
0.0
 11
116.3242580949267
 21
-669.4813812850235
 31
0.0
  0
LINE
  5
15A
330
1F
100
AcDbEntity
  8
0-C
  6
Continuous
 62
     2
370
     9
100
AcDbLine
 10
12.99060898124823
 20
-655.481415219628
 30
0.0
 11
12.99060898124823
 21
-668.396965265
 31
0.0
  0
LINE
  5
15B
330
1F
100
AcDbEntity
  8
0-C
  6
Continuous
 62
     2
370
     9
100
AcDbLine
 10
-13.67585148556636
 20
-655.481415219628
 30
0.0
 11
-13.67585148556636
 21
-668.3971304212622
 31
0.0
  0
LINE
  5
15C
330
1F
100
AcDbEntity
  8
0-2
  6
Continuous
 62
     4
370
     9
100
AcDbLine
 10
-233.67571932128
 20
-618.8152385230864
 30
0.0
 11
-13.67552117304132
 21
-618.8152385230864
 31
0.0
  0
LINE
  5
15D
330
1F
100
AcDbEntity
  8
0-0
  6
Continuous
 62
     3
370
     9
100
AcDbLine
 10
131.1694939121473
 20
-691.0990148051229
 30
0.0
 11
112.7212090707349
 21
-691.0990148051229
 31
0.0
  0
LINE
  5
15E
330
1F
100
AcDbEntity
  8
0-0
  6
Continuous
 62
     3
370
     9
100
AcDbLine
 10
66.32419053992712
 20
-691.0990148051229
 30
0.0
 11
12.99093929377327
 21
-691.0990148051229
 31
0.0
  0
LINE
  5
15F
330
1F
100
AcDbEntity
  8
0-0
  6
Continuous
 62
     3
370
     9
100
AcDbLine
 10
-13.67552117304132
 20
-691.0990148051229
 30
0.0
 11
-67.00910273172059
 21
-691.0990148051229
 31
0.0
  0
LINE
  5
160
330
1F
100
AcDbEntity
  8
0-0
  6
Continuous
 62
     3
370
     9
100
AcDbLine
 10
-113.406121262528
 20
-691.0990148051229
 30
0.0
 11
-131.8544061039404
 21
-691.0990148051229
 31
0.0
  0
LINE
  5
161
330
1F
100
AcDbEntity
  8
0-C
  6
Continuous
 62
     2
370
     9
100
AcDbLine
 10
166.3239953374004
 20
-669.4813812850235
 30
0.0
 11
12.99093929377327
 21
-669.4813812850235
 31
0.0
  0
LINE
  5
162
330
1F
100
AcDbEntity
  8
0-C
  6
Continuous
 62
     2
370
     9
100
AcDbLine
 10
-13.67552117304132
 20
-669.4813812850235
 30
0.0
 11
-167.0087423729311
 21
-669.4813812850235
 31
0.0
  0
LINE
  5
163
330
1F
100
AcDbEntity
  8
0-C
  6
Continuous
 62
     2
370
     9
100
AcDbLine
 10
-11.42080787645794
 20
-655.481415219628
 30
0.0
 11
-15.34260848740623
 21
-655.481415219628
 31
0.0
  0
LINE
  5
164
330
1F
100
AcDbEntity
  8
0-C
  6
Continuous
 62
     2
370
     9
100
AcDbLine
 10
14.65769629561314
 20
-655.481415219628
 30
0.0
 11
10.73589568466485
 21
-655.481415219628
 31
0.0
  0
LINE
  5
165
330
1F
100
AcDbEntity
  8
0-1
  6
Continuous
 62
     4
370
     9
100
AcDbLine
 10
482.990649435695
 20
-485.4819452514382
 30
0.0
 11
12.99093929377327
 21
-485.4819452514382
 31
0.0
  0
LINE
  5
166
330
1F
100
AcDbEntity
  8
0-1
  6
Continuous
 62
     4
370
     9
100
AcDbLine
 10
-13.67552117304132
 20
-485.4819452514382
 30
0.0
 11
-483.6757267837511
 21
-485.4819452514382
 31
0.0
  0
LINE
  5
167
330
1F
100
AcDbEntity
  8
0-9
  6
Continuous
 62
     3
370
     9
100
AcDbLine
 10
99.65734870157654
 20
-868.8147505167697
 30
0.0
 11
-100.342591205895
 21
-868.8147505167697
 31
0.0
  0
LINE
  5
168
330
1F
100
AcDbEntity
  8
0-9
  6
Continuous
 62
     2
370
     9
100
AcDbLine
 10
-22.00930618224142
 20
-868.8147505167697
 30
0.0
 11
21.32406367792291
 21
-868.8147505167697
 31
0.0
  0
LINE
  5
169
330
1F
100
AcDbEntity
  8
0-8
  6
Continuous
 62
     6
370
     9
100
AcDbLine
 10
-11.42080787645794
 20
-355.4813402021579
 30
0.0
 11
-11.42080787645794
 21
-868.8147505167697
 31
0.0
  0
LINE
  5
16A
330
1F
100
AcDbEntity
  8
0-8
  6
Continuous
 62
     6
370
     9
100
AcDbLine
 10
-13.67552117304132
 20
-357.7363838112663
 30
0.0
 11
-13.67552117304132
 21
-868.8147505167697
 31
0.0
  0
LINE
  5
16B
330
1F
100
AcDbEntity
  8
0-8
  6
Continuous
 62
     6
370
     9
100
AcDbLine
 10
10.73589568466485
 20
-355.4813402021579
 30
0.0
 11
10.73589568466485
 21
-868.8147505167697
 31
0.0
  0
LINE
  5
16C
330
1F
100
AcDbEntity
  8
0-0
  6
Continuous
 62
     3
370
     9
100
AcDbLine
 10
-234.307937494392
 20
-644.1457499819852
 30
0.0
 11
-302.0087926464191
 21
-622.1485873705037
 31
0.0
  0
LINE
  5
16D
330
1F
100
AcDbEntity
  8
0-0
  6
Continuous
 62
     3
370
     9
100
AcDbLine
 10
-305.7074671466375
 20
-625.06838493645
 30
0.0
 11
-308.6758206537789
 21
-648.815212993581
 31
0.0
  0
LINE
  5
16E
330
1F
100
AcDbEntity
  8
0-0
  6
Continuous
 62
     3
370
     9
100
AcDbLine
 10
-302.3998826761809
 20
-622.1485873705037
 30
0.0
 11
-13.67552117304132
 21
-622.1485873705037
 31
0.0
  0
LINE
  5
16F
330
1F
100
AcDbEntity
  8
0-0
  6
Continuous
 62
     3
370
     9
100
AcDbLine
 10
305.0222246423194
 20
-625.06838493645
 30
0.0
 11
307.9904129931981
 21
-648.815212993581
 31
0.0
  0
LINE
  5
170
330
1F
100
AcDbEntity
  8
0-0
  6
Continuous
 62
     3
370
     9
100
AcDbLine
 10
301.7144750156001
 20
-622.1485873705037
 30
0.0
 11
12.99093929377327
 21
-622.1485873705037
 31
0.0
  0
LINE
  5
171
330
1F
100
AcDbEntity
  8
0-0
  6
Continuous
 62
     3
370
     9
100
AcDbLine
 10
301.3240456108883
 20
-622.1485873705037
 30
0.0
 11
260.3639712438314
 21
-635.4573744770507
 31
0.0
  0
LINE
  5
172
330
1F
100
AcDbEntity
  8
0-8
  6
Continuous
 62
     6
370
     9
100
AcDbLine
 10
12.99093929377327
 20
-357.7363838112663
 30
0.0
 11
12.99093929377327
 21
-868.8147505167697
 31
0.0
  0
LINE
  5
173
330
1F
100
AcDbEntity
  8
0-3
  6
Continuous
 62
     6
370
     9
100
AcDbLine
 10
-309.5091991546989
 20
-645.4821944586882
 30
0.0
 11
-306.1756851510187
 21
-622.1485873705037
 31
0.0
  0
LINE
  5
174
330
1F
100
AcDbEntity
  8
0-3
  6
Continuous
 62
     6
370
     9
100
AcDbLine
 10
-327.8425352373638
 20
-645.4821944586882
 30
0.0
 11
-309.5091991546989
 21
-645.4821944586882
 31
0.0
  0
LINE
  5
175
330
1F
100
AcDbEntity
  8
0-3
  6
Continuous
 62
     6
370
     9
100
AcDbLine
 10
327.1577882018331
 20
-645.4821944586882
 30
0.0
 11
308.8244521191685
 21
-645.4821944586882
 31
0.0
  0
LINE
  5
176
330
1F
100
AcDbEntity
  8
0-3
  6
Continuous
 62
     6
370
     9
100
AcDbLine
 10
308.8244521191685
 20
-645.4821944586882
 30
0.0
 11
305.4909381154884
 21
-622.1485873705037
 31
0.0
  0
LINE
  5
177
330
1F
100
AcDbEntity
  8
0-3
  6
Continuous
 62
     6
370
     9
100
AcDbLine
 10
-336.1753293089884
 20
-618.8152385230864
 30
0.0
 11
-327.8425352373638
 21
-645.4821944586882
 31
0.0
  0
LINE
  5
178
330
1F
100
AcDbEntity
  8
0-3
  6
Continuous
 62
     6
370
     9
100
AcDbLine
 10
335.4909125859828
 20
-618.8152385230864
 30
0.0
 11
327.1577882018331
 21
-645.4821944586882
 31
0.0
  0
LINE
  5
179
330
1F
100
AcDbEntity
  8
0-3
  6
Continuous
 62
     6
370
     9
100
AcDbLine
 10
-14.00880651090421
 20
-618.8152385230864
 30
0.0
 11
-14.00880651090421
 21
-622.1485873705037
 31
0.0
  0
LINE
  5
17A
330
1F
100
AcDbEntity
  8
0-3
  6
Continuous
 62
     6
370
     9
100
AcDbLine
 10
13.32422463163616
 20
-618.8152385230864
 30
0.0
 11
13.32422463163616
 21
-622.1485873705037
 31
0.0
  0
LINE
  5
17B
330
1F
100
AcDbEntity
  8
0-3
  6
Continuous
 62
     6
370
     9
100
AcDbLine
 10
-13.67552117304132
 20
-618.8152385230864
 30
0.0
 11
-336.1753293089884
 21
-618.8152385230864
 31
0.0
  0
LINE
  5
17C
330
1F
100
AcDbEntity
  8
0-3
  6
Continuous
 62
     6
370
     9
100
AcDbLine
 10
-13.67552117304132
 20
-622.1485873705037
 30
0.0
 11
-306.1756851510187
 21
-622.1485873705037
 31
0.0
  0
LINE
  5
17D
330
1F
100
AcDbEntity
  8
0-3
  6
Continuous
 62
     6
370
     9
100
AcDbLine
 10
335.4909125859828
 20
-618.8152385230864
 30
0.0
 11
12.99093929377327
 21
-618.8152385230864
 31
0.0
  0
LINE
  5
17E
330
1F
100
AcDbEntity
  8
0-3
  6
Continuous
 62
     6
370
     9
100
AcDbLine
 10
305.4909381154884
 20
-622.1485873705037
 30
0.0
 11
12.99093929377327
 21
-622.1485873705037
 31
0.0
  0
LINE
  5
17F
330
1F
100
AcDbEntity
  8
0-3
  6
Continuous
 62
     6
370
     9
100
AcDbLine
 10
319.5681973117659
 20
-645.4821944586882
 30
0.0
 11
330.6075722143612
 21
-634.4428195560934
 31
0.0
  0
LINE
  5
180
330
1F
100
AcDbEntity
  8
0-3
  6
Continuous
 62
     6
370
     9
100
AcDbLine
 10
310.1400869067879
 20
-645.4821944586882
 30
0.0
 11
334.8930469154853
 21
-620.7293996062537
 31
0.0
  0
LINE
  5
181
330
1F
100
AcDbEntity
  8
0-3
  6
Continuous
 62
     6
370
     9
100
AcDbLine
 10
307.8100623544735
 20
-638.3837782934997
 30
0.0
 11
327.3790975936746
 21
-618.8152385230864
 31
0.0
  0
LINE
  5
182
330
1F
100
AcDbEntity
  8
0-3
  6
Continuous
 62
     6
370
     9
100
AcDbLine
 10
306.6318375773108
 20
-630.1342229782096
 30
0.0
 11
317.9509871886967
 21
-618.8152385230864
 31
0.0
  0
LINE
  5
183
330
1F
100
AcDbEntity
  8
0-3
  6
Continuous
 62
     6
370
     9
100
AcDbLine
 10
305.1893627800386
 20
-622.1485873705037
 30
0.0
 11
308.5228767837183
 21
-618.8152385230864
 31
0.0
  0
LINE
  5
184
330
1F
100
AcDbEntity
  8
0-3
  6
Continuous
 62
     6
370
     9
100
AcDbLine
 10
295.7612523750603
 20
-622.1485873705037
 30
0.0
 11
299.0944360662153
 21
-618.8152385230864
 31
0.0
  0
LINE
  5
185
330
1F
100
AcDbEntity
  8
0-3
  6
Continuous
 62
     6
370
     9
100
AcDbLine
 10
286.3331419700823
 20
-622.1485873705037
 30
0.0
 11
289.6666559737624
 21
-618.8152385230864
 31
0.0
  0
LINE
  5
186
330
1F
100
AcDbEntity
  8
0-3
  6
Continuous
 62
     6
370
     9
100
AcDbLine
 10
276.9047012525793
 20
-622.1485873705037
 30
0.0
 11
280.238215256259
 21
-618.8152385230864
 31
0.0
  0
LINE
  5
187
330
1F
100
AcDbEntity
  8
0-3
  6
Continuous
 62
     6
370
     9
100
AcDbLine
 10
267.4769211601264
 20
-622.1485873705037
 30
0.0
 11
270.8104351638061
 21
-618.8152385230864
 31
0.0
  0
LINE
  5
188
330
1F
100
AcDbEntity
  8
0-3
  6
Continuous
 62
     6
370
     9
100
AcDbLine
 10
258.048480442623
 20
-622.1485873705037
 30
0.0
 11
261.3823247588281
 21
-618.8152385230864
 31
0.0
  0
LINE
  5
189
330
1F
100
AcDbEntity
  8
0-3
  6
Continuous
 62
     6
370
     9
100
AcDbLine
 10
248.6207003501701
 20
-622.1485873705037
 30
0.0
 11
251.9542143538501
 21
-618.8152385230864
 31
0.0
  0
LINE
  5
18A
330
1F
100
AcDbEntity
  8
0-3
  6
Continuous
 62
     6
370
     9
100
AcDbLine
 10
239.1922596326667
 20
-622.1485873705037
 30
0.0
 11
242.5257736363468
 21
-618.8152385230864
 31
0.0
  0
LINE
  5
18B
330
1F
100
AcDbEntity
  8
0-3
  6
Continuous
 62
     6
370
     9
100
AcDbLine
 10
229.7644795402138
 20
-622.1485873705037
 30
0.0
 11
233.0979935438938
 21
-618.8152385230864
 31
0.0
  0
LINE
  5
18C
330
1F
100
AcDbEntity
  8
0-3
  6
Continuous
 62
     6
370
     9
100
AcDbLine
 10
220.3363691352358
 20
-622.1485873705037
 30
0.0
 11
223.6698831389159
 21
-618.8152385230864
 31
0.0
  0
LINE
  5
18D
330
1F
100
AcDbEntity
  8
0-3
  6
Continuous
 62
     6
370
     9
100
AcDbLine
 10
210.9082587302578
 20
-622.1485873705037
 30
0.0
 11
214.2417727339375
 21
-618.8152385230864
 31
0.0
  0
LINE
  5
18E
330
1F
100
AcDbEntity
  8
0-3
  6
Continuous
 62
     6
370
     9
100
AcDbLine
 10
201.4801483252795
 20
-622.1485873705037
 30
0.0
 11
204.8136623289596
 21
-618.8152385230864
 31
0.0
  0
LINE
  5
18F
330
1F
100
AcDbEntity
  8
0-3
  6
Continuous
 62
     6
370
     9
100
AcDbLine
 10
192.0520379203015
 20
-622.1485873705037
 30
0.0
 11
195.3855519239816
 21
-618.8152385230864
 31
0.0
  0
LINE
  5
190
330
1F
100
AcDbEntity
  8
0-3
  6
Continuous
 62
     6
370
     9
100
AcDbLine
 10
182.6239275153235
 20
-622.1485873705037
 30
0.0
 11
185.9574415190036
 21
-618.8152385230864
 31
0.0
  0
LINE
  5
191
330
1F
100
AcDbEntity
  8
0-3
  6
Continuous
 62
     6
370
     9
100
AcDbLine
 10
173.1958171103452
 20
-622.1485873705037
 30
0.0
 11
176.5293311140253
 21
-618.8152385230864
 31
0.0
  0
LINE
  5
192
330
1F
100
AcDbEntity
  8
0-3
  6
Continuous
 62
     6
370
     9
100
AcDbLine
 10
163.7677067053672
 20
-622.1485873705037
 30
0.0
 11
167.1012207090473
 21
-618.8152385230864
 31
0.0
  0
LINE
  5
193
330
1F
100
AcDbEntity
  8
0-3
  6
Continuous
 62
     6
370
     9
100
AcDbLine
 10
154.3395963003892
 20
-622.1485873705037
 30
0.0
 11
157.6731103040694
 21
-618.8152385230864
 31
0.0
  0
LINE
  5
194
330
1F
100
AcDbEntity
  8
0-3
  6
Continuous
 62
     6
370
     9
100
AcDbLine
 10
144.9114858954113
 20
-622.1485873705037
 30
0.0
 11
148.244999899091
 21
-618.8152385230864
 31
0.0
  0
LINE
  5
195
330
1F
100
AcDbEntity
  8
0-3
  6
Continuous
 62
     6
370
     9
100
AcDbLine
 10
135.4833754904329
 20
-622.1485873705037
 30
0.0
 11
138.8168894941131
 21
-618.8152385230864
 31
0.0
  0
LINE
  5
196
330
1F
100
AcDbEntity
  8
0-3
  6
Continuous
 62
     6
370
     9
100
AcDbLine
 10
126.0552650854549
 20
-622.1485873705037
 30
0.0
 11
129.3887790891351
 21
-618.8152385230864
 31
0.0
  0
LINE
  5
197
330
1F
100
AcDbEntity
  8
0-3
  6
Continuous
 62
     6
370
     9
100
AcDbLine
 10
116.627154680477
 20
-622.1485873705037
 30
0.0
 11
119.9606686841567
 21
-618.8152385230864
 31
0.0
  0
LINE
  5
198
330
1F
100
AcDbEntity
  8
0-3
  6
Continuous
 62
     6
370
     9
100
AcDbLine
 10
107.1990442754986
 20
-622.1485873705037
 30
0.0
 11
110.5325582791788
 21
-618.8152385230864
 31
0.0
  0
LINE
  5
199
330
1F
100
AcDbEntity
  8
0-3
  6
Continuous
 62
     6
370
     9
100
AcDbLine
 10
97.7709338705207
 20
-622.1485873705037
 30
0.0
 11
101.1044478742008
 21
-618.8152385230864
 31
0.0
  0
LINE
  5
19A
330
1F
100
AcDbEntity
  8
0-3
  6
Continuous
 62
     6
370
     9
100
AcDbLine
 10
88.34315377806774
 20
-622.1485873705037
 30
0.0
 11
91.67633746922284
 21
-618.8152385230864
 31
0.0
  0
LINE
  5
19B
330
1F
100
AcDbEntity
  8
0-3
  6
Continuous
 62
     6
370
     9
100
AcDbLine
 10
78.91471306056437
 20
-622.1485873705037
 30
0.0
 11
82.24822706424447
 21
-618.8152385230864
 31
0.0
  0
LINE
  5
19C
330
1F
100
AcDbEntity
  8
0-3
  6
Continuous
 62
     6
370
     9
100
AcDbLine
 10
69.48660265558641
 20
-622.1485873705037
 30
0.0
 11
72.82011665926652
 21
-618.8152385230864
 31
0.0
  0
LINE
  5
19D
330
1F
100
AcDbEntity
  8
0-3
  6
Continuous
 62
     6
370
     9
100
AcDbLine
 10
60.05849225060843
 20
-622.1485873705037
 30
0.0
 11
63.39200625428855
 21
-618.8152385230864
 31
0.0
  0
LINE
  5
19E
330
1F
100
AcDbEntity
  8
0-3
  6
Continuous
 62
     6
370
     9
100
AcDbLine
 10
50.63038184563047
 20
-622.1485873705037
 30
0.0
 11
53.96389584931021
 21
-618.8152385230864
 31
0.0
  0
LINE
  5
19F
330
1F
100
AcDbEntity
  8
0-3
  6
Continuous
 62
     6
370
     9
100
AcDbLine
 10
41.20227144065213
 20
-622.1485873705037
 30
0.0
 11
44.53578544433224
 21
-618.8152385230864
 31
0.0
  0
LINE
  5
1A0
330
1F
100
AcDbEntity
  8
0-3
  6
Continuous
 62
     6
370
     9
100
AcDbLine
 10
31.7744913481992
 20
-622.1485873705037
 30
0.0
 11
35.10767503935428
 21
-618.8152385230864
 31
0.0
  0
LINE
  5
1A1
330
1F
100
AcDbEntity
  8
0-3
  6
Continuous
 62
     6
370
     9
100
AcDbLine
 10
22.34605063069619
 20
-622.1485873705037
 30
0.0
 11
25.67956463437593
 21
-618.8152385230864
 31
0.0
  0
LINE
  5
1A2
330
1F
100
AcDbEntity
  8
0-3
  6
Continuous
 62
     6
370
     9
100
AcDbLine
 10
-24.79450139419439
 20
-622.1485873705037
 30
0.0
 11
-21.46098739051428
 21
-618.8152385230864
 31
0.0
  0
LINE
  5
1A3
330
1F
100
AcDbEntity
  8
0-3
  6
Continuous
 62
     6
370
     9
100
AcDbLine
 10
-34.22261179917236
 20
-622.1485873705037
 30
0.0
 11
-30.88909779549224
 21
-618.8152385230864
 31
0.0
  0
LINE
  5
1A4
330
1F
100
AcDbEntity
  8
0-3
  6
Continuous
 62
     6
370
     9
100
AcDbLine
 10
-43.65039189162529
 20
-622.1485873705037
 30
0.0
 11
-40.31687788794517
 21
-618.8152385230864
 31
0.0
  0
LINE
  5
1A5
330
1F
100
AcDbEntity
  8
0-3
  6
Continuous
 62
     6
370
     9
100
AcDbLine
 10
-53.07883260912867
 20
-622.1485873705037
 30
0.0
 11
-49.74531860544856
 21
-618.8152385230864
 31
0.0
  0
LINE
  5
1A6
330
1F
100
AcDbEntity
  8
0-3
  6
Continuous
 62
     6
370
     9
100
AcDbLine
 10
-62.5066127015816
 20
-622.1485873705037
 30
0.0
 11
-59.17309869790148
 21
-618.8152385230864
 31
0.0
  0
LINE
  5
1A7
330
1F
100
AcDbEntity
  8
0-3
  6
Continuous
 62
     6
370
     9
100
AcDbLine
 10
-71.9350534190846
 20
-622.1485873705037
 30
0.0
 11
-68.60153941540486
 21
-618.8152385230864
 31
0.0
  0
LINE
  5
1A8
330
1F
100
AcDbEntity
  8
0-3
  6
Continuous
 62
     6
370
     9
100
AcDbLine
 10
-81.36283351153753
 20
-622.1485873705037
 30
0.0
 11
-78.02931950785779
 21
-618.8152385230864
 31
0.0
  0
LINE
  5
1A9
330
1F
100
AcDbEntity
  8
0-3
  6
Continuous
 62
     6
370
     9
100
AcDbLine
 10
-90.79127422904091
 20
-622.1485873705037
 30
0.0
 11
-87.4577602253608
 21
-618.8152385230864
 31
0.0
  0
LINE
  5
1AA
330
1F
100
AcDbEntity
  8
0-3
  6
Continuous
 62
     6
370
     9
100
AcDbLine
 10
-100.2193846340189
 20
-622.1485873705037
 30
0.0
 11
-96.88554031781372
 21
-618.8152385230864
 31
0.0
  0
LINE
  5
1AB
330
1F
100
AcDbEntity
  8
0-3
  6
Continuous
 62
     6
370
     9
100
AcDbLine
 10
-109.6471647264718
 20
-622.1485873705037
 30
0.0
 11
-106.3139810353171
 21
-618.8152385230864
 31
0.0
  0
LINE
  5
1AC
330
1F
100
AcDbEntity
  8
0-3
  6
Continuous
 62
     6
370
     9
100
AcDbLine
 10
-119.0752751314502
 20
-622.1485873705037
 30
0.0
 11
-115.74176112777
 21
-618.8152385230864
 31
0.0
  0
LINE
  5
1AD
330
1F
100
AcDbEntity
  8
0-3
  6
Continuous
 62
     6
370
     9
100
AcDbLine
 10
-128.5033855364281
 20
-622.1485873705037
 30
0.0
 11
-125.170201845273
 21
-618.8152385230864
 31
0.0
  0
LINE
  5
1AE
330
1F
100
AcDbEntity
  8
0-3
  6
Continuous
 62
     6
370
     9
100
AcDbLine
 10
-137.9314959414061
 20
-622.1485873705037
 30
0.0
 11
-134.597981937726
 21
-618.8152385230864
 31
0.0
  0
LINE
  5
1AF
330
1F
100
AcDbEntity
  8
0-3
  6
Continuous
 62
     6
370
     9
100
AcDbLine
 10
-147.3599366589094
 20
-622.1485873705037
 30
0.0
 11
-144.0264226552293
 21
-618.8152385230864
 31
0.0
  0
LINE
  5
1B0
330
1F
100
AcDbEntity
  8
0-3
  6
Continuous
 62
     6
370
     9
100
AcDbLine
 10
-156.7877167513624
 20
-622.1485873705037
 30
0.0
 11
-153.4542027476823
 21
-618.8152385230864
 31
0.0
  0
LINE
  5
1B1
330
1F
100
AcDbEntity
  8
0-3
  6
Continuous
 62
     6
370
     9
100
AcDbLine
 10
-166.2161574688654
 20
-622.1485873705037
 30
0.0
 11
-162.8823131526602
 21
-618.8152385230864
 31
0.0
  0
LINE
  5
1B2
330
1F
100
AcDbEntity
  8
0-3
  6
Continuous
 62
     6
370
     9
100
AcDbLine
 10
-175.643772405056
 20
-622.1485873705037
 30
0.0
 11
-172.3102584013759
 21
-618.8152385230864
 31
0.0
  0
LINE
  5
1B3
330
1F
100
AcDbEntity
  8
0-3
  6
Continuous
 62
     6
370
     9
100
AcDbLine
 10
-185.0718828100339
 20
-622.1485873705037
 30
0.0
 11
-181.7383688063538
 21
-618.8152385230864
 31
0.0
  0
LINE
  5
1B4
330
1F
100
AcDbEntity
  8
0-3
  6
Continuous
 62
     6
370
     9
100
AcDbLine
 10
-194.4999932150119
 20
-622.1485873705037
 30
0.0
 11
-191.1664792113322
 21
-618.8152385230864
 31
0.0
  0
LINE
  5
1B5
330
1F
100
AcDbEntity
  8
0-3
  6
Continuous
 62
     6
370
     9
100
AcDbLine
 10
-203.9281036199903
 20
-622.1485873705037
 30
0.0
 11
-200.5945896163101
 21
-618.8152385230864
 31
0.0
  0
LINE
  5
1B6
330
1F
100
AcDbEntity
  8
0-3
  6
Continuous
 62
     6
370
     9
100
AcDbLine
 10
-213.3562140249682
 20
-622.1485873705037
 30
0.0
 11
-210.0227000212881
 21
-618.8152385230864
 31
0.0
  0
LINE
  5
1B7
330
1F
100
AcDbEntity
  8
0-3
  6
Continuous
 62
     6
370
     9
100
AcDbLine
 10
-222.7843244299462
 20
-622.1485873705037
 30
0.0
 11
-219.4511407387915
 21
-618.8152385230864
 31
0.0
  0
LINE
  5
1B8
330
1F
100
AcDbEntity
  8
0-3
  6
Continuous
 62
     6
370
     9
100
AcDbLine
 10
-232.2124348349246
 20
-622.1485873705037
 30
0.0
 11
-228.8789208312444
 21
-618.8152385230864
 31
0.0
  0
LINE
  5
1B9
330
1F
100
AcDbEntity
  8
0-3
  6
Continuous
 62
     6
370
     9
100
AcDbLine
 10
-241.6405452399025
 20
-622.1485873705037
 30
0.0
 11
-238.3070312362224
 21
-618.8152385230864
 31
0.0
  0
LINE
  5
1BA
330
1F
100
AcDbEntity
  8
0-3
  6
Continuous
 62
     6
370
     9
100
AcDbLine
 10
-251.0686556448805
 20
-622.1485873705037
 30
0.0
 11
-247.7351416412004
 21
-618.8152385230864
 31
0.0
  0
LINE
  5
1BB
330
1F
100
AcDbEntity
  8
0-3
  6
Continuous
 62
     6
370
     9
100
AcDbLine
 10
-260.4967660498584
 20
-622.1485873705037
 30
0.0
 11
-257.1632520461787
 21
-618.8152385230864
 31
0.0
  0
LINE
  5
1BC
330
1F
100
AcDbEntity
  8
0-3
  6
Continuous
 62
     6
370
     9
100
AcDbLine
 10
-269.9248764548367
 20
-622.1485873705037
 30
0.0
 11
-266.5913624511567
 21
-618.8152385230864
 31
0.0
  0
LINE
  5
1BD
330
1F
100
AcDbEntity
  8
0-3
  6
Continuous
 62
     6
370
     9
100
AcDbLine
 10
-279.3529868598147
 20
-622.1485873705037
 30
0.0
 11
-276.0194728561346
 21
-618.8152385230864
 31
0.0
  0
LINE
  5
1BE
330
1F
100
AcDbEntity
  8
0-3
  6
Continuous
 62
     6
370
     9
100
AcDbLine
 10
-312.1145391967149
 20
-645.4821944586882
 30
0.0
 11
-309.0750033404067
 21
-642.4426586023801
 31
0.0
  0
LINE
  5
1BF
330
1F
100
AcDbEntity
  8
0-3
  6
Continuous
 62
     6
370
     9
100
AcDbLine
 10
-288.7810972647927
 20
-622.1485873705037
 30
0.0
 11
-285.447583261113
 21
-618.8152385230864
 31
0.0
  0
LINE
  5
1C0
330
1F
100
AcDbEntity
  8
0-3
  6
Continuous
 62
     6
370
     9
100
AcDbLine
 10
-321.5424844454305
 20
-645.4821944586882
 30
0.0
 11
-307.5035415020685
 21
-631.4430863590638
 31
0.0
  0
LINE
  5
1C1
330
1F
100
AcDbEntity
  8
0-3
  6
Continuous
 62
     6
370
     9
100
AcDbLine
 10
-298.209207669771
 20
-622.1485873705037
 30
0.0
 11
-294.8756936660909
 21
-618.8152385230864
 31
0.0
  0
LINE
  5
1C2
330
1F
100
AcDbEntity
  8
0-3
  6
Continuous
 62
     6
370
     9
100
AcDbLine
 10
-328.5873899815468
 20
-643.0988244335642
 30
0.0
 11
-304.3038040710689
 21
-618.8152385230864
 31
0.0
  0
LINE
  5
1C3
330
1F
100
AcDbEntity
  8
0-3
  6
Continuous
 62
     6
370
     9
100
AcDbLine
 10
-330.8320287461136
 20
-635.9153527931527
 30
0.0
 11
-313.7319144760472
 21
-618.8152385230864
 31
0.0
  0
LINE
  5
1C4
330
1F
100
AcDbEntity
  8
0-3
  6
Continuous
 62
     6
370
     9
100
AcDbLine
 10
-333.0766675106804
 20
-628.7318811527418
 30
0.0
 11
-323.1600248810252
 21
-618.8152385230864
 31
0.0
  0
LINE
  5
1C5
330
1F
100
AcDbEntity
  8
0-3
  6
Continuous
 62
     6
370
     9
100
AcDbLine
 10
-335.3213062752471
 20
-621.5484095123303
 30
0.0
 11
-332.5881352860032
 21
-618.8152385230864
 31
0.0
  0
LINE
  5
1C6
330
1F
100
AcDbEntity
  8
0-3
  6
Continuous
 62
     6
370
     9
100
AcDbLine
 10
-15.36639098921643
 20
-622.1485873705037
 30
0.0
 11
-14.00880651090421
 21
-620.7913332047166
 31
0.0
  0
LINE
  5
1C7
330
1F
100
AcDbEntity
  8
0-3
  6
Continuous
 62
     6
370
     9
100
AcDbLine
 10
13.32422463163616
 20
-621.7424681208481
 30
0.0
 11
16.25145422939796
 21
-618.8152385230864
 31
0.0
  0
LINE
  5
1C8
330
1F
100
AcDbEntity
  8
0-1
  6
Continuous
 62
     4
370
     9
100
AcDbLine
 10
-483.6757267837511
 20
-485.4819452514382
 30
0.0
 11
-483.6757267837511
 21
-618.8152385230864
 31
0.0
  0
LINE
  5
1C9
330
1F
100
AcDbEntity
  8
0-1
  6
Continuous
 62
     4
370
     9
100
AcDbLine
 10
-13.67552117304132
 20
-618.8152385230864
 30
0.0
 11
-483.6757267837511
 21
-618.8152385230864
 31
0.0
  0
LINE
  5
1CA
330
1F
100
AcDbEntity
  8
0-1
  6
Continuous
 62
     4
370
     9
100
AcDbLine
 10
449.6565003364705
 20
-618.8152385230864
 30
0.0
 11
12.99093929377327
 21
-618.8152385230864
 31
0.0
  0
LINE
  5
1CB
330
1F
100
AcDbEntity
  8
0-1
  6
Continuous
 62
     4
370
     9
100
AcDbLine
 10
482.990649435695
 20
-485.4819452514382
 30
0.0
 11
449.6565003364705
 21
-618.8152385230864
 31
0.0
  0
LINE
  5
1CC
330
1F
100
AcDbEntity
  8
0-1
  6
Continuous
 62
     4
370
     9
100
AcDbLine
 10
-17.00936548924648
 20
-485.4819452514382
 30
0.0
 11
-17.00936548924648
 21
-618.8152385230864
 31
0.0
  0
LINE
  5
1CD
330
1F
100
AcDbEntity
  8
0-1
  6
Continuous
 62
     4
370
     9
100
AcDbLine
 10
16.32412298492797
 20
-485.4819452514382
 30
0.0
 11
16.32412298492797
 21
-618.8152385230864
 31
0.0
  0
LINE
  5
1CE
330
1F
100
AcDbEntity
  8
0-F
  6
Continuous
 62
     7
370
     9
100
AcDbLine
 10
694.5564824108296
 20
-618.8152385230864
 30
0.0
 11
694.5564824108296
 21
-485.4819452514382
 31
0.0
  0
LINE
  5
1CF
330
1F
100
AcDbEntity
  8
0-F
  6
Continuous
 62
     7
370
     9
100
AcDbLine
 10
481.323231808805
 20
-618.8152385230864
 30
0.0
 11
698.556567090236
 21
-618.8152385230864
 31
0.0
  0
LINE
  5
1D0
330
1F
100
AcDbEntity
  8
0-F
  6
Continuous
 62
     7
370
     9
100
AcDbLine
 10
522.9908356047046
 20
-485.4819452514382
 30
0.0
 11
698.556567090236
 21
-485.4819452514382
 31
0.0
  0
LINE
  5
1D1
330
1F
100
AcDbEntity
  8
0-F
  6
Continuous
 62
     7
370
     9
100
AcDbLine
 10
694.5564824108296
 20
-618.8152385230864
 30
0.0
 11
689.3355626385186
 21
-579.157421286381
 31
0.0
  0
LINE
  5
1D2
330
1F
100
AcDbEntity
  8
0-F
  6
Continuous
 62
     7
370
     9
100
AcDbLine
 10
694.5564824108296
 20
-618.8152385230864
 30
0.0
 11
699.7777324956662
 21
-579.157421286381
 31
0.0
  0
LINE
  5
1D3
330
1F
100
AcDbEntity
  8
0-F
  6
Continuous
 62
     7
370
     9
100
AcDbLine
 10
694.5564824108296
 20
-485.4819452514382
 30
0.0
 11
689.3355626385186
 21
-525.1397624881439
 31
0.0
  0
LINE
  5
1D4
330
1F
100
AcDbEntity
  8
0-F
  6
Continuous
 62
     7
370
     9
100
AcDbLine
 10
694.5564824108296
 20
-485.4819452514382
 30
0.0
 11
699.7777324956662
 21
-525.1397624881439
 31
0.0
  0
ARC
  5
1D5
330
1F
100
AcDbEntity
  8
0-0
  6
Continuous
 62
     3
370
     9
100
AcDbCircle
 10
-257.9586446067078
 20
-625.9466859407885
 30
0.0
 40
10.0000000920535
100
AcDbArc
 50
252.0001525878906
 51
348.7693023681641
  0
ARC
  5
1D6
330
1F
100
AcDbEntity
  8
0-0
  6
JWW_DASHED1
 62
     3
370
     9
100
AcDbCircle
 10
-255.6557056814544
 20
-661.7438103836952
 30
0.0
 40
10.0000000920535
100
AcDbArc
 50
7.000427246093758
 51
72.00015258789064
  0
ARC
  5
1D7
330
1F
100
AcDbEntity
  8
0-0
  6
Continuous
 62
     3
370
     9
100
AcDbCircle
 10
-131.8544061039404
 20
-707.7655938859476
 30
0.0
 40
16.66666682008918
100
AcDbArc
 50
4.085220336914063
 51
86.00001525878906
  0
ARC
  5
1D8
330
1F
100
AcDbEntity
  8
0-0
  6
Continuous
 62
     3
370
     9
100
AcDbCircle
 10
-201.1082255928977
 20
-717.148121162457
 30
0.0
 40
5.000000046026752
100
AcDbArc
 50
270.0
 51
348.6897888183594
  0
ARC
  5
1D9
330
1F
100
AcDbEntity
  8
0-0
  6
Continuous
 62
     3
370
     9
100
AcDbCircle
 10
-258.1228099317009
 20
-657.4371956809624
 30
0.0
 40
6.666666728035669
100
AcDbArc
 50
6.814697265624997
 51
71.99948120117188
  0
ARC
  5
1DA
330
1F
100
AcDbEntity
  8
0-0
  6
Continuous
 62
     3
370
     9
100
AcDbCircle
 10
-143.9560660873754
 20
-725.4819061716568
 30
0.0
 40
16.66666682008918
100
AcDbArc
 50
4.085678100585942
 51
90.00000000000001
  0
ARC
  5
1DB
330
1F
100
AcDbEntity
  8
0-0
  6
Continuous
 62
     3
370
     9
100
AcDbCircle
 10
254.9706283333986
 20
-661.7438103836952
 30
0.0
 40
10.0000000920535
100
AcDbArc
 50
107.9998474121093
 51
172.9995727539062
  0
ARC
  5
1DC
330
1F
100
AcDbEntity
  8
0-0
  6
JWW_DASHED1
 62
     3
370
     9
100
AcDbCircle
 10
219.7791319053302
 20
-674.8375640363787
 30
0.0
 40
10.0000000920535
100
AcDbArc
 50
273.9998168945312
 51
353.0002746582031
  0
ARC
  5
1DD
330
1F
100
AcDbEntity
  8
0-0
  6
Continuous
 62
     3
370
     9
100
AcDbCircle
 10
131.1694939121473
 20
-707.7655938859476
 30
0.0
 40
16.66666682008918
100
AcDbArc
 50
93.99998474121094
 51
175.9147796630859
  0
ARC
  5
1DE
330
1F
100
AcDbEntity
  8
0-0
  6
Continuous
 62
     3
370
     9
100
AcDbCircle
 10
143.271153895582
 20
-725.4819061716568
 30
0.0
 40
16.66666682008918
100
AcDbArc
 50
90.0
 51
175.9143218994141
  0
ARC
  5
1DF
330
1F
100
AcDbEntity
  8
0-0
  6
Continuous
 62
     3
370
     9
100
AcDbCircle
 10
198.3471340243576
 20
-670.481897923663
 30
0.0
 40
5.000000046026752
100
AcDbArc
 50
90.0
 51
162.8500518798828
  0
ARC
  5
1E0
330
1F
100
AcDbEntity
  8
0-0
  6
Continuous
 62
     3
370
     9
100
AcDbCircle
 10
184.2233007620356
 20
-682.3361538257702
 30
0.0
 40
5.000000046026752
100
AcDbArc
 50
273.9998626708984
 51
342.8496398925781
  0
ARC
  5
1E1
330
1F
100
AcDbEntity
  8
0-0
  6
Continuous
 62
     3
370
     9
100
AcDbCircle
 10
226.5796061728452
 20
-660.4816862251477
 30
0.0
 40
5.000000046026752
100
AcDbArc
 50
270.0
 51
353.0003662109375
  0
ARC
  5
1E2
330
1F
100
AcDbEntity
  8
0-0
  6
Continuous
 62
     3
370
     9
100
AcDbCircle
 10
257.2735672586521
 20
-625.9466859407885
 30
0.0
 40
10.0000000920535
100
AcDbArc
 50
191.2306976318359
 51
287.9998474121094
  0
ARC
  5
1E3
330
1F
100
AcDbEntity
  8
0-0
  6
JWW_DASHED1
 62
     3
370
     9
100
AcDbCircle
 10
-220.4642092533856
 20
-674.8375640363787
 30
0.0
 40
10.0000000920535
100
AcDbArc
 50
186.9997253417969
 51
266.0001831054688
  0
ARC
  5
1E4
330
1F
100
AcDbEntity
  8
0-0
  6
Continuous
 62
     3
370
     9
100
AcDbCircle
 10
-199.0322113724134
 20
-670.481897923663
 30
0.0
 40
5.000000046026752
100
AcDbArc
 50
17.1499481201172
 51
90.00000000000001
  0
ARC
  5
1E5
330
1F
100
AcDbEntity
  8
0-0
  6
Continuous
 62
     3
370
     9
100
AcDbCircle
 10
-184.9083781100913
 20
-682.3361538257702
 30
0.0
 40
5.000000046026752
100
AcDbArc
 50
197.1503601074219
 51
266.0001373291016
  0
ARC
  5
1E6
330
1F
100
AcDbEntity
  8
0-0
  6
Continuous
 62
     3
370
     9
100
AcDbCircle
 10
-227.2650138334264
 20
-660.4816862251477
 30
0.0
 40
5.000000046026752
100
AcDbArc
 50
186.9996337890625
 51
269.9999999999999
  0
ARC
  5
1E7
330
1F
100
AcDbEntity
  8
0-0
  6
Continuous
 62
     3
370
     9
100
AcDbCircle
 10
218.8813424620086
 20
-682.1487014677551
 30
0.0
 40
23.33333096755824
100
AcDbArc
 50
270.0
 51
352.9994812011719
  0
ARC
  5
1E8
330
1F
100
AcDbEntity
  8
0-0
  6
Continuous
 62
     3
370
     9
100
AcDbCircle
 10
-189.576685027849
 20
-710.4817537801472
 30
0.0
 40
5.000000046026752
100
AcDbArc
 50
90.0
 51
168.6897888183594
  0
ARC
  5
1E9
330
1F
100
AcDbEntity
  8
0-0
  6
Continuous
 62
     3
370
     9
100
AcDbCircle
 10
-239.2375216195326
 20
-717.148121162457
 30
0.0
 40
5.000000046026752
100
AcDbArc
 50
186.813949584961
 51
270.0
  0
ARC
  5
1EA
330
1F
100
AcDbEntity
  8
0-0
  6
Continuous
 62
     3
370
     9
100
AcDbCircle
 10
-243.6752703947449
 20
-775.4816434141309
 30
0.0
 40
6.666666728035669
100
AcDbArc
 50
270.0
 51
0.0
  0
ARC
  5
1EB
330
1F
100
AcDbEntity
  8
0-0
  6
Continuous
 62
     3
370
     9
100
AcDbCircle
 10
-243.6752703947449
 20
-775.4816434141309
 30
0.0
 40
26.66666691214268
100
AcDbArc
 50
270.0
 51
0.0
  0
ARC
  5
1EC
330
1F
100
AcDbEntity
  8
0-0
  6
JWW_CENTER1
 62
     3
370
     9
100
AcDbCircle
 10
-243.6756007072699
 20
-775.4816434141309
 30
0.0
 40
16.66666682008918
100
AcDbArc
 50
270.0
 51
0.0
  0
ARC
  5
1ED
330
1F
100
AcDbEntity
  8
0-0
  6
Continuous
 62
     3
370
     9
100
AcDbCircle
 10
-271.6069929890954
 20
-684.5999507167951
 30
0.0
 40
36.66666700419619
100
AcDbArc
 50
71.99998474121092
 51
117.7433929443359
  0
ARC
  5
1EE
330
1F
100
AcDbEntity
  8
0-0
  6
Continuous
 62
     3
370
     9
100
AcDbCircle
 10
270.9220807973024
 20
-684.5999507167951
 30
0.0
 40
36.66666700419619
100
AcDbArc
 50
62.25660705566405
 51
108.0003204345703
  0
ARC
  5
1EF
330
1F
100
AcDbEntity
  8
0-0
  6
JWW_DASHED1
 62
     3
370
     9
100
AcDbCircle
 10
219.7791319053302
 20
-674.8375640363787
 30
0.0
 40
23.33333096755824
100
AcDbArc
 50
273.9998168945312
 51
353.0002746582031
  0
ARC
  5
1F0
330
1F
100
AcDbEntity
  8
0-0
  6
JWW_DASHED1
 62
     3
370
     9
100
AcDbCircle
 10
-220.4642092533856
 20
-674.8375640363787
 30
0.0
 40
23.33333096755824
100
AcDbArc
 50
186.9997253417969
 51
266.0001831054688
  0
ELLIPSE
  5
1F1
330
1F
100
AcDbEntity
  8
0-A
  6
Continuous
 62
     4
370
     9
100
AcDbEllipse
 10
211.32445251193
 20
-641.9163055935749
 30
0.0
 11
17.49993306636197
 21
0.0
 31
0.0
210
0.0
220
0.0
230
1.0
 40
0.7428
 41
1.666184365454919
 42
3.141592653589793
  0
ELLIPSE
  5
1F2
330
1F
100
AcDbEntity
  8
0-A
  6
Continuous
 62
     4
370
     9
100
AcDbEllipse
 10
211.32445251193
 20
-641.9163055935749
 30
0.0
 11
17.49993306636197
 21
0.0
 31
0.0
210
0.0
220
0.0
230
1.0
 40
0.7428
 41
0.0
 42
1.475408021818766
  0
ARC
  5
1F3
330
1F
100
AcDbEntity
  8
0-0
  6
JWW_DASHED1
 62
     3
370
     9
100
AcDbCircle
 10
-196.9215143367894
 20
-706.5569803564724
 30
0.0
 40
6.666666728035669
100
AcDbArc
 50
8.779998779296873
 51
85.9996795654297
  0
ARC
  5
1F4
330
1F
100
AcDbEntity
  8
0-0
  6
JWW_DASHED1
 62
     3
370
     9
100
AcDbCircle
 10
196.2364369887337
 20
-706.5569803564724
 30
0.0
 40
6.666666728035669
100
AcDbArc
 50
94.00032043457028
 51
171.2200012207031
  0
ARC
  5
1F5
330
1F
100
AcDbEntity
  8
0-B
  6
Continuous
 62
     2
370
     9
100
AcDbCircle
 10
-36.96949075820952
 20
-435.4815473839141
 30
0.0
 40
13.33333345607134
100
AcDbArc
 50
32.21649169921875
 51
90.0
  0
ARC
  5
1F6
330
1F
100
AcDbEntity
  8
0-B
  6
Continuous
 62
     2
370
     9
100
AcDbCircle
 10
-8.592672036237051
 20
-422.0318819853964
 30
0.0
 40
38.4165156700743
100
AcDbArc
 50
180.1736297607422
 51
253.2320861816407
  0
ARC
  5
1F7
330
1F
100
AcDbEntity
  8
0-B
  6
Continuous
 62
     2
370
     9
100
AcDbCircle
 10
-8.592672036237051
 20
-422.0318819853964
 30
0.0
 40
34.41652131049943
100
AcDbArc
 50
180.1736297607422
 51
255.4090576171875
  0
ARC
  5
1F8
330
1F
100
AcDbEntity
  8
0-B
  6
Continuous
 62
     2
370
     9
100
AcDbCircle
 10
-17.67593616497226
 20
-454.8150697926927
 30
0.0
 40
0.6666666808678376
100
AcDbArc
 50
308.2657165527344
 51
0.0
  0
ARC
  5
1F9
330
1F
100
AcDbEntity
  8
0-B
  6
Continuous
 62
     2
370
     9
100
AcDbCircle
 10
36.28490887894147
 20
-435.4815473839141
 30
0.0
 40
13.33333345607134
100
AcDbArc
 50
90.0
 51
147.7835083007812
  0
ARC
  5
1FA
330
1F
100
AcDbEntity
  8
0-B
  6
Continuous
 62
     2
370
     9
100
AcDbCircle
 10
7.908090156969001
 20
-422.0318819853964
 30
0.0
 40
38.4165156700743
100
AcDbArc
 50
286.7679138183594
 51
359.8263702392579
  0
ARC
  5
1FB
330
1F
100
AcDbEntity
  8
0-B
  6
Continuous
 62
     2
370
     9
100
AcDbCircle
 10
7.908090156969001
 20
-422.0318819853964
 30
0.0
 40
34.41652131049943
100
AcDbArc
 50
284.5909423828125
 51
359.8263702392578
  0
ARC
  5
1FC
330
1F
100
AcDbEntity
  8
0-B
  6
Continuous
 62
     2
370
     9
100
AcDbCircle
 10
16.99102397317917
 20
-454.8150697926927
 30
0.0
 40
0.6666666808678376
100
AcDbArc
 50
180.0
 51
231.7342834472656
  0
ARC
  5
1FD
330
1F
100
AcDbEntity
  8
0-B
  6
Continuous
 62
     2
370
     9
100
AcDbCircle
 10
16.32445329745339
 20
-454.8150697926927
 30
0.0
 40
4.000000165849732
100
AcDbArc
 50
213.5567016601563
 51
270.0
  0
ARC
  5
1FE
330
1F
100
AcDbEntity
  8
0-B
  6
Continuous
 62
     2
370
     9
100
AcDbCircle
 10
-17.00903517672144
 20
-454.8150697926927
 30
0.0
 40
4.000000165849732
100
AcDbArc
 50
270.0
 51
326.4436187744141
  0
ARC
  5
1FF
330
1F
100
AcDbEntity
  8
0-C
  6
Continuous
 62
     2
370
     9
100
AcDbCircle
 10
16.32445329745339
 20
-663.8147047600404
 30
0.0
 40
1.666666682008917
100
AcDbArc
 50
180.0
 51
270.0
  0
ARC
  5
200
330
1F
100
AcDbEntity
  8
0-C
  6
Continuous
 62
     2
370
     9
100
AcDbCircle
 10
-17.00936548924648
 20
-663.8147047600404
 30
0.0
 40
1.666666682008917
100
AcDbArc
 50
270.0
 51
0.0
  0
ARC
  5
201
330
1F
100
AcDbEntity
  8
0-C
  6
Continuous
 62
     2
370
     9
100
AcDbCircle
 10
-73.67580042655541
 20
-702.8148697591984
 30
0.0
 40
6.666666728035669
100
AcDbArc
 50
270.0
 51
0.0
  0
ARC
  5
202
330
1F
100
AcDbEntity
  8
0-C
  6
Continuous
 62
     2
370
     9
100
AcDbCircle
 10
-104.6947890370969
 20
-702.8148697591984
 30
0.0
 40
6.666666728035669
100
AcDbArc
 50
189.4628143310547
 51
270.0
  0
ARC
  5
203
330
1F
100
AcDbEntity
  8
0-C
  6
Continuous
 62
     2
370
     9
100
AcDbCircle
 10
72.99088823476231
 20
-702.8148697591984
 30
0.0
 40
6.666666728035669
100
AcDbArc
 50
180.0
 51
270.0
  0
ARC
  5
204
330
1F
100
AcDbEntity
  8
0-C
  6
Continuous
 62
     2
370
     9
100
AcDbCircle
 10
104.0098768453034
 20
-702.8148697591984
 30
0.0
 40
6.666666728035669
100
AcDbArc
 50
270.0
 51
350.5371856689453
  0
ARC
  5
205
330
1F
100
AcDbEntity
  8
0-C
  6
Continuous
 62
     2
370
     9
100
AcDbCircle
 10
-17.00936548924648
 20
-663.8147047600404
 30
0.0
 40
5.66666684785865
100
AcDbArc
 50
270.0
 51
350.4709777832031
  0
ARC
  5
206
330
1F
100
AcDbEntity
  8
0-C
  6
Continuous
 62
     2
370
     9
100
AcDbCircle
 10
16.32445329745339
 20
-663.8147047600404
 30
0.0
 40
5.66666684785865
100
AcDbArc
 50
189.5361938476562
 51
270.0
  0
ARC
  5
207
330
1F
100
AcDbEntity
  8
0-0
  6
Continuous
 62
     3
370
     9
100
AcDbCircle
 10
-302.3998826761809
 20
-625.4817710616584
 30
0.0
 40
3.333333364017835
100
AcDbArc
 50
90.0
 51
172.8747406005859
  0
ARC
  5
208
330
1F
100
AcDbEntity
  8
0-0
  6
Continuous
 62
     3
370
     9
100
AcDbCircle
 10
301.7144750156001
 20
-625.4817710616584
 30
0.0
 40
3.333333364017835
100
AcDbArc
 50
7.125259399414062
 51
90.0
  0
TEXT
  5
209
330
1F
100
AcDbEntity
  8
0-F
  6
Continuous
 62
     2
370
     9
100
AcDbText
 10
675.583118978195
 20
-573.3986750033351
 30
0.0
 40
30.48
  1
40
 50
90.00000250447809
 41
1.062500000000001
  7
ＭＳ ゴシック
100
AcDbText
  0
LINE
  5
20A
330
1F
100
AcDbEntity
  8
0-5
  6
Continuous
 62
     7
370
     9
100
AcDbLine
 10
376.3245640562308
 20
-485.4819452514382
 30
0.0
 11
481.0338235136753
 21
-304.1201878482327
 31
0.0
  0
TEXT
  5
20B
330
1F
100
AcDbEntity
  8
0-5
  6
Continuous
 62
     7
370
     9
100
AcDbText
 10
481.3857187267171
 20
-339.7775554285358
 30
0.0
 40
22.86
  1
特殊発砲樹脂
 41
1.138888888888889
  7
ＭＳ ゴシック
100
AcDbText
  0
TEXT
  5
20C
330
1F
100
AcDbEntity
  8
0-5
  6
Continuous
 62
     7
370
     9
100
AcDbText
 10
523.7222620155318
 20
-295.7225574889528
 30
0.0
 40
22.86
  1
抜型本体
 41
1.125
  7
ＭＳ ゴシック
100
AcDbText
  0
LINE
  5
20D
330
1F
100
AcDbEntity
  8
0-5
  6
Continuous
 62
     7
370
     9
100
AcDbLine
 10
481.0338235136753
 20
-304.1201878482327
 30
0.0
 11
685.4332803234614
 21
-304.1201878482327
 31
0.0
  0
LINE
  5
20E
330
1F
100
AcDbEntity
  8
0-5
  6
Continuous
 62
     7
370
     9
100
AcDbLine
 10
376.3245640562308
 20
-485.4819452514382
 30
0.0
 11
385.8916498653581
 21
-462.3849569386559
 31
0.0
  0
LINE
  5
20F
330
1F
100
AcDbEntity
  8
0-5
  6
Continuous
 62
     7
370
     9
100
AcDbLine
 10
376.3245640562308
 20
-485.4819452514382
 30
0.0
 11
391.5435997814488
 21
-465.6481117441573
 31
0.0
  0
LINE
  5
210
330
1F
100
AcDbEntity
  8
0-5
  6
Continuous
 62
     7
370
     9
100
AcDbLine
 10
-43.00899694755064
 20
-422.1481519942444
 30
0.0
 11
-178.1103631952204
 21
-188.1457214813088
 31
0.0
  0
TEXT
  5
211
330
1F
100
AcDbEntity
  8
0-5
  6
Continuous
 62
     6
370
     9
100
AcDbText
 10
-344.6125510393861
 20
-220.0344252155618
 30
0.0
 40
19.05
  1
（別途）
 41
1.089999999999999
  7
ＭＳ ゴシック
100
AcDbText
  0
TEXT
  5
212
330
1F
100
AcDbEntity
  8
0-5
  6
Continuous
 62
     6
370
     9
100
AcDbText
 10
-432.4867598453289
 20
-176.3419148010351
 30
0.0
 40
19.05
  1
蝶ナット：ＳＰＨＣ
 41
1.106666666666667
  7
ＭＳ ゴシック
100
AcDbText
  0
LINE
  5
213
330
1F
100
AcDbEntity
  8
0-5
  6
Continuous
 62
     7
370
     9
100
AcDbLine
 10
-178.1103631952204
 20
-188.1457214813088
 30
0.0
 11
-445.02236069089
 21
-188.1457214813088
 31
0.0
  0
LINE
  5
214
330
1F
100
AcDbEntity
  8
0-5
  6
Continuous
 62
     7
370
     9
100
AcDbLine
 10
-43.00899694755064
 20
-422.1481519942444
 30
0.0
 11
-58.22803267276871
 21
-402.3143184869634
 31
0.0
  0
LINE
  5
215
330
1F
100
AcDbEntity
  8
0-5
  6
Continuous
 62
     7
370
     9
100
AcDbLine
 10
-43.00899694755064
 20
-422.1481519942444
 30
0.0
 11
-52.57608275667796
 21
-399.0511636814622
 31
0.0
  0
LINE
  5
216
330
1F
100
AcDbEntity
  8
0-5
  6
Continuous
 62
     7
370
     9
100
AcDbLine
 10
-267.0088774829294
 20
-458.8148241595735
 30
0.0
 11
-282.227913208148
 21
-438.9809906522927
 31
0.0
  0
LINE
  5
217
330
1F
100
AcDbEntity
  8
0-5
  6
Continuous
 62
     7
370
     9
100
AcDbLine
 10
-267.0088774829294
 20
-458.8148241595735
 30
0.0
 11
-276.5759632920567
 21
-435.7178358467914
 31
0.0
  0
TEXT
  5
218
330
1F
100
AcDbEntity
  8
0-5
  6
Continuous
 62
     7
370
     9
100
AcDbText
 10
-572.1533608851043
 20
-294.7819568522578
 30
0.0
 40
22.86
  1
固定プレート
 41
1.138888888888889
  7
ＭＳ ゴシック
100
AcDbText
  0
TEXT
  5
219
330
1F
100
AcDbEntity
  8
0-5
  6
Continuous
 62
     7
370
     9
100
AcDbText
 10
-534.7614658256801
 20
-336.6401203921793
 30
0.0
 40
22.86
  1
ＳＰＨＣ
 41
1.124999999999995
  7
ＭＳ ゴシック
100
AcDbText
  0
LINE
  5
21A
330
1F
100
AcDbEntity
  8
0-5
  6
Continuous
 62
     7
370
     9
100
AcDbLine
 10
-356.7755211177953
 20
-303.3344365590571
 30
0.0
 11
-577.2886385591883
 21
-303.3344365590571
 31
0.0
  0
LINE
  5
21B
330
1F
100
AcDbEntity
  8
0-5
  6
Continuous
 62
     7
370
     9
100
AcDbLine
 10
-267.0088774829294
 20
-458.8148241595735
 30
0.0
 11
-356.7755211177953
 21
-303.3344365590571
 31
0.0
  0
LINE
  5
21C
330
1F
100
AcDbEntity
  8
0-4
  6
Continuous
 62
     7
370
     9
100
AcDbLine
 10
-308.6758206537789
 20
-293.1605219477325
 30
0.0
 11
307.9904129931981
 21
-293.1605219477325
 31
0.0
  0
LINE
  5
21D
330
1F
100
AcDbEntity
  8
0-4
  6
Continuous
 62
     7
370
     9
100
AcDbLine
 10
-308.6758206537789
 20
-293.1605219477325
 30
0.0
 11
-283.8896991194337
 21
-289.8973671422312
 31
0.0
  0
LINE
  5
21E
330
1F
100
AcDbEntity
  8
0-4
  6
Continuous
 62
     7
370
     9
100
AcDbLine
 10
-308.6758206537789
 20
-293.1605219477325
 30
0.0
 11
-283.8896991194337
 21
-296.4236767532338
 31
0.0
  0
LINE
  5
21F
330
1F
100
AcDbEntity
  8
0-4
  6
Continuous
 62
     7
370
     9
100
AcDbLine
 10
307.9904129931981
 20
-293.1605219477325
 30
0.0
 11
283.2042914588528
 21
-289.8973671422312
 31
0.0
  0
LINE
  5
220
330
1F
100
AcDbEntity
  8
0-4
  6
Continuous
 62
     7
370
     9
100
AcDbLine
 10
307.9904129931981
 20
-293.1605219477325
 30
0.0
 11
283.2042914588528
 21
-296.4236767532338
 31
0.0
  0
LINE
  5
221
330
1F
100
AcDbEntity
  8
0-4
  6
Continuous
 62
     7
370
     9
100
AcDbLine
 10
-308.6758206537789
 20
-290.1605219477325
 30
0.0
 11
-308.6758206537789
 21
-628.815212993581
 31
0.0
  0
LINE
  5
222
330
1F
100
AcDbEntity
  8
0-4
  6
Continuous
 62
     7
370
     9
100
AcDbLine
 10
307.9904129931981
 20
-290.1605219477325
 30
0.0
 11
307.9904129931981
 21
-628.815212993581
 31
0.0
  0
TEXT
  5
223
330
1F
100
AcDbEntity
  8
0-4
  6
Continuous
 62
     2
370
   211
100
AcDbText
 10
-67.67660045105313
 20
-277.5205219477325
 30
0.0
 40
30.48
  1
φ185
 41
1.1
  7
ＭＳ ゴシック
100
AcDbText
  0
TEXT
  5
224
330
1F
100
AcDbEntity
  8
0-5
  6
Continuous
 62
     7
370
     9
100
AcDbText
 10
410.9401671449466
 20
-806.5274102846329
 30
0.0
 40
22.86
  1
クロロプレン
 41
1.138888888888889
  7
ＭＳ ゴシック
100
AcDbText
  0
TEXT
  5
225
330
1F
100
AcDbEntity
  8
F-4
  6
Continuous
 62
     2
370
     0
100
AcDbText
 10
-606.3910823449612
 20
-1348.094557508731
 30
0.0
 40
30.48
  1
複数回使用抜型　ＢＷ７５Ｅ－４０
 41
1.1171875
  7
ＭＳ ゴシック
100
AcDbText
  0
ENDSEC
  0
SECTION
  2
OBJECTS
  0
DICTIONARY
  5
C
330
0
100
AcDbDictionary
281
     1
  3
ACAD_GROUP
350
D
  3
ACAD_LAYOUT
350
1A
  3
ACAD_MLEADERSTYLE
350
227
  3
ACAD_MLINESTYLE
350
17
  3
ACAD_PLOTSETTINGS
350
19
  3
ACAD_PLOTSTYLENAME
350
E
  3
ACAD_TABLESTYLE
350
226
  3
ACAD_VISUALSTYLE
350
2A
  3
AcDbVariableDictionary
350
228
  0
DICTIONARY
  5
D
102
{ACAD_REACTORS
330
C
102
}
330
C
100
AcDbDictionary
281
     1
  0
DICTIONARY
  5
1A
102
{ACAD_REACTORS
330
C
102
}
330
C
100
AcDbDictionary
281
     1
  3
Layout1
350
1E
  3
Layout2
350
26
  3
Model
350
22
  0
DICTIONARY
  5
227
102
{ACAD_REACTORS
330
C
102
}
330
C
100
AcDbDictionary
281
     1
  0
DICTIONARY
  5
17
102
{ACAD_REACTORS
330
C
102
}
330
C
100
AcDbDictionary
281
     1
  3
Standard
350
18
  0
DICTIONARY
  5
19
102
{ACAD_REACTORS
330
C
102
}
330
C
100
AcDbDictionary
281
     1
  0
ACDBDICTIONARYWDFLT
  5
E
102
{ACAD_REACTORS
330
C
102
}
330
C
100
AcDbDictionary
281
     1
  3
Normal
350
F
100
AcDbDictionaryWithDefault
340
F
  0
DICTIONARY
  5
226
102
{ACAD_REACTORS
330
C
102
}
330
C
100
AcDbDictionary
281
     1
  0
DICTIONARY
  5
2A
102
{ACAD_REACTORS
330
C
102
}
330
C
100
AcDbDictionary
281
     1
  3
2dWireframe
350
2F
  3
3D Hidden
350
31
  3
3dWireframe
350
30
  3
Basic
350
32
  3
Brighten
350
36
  3
ColorChange
350
3A
  3
Conceptual
350
34
  3
Dim
350
35
  3
Facepattern
350
39
  3
Flat
350
2B
  3
FlatWithEdges
350
2C
  3
Gouraud
350
2D
  3
GouraudWithEdges
350
2E
  3
Linepattern
350
38
  3
Realistic
350
33
  3
Thicken
350
37
  0
DICTIONARY
  5
228
102
{ACAD_REACTORS
330
C
102
}
330
C
100
AcDbDictionary
281
     1
  3
PSOLHEIGHT
350
22A
  3
PSOLWIDTH
350
229
  0
LAYOUT
  5
1E
102
{ACAD_REACTORS
330
1A
102
}
102
{ACAD_XDICTIONARY
360
22B
102
}
330
1A
100
AcDbPlotSettings
  1

  2
none_device
  4

  6

 40
0.0
 41
0.0
 42
0.0
 43
0.0
 44
0.0
 45
0.0
 46
0.0
 47
0.0
 48
0.0
 49
0.0
140
0.0
141
0.0
142
1.0
143
1.0
 70
   688
 72
     0
 73
     0
 74
     5
  7

 75
    16
147
1.0
148
0.0
149
0.0
100
AcDbLayout
  1
Layout1
 70
     1
 71
     1
 10
0.0
 20
0.0
 11
420.0
 21
297.0
 12
0.0
 22
0.0
 32
0.0
 14
1.000000000000000E+20
 24
1.000000000000000E+20
 34
1.000000000000000E+20
 15
-1.000000000000000E+20
 25
-1.000000000000000E+20
 35
-1.000000000000000E+20
146
0.0
 13
0.0
 23
0.0
 33
0.0
 16
1.0
 26
0.0
 36
0.0
 17
0.0
 27
1.0
 37
0.0
 76
     0
330
1B
  0
LAYOUT
  5
26
102
{ACAD_REACTORS
330
1A
102
}
102
{ACAD_XDICTIONARY
360
22F
102
}
330
1A
100
AcDbPlotSettings
  1

  2
none_device
  4

  6

 40
0.0
 41
0.0
 42
0.0
 43
0.0
 44
0.0
 45
0.0
 46
0.0
 47
0.0
 48
0.0
 49
0.0
140
0.0
141
0.0
142
1.0
143
1.0
 70
   688
 72
     0
 73
     0
 74
     5
  7

 75
    16
147
1.0
148
0.0
149
0.0
100
AcDbLayout
  1
Layout2
 70
     1
 71
     2
 10
0.0
 20
0.0
 11
0.0
 21
0.0
 12
0.0
 22
0.0
 32
0.0
 14
0.0
 24
0.0
 34
0.0
 15
0.0
 25
0.0
 35
0.0
146
0.0
 13
0.0
 23
0.0
 33
0.0
 16
1.0
 26
0.0
 36
0.0
 17
0.0
 27
1.0
 37
0.0
 76
     0
330
23
  0
LAYOUT
  5
22
102
{ACAD_REACTORS
330
1A
102
}
102
{ACAD_XDICTIONARY
360
22D
102
}
330
1A
100
AcDbPlotSettings
  1

  2
none_device
  4

  6

 40
0.0
 41
0.0
 42
0.0
 43
0.0
 44
0.0
 45
0.0
 46
0.0
 47
0.0
 48
0.0
 49
0.0
140
0.0
141
0.0
142
1.0
143
1.0
 70
  1712
 72
     0
 73
     0
 74
     0
  7

 75
     0
147
1.0
148
0.0
149
0.0
100
AcDbLayout
  1
Model
 70
     1
 71
     0
 10
-2100.0
 20
-1485.0
 11
2100.0
 21
1485.0
 12
0.0
 22
0.0
 32
0.0
 14
-2100.0
 24
-1485.0
 34
0.0
 15
2100.0
 25
1485.0
 35
0.0
146
0.0
 13
0.0
 23
0.0
 33
0.0
 16
1.0
 26
0.0
 36
0.0
 17
0.0
 27
1.0
 37
0.0
 76
     0
330
1F
331
29
  0
MLINESTYLE
  5
18
102
{ACAD_REACTORS
330
17
102
}
330
17
100
AcDbMlineStyle
  2
Standard
 70
     0
  3

 62
   256
 51
90.0
 52
90.0
 71
     2
 49
0.5
 62
   256
  6
BYLAYER
 49
-0.5
 62
   256
  6
BYLAYER
  0
ACDBPLACEHOLDER
  5
F
102
{ACAD_REACTORS
330
E
102
}
330
E
  0
VISUALSTYLE
  5
2F
102
{ACAD_REACTORS
330
2A
102
}
330
2A
100
AcDbVisualStyle
  2
2dWireframe
 70
     4
 71
     0
 72
     2
 73
     0
 90
        0
 40
-0.6
 41
-30.0
 62
     5
 63
     7
 74
     1
 91
        4
 64
     7
 65
   257
 75
     1
175
     1
 42
1.0
 92
        0
 66
   257
 43
1.0
 76
     1
 77
     6
 78
     2
 67
     7
 79
     5
170
     0
171
     0
290
     0
174
     0
 93
        1
 44
0.0
173
     0
291
     0
 45
0.0
1001
ACAD
1000
AcDbSavedByObjectVersion
1070
     0
  0
VISUALSTYLE
  5
31
102
{ACAD_REACTORS
330
2A
102
}
330
2A
100
AcDbVisualStyle
  2
3D Hidden
 70
     6
 71
     1
 72
     2
 73
     2
 90
        0
 40
-0.6
 41
-30.0
 62
     5
 63
     7
 74
     2
 91
        2
 64
     7
 65
   257
 75
     2
175
     1
 42
40.0
 92
        0
 66
   257
 43
1.0
 76
     1
 77
     6
 78
     2
 67
     7
 79
     3
170
     0
171
     0
290
     0
174
     0
 93
        1
 44
0.0
173
     0
291
     0
 45
0.0
1001
ACAD
1000
AcDbSavedByObjectVersion
1070
     0
  0
VISUALSTYLE
  5
30
102
{ACAD_REACTORS
330
2A
102
}
330
2A
100
AcDbVisualStyle
  2
3dWireframe
 70
     5
 71
     0
 72
     2
 73
     0
 90
        0
 40
-0.6
 41
-30.0
 62
     5
 63
     7
 74
     1
 91
        4
 64
     7
 65
   257
 75
     1
175
     1
 42
1.0
 92
        0
 66
   257
 43
1.0
 76
     1
 77
     6
 78
     2
 67
     7
 79
     5
170
     0
171
     0
290
     0
174
     0
 93
        1
 44
0.0
173
     0
291
     0
 45
0.0
1001
ACAD
1000
AcDbSavedByObjectVersion
1070
     0
  0
VISUALSTYLE
  5
32
102
{ACAD_REACTORS
330
2A
102
}
330
2A
100
AcDbVisualStyle
  2
Basic
 70
     7
 71
     1
 72
     0
 73
     1
 90
        0
 40
-0.6
 41
-30.0
 62
     5
 63
     7
 74
     0
 91
        4
 64
     7
 65
   257
 75
     1
175
     1
 42
1.0
 92
        8
 66
     7
 43
1.0
 76
     1
 77
     6
 78
     2
 67
     7
 79
     5
170
     0
171
     0
290
     0
174
     0
 93
        1
 44
0.0
173
     0
291
     1
 45
0.0
1001
ACAD
1000
AcDbSavedByObjectVersion
1070
     0
  0
VISUALSTYLE
  5
36
102
{ACAD_REACTORS
330
2A
102
}
330
2A
100
AcDbVisualStyle
  2
Brighten
 70
    12
 71
     2
 72
     2
 73
     0
 90
        0
 40
-0.6
 41
-30.0
 62
     5
 63
     7
 74
     1
 91
        4
 64
     7
 65
   257
 75
     1
175
     1
 42
1.0
 92
        8
 66
     7
 43
1.0
 76
     1
 77
     6
 78
     2
 67
     7
 79
     5
170
     0
171
     0
290
     0
174
     0
 93
        1
 44
50.0
173
     0
291
     1
 45
0.0
1001
ACAD
1000
AcDbSavedByObjectVersion
1070
     0
  0
VISUALSTYLE
  5
3A
102
{ACAD_REACTORS
330
2A
102
}
330
2A
100
AcDbVisualStyle
  2
ColorChange
 70
    16
 71
     2
 72
     2
 73
     3
 90
        0
 40
-0.6
 41
-30.0
 62
     5
 63
     8
 74
     1
 91
        4
 64
     7
 65
   257
 75
     1
175
     1
 42
1.0
 92
        8
 66
     8
 43
1.0
 76
     1
 77
     6
 78
     2
 67
     7
 79
     5
170
     0
171
     0
290
     0
174
     0
 93
        1
 44
0.0
173
     0
291
     1
 45
0.0
1001
ACAD
1000
AcDbSavedByObjectVersion
1070
     0
  0
VISUALSTYLE
  5
34
102
{ACAD_REACTORS
330
2A
102
}
330
2A
100
AcDbVisualStyle
  2
Conceptual
 70
     9
 71
     3
 72
     2
 73
     0
 90
        0
 40
-0.6
 41
-30.0
 62
     5
 63
     7
 74
     2
 91
        2
 64
     7
 65
   257
 75
     1
175
     1
 42
40.0
 92
        8
 66
     7
 43
1.0
 76
     1
 77
     6
 78
     2
 67
     7
 79
     3
170
     0
171
     0
290
     0
174
     0
 93
        1
 44
0.0
173
     0
291
     0
 45
0.0
1001
ACAD
1000
AcDbSavedByObjectVersion
1070
     0
  0
VISUALSTYLE
  5
35
102
{ACAD_REACTORS
330
2A
102
}
330
2A
100
AcDbVisualStyle
  2
Dim
 70
    11
 71
     2
 72
     2
 73
     0
 90
        0
 40
-0.6
 41
-30.0
 62
     5
 63
     7
 74
     1
 91
        4
 64
     7
 65
   257
 75
     1
175
     1
 42
1.0
 92
        8
 66
     7
 43
1.0
 76
     1
 77
     6
 78
     2
 67
     7
 79
     5
170
     0
171
     0
290
     0
174
     0
 93
        1
 44
-50.0
173
     0
291
     1
 45
0.0
1001
ACAD
1000
AcDbSavedByObjectVersion
1070
     0
  0
VISUALSTYLE
  5
39
102
{ACAD_REACTORS
330
2A
102
}
330
2A
100
AcDbVisualStyle
  2
Facepattern
 70
    15
 71
     2
 72
     2
 73
     0
 90
        0
 40
-0.6
 41
-30.0
 62
     5
 63
     7
 74
     1
 91
        4
 64
     7
 65
   257
 75
     1
175
     1
 42
1.0
 92
        8
 66
     7
 43
1.0
 76
     1
 77
     6
 78
     2
 67
     7
 79
     5
170
     0
171
     0
290
     0
174
     0
 93
        1
 44
0.0
173
     0
291
     1
 45
0.0
1001
ACAD
1000
AcDbSavedByObjectVersion
1070
     0
  0
VISUALSTYLE
  5
2B
102
{ACAD_REACTORS
330
2A
102
}
330
2A
100
AcDbVisualStyle
  2
Flat
 70
     0
 71
     2
 72
     1
 73
     1
 90
        2
 40
-0.6
 41
30.0
 62
     5
 63
     7
 74
     0
 91
        4
 64
     7
 65
   257
 75
     1
175
     1
 42
1.0
 92
        8
 66
     7
 43
1.0
 76
     1
 77
     6
 78
     2
 67
     7
 79
     5
170
     0
171
     0
290
     0
174
     0
 93
       13
 44
0.0
173
     0
291
     1
 45
0.0
1001
ACAD
1000
AcDbSavedByObjectVersion
1070
     0
  0
VISUALSTYLE
  5
2C
102
{ACAD_REACTORS
330
2A
102
}
330
2A
100
AcDbVisualStyle
  2
FlatWithEdges
 70
     1
 71
     2
 72
     1
 73
     1
 90
        2
 40
-0.6
 41
30.0
 62
     5
 63
     7
 74
     1
 91
        4
 64
     7
 65
   257
 75
     1
175
     1
 42
1.0
 92
        0
 66
   257
 43
1.0
 76
     1
 77
     6
 78
     2
 67
     7
 79
     5
170
     0
171
     0
290
     0
174
     0
 93
       13
 44
0.0
173
     0
291
     1
 45
0.0
1001
ACAD
1000
AcDbSavedByObjectVersion
1070
     0
  0
VISUALSTYLE
  5
2D
102
{ACAD_REACTORS
330
2A
102
}
330
2A
100
AcDbVisualStyle
  2
Gouraud
 70
     2
 71
     2
 72
     2
 73
     1
 90
        2
 40
-0.6
 41
30.0
 62
     5
 63
     7
 74
     0
 91
        4
 64
     7
 65
   257
 75
     1
175
     1
 42
1.0
 92
        0
 66
     7
 43
1.0
 76
     1
 77
     6
 78
     2
 67
     7
 79
     5
170
     0
171
     0
290
     0
174
     0
 93
       13
 44
0.0
173
     0
291
     1
 45
0.0
1001
ACAD
1000
AcDbSavedByObjectVersion
1070
     0
  0
VISUALSTYLE
  5
2E
102
{ACAD_REACTORS
330
2A
102
}
330
2A
100
AcDbVisualStyle
  2
GouraudWithEdges
 70
     3
 71
     2
 72
     2
 73
     1
 90
        2
 40
-0.6
 41
30.0
 62
     5
 63
     7
 74
     1
 91
        4
 64
     7
 65
   257
 75
     1
175
     1
 42
1.0
 92
        0
 66
   257
 43
1.0
 76
     1
 77
     6
 78
     2
 67
     7
 79
     5
170
     0
171
     0
290
     0
174
     0
 93
       13
 44
0.0
173
     0
291
     1
 45
0.0
1001
ACAD
1000
AcDbSavedByObjectVersion
1070
     0
  0
VISUALSTYLE
  5
38
102
{ACAD_REACTORS
330
2A
102
}
330
2A
100
AcDbVisualStyle
  2
Linepattern
 70
    14
 71
     2
 72
     2
 73
     0
 90
        0
 40
-0.6
 41
-30.0
 62
     5
 63
     7
 74
     1
 91
        4
 64
     7
 65
   257
 75
     7
175
     7
 42
1.0
 92
        8
 66
     7
 43
1.0
 76
     1
 77
     6
 78
     2
 67
     7
 79
     5
170
     0
171
     0
290
     0
174
     0
 93
        1
 44
0.0
173
     0
291
     1
 45
0.0
1001
ACAD
1000
AcDbSavedByObjectVersion
1070
     0
  0
VISUALSTYLE
  5
33
102
{ACAD_REACTORS
330
2A
102
}
330
2A
100
AcDbVisualStyle
  2
Realistic
 70
     8
 71
     2
 72
     2
 73
     0
 90
        0
 40
-0.6
 41
-30.0
 62
     5
 63
     7
 74
     1
 91
        0
 64
     7
 65
   257
 75
     1
175
     1
 42
1.0
 92
        8
 66
     8
 43
1.0
 76
     1
 77
     6
 78
     2
 67
     7
 79
     5
170
     0
171
     0
290
     0
174
     0
 93
       13
 44
0.0
173
     0
291
     0
 45
0.0
1001
ACAD
1000
AcDbSavedByObjectVersion
1070
     0
  0
VISUALSTYLE
  5
37
102
{ACAD_REACTORS
330
2A
102
}
330
2A
100
AcDbVisualStyle
  2
Thicken
 70
    13
 71
     2
 72
     2
 73
     0
 90
        0
 40
-0.6
 41
-30.0
 62
     5
 63
     7
 74
     1
 91
        4
 64
     7
 65
   257
 75
     1
175
     1
 42
1.0
 92
       12
 66
     7
 43
1.0
 76
     1
 77
     6
 78
     2
 67
     7
 79
     5
170
     0
171
     0
290
     0
174
     0
 93
        1
 44
0.0
173
     0
291
     1
 45
0.0
1001
ACAD
1000
AcDbSavedByObjectVersion
1070
     0
  0
DICTIONARYVAR
  5
22A
102
{ACAD_REACTORS
330
228
102
}
330
228
100
DictionaryVariables
280
     0
  1
80.000000
  0
DICTIONARYVAR
  5
229
102
{ACAD_REACTORS
330
228
102
}
330
228
100
DictionaryVariables
280
     0
  1
5.000000
  0
DICTIONARY
  5
22B
330
1E
100
AcDbDictionary
280
     1
281
     1
  3
ACAD_XREC_ROUNDTRIP
360
22C
  0
DICTIONARY
  5
22F
330
26
100
AcDbDictionary
280
     1
281
     1
  3
ACAD_XREC_ROUNDTRIP
360
230
  0
DICTIONARY
  5
22D
330
22
100
AcDbDictionary
280
     1
281
     1
  3
ACAD_XREC_ROUNDTRIP
360
22E
  0
XRECORD
  5
22C
102
{ACAD_REACTORS
330
22B
102
}
330
22B
100
AcDbXrecord
280
     1
102
SHADEPLOT
 70
     0
102
SHADEPLOTRESLEVEL
 70
     5
102
SHADEPLOTCUSTOMDPI
 70
   300
  0
XRECORD
  5
230
102
{ACAD_REACTORS
330
22F
102
}
330
22F
100
AcDbXrecord
280
     1
102
SHADEPLOT
 70
     0
102
SHADEPLOTRESLEVEL
 70
     5
102
SHADEPLOTCUSTOMDPI
 70
   300
  0
XRECORD
  5
22E
102
{ACAD_REACTORS
330
22D
102
}
330
22D
100
AcDbXrecord
280
     1
102
SHADEPLOT
 70
     0
102
SHADEPLOTRESLEVEL
 70
     5
102
SHADEPLOTCUSTOMDPI
 70
   300
  0
ENDSEC
  0
EOF
