  0
SECTION
  2
HEADER
  9
$ACADVER
  1
AC1015
  9
$ACADMAINTVER
 70
     6
  9
$DWGCODEPAGE
  3
ANSI_932
  9
$INSBASE
 10
0.0
 20
0.0
 30
0.0
  9
$EXTMIN
 10
-2100.0
 20
-1485.0
 30
0.0
  9
$EXTMAX
 10
2100.0
 20
1485.0
 30
0.0
  9
$LIMMIN
 10
-2100.0
 20
-1485.0
  9
$LIMMAX
 10
2100.0
 20
1485.0
  9
$ORTHOMODE
 70
     0
  9
$REGENMODE
 70
     1
  9
$FILLMODE
 70
     1
  9
$QTEXTMODE
 70
     0
  9
$MIRRTEXT
 70
     1
  9
$LTSCALE
 40
10.0
  9
$ATTMODE
 70
     1
  9
$TEXTSIZE
 40
2.5
  9
$TRACEWID
 40
1.0
  9
$TEXTSTYLE
  7
Standard
  9
$CLAYER
  8
0
  9
$CELTYPE
  6
ByLayer
  9
$CECOLOR
 62
   256
  9
$CELTSCALE
 40
1.0
  9
$DISPSILH
 70
     0
  9
$DIMSCALE
 40
1.0
  9
$DIMASZ
 40
2.5
  9
$DIMEXO
 40
0.625
  9
$DIMDLI
 40
3.75
  9
$DIMRND
 40
0.0
  9
$DIMDLE
 40
0.0
  9
$DIMEXE
 40
1.25
  9
$DIMTP
 40
0.0
  9
$DIMTM
 40
0.0
  9
$DIMTXT
 40
2.5
  9
$DIMCEN
 40
2.5
  9
$DIMTSZ
 40
0.0
  9
$DIMTOL
 70
     0
  9
$DIMLIM
 70
     0
  9
$DIMTIH
 70
     0
  9
$DIMTOH
 70
     0
  9
$DIMSE1
 70
     0
  9
$DIMSE2
 70
     0
  9
$DIMTAD
 70
     1
  9
$DIMZIN
 70
     8
  9
$DIMBLK
  1

  9
$DIMASO
 70
     1
  9
$DIMSHO
 70
     1
  9
$DIMPOST
  1

  9
$DIMAPOST
  1

  9
$DIMALT
 70
     0
  9
$DIMALTD
 70
     3
  9
$DIMALTF
 40
0.03937007874016
  9
$DIMLFAC
 40
1.0
  9
$DIMTOFL
 70
     1
  9
$DIMTVP
 40
0.0
  9
$DIMTIX
 70
     0
  9
$DIMSOXD
 70
     0
  9
$DIMSAH
 70
     0
  9
$DIMBLK1
  1

  9
$DIMBLK2
  1

  9
$DIMSTYLE
  2
ISO-25
  9
$DIMCLRD
 70
     0
  9
$DIMCLRE
 70
     0
  9
$DIMCLRT
 70
     0
  9
$DIMTFAC
 40
1.0
  9
$DIMGAP
 40
0.625
  9
$DIMJUST
 70
     0
  9
$DIMSD1
 70
     0
  9
$DIMSD2
 70
     0
  9
$DIMTOLJ
 70
     0
  9
$DIMTZIN
 70
     8
  9
$DIMALTZ
 70
     0
  9
$DIMALTTZ
 70
     0
  9
$DIMUPT
 70
     0
  9
$DIMDEC
 70
     2
  9
$DIMTDEC
 70
     2
  9
$DIMALTU
 70
     2
  9
$DIMALTTD
 70
     3
  9
$DIMTXSTY
  7
Standard
  9
$DIMAUNIT
 70
     0
  9
$DIMADEC
 70
     0
  9
$DIMALTRND
 40
0.0
  9
$DIMAZIN
 70
     0
  9
$DIMDSEP
 70
    44
  9
$DIMATFIT
 70
     3
  9
$DIMFRAC
 70
     0
  9
$DIMLDRBLK
  1

  9
$DIMLUNIT
 70
     2
  9
$DIMLWD
 70
    -2
  9
$DIMLWE
 70
    -2
  9
$DIMTMOVE
 70
     0
  9
$LUNITS
 70
     2
  9
$LUPREC
 70
     4
  9
$SKETCHINC
 40
1.0
  9
$FILLETRAD
 40
10.0
  9
$AUNITS
 70
     0
  9
$AUPREC
 70
     0
  9
$MENU
  1
.
  9
$ELEVATION
 40
0.0
  9
$PELEVATION
 40
0.0
  9
$THICKNESS
 40
0.0
  9
$LIMCHECK
 70
     0
  9
$CHAMFERA
 40
10.0
  9
$CHAMFERB
 40
10.0
  9
$CHAMFERC
 40
20.0
  9
$CHAMFERD
 40
0.0
  9
$SKPOLY
 70
     0
  9
$TDCREATE
 40
2456898.435960463
  9
$TDUCREATE
 40
2456898.060960463
  9
$TDUPDATE
 40
2456898.435960474
  9
$TDUUPDATE
 40
2456898.060960474
  9
$TDINDWG
 40
0.0000000116
  9
$TDUSRTIMER
 40
0.0000000116
  9
$USRTIMER
 70
     1
  9
$ANGBASE
 50
0.0
  9
$ANGDIR
 70
     0
  9
$PDMODE
 70
     0
  9
$PDSIZE
 40
0.0
  9
$PLINEWID
 40
0.0
  9
$SPLFRAME
 70
     0
  9
$SPLINETYPE
 70
     6
  9
$SPLINESEGS
 70
     8
  9
$HANDSEED
  5
218
  9
$SURFTAB1
 70
     6
  9
$SURFTAB2
 70
     6
  9
$SURFTYPE
 70
     6
  9
$SURFU
 70
     6
  9
$SURFV
 70
     6
  9
$UCSBASE
  2

  9
$UCSNAME
  2

  9
$UCSORG
 10
0.0
 20
0.0
 30
0.0
  9
$UCSXDIR
 10
1.0
 20
0.0
 30
0.0
  9
$UCSYDIR
 10
0.0
 20
1.0
 30
0.0
  9
$UCSORTHOREF
  2

  9
$UCSORTHOVIEW
 70
     0
  9
$UCSORGTOP
 10
0.0
 20
0.0
 30
0.0
  9
$UCSORGBOTTOM
 10
0.0
 20
0.0
 30
0.0
  9
$UCSORGLEFT
 10
0.0
 20
0.0
 30
0.0
  9
$UCSORGRIGHT
 10
0.0
 20
0.0
 30
0.0
  9
$UCSORGFRONT
 10
0.0
 20
0.0
 30
0.0
  9
$UCSORGBACK
 10
0.0
 20
0.0
 30
0.0
  9
$PUCSBASE
  2

  9
$PUCSNAME
  2

  9
$PUCSORG
 10
0.0
 20
0.0
 30
0.0
  9
$PUCSXDIR
 10
1.0
 20
0.0
 30
0.0
  9
$PUCSYDIR
 10
0.0
 20
1.0
 30
0.0
  9
$PUCSORTHOREF
  2

  9
$PUCSORTHOVIEW
 70
     0
  9
$PUCSORGTOP
 10
0.0
 20
0.0
 30
0.0
  9
$PUCSORGBOTTOM
 10
0.0
 20
0.0
 30
0.0
  9
$PUCSORGLEFT
 10
0.0
 20
0.0
 30
0.0
  9
$PUCSORGRIGHT
 10
0.0
 20
0.0
 30
0.0
  9
$PUCSORGFRONT
 10
0.0
 20
0.0
 30
0.0
  9
$PUCSORGBACK
 10
0.0
 20
0.0
 30
0.0
  9
$USERI1
 70
     0
  9
$USERI2
 70
     0
  9
$USERI3
 70
     0
  9
$USERI4
 70
     0
  9
$USERI5
 70
     0
  9
$USERR1
 40
0.0
  9
$USERR2
 40
0.0
  9
$USERR3
 40
0.0
  9
$USERR4
 40
0.0
  9
$USERR5
 40
0.0
  9
$WORLDVIEW
 70
     1
  9
$SHADEDGE
 70
     3
  9
$SHADEDIF
 70
    70
  9
$TILEMODE
 70
     1
  9
$MAXACTVP
 70
    64
  9
$PINSBASE
 10
0.0
 20
0.0
 30
0.0
  9
$PLIMCHECK
 70
     0
  9
$PEXTMIN
 10
1.000000000000000E+20
 20
1.000000000000000E+20
 30
1.000000000000000E+20
  9
$PEXTMAX
 10
-1.000000000000000E+20
 20
-1.000000000000000E+20
 30
-1.000000000000000E+20
  9
$PLIMMIN
 10
0.0
 20
0.0
  9
$PLIMMAX
 10
420.0
 20
297.0
  9
$UNITMODE
 70
     0
  9
$VISRETAIN
 70
     1
  9
$PLINEGEN
 70
     0
  9
$PSLTSCALE
 70
     1
  9
$TREEDEPTH
 70
  3020
  9
$CMLSTYLE
  2
Standard
  9
$CMLJUST
 70
     0
  9
$CMLSCALE
 40
20.0
  9
$PROXYGRAPHICS
 70
     1
  9
$MEASUREMENT
 70
     1
  9
$CELWEIGHT
370
    -1
  9
$ENDCAPS
280
     0
  9
$JOINSTYLE
280
     0
  9
$LWDISPLAY
290
     0
  9
$INSUNITS
 70
     4
  9
$HYPERLINKBASE
  1

  9
$STYLESHEET
  1

  9
$XEDIT
290
     1
  9
$CEPSNTYPE
380
     0
  9
$PSTYLEMODE
290
     1
  9
$FINGERPRINTGUID
  2
{F52D1649-E3AA-476D-9B93-7857B0ABA928}
  9
$VERSIONGUID
  2
{FAEB1C32-E019-11D5-929B-00C0DF256EC4}
  9
$EXTNAMES
290
     1
  9
$PSVPSCALE
 40
0.0
  9
$OLESTARTUP
290
     0
  0
ENDSEC
  0
SECTION
  2
CLASSES
  0
CLASS
  1
ACDBDICTIONARYWDFLT
  2
AcDbDictionaryWithDefault
  3
ObjectDBX Classes
 90
        0
280
     0
281
     0
  0
CLASS
  1
VISUALSTYLE
  2
AcDbVisualStyle
  3
ObjectDBX Classes
 90
     4095
280
     0
281
     0
  0
CLASS
  1
DICTIONARYVAR
  2
AcDbDictionaryVar
  3
ObjectDBX Classes
 90
        0
280
     0
281
     0
  0
CLASS
  1
ACDBPLACEHOLDER
  2
AcDbPlaceHolder
  3
ObjectDBX Classes
 90
        0
280
     0
281
     0
  0
CLASS
  1
LAYOUT
  2
AcDbLayout
  3
ObjectDBX Classes
 90
        0
280
     0
281
     0
  0
ENDSEC
  0
SECTION
  2
TABLES
  0
TABLE
  2
VPORT
  5
8
330
0
100
AcDbSymbolTable
 70
     1
  0
VPORT
  5
29
330
8
100
AcDbSymbolTableRecord
100
AcDbViewportTableRecord
  2
*Active
 70
     0
 10
0.0
 20
0.0
 11
1.0
 21
1.0
 12
0.0
 22
0.0
 13
0.0
 23
0.0
 14
10.0
 24
10.0
 15
10.0
 25
10.0
 16
0.0
 26
0.0
 36
1.0
 17
0.0
 27
0.0
 37
0.0
 40
3267.0
 41
1.414141414141414
 42
50.0
 43
0.0
 44
0.0
 50
0.0
 51
0.0
 71
     0
 72
 10000
 73
     1
 74
     3
 75
     0
 76
     0
 77
     0
 78
     0
281
     0
 65
     1
110
0.0
120
0.0
130
0.0
111
1.0
121
0.0
131
0.0
112
0.0
122
1.0
132
0.0
 79
     0
146
0.0
  0
ENDTAB
  0
TABLE
  2
LTYPE
  5
5
330
0
100
AcDbSymbolTable
 70
     5
  0
LTYPE
  5
14
330
5
100
AcDbSymbolTableRecord
100
AcDbLinetypeTableRecord
  2
ByBlock
 70
     0
  3

 72
    65
 73
     0
 40
0.0
  0
LTYPE
  5
15
330
5
100
AcDbSymbolTableRecord
100
AcDbLinetypeTableRecord
  2
ByLayer
 70
     0
  3

 72
    65
 73
     0
 40
0.0
  0
LTYPE
  5
16
330
5
100
AcDbSymbolTableRecord
100
AcDbLinetypeTableRecord
  2
Continuous
 70
     0
  3
Solid line
 72
    65
 73
     0
 40
0.0
  0
LTYPE
  5
3C
330
5
100
AcDbSymbolTableRecord
100
AcDbLinetypeTableRecord
  2
JWW_CENTER1
 70
     0
  3
-----  --  ----------  --  -----
 72
    65
 73
     4
 40
6.773333333333333
 49
4.233333333333333
 74
     0
 49
-0.8466666666666667
 74
     0
 49
0.8466666666666667
 74
     0
 49
-0.8466666666666667
 74
     0
  0
LTYPE
  5
3D
330
5
100
AcDbSymbolTableRecord
100
AcDbLinetypeTableRecord
  2
JWW_HOJO
 70
     0
  3
  -   -   -   -   -   -   -   - 
 72
    65
 73
     2
 40
1.693333333333333
 49
-1.27
 74
     0
 49
0.4233333333333333
 74
     0
  0
LTYPE
  5
3E
330
5
100
AcDbSymbolTableRecord
100
AcDbLinetypeTableRecord
  2
JWW_DASHED1
 70
     0
  3
-  --  --  --  --  --  --  --  -
 72
    65
 73
     2
 40
1.693333333333333
 49
0.8466666666666667
 74
     0
 49
-0.8466666666666667
 74
     0
  0
LTYPE
  5
3F
330
5
100
AcDbSymbolTableRecord
100
AcDbLinetypeTableRecord
  2
JWW_PHANTOM2
 70
     0
  3
------------  -  -  ------------
 72
    65
 73
     6
 40
13.54666666666667
 49
10.16
 74
     0
 49
-0.8466666666666667
 74
     0
 49
0.4233333333333333
 74
     0
 49
-0.8466666666666667
 74
     0
 49
0.4233333333333333
 74
     0
 49
-0.8466666666666667
 74
     0
  0
ENDTAB
  0
TABLE
  2
LAYER
  5
2
330
0
100
AcDbSymbolTable
 70
    14
  0
LAYER
  5
10
330
2
100
AcDbSymbolTableRecord
100
AcDbLayerTableRecord
  2
0
 70
     0
 62
     7
  6
Continuous
370
    -3
390
F
  0
LAYER
  5
40
330
2
100
AcDbSymbolTableRecord
100
AcDbLayerTableRecord
  2
0-F
 70
     0
 62
     7
  6
Continuous
370
    -3
390
F
  0
LAYER
  5
41
330
2
100
AcDbSymbolTableRecord
100
AcDbLayerTableRecord
  2
0-B
 70
     0
 62
     7
  6
Continuous
370
    -3
390
F
  0
LAYER
  5
42
330
2
100
AcDbSymbolTableRecord
100
AcDbLayerTableRecord
  2
0-1
 70
     0
 62
     7
  6
Continuous
370
    -3
390
F
  0
LAYER
  5
43
330
2
100
AcDbSymbolTableRecord
100
AcDbLayerTableRecord
  2
0-4
 70
     0
 62
     7
  6
Continuous
370
    -3
390
F
  0
LAYER
  5
44
330
2
100
AcDbSymbolTableRecord
100
AcDbLayerTableRecord
  2
0-D
 70
     0
 62
     7
  6
Continuous
370
    -3
390
F
  0
LAYER
  5
45
330
2
100
AcDbSymbolTableRecord
100
AcDbLayerTableRecord
  2
0-5
 70
     0
 62
     7
  6
Continuous
370
    -3
390
F
  0
LAYER
  5
46
330
2
100
AcDbSymbolTableRecord
100
AcDbLayerTableRecord
  2
0-0
 70
     0
 62
     7
  6
Continuous
370
    -3
390
F
  0
LAYER
  5
47
330
2
100
AcDbSymbolTableRecord
100
AcDbLayerTableRecord
  2
0-8
 70
     0
 62
     7
  6
Continuous
370
    -3
390
F
  0
LAYER
  5
48
330
2
100
AcDbSymbolTableRecord
100
AcDbLayerTableRecord
  2
0-2
 70
     0
 62
     7
  6
Continuous
370
    -3
390
F
  0
LAYER
  5
49
330
2
100
AcDbSymbolTableRecord
100
AcDbLayerTableRecord
  2
0-C
 70
     0
 62
     7
  6
Continuous
370
    -3
390
F
  0
LAYER
  5
4A
330
2
100
AcDbSymbolTableRecord
100
AcDbLayerTableRecord
  2
0-9
 70
     0
 62
     7
  6
Continuous
370
    -3
390
F
  0
LAYER
  5
4B
330
2
100
AcDbSymbolTableRecord
100
AcDbLayerTableRecord
  2
0-3
 70
     0
 62
     7
  6
Continuous
370
    -3
390
F
  0
LAYER
  5
4C
330
2
100
AcDbSymbolTableRecord
100
AcDbLayerTableRecord
  2
F-4
 70
     0
 62
     7
  6
Continuous
370
    -3
390
F
  0
ENDTAB
  0
TABLE
  2
STYLE
  5
3
330
0
100
AcDbSymbolTable
 70
     2
  0
STYLE
  5
11
330
3
100
AcDbSymbolTableRecord
100
AcDbTextStyleTableRecord
  2
Standard
 70
     0
 40
0.0
 41
1.0
 50
0.0
 71
     0
 42
2.5
  3
txt
  4

1001
ACAD
1000

1071
        0
  0
STYLE
  5
3B
330
3
100
AcDbSymbolTableRecord
100
AcDbTextStyleTableRecord
  2
ＭＳ ゴシック
 70
     0
 40
1.0
 41
1.0
 50
0.0
 71
     0
 42
10.0
  3

  4

1001
ACAD
1000
MS Gothic
1071
    32817
  0
ENDTAB
  0
TABLE
  2
VIEW
  5
6
330
0
100
AcDbSymbolTable
 70
     0
  0
ENDTAB
  0
TABLE
  2
UCS
  5
7
330
0
100
AcDbSymbolTable
 70
     0
  0
ENDTAB
  0
TABLE
  2
APPID
  5
9
330
0
100
AcDbSymbolTable
 70
     1
  0
APPID
  5
12
330
9
100
AcDbSymbolTableRecord
100
AcDbRegAppTableRecord
  2
ACAD
 70
     0
  0
ENDTAB
  0
TABLE
  2
DIMSTYLE
  5
A
330
0
100
AcDbSymbolTable
 70
     1
100
AcDbDimStyleTable
  0
DIMSTYLE
105
27
330
A
100
AcDbSymbolTableRecord
100
AcDbDimStyleTableRecord
  2
ISO-25
 70
     0
 41
2.5
 42
0.625
 43
3.75
 44
1.25
 73
     0
 74
     0
 77
     1
 78
     8
140
2.5
141
2.5
143
0.03937007874016
147
0.625
171
     3
172
     1
271
     2
272
     2
274
     3
278
    44
283
     0
284
     8
340
11
  0
ENDTAB
  0
TABLE
  2
BLOCK_RECORD
  5
1
330
0
100
AcDbSymbolTable
 70
     1
  0
BLOCK_RECORD
  5
1F
330
1
100
AcDbSymbolTableRecord
100
AcDbBlockTableRecord
  2
*Model_Space
340
22
  0
BLOCK_RECORD
  5
1B
330
1
100
AcDbSymbolTableRecord
100
AcDbBlockTableRecord
  2
*Paper_Space
340
1E
  0
BLOCK_RECORD
  5
23
330
1
100
AcDbSymbolTableRecord
100
AcDbBlockTableRecord
  2
*Paper_Space0
340
26
  0
ENDTAB
  0
ENDSEC
  0
SECTION
  2
BLOCKS
  0
BLOCK
  5
20
330
1F
100
AcDbEntity
  8
0
100
AcDbBlockBegin
  2
*Model_Space
 70
     0
 10
0.0
 20
0.0
 30
0.0
  3
*Model_Space
  1

  0
ENDBLK
  5
21
330
1F
100
AcDbEntity
  8
0
100
AcDbBlockEnd
  0
BLOCK
  5
1C
330
1B
100
AcDbEntity
 67
     1
  8
0
100
AcDbBlockBegin
  2
*Paper_Space
 70
     0
 10
0.0
 20
0.0
 30
0.0
  3
*Paper_Space
  1

  0
ENDBLK
  5
1D
330
1B
100
AcDbEntity
 67
     1
  8
0
100
AcDbBlockEnd
  0
BLOCK
  5
24
330
23
100
AcDbEntity
  8
0
100
AcDbBlockBegin
  2
*Paper_Space0
 70
     0
 10
0.0
 20
0.0
 30
0.0
  3
*Paper_Space0
  1

  0
ENDBLK
  5
25
330
23
100
AcDbEntity
  8
0
100
AcDbBlockEnd
  0
ENDSEC
  0
SECTION
  2
ENTITIES
  0
LWPOLYLINE
  5
4D
330
1F
100
AcDbEntity
  8
0-F
  6
Continuous
 62
     7
370
     9
100
AcDbPolyline
 90
        4
 70
     1
 43
1.0
 10
13.49083812816747
 20
-622.1485735919023
 42
0.4142135623731
 10
12.99083812816747
 20
-621.6485735919024
 42
0.4142135623731
 10
12.49083812816747
 20
-622.1485735919023
 42
0.4142135623731
 10
12.99083812816747
 20
-622.6485735919023
 42
0.4142135623731
  0
LWPOLYLINE
  5
4E
330
1F
100
AcDbEntity
  8
0-F
  6
Continuous
 62
     7
370
     9
100
AcDbPolyline
 90
        4
 70
     1
 43
1.0
 10
0.1575432854731958
 20
678.4675721864443
 42
0.4142135623731
 10
-0.3424567145268043
 20
678.9675721864443
 42
0.4142135623731
 10
-0.8424567145268043
 20
678.4675721864443
 42
0.4142135623731
 10
-0.3424567145268043
 20
677.9675721864443
 42
0.4142135623731
  0
LINE
  5
4F
330
1F
100
AcDbEntity
  8
0-B
  6
Continuous
 62
     2
370
     9
100
AcDbLine
 10
-28.58748073897052
 20
690.134210574274
 30
0.0
 11
-35.34237187801607
 21
690.134210574274
 31
0.0
  0
LINE
  5
50
330
1F
100
AcDbEntity
  8
0-B
  6
Continuous
 62
     2
370
     9
100
AcDbLine
 10
-35.34237187801607
 20
666.8009337986143
 30
0.0
 11
-28.58748073897052
 21
666.8009337986143
 31
0.0
  0
LINE
  5
51
330
1F
100
AcDbEntity
  8
0-B
  6
Continuous
 62
     2
370
     9
100
AcDbLine
 10
27.90256730991539
 20
690.134210574274
 30
0.0
 11
34.65745844896247
 21
690.134210574274
 31
0.0
  0
LINE
  5
52
330
1F
100
AcDbEntity
  8
0-B
  6
Continuous
 62
     2
370
     9
100
AcDbLine
 10
34.65745844896247
 20
666.8009337986143
 30
0.0
 11
27.90256730991539
 21
666.8009337986143
 31
0.0
  0
LINE
  5
53
330
1F
100
AcDbEntity
  8
0-B
  6
Continuous
 62
     2
370
     9
100
AcDbLine
 10
27.90256730991539
 20
686.1347865199178
 30
0.0
 11
34.65745844896247
 21
686.1347865199178
 31
0.0
  0
LINE
  5
54
330
1F
100
AcDbEntity
  8
0-B
  6
Continuous
 62
     2
370
     9
100
AcDbLine
 10
34.65745844896247
 20
670.8010184780198
 30
0.0
 11
27.90256730991539
 21
670.8010184780198
 31
0.0
  0
LINE
  5
55
330
1F
100
AcDbEntity
  8
0-B
  6
Continuous
 62
     2
370
     9
100
AcDbLine
 10
-35.34237187801607
 20
670.8010184780198
 30
0.0
 11
-28.58748073897052
 21
670.8010184780198
 31
0.0
  0
LINE
  5
56
330
1F
100
AcDbEntity
  8
0-B
  6
Continuous
 62
     2
370
     9
100
AcDbLine
 10
-28.58748073897052
 20
686.1347865199178
 30
0.0
 11
-35.34237187801607
 21
686.1347865199178
 31
0.0
  0
LINE
  5
57
330
1F
100
AcDbEntity
  8
0-1
  6
JWW_CENTER1
 62
     4
370
     9
100
AcDbLine
 10
540.3335638058535
 20
678.4675721864443
 30
0.0
 11
-541.0184772349079
 21
678.4675721864443
 31
0.0
  0
LINE
  5
58
330
1F
100
AcDbEntity
  8
0-4
  6
Continuous
 62
     6
370
     9
100
AcDbLine
 10
261.3648175763648
 20
726.1343120638774
 30
0.0
 11
-271.968355510226
 21
726.1343120638774
 31
0.0
  0
LINE
  5
59
330
1F
100
AcDbEntity
  8
0-4
  6
Continuous
 62
     6
370
     9
100
AcDbLine
 10
-271.968355510226
 20
630.800832309011
 30
0.0
 11
-271.968355510226
 21
726.1343120638774
 31
0.0
  0
LINE
  5
5A
330
1F
100
AcDbEntity
  8
0-4
  6
Continuous
 62
     6
370
     9
100
AcDbLine
 10
261.3648175763648
 20
630.800832309011
 30
0.0
 11
-271.968355510226
 21
630.800832309011
 31
0.0
  0
LINE
  5
5B
330
1F
100
AcDbEntity
  8
0-4
  6
Continuous
 62
     6
370
     9
100
AcDbLine
 10
261.3648175763648
 20
630.800832309011
 30
0.0
 11
261.3648175763648
 21
726.1343120638774
 31
0.0
  0
LINE
  5
5C
330
1F
100
AcDbEntity
  8
0-D
  6
Continuous
 62
     2
370
     9
100
AcDbLine
 10
28.03138919471877
 20
645.1344140247949
 30
0.0
 11
28.03138919471877
 21
666.8009337986143
 31
0.0
  0
LINE
  5
5D
330
1F
100
AcDbEntity
  8
0-D
  6
Continuous
 62
     2
370
     9
100
AcDbLine
 10
28.03138919471877
 20
690.134210574274
 30
0.0
 11
28.03138919471877
 21
711.8007303480937
 31
0.0
  0
LINE
  5
5E
330
1F
100
AcDbEntity
  8
0-D
  6
Continuous
 62
     2
370
     9
100
AcDbLine
 10
261.3648175763648
 20
711.8007303480937
 30
0.0
 11
28.03138919471877
 21
711.8007303480937
 31
0.0
  0
LINE
  5
5F
330
1F
100
AcDbEntity
  8
0-D
  6
Continuous
 62
     2
370
     9
100
AcDbLine
 10
261.3648175763648
 20
645.1344140247949
 30
0.0
 11
28.03138919471877
 21
645.1344140247949
 31
0.0
  0
LINE
  5
60
330
1F
100
AcDbEntity
  8
0-1
  6
Continuous
 62
     4
370
     9
100
AcDbLine
 10
482.9906488170652
 20
678.4675721864443
 30
0.0
 11
482.9906488170652
 21
195.1344666548521
 31
0.0
  0
LINE
  5
61
330
1F
100
AcDbEntity
  8
0-1
  6
Continuous
 62
     4
370
     9
100
AcDbLine
 10
-483.6755622461189
 20
195.1344666548521
 30
0.0
 11
-483.6755622461189
 21
1161.801338343085
 31
0.0
  0
LINE
  5
62
330
1F
100
AcDbEntity
  8
0-1
  6
Continuous
 62
     4
370
     9
100
AcDbLine
 10
-0.3424567145268043
 20
1161.801338343085
 30
0.0
 11
-483.6755622461189
 21
1161.801338343085
 31
0.0
  0
LINE
  5
63
330
1F
100
AcDbEntity
  8
0-1
  6
Continuous
 62
     4
370
     9
100
AcDbLine
 10
482.9906488170652
 20
195.1344666548521
 30
0.0
 11
-483.6755622461189
 21
195.1344666548521
 31
0.0
  0
LINE
  5
64
330
1F
100
AcDbEntity
  8
0-1
  6
JWW_CENTER1
 62
     4
370
     9
100
AcDbLine
 10
-0.3424567145268043
 20
1220.983433471836
 30
0.0
 11
-0.3424567145268043
 21
119.5933134061796
 31
0.0
  0
LINE
  5
65
330
1F
100
AcDbEntity
  8
0-F
  6
Continuous
 62
     7
370
     9
100
AcDbLine
 10
-678.739642090472
 20
195.1344666548521
 30
0.0
 11
-678.739642090472
 21
678.4675721864443
 31
0.0
  0
LINE
  5
66
330
1F
100
AcDbEntity
  8
0-F
  6
Continuous
 62
     7
370
     9
100
AcDbLine
 10
-523.6757484151285
 20
195.1344666548521
 30
0.0
 11
-682.7397267698784
 21
195.1344666548521
 31
0.0
  0
LINE
  5
67
330
1F
100
AcDbEntity
  8
0-F
  6
Continuous
 62
     7
370
     9
100
AcDbLine
 10
-581.0186634039176
 20
678.4675721864443
 30
0.0
 11
-682.7397267698784
 21
678.4675721864443
 31
0.0
  0
LINE
  5
68
330
1F
100
AcDbEntity
  8
0-F
  6
Continuous
 62
     7
370
     9
100
AcDbLine
 10
-678.739642090472
 20
195.1344666548521
 30
0.0
 11
-683.9605618627838
 21
234.79244904782
 31
0.0
  0
LINE
  5
69
330
1F
100
AcDbEntity
  8
0-F
  6
Continuous
 62
     7
370
     9
100
AcDbLine
 10
-678.739642090472
 20
195.1344666548521
 30
0.0
 11
-673.518722318161
 21
234.79244904782
 31
0.0
  0
LINE
  5
6A
330
1F
100
AcDbEntity
  8
0-F
  6
Continuous
 62
     7
370
     9
100
AcDbLine
 10
-678.739642090472
 20
678.4675721864443
 30
0.0
 11
-683.9605618627838
 21
638.8102504185264
 31
0.0
  0
LINE
  5
6B
330
1F
100
AcDbEntity
  8
0-F
  6
Continuous
 62
     7
370
     9
100
AcDbLine
 10
-678.739642090472
 20
678.4675721864443
 30
0.0
 11
-673.518722318161
 21
638.8102504185264
 31
0.0
  0
LINE
  5
6C
330
1F
100
AcDbEntity
  8
0-F
  6
Continuous
 62
     7
370
     9
100
AcDbLine
 10
694.5564817921992
 20
195.1344666548521
 30
0.0
 11
694.5564817921992
 21
1161.800677718036
 31
0.0
  0
LINE
  5
6D
330
1F
100
AcDbEntity
  8
0-F
  6
Continuous
 62
     7
370
     9
100
AcDbLine
 10
522.9908349860741
 20
195.1344666548521
 30
0.0
 11
698.5565664716047
 21
195.1344666548521
 31
0.0
  0
LINE
  5
6E
330
1F
100
AcDbEntity
  8
0-F
  6
Continuous
 62
     7
370
     9
100
AcDbLine
 10
39.65772945448207
 20
1161.800677718036
 30
0.0
 11
698.5565664716047
 21
1161.800677718036
 31
0.0
  0
LINE
  5
6F
330
1F
100
AcDbEntity
  8
0-F
  6
Continuous
 62
     7
370
     9
100
AcDbLine
 10
694.5564817921992
 20
195.1344666548521
 30
0.0
 11
689.3355620198882
 21
234.79244904782
 31
0.0
  0
LINE
  5
70
330
1F
100
AcDbEntity
  8
0-F
  6
Continuous
 62
     7
370
     9
100
AcDbLine
 10
694.5564817921992
 20
195.1344666548521
 30
0.0
 11
699.7780621895613
 21
234.79244904782
 31
0.0
  0
LINE
  5
71
330
1F
100
AcDbEntity
  8
0-F
  6
Continuous
 62
     7
370
     9
100
AcDbLine
 10
694.5564817921992
 20
1161.800677718036
 30
0.0
 11
689.3355620198882
 21
1122.143355950118
 31
0.0
  0
LINE
  5
72
330
1F
100
AcDbEntity
  8
0-F
  6
Continuous
 62
     7
370
     9
100
AcDbLine
 10
694.5564817921992
 20
1161.800677718036
 30
0.0
 11
699.7780621895613
 21
1122.143355950118
 31
0.0
  0
LINE
  5
73
330
1F
100
AcDbEntity
  8
0-F
  6
Continuous
 62
     7
370
     9
100
AcDbLine
 10
-0.3424567145268043
 20
678.4675721864443
 30
0.0
 11
341.4259674190099
 21
1020.23599631998
 31
0.0
  0
LINE
  5
74
330
1F
100
AcDbEntity
  8
0-F
  6
Continuous
 62
     7
370
     9
100
AcDbLine
 10
341.4259674190099
 20
1020.23599631998
 30
0.0
 11
317.0753280659281
 21
988.5015507799932
 31
0.0
  0
LINE
  5
75
330
1F
100
AcDbEntity
  8
0-F
  6
Continuous
 62
     7
370
     9
100
AcDbLine
 10
341.4259674190099
 20
1020.23599631998
 30
0.0
 11
309.6915218790214
 21
995.8853569668997
 31
0.0
  0
LINE
  5
76
330
1F
100
AcDbEntity
  8
0-F
  6
Continuous
 62
     7
370
     9
100
AcDbLine
 10
-483.6755622461189
 20
23.79078986561858
 30
0.0
 11
482.9906488170652
 21
23.79078986561858
 31
0.0
  0
LINE
  5
77
330
1F
100
AcDbEntity
  8
0-F
  6
Continuous
 62
     7
370
     9
100
AcDbLine
 10
-483.6755622461189
 20
155.1342804858425
 30
0.0
 11
-483.6755622461189
 21
19.79070518621306
 31
0.0
  0
LINE
  5
78
330
1F
100
AcDbEntity
  8
0-F
  6
Continuous
 62
     7
370
     9
100
AcDbLine
 10
482.9906488170652
 20
155.1342804858425
 30
0.0
 11
482.9906488170652
 21
19.79070518621306
 31
0.0
  0
LINE
  5
79
330
1F
100
AcDbEntity
  8
0-F
  6
Continuous
 62
     7
370
     9
100
AcDbLine
 10
-483.6755622461189
 20
23.79078986561858
 30
0.0
 11
-444.0182404782018
 21
29.01170963793042
 31
0.0
  0
LINE
  5
7A
330
1F
100
AcDbEntity
  8
0-F
  6
Continuous
 62
     7
370
     9
100
AcDbLine
 10
-483.6755622461189
 20
23.79078986561858
 30
0.0
 11
-444.0182404782018
 21
18.56987009330744
 31
0.0
  0
LINE
  5
7B
330
1F
100
AcDbEntity
  8
0-F
  6
Continuous
 62
     7
370
     9
100
AcDbLine
 10
482.9906488170652
 20
23.79078986561858
 30
0.0
 11
443.3326664240965
 21
29.01170963793042
 31
0.0
  0
LINE
  5
7C
330
1F
100
AcDbEntity
  8
0-F
  6
Continuous
 62
     7
370
     9
100
AcDbLine
 10
482.9906488170652
 20
23.79078986561858
 30
0.0
 11
443.3326664240965
 21
18.56987009330744
 31
0.0
  0
ARC
  5
7D
330
1F
100
AcDbEntity
  8
0-B
  6
Continuous
 62
     2
370
     9
100
AcDbCircle
 10
-35.34237187801607
 20
678.4675721864443
 30
0.0
 40
11.66666419349582
100
AcDbArc
 50
90.0
 51
270.0
  0
ARC
  5
7E
330
1F
100
AcDbEntity
  8
0-B
  6
Continuous
 62
     2
370
     9
100
AcDbCircle
 10
-28.58748073897052
 20
694.1342952536795
 30
0.0
 40
4.000000165849732
100
AcDbArc
 50
270.0
 51
323.9680633544922
  0
ARC
  5
7F
330
1F
100
AcDbEntity
  8
0-B
  6
Continuous
 62
     2
370
     9
100
AcDbCircle
 10
-28.58748073897052
 20
662.8015097442583
 30
0.0
 40
4.000000165849732
100
AcDbArc
 50
36.03193664550781
 51
90.0
  0
ARC
  5
80
330
1F
100
AcDbEntity
  8
0-B
  6
Continuous
 62
     2
370
     9
100
AcDbCircle
 10
34.65745844896247
 20
678.4675721864443
 30
0.0
 40
11.66666419349582
100
AcDbArc
 50
270.0
 51
90.0
  0
ARC
  5
81
330
1F
100
AcDbEntity
  8
0-B
  6
Continuous
 62
     2
370
     9
100
AcDbCircle
 10
27.90256730991539
 20
694.1342952536795
 30
0.0
 40
4.000000165849732
100
AcDbArc
 50
216.0319366455078
 51
270.0
  0
ARC
  5
82
330
1F
100
AcDbEntity
  8
0-B
  6
Continuous
 62
     2
370
     9
100
AcDbCircle
 10
27.90256730991539
 20
662.8015097442583
 30
0.0
 40
4.000000165849732
100
AcDbArc
 50
90.0
 51
143.9680633544922
  0
ARC
  5
83
330
1F
100
AcDbEntity
  8
0-B
  6
Continuous
 62
     2
370
     9
100
AcDbCircle
 10
-0.3424567145268043
 20
678.4675721864443
 30
0.0
 40
28.3333335941516
100
AcDbArc
 50
28.02752685546875
 51
151.9724273681641
  0
ARC
  5
84
330
1F
100
AcDbEntity
  8
0-B
  6
Continuous
 62
     2
370
     9
100
AcDbCircle
 10
-0.3424567145268043
 20
678.4675721864443
 30
0.0
 40
28.3333335941516
100
AcDbArc
 50
208.0275573730469
 51
331.9724426269531
  0
ARC
  5
85
330
1F
100
AcDbEntity
  8
0-B
  6
Continuous
 62
     2
370
     9
100
AcDbCircle
 10
34.65745844896247
 20
678.4675721864443
 30
0.0
 40
7.666664027646087
100
AcDbArc
 50
270.0
 51
90.0
  0
ARC
  5
86
330
1F
100
AcDbEntity
  8
0-B
  6
Continuous
 62
     2
370
     9
100
AcDbCircle
 10
-35.34237187801607
 20
678.4675721864443
 30
0.0
 40
7.666664027646087
100
AcDbArc
 50
90.0
 51
270.0
  0
ARC
  5
87
330
1F
100
AcDbEntity
  8
0-B
  6
Continuous
 62
     2
370
     9
100
AcDbCircle
 10
-28.58748073897052
 20
694.1342952536795
 30
0.0
 40
8.000000331699464
100
AcDbArc
 50
270.0
 51
323.9680633544922
  0
ARC
  5
88
330
1F
100
AcDbEntity
  8
0-B
  6
Continuous
 62
     2
370
     9
100
AcDbCircle
 10
-0.3424567145268043
 20
678.4675721864443
 30
0.0
 40
24.33333665401012
100
AcDbArc
 50
28.02752685546875
 51
153.5666046142578
  0
ARC
  5
89
330
1F
100
AcDbEntity
  8
0-B
  6
Continuous
 62
     2
370
     9
100
AcDbCircle
 10
-28.58748073897052
 20
662.8015097442583
 30
0.0
 40
8.000000331699464
100
AcDbArc
 50
32.02981567382812
 51
90.0
  0
ARC
  5
8A
330
1F
100
AcDbEntity
  8
0-B
  6
Continuous
 62
     2
370
     9
100
AcDbCircle
 10
27.90256730991539
 20
694.1342952536795
 30
0.0
 40
8.000000331699464
100
AcDbArc
 50
212.02978515625
 51
270.0
  0
ARC
  5
8B
330
1F
100
AcDbEntity
  8
0-B
  6
Continuous
 62
     2
370
     9
100
AcDbCircle
 10
-0.3424567145268043
 20
678.4675721864443
 30
0.0
 40
24.33333665401012
100
AcDbArc
 50
208.0275573730469
 51
331.9724426269531
  0
ARC
  5
8C
330
1F
100
AcDbEntity
  8
0-B
  6
Continuous
 62
     2
370
     9
100
AcDbCircle
 10
27.90256730991539
 20
662.8015097442583
 30
0.0
 40
8.000000331699464
100
AcDbArc
 50
90.0
 51
147.9701843261718
  0
CIRCLE
  5
8D
330
1F
100
AcDbEntity
  8
0-B
  6
Continuous
 62
     2
370
     9
100
AcDbCircle
 10
-0.3424567145268043
 20
678.4675721864443
 30
0.0
 40
16.66666682008918
  0
CIRCLE
  5
8E
330
1F
100
AcDbEntity
  8
0-B
  6
Continuous
 62
     2
370
     9
100
AcDbCircle
 10
-0.3424567145268043
 20
678.4675721864443
 30
0.0
 40
12.66666600909779
  0
ARC
  5
8F
330
1F
100
AcDbEntity
  8
0-1
  6
Continuous
 62
     4
370
     9
100
AcDbCircle
 10
-0.3424567145268043
 20
678.4675721864443
 30
0.0
 40
483.3333532659856
100
AcDbArc
 50
0.0
 51
90.0
  0
TEXT
  5
90
330
1F
100
AcDbEntity
  8
0-D
  6
Continuous
 62
     6
370
     9
100
AcDbText
 10
88.69810338554258
 20
671.2868495050571
 30
0.0
 40
15.24
  1
複数回使用
 41
1.119999999999999
  7
ＭＳ ゴシック
100
AcDbText
  0
TEXT
  5
91
330
1F
100
AcDbEntity
  8
0-F
  6
Continuous
 62
     2
370
     9
100
AcDbText
 10
-697.7126747188287
 20
404.3013491952317
 30
0.0
 40
30.48
  1
145
 50
90.00000250447822
 41
1.083333333333334
  7
ＭＳ ゴシック
100
AcDbText
  0
TEXT
  5
92
330
1F
100
AcDbEntity
  8
0-F
  6
Continuous
 62
     2
370
     9
100
AcDbText
 10
675.5834491638428
 20
645.9679019610277
 30
0.0
 40
30.48
  1
290
 50
90.00000250447822
 41
1.083333333333334
  7
ＭＳ ゴシック
100
AcDbText
  0
TEXT
  5
93
330
1F
100
AcDbEntity
  8
0-F
  6
Continuous
 62
     2
370
     9
100
AcDbText
 10
126.1895751399368
 20
831.8317209151993
 30
0.0
 40
30.48
  1
R145
 50
45.00023006357619
 41
1.093749999999998
  7
ＭＳ ゴシック
100
AcDbText
  0
TEXT
  5
94
330
1F
100
AcDbEntity
  8
0-F
  6
Continuous
 62
     2
370
     9
100
AcDbText
 10
-32.84278702705222
 20
42.76448453964548
 30
0.0
 40
30.48
  1
290
 41
1.083333333333333
  7
ＭＳ ゴシック
100
AcDbText
  0
LINE
  5
95
330
1F
100
AcDbEntity
  8
0-4
  6
Continuous
 62
     6
370
     9
100
AcDbLine
 10
-267.0090432578222
 20
-524.4066597635482
 30
0.0
 11
-267.0090432578222
 21
-497.739868984209
 31
0.0
  0
LINE
  5
96
330
1F
100
AcDbEntity
  8
0-4
  6
Continuous
 62
     6
370
     9
100
AcDbLine
 10
266.3241298287686
 20
-524.4066597635482
 30
0.0
 11
266.3241298287686
 21
-497.739868984209
 31
0.0
  0
LINE
  5
97
330
1F
100
AcDbEntity
  8
0-4
  6
Continuous
 62
     6
370
     9
100
AcDbLine
 10
13.8239868635381
 20
-505.4067530051578
 30
0.0
 11
13.8239868635381
 21
-497.739868984209
 31
0.0
  0
LINE
  5
98
330
1F
100
AcDbEntity
  8
0-4
  6
Continuous
 62
     6
370
     9
100
AcDbLine
 10
-14.50956091764254
 20
-505.4067530051578
 30
0.0
 11
-14.50956091764254
 21
-497.739868984209
 31
0.0
  0
LINE
  5
99
330
1F
100
AcDbEntity
  8
0-B
  6
Continuous
 62
     2
370
     9
100
AcDbLine
 10
-36.96949137684035
 20
-461.0731968188798
 30
0.0
 11
-47.00967089089667
 21
-461.0731968188798
 31
0.0
  0
LINE
  5
9A
330
1F
100
AcDbEntity
  8
0-B
  6
Continuous
 62
     2
370
     9
100
AcDbLine
 10
-25.68931864342071
 20
-467.2982666676062
 30
0.0
 11
-17.00936610787769
 21
-481.0732899033843
 31
0.0
  0
LINE
  5
9B
330
1F
100
AcDbEntity
  8
0-B
  6
Continuous
 62
     2
370
     9
100
AcDbLine
 10
-17.00936610787769
 20
-487.4067022603561
 30
0.0
 11
-17.00936610787769
 21
-493.7401146173281
 31
0.0
  0
LINE
  5
9C
330
1F
100
AcDbEntity
  8
0-B
  6
Continuous
 62
     2
370
     9
100
AcDbLine
 10
36.28523857283606
 20
-461.0731968188798
 30
0.0
 11
46.32409683679222
 21
-461.0731968188798
 31
0.0
  0
LINE
  5
9D
330
1F
100
AcDbEntity
  8
0-B
  6
Continuous
 62
     2
370
     9
100
AcDbLine
 10
25.00440521436559
 20
-467.2982666676062
 30
0.0
 11
16.32445267882256
 21
-481.0732899033843
 31
0.0
  0
LINE
  5
9E
330
1F
100
AcDbEntity
  8
0-B
  6
Continuous
 62
     2
370
     9
100
AcDbLine
 10
16.32445267882256
 20
-487.4067022603561
 30
0.0
 11
16.32445267882256
 21
-493.7401146173281
 31
0.0
  0
LINE
  5
9F
330
1F
100
AcDbEntity
  8
0-B
  6
Continuous
 62
     2
370
     9
100
AcDbLine
 10
-17.00936610787769
 20
-487.4067022603561
 30
0.0
 11
-11.42047818256335
 21
-487.4067022603561
 31
0.0
  0
LINE
  5
A0
330
1F
100
AcDbEntity
  8
0-B
  6
Continuous
 62
     2
370
     9
100
AcDbLine
 10
10.73556475350822
 20
-487.4067022603561
 30
0.0
 11
16.32445267882256
 21
-487.4067022603561
 31
0.0
  0
LINE
  5
A1
330
1F
100
AcDbEntity
  8
0-B
  6
Continuous
 62
     2
370
     9
100
AcDbLine
 10
-17.00936610787769
 20
-481.0732899033843
 30
0.0
 11
-13.67585210419643
 21
-481.0732899033843
 31
0.0
  0
LINE
  5
A2
330
1F
100
AcDbEntity
  8
0-B
  6
Continuous
 62
     2
370
     9
100
AcDbLine
 10
12.99093867514282
 20
-481.0732899033843
 30
0.0
 11
16.32445267882256
 21
-481.0732899033843
 31
0.0
  0
LINE
  5
A3
330
1F
100
AcDbEntity
  8
0-B
  6
Continuous
 62
     2
370
     9
100
AcDbLine
 10
18.9907353817272
 20
-497.739868984209
 30
0.0
 11
12.99093867514282
 21
-497.739868984209
 31
0.0
  0
LINE
  5
A4
330
1F
100
AcDbEntity
  8
0-B
  6
Continuous
 62
     2
370
     9
100
AcDbLine
 10
-13.67585210419643
 20
-497.739868984209
 30
0.0
 11
-19.67564881078081
 21
-497.739868984209
 31
0.0
  0
LINE
  5
A5
330
1F
100
AcDbEntity
  8
0-4
  6
Continuous
 62
     6
370
     9
100
AcDbLine
 10
-267.0090432578222
 20
-524.4066597635482
 30
0.0
 11
-13.67585210419643
 21
-524.4066597635482
 31
0.0
  0
LINE
  5
A6
330
1F
100
AcDbEntity
  8
0-4
  6
Continuous
 62
     6
370
     9
100
AcDbLine
 10
12.99093867514282
 20
-524.4066597635482
 30
0.0
 11
266.3241298287686
 21
-524.4066597635482
 31
0.0
  0
LINE
  5
A7
330
1F
100
AcDbEntity
  8
0-4
  6
Continuous
 62
     6
370
     9
100
AcDbLine
 10
-267.0090432578222
 20
-505.4067530051578
 30
0.0
 11
-13.67585210419643
 21
-505.4067530051578
 31
0.0
  0
LINE
  5
A8
330
1F
100
AcDbEntity
  8
0-4
  6
Continuous
 62
     6
370
     9
100
AcDbLine
 10
12.99093867514282
 20
-505.4067530051578
 30
0.0
 11
266.3241298287686
 21
-505.4067530051578
 31
0.0
  0
LINE
  5
A9
330
1F
100
AcDbEntity
  8
0-4
  6
Continuous
 62
     6
370
     9
100
AcDbLine
 10
-267.0090432578222
 20
-497.739868984209
 30
0.0
 11
-13.67585210419643
 21
-497.739868984209
 31
0.0
  0
LINE
  5
AA
330
1F
100
AcDbEntity
  8
0-4
  6
Continuous
 62
     6
370
     9
100
AcDbLine
 10
12.99093867514282
 20
-497.739868984209
 30
0.0
 11
266.3241298287686
 21
-497.739868984209
 31
0.0
  0
LINE
  5
AB
330
1F
100
AcDbEntity
  8
0-1
  6
Continuous
 62
     4
370
     9
100
AcDbLine
 10
482.9906488170652
 20
-524.4069900760736
 30
0.0
 11
12.99093867514282
 21
-524.4069900760736
 31
0.0
  0
LINE
  5
AC
330
1F
100
AcDbEntity
  8
0-1
  6
Continuous
 62
     4
370
     9
100
AcDbLine
 10
-13.67585210419643
 20
-524.4069900760736
 30
0.0
 11
-483.6755622461189
 21
-524.4069900760736
 31
0.0
  0
ARC
  5
AD
330
1F
100
AcDbEntity
  8
0-B
  6
Continuous
 62
     2
370
     9
100
AcDbCircle
 10
-36.96949137684035
 20
-474.4065922085494
 30
0.0
 40
13.33333345607134
100
AcDbArc
 50
32.21649169921875
 51
90.0
  0
ARC
  5
AE
330
1F
100
AcDbEntity
  8
0-B
  6
Continuous
 62
     2
370
     9
100
AcDbCircle
 10
-8.593002967392916
 20
-460.956926810031
 30
0.0
 40
38.4165156700743
100
AcDbArc
 50
180.1736145019531
 51
253.2320709228515
  0
ARC
  5
AF
330
1F
100
AcDbEntity
  8
0-B
  6
Continuous
 62
     2
370
     9
100
AcDbCircle
 10
-8.593002967392916
 20
-460.956926810031
 30
0.0
 40
34.41652131049943
100
AcDbArc
 50
180.1736145019531
 51
255.4090423583985
  0
ARC
  5
B0
330
1F
100
AcDbEntity
  8
0-B
  6
Continuous
 62
     2
370
     9
100
AcDbCircle
 10
-17.67593678360347
 20
-493.7401146173281
 30
0.0
 40
0.6666666808678376
100
AcDbArc
 50
308.2657165527344
 51
0.0
  0
ARC
  5
B1
330
1F
100
AcDbEntity
  8
0-B
  6
Continuous
 62
     2
370
     9
100
AcDbCircle
 10
36.28523857283606
 20
-474.4065922085494
 30
0.0
 40
13.33333345607134
100
AcDbArc
 50
90.0
 51
147.7835083007812
  0
ARC
  5
B2
330
1F
100
AcDbEntity
  8
0-B
  6
Continuous
 62
     2
370
     9
100
AcDbCircle
 10
7.908089538337797
 20
-460.956926810031
 30
0.0
 40
38.4165156700743
100
AcDbArc
 50
286.7679138183594
 51
359.8263702392579
  0
ARC
  5
B3
330
1F
100
AcDbEntity
  8
0-B
  6
Continuous
 62
     2
370
     9
100
AcDbCircle
 10
7.908089538337797
 20
-460.956926810031
 30
0.0
 40
34.41652131049943
100
AcDbArc
 50
284.5909423828125
 51
359.8263702392578
  0
ARC
  5
B4
330
1F
100
AcDbEntity
  8
0-B
  6
Continuous
 62
     2
370
     9
100
AcDbCircle
 10
16.99102335454834
 20
-493.7401146173281
 30
0.0
 40
0.6666666808678376
100
AcDbArc
 50
180.0
 51
231.7342834472656
  0
ARC
  5
B5
330
1F
100
AcDbEntity
  8
0-B
  6
Continuous
 62
     2
370
     9
100
AcDbCircle
 10
16.32445267882256
 20
-493.7401146173281
 30
0.0
 40
4.000000165849732
100
AcDbArc
 50
213.5567016601563
 51
270.0
  0
ARC
  5
B6
330
1F
100
AcDbEntity
  8
0-B
  6
Continuous
 62
     2
370
     9
100
AcDbCircle
 10
-17.00936610787769
 20
-493.7401146173281
 30
0.0
 40
4.000000165849732
100
AcDbArc
 50
270.0
 51
326.4436187744141
  0
LINE
  5
B7
330
1F
100
AcDbEntity
  8
0-4
  6
Continuous
 62
     7
370
     9
100
AcDbLine
 10
694.5564817921992
 20
-524.4069900760735
 30
0.0
 11
691.2933269866978
 21
-549.1931116104188
 31
0.0
  0
LINE
  5
B8
330
1F
100
AcDbEntity
  8
0-4
  6
Continuous
 62
     7
370
     9
100
AcDbLine
 10
694.5564817921992
 20
-524.4069900760735
 30
0.0
 11
697.8196365977005
 21
-549.1931116104188
 31
0.0
  0
LINE
  5
B9
330
1F
100
AcDbEntity
  8
0-4
  6
Continuous
 62
     7
370
     9
100
AcDbLine
 10
697.5564817921992
 20
-524.4069900760735
 30
0.0
 11
502.9906488170653
 21
-524.4069900760735
 31
0.0
  0
LINE
  5
BA
330
1F
100
AcDbEntity
  8
0-5
  6
Continuous
 62
     7
370
     9
100
AcDbLine
 10
-267.008692128932
 20
-497.739868984209
 30
0.0
 11
-282.2277258599286
 21
-477.9059588411558
 31
0.0
  0
LINE
  5
BB
330
1F
100
AcDbEntity
  8
0-5
  6
Continuous
 62
     7
370
     9
100
AcDbLine
 10
-267.008692128932
 20
-497.739868984209
 30
0.0
 11
-276.5757054312968
 21
-474.6428461801553
 31
0.0
  0
LINE
  5
BC
330
1F
100
AcDbEntity
  8
0-5
  6
Continuous
 62
     7
370
     9
100
AcDbLine
 10
-356.7754058641515
 20
-342.2594480725751
 30
0.0
 11
-577.2883321204861
 21
-342.2594480725751
 31
0.0
  0
LINE
  5
BD
330
1F
100
AcDbEntity
  8
0-5
  6
Continuous
 62
     7
370
     9
100
AcDbLine
 10
-267.008692128932
 20
-497.739868984209
 30
0.0
 11
-356.7754058641515
 21
-342.2594480725751
 31
0.0
  0
TEXT
  5
BE
330
1F
100
AcDbEntity
  8
0-5
  6
Continuous
 62
     7
370
     9
100
AcDbText
 10
-572.1532464733154
 20
-333.7069218109621
 30
0.0
 40
22.86
  1
固定プレート
 41
1.138888888888888
  7
ＭＳ ゴシック
100
AcDbText
  0
TEXT
  5
BF
330
1F
100
AcDbEntity
  8
0-5
  6
Continuous
 62
     7
370
     9
100
AcDbText
 10
-534.761369427813
 20
-375.5652031269454
 30
0.0
 40
22.86
  1
ＳＰＨＣ
 41
1.125
  7
ＭＳ ゴシック
100
AcDbText
  0
LINE
  5
C0
330
1F
100
AcDbEntity
  8
0-5
  6
Continuous
 62
     7
370
     9
100
AcDbLine
 10
376.3247016896915
 20
-524.4069900760736
 30
0.0
 11
481.034058874024
 21
-343.0452297561829
 31
0.0
  0
LINE
  5
C1
330
1F
100
AcDbEntity
  8
0-5
  6
Continuous
 62
     7
370
     9
100
AcDbLine
 10
481.034058874024
 20
-343.0452297561829
 30
0.0
 11
685.433456440536
 21
-343.0452297561829
 31
0.0
  0
LINE
  5
C2
330
1F
100
AcDbEntity
  8
0-5
  6
Continuous
 62
     7
370
     9
100
AcDbLine
 10
376.3247016896915
 20
-524.4069900760736
 30
0.0
 11
385.8917149920563
 21
-501.3100291319745
 31
0.0
  0
LINE
  5
C3
330
1F
100
AcDbEntity
  8
0-5
  6
Continuous
 62
     7
370
     9
100
AcDbLine
 10
376.3247016896915
 20
-524.4069900760736
 30
0.0
 11
391.5437354206881
 21
-504.5731417929756
 31
0.0
  0
TEXT
  5
C4
330
1F
100
AcDbEntity
  8
0-5
  6
Continuous
 62
     7
370
     9
100
AcDbText
 10
481.385885309835
 20
-378.7026528848782
 30
0.0
 40
22.86
  1
特殊発砲樹脂
 41
1.138888888888889
  7
ＭＳ ゴシック
100
AcDbText
  0
TEXT
  5
C5
330
1F
100
AcDbEntity
  8
0-5
  6
Continuous
 62
     7
370
     9
100
AcDbText
 10
523.7223523310553
 20
-334.6476008235391
 30
0.0
 40
22.86
  1
抜型本体
 41
1.125
  7
ＭＳ ゴシック
100
AcDbText
  0
LINE
  5
C6
330
1F
100
AcDbEntity
  8
0-1
  6
Continuous
 62
     4
370
     9
100
AcDbLine
 10
-13.67585210419643
 20
-624.4069900760736
 30
0.0
 11
-483.6755622461189
 21
-624.4069900760736
 31
0.0
  0
LINE
  5
C7
330
1F
100
AcDbEntity
  8
0-1
  6
Continuous
 62
     4
370
     9
100
AcDbLine
 10
-483.6755622461189
 20
-524.4069900760736
 30
0.0
 11
-483.6755622461189
 21
-624.4069900760736
 31
0.0
  0
LINE
  5
C8
330
1F
100
AcDbEntity
  8
0-1
  6
Continuous
 62
     4
370
     9
100
AcDbLine
 10
482.9906488170652
 20
-524.4069900760736
 30
0.0
 11
457.9900542537522
 21
-624.4069900760736
 31
0.0
  0
LINE
  5
C9
330
1F
100
AcDbEntity
  8
0-1
  6
Continuous
 62
     4
370
     9
100
AcDbLine
 10
457.9900542537522
 20
-624.4069900760736
 30
0.0
 11
12.9909386751428
 21
-624.4069900760736
 31
0.0
  0
LINE
  5
CA
330
1F
100
AcDbEntity
  8
0-4
  6
Continuous
 62
     7
370
     9
100
AcDbLine
 10
694.5564817921992
 20
-624.4069900760736
 30
0.0
 11
691.2933269866978
 21
-599.6208685417283
 31
0.0
  0
LINE
  5
CB
330
1F
100
AcDbEntity
  8
0-4
  6
Continuous
 62
     7
370
     9
100
AcDbLine
 10
694.5564817921992
 20
-624.4069900760736
 30
0.0
 11
697.8196365977005
 21
-599.6208685417283
 31
0.0
  0
LINE
  5
CC
330
1F
100
AcDbEntity
  8
0-4
  6
Continuous
 62
     7
370
     9
100
AcDbLine
 10
697.5564817921992
 20
-624.4069900760736
 30
0.0
 11
461.3230450211657
 21
-624.4069900760736
 31
0.0
  0
LINE
  5
CD
330
1F
100
AcDbEntity
  8
0-4
  6
Continuous
 62
     7
370
     9
100
AcDbLine
 10
694.5564817921992
 20
-624.4069900760736
 30
0.0
 11
694.5564817921992
 21
-524.4069900760735
 31
0.0
  0
TEXT
  5
CE
330
1F
100
AcDbEntity
  8
0-4
  6
Continuous
 62
     2
370
   211
100
AcDbText
 10
678.9164817921992
 20
-595.6569900760736
 30
0.0
 40
30.48
  1
30
 50
90.0
 41
1.0625
  7
ＭＳ ゴシック
100
AcDbText
  0
LINE
  5
CF
330
1F
100
AcDbEntity
  8
0-0
  6
JWW_HOJO
 62
     4
370
     9
100
AcDbLine
 10
134.2876435308073
 20
-711.0740601089267
 30
0.0
 11
124.6577121729701
 21
-711.0740601089267
 31
0.0
  0
LINE
  5
D0
330
1F
100
AcDbEntity
  8
0-8
  6
Continuous
 62
     4
370
     9
100
AcDbLine
 10
227.3862287405983
 20
-647.492862770406
 30
0.0
 11
227.9907006615996
 21
-654.4072948590931
 31
0.0
  0
LINE
  5
D1
330
1F
100
AcDbEntity
  8
0-8
  6
Continuous
 62
     4
370
     9
100
AcDbLine
 10
201.9039386764002
 20
-641.4071848072865
 30
0.0
 11
220.7449651101989
 21
-641.4071848072865
 31
0.0
  0
LINE
  5
D2
330
1F
100
AcDbEntity
  8
0-8
  6
Continuous
 62
     4
370
     9
100
AcDbLine
 10
194.6575424999502
 20
-654.4072948590931
 30
0.0
 11
227.9907006615996
 21
-654.4072948590931
 31
0.0
  0
LINE
  5
D3
330
1F
100
AcDbEntity
  8
0-8
  6
Continuous
 62
     4
370
     9
100
AcDbLine
 10
195.2626750460008
 20
-647.492862770406
 30
0.0
 11
194.6575424999502
 21
-654.4072948590931
 31
0.0
  0
LINE
  5
D4
330
1F
100
AcDbEntity
  8
0-2
  6
Continuous
 62
     4
370
     9
100
AcDbLine
 10
-190.3421849234842
 20
-961.0740675713985
 30
0.0
 11
189.6579321194799
 21
-961.0740675713985
 31
0.0
  0
LINE
  5
D5
330
1F
100
AcDbEntity
  8
0-8
  6
Continuous
 62
     4
370
     9
100
AcDbLine
 10
202.9913275091495
 20
-694.4071507155775
 30
0.0
 11
201.3245705073097
 21
-692.7403937137376
 31
0.0
  0
LINE
  5
D6
330
1F
100
AcDbEntity
  8
0-8
  6
Continuous
 62
     4
370
     9
100
AcDbLine
 10
201.3245705073097
 20
-692.7403937137376
 30
0.0
 11
221.3243332792895
 21
-692.7403937137376
 31
0.0
  0
LINE
  5
D7
330
1F
100
AcDbEntity
  8
0-8
  6
Continuous
 62
     4
370
     9
100
AcDbLine
 10
202.9913275091495
 20
-694.4071507155775
 30
0.0
 11
219.6575762774496
 21
-694.4071507155775
 31
0.0
  0
LINE
  5
D8
330
1F
100
AcDbEntity
  8
0-8
  6
Continuous
 62
     4
370
     9
100
AcDbLine
 10
221.3243332792895
 20
-692.7403937137376
 30
0.0
 11
219.6575762774496
 21
-694.4071507155775
 31
0.0
  0
LINE
  5
D9
330
1F
100
AcDbEntity
  8
0-8
  6
Continuous
 62
     4
370
     9
100
AcDbLine
 10
201.3245705073097
 20
-654.4072948590931
 30
0.0
 11
201.3245705073097
 21
-692.7403937137376
 31
0.0
  0
LINE
  5
DA
330
1F
100
AcDbEntity
  8
0-8
  6
Continuous
 62
     4
370
     9
100
AcDbLine
 10
219.6575762774496
 20
-654.4072948590931
 30
0.0
 11
219.6575762774496
 21
-694.4071507155775
 31
0.0
  0
LINE
  5
DB
330
1F
100
AcDbEntity
  8
0-8
  6
Continuous
 62
     4
370
     9
100
AcDbLine
 10
202.9913275091495
 20
-654.4072948590931
 30
0.0
 11
202.9913275091495
 21
-694.4071507155775
 31
0.0
  0
LINE
  5
DC
330
1F
100
AcDbEntity
  8
0-8
  6
Continuous
 62
     4
370
     9
100
AcDbLine
 10
221.3243332792895
 20
-654.4072948590931
 30
0.0
 11
221.3243332792895
 21
-692.7403937137376
 31
0.0
  0
LINE
  5
DD
330
1F
100
AcDbEntity
  8
0-0
  6
Continuous
 62
     3
370
     9
100
AcDbLine
 10
201.3245705073097
 20
-694.4071507155775
 30
0.0
 11
221.3243332792895
 21
-694.4071507155775
 31
0.0
  0
LINE
  5
DE
330
1F
100
AcDbEntity
  8
0-0
  6
Continuous
 62
     3
370
     9
100
AcDbLine
 10
202.9913275091495
 20
-697.7403344067327
 30
0.0
 11
219.6575762774496
 21
-697.7403344067327
 31
0.0
  0
LINE
  5
DF
330
1F
100
AcDbEntity
  8
0-0
  6
Continuous
 62
     3
370
     9
100
AcDbLine
 10
219.6575762774496
 20
-697.7403344067327
 30
0.0
 11
211.3244518932996
 21
-702.5513363353491
 31
0.0
  0
LINE
  5
E0
330
1F
100
AcDbEntity
  8
0-0
  6
Continuous
 62
     3
370
     9
100
AcDbLine
 10
-216.4256437834324
 20
-707.0733148044712
 30
0.0
 11
-237.5920703941943
 21
-707.0733148044712
 31
0.0
  0
LINE
  5
E1
330
1F
100
AcDbEntity
  8
0-0
  6
Continuous
 62
     3
370
     9
100
AcDbLine
 10
-216.4256437834324
 20
-707.0733148044712
 30
0.0
 11
-219.1427946152063
 21
-704.4070321015672
 31
0.0
  0
LINE
  5
E2
330
1F
100
AcDbEntity
  8
0-0
  6
Continuous
 62
     3
370
     9
100
AcDbLine
 10
-234.8755801874696
 20
-704.4070321015672
 30
0.0
 11
-237.5920703941943
 21
-707.0733148044712
 31
0.0
  0
LINE
  5
E3
330
1F
100
AcDbEntity
  8
0-0
  6
Continuous
 62
     3
370
     9
100
AcDbLine
 10
-219.1427946152063
 20
-704.4070321015672
 30
0.0
 11
-234.8755801874696
 21
-704.4070321015672
 31
0.0
  0
LINE
  5
E4
330
1F
100
AcDbEntity
  8
0-0
  6
Continuous
 62
     3
370
     9
100
AcDbLine
 10
-243.6757664821627
 20
-787.7402578182157
 30
0.0
 11
-263.6755292541425
 21
-787.7402578182157
 31
0.0
  0
LINE
  5
E5
330
1F
100
AcDbEntity
  8
0-0
  6
Continuous
 62
     3
370
     9
100
AcDbLine
 10
-217.0089757028234
 20
-781.0735601233807
 30
0.0
 11
-217.0089757028234
 21
-737.7405205757416
 31
0.0
  0
LINE
  5
E6
330
1F
100
AcDbEntity
  8
0-0
  6
Continuous
 62
     3
370
     9
100
AcDbLine
 10
-243.6757664821627
 20
-807.7403509027206
 30
0.0
 11
-263.6755292541425
 21
-807.7403509027206
 31
0.0
  0
LINE
  5
E7
330
1F
100
AcDbEntity
  8
0-0
  6
Continuous
 62
     3
370
     9
100
AcDbLine
 10
-237.0087384748032
 20
-781.0735601233807
 30
0.0
 11
-237.0087384748032
 21
-737.7405205757416
 31
0.0
  0
LINE
  5
E8
330
1F
100
AcDbEntity
  8
0-0
  6
Continuous
 62
     3
370
     9
100
AcDbLine
 10
-234.8755801874696
 20
-737.7405205757416
 30
0.0
 11
-234.8755801874696
 21
-701.073518097887
 31
0.0
  0
LINE
  5
E9
330
1F
100
AcDbEntity
  8
0-0
  6
Continuous
 62
     3
370
     9
100
AcDbLine
 10
-219.1427946152063
 20
-737.7405205757416
 30
0.0
 11
-219.1427946152063
 21
-701.073518097887
 31
0.0
  0
LINE
  5
EA
330
1F
100
AcDbEntity
  8
0-0
  6
Continuous
 62
     3
370
     9
100
AcDbLine
 10
-216.4256437834324
 20
-737.7405205757416
 30
0.0
 11
-216.4256437834324
 21
-707.0733148044712
 31
0.0
  0
LINE
  5
EB
330
1F
100
AcDbEntity
  8
0-0
  6
Continuous
 62
     3
370
     9
100
AcDbLine
 10
-237.5920703941943
 20
-737.7405205757416
 30
0.0
 11
-237.5920703941943
 21
-707.0733148044712
 31
0.0
  0
LINE
  5
EC
330
1F
100
AcDbEntity
  8
0-0
  6
Continuous
 62
     3
370
     9
100
AcDbLine
 10
-216.4256437834324
 20
-737.7405205757416
 30
0.0
 11
-237.5920703941943
 21
-737.7405205757416
 31
0.0
  0
LINE
  5
ED
330
1F
100
AcDbEntity
  8
0-0
  6
JWW_CENTER1
 62
     3
370
     9
100
AcDbLine
 10
-243.6757664821627
 20
-797.7404695167309
 30
0.0
 11
-266.0650100609811
 21
-797.7404695167309
 31
0.0
  0
LINE
  5
EE
330
1F
100
AcDbEntity
  8
0-0
  6
Continuous
 62
     3
370
     9
100
AcDbLine
 10
-219.1427946152063
 20
-701.073518097887
 30
0.0
 11
-234.8755801874696
 21
-701.073518097887
 31
0.0
  0
LINE
  5
EF
330
1F
100
AcDbEntity
  8
0-0
  6
Continuous
 62
     3
370
     9
100
AcDbLine
 10
-219.1427946152063
 20
-701.073518097887
 30
0.0
 11
-227.0095177138642
 21
-696.5317208772569
 31
0.0
  0
LINE
  5
F0
330
1F
100
AcDbEntity
  8
0-0
  6
Continuous
 62
     3
370
     9
100
AcDbLine
 10
-234.8755801874696
 20
-701.073518097887
 30
0.0
 11
-227.0095177138642
 21
-696.5317208772569
 31
0.0
  0
LINE
  5
F1
330
1F
100
AcDbEntity
  8
0-0
  6
Continuous
 62
     3
370
     9
100
AcDbLine
 10
-263.6755292541425
 20
-787.7402578182157
 30
0.0
 11
-263.6755292541425
 21
-807.7403509027206
 31
0.0
  0
LINE
  5
F2
330
1F
100
AcDbEntity
  8
0-0
  6
Continuous
 62
     3
370
     9
100
AcDbLine
 10
202.9913275091495
 20
-697.7403344067327
 30
0.0
 11
211.3244518932996
 21
-702.5513363353491
 31
0.0
  0
LINE
  5
F3
330
1F
100
AcDbEntity
  8
0-8
  6
JWW_CENTER1
 62
     4
370
     9
100
AcDbLine
 10
211.3244518932996
 20
-620.0164759919559
 30
0.0
 11
211.3244518932996
 21
-704.8658361989817
 31
0.0
  0
LINE
  5
F4
330
1F
100
AcDbEntity
  8
0-0
  6
Continuous
 62
     3
370
     9
100
AcDbLine
 10
221.3243332792895
 20
-676.1910755793363
 30
0.0
 11
221.3243332792895
 21
-694.4071507155775
 31
0.0
  0
LINE
  5
F5
330
1F
100
AcDbEntity
  8
0-0
  6
Continuous
 62
     3
370
     9
100
AcDbLine
 10
201.3245705073097
 20
-676.1910755793363
 30
0.0
 11
201.3245705073097
 21
-694.4071507155775
 31
0.0
  0
LINE
  5
F6
330
1F
100
AcDbEntity
  8
0-0
  6
Continuous
 62
     3
370
     9
100
AcDbLine
 10
202.9913275091495
 20
-677.8578325811761
 30
0.0
 11
202.9913275091495
 21
-697.7403344067327
 31
0.0
  0
LINE
  5
F7
330
1F
100
AcDbEntity
  8
0-0
  6
Continuous
 62
     3
370
     9
100
AcDbLine
 10
219.6575762774496
 20
-677.8578325811761
 30
0.0
 11
219.6575762774496
 21
-697.7403344067327
 31
0.0
  0
LINE
  5
F8
330
1F
100
AcDbEntity
  8
0-0
  6
Continuous
 62
     3
370
     9
100
AcDbLine
 10
332.9911067771167
 20
-654.4072948590931
 30
0.0
 11
329.6582533984878
 21
-657.7408088627728
 31
0.0
  0
LINE
  5
F9
330
1F
100
AcDbEntity
  8
0-0
  6
Continuous
 62
     3
370
     9
100
AcDbLine
 10
329.6582533984878
 20
-657.7408088627728
 30
0.0
 11
312.9920046301878
 21
-657.7408088627728
 31
0.0
  0
LINE
  5
FA
330
1F
100
AcDbEntity
  8
0-0
  6
Continuous
 62
     3
370
     9
100
AcDbLine
 10
174.1220128121975
 20
-713.7538856253616
 30
0.0
 11
171.8606932651114
 21
-725.0611439858424
 31
0.0
  0
LINE
  5
FB
330
1F
100
AcDbEntity
  8
0-0
  6
Continuous
 62
     3
370
     9
100
AcDbLine
 10
168.5919205163596
 20
-727.7409695022768
 30
0.0
 11
164.0573901712813
 21
-727.7409695022768
 31
0.0
  0
LINE
  5
FC
330
1F
100
AcDbEntity
  8
0-0
  6
Continuous
 62
     3
370
     9
100
AcDbLine
 10
233.5894979626675
 20
-656.6831481572851
 30
0.0
 11
236.3244856707989
 21
-634.4072017745881
 31
0.0
  0
LINE
  5
FD
330
1F
100
AcDbEntity
  8
0-0
  6
Continuous
 62
     3
370
     9
100
AcDbLine
 10
256.9062591120696
 20
-650.2958948587159
 30
0.0
 11
326.3247393948081
 21
-627.7405040797534
 31
0.0
  0
LINE
  5
FE
330
1F
100
AcDbEntity
  8
0-0
  6
Continuous
 62
     3
370
     9
100
AcDbLine
 10
246.3250276818397
 20
-634.4072017745881
 30
0.0
 11
248.2884053312526
 21
-645.1535894673873
 31
0.0
  0
LINE
  5
FF
330
1F
100
AcDbEntity
  8
0-0
  6
Continuous
 62
     3
370
     9
100
AcDbLine
 10
330.0229184262384
 20
-630.6604668019626
 30
0.0
 11
332.9911067771167
 21
-654.4072948590931
 31
0.0
  0
LINE
  5
100
330
1F
100
AcDbEntity
  8
0-0
  6
Continuous
 62
     3
370
     9
100
AcDbLine
 10
251.695248715512
 20
-666.0085313669458
 30
0.0
 11
284.5917337189313
 21
-655.3199483660458
 31
0.0
  0
LINE
  5
101
330
1F
100
AcDbEntity
  8
0-0
  6
Continuous
 62
     3
370
     9
100
AcDbLine
 10
118.1122391748608
 20
-884.5330583091365
 30
0.0
 11
124.2950290203706
 21
-720.6970549037362
 31
0.0
  0
LINE
  5
102
330
1F
100
AcDbEntity
  8
0-0
  6
Continuous
 62
     3
370
     9
100
AcDbLine
 10
-333.6753595811211
 20
-654.4072948590931
 30
0.0
 11
-330.3425062024914
 21
-657.7408088627728
 31
0.0
  0
LINE
  5
103
330
1F
100
AcDbEntity
  8
0-0
  6
Continuous
 62
     3
370
     9
100
AcDbLine
 10
-330.3425062024914
 20
-657.7408088627728
 30
0.0
 11
-313.6762574341921
 21
-657.7408088627728
 31
0.0
  0
LINE
  5
104
330
1F
100
AcDbEntity
  8
0-0
  6
Continuous
 62
     3
370
     9
100
AcDbLine
 10
-174.8062656162018
 20
-713.7538856253616
 30
0.0
 11
-172.5449460691157
 21
-725.0611439858424
 31
0.0
  0
LINE
  5
105
330
1F
100
AcDbEntity
  8
0-0
  6
Continuous
 62
     3
370
     9
100
AcDbLine
 10
-169.2761733203623
 20
-727.7409695022768
 30
0.0
 11
-164.7416429752855
 21
-727.7409695022768
 31
0.0
  0
LINE
  5
106
330
1F
100
AcDbEntity
  8
0-0
  6
Continuous
 62
     3
370
     9
100
AcDbLine
 10
-237.0093990998525
 20
-634.4072017745881
 30
0.0
 11
-247.0092804858424
 21
-634.4072017745881
 31
0.0
  0
LINE
  5
107
330
1F
100
AcDbEntity
  8
0-0
  6
Continuous
 62
     3
370
     9
100
AcDbLine
 10
-234.2737507666702
 20
-656.6831481572851
 30
0.0
 11
-237.0093990998525
 21
-634.4072017745881
 31
0.0
  0
LINE
  5
108
330
1F
100
AcDbEntity
  8
0-0
  6
Continuous
 62
     3
370
     9
100
AcDbLine
 10
-257.5905119160739
 20
-650.2958948587159
 30
0.0
 11
-327.0096528238617
 21
-627.7405040797534
 31
0.0
  0
LINE
  5
109
330
1F
100
AcDbEntity
  8
0-0
  6
Continuous
 62
     3
370
     9
100
AcDbLine
 10
-247.0092804858424
 20
-634.4072017745881
 30
0.0
 11
-248.9726581352553
 21
-645.1535894673873
 31
0.0
  0
LINE
  5
10A
330
1F
100
AcDbEntity
  8
0-0
  6
Continuous
 62
     3
370
     9
100
AcDbLine
 10
-257.5905119160739
 20
-650.2958948587159
 30
0.0
 11
-234.1218070051086
 21
-657.9211595014979
 31
0.0
  0
LINE
  5
10B
330
1F
100
AcDbEntity
  8
0-0
  6
Continuous
 62
     3
370
     9
100
AcDbLine
 10
-330.7071712302427
 20
-630.6604668019626
 30
0.0
 11
-333.6753595811211
 21
-654.4072948590931
 31
0.0
  0
LINE
  5
10C
330
1F
100
AcDbEntity
  8
0-0
  6
Continuous
 62
     3
370
     9
100
AcDbLine
 10
-118.797152603916
 20
-884.5330583091365
 30
0.0
 11
-124.9792818243749
 21
-720.6970549037362
 31
0.0
  0
LINE
  5
10D
330
1F
100
AcDbEntity
  8
0-0
  6
Continuous
 62
     3
370
     9
100
AcDbLine
 10
111.0283567607783
 20
-718.677193812525
 30
0.0
 11
104.6487006502877
 21
-887.7407232407393
 31
0.0
  0
LINE
  5
10E
330
1F
100
AcDbEntity
  8
0-0
  6
Continuous
 62
     3
370
     9
100
AcDbLine
 10
-111.7126095647826
 20
-718.677193812525
 30
0.0
 11
-105.332953454292
 21
-887.7407232407393
 31
0.0
  0
LINE
  5
10F
330
1F
100
AcDbEntity
  8
0-0
  6
Continuous
 62
     3
370
     9
100
AcDbLine
 10
197.9910565036299
 20
-714.1496000304753
 30
0.0
 11
224.6578472829692
 21
-714.1496000304753
 31
0.0
  0
LINE
  5
110
330
1F
100
AcDbEntity
  8
0-0
  6
Continuous
 62
     3
370
     9
100
AcDbLine
 10
236.3244856707989
 20
-634.4072017745881
 30
0.0
 11
246.3250276818397
 21
-634.4072017745881
 31
0.0
  0
LINE
  5
111
330
1F
100
AcDbEntity
  8
0-0
  6
JWW_DASHED1
 62
     3
370
     9
100
AcDbLine
 10
256.9062591120696
 20
-650.2958948587159
 30
0.0
 11
233.4375542011044
 21
-657.9211595014979
 31
0.0
  0
LINE
  5
112
330
1F
100
AcDbEntity
  8
0-0
  6
Continuous
 62
     3
370
     9
100
AcDbLine
 10
-161.4728702265321
 20
-725.0611439858424
 30
0.0
 11
-159.4797644498572
 21
-715.0936332273161
 31
0.0
  0
LINE
  5
113
330
1F
100
AcDbEntity
  8
0-0
  6
Continuous
 62
     3
370
     9
100
AcDbLine
 10
-154.5766053267278
 20
-711.0740601089267
 30
0.0
 11
-134.9718963348115
 21
-711.0740601089267
 31
0.0
  0
LINE
  5
114
330
1F
100
AcDbEntity
  8
0-0
  6
Continuous
 62
     3
370
     9
100
AcDbLine
 10
160.7886174225279
 20
-725.0611439858424
 30
0.0
 11
158.7948510208035
 21
-715.0936332273161
 31
0.0
  0
LINE
  5
115
330
1F
100
AcDbEntity
  8
0-0
  6
Continuous
 62
     3
370
     9
100
AcDbLine
 10
-199.2533562266231
 20
-693.3742634494749
 30
0.0
 11
-197.5099667189508
 21
-693.4961487712505
 31
0.0
  0
LINE
  5
116
330
1F
100
AcDbEntity
  8
0-0
  6
JWW_DASHED1
 62
     3
370
     9
100
AcDbLine
 10
-229.877291057101
 20
-691.2328473490131
 30
0.0
 11
-199.2533562266231
 21
-693.3742634494749
 31
0.0
  0
LINE
  5
117
330
1F
100
AcDbEntity
  8
0-0
  6
JWW_DASHED1
 62
     3
370
     9
100
AcDbLine
 10
-245.2573028525183
 20
-676.6379884258461
 30
0.0
 11
-245.5440141243363
 21
-674.3006969979785
 31
0.0
  0
LINE
  5
118
330
1F
100
AcDbEntity
  8
0-0
  6
JWW_DASHED1
 62
     3
370
     9
100
AcDbLine
 10
198.5691034226188
 20
-693.3742634494749
 30
0.0
 11
196.8250532898972
 21
-693.4961487712505
 31
0.0
  0
LINE
  5
119
330
1F
100
AcDbEntity
  8
0-0
  6
Continuous
 62
     3
370
     9
100
AcDbLine
 10
224.6578472829692
 20
-714.1496000304753
 30
0.0
 11
230.5572289819121
 21
-693.6140703427238
 31
0.0
  0
LINE
  5
11A
330
1F
100
AcDbEntity
  8
0-0
  6
Continuous
 62
     3
370
     9
100
AcDbLine
 10
186.9051075349909
 20
-711.0740601089267
 30
0.0
 11
177.3907855609509
 21
-711.0740601089267
 31
0.0
  0
LINE
  5
11B
330
1F
100
AcDbEntity
  8
0-0
  6
Continuous
 62
     3
370
     9
100
AcDbLine
 10
244.5723894234632
 20
-676.6379884258461
 30
0.0
 11
244.859761320332
 21
-674.3006969979785
 31
0.0
  0
LINE
  5
11C
330
1F
100
AcDbEntity
  8
0-0
  6
Continuous
 62
     3
370
     9
100
AcDbLine
 10
132.7173377863068
 20
-696.2800227331024
 30
0.0
 11
170.8763619402039
 21
-693.6120884675731
 31
0.0
  0
LINE
  5
11D
330
1F
100
AcDbEntity
  8
0-0
  6
Continuous
 62
     3
370
     9
100
AcDbLine
 10
-187.5900209640445
 20
-711.0740601089267
 30
0.0
 11
-178.0750383649552
 21
-711.0740601089267
 31
0.0
  0
LINE
  5
11E
330
1F
100
AcDbEntity
  8
0-0
  6
Continuous
 62
     3
370
     9
100
AcDbLine
 10
-184.0787988218415
 20
-681.0694612630803
 30
0.0
 11
-181.568423630802
 21
-681.2448572139285
 31
0.0
  0
LINE
  5
11F
330
1F
100
AcDbEntity
  8
0-0
  6
JWW_HOJO
 62
     3
370
     9
100
AcDbLine
 10
228.6268825850125
 20
-661.0739925539281
 30
0.0
 11
233.049767296594
 21
-661.0739925539281
 31
0.0
  0
LINE
  5
120
330
1F
100
AcDbEntity
  8
0-0
  6
Continuous
 62
     3
370
     9
100
AcDbLine
 10
184.0677229440654
 20
-681.022226571986
 30
0.0
 11
180.8841708267978
 21
-681.2448572139285
 31
0.0
  0
LINE
  5
121
330
1F
100
AcDbEntity
  8
0-0
  6
Continuous
 62
     3
370
     9
100
AcDbLine
 10
175.6084191753139
 20
-689.9542075642091
 30
0.0
 11
177.0406542843067
 21
-684.8406393625671
 31
0.0
  0
LINE
  5
122
330
1F
100
AcDbEntity
  8
0-0
  6
JWW_PHANTOM2
 62
     3
370
     9
100
AcDbLine
 10
-196.2329784967722
 20
-661.0739925539281
 30
0.0
 11
-229.3111353890167
 21
-661.0739925539281
 31
0.0
  0
LINE
  5
123
330
1F
100
AcDbEntity
  8
0-0
  6
JWW_PHANTOM2
 62
     3
370
     9
100
AcDbLine
 10
-191.303394371632
 20
-665.2385728708521
 30
0.0
 11
-189.3327498466659
 21
-676.8695375059667
 31
0.0
  0
LINE
  5
124
330
1F
100
AcDbEntity
  8
0-0
  6
JWW_HOJO
 62
     3
370
     9
100
AcDbLine
 10
-196.2329784967722
 20
-661.0739925539281
 30
0.0
 11
-192.0089419253241
 21
-661.0739925539281
 31
0.0
  0
LINE
  5
125
330
1F
100
AcDbEntity
  8
0-0
  6
Continuous
 62
     3
370
     9
100
AcDbLine
 10
190.6191415676277
 20
-665.2385728708521
 30
0.0
 11
188.6484970426616
 21
-676.8695375059667
 31
0.0
  0
LINE
  5
126
330
1F
100
AcDbEntity
  8
0-0
  6
Continuous
 62
     3
370
     9
100
AcDbLine
 10
-176.2926719793181
 20
-689.9542075642091
 30
0.0
 11
-177.724907088311
 21
-684.8406393625671
 31
0.0
  0
LINE
  5
127
330
1F
100
AcDbEntity
  8
0-0
  6
Continuous
 62
     3
370
     9
100
AcDbLine
 10
-133.4015905903111
 20
-696.2800227331024
 30
0.0
 11
-171.8268466394682
 21
-693.5932606536405
 31
0.0
  0
LINE
  5
128
330
1F
100
AcDbEntity
  8
0-0
  6
Continuous
 62
     3
370
     9
100
AcDbLine
 10
-256.4912318324185
 20
-664.6724172027677
 30
0.0
 11
-285.2766471479849
 21
-655.3199483660458
 31
0.0
  0
LINE
  5
129
330
1F
100
AcDbEntity
  8
0-0
  6
Continuous
 62
     3
370
     9
100
AcDbLine
 10
-209.8220357808976
 20
-725.0367008589822
 30
0.0
 11
-204.5125922518496
 21
-697.4179493821987
 31
0.0
  0
LINE
  5
12A
330
1F
100
AcDbEntity
  8
0-0
  6
Continuous
 62
     3
370
     9
100
AcDbLine
 10
-190.8627574630999
 20
-708.3711127157333
 30
0.0
 11
-192.9490113718631
 21
-697.5385134538735
 31
0.0
  0
LINE
  5
12B
330
1F
100
AcDbEntity
  8
0-0
  6
Continuous
 62
     3
370
     9
100
AcDbLine
 10
193.5562805411438
 20
-706.345636311595
 30
0.0
 11
197.9910565036299
 21
-714.1496000304753
 31
0.0
  0
LINE
  5
12C
330
1F
100
AcDbEntity
  8
0-0
  6
JWW_HOJO
 62
     3
370
     9
100
AcDbLine
 10
186.9051075349909
 20
-711.0740601089267
 30
0.0
 11
189.6579321194799
 21
-711.0740601089267
 31
0.0
  0
LINE
  5
12D
330
1F
100
AcDbEntity
  8
0-0
  6
JWW_HOJO
 62
     4
370
     9
100
AcDbLine
 10
124.2950290203706
 20
-720.6970549037362
 30
0.0
 11
124.6577121729701
 21
-711.0740601089267
 31
0.0
  0
LINE
  5
12E
330
1F
100
AcDbEntity
  8
0-0
  6
Continuous
 62
     3
370
     9
100
AcDbLine
 10
153.8923525227235
 20
-711.0740601089267
 30
0.0
 11
134.2876435308073
 21
-711.0740601089267
 31
0.0
  0
LINE
  5
12F
330
1F
100
AcDbEntity
  8
0-0
  6
Continuous
 62
     3
370
     9
100
AcDbLine
 10
-244.0001333818468
 20
-724.769147713622
 30
0.0
 11
-249.874411328879
 21
-670.9556220559191
 31
0.0
  0
LINE
  5
130
330
1F
100
AcDbEntity
  8
0-0
  6
JWW_DASHED1
 62
     3
370
     9
100
AcDbLine
 10
190.4705009313158
 20
-706.8539872877798
 30
0.0
 11
192.264097942808
 21
-697.5385134538735
 31
0.0
  0
LINE
  5
131
330
1F
100
AcDbEntity
  8
0-0
  6
Continuous
 62
     3
370
     9
100
AcDbLine
 10
190.1785046590956
 20
-708.3711127157333
 30
0.0
 11
190.4705009313158
 21
-706.8539872877798
 31
0.0
  0
LINE
  5
132
330
1F
100
AcDbEntity
  8
0-0
  6
JWW_DASHED1
 62
     3
370
     9
100
AcDbLine
 10
230.5572289819121
 20
-693.6140703427238
 30
0.0
 11
231.3242146652793
 21
-690.9448148270942
 31
0.0
  0
LINE
  5
133
330
1F
100
AcDbEntity
  8
0-0
  6
Continuous
 62
     3
370
     9
100
AcDbLine
 10
-254.4419729264705
 20
-665.3386575659681
 30
0.0
 11
-256.4912318324185
 21
-664.6724172027677
 31
0.0
  0
LINE
  5
134
330
1F
100
AcDbEntity
  8
0-0
  6
JWW_DASHED1
 62
     3
370
     9
100
AcDbLine
 10
-252.3795015195163
 20
-666.0085313669458
 30
0.0
 11
-254.4419729264705
 21
-665.3386575659681
 31
0.0
  0
LINE
  5
135
330
1F
100
AcDbEntity
  8
0-0
  6
Continuous
 62
     3
370
     9
100
AcDbLine
 10
-184.0787988218415
 20
-681.0694612630803
 30
0.0
 11
-184.7519757480697
 21
-681.022226571986
 31
0.0
  0
LINE
  5
136
330
1F
100
AcDbEntity
  8
0-0
  6
Continuous
 62
     3
370
     9
100
AcDbLine
 10
-184.7519757480697
 20
-681.022226571986
 30
0.0
 11
-223.4646036940956
 21
-678.3156457410157
 31
0.0
  0
LINE
  5
137
330
1F
100
AcDbEntity
  8
0-0
  6
Continuous
 62
     3
370
     9
100
AcDbLine
 10
-232.6928750213669
 20
-669.5587303871159
 30
0.0
 11
-234.2737507666702
 21
-656.6831481572851
 31
0.0
  0
LINE
  5
138
330
1F
100
AcDbEntity
  8
0-0
  6
JWW_DASHED1
 62
     3
370
     9
100
AcDbLine
 10
232.0086222173627
 20
-669.5587303871159
 30
0.0
 11
233.5894979626675
 21
-656.6831481572851
 31
0.0
  0
LINE
  5
139
330
1F
100
AcDbEntity
  8
0-0
  6
Continuous
 62
     3
370
     9
100
AcDbLine
 10
326.7151687995187
 20
-627.7405040797534
 30
0.0
 11
226.2334380278718
 21
-627.7405040797534
 31
0.0
  0
LINE
  5
13A
330
1F
100
AcDbEntity
  8
0-0
  6
Continuous
 62
     3
370
     9
100
AcDbLine
 10
195.548725692768
 20
-661.0739925539281
 30
0.0
 11
201.3245705073097
 21
-661.0739925539281
 31
0.0
  0
LINE
  5
13B
330
1F
100
AcDbEntity
  8
0-0
  6
Continuous
 62
     3
370
     9
100
AcDbLine
 10
221.3236726542386
 20
-661.0739925539281
 30
0.0
 11
228.6268825850125
 21
-661.0739925539281
 31
0.0
  0
LINE
  5
13C
330
1F
100
AcDbEntity
  8
0-0
  6
JWW_DASHED1
 62
     3
370
     9
100
AcDbLine
 10
184.0677229440654
 20
-681.022226571986
 30
0.0
 11
201.3245705073097
 21
-679.8159252301868
 31
0.0
  0
LINE
  5
13D
330
1F
100
AcDbEntity
  8
0-0
  6
JWW_DASHED1
 62
     3
370
     9
100
AcDbLine
 10
221.3243332792895
 20
-678.4173819987575
 30
0.0
 11
222.7803508900914
 21
-678.3156457410157
 31
0.0
  0
LINE
  5
13E
330
1F
100
AcDbEntity
  8
0-0
  6
JWW_DASHED1
 62
     3
370
     9
100
AcDbLine
 10
229.1930382530968
 20
-691.2328473490131
 30
0.0
 11
221.3243332792895
 21
-691.7831480158909
 31
0.0
  0
LINE
  5
13F
330
1F
100
AcDbEntity
  8
0-0
  6
JWW_DASHED1
 62
     3
370
     9
100
AcDbLine
 10
201.3245705073097
 20
-693.1816912473198
 30
0.0
 11
198.5691034226188
 21
-693.3742634494749
 31
0.0
  0
LINE
  5
140
330
1F
100
AcDbEntity
  8
0-0
  6
JWW_CENTER1
 62
     3
370
     9
100
AcDbLine
 10
-227.0095177138642
 20
-781.0735601233807
 30
0.0
 11
-227.0095177138642
 21
-695.8895933283909
 31
0.0
  0
LINE
  5
141
330
1F
100
AcDbEntity
  8
0-0
  6
Continuous
 62
     3
370
     9
100
AcDbLine
 10
-213.0954329050038
 20
-727.7406391897514
 30
0.0
 11
-216.4256437834324
 21
-727.7406391897514
 31
0.0
  0
LINE
  5
142
330
1F
100
AcDbEntity
  8
0-0
  6
Continuous
 62
     3
370
     9
100
AcDbLine
 10
-237.5920703941943
 20
-727.7406391897514
 30
0.0
 11
-240.6870987547265
 21
-727.7406391897514
 31
0.0
  0
LINE
  5
143
330
1F
100
AcDbEntity
  8
0-0
  6
JWW_HOJO
 62
     3
370
     9
100
AcDbLine
 10
-187.5900209640445
 20
-711.0740601089267
 30
0.0
 11
-190.3421849234842
 21
-711.0740601089267
 31
0.0
  0
LINE
  5
144
330
1F
100
AcDbEntity
  8
0-2
  6
Continuous
 62
     4
370
     9
100
AcDbLine
 10
-190.3421849234842
 20
-711.0740601089267
 30
0.0
 11
-187.5900209640445
 21
-711.0740601089267
 31
0.0
  0
LINE
  5
145
330
1F
100
AcDbEntity
  8
0-2
  6
Continuous
 62
     4
370
     9
100
AcDbLine
 10
189.6579321194799
 20
-711.0740601089267
 30
0.0
 11
186.9051075349909
 21
-711.0740601089267
 31
0.0
  0
LINE
  5
146
330
1F
100
AcDbEntity
  8
0-2
  6
Continuous
 62
     4
370
     9
100
AcDbLine
 10
177.9912937316502
 20
-711.0740601089267
 30
0.0
 11
177.9912937316502
 21
-961.0740675713985
 31
0.0
  0
LINE
  5
147
330
1F
100
AcDbEntity
  8
0-2
  6
Continuous
 62
     4
370
     9
100
AcDbLine
 10
189.6579321194799
 20
-711.0740601089267
 30
0.0
 11
189.6579321194799
 21
-961.0740675713985
 31
0.0
  0
LINE
  5
148
330
1F
100
AcDbEntity
  8
0-2
  6
Continuous
 62
     4
370
     9
100
AcDbLine
 10
-190.3421849234842
 20
-711.0740601089267
 30
0.0
 11
-190.3421849234842
 21
-961.0740675713985
 31
0.0
  0
LINE
  5
149
330
1F
100
AcDbEntity
  8
0-2
  6
Continuous
 62
     4
370
     9
100
AcDbLine
 10
-178.6755465356544
 20
-711.0740601089267
 30
0.0
 11
-178.6755465356544
 21
-961.0740675713985
 31
0.0
  0
LINE
  5
14A
330
1F
100
AcDbEntity
  8
0-8
  6
Continuous
 62
     6
370
     9
100
AcDbLine
 10
12.99093867514282
 20
-363.3283005205162
 30
0.0
 11
-13.67585210419643
 21
-363.3283005205162
 31
0.0
  0
LINE
  5
14B
330
1F
100
AcDbEntity
  8
0-8
  6
Continuous
 62
     6
370
     9
100
AcDbLine
 10
-13.67585210419643
 20
-363.3283005205162
 30
0.0
 11
-11.42047818256335
 21
-361.0732569114078
 31
0.0
  0
LINE
  5
14C
330
1F
100
AcDbEntity
  8
0-8
  6
Continuous
 62
     6
370
     9
100
AcDbLine
 10
-11.42047818256335
 20
-361.0732569114078
 30
0.0
 11
10.73556475350822
 21
-361.0732569114078
 31
0.0
  0
LINE
  5
14D
330
1F
100
AcDbEntity
  8
0-8
  6
Continuous
 62
     6
370
     9
100
AcDbLine
 10
10.73556475350822
 20
-361.0732569114078
 30
0.0
 11
12.99093867514282
 21
-363.3283005205162
 31
0.0
  0
LINE
  5
14E
330
1F
100
AcDbEntity
  8
0-C
  6
Continuous
 62
     2
370
     9
100
AcDbLine
 10
166.3239947187695
 20
-675.0732979942734
 30
0.0
 11
166.3239947187695
 21
-671.073213314867
 31
0.0
  0
LINE
  5
14F
330
1F
100
AcDbEntity
  8
0-C
  6
Continuous
 62
     2
370
     9
100
AcDbLine
 10
-167.0089081478247
 20
-671.073213314867
 30
0.0
 11
-167.0089081478247
 21
-675.0732979942734
 31
0.0
  0
LINE
  5
150
330
1F
100
AcDbEntity
  8
0-C
  6
Continuous
 62
     2
370
     9
100
AcDbLine
 10
16.32445267882256
 20
-671.073213314867
 30
0.0
 11
166.3239947187695
 21
-671.073213314867
 31
0.0
  0
LINE
  5
151
330
1F
100
AcDbEntity
  8
0-C
  6
Continuous
 62
     2
370
     9
100
AcDbLine
 10
14.65769567698269
 20
-669.4064563130271
 30
0.0
 11
14.65769567698269
 21
-661.0733319288781
 31
0.0
  0
LINE
  5
152
330
1F
100
AcDbEntity
  8
0-C
  6
Continuous
 62
     2
370
     9
100
AcDbLine
 10
-15.3426091060363
 20
-669.4064563130271
 30
0.0
 11
-15.3426091060363
 21
-661.0733319288781
 31
0.0
  0
LINE
  5
153
330
1F
100
AcDbEntity
  8
0-C
  6
Continuous
 62
     2
370
     9
100
AcDbLine
 10
-17.00936610787769
 20
-671.073213314867
 30
0.0
 11
-167.0089081478247
 21
-671.073213314867
 31
0.0
  0
LINE
  5
154
330
1F
100
AcDbEntity
  8
0-C
  6
Continuous
 62
     2
370
     9
100
AcDbLine
 10
-67.00877303782562
 20
-708.4067864684482
 30
0.0
 11
-67.00877303782562
 21
-675.0732979942734
 31
0.0
  0
LINE
  5
155
330
1F
100
AcDbEntity
  8
0-C
  6
Continuous
 62
     2
370
     9
100
AcDbLine
 10
-104.6947896557266
 20
-715.0734841632832
 30
0.0
 11
-73.6758010451866
 21
-715.0734841632832
 31
0.0
  0
LINE
  5
156
330
1F
100
AcDbEntity
  8
0-C
  6
Continuous
 62
     2
370
     9
100
AcDbLine
 10
-111.2706514061503
 20
-709.5027634268515
 30
0.0
 11
-117.0095012178752
 21
-675.0732979942734
 31
0.0
  0
LINE
  5
157
330
1F
100
AcDbEntity
  8
0-C
  6
Continuous
 62
     2
370
     9
100
AcDbLine
 10
66.32452023382132
 20
-708.4067864684482
 30
0.0
 11
66.32452023382132
 21
-675.0732979942734
 31
0.0
  0
LINE
  5
158
330
1F
100
AcDbEntity
  8
0-C
  6
Continuous
 62
     2
370
     9
100
AcDbLine
 10
104.009876226673
 20
-715.0734841632832
 30
0.0
 11
72.99088761613147
 21
-715.0734841632832
 31
0.0
  0
LINE
  5
159
330
1F
100
AcDbEntity
  8
0-C
  6
Continuous
 62
     2
370
     9
100
AcDbLine
 10
110.5857379770952
 20
-709.5027634268515
 30
0.0
 11
116.3239271637708
 21
-675.0732979942734
 31
0.0
  0
LINE
  5
15A
330
1F
100
AcDbEntity
  8
0-C
  6
Continuous
 62
     2
370
     9
100
AcDbLine
 10
12.99093867514282
 20
-661.0733319288781
 30
0.0
 11
12.99093867514282
 21
-673.9888819742498
 31
0.0
  0
LINE
  5
15B
330
1F
100
AcDbEntity
  8
0-C
  6
Continuous
 62
     2
370
     9
100
AcDbLine
 10
-13.67585210419643
 20
-661.0733319288781
 30
0.0
 11
-13.67585210419643
 21
-673.9892122867743
 31
0.0
  0
LINE
  5
15C
330
1F
100
AcDbEntity
  8
0-C
  6
Continuous
 62
     2
370
     9
100
AcDbLine
 10
166.3239947187695
 20
-675.0732979942734
 30
0.0
 11
12.99093867514282
 21
-675.0732979942734
 31
0.0
  0
LINE
  5
15D
330
1F
100
AcDbEntity
  8
0-C
  6
Continuous
 62
     2
370
     9
100
AcDbLine
 10
-13.67585210419643
 20
-675.0732979942734
 30
0.0
 11
-167.0089081478247
 21
-675.0732979942734
 31
0.0
  0
LINE
  5
15E
330
1F
100
AcDbEntity
  8
0-C
  6
Continuous
 62
     2
370
     9
100
AcDbLine
 10
-11.42047818256335
 20
-661.0733319288781
 30
0.0
 11
-15.3426091060363
 21
-661.0733319288781
 31
0.0
  0
LINE
  5
15F
330
1F
100
AcDbEntity
  8
0-C
  6
Continuous
 62
     2
370
     9
100
AcDbLine
 10
14.65769567698269
 20
-661.0733319288781
 30
0.0
 11
10.73556475350822
 21
-661.0733319288781
 31
0.0
  0
LINE
  5
160
330
1F
100
AcDbEntity
  8
0-9
  6
Continuous
 62
     3
370
     9
100
AcDbLine
 10
174.6571191029196
 20
-961.0740675713985
 30
0.0
 11
174.6571191029196
 21
-936.0743641064234
 31
0.0
  0
LINE
  5
161
330
1F
100
AcDbEntity
  8
0-9
  6
Continuous
 62
     3
370
     9
100
AcDbLine
 10
174.6571191029196
 20
-961.0740675713985
 30
0.0
 11
172.6567464506914
 21
-961.0740675713985
 31
0.0
  0
LINE
  5
162
330
1F
100
AcDbEntity
  8
0-9
  6
Continuous
 62
     3
370
     9
100
AcDbLine
 10
172.6567464506914
 20
-961.0740675713985
 30
0.0
 11
172.6567464506914
 21
-938.0740761336017
 31
0.0
  0
LINE
  5
163
330
1F
100
AcDbEntity
  8
0-9
  6
Continuous
 62
     3
370
     9
100
AcDbLine
 10
-173.3429811298467
 20
-961.0740675713985
 30
0.0
 11
-175.3433537820748
 21
-961.0740675713985
 31
0.0
  0
LINE
  5
164
330
1F
100
AcDbEntity
  8
0-9
  6
Continuous
 62
     3
370
     9
100
AcDbLine
 10
-175.3433537820748
 20
-961.0740675713985
 30
0.0
 11
-175.3433537820748
 21
-936.0743641064234
 31
0.0
  0
LINE
  5
165
330
1F
100
AcDbEntity
  8
0-9
  6
Continuous
 62
     3
370
     9
100
AcDbLine
 10
-173.3429811298467
 20
-961.0740675713985
 30
0.0
 11
-173.3429811298467
 21
-938.0740761336017
 31
0.0
  0
LINE
  5
166
330
1F
100
AcDbEntity
  8
0-9
  6
Continuous
 62
     3
370
     9
100
AcDbLine
 10
98.50224518254235
 20
-939.0742624597158
 30
0.0
 11
100.2344040643594
 21
-936.0743641064234
 31
0.0
  0
LINE
  5
167
330
1F
100
AcDbEntity
  8
0-9
  6
Continuous
 62
     3
370
     9
100
AcDbLine
 10
99.6570177704214
 20
-941.0739744868931
 30
0.0
 11
101.3891766522385
 21
-938.0740761336017
 31
0.0
  0
LINE
  5
168
330
1F
100
AcDbEntity
  8
0-9
  6
Continuous
 62
     3
370
     9
100
AcDbLine
 10
-100.3432524495752
 20
-941.0739744868931
 30
0.0
 11
-102.0754113313922
 21
-938.0740761336017
 31
0.0
  0
LINE
  5
169
330
1F
100
AcDbEntity
  8
0-9
  6
Continuous
 62
     3
370
     9
100
AcDbLine
 10
-99.18847986169766
 20
-939.0742624597158
 30
0.0
 11
-100.9206387435147
 21
-936.0743641064234
 31
0.0
  0
LINE
  5
16A
330
1F
100
AcDbEntity
  8
0-9
  6
Continuous
 62
     2
370
     9
100
AcDbLine
 10
19.65664543240214
 20
-961.0740675713985
 30
0.0
 11
-20.34288011155743
 21
-961.0740675713985
 31
0.0
  0
LINE
  5
16B
330
1F
100
AcDbEntity
  8
0-9
  6
Continuous
 62
     2
370
     9
100
AcDbLine
 10
-20.34288011155743
 20
-961.0740675713985
 30
0.0
 11
-20.34354073660675
 21
-945.768376094137
 31
0.0
  0
LINE
  5
16C
330
1F
100
AcDbEntity
  8
0-9
  6
Continuous
 62
     2
370
     9
100
AcDbLine
 10
-16.84222797015735
 20
-948.6269006866703
 30
0.0
 11
-22.0096371133973
 21
-944.4074884905738
 31
0.0
  0
LINE
  5
16D
330
1F
100
AcDbEntity
  8
0-9
  6
Continuous
 62
     2
370
     9
100
AcDbLine
 10
-16.84222797015735
 20
-948.6269006866703
 30
0.0
 11
-12.3618688792026
 21
-948.6269006866703
 31
0.0
  0
LINE
  5
16E
330
1F
100
AcDbEntity
  8
0-9
  6
Continuous
 62
     2
370
     9
100
AcDbLine
 10
-12.3618688792026
 20
-948.6269006866703
 30
0.0
 11
-12.3618688792026
 21
-941.0739744868931
 31
0.0
  0
LINE
  5
16F
330
1F
100
AcDbEntity
  8
0-9
  6
Continuous
 62
     2
370
     9
100
AcDbLine
 10
-22.0096371133973
 20
-944.4074884905738
 30
0.0
 11
-22.0096371133973
 21
-941.0739744868931
 31
0.0
  0
LINE
  5
170
330
1F
100
AcDbEntity
  8
0-9
  6
Continuous
 62
     2
370
     9
100
AcDbLine
 10
19.65664543240214
 20
-961.0740675713985
 30
0.0
 11
19.65664543240214
 21
-945.768376094137
 31
0.0
  0
LINE
  5
171
330
1F
100
AcDbEntity
  8
0-9
  6
Continuous
 62
     2
370
     9
100
AcDbLine
 10
16.15599329100358
 20
-948.6269006866703
 30
0.0
 11
21.32340243424201
 21
-944.4074884905738
 31
0.0
  0
LINE
  5
172
330
1F
100
AcDbEntity
  8
0-9
  6
Continuous
 62
     2
370
     9
100
AcDbLine
 10
16.15599329100358
 20
-948.6269006866703
 30
0.0
 11
11.67497357499798
 21
-948.6269006866703
 31
0.0
  0
LINE
  5
173
330
1F
100
AcDbEntity
  8
0-9
  6
Continuous
 62
     2
370
     9
100
AcDbLine
 10
11.67497357499798
 20
-948.6269006866703
 30
0.0
 11
11.67497357499798
 21
-941.0739744868931
 31
0.0
  0
LINE
  5
174
330
1F
100
AcDbEntity
  8
0-9
  6
Continuous
 62
     2
370
     9
100
AcDbLine
 10
21.32340243424201
 20
-944.4074884905738
 30
0.0
 11
21.32340243424201
 21
-941.0739744868931
 31
0.0
  0
LINE
  5
175
330
1F
100
AcDbEntity
  8
0-9
  6
Continuous
 62
     3
370
     9
100
AcDbLine
 10
-15.34326973108714
 20
-941.0739744868931
 30
0.0
 11
-15.34326973108714
 21
-939.0742624597158
 31
0.0
  0
LINE
  5
176
330
1F
100
AcDbEntity
  8
0-9
  6
Continuous
 62
     3
370
     9
100
AcDbLine
 10
14.65703505193185
 20
-941.0739744868931
 30
0.0
 11
14.65703505193185
 21
-939.0742624597158
 31
0.0
  0
LINE
  5
177
330
1F
100
AcDbEntity
  8
0-9
  6
Continuous
 62
     3
370
     9
100
AcDbLine
 10
-13.67651272924727
 20
-939.0742624597158
 30
0.0
 11
-99.18847986169766
 21
-939.0742624597158
 31
0.0
  0
LINE
  5
178
330
1F
100
AcDbEntity
  8
0-9
  6
Continuous
 62
     3
370
     9
100
AcDbLine
 10
98.50224518254235
 20
-939.0742624597158
 30
0.0
 11
12.99027805009198
 21
-939.0742624597158
 31
0.0
  0
LINE
  5
179
330
1F
100
AcDbEntity
  8
0-9
  6
Continuous
 62
     3
370
     9
100
AcDbLine
 10
-137.0099246149058
 20
-938.0740761336017
 30
0.0
 11
-137.0099246149058
 21
-936.0743641064234
 31
0.0
  0
LINE
  5
17A
330
1F
100
AcDbEntity
  8
0-9
  6
Continuous
 62
     3
370
     9
100
AcDbLine
 10
-123.6765292252347
 20
-938.0740761336017
 30
0.0
 11
-123.6765292252347
 21
-936.0743641064234
 31
0.0
  0
LINE
  5
17B
330
1F
100
AcDbEntity
  8
0-9
  6
Continuous
 62
     3
370
     9
100
AcDbLine
 10
136.3236899357505
 20
-938.0740761336017
 30
0.0
 11
136.3236899357505
 21
-936.0743641064234
 31
0.0
  0
LINE
  5
17C
330
1F
100
AcDbEntity
  8
0-9
  6
Continuous
 62
     3
370
     9
100
AcDbLine
 10
122.9902945460809
 20
-938.0740761336017
 30
0.0
 11
122.9902945460809
 21
-936.0743641064234
 31
0.0
  0
LINE
  5
17D
330
1F
100
AcDbEntity
  8
0-9
  6
Continuous
 62
     3
370
     9
100
AcDbLine
 10
172.6567464506914
 20
-938.0740761336017
 30
0.0
 11
101.3891766522385
 21
-938.0740761336017
 31
0.0
  0
LINE
  5
17E
330
1F
100
AcDbEntity
  8
0-9
  6
Continuous
 62
     3
370
     9
100
AcDbLine
 10
174.6571191029196
 20
-936.0743641064234
 30
0.0
 11
12.99027805009198
 21
-936.0743641064234
 31
0.0
  0
LINE
  5
17F
330
1F
100
AcDbEntity
  8
0-9
  6
Continuous
 62
     3
370
     9
100
AcDbLine
 10
-102.0754113313922
 20
-938.0740761336017
 30
0.0
 11
-173.3429811298467
 21
-938.0740761336017
 31
0.0
  0
LINE
  5
180
330
1F
100
AcDbEntity
  8
0-9
  6
Continuous
 62
     3
370
     9
100
AcDbLine
 10
-13.67651272924727
 20
-936.0743641064234
 30
0.0
 11
-175.3433537820748
 21
-936.0743641064234
 31
0.0
  0
LINE
  5
181
330
1F
100
AcDbEntity
  8
0-9
  6
Continuous
 62
     3
370
     9
100
AcDbLine
 10
99.6570177704214
 20
-941.0739744868931
 30
0.0
 11
-100.3432524495752
 21
-941.0739744868931
 31
0.0
  0
LINE
  5
182
330
1F
100
AcDbEntity
  8
0-9
  6
Continuous
 62
     2
370
     9
100
AcDbLine
 10
-22.0096371133973
 20
-941.0739744868931
 30
0.0
 11
21.32340243424201
 21
-941.0739744868931
 31
0.0
  0
LINE
  5
183
330
1F
100
AcDbEntity
  8
0-3
  6
Continuous
 62
     6
370
     9
100
AcDbLine
 10
-334.5097290196165
 20
-651.0741111679383
 30
0.0
 11
-331.1762150159367
 21
-627.7405040797534
 31
0.0
  0
LINE
  5
184
330
1F
100
AcDbEntity
  8
0-3
  6
Continuous
 62
     6
370
     9
100
AcDbLine
 10
-352.8433954148065
 20
-651.0741111679383
 30
0.0
 11
-334.5097290196165
 21
-651.0741111679383
 31
0.0
  0
LINE
  5
185
330
1F
100
AcDbEntity
  8
0-3
  6
Continuous
 62
     6
370
     9
100
AcDbLine
 10
352.1578213607028
 20
-651.0741111679383
 30
0.0
 11
333.824154965512
 21
-651.0741111679383
 31
0.0
  0
LINE
  5
186
330
1F
100
AcDbEntity
  8
0-3
  6
Continuous
 62
     6
370
     9
100
AcDbLine
 10
333.824154965512
 20
-651.0741111679383
 30
0.0
 11
330.4906409618323
 21
-627.7405040797534
 31
0.0
  0
LINE
  5
187
330
1F
100
AcDbEntity
  8
0-3
  6
Continuous
 62
     6
370
     9
100
AcDbLine
 10
-361.1758591739064
 20
-624.4069900760736
 30
0.0
 11
-352.8433954148065
 21
-651.0741111679383
 31
0.0
  0
LINE
  5
188
330
1F
100
AcDbEntity
  8
0-3
  6
Continuous
 62
     6
370
     9
100
AcDbLine
 10
360.4909457448513
 20
-624.4069900760736
 30
0.0
 11
352.1578213607028
 21
-651.0741111679383
 31
0.0
  0
LINE
  5
189
330
1F
100
AcDbEntity
  8
0-3
  6
Continuous
 62
     6
370
     9
100
AcDbLine
 10
-14.00880712953542
 20
-624.4069900760736
 30
0.0
 11
-14.00880712953542
 21
-627.7405040797534
 31
0.0
  0
LINE
  5
18A
330
1F
100
AcDbEntity
  8
0-3
  6
Continuous
 62
     6
370
     9
100
AcDbLine
 10
13.32389370048029
 20
-624.4069900760736
 30
0.0
 11
13.32389370048029
 21
-627.7405040797534
 31
0.0
  0
LINE
  5
18B
330
1F
100
AcDbEntity
  8
0-0
  6
JWW_CENTER1
 62
     3
370
     9
100
AcDbLine
 10
-0.3424567145268043
 20
-331.0442149387014
 30
0.0
 11
-0.3424567145268043
 21
-971.4541386738199
 31
0.0
  0
LINE
  5
18C
330
1F
100
AcDbEntity
  8
0-0
  6
Continuous
 62
     3
370
     9
100
AcDbLine
 10
-115.4656204753857
 20
-887.7407232407393
 30
0.0
 11
-13.67585210419643
 21
-887.7407232407393
 31
0.0
  0
LINE
  5
18D
330
1F
100
AcDbEntity
  8
0-0
  6
Continuous
 62
     3
370
     9
100
AcDbLine
 10
114.7813676713829
 20
-887.7407232407393
 30
0.0
 11
12.99093867514282
 21
-887.7407232407393
 31
0.0
  0
LINE
  5
18E
330
1F
100
AcDbEntity
  8
0-0
  6
Continuous
 62
     3
370
     9
100
AcDbLine
 10
-13.67585210419643
 20
-634.4072017745881
 30
0.0
 11
-237.0093990998525
 21
-634.4072017745881
 31
0.0
  0
LINE
  5
18F
330
1F
100
AcDbEntity
  8
0-0
  6
Continuous
 62
     3
370
     9
100
AcDbLine
 10
-327.4000822285739
 20
-627.7405040797534
 30
0.0
 11
-13.67585210419643
 21
-627.7405040797534
 31
0.0
  0
LINE
  5
190
330
1F
100
AcDbEntity
  8
0-3
  6
Continuous
 62
     6
370
     9
100
AcDbLine
 10
-13.67585210419643
 20
-627.7405040797534
 30
0.0
 11
-331.1762150159367
 21
-627.7405040797534
 31
0.0
  0
LINE
  5
191
330
1F
100
AcDbEntity
  8
0-0
  6
Continuous
 62
     3
370
     9
100
AcDbLine
 10
12.99093867514282
 20
-627.7405040797534
 30
0.0
 11
196.4148051336765
 21
-627.7405040797534
 31
0.0
  0
LINE
  5
192
330
1F
100
AcDbEntity
  8
0-3
  6
Continuous
 62
     6
370
     9
100
AcDbLine
 10
330.4906409618323
 20
-627.7405040797534
 30
0.0
 11
12.99093867514282
 21
-627.7405040797534
 31
0.0
  0
LINE
  5
193
330
1F
100
AcDbEntity
  8
0-3
  6
Continuous
 62
     6
370
     9
100
AcDbLine
 10
360.4909457448513
 20
-624.4069900760736
 30
0.0
 11
12.99093867514282
 21
-624.4069900760736
 31
0.0
  0
LINE
  5
194
330
1F
100
AcDbEntity
  8
0-3
  6
Continuous
 62
     6
370
     9
100
AcDbLine
 10
-13.67585210419643
 20
-624.4069900760736
 30
0.0
 11
-361.1758591739064
 21
-624.4069900760736
 31
0.0
  0
LINE
  5
195
330
1F
100
AcDbEntity
  8
0-0
  6
Continuous
 62
     3
370
     9
100
AcDbLine
 10
236.3244856707989
 20
-634.4072017745881
 30
0.0
 11
12.99093867514282
 21
-634.4072017745881
 31
0.0
  0
LINE
  5
196
330
1F
100
AcDbEntity
  8
0-0
  6
Continuous
 62
     3
370
     9
100
AcDbLine
 10
-67.00877303782562
 20
-697.741985969358
 30
0.0
 11
-13.67585210419643
 21
-697.741985969358
 31
0.0
  0
LINE
  5
197
330
1F
100
AcDbEntity
  8
0-0
  6
Continuous
 62
     3
370
     9
100
AcDbLine
 10
66.32452023382132
 20
-697.741985969358
 30
0.0
 11
12.99093867514282
 21
-697.741985969358
 31
0.0
  0
LINE
  5
198
330
1F
100
AcDbEntity
  8
0-8
  6
Continuous
 62
     6
370
     9
100
AcDbLine
 10
-11.42047818256335
 20
-361.0732569114078
 30
0.0
 11
-11.42047818256335
 21
-941.0739744868931
 31
0.0
  0
LINE
  5
199
330
1F
100
AcDbEntity
  8
0-8
  6
Continuous
 62
     6
370
     9
100
AcDbLine
 10
-13.67585210419643
 20
-363.3283005205162
 30
0.0
 11
-13.67585210419643
 21
-941.0739744868931
 31
0.0
  0
LINE
  5
19A
330
1F
100
AcDbEntity
  8
0-8
  6
Continuous
 62
     6
370
     9
100
AcDbLine
 10
10.73556475350822
 20
-361.0732569114078
 30
0.0
 11
10.73556475350822
 21
-941.0739744868931
 31
0.0
  0
LINE
  5
19B
330
1F
100
AcDbEntity
  8
0-8
  6
Continuous
 62
     6
370
     9
100
AcDbLine
 10
12.99093867514282
 20
-363.3283005205162
 30
0.0
 11
12.99093867514282
 21
-941.0739744868931
 31
0.0
  0
ARC
  5
19C
330
1F
100
AcDbEntity
  8
0-8
  6
Continuous
 62
     4
370
     9
100
AcDbCircle
 10
220.7449651101989
 20
-648.0738825021215
 30
0.0
 40
6.666666728035669
100
AcDbArc
 50
5.000015258789053
 51
89.99999999999999
  0
ARC
  5
19D
330
1F
100
AcDbEntity
  8
0-8
  6
Continuous
 62
     4
370
     9
100
AcDbCircle
 10
201.9039386764002
 20
-648.0738825021215
 30
0.0
 40
6.666666728035669
100
AcDbArc
 50
90.0
 51
174.9999847412109
  0
ARC
  5
19E
330
1F
100
AcDbEntity
  8
0-0
  6
Continuous
 62
     3
370
     9
100
AcDbCircle
 10
-243.6757664821627
 20
-781.0735601233807
 30
0.0
 40
6.666666728035669
100
AcDbArc
 50
270.0
 51
0.0
  0
ARC
  5
19F
330
1F
100
AcDbEntity
  8
0-0
  6
Continuous
 62
     3
370
     9
100
AcDbCircle
 10
-243.6757664821627
 20
-781.0735601233807
 30
0.0
 40
26.66666691214268
100
AcDbArc
 50
270.0
 51
0.0
  0
ARC
  5
1A0
330
1F
100
AcDbEntity
  8
0-0
  6
JWW_CENTER1
 62
     3
370
     9
100
AcDbCircle
 10
-243.6757664821627
 20
-781.0735601233807
 30
0.0
 40
16.66666682008918
100
AcDbArc
 50
270.0
 51
0.0
  0
ARC
  5
1A1
330
1F
100
AcDbEntity
  8
0-0
  6
Continuous
 62
     3
370
     9
100
AcDbCircle
 10
295.9227745812218
 20
-690.1920325823073
 30
0.0
 40
36.66667216532939
100
AcDbArc
 50
62.25653076171876
 51
107.9999237060547
  0
ARC
  5
1A2
330
1F
100
AcDbEntity
  8
0-0
  6
Continuous
 62
     3
370
     9
100
AcDbCircle
 10
326.7151687995187
 20
-631.0740180834338
 30
0.0
 40
3.333333364017835
100
AcDbArc
 50
7.124267578125002
 51
90.0
  0
ARC
  5
1A3
330
1F
100
AcDbEntity
  8
0-0
  6
Continuous
 62
     3
370
     9
100
AcDbCircle
 10
177.3907855609509
 20
-714.4075741126073
 30
0.0
 40
3.333333364017835
100
AcDbArc
 50
90.0
 51
168.6906585693359
  0
ARC
  5
1A4
330
1F
100
AcDbEntity
  8
0-0
  6
Continuous
 62
     3
370
     9
100
AcDbCircle
 10
168.5919205163596
 20
-724.4074554985971
 30
0.0
 40
3.333333364017835
100
AcDbArc
 50
270.0
 51
348.6908569335938
  0
ARC
  5
1A5
330
1F
100
AcDbEntity
  8
0-0
  6
Continuous
 62
     3
370
     9
100
AcDbCircle
 10
164.0573901712813
 20
-724.4074554985971
 30
0.0
 40
3.333333364017835
100
AcDbArc
 50
191.3091430664063
 51
270.0
  0
ARC
  5
1A6
330
1F
100
AcDbEntity
  8
0-0
  6
Continuous
 62
     3
370
     9
100
AcDbCircle
 10
-240.6870987547265
 20
-724.4074554985971
 30
0.0
 40
3.333333364017835
100
AcDbArc
 50
186.2380065917969
 51
270.2526550292969
  0
ARC
  5
1A7
330
1F
100
AcDbEntity
  8
0-0
  6
Continuous
 62
     3
370
     9
100
AcDbCircle
 10
228.6268825850125
 20
-656.074051860933
 30
0.0
 40
5.000000368597577
100
AcDbArc
 50
270.0
 51
353.0004119873047
  0
ARC
  5
1A8
330
1F
100
AcDbEntity
  8
0-0
  6
Continuous
 62
     3
370
     9
100
AcDbCircle
 10
254.8464302053172
 20
-643.9555459387159
 30
0.0
 40
6.666666728035669
100
AcDbArc
 50
190.3539428710938
 51
287.9999389648438
  0
ARC
  5
1A9
330
1F
100
AcDbEntity
  8
0-0
  6
Continuous
 62
     3
370
     9
100
AcDbCircle
 10
114.7813676713829
 20
-884.407539549584
 30
0.0
 40
3.333333364017835
100
AcDbArc
 50
270.0
 51
357.8380126953125
  0
ARC
  5
1AA
330
1F
100
AcDbEntity
  8
0-0
  6
Continuous
 62
     3
370
     9
100
AcDbCircle
 10
254.7849920756421
 20
-675.5192199032078
 30
0.0
 40
10.0000000920535
100
AcDbArc
 50
107.999984741211
 51
172.9995880126953
  0
ARC
  5
1AB
330
1F
100
AcDbEntity
  8
0-0
  6
Continuous
 62
     3
370
     9
100
AcDbCircle
 10
134.2876435308073
 20
-721.0739414949169
 30
0.0
 40
10.0000000920535
100
AcDbArc
 50
90.0
 51
177.8386993408203
  0
ARC
  5
1AC
330
1F
100
AcDbEntity
  8
0-0
  6
Continuous
 62
     3
370
     9
100
AcDbCircle
 10
-296.607027385226
 20
-690.1920325823073
 30
0.0
 40
36.66667216532939
100
AcDbArc
 50
72.00007629394531
 51
117.7434692382813
  0
ARC
  5
1AD
330
1F
100
AcDbEntity
  8
0-0
  6
Continuous
 62
     3
370
     9
100
AcDbCircle
 10
-327.4000822285739
 20
-631.0740180834338
 30
0.0
 40
3.333333364017835
100
AcDbArc
 50
90.0
 51
172.875732421875
  0
ARC
  5
1AE
330
1F
100
AcDbEntity
  8
0-0
  6
Continuous
 62
     3
370
     9
100
AcDbCircle
 10
-178.0750383649552
 20
-714.4075741126073
 30
0.0
 40
3.333333364017835
100
AcDbArc
 50
11.30934143066407
 51
90.00000000000001
  0
ARC
  5
1AF
330
1F
100
AcDbEntity
  8
0-0
  6
Continuous
 62
     3
370
     9
100
AcDbCircle
 10
-169.2761733203623
 20
-724.4074554985971
 30
0.0
 40
3.333333364017835
100
AcDbArc
 50
191.3091430664063
 51
270.0
  0
ARC
  5
1B0
330
1F
100
AcDbEntity
  8
0-0
  6
Continuous
 62
     3
370
     9
100
AcDbCircle
 10
-164.7416429752855
 20
-724.4074554985971
 30
0.0
 40
3.333333364017835
100
AcDbArc
 50
270.0
 51
348.6908569335938
  0
ARC
  5
1B1
330
1F
100
AcDbEntity
  8
0-0
  6
Continuous
 62
     3
370
     9
100
AcDbCircle
 10
-255.5306830093215
 20
-643.9555459387159
 30
0.0
 40
6.666666728035669
100
AcDbArc
 50
252.0000610351562
 51
349.6460571289062
  0
ARC
  5
1B2
330
1F
100
AcDbEntity
  8
0-0
  6
Continuous
 62
     3
370
     9
100
AcDbCircle
 10
-115.4656204753857
 20
-884.407539549584
 30
0.0
 40
3.333333364017835
100
AcDbArc
 50
182.1619873046875
 51
270.0
  0
ARC
  5
1B3
330
1F
100
AcDbEntity
  8
0-0
  6
JWW_DASHED1
 62
     3
370
     9
100
AcDbCircle
 10
-255.4692448796448
 20
-675.5192199032078
 30
0.0
 40
10.0000000920535
100
AcDbArc
 50
7.000411987304687
 51
72.00001525878908
  0
ARC
  5
1B4
330
1F
100
AcDbEntity
  8
0-0
  6
Continuous
 62
     3
370
     9
100
AcDbCircle
 10
-134.9718963348115
 20
-721.0739414949169
 30
0.0
 40
10.0000000920535
100
AcDbArc
 50
2.161285400390625
 51
90.0
  0
ARC
  5
1B5
330
1F
100
AcDbEntity
  8
0-0
  6
Continuous
 62
     3
370
     9
100
AcDbCircle
 10
134.3451179101819
 20
-719.5568160669634
 30
0.0
 40
23.33333096755824
100
AcDbArc
 50
94.00004577636719
 51
177.8388824462891
  0
ARC
  5
1B6
330
1F
100
AcDbEntity
  8
0-0
  6
Continuous
 62
     3
370
     9
100
AcDbCircle
 10
-135.0293707141847
 20
-719.5568160669634
 30
0.0
 40
23.33333096755824
100
AcDbArc
 50
2.16111755371094
 51
85.99995422363281
  0
ARC
  5
1B7
330
1F
100
AcDbEntity
  8
0-0
  6
Continuous
 62
     3
370
     9
100
AcDbCircle
 10
-154.5766053267278
 20
-716.0743311144472
 30
0.0
 40
5.000000046026752
100
AcDbArc
 50
90.0
 51
168.6903381347656
  0
ARC
  5
1B8
330
1F
100
AcDbEntity
  8
0-0
  6
Continuous
 62
     3
370
     9
100
AcDbCircle
 10
153.8923525227235
 20
-716.0743311144472
 30
0.0
 40
5.000000046026752
100
AcDbArc
 50
11.30966186523437
 51
90.0
  0
ARC
  5
1B9
330
1F
100
AcDbEntity
  8
0-0
  6
Continuous
 62
     3
370
     9
100
AcDbCircle
 10
-197.8587767454963
 20
-698.4838679008155
 30
0.0
 40
5.000000046026752
100
AcDbArc
 50
10.89831542968751
 51
85.99990844726562
  0
ARC
  5
1BA
330
1F
100
AcDbEntity
  8
0-0
  6
Continuous
 62
     3
370
     9
100
AcDbCircle
 10
-199.6021662531671
 20
-698.3623128915644
 30
0.0
 40
5.000000046026752
100
AcDbArc
 50
86.00067138671876
 51
169.1167144775391
  0
ARC
  5
1BB
330
1F
100
AcDbEntity
  8
0-0
  6
Continuous
 62
     3
370
     9
100
AcDbCircle
 10
-187.5900209640445
 20
-707.740546105247
 30
0.0
 40
3.333333364017835
100
AcDbArc
 50
190.8990020751953
 51
270.0
  0
ARC
  5
1BC
330
1F
100
AcDbEntity
  8
0-0
  6
Continuous
 62
     3
370
     9
100
AcDbCircle
 10
-213.0954329050038
 20
-724.4071251860717
 30
0.0
 40
3.333333364017835
100
AcDbArc
 50
270.0
 51
349.1173095703125
  0
ARC
  5
1BD
330
1F
100
AcDbEntity
  8
0-0
  6
JWW_DASHED1
 62
     3
370
     9
100
AcDbCircle
 10
197.1738633164412
 20
-698.4838679008155
 30
0.0
 40
5.000000046026752
100
AcDbArc
 50
94.00009155273438
 51
169.1016540527344
  0
ARC
  5
1BE
330
1F
100
AcDbEntity
  8
0-0
  6
Continuous
 62
     3
370
     9
100
AcDbCircle
 10
186.9051075349909
 20
-707.740546105247
 30
0.0
 40
3.333333364017835
100
AcDbArc
 50
270.0
 51
349.1009979248047
  0
ARC
  5
1BF
330
1F
100
AcDbEntity
  8
0-0
  6
Continuous
 62
     3
370
     9
100
AcDbCircle
 10
235.3632762226512
 20
-694.9947766977959
 30
0.0
 40
5.000000046026752
100
AcDbArc
 50
109.7822265625
 51
163.9705047607422
  0
ARC
  5
1C0
330
1F
100
AcDbEntity
  8
0-0
  6
JWW_DASHED1
 62
     3
370
     9
100
AcDbCircle
 10
-228.7145909686195
 20
-674.6068967087806
 30
0.0
 40
16.66666682008918
100
AcDbArc
 50
187.0002746582031
 51
266.0000610351563
  0
ARC
  5
1C1
330
1F
100
AcDbEntity
  8
0-0
  6
Continuous
 62
     3
370
     9
100
AcDbCircle
 10
195.548725692768
 20
-666.0739332469232
 30
0.0
 40
5.000000046026752
100
AcDbArc
 50
90.0
 51
170.3853912353516
  0
ARC
  5
1C2
330
1F
100
AcDbEntity
  8
0-0
  6
Continuous
 62
     3
370
     9
100
AcDbCircle
 10
183.7189129175214
 20
-676.034507442421
 30
0.0
 40
5.000000046026752
100
AcDbArc
 50
274.0
 51
350.3853912353516
  0
ARC
  5
1C3
330
1F
100
AcDbEntity
  8
0-0
  6
Continuous
 62
     3
370
     9
100
AcDbCircle
 10
181.8552896506991
 20
-686.1893054026998
 30
0.0
 40
5.000000046026752
100
AcDbArc
 50
101.1119689941406
 51
164.3511352539063
  0
ARC
  5
1C4
330
1F
100
AcDbEntity
  8
0-0
  6
Continuous
 62
     3
370
     9
100
AcDbCircle
 10
170.79378380892
 20
-688.6055415240755
 30
0.0
 40
5.000000046026752
100
AcDbArc
 50
270.950439453125
 51
344.3511352539062
  0
ARC
  5
1C5
330
1F
100
AcDbEntity
  8
0-0
  6
JWW_PHANTOM2
 62
     3
370
     9
100
AcDbCircle
 10
-229.3111353890167
 20
-656.074051860933
 30
0.0
 40
5.000000368597577
100
AcDbArc
 50
186.9995727539062
 51
270.0
  0
ARC
  5
1C6
330
1F
100
AcDbEntity
  8
0-0
  6
JWW_PHANTOM2
 62
     3
370
     9
100
AcDbCircle
 10
-196.2329784967722
 20
-666.0739332469232
 30
0.0
 40
5.000000046026752
100
AcDbArc
 50
9.61460876464845
 51
90.00000000000001
  0
ARC
  5
1C7
330
1F
100
AcDbEntity
  8
0-0
  6
JWW_PHANTOM2
 62
     3
370
     9
100
AcDbCircle
 10
-184.4031657215257
 20
-676.034507442421
 30
0.0
 40
5.000000046026752
100
AcDbArc
 50
189.6146087646485
 51
266.0
  0
ARC
  5
1C8
330
1F
100
AcDbEntity
  8
0-0
  6
Continuous
 62
     3
370
     9
100
AcDbCircle
 10
-182.5395424547034
 20
-686.1893054026998
 30
0.0
 40
5.000000046026752
100
AcDbArc
 50
15.64886474609375
 51
78.88803100585938
  0
ARC
  5
1C9
330
1F
100
AcDbEntity
  8
0-0
  6
Continuous
 62
     3
370
     9
100
AcDbCircle
 10
-171.4780366129242
 20
-688.6055415240755
 30
0.0
 40
5.000000046026752
100
AcDbArc
 50
195.6488647460938
 51
266.0
  0
ARC
  5
1CA
330
1F
100
AcDbEntity
  8
0-0
  6
Continuous
 62
     3
370
     9
100
AcDbCircle
 10
192.1075298058936
 20
-707.1691054367604
 30
0.0
 40
1.666666682008917
100
AcDbArc
 50
29.60806274414062
 51
169.0990295410156
  0
ARC
  5
1CB
330
1F
100
AcDbEntity
  8
0-0
  6
Continuous
 62
     3
370
     9
100
AcDbCircle
 10
-256.5018018332228
 20
-671.6790064859686
 30
0.0
 40
6.666666728035669
100
AcDbArc
 50
6.230026245117189
 51
72.00018310546875
  0
ARC
  5
1CC
330
1F
100
AcDbEntity
  8
0-0
  6
Continuous
 62
     3
370
     9
100
AcDbCircle
 10
228.0303381646152
 20
-674.6068967087806
 30
0.0
 40
16.66666682008918
100
AcDbArc
 50
289.7825775146484
 51
352.9997253417969
  0
ARC
  5
1CD
330
1F
100
AcDbEntity
  8
0-0
  6
JWW_DASHED1
 62
     3
370
     9
100
AcDbCircle
 10
228.0303381646152
 20
-674.6068967087806
 30
0.0
 40
16.66666682008918
100
AcDbArc
 50
273.9999237060547
 51
289.7825775146484
  0
ARC
  5
1CE
330
1F
100
AcDbEntity
  8
0-0
  6
Continuous
 62
     3
370
     9
100
AcDbCircle
 10
-222.7669836410076
 20
-668.3398771693612
 30
0.0
 40
10.0000000920535
100
AcDbArc
 50
187.0003814697266
 51
266.0003356933594
  0
ARC
  5
1CF
330
1F
100
AcDbEntity
  8
0-0
  6
JWW_DASHED1
 62
     3
370
     9
100
AcDbCircle
 10
222.0833914620542
 20
-668.3398771693612
 30
0.0
 40
10.0000000920535
100
AcDbArc
 50
273.9993286132812
 51
352.9994964599609
  0
ARC
  5
1D0
330
1F
100
AcDbEntity
  8
0-C
  6
Continuous
 62
     2
370
     9
100
AcDbCircle
 10
16.32445267882256
 20
-669.4064563130271
 30
0.0
 40
1.666666682008917
100
AcDbArc
 50
180.0
 51
270.0
  0
ARC
  5
1D1
330
1F
100
AcDbEntity
  8
0-C
  6
Continuous
 62
     2
370
     9
100
AcDbCircle
 10
-17.00936610787769
 20
-669.4064563130271
 30
0.0
 40
1.666666682008917
100
AcDbArc
 50
270.0
 51
0.0
  0
ARC
  5
1D2
330
1F
100
AcDbEntity
  8
0-C
  6
Continuous
 62
     2
370
     9
100
AcDbCircle
 10
-73.6758010451866
 20
-708.4067864684482
 30
0.0
 40
6.666666728035669
100
AcDbArc
 50
270.0
 51
0.0
  0
ARC
  5
1D3
330
1F
100
AcDbEntity
  8
0-C
  6
Continuous
 62
     2
370
     9
100
AcDbCircle
 10
-104.6947896557266
 20
-708.4067864684482
 30
0.0
 40
6.666666728035669
100
AcDbArc
 50
189.4628143310547
 51
270.0
  0
ARC
  5
1D4
330
1F
100
AcDbEntity
  8
0-C
  6
Continuous
 62
     2
370
     9
100
AcDbCircle
 10
72.99088761613147
 20
-708.4067864684482
 30
0.0
 40
6.666666728035669
100
AcDbArc
 50
180.0
 51
270.0
  0
ARC
  5
1D5
330
1F
100
AcDbEntity
  8
0-C
  6
Continuous
 62
     2
370
     9
100
AcDbCircle
 10
104.009876226673
 20
-708.4067864684482
 30
0.0
 40
6.666666728035669
100
AcDbArc
 50
270.0
 51
350.5371856689453
  0
ARC
  5
1D6
330
1F
100
AcDbEntity
  8
0-C
  6
Continuous
 62
     2
370
     9
100
AcDbCircle
 10
-17.00936610787769
 20
-669.4064563130271
 30
0.0
 40
5.66666684785865
100
AcDbArc
 50
270.0
 51
350.4709777832031
  0
ARC
  5
1D7
330
1F
100
AcDbEntity
  8
0-C
  6
Continuous
 62
     2
370
     9
100
AcDbCircle
 10
16.32445267882256
 20
-669.4064563130271
 30
0.0
 40
5.66666684785865
100
AcDbArc
 50
189.5361938476562
 51
270.0
  0
LINE
  5
1D8
330
1F
100
AcDbEntity
  8
0-5
  6
Continuous
 62
     7
370
     9
100
AcDbLine
 10
97.54093440189564
 20
-941.0738778675341
 30
0.0
 11
112.7599681328923
 21
-960.9076642906759
 31
0.0
  0
LINE
  5
1D9
330
1F
100
AcDbEntity
  8
0-5
  6
Continuous
 62
     7
370
     9
100
AcDbLine
 10
97.54093440189564
 20
-941.0738778675341
 30
0.0
 11
107.1079477042605
 21
-964.1708388116325
 31
0.0
  0
LINE
  5
1DA
330
1F
100
AcDbEntity
  8
0-5
  6
Continuous
 62
     7
370
     9
100
AcDbLine
 10
-190.3421849234843
 20
-961.0740675713981
 30
0.0
 11
-238.4548789163054
 21
-1044.407438708038
 31
0.0
  0
LINE
  5
1DB
330
1F
100
AcDbEntity
  8
0-5
  6
Continuous
 62
     7
370
     9
100
AcDbLine
 10
-190.3421849234843
 20
-961.0740675713981
 30
0.0
 11
-205.5612186544809
 21
-980.9077302746286
 31
0.0
  0
LINE
  5
1DC
330
1F
100
AcDbEntity
  8
0-5
  6
Continuous
 62
     7
370
     9
100
AcDbLine
 10
-190.3421849234843
 20
-961.0740675713981
 30
0.0
 11
-199.9096931054945
 21
-984.1709666555408
 31
0.0
  0
LINE
  5
1DD
330
1F
100
AcDbEntity
  8
0-5
  6
Continuous
 62
     7
370
     9
100
AcDbLine
 10
-330.3426468111533
 20
-657.740867580636
 30
0.0
 11
-387.9919190081549
 21
-757.5920531473062
 31
0.0
  0
LINE
  5
1DE
330
1F
100
AcDbEntity
  8
0-5
  6
Continuous
 62
     7
370
     9
100
AcDbLine
 10
-330.3426468111533
 20
-657.740867580636
 30
0.0
 11
-339.9096601135182
 21
-680.8378285247343
 31
0.0
  0
LINE
  5
1DF
330
1F
100
AcDbEntity
  8
0-5
  6
Continuous
 62
     7
370
     9
100
AcDbLine
 10
-330.3426468111533
 20
-657.740867580636
 30
0.0
 11
-345.5616805421499
 21
-677.5747158637332
 31
0.0
  0
LINE
  5
1E0
330
1F
100
AcDbEntity
  8
0-5
  6
Continuous
 62
     7
370
     9
100
AcDbLine
 10
529.9061456825126
 20
-1044.407438708038
 30
0.0
 11
157.2004077179852
 21
-1044.407438708038
 31
0.0
  0
LINE
  5
1E1
330
1F
100
AcDbEntity
  8
0-5
  6
Continuous
 62
     7
370
     9
100
AcDbLine
 10
-387.9919190081549
 20
-757.5920531473062
 30
0.0
 11
-648.7647890461617
 21
-757.5920531473062
 31
0.0
  0
LINE
  5
1E2
330
1F
100
AcDbEntity
  8
0-5
  6
Continuous
 62
     7
370
     9
100
AcDbLine
 10
283.756226842774
 20
-888.1677177706697
 30
0.0
 11
649.6284192255865
 21
-888.1677177706697
 31
0.0
  0
LINE
  5
1E3
330
1F
100
AcDbEntity
  8
0-5
  6
Continuous
 62
     7
370
     9
100
AcDbLine
 10
-238.4548789163054
 20
-1044.407438708038
 30
0.0
 11
-694.9595769737377
 21
-1044.407438708038
 31
0.0
  0
LINE
  5
1E4
330
1F
100
AcDbEntity
  8
0-5
  6
Continuous
 62
     7
370
     9
100
AcDbLine
 10
160.7261777507134
 20
-675.0734085566705
 30
0.0
 11
283.756226842774
 21
-888.1677177706697
 31
0.0
  0
LINE
  5
1E5
330
1F
100
AcDbEntity
  8
0-5
  6
Continuous
 62
     7
370
     9
100
AcDbLine
 10
160.7261777507134
 20
-675.0734085566705
 30
0.0
 11
175.94521148171
 21
-694.9071949798124
 31
0.0
  0
LINE
  5
1E6
330
1F
100
AcDbEntity
  8
0-5
  6
Continuous
 62
     7
370
     9
100
AcDbLine
 10
160.7261777507134
 20
-675.0734085566705
 30
0.0
 11
170.2931910530782
 21
-698.170369500769
 31
0.0
  0
LINE
  5
1E7
330
1F
100
AcDbEntity
  8
0-5
  6
Continuous
 62
     7
370
     9
100
AcDbLine
 10
355.6078025395647
 20
-640.0348161923336
 30
0.0
 11
365.1750632817522
 21
-663.1318389963874
 31
0.0
  0
LINE
  5
1E8
330
1F
100
AcDbEntity
  8
0-5
  6
Continuous
 62
     7
370
     9
100
AcDbLine
 10
355.6078025395647
 20
-640.0348161923336
 30
0.0
 11
370.8268362705613
 21
-659.8686644754312
 31
0.0
  0
LINE
  5
1E9
330
1F
100
AcDbEntity
  8
0-5
  6
Continuous
 62
     7
370
     9
100
AcDbLine
 10
355.6078025395647
 20
-640.0348161923336
 30
0.0
 11
431.9642676472506
 21
-772.2877516534294
 31
0.0
  0
LINE
  5
1EA
330
1F
100
AcDbEntity
  8
0-5
  6
Continuous
 62
     7
370
     9
100
AcDbLine
 10
431.9642676472506
 20
-772.2877516534294
 30
0.0
 11
643.6997610752491
 21
-772.2877516534294
 31
0.0
  0
LINE
  5
1EB
330
1F
100
AcDbEntity
  8
0-5
  6
Continuous
 62
     7
370
     9
100
AcDbLine
 10
12.99099444729279
 20
-363.3284299354714
 30
0.0
 11
22.55825518948029
 21
-340.2314071314172
 31
0.0
  0
LINE
  5
1EC
330
1F
100
AcDbEntity
  8
0-5
  6
Continuous
 62
     7
370
     9
100
AcDbLine
 10
12.99099444729279
 20
-363.3284299354714
 30
0.0
 11
28.21002817828941
 21
-343.4945197924183
 31
0.0
  0
LINE
  5
1ED
330
1F
100
AcDbEntity
  8
0-5
  6
Continuous
 62
     7
370
     9
100
AcDbLine
 10
12.99099444729279
 20
-363.3284299354714
 30
0.0
 11
106.6944757606373
 21
-201.0291861115693
 31
0.0
  0
LINE
  5
1EE
330
1F
100
AcDbEntity
  8
0-5
  6
Continuous
 62
     7
370
     9
100
AcDbLine
 10
97.54093440189564
 20
-941.0738778675341
 30
0.0
 11
157.2004077179852
 21
-1044.407438708038
 31
0.0
  0
TEXT
  5
1EF
330
1F
100
AcDbEntity
  8
0-5
  6
Continuous
 62
     6
370
     9
100
AcDbText
 10
167.3917628304221
 20
-1033.910110315803
 30
0.0
 40
19.05
  1
位置決めプレート：ＳＧＨＣ
 41
1.110769230769231
  7
ＭＳ ゴシック
100
AcDbText
  0
TEXT
  5
1F0
330
1F
100
AcDbEntity
  8
0-5
  6
Continuous
 62
     6
370
     9
100
AcDbText
 10
289.0534004201601
 20
-1073.764221858375
 30
0.0
 40
19.05
  1
（別途）
 41
1.090000000000001
  7
ＭＳ ゴシック
100
AcDbText
  0
TEXT
  5
1F1
330
1F
100
AcDbEntity
  8
0-5
  6
Continuous
 62
     6
370
     9
100
AcDbText
 10
-640.200931426335
 20
-746.3938205274791
 30
0.0
 40
19.05
  1
ルーフドレイン本体
 41
1.106666666666667
  7
ＭＳ ゴシック
100
AcDbText
  0
TEXT
  5
1F2
330
1F
100
AcDbEntity
  8
0-5
  6
Continuous
 62
     6
370
     9
100
AcDbText
 10
-556.2990198712253
 20
-792.0723871250829
 30
0.0
 40
19.05
  1
（別途）
 41
1.089999999999999
  7
ＭＳ ゴシック
100
AcDbText
  0
TEXT
  5
1F3
330
1F
100
AcDbEntity
  8
0-5
  6
Continuous
 62
     6
370
     9
100
AcDbText
 10
290.32110391467
 20
-880.8080809793374
 30
0.0
 40
19.05
  1
引き上げプレート：ＳＧＨＣ
 41
1.110769230769231
  7
ＭＳ ゴシック
100
AcDbText
  0
TEXT
  5
1F4
330
1F
100
AcDbEntity
  8
0-5
  6
Continuous
 62
     6
370
     9
100
AcDbText
 10
412.192075594358
 20
-920.1868296926502
 30
0.0
 40
19.05
  1
（別途）
 41
1.089999999999998
  7
ＭＳ ゴシック
100
AcDbText
  0
TEXT
  5
1F5
330
1F
100
AcDbEntity
  8
0-5
  6
Continuous
 62
     6
370
     9
100
AcDbText
 10
-691.5226460853297
 20
-1035.632755431011
 30
0.0
 40
19.05
  1
スペーサー：硬質ポリ塩化ビニル管
 41
1.1125
  7
ＭＳ ゴシック
100
AcDbText
  0
TEXT
  5
1F6
330
1F
100
AcDbEntity
  8
0-5
  6
Continuous
 62
     6
370
     9
100
AcDbText
 10
-516.2679579254904
 20
-1076.052669058017
 30
0.0
 40
19.05
  1
（別途）
 41
1.089999999999999
  7
ＭＳ ゴシック
100
AcDbText
  0
TEXT
  5
1F7
330
1F
100
AcDbEntity
  8
0-5
  6
Continuous
 62
     7
370
     9
100
AcDbText
 10
478.5104613629389
 20
-760.4828145031443
 30
0.0
 40
22.86
  1
リング
 41
1.111111111111111
  7
ＭＳ ゴシック
100
AcDbText
  0
TEXT
  5
1F8
330
1F
100
AcDbEntity
  8
0-5
  6
Continuous
 62
     7
370
     9
100
AcDbText
 10
435.9405926050209
 20
-812.1194227300234
 30
0.0
 40
22.86
  1
クロロプレン
 41
1.138888888888889
  7
ＭＳ ゴシック
100
AcDbText
  0
TEXT
  5
1F9
330
1F
100
AcDbEntity
  8
0-5
  6
Continuous
 62
     6
370
     9
100
AcDbText
 10
201.0135692071111
 20
-236.1842266257161
 30
0.0
 40
19.05
  1
（別途）
 41
1.089999999999998
  7
ＭＳ ゴシック
100
AcDbText
  0
TEXT
  5
1FA
330
1F
100
AcDbEntity
  8
0-5
  6
Continuous
 62
     6
370
     9
100
AcDbText
 10
106.9817616427108
 20
-187.621068435788
 30
0.0
 40
19.05
  1
長ネジボルト：ＳＷＲＭ
 41
1.109090909090909
  7
ＭＳ ゴシック
100
AcDbText
  0
LINE
  5
1FB
330
1F
100
AcDbEntity
  8
0-5
  6
Continuous
 62
     7
370
     9
100
AcDbLine
 10
106.6944757606373
 20
-201.0291861115693
 30
0.0
 11
416.9117609168873
 21
-201.0291861115693
 31
0.0
  0
LINE
  5
1FC
330
1F
100
AcDbEntity
  8
0-4
  6
Continuous
 62
     7
370
     9
100
AcDbLine
 10
-333.6753595811211
 20
-287.7236658859867
 30
0.0
 11
-333.6753595811211
 21
-634.4072948590932
 31
0.0
  0
LINE
  5
1FD
330
1F
100
AcDbEntity
  8
0-4
  6
Continuous
 62
     7
370
     9
100
AcDbLine
 10
-333.6753595811211
 20
-290.7236658859867
 30
0.0
 11
-308.8892380467758
 21
-293.986820691488
 31
0.0
  0
LINE
  5
1FE
330
1F
100
AcDbEntity
  8
0-4
  6
Continuous
 62
     7
370
     9
100
AcDbLine
 10
-333.6753595811211
 20
-290.7236658859867
 30
0.0
 11
-308.8892380467758
 21
-287.4605110804854
 31
0.0
  0
LINE
  5
1FF
330
1F
100
AcDbEntity
  8
0-4
  6
Continuous
 62
     7
370
     9
100
AcDbLine
 10
-333.6753595811211
 20
-290.7236658859867
 30
0.0
 11
332.9911067771167
 21
-290.7236658859867
 31
0.0
  0
TEXT
  5
200
330
1F
100
AcDbEntity
  8
0-4
  6
Continuous
 62
     2
370
   211
100
AcDbText
 10
-86.5614056273397
 20
-275.0836658859868
 30
0.0
 40
30.48
  1
φ200
 41
1.1
  7
ＭＳ ゴシック
100
AcDbText
  0
LINE
  5
201
330
1F
100
AcDbEntity
  8
0-4
  6
Continuous
 62
     7
370
     9
100
AcDbLine
 10
332.9911067771167
 20
-290.7236658859867
 30
0.0
 11
308.2049852427715
 21
-293.986820691488
 31
0.0
  0
LINE
  5
202
330
1F
100
AcDbEntity
  8
0-4
  6
Continuous
 62
     7
370
     9
100
AcDbLine
 10
332.9911067771167
 20
-290.7236658859867
 30
0.0
 11
308.2049852427715
 21
-287.4605110804854
 31
0.0
  0
LINE
  5
203
330
1F
100
AcDbEntity
  8
0-4
  6
Continuous
 62
     7
370
     9
100
AcDbLine
 10
332.9911067771167
 20
-287.7236658859867
 30
0.0
 11
332.9911067771167
 21
-634.4072948590932
 31
0.0
  0
LINE
  5
204
330
1F
100
AcDbEntity
  8
0-1
  6
Continuous
 62
     4
370
     9
100
AcDbLine
 10
-17.00936610787769
 20
-524.4069900760736
 30
0.0
 11
-17.00936610787769
 21
-624.4069900760736
 31
0.0
  0
LINE
  5
205
330
1F
100
AcDbEntity
  8
0-1
  6
Continuous
 62
     4
370
     9
100
AcDbLine
 10
16.32445267882256
 20
-524.4069900760736
 30
0.0
 11
16.32445267882256
 21
-624.4069900760736
 31
0.0
  0
LINE
  5
206
330
1F
100
AcDbEntity
  8
0-5
  6
Continuous
 62
     7
370
     9
100
AcDbLine
 10
-47.00967089089667
 20
-461.0731968188798
 30
0.0
 11
-182.1110717302125
 21
-227.0708411917684
 31
0.0
  0
LINE
  5
207
330
1F
100
AcDbEntity
  8
0-5
  6
Continuous
 62
     7
370
     9
100
AcDbLine
 10
-182.1110717302125
 20
-227.0708411917684
 30
0.0
 11
-449.0231712076198
 21
-227.0708411917684
 31
0.0
  0
TEXT
  5
208
330
1F
100
AcDbEntity
  8
0-5
  6
Continuous
 62
     6
370
     9
100
AcDbText
 10
-436.4874095548537
 20
-215.2669996060418
 30
0.0
 40
19.05
  1
蝶ナット：ＳＰＨＣ
 41
1.106666666666666
  7
ＭＳ ゴシック
100
AcDbText
  0
TEXT
  5
209
330
1F
100
AcDbEntity
  8
0-5
  6
Continuous
 62
     6
370
     9
100
AcDbText
 10
-348.6130990871596
 20
-258.9595523272199
 30
0.0
 40
19.05
  1
（別途）
 41
1.090000000000001
  7
ＭＳ ゴシック
100
AcDbText
  0
LINE
  5
20A
330
1F
100
AcDbEntity
  8
0-5
  6
Continuous
 62
     7
370
     9
100
AcDbLine
 10
-47.00967089089667
 20
-461.0731968188798
 30
0.0
 11
-62.22870462189329
 21
-441.2394103957376
 31
0.0
  0
LINE
  5
20B
330
1F
100
AcDbEntity
  8
0-5
  6
Continuous
 62
     7
370
     9
100
AcDbLine
 10
-47.00967089089667
 20
-461.0731968188798
 30
0.0
 11
-56.57668419326151
 21
-437.9762977347371
 31
0.0
  0
TEXT
  5
20C
330
1F
100
AcDbEntity
  8
F-4
  6
Continuous
 62
     2
370
     9
100
AcDbText
 10
-606.3913046347126
 20
-1348.094550476074
 30
0.0
 40
30.48
  1
複数回使用抜型　ＢＷ７５Ｗ－３０
 41
1.1171875
  7
ＭＳ ゴシック
100
AcDbText
  0
ENDSEC
  0
SECTION
  2
OBJECTS
  0
DICTIONARY
  5
C
330
0
100
AcDbDictionary
281
     1
  3
ACAD_GROUP
350
D
  3
ACAD_LAYOUT
350
1A
  3
ACAD_MLEADERSTYLE
350
20E
  3
ACAD_MLINESTYLE
350
17
  3
ACAD_PLOTSETTINGS
350
19
  3
ACAD_PLOTSTYLENAME
350
E
  3
ACAD_TABLESTYLE
350
20D
  3
ACAD_VISUALSTYLE
350
2A
  3
AcDbVariableDictionary
350
20F
  0
DICTIONARY
  5
D
102
{ACAD_REACTORS
330
C
102
}
330
C
100
AcDbDictionary
281
     1
  0
DICTIONARY
  5
1A
102
{ACAD_REACTORS
330
C
102
}
330
C
100
AcDbDictionary
281
     1
  3
Layout1
350
1E
  3
Layout2
350
26
  3
Model
350
22
  0
DICTIONARY
  5
20E
102
{ACAD_REACTORS
330
C
102
}
330
C
100
AcDbDictionary
281
     1
  0
DICTIONARY
  5
17
102
{ACAD_REACTORS
330
C
102
}
330
C
100
AcDbDictionary
281
     1
  3
Standard
350
18
  0
DICTIONARY
  5
19
102
{ACAD_REACTORS
330
C
102
}
330
C
100
AcDbDictionary
281
     1
  0
ACDBDICTIONARYWDFLT
  5
E
102
{ACAD_REACTORS
330
C
102
}
330
C
100
AcDbDictionary
281
     1
  3
Normal
350
F
100
AcDbDictionaryWithDefault
340
F
  0
DICTIONARY
  5
20D
102
{ACAD_REACTORS
330
C
102
}
330
C
100
AcDbDictionary
281
     1
  0
DICTIONARY
  5
2A
102
{ACAD_REACTORS
330
C
102
}
330
C
100
AcDbDictionary
281
     1
  3
2dWireframe
350
2F
  3
3D Hidden
350
31
  3
3dWireframe
350
30
  3
Basic
350
32
  3
Brighten
350
36
  3
ColorChange
350
3A
  3
Conceptual
350
34
  3
Dim
350
35
  3
Facepattern
350
39
  3
Flat
350
2B
  3
FlatWithEdges
350
2C
  3
Gouraud
350
2D
  3
GouraudWithEdges
350
2E
  3
Linepattern
350
38
  3
Realistic
350
33
  3
Thicken
350
37
  0
DICTIONARY
  5
20F
102
{ACAD_REACTORS
330
C
102
}
330
C
100
AcDbDictionary
281
     1
  3
PSOLHEIGHT
350
211
  3
PSOLWIDTH
350
210
  0
LAYOUT
  5
1E
102
{ACAD_REACTORS
330
1A
102
}
102
{ACAD_XDICTIONARY
360
212
102
}
330
1A
100
AcDbPlotSettings
  1

  2
none_device
  4

  6

 40
0.0
 41
0.0
 42
0.0
 43
0.0
 44
0.0
 45
0.0
 46
0.0
 47
0.0
 48
0.0
 49
0.0
140
0.0
141
0.0
142
1.0
143
1.0
 70
   688
 72
     0
 73
     0
 74
     5
  7

 75
    16
147
1.0
148
0.0
149
0.0
100
AcDbLayout
  1
Layout1
 70
     1
 71
     1
 10
0.0
 20
0.0
 11
420.0
 21
297.0
 12
0.0
 22
0.0
 32
0.0
 14
1.000000000000000E+20
 24
1.000000000000000E+20
 34
1.000000000000000E+20
 15
-1.000000000000000E+20
 25
-1.000000000000000E+20
 35
-1.000000000000000E+20
146
0.0
 13
0.0
 23
0.0
 33
0.0
 16
1.0
 26
0.0
 36
0.0
 17
0.0
 27
1.0
 37
0.0
 76
     0
330
1B
  0
LAYOUT
  5
26
102
{ACAD_REACTORS
330
1A
102
}
102
{ACAD_XDICTIONARY
360
216
102
}
330
1A
100
AcDbPlotSettings
  1

  2
none_device
  4

  6

 40
0.0
 41
0.0
 42
0.0
 43
0.0
 44
0.0
 45
0.0
 46
0.0
 47
0.0
 48
0.0
 49
0.0
140
0.0
141
0.0
142
1.0
143
1.0
 70
   688
 72
     0
 73
     0
 74
     5
  7

 75
    16
147
1.0
148
0.0
149
0.0
100
AcDbLayout
  1
Layout2
 70
     1
 71
     2
 10
0.0
 20
0.0
 11
0.0
 21
0.0
 12
0.0
 22
0.0
 32
0.0
 14
0.0
 24
0.0
 34
0.0
 15
0.0
 25
0.0
 35
0.0
146
0.0
 13
0.0
 23
0.0
 33
0.0
 16
1.0
 26
0.0
 36
0.0
 17
0.0
 27
1.0
 37
0.0
 76
     0
330
23
  0
LAYOUT
  5
22
102
{ACAD_REACTORS
330
1A
102
}
102
{ACAD_XDICTIONARY
360
214
102
}
330
1A
100
AcDbPlotSettings
  1

  2
none_device
  4

  6

 40
0.0
 41
0.0
 42
0.0
 43
0.0
 44
0.0
 45
0.0
 46
0.0
 47
0.0
 48
0.0
 49
0.0
140
0.0
141
0.0
142
1.0
143
1.0
 70
  1712
 72
     0
 73
     0
 74
     0
  7

 75
     0
147
1.0
148
0.0
149
0.0
100
AcDbLayout
  1
Model
 70
     1
 71
     0
 10
-2100.0
 20
-1485.0
 11
2100.0
 21
1485.0
 12
0.0
 22
0.0
 32
0.0
 14
-2100.0
 24
-1485.0
 34
0.0
 15
2100.0
 25
1485.0
 35
0.0
146
0.0
 13
0.0
 23
0.0
 33
0.0
 16
1.0
 26
0.0
 36
0.0
 17
0.0
 27
1.0
 37
0.0
 76
     0
330
1F
331
29
  0
MLINESTYLE
  5
18
102
{ACAD_REACTORS
330
17
102
}
330
17
100
AcDbMlineStyle
  2
Standard
 70
     0
  3

 62
   256
 51
90.0
 52
90.0
 71
     2
 49
0.5
 62
   256
  6
BYLAYER
 49
-0.5
 62
   256
  6
BYLAYER
  0
ACDBPLACEHOLDER
  5
F
102
{ACAD_REACTORS
330
E
102
}
330
E
  0
VISUALSTYLE
  5
2F
102
{ACAD_REACTORS
330
2A
102
}
330
2A
100
AcDbVisualStyle
  2
2dWireframe
 70
     4
 71
     0
 72
     2
 73
     0
 90
        0
 40
-0.6
 41
-30.0
 62
     5
 63
     7
 74
     1
 91
        4
 64
     7
 65
   257
 75
     1
175
     1
 42
1.0
 92
        0
 66
   257
 43
1.0
 76
     1
 77
     6
 78
     2
 67
     7
 79
     5
170
     0
171
     0
290
     0
174
     0
 93
        1
 44
0.0
173
     0
291
     0
 45
0.0
1001
ACAD
1000
AcDbSavedByObjectVersion
1070
     0
  0
VISUALSTYLE
  5
31
102
{ACAD_REACTORS
330
2A
102
}
330
2A
100
AcDbVisualStyle
  2
3D Hidden
 70
     6
 71
     1
 72
     2
 73
     2
 90
        0
 40
-0.6
 41
-30.0
 62
     5
 63
     7
 74
     2
 91
        2
 64
     7
 65
   257
 75
     2
175
     1
 42
40.0
 92
        0
 66
   257
 43
1.0
 76
     1
 77
     6
 78
     2
 67
     7
 79
     3
170
     0
171
     0
290
     0
174
     0
 93
        1
 44
0.0
173
     0
291
     0
 45
0.0
1001
ACAD
1000
AcDbSavedByObjectVersion
1070
     0
  0
VISUALSTYLE
  5
30
102
{ACAD_REACTORS
330
2A
102
}
330
2A
100
AcDbVisualStyle
  2
3dWireframe
 70
     5
 71
     0
 72
     2
 73
     0
 90
        0
 40
-0.6
 41
-30.0
 62
     5
 63
     7
 74
     1
 91
        4
 64
     7
 65
   257
 75
     1
175
     1
 42
1.0
 92
        0
 66
   257
 43
1.0
 76
     1
 77
     6
 78
     2
 67
     7
 79
     5
170
     0
171
     0
290
     0
174
     0
 93
        1
 44
0.0
173
     0
291
     0
 45
0.0
1001
ACAD
1000
AcDbSavedByObjectVersion
1070
     0
  0
VISUALSTYLE
  5
32
102
{ACAD_REACTORS
330
2A
102
}
330
2A
100
AcDbVisualStyle
  2
Basic
 70
     7
 71
     1
 72
     0
 73
     1
 90
        0
 40
-0.6
 41
-30.0
 62
     5
 63
     7
 74
     0
 91
        4
 64
     7
 65
   257
 75
     1
175
     1
 42
1.0
 92
        8
 66
     7
 43
1.0
 76
     1
 77
     6
 78
     2
 67
     7
 79
     5
170
     0
171
     0
290
     0
174
     0
 93
        1
 44
0.0
173
     0
291
     1
 45
0.0
1001
ACAD
1000
AcDbSavedByObjectVersion
1070
     0
  0
VISUALSTYLE
  5
36
102
{ACAD_REACTORS
330
2A
102
}
330
2A
100
AcDbVisualStyle
  2
Brighten
 70
    12
 71
     2
 72
     2
 73
     0
 90
        0
 40
-0.6
 41
-30.0
 62
     5
 63
     7
 74
     1
 91
        4
 64
     7
 65
   257
 75
     1
175
     1
 42
1.0
 92
        8
 66
     7
 43
1.0
 76
     1
 77
     6
 78
     2
 67
     7
 79
     5
170
     0
171
     0
290
     0
174
     0
 93
        1
 44
50.0
173
     0
291
     1
 45
0.0
1001
ACAD
1000
AcDbSavedByObjectVersion
1070
     0
  0
VISUALSTYLE
  5
3A
102
{ACAD_REACTORS
330
2A
102
}
330
2A
100
AcDbVisualStyle
  2
ColorChange
 70
    16
 71
     2
 72
     2
 73
     3
 90
        0
 40
-0.6
 41
-30.0
 62
     5
 63
     8
 74
     1
 91
        4
 64
     7
 65
   257
 75
     1
175
     1
 42
1.0
 92
        8
 66
     8
 43
1.0
 76
     1
 77
     6
 78
     2
 67
     7
 79
     5
170
     0
171
     0
290
     0
174
     0
 93
        1
 44
0.0
173
     0
291
     1
 45
0.0
1001
ACAD
1000
AcDbSavedByObjectVersion
1070
     0
  0
VISUALSTYLE
  5
34
102
{ACAD_REACTORS
330
2A
102
}
330
2A
100
AcDbVisualStyle
  2
Conceptual
 70
     9
 71
     3
 72
     2
 73
     0
 90
        0
 40
-0.6
 41
-30.0
 62
     5
 63
     7
 74
     2
 91
        2
 64
     7
 65
   257
 75
     1
175
     1
 42
40.0
 92
        8
 66
     7
 43
1.0
 76
     1
 77
     6
 78
     2
 67
     7
 79
     3
170
     0
171
     0
290
     0
174
     0
 93
        1
 44
0.0
173
     0
291
     0
 45
0.0
1001
ACAD
1000
AcDbSavedByObjectVersion
1070
     0
  0
VISUALSTYLE
  5
35
102
{ACAD_REACTORS
330
2A
102
}
330
2A
100
AcDbVisualStyle
  2
Dim
 70
    11
 71
     2
 72
     2
 73
     0
 90
        0
 40
-0.6
 41
-30.0
 62
     5
 63
     7
 74
     1
 91
        4
 64
     7
 65
   257
 75
     1
175
     1
 42
1.0
 92
        8
 66
     7
 43
1.0
 76
     1
 77
     6
 78
     2
 67
     7
 79
     5
170
     0
171
     0
290
     0
174
     0
 93
        1
 44
-50.0
173
     0
291
     1
 45
0.0
1001
ACAD
1000
AcDbSavedByObjectVersion
1070
     0
  0
VISUALSTYLE
  5
39
102
{ACAD_REACTORS
330
2A
102
}
330
2A
100
AcDbVisualStyle
  2
Facepattern
 70
    15
 71
     2
 72
     2
 73
     0
 90
        0
 40
-0.6
 41
-30.0
 62
     5
 63
     7
 74
     1
 91
        4
 64
     7
 65
   257
 75
     1
175
     1
 42
1.0
 92
        8
 66
     7
 43
1.0
 76
     1
 77
     6
 78
     2
 67
     7
 79
     5
170
     0
171
     0
290
     0
174
     0
 93
        1
 44
0.0
173
     0
291
     1
 45
0.0
1001
ACAD
1000
AcDbSavedByObjectVersion
1070
     0
  0
VISUALSTYLE
  5
2B
102
{ACAD_REACTORS
330
2A
102
}
330
2A
100
AcDbVisualStyle
  2
Flat
 70
     0
 71
     2
 72
     1
 73
     1
 90
        2
 40
-0.6
 41
30.0
 62
     5
 63
     7
 74
     0
 91
        4
 64
     7
 65
   257
 75
     1
175
     1
 42
1.0
 92
        8
 66
     7
 43
1.0
 76
     1
 77
     6
 78
     2
 67
     7
 79
     5
170
     0
171
     0
290
     0
174
     0
 93
       13
 44
0.0
173
     0
291
     1
 45
0.0
1001
ACAD
1000
AcDbSavedByObjectVersion
1070
     0
  0
VISUALSTYLE
  5
2C
102
{ACAD_REACTORS
330
2A
102
}
330
2A
100
AcDbVisualStyle
  2
FlatWithEdges
 70
     1
 71
     2
 72
     1
 73
     1
 90
        2
 40
-0.6
 41
30.0
 62
     5
 63
     7
 74
     1
 91
        4
 64
     7
 65
   257
 75
     1
175
     1
 42
1.0
 92
        0
 66
   257
 43
1.0
 76
     1
 77
     6
 78
     2
 67
     7
 79
     5
170
     0
171
     0
290
     0
174
     0
 93
       13
 44
0.0
173
     0
291
     1
 45
0.0
1001
ACAD
1000
AcDbSavedByObjectVersion
1070
     0
  0
VISUALSTYLE
  5
2D
102
{ACAD_REACTORS
330
2A
102
}
330
2A
100
AcDbVisualStyle
  2
Gouraud
 70
     2
 71
     2
 72
     2
 73
     1
 90
        2
 40
-0.6
 41
30.0
 62
     5
 63
     7
 74
     0
 91
        4
 64
     7
 65
   257
 75
     1
175
     1
 42
1.0
 92
        0
 66
     7
 43
1.0
 76
     1
 77
     6
 78
     2
 67
     7
 79
     5
170
     0
171
     0
290
     0
174
     0
 93
       13
 44
0.0
173
     0
291
     1
 45
0.0
1001
ACAD
1000
AcDbSavedByObjectVersion
1070
     0
  0
VISUALSTYLE
  5
2E
102
{ACAD_REACTORS
330
2A
102
}
330
2A
100
AcDbVisualStyle
  2
GouraudWithEdges
 70
     3
 71
     2
 72
     2
 73
     1
 90
        2
 40
-0.6
 41
30.0
 62
     5
 63
     7
 74
     1
 91
        4
 64
     7
 65
   257
 75
     1
175
     1
 42
1.0
 92
        0
 66
   257
 43
1.0
 76
     1
 77
     6
 78
     2
 67
     7
 79
     5
170
     0
171
     0
290
     0
174
     0
 93
       13
 44
0.0
173
     0
291
     1
 45
0.0
1001
ACAD
1000
AcDbSavedByObjectVersion
1070
     0
  0
VISUALSTYLE
  5
38
102
{ACAD_REACTORS
330
2A
102
}
330
2A
100
AcDbVisualStyle
  2
Linepattern
 70
    14
 71
     2
 72
     2
 73
     0
 90
        0
 40
-0.6
 41
-30.0
 62
     5
 63
     7
 74
     1
 91
        4
 64
     7
 65
   257
 75
     7
175
     7
 42
1.0
 92
        8
 66
     7
 43
1.0
 76
     1
 77
     6
 78
     2
 67
     7
 79
     5
170
     0
171
     0
290
     0
174
     0
 93
        1
 44
0.0
173
     0
291
     1
 45
0.0
1001
ACAD
1000
AcDbSavedByObjectVersion
1070
     0
  0
VISUALSTYLE
  5
33
102
{ACAD_REACTORS
330
2A
102
}
330
2A
100
AcDbVisualStyle
  2
Realistic
 70
     8
 71
     2
 72
     2
 73
     0
 90
        0
 40
-0.6
 41
-30.0
 62
     5
 63
     7
 74
     1
 91
        0
 64
     7
 65
   257
 75
     1
175
     1
 42
1.0
 92
        8
 66
     8
 43
1.0
 76
     1
 77
     6
 78
     2
 67
     7
 79
     5
170
     0
171
     0
290
     0
174
     0
 93
       13
 44
0.0
173
     0
291
     0
 45
0.0
1001
ACAD
1000
AcDbSavedByObjectVersion
1070
     0
  0
VISUALSTYLE
  5
37
102
{ACAD_REACTORS
330
2A
102
}
330
2A
100
AcDbVisualStyle
  2
Thicken
 70
    13
 71
     2
 72
     2
 73
     0
 90
        0
 40
-0.6
 41
-30.0
 62
     5
 63
     7
 74
     1
 91
        4
 64
     7
 65
   257
 75
     1
175
     1
 42
1.0
 92
       12
 66
     7
 43
1.0
 76
     1
 77
     6
 78
     2
 67
     7
 79
     5
170
     0
171
     0
290
     0
174
     0
 93
        1
 44
0.0
173
     0
291
     1
 45
0.0
1001
ACAD
1000
AcDbSavedByObjectVersion
1070
     0
  0
DICTIONARYVAR
  5
211
102
{ACAD_REACTORS
330
20F
102
}
330
20F
100
DictionaryVariables
280
     0
  1
80.000000
  0
DICTIONARYVAR
  5
210
102
{ACAD_REACTORS
330
20F
102
}
330
20F
100
DictionaryVariables
280
     0
  1
5.000000
  0
DICTIONARY
  5
212
330
1E
100
AcDbDictionary
280
     1
281
     1
  3
ACAD_XREC_ROUNDTRIP
360
213
  0
DICTIONARY
  5
216
330
26
100
AcDbDictionary
280
     1
281
     1
  3
ACAD_XREC_ROUNDTRIP
360
217
  0
DICTIONARY
  5
214
330
22
100
AcDbDictionary
280
     1
281
     1
  3
ACAD_XREC_ROUNDTRIP
360
215
  0
XRECORD
  5
213
102
{ACAD_REACTORS
330
212
102
}
330
212
100
AcDbXrecord
280
     1
102
SHADEPLOT
 70
     0
102
SHADEPLOTRESLEVEL
 70
     5
102
SHADEPLOTCUSTOMDPI
 70
   300
  0
XRECORD
  5
217
102
{ACAD_REACTORS
330
216
102
}
330
216
100
AcDbXrecord
280
     1
102
SHADEPLOT
 70
     0
102
SHADEPLOTRESLEVEL
 70
     5
102
SHADEPLOTCUSTOMDPI
 70
   300
  0
XRECORD
  5
215
102
{ACAD_REACTORS
330
214
102
}
330
214
100
AcDbXrecord
280
     1
102
SHADEPLOT
 70
     0
102
SHADEPLOTRESLEVEL
 70
     5
102
SHADEPLOTCUSTOMDPI
 70
   300
  0
ENDSEC
  0
EOF
