  0
SECTION
  2
HEADER
  9
$ACADVER
  1
AC1018
  9
$ACADMAINTVER
 70
     0
  9
$DWGCODEPAGE
  3
ANSI_932
  9
$INSBASE
 10
0.0
 20
0.0
 30
0.0
  9
$EXTMIN
 10
-1260.0
 20
-891.0
 30
0.0
  9
$EXTMAX
 10
1260.0
 20
891.0
 30
0.0
  9
$LIMMIN
 10
-1260.0
 20
-891.0
  9
$LIMMAX
 10
1260.0
 20
891.0
  9
$ORTHOMODE
 70
     0
  9
$REGENMODE
 70
     1
  9
$FILLMODE
 70
     1
  9
$QTEXTMODE
 70
     0
  9
$MIRRTEXT
 70
     1
  9
$LTSCALE
 40
6.0
  9
$ATTMODE
 70
     1
  9
$TEXTSIZE
 40
2.5
  9
$TRACEWID
 40
1.0
  9
$TEXTSTYLE
  7
Standard
  9
$CLAYER
  8
0
  9
$CELTYPE
  6
ByLayer
  9
$CECOLOR
 62
   256
  9
$CELTSCALE
 40
1.0
  9
$DISPSILH
 70
     0
  9
$DIMSCALE
 40
1.0
  9
$DIMASZ
 40
2.5
  9
$DIMEXO
 40
0.625
  9
$DIMDLI
 40
3.75
  9
$DIMRND
 40
0.0
  9
$DIMDLE
 40
0.0
  9
$DIMEXE
 40
1.25
  9
$DIMTP
 40
0.0
  9
$DIMTM
 40
0.0
  9
$DIMTXT
 40
2.5
  9
$DIMCEN
 40
2.5
  9
$DIMTSZ
 40
0.0
  9
$DIMTOL
 70
     0
  9
$DIMLIM
 70
     0
  9
$DIMTIH
 70
     0
  9
$DIMTOH
 70
     0
  9
$DIMSE1
 70
     0
  9
$DIMSE2
 70
     0
  9
$DIMTAD
 70
     1
  9
$DIMZIN
 70
     8
  9
$DIMBLK
  1

  9
$DIMASO
 70
     1
  9
$DIMSHO
 70
     1
  9
$DIMPOST
  1

  9
$DIMAPOST
  1

  9
$DIMALT
 70
     0
  9
$DIMALTD
 70
     3
  9
$DIMALTF
 40
0.03937007874016
  9
$DIMLFAC
 40
1.0
  9
$DIMTOFL
 70
     1
  9
$DIMTVP
 40
0.0
  9
$DIMTIX
 70
     0
  9
$DIMSOXD
 70
     0
  9
$DIMSAH
 70
     0
  9
$DIMBLK1
  1

  9
$DIMBLK2
  1

  9
$DIMSTYLE
  2
ISO-25
  9
$DIMCLRD
 70
     0
  9
$DIMCLRE
 70
     0
  9
$DIMCLRT
 70
     0
  9
$DIMTFAC
 40
1.0
  9
$DIMGAP
 40
0.625
  9
$DIMJUST
 70
     0
  9
$DIMSD1
 70
     0
  9
$DIMSD2
 70
     0
  9
$DIMTOLJ
 70
     0
  9
$DIMTZIN
 70
     8
  9
$DIMALTZ
 70
     0
  9
$DIMALTTZ
 70
     0
  9
$DIMUPT
 70
     0
  9
$DIMDEC
 70
     2
  9
$DIMTDEC
 70
     2
  9
$DIMALTU
 70
     2
  9
$DIMALTTD
 70
     3
  9
$DIMTXSTY
  7
Standard
  9
$DIMAUNIT
 70
     0
  9
$DIMADEC
 70
     0
  9
$DIMALTRND
 40
0.0
  9
$DIMAZIN
 70
     0
  9
$DIMDSEP
 70
    44
  9
$DIMATFIT
 70
     3
  9
$DIMFRAC
 70
     0
  9
$DIMLDRBLK
  1

  9
$DIMLUNIT
 70
     2
  9
$DIMLWD
 70
    -2
  9
$DIMLWE
 70
    -2
  9
$DIMTMOVE
 70
     0
  9
$LUNITS
 70
     2
  9
$LUPREC
 70
     4
  9
$SKETCHINC
 40
1.0
  9
$FILLETRAD
 40
10.0
  9
$AUNITS
 70
     0
  9
$AUPREC
 70
     0
  9
$MENU
  1
.
  9
$ELEVATION
 40
0.0
  9
$PELEVATION
 40
0.0
  9
$THICKNESS
 40
0.0
  9
$LIMCHECK
 70
     0
  9
$CHAMFERA
 40
10.0
  9
$CHAMFERB
 40
10.0
  9
$CHAMFERC
 40
20.0
  9
$CHAMFERD
 40
0.0
  9
$SKPOLY
 70
     0
  9
$TDCREATE
 40
2457424.661396701
  9
$TDUCREATE
 40
2457424.286396701
  9
$TDUPDATE
 40
2457424.661396713
  9
$TDUUPDATE
 40
2457424.286396713
  9
$TDINDWG
 40
0.0000000116
  9
$TDUSRTIMER
 40
0.0000000116
  9
$USRTIMER
 70
     1
  9
$ANGBASE
 50
0.0
  9
$ANGDIR
 70
     0
  9
$PDMODE
 70
     0
  9
$PDSIZE
 40
0.0
  9
$PLINEWID
 40
0.0
  9
$SPLFRAME
 70
     0
  9
$SPLINETYPE
 70
     6
  9
$SPLINESEGS
 70
     8
  9
$HANDSEED
  5
276
  9
$SURFTAB1
 70
     6
  9
$SURFTAB2
 70
     6
  9
$SURFTYPE
 70
     6
  9
$SURFU
 70
     6
  9
$SURFV
 70
     6
  9
$UCSBASE
  2

  9
$UCSNAME
  2

  9
$UCSORG
 10
0.0
 20
0.0
 30
0.0
  9
$UCSXDIR
 10
1.0
 20
0.0
 30
0.0
  9
$UCSYDIR
 10
0.0
 20
1.0
 30
0.0
  9
$UCSORTHOREF
  2

  9
$UCSORTHOVIEW
 70
     0
  9
$UCSORGTOP
 10
0.0
 20
0.0
 30
0.0
  9
$UCSORGBOTTOM
 10
0.0
 20
0.0
 30
0.0
  9
$UCSORGLEFT
 10
0.0
 20
0.0
 30
0.0
  9
$UCSORGRIGHT
 10
0.0
 20
0.0
 30
0.0
  9
$UCSORGFRONT
 10
0.0
 20
0.0
 30
0.0
  9
$UCSORGBACK
 10
0.0
 20
0.0
 30
0.0
  9
$PUCSBASE
  2

  9
$PUCSNAME
  2

  9
$PUCSORG
 10
0.0
 20
0.0
 30
0.0
  9
$PUCSXDIR
 10
1.0
 20
0.0
 30
0.0
  9
$PUCSYDIR
 10
0.0
 20
1.0
 30
0.0
  9
$PUCSORTHOREF
  2

  9
$PUCSORTHOVIEW
 70
     0
  9
$PUCSORGTOP
 10
0.0
 20
0.0
 30
0.0
  9
$PUCSORGBOTTOM
 10
0.0
 20
0.0
 30
0.0
  9
$PUCSORGLEFT
 10
0.0
 20
0.0
 30
0.0
  9
$PUCSORGRIGHT
 10
0.0
 20
0.0
 30
0.0
  9
$PUCSORGFRONT
 10
0.0
 20
0.0
 30
0.0
  9
$PUCSORGBACK
 10
0.0
 20
0.0
 30
0.0
  9
$USERI1
 70
     0
  9
$USERI2
 70
     0
  9
$USERI3
 70
     0
  9
$USERI4
 70
     0
  9
$USERI5
 70
     0
  9
$USERR1
 40
0.0
  9
$USERR2
 40
0.0
  9
$USERR3
 40
0.0
  9
$USERR4
 40
0.0
  9
$USERR5
 40
0.0
  9
$WORLDVIEW
 70
     1
  9
$SHADEDGE
 70
     3
  9
$SHADEDIF
 70
    70
  9
$TILEMODE
 70
     1
  9
$MAXACTVP
 70
    64
  9
$PINSBASE
 10
0.0
 20
0.0
 30
0.0
  9
$PLIMCHECK
 70
     0
  9
$PEXTMIN
 10
1.000000000000000E+20
 20
1.000000000000000E+20
 30
1.000000000000000E+20
  9
$PEXTMAX
 10
-1.000000000000000E+20
 20
-1.000000000000000E+20
 30
-1.000000000000000E+20
  9
$PLIMMIN
 10
0.0
 20
0.0
  9
$PLIMMAX
 10
420.0
 20
297.0
  9
$UNITMODE
 70
     0
  9
$VISRETAIN
 70
     1
  9
$PLINEGEN
 70
     0
  9
$PSLTSCALE
 70
     1
  9
$TREEDEPTH
 70
  3020
  9
$CMLSTYLE
  2
Standard
  9
$CMLJUST
 70
     0
  9
$CMLSCALE
 40
20.0
  9
$PROXYGRAPHICS
 70
     1
  9
$MEASUREMENT
 70
     1
  9
$CELWEIGHT
370
    -1
  9
$ENDCAPS
280
     0
  9
$JOINSTYLE
280
     0
  9
$LWDISPLAY
290
     0
  9
$INSUNITS
 70
     4
  9
$HYPERLINKBASE
  1

  9
$STYLESHEET
  1

  9
$XEDIT
290
     1
  9
$CEPSNTYPE
380
     0
  9
$PSTYLEMODE
290
     1
  9
$FINGERPRINTGUID
  2
{3EFCE89D-B7BA-44A9-B3E9-A9EF642D63DB}
  9
$VERSIONGUID
  2
{FAEB1C32-E019-11D5-929B-00C0DF256EC4}
  9
$EXTNAMES
290
     1
  9
$PSVPSCALE
 40
0.0
  9
$OLESTARTUP
290
     0
  9
$SORTENTS
280
   127
  9
$INDEXCTL
280
     0
  9
$HIDETEXT
280
     1
  9
$XCLIPFRAME
290
     0
  9
$HALOGAP
280
     0
  9
$OBSCOLOR
 70
   257
  9
$OBSLTYPE
280
     0
  9
$INTERSECTIONDISPLAY
280
     0
  9
$INTERSECTIONCOLOR
 70
   257
  9
$DIMASSOC
280
     2
  9
$PROJECTNAME
  1

  0
ENDSEC
  0
SECTION
  2
CLASSES
  0
CLASS
  1
ACDBDICTIONARYWDFLT
  2
AcDbDictionaryWithDefault
  3
ObjectDBX Classes
 90
        0
 91
        4
280
     0
281
     0
  0
CLASS
  1
VISUALSTYLE
  2
AcDbVisualStyle
  3
ObjectDBX Classes
 90
     4095
 91
        4
280
     0
281
     0
  0
ENDSEC
  0
SECTION
  2
TABLES
  0
TABLE
  2
VPORT
  5
8
330
0
100
AcDbSymbolTable
 70
     1
  0
VPORT
  5
29
330
8
100
AcDbSymbolTableRecord
100
AcDbViewportTableRecord
  2
*Active
 70
     0
 10
0.0
 20
0.0
 11
1.0
 21
1.0
 12
0.0
 22
0.0
 13
0.0
 23
0.0
 14
10.0
 24
10.0
 15
10.0
 25
10.0
 16
0.0
 26
0.0
 36
1.0
 17
0.0
 27
0.0
 37
0.0
 40
1960.2
 41
1.414141414141414
 42
50.0
 43
0.0
 44
0.0
 50
0.0
 51
0.0
 71
     0
 72
 10000
 73
     1
 74
     3
 75
     0
 76
     0
 77
     0
 78
     0
281
     0
 65
     1
110
0.0
120
0.0
130
0.0
111
1.0
121
0.0
131
0.0
112
0.0
122
1.0
132
0.0
 79
     0
146
0.0
  0
ENDTAB
  0
TABLE
  2
LTYPE
  5
5
330
0
100
AcDbSymbolTable
 70
     3
  0
LTYPE
  5
14
330
5
100
AcDbSymbolTableRecord
100
AcDbLinetypeTableRecord
  2
ByBlock
 70
     0
  3

 72
    65
 73
     0
 40
0.0
  0
LTYPE
  5
15
330
5
100
AcDbSymbolTableRecord
100
AcDbLinetypeTableRecord
  2
ByLayer
 70
     0
  3

 72
    65
 73
     0
 40
0.0
  0
LTYPE
  5
16
330
5
100
AcDbSymbolTableRecord
100
AcDbLinetypeTableRecord
  2
Continuous
 70
     0
  3
Solid line
 72
    65
 73
     0
 40
0.0
  0
LTYPE
  5
3C
330
5
100
AcDbSymbolTableRecord
100
AcDbLinetypeTableRecord
  2
JWW_CENTER1
 70
     0
  3
-----  --  ----------  --  -----
 72
    65
 73
     4
 40
6.773333333333333
 49
4.233333333333333
 74
     0
 49
-0.8466666666666667
 74
     0
 49
0.8466666666666667
 74
     0
 49
-0.8466666666666667
 74
     0
  0
LTYPE
  5
3D
330
5
100
AcDbSymbolTableRecord
100
AcDbLinetypeTableRecord
  2
JWW_DASHED1
 70
     0
  3
-  --  --  --  --  --  --  --  -
 72
    65
 73
     2
 40
1.693333333333333
 49
0.8466666666666667
 74
     0
 49
-0.8466666666666667
 74
     0
  0
ENDTAB
  0
TABLE
  2
LAYER
  5
2
330
0
100
AcDbSymbolTable
 70
    14
  0
LAYER
  5
10
330
2
100
AcDbSymbolTableRecord
100
AcDbLayerTableRecord
  2
0
 70
     0
 62
     7
  6
Continuous
370
    -3
390
F
  0
LAYER
  5
3E
330
2
100
AcDbSymbolTableRecord
100
AcDbLayerTableRecord
  2
1-4ﾚｲﾔ
 70
     0
 62
     7
  6
Continuous
370
    -3
390
F
  0
LAYER
  5
3F
330
2
100
AcDbSymbolTableRecord
100
AcDbLayerTableRecord
  2
F-Fﾚｲﾔ
 70
     0
 62
     7
  6
Continuous
370
    -3
390
F
  0
LAYER
  5
40
330
2
100
AcDbSymbolTableRecord
100
AcDbLayerTableRecord
  2
1-0ﾚｲﾔ
 70
     0
 62
     7
  6
Continuous
370
    -3
390
F
  0
LAYER
  5
41
330
2
100
AcDbSymbolTableRecord
100
AcDbLayerTableRecord
  2
1-1ﾚｲﾔ
 70
     0
 62
     7
  6
Continuous
370
    -3
390
F
  0
LAYER
  5
42
330
2
100
AcDbSymbolTableRecord
100
AcDbLayerTableRecord
  2
1-2ﾚｲﾔ
 70
     0
 62
     7
  6
Continuous
370
    -3
390
F
  0
LAYER
  5
43
330
2
100
AcDbSymbolTableRecord
100
AcDbLayerTableRecord
  2
1-F
 70
     0
 62
     7
  6
Continuous
370
    -3
390
F
  0
LAYER
  5
44
330
2
100
AcDbSymbolTableRecord
100
AcDbLayerTableRecord
  2
F-2ﾚｲﾔ
 70
     0
 62
     7
  6
Continuous
370
    -3
390
F
  0
LAYER
  5
45
330
2
100
AcDbSymbolTableRecord
100
AcDbLayerTableRecord
  2
F-0ﾚｲﾔ
 70
     0
 62
     7
  6
Continuous
370
    -3
390
F
  0
LAYER
  5
46
330
2
100
AcDbSymbolTableRecord
100
AcDbLayerTableRecord
  2
F-1ﾚｲﾔ
 70
     0
 62
     7
  6
Continuous
370
    -3
390
F
  0
LAYER
  5
47
330
2
100
AcDbSymbolTableRecord
100
AcDbLayerTableRecord
  2
F-4ﾚｲﾔ
 70
     0
 62
     7
  6
Continuous
370
    -3
390
F
  0
LAYER
  5
48
330
2
100
AcDbSymbolTableRecord
100
AcDbLayerTableRecord
  2
1-3ﾚｲﾔ
 70
     0
 62
     7
  6
Continuous
370
    -3
390
F
  0
LAYER
  5
49
330
2
100
AcDbSymbolTableRecord
100
AcDbLayerTableRecord
  2
F-3ﾚｲﾔ
 70
     0
 62
     7
  6
Continuous
370
    -3
390
F
  0
LAYER
  5
4A
330
2
100
AcDbSymbolTableRecord
100
AcDbLayerTableRecord
  2
F-5ﾚｲﾔ
 70
     0
 62
     7
  6
Continuous
370
    -3
390
F
  0
ENDTAB
  0
TABLE
  2
STYLE
  5
3
330
0
100
AcDbSymbolTable
 70
     2
  0
STYLE
  5
11
330
3
100
AcDbSymbolTableRecord
100
AcDbTextStyleTableRecord
  2
Standard
 70
     0
 40
0.0
 41
1.0
 50
0.0
 71
     0
 42
2.5
  3
txt
  4

1001
ACAD
1000

1071
        0
  0
STYLE
  5
3B
330
3
100
AcDbSymbolTableRecord
100
AcDbTextStyleTableRecord
  2
ＭＳ ゴシック
 70
     0
 40
1.0
 41
1.0
 50
0.0
 71
     0
 42
10.0
  3

  4

1001
ACAD
1000
MS Gothic
1071
    32817
  0
ENDTAB
  0
TABLE
  2
VIEW
  5
6
330
0
100
AcDbSymbolTable
 70
     0
  0
ENDTAB
  0
TABLE
  2
UCS
  5
7
330
0
100
AcDbSymbolTable
 70
     0
  0
ENDTAB
  0
TABLE
  2
APPID
  5
9
330
0
100
AcDbSymbolTable
 70
     1
  0
APPID
  5
12
330
9
100
AcDbSymbolTableRecord
100
AcDbRegAppTableRecord
  2
ACAD
 70
     0
  0
ENDTAB
  0
TABLE
  2
DIMSTYLE
  5
A
330
0
100
AcDbSymbolTable
 70
     1
100
AcDbDimStyleTable
  0
DIMSTYLE
105
27
330
A
100
AcDbSymbolTableRecord
100
AcDbDimStyleTableRecord
  2
ISO-25
 70
     0
 41
2.5
 42
0.625
 43
3.75
 44
1.25
 73
     0
 74
     0
 77
     1
 78
     8
140
2.5
141
2.5
143
0.03937007874016
147
0.625
171
     3
172
     1
271
     2
272
     2
274
     3
278
    44
283
     0
284
     8
340
11
  0
ENDTAB
  0
TABLE
  2
BLOCK_RECORD
  5
1
330
0
100
AcDbSymbolTable
 70
     1
  0
BLOCK_RECORD
  5
1F
330
1
100
AcDbSymbolTableRecord
100
AcDbBlockTableRecord
  2
*Model_Space
340
22
  0
BLOCK_RECORD
  5
1B
330
1
100
AcDbSymbolTableRecord
100
AcDbBlockTableRecord
  2
*Paper_Space
340
1E
  0
BLOCK_RECORD
  5
23
330
1
100
AcDbSymbolTableRecord
100
AcDbBlockTableRecord
  2
*Paper_Space0
340
26
  0
ENDTAB
  0
ENDSEC
  0
SECTION
  2
BLOCKS
  0
BLOCK
  5
20
330
1F
100
AcDbEntity
  8
0
100
AcDbBlockBegin
  2
*Model_Space
 70
     0
 10
0.0
 20
0.0
 30
0.0
  3
*Model_Space
  1

  0
ENDBLK
  5
21
330
1F
100
AcDbEntity
  8
0
100
AcDbBlockEnd
  0
BLOCK
  5
1C
330
1B
100
AcDbEntity
 67
     1
  8
0
100
AcDbBlockBegin
  2
*Paper_Space
 70
     0
 10
0.0
 20
0.0
 30
0.0
  3
*Paper_Space
  1

  0
ENDBLK
  5
1D
330
1B
100
AcDbEntity
 67
     1
  8
0
100
AcDbBlockEnd
  0
BLOCK
  5
24
330
23
100
AcDbEntity
  8
0
100
AcDbBlockBegin
  2
*Paper_Space0
 70
     0
 10
0.0
 20
0.0
 30
0.0
  3
*Paper_Space0
  1

  0
ENDBLK
  5
25
330
23
100
AcDbEntity
  8
0
100
AcDbBlockEnd
  0
ENDSEC
  0
SECTION
  2
ENTITIES
  0
LWPOLYLINE
  5
4B
330
1F
100
AcDbEntity
  8
1-4ﾚｲﾔ
  6
Continuous
 62
     7
370
     9
100
AcDbPolyline
 90
        4
 70
     1
 43
0.6000000000000001
 10
-587.0783915751689
 20
662.8017314189191
 42
0.4142135623731
 10
-587.378391575169
 20
663.101731418919
 42
0.4142135623731
 10
-587.6783915751689
 20
662.8017314189191
 42
0.4142135623731
 10
-587.378391575169
 20
662.5017314189191
 42
0.4142135623731
  0
LWPOLYLINE
  5
4C
330
1F
100
AcDbEntity
  8
1-4ﾚｲﾔ
  6
Continuous
 62
     7
370
     9
100
AcDbPolyline
 90
        4
 70
     1
 43
0.6000000000000001
 10
-562.0785565350507
 20
662.8017314189191
 42
0.4142135623731
 10
-562.3785565350506
 20
663.101731418919
 42
0.4142135623731
 10
-562.6785565350506
 20
662.8017314189191
 42
0.4142135623731
 10
-562.3785565350506
 20
662.5017314189191
 42
0.4142135623731
  0
LWPOLYLINE
  5
4D
330
1F
100
AcDbEntity
  8
1-4ﾚｲﾔ
  6
Continuous
 62
     7
370
     9
100
AcDbPolyline
 90
        4
 70
     1
 43
0.6000000000000001
 10
-262.0784575591216
 20
662.8017314189191
 42
0.4142135623731
 10
-262.3784575591216
 20
663.101731418919
 42
0.4142135623731
 10
-262.6784575591215
 20
662.8017314189191
 42
0.4142135623731
 10
-262.3784575591216
 20
662.5017314189191
 42
0.4142135623731
  0
LWPOLYLINE
  5
4E
330
1F
100
AcDbEntity
  8
1-4ﾚｲﾔ
  6
Continuous
 62
     7
370
     9
100
AcDbPolyline
 90
        4
 70
     1
 43
0.6000000000000001
 10
-237.0785482870566
 20
662.8017314189191
 42
0.4142135623731
 10
-237.3785482870566
 20
663.101731418919
 42
0.4142135623731
 10
-237.6785482870565
 20
662.8017314189191
 42
0.4142135623731
 10
-237.3785482870566
 20
662.5017314189191
 42
0.4142135623731
  0
LWPOLYLINE
  5
4F
330
1F
100
AcDbEntity
  8
1-4ﾚｲﾔ
  6
Continuous
 62
     7
370
     9
100
AcDbPolyline
 90
        4
 70
     1
 43
0.6000000000000001
 10
-587.0783915751689
 20
710.8015928526185
 42
0.4142135623731
 10
-587.378391575169
 20
711.1015928526184
 42
0.4142135623731
 10
-587.6783915751689
 20
710.8015928526185
 42
0.4142135623731
 10
-587.378391575169
 20
710.5015928526185
 42
0.4142135623731
  0
LWPOLYLINE
  5
50
330
1F
100
AcDbEntity
  8
1-4ﾚｲﾔ
  6
Continuous
 62
     7
370
     9
100
AcDbPolyline
 90
        4
 70
     1
 43
0.6000000000000001
 10
-237.0785482870566
 20
710.8015928526185
 42
0.4142135623731
 10
-237.3785482870566
 20
711.1015928526184
 42
0.4142135623731
 10
-237.6785482870565
 20
710.8015928526185
 42
0.4142135623731
 10
-237.3785482870566
 20
710.5015928526185
 42
0.4142135623731
  0
LWPOLYLINE
  5
51
330
1F
100
AcDbEntity
  8
1-4ﾚｲﾔ
  6
Continuous
 62
     7
370
     9
100
AcDbPolyline
 90
        4
 70
     1
 43
0.6000000000000001
 10
-647.0782925992398
 20
252.8017644108953
 42
0.4142135623731
 10
-647.3782925992398
 20
253.1017644108953
 42
0.4142135623731
 10
-647.6782925992399
 20
252.8017644108953
 42
0.4142135623731
 10
-647.3782925992398
 20
252.5017644108953
 42
0.4142135623731
  0
LWPOLYLINE
  5
52
330
1F
100
AcDbEntity
  8
1-4ﾚｲﾔ
  6
Continuous
 62
     7
370
     9
100
AcDbPolyline
 90
        4
 70
     1
 43
0.6000000000000001
 10
-647.0782925992398
 20
277.8015994510136
 42
0.4142135623731
 10
-647.3782925992398
 20
278.1015994510136
 42
0.4142135623731
 10
-647.6782925992399
 20
277.8015994510136
 42
0.4142135623731
 10
-647.3782925992398
 20
277.5015994510136
 42
0.4142135623731
  0
LWPOLYLINE
  5
53
330
1F
100
AcDbEntity
  8
1-4ﾚｲﾔ
  6
Continuous
 62
     7
370
     9
100
AcDbPolyline
 90
        4
 70
     1
 43
0.6000000000000001
 10
-647.0782925992398
 20
577.8016984269427
 42
0.4142135623731
 10
-647.3782925992398
 20
578.1016984269427
 42
0.4142135623731
 10
-647.6782925992399
 20
577.8016984269427
 42
0.4142135623731
 10
-647.3782925992398
 20
577.5016984269427
 42
0.4142135623731
  0
LWPOLYLINE
  5
54
330
1F
100
AcDbEntity
  8
1-4ﾚｲﾔ
  6
Continuous
 62
     7
370
     9
100
AcDbPolyline
 90
        4
 70
     1
 43
0.6000000000000001
 10
-647.0782925992398
 20
602.801533467061
 42
0.4142135623731
 10
-647.3782925992398
 20
603.1015334670609
 42
0.4142135623731
 10
-647.6782925992399
 20
602.801533467061
 42
0.4142135623731
 10
-647.3782925992398
 20
602.501533467061
 42
0.4142135623731
  0
LWPOLYLINE
  5
55
330
1F
100
AcDbEntity
  8
1-4ﾚｲﾔ
  6
Continuous
 62
     7
370
     9
100
AcDbPolyline
 90
        4
 70
     1
 43
0.6000000000000001
 10
-695.0784509607263
 20
252.8017644108953
 42
0.4142135623731
 10
-695.3784509607264
 20
253.1017644108953
 42
0.4142135623731
 10
-695.6784509607263
 20
252.8017644108953
 42
0.4142135623731
 10
-695.3784509607264
 20
252.5017644108953
 42
0.4142135623731
  0
LWPOLYLINE
  5
56
330
1F
100
AcDbEntity
  8
1-4ﾚｲﾔ
  6
Continuous
 62
     7
370
     9
100
AcDbPolyline
 90
        4
 70
     1
 43
0.6000000000000001
 10
-695.0784509607263
 20
602.801533467061
 42
0.4142135623731
 10
-695.3784509607264
 20
603.1015334670609
 42
0.4142135623731
 10
-695.6784509607263
 20
602.801533467061
 42
0.4142135623731
 10
-695.3784509607264
 20
602.501533467061
 42
0.4142135623731
  0
LWPOLYLINE
  5
57
330
1F
100
AcDbEntity
  8
1-4ﾚｲﾔ
  6
Continuous
 62
     7
370
     9
100
AcDbPolyline
 90
        4
 70
     1
 43
0.6000000000000001
 10
-562.0785565350507
 20
-77.01107210726343
 42
0.4142135623731
 10
-562.3785565350506
 20
-76.71107210726342
 42
0.4142135623731
 10
-562.6785565350506
 20
-77.01107210726343
 42
0.4142135623731
 10
-562.3785565350506
 20
-77.31107210726344
 42
0.4142135623731
  0
LWPOLYLINE
  5
58
330
1F
100
AcDbEntity
  8
1-4ﾚｲﾔ
  6
Continuous
 62
     7
370
     9
100
AcDbPolyline
 90
        4
 70
     1
 43
0.6000000000000001
 10
-560.5784773543074
 20
-77.01107210726343
 42
0.4142135623731
 10
-560.8784773543074
 20
-76.71107210726342
 42
0.4142135623731
 10
-561.1784773543075
 20
-77.01107210726343
 42
0.4142135623731
 10
-560.8784773543074
 20
-77.31107210726344
 42
0.4142135623731
  0
LWPOLYLINE
  5
59
330
1F
100
AcDbEntity
  8
1-4ﾚｲﾔ
  6
Continuous
 62
     7
370
     9
100
AcDbPolyline
 90
        4
 70
     1
 43
0.6000000000000001
 10
-560.0784509607263
 20
-77.01107210726343
 42
0.4142135623731
 10
-560.3784509607264
 20
-76.71107210726342
 42
0.4142135623731
 10
-560.6784509607263
 20
-77.01107210726343
 42
0.4142135623731
 10
-560.3784509607264
 20
-77.31107210726344
 42
0.4142135623731
  0
LWPOLYLINE
  5
5A
330
1F
100
AcDbEntity
  8
1-4ﾚｲﾔ
  6
Continuous
 62
     7
370
     9
100
AcDbPolyline
 90
        4
 70
     1
 43
0.6000000000000001
 10
-266.5785466374576
 20
-77.01107210726343
 42
0.4142135623731
 10
-266.8785466374576
 20
-76.71107210726342
 42
0.4142135623731
 10
-267.1785466374577
 20
-77.01107210726343
 42
0.4142135623731
 10
-266.8785466374576
 20
-77.31107210726344
 42
0.4142135623731
  0
LWPOLYLINE
  5
5B
330
1F
100
AcDbEntity
  8
1-4ﾚｲﾔ
  6
Continuous
 62
     7
370
     9
100
AcDbPolyline
 90
        4
 70
     1
 43
0.6000000000000001
 10
-263.5784625079179
 20
-77.01107210726343
 42
0.4142135623731
 10
-263.878462507918
 20
-76.71107210726342
 42
0.4142135623731
 10
-264.178462507918
 20
-77.01107210726343
 42
0.4142135623731
 10
-263.878462507918
 20
-77.31107210726344
 42
0.4142135623731
  0
LWPOLYLINE
  5
5C
330
1F
100
AcDbEntity
  8
1-4ﾚｲﾔ
  6
Continuous
 62
     7
370
     9
100
AcDbPolyline
 90
        4
 70
     1
 43
0.6000000000000001
 10
-262.0786060230151
 20
-77.01107210726343
 42
0.4142135623731
 10
-262.3786060230152
 20
-76.71107210726342
 42
0.4142135623731
 10
-262.6786060230152
 20
-77.01107210726343
 42
0.4142135623731
 10
-262.3786060230152
 20
-77.31107210726344
 42
0.4142135623731
  0
LWPOLYLINE
  5
5D
330
1F
100
AcDbEntity
  8
1-4ﾚｲﾔ
  6
Continuous
 62
     7
370
     9
100
AcDbPolyline
 90
        4
 70
     1
 43
0.6000000000000001
 10
-562.0785565350507
 20
-29.01091374577703
 42
0.4142135623731
 10
-562.3785565350506
 20
-28.71091374577703
 42
0.4142135623731
 10
-562.6785565350506
 20
-29.01091374577703
 42
0.4142135623731
 10
-562.3785565350506
 20
-29.31091374577703
 42
0.4142135623731
  0
LWPOLYLINE
  5
5E
330
1F
100
AcDbEntity
  8
1-4ﾚｲﾔ
  6
Continuous
 62
     7
370
     9
100
AcDbPolyline
 90
        4
 70
     1
 43
0.6000000000000001
 10
-262.0786060230151
 20
-29.01091374577703
 42
0.4142135623731
 10
-262.3786060230152
 20
-28.71091374577703
 42
0.4142135623731
 10
-262.6786060230152
 20
-29.01091374577703
 42
0.4142135623731
 10
-262.3786060230152
 20
-29.31091374577703
 42
0.4142135623731
  0
LWPOLYLINE
  5
5F
330
1F
100
AcDbEntity
  8
1-4ﾚｲﾔ
  6
Continuous
 62
     7
370
     9
100
AcDbPolyline
 90
        4
 70
     1
 43
0.6000000000000001
 10
-647.0782925992398
 20
-487.0110391152871
 42
0.4142135623731
 10
-647.3782925992398
 20
-486.7110391152871
 42
0.4142135623731
 10
-647.6782925992399
 20
-487.0110391152871
 42
0.4142135623731
 10
-647.3782925992398
 20
-487.3110391152871
 42
0.4142135623731
  0
LWPOLYLINE
  5
60
330
1F
100
AcDbEntity
  8
1-4ﾚｲﾔ
  6
Continuous
 62
     7
370
     9
100
AcDbPolyline
 90
        4
 70
     1
 43
0.6000000000000001
 10
-647.0782925992398
 20
-437.0107751794764
 42
0.4142135623731
 10
-647.3782925992398
 20
-436.7107751794763
 42
0.4142135623731
 10
-647.6782925992399
 20
-437.0107751794764
 42
0.4142135623731
 10
-647.3782925992398
 20
-437.3107751794763
 42
0.4142135623731
  0
LWPOLYLINE
  5
61
330
1F
100
AcDbEntity
  8
1-4ﾚｲﾔ
  6
Continuous
 62
     7
370
     9
100
AcDbPolyline
 90
        4
 70
     1
 43
0.6000000000000001
 10
-647.0782925992398
 20
-387.0111050992398
 42
0.4142135623731
 10
-647.3782925992398
 20
-386.7111050992398
 42
0.4142135623731
 10
-647.6782925992399
 20
-387.0111050992398
 42
0.4142135623731
 10
-647.3782925992398
 20
-387.3111050992399
 42
0.4142135623731
  0
LWPOLYLINE
  5
62
330
1F
100
AcDbEntity
  8
1-4ﾚｲﾔ
  6
Continuous
 62
     7
370
     9
100
AcDbPolyline
 90
        4
 70
     1
 43
0.6000000000000001
 10
-647.0782925992398
 20
-337.0109896273226
 42
0.4142135623731
 10
-647.3782925992398
 20
-336.7109896273226
 42
0.4142135623731
 10
-647.6782925992399
 20
-337.0109896273226
 42
0.4142135623731
 10
-647.3782925992398
 20
-337.3109896273226
 42
0.4142135623731
  0
LWPOLYLINE
  5
63
330
1F
100
AcDbEntity
  8
1-4ﾚｲﾔ
  6
Continuous
 62
     7
370
     9
100
AcDbPolyline
 90
        4
 70
     1
 43
0.6000000000000001
 10
-695.0784509607263
 20
-487.0110391152871
 42
0.4142135623731
 10
-695.3784509607264
 20
-486.7110391152871
 42
0.4142135623731
 10
-695.6784509607263
 20
-487.0110391152871
 42
0.4142135623731
 10
-695.3784509607264
 20
-487.3110391152871
 42
0.4142135623731
  0
LWPOLYLINE
  5
64
330
1F
100
AcDbEntity
  8
1-4ﾚｲﾔ
  6
Continuous
 62
     7
370
     9
100
AcDbPolyline
 90
        4
 70
     1
 43
0.6000000000000001
 10
-695.0784509607263
 20
-137.011121595228
 42
0.4142135623731
 10
-695.3784509607264
 20
-136.711121595228
 42
0.4142135623731
 10
-695.6784509607263
 20
-137.011121595228
 42
0.4142135623731
 10
-695.3784509607264
 20
-137.311121595228
 42
0.4142135623731
  0
LWPOLYLINE
  5
65
330
1F
100
AcDbEntity
  8
1-4ﾚｲﾔ
  6
Continuous
 62
     7
370
     9
100
AcDbPolyline
 90
        4
 70
     1
 43
0.6000000000000001
 10
-502.0785070470861
 20
-547.0109401393581
 42
0.4142135623731
 10
-502.3785070470861
 20
-546.7109401393582
 42
0.4142135623731
 10
-502.6785070470861
 20
-547.0109401393581
 42
0.4142135623731
 10
-502.3785070470861
 20
-547.3109401393581
 42
0.4142135623731
  0
LWPOLYLINE
  5
66
330
1F
100
AcDbEntity
  8
1-4ﾚｲﾔ
  6
Continuous
 62
     7
370
     9
100
AcDbPolyline
 90
        4
 70
     1
 43
0.6000000000000001
 10
-322.0784328151394
 20
-547.0109401393581
 42
0.4142135623731
 10
-322.3784328151394
 20
-546.7109401393582
 42
0.4142135623731
 10
-322.6784328151393
 20
-547.0109401393581
 42
0.4142135623731
 10
-322.3784328151394
 20
-547.3109401393581
 42
0.4142135623731
  0
LWPOLYLINE
  5
67
330
1F
100
AcDbEntity
  8
1-4ﾚｲﾔ
  6
Continuous
 62
     7
370
     9
100
AcDbPolyline
 90
        4
 70
     1
 43
0.6000000000000001
 10
-177.0785730310387
 20
-487.0110391152871
 42
0.4142135623731
 10
-177.3785730310387
 20
-486.7110391152871
 42
0.4142135623731
 10
-177.6785730310388
 20
-487.0110391152871
 42
0.4142135623731
 10
-177.3785730310387
 20
-487.3110391152871
 42
0.4142135623731
  0
LWPOLYLINE
  5
68
330
1F
100
AcDbEntity
  8
1-4ﾚｲﾔ
  6
Continuous
 62
     7
370
     9
100
AcDbPolyline
 90
        4
 70
     1
 43
0.6000000000000001
 10
-177.0785730310387
 20
-479.0110622096706
 42
0.4142135623731
 10
-177.3785730310387
 20
-478.7110622096707
 42
0.4142135623731
 10
-177.6785730310388
 20
-479.0110622096706
 42
0.4142135623731
 10
-177.3785730310387
 20
-479.3110622096706
 42
0.4142135623731
  0
LWPOLYLINE
  5
69
330
1F
100
AcDbEntity
  8
1-4ﾚｲﾔ
  6
Continuous
 62
     7
370
     9
100
AcDbPolyline
 90
        4
 70
     1
 43
0.6000000000000001
 10
265.6878206820102
 20
277.8015994510136
 42
0.4142135623731
 10
265.3878206820102
 20
278.1015994510136
 42
0.4142135623731
 10
265.0878206820101
 20
277.8015994510136
 42
0.4142135623731
 10
265.3878206820102
 20
277.5015994510136
 42
0.4142135623731
  0
LWPOLYLINE
  5
6A
330
1F
100
AcDbEntity
  8
1-4ﾚｲﾔ
  6
Continuous
 62
     7
370
     9
100
AcDbPolyline
 90
        4
 70
     1
 43
0.6000000000000001
 10
265.6878206820102
 20
279.3016786317569
 42
0.4142135623731
 10
265.3878206820102
 20
279.6016786317568
 42
0.4142135623731
 10
265.0878206820101
 20
279.3016786317569
 42
0.4142135623731
 10
265.3878206820102
 20
279.0016786317569
 42
0.4142135623731
  0
LWPOLYLINE
  5
6B
330
1F
100
AcDbEntity
  8
1-4ﾚｲﾔ
  6
Continuous
 62
     7
370
     9
100
AcDbPolyline
 90
        4
 70
     1
 43
0.6000000000000001
 10
265.6878206820102
 20
279.801705025338
 42
0.4142135623731
 10
265.3878206820102
 20
280.101705025338
 42
0.4142135623731
 10
265.0878206820101
 20
279.801705025338
 42
0.4142135623731
 10
265.3878206820102
 20
279.501705025338
 42
0.4142135623731
  0
LWPOLYLINE
  5
6C
330
1F
100
AcDbEntity
  8
1-4ﾚｲﾔ
  6
Continuous
 62
     7
370
     9
100
AcDbPolyline
 90
        4
 70
     1
 43
0.6000000000000001
 10
265.6878206820102
 20
575.8018897804054
 42
0.4142135623731
 10
265.3878206820102
 20
576.1018897804055
 42
0.4142135623731
 10
265.0878206820101
 20
575.8018897804054
 42
0.4142135623731
 10
265.3878206820102
 20
575.5018897804055
 42
0.4142135623731
  0
LWPOLYLINE
  5
6D
330
1F
100
AcDbEntity
  8
1-4ﾚｲﾔ
  6
Continuous
 62
     7
370
     9
100
AcDbPolyline
 90
        4
 70
     1
 43
0.6000000000000001
 10
265.6878206820102
 20
576.3016192461994
 42
0.4142135623731
 10
265.3878206820102
 20
576.6016192461993
 42
0.4142135623731
 10
265.0878206820101
 20
576.3016192461994
 42
0.4142135623731
 10
265.3878206820102
 20
576.0016192461994
 42
0.4142135623731
  0
LWPOLYLINE
  5
6E
330
1F
100
AcDbEntity
  8
1-4ﾚｲﾔ
  6
Continuous
 62
     7
370
     9
100
AcDbPolyline
 90
        4
 70
     1
 43
0.6000000000000001
 10
265.6878206820102
 20
577.8016984269427
 42
0.4142135623731
 10
265.3878206820102
 20
578.1016984269427
 42
0.4142135623731
 10
265.0878206820101
 20
577.8016984269427
 42
0.4142135623731
 10
265.3878206820102
 20
577.5016984269427
 42
0.4142135623731
  0
LWPOLYLINE
  5
6F
330
1F
100
AcDbEntity
  8
1-4ﾚｲﾔ
  6
Continuous
 62
     7
370
     9
100
AcDbPolyline
 90
        4
 70
     1
 43
0.6000000000000001
 10
217.6878107844173
 20
277.8015994510136
 42
0.4142135623731
 10
217.3878107844174
 20
278.1015994510136
 42
0.4142135623731
 10
217.0878107844174
 20
277.8015994510136
 42
0.4142135623731
 10
217.3878107844174
 20
277.5015994510136
 42
0.4142135623731
  0
LWPOLYLINE
  5
70
330
1F
100
AcDbEntity
  8
1-4ﾚｲﾔ
  6
Continuous
 62
     7
370
     9
100
AcDbPolyline
 90
        4
 70
     1
 43
0.6000000000000001
 10
217.6878107844173
 20
577.8016984269427
 42
0.4142135623731
 10
217.3878107844174
 20
578.1016984269427
 42
0.4142135623731
 10
217.0878107844174
 20
577.8016984269427
 42
0.4142135623731
 10
217.3878107844174
 20
577.5016984269427
 42
0.4142135623731
  0
LWPOLYLINE
  5
71
330
1F
100
AcDbEntity
  8
1-4ﾚｲﾔ
  6
Continuous
 62
     7
370
     9
100
AcDbPolyline
 90
        4
 70
     1
 43
0.6000000000000001
 10
-647.0782925992398
 20
-337.0111380912161
 42
0.4142135623731
 10
-647.3782925992398
 20
-336.7111380912162
 42
0.4142135623731
 10
-647.6782925992399
 20
-337.0111380912161
 42
0.4142135623731
 10
-647.3782925992398
 20
-337.3111380912162
 42
0.4142135623731
  0
LWPOLYLINE
  5
72
330
1F
100
AcDbEntity
  8
F-Fﾚｲﾔ
  6
Continuous
 62
     7
370
     9
100
AcDbPolyline
 90
        4
 70
     1
 43
0.6000000000000001
 10
492.7280115076015
 20
-144.8561021959459
 42
0.4142135623731
 10
492.4280115076016
 20
-144.5561021959459
 42
0.4142135623731
 10
492.1280115076016
 20
-144.8561021959459
 42
0.4142135623731
 10
492.4280115076016
 20
-145.1561021959459
 42
0.4142135623731
  0
LWPOLYLINE
  5
73
330
1F
100
AcDbEntity
  8
F-Fﾚｲﾔ
  6
Continuous
 62
     7
370
     9
100
AcDbPolyline
 90
        4
 70
     1
 43
0.6000000000000001
 10
907.5725038270695
 20
-144.8561021959459
 42
0.4142135623731
 10
907.2725038270694
 20
-144.5561021959459
 42
0.4142135623731
 10
906.9725038270693
 20
-144.8561021959459
 42
0.4142135623731
 10
907.2725038270694
 20
-145.1561021959459
 42
0.4142135623731
  0
LINE
  5
74
330
1F
100
AcDbEntity
  8
1-0ﾚｲﾔ
  6
JWW_CENTER1
 62
     4
370
     9
100
AcDbLine
 10
-570.9422508445946
 20
427.8017974028717
 30
0.0
 11
-251.8449443095439
 21
427.8017974028717
 31
0.0
  0
LINE
  5
75
330
1F
100
AcDbEntity
  8
1-0ﾚｲﾔ
  6
JWW_CENTER1
 62
     4
370
     9
100
AcDbLine
 10
-412.3783585831925
 20
591.9949951171875
 30
0.0
 11
-412.3783585831925
 21
264.7531078441723
 31
0.0
  0
LINE
  5
76
330
1F
100
AcDbEntity
  8
1-0ﾚｲﾔ
  6
Continuous
 62
     4
370
     9
100
AcDbLine
 10
-512.378589527027
 20
602.801533467061
 30
0.0
 11
-552.3784740551098
 21
602.801533467061
 31
0.0
  0
LINE
  5
77
330
1F
100
AcDbEntity
  8
1-0ﾚｲﾔ
  6
Continuous
 62
     4
370
     9
100
AcDbLine
 10
-502.3785070470861
 20
592.8015994510135
 30
0.0
 11
-502.3785070470861
 21
577.8016984269427
 31
0.0
  0
LINE
  5
78
330
1F
100
AcDbEntity
  8
1-0ﾚｲﾔ
  6
Continuous
 62
     4
370
     9
100
AcDbLine
 10
-512.378589527027
 20
602.801533467061
 30
0.0
 11
-502.3785070470861
 21
592.8015994510135
 31
0.0
  0
LINE
  5
79
330
1F
100
AcDbEntity
  8
1-0ﾚｲﾔ
  6
Continuous
 62
     4
370
     9
100
AcDbLine
 10
-322.3785070470861
 20
592.8015994510135
 30
0.0
 11
-322.3785070470861
 21
577.8016984269427
 31
0.0
  0
LINE
  5
7A
330
1F
100
AcDbEntity
  8
1-0ﾚｲﾔ
  6
Continuous
 62
     4
370
     9
100
AcDbLine
 10
-312.378498799092
 20
602.801533467061
 30
0.0
 11
-322.3785070470861
 21
592.8015994510135
 31
0.0
  0
LINE
  5
7B
330
1F
100
AcDbEntity
  8
1-0ﾚｲﾔ
  6
Continuous
 62
     4
370
     9
100
AcDbLine
 10
-272.3784658071156
 20
602.801533467061
 30
0.0
 11
-312.378498799092
 21
602.801533467061
 31
0.0
  0
LINE
  5
7C
330
1F
100
AcDbEntity
  8
1-0ﾚｲﾔ
  6
Continuous
 62
     4
370
     9
100
AcDbLine
 10
-587.378391575169
 20
327.8015664590372
 30
0.0
 11
-587.378391575169
 21
287.801830394848
 31
0.0
  0
LINE
  5
7D
330
1F
100
AcDbEntity
  8
1-0ﾚｲﾔ
  6
Continuous
 62
     4
370
     9
100
AcDbLine
 10
-577.3784575591216
 20
337.8017974028717
 30
0.0
 11
-562.3784080711571
 21
337.8017974028717
 31
0.0
  0
LINE
  5
7E
330
1F
100
AcDbEntity
  8
1-0ﾚｲﾔ
  6
Continuous
 62
     4
370
     9
100
AcDbLine
 10
-587.378391575169
 20
327.8015664590372
 30
0.0
 11
-577.3784575591216
 21
337.8017974028717
 31
0.0
  0
LINE
  5
7F
330
1F
100
AcDbEntity
  8
1-0ﾚｲﾔ
  6
Continuous
 62
     4
370
     9
100
AcDbLine
 10
-577.3784575591216
 20
517.8017974028717
 30
0.0
 11
-562.3784080711571
 21
517.8017974028717
 31
0.0
  0
LINE
  5
80
330
1F
100
AcDbEntity
  8
1-0ﾚｲﾔ
  6
Continuous
 62
     4
370
     9
100
AcDbLine
 10
-587.378391575169
 20
527.8017314189191
 30
0.0
 11
-577.3784575591216
 21
517.8017974028717
 31
0.0
  0
LINE
  5
81
330
1F
100
AcDbEntity
  8
1-0ﾚｲﾔ
  6
Continuous
 62
     4
370
     9
100
AcDbLine
 10
-587.378391575169
 20
567.8017644108953
 30
0.0
 11
-587.378391575169
 21
527.8017314189191
 31
0.0
  0
LINE
  5
82
330
1F
100
AcDbEntity
  8
1-0ﾚｲﾔ
  6
Continuous
 62
     4
370
     9
100
AcDbLine
 10
-312.3784245671451
 20
252.8020613386825
 30
0.0
 11
-272.3784658071156
 21
252.8020613386825
 31
0.0
  0
LINE
  5
83
330
1F
100
AcDbEntity
  8
1-0ﾚｲﾔ
  6
Continuous
 62
     4
370
     9
100
AcDbLine
 10
-322.3784328151394
 20
262.8016984269427
 30
0.0
 11
-322.3784328151394
 21
277.8018963788008
 31
0.0
  0
LINE
  5
84
330
1F
100
AcDbEntity
  8
1-0ﾚｲﾔ
  6
Continuous
 62
     4
370
     9
100
AcDbLine
 10
-312.3784245671451
 20
252.8020613386825
 30
0.0
 11
-322.3784328151394
 21
262.8016984269427
 31
0.0
  0
LINE
  5
85
330
1F
100
AcDbEntity
  8
1-0ﾚｲﾔ
  6
Continuous
 62
     4
370
     9
100
AcDbLine
 10
-502.3783585831925
 20
262.8016984269427
 30
0.0
 11
-502.3783585831925
 21
277.8018963788008
 31
0.0
  0
LINE
  5
86
330
1F
100
AcDbEntity
  8
1-0ﾚｲﾔ
  6
Continuous
 62
     4
370
     9
100
AcDbLine
 10
-512.3784410631334
 20
252.8020613386825
 30
0.0
 11
-502.3783585831925
 21
262.8016984269427
 31
0.0
  0
LINE
  5
87
330
1F
100
AcDbEntity
  8
1-0ﾚｲﾔ
  6
Continuous
 62
     4
370
     9
100
AcDbLine
 10
-552.3784740551098
 20
252.8020613386825
 30
0.0
 11
-512.3784410631334
 21
252.8020613386825
 31
0.0
  0
LINE
  5
88
330
1F
100
AcDbEntity
  8
1-0ﾚｲﾔ
  6
Continuous
 62
     4
370
     9
100
AcDbLine
 10
-237.3785482870566
 20
527.8017314189191
 30
0.0
 11
-237.3785482870566
 21
567.8017644108953
 31
0.0
  0
LINE
  5
89
330
1F
100
AcDbEntity
  8
1-0ﾚｲﾔ
  6
Continuous
 62
     4
370
     9
100
AcDbLine
 10
-247.3785565350506
 20
517.8017974028717
 30
0.0
 11
-262.3786060230152
 21
517.8017974028717
 31
0.0
  0
LINE
  5
8A
330
1F
100
AcDbEntity
  8
1-0ﾚｲﾔ
  6
Continuous
 62
     4
370
     9
100
AcDbLine
 10
-237.3785482870566
 20
527.8017314189191
 30
0.0
 11
-247.3785565350506
 21
517.8017974028717
 31
0.0
  0
LINE
  5
8B
330
1F
100
AcDbEntity
  8
1-0ﾚｲﾔ
  6
Continuous
 62
     4
370
     9
100
AcDbLine
 10
-247.3785565350506
 20
337.8017974028717
 30
0.0
 11
-262.3786060230152
 21
337.8017974028717
 31
0.0
  0
LINE
  5
8C
330
1F
100
AcDbEntity
  8
1-0ﾚｲﾔ
  6
Continuous
 62
     4
370
     9
100
AcDbLine
 10
-237.3785482870566
 20
327.8018633868244
 30
0.0
 11
-247.3785565350506
 21
337.8017974028717
 31
0.0
  0
LINE
  5
8D
330
1F
100
AcDbEntity
  8
1-0ﾚｲﾔ
  6
Continuous
 62
     4
370
     9
100
AcDbLine
 10
-237.3785482870566
 20
287.801830394848
 30
0.0
 11
-237.3785482870566
 21
327.8018633868244
 31
0.0
  0
LINE
  5
8E
330
1F
100
AcDbEntity
  8
1-0ﾚｲﾔ
  6
Continuous
 62
     4
370
     9
100
AcDbLine
 10
-587.378391575169
 20
567.8017644108953
 30
0.0
 11
-577.3786060230152
 21
577.8016984269427
 31
0.0
  0
LINE
  5
8F
330
1F
100
AcDbEntity
  8
1-0ﾚｲﾔ
  6
Continuous
 62
     4
370
     9
100
AcDbLine
 10
-552.3784740551098
 20
602.801533467061
 30
0.0
 11
-562.3785565350506
 21
592.8015994510135
 31
0.0
  0
LINE
  5
90
330
1F
100
AcDbEntity
  8
1-0ﾚｲﾔ
  6
Continuous
 62
     4
370
     9
100
AcDbLine
 10
-272.3784658071156
 20
602.801533467061
 30
0.0
 11
-262.3784575591216
 21
592.8015994510135
 31
0.0
  0
LINE
  5
91
330
1F
100
AcDbEntity
  8
1-0ﾚｲﾔ
  6
Continuous
 62
     4
370
     9
100
AcDbLine
 10
-577.3786060230152
 20
577.8016984269427
 30
0.0
 11
-247.3783338392103
 21
577.8016984269427
 31
0.0
  0
LINE
  5
92
330
1F
100
AcDbEntity
  8
1-0ﾚｲﾔ
  6
Continuous
 62
     4
370
     9
100
AcDbLine
 10
-237.3785482870566
 20
567.8017644108953
 30
0.0
 11
-247.3783338392103
 21
577.8016984269427
 31
0.0
  0
LINE
  5
93
330
1F
100
AcDbEntity
  8
1-0ﾚｲﾔ
  6
Continuous
 62
     4
370
     9
100
AcDbLine
 10
-237.3785482870566
 20
287.801830394848
 30
0.0
 11
-247.3785565350506
 21
277.8015994510136
 31
0.0
  0
LINE
  5
94
330
1F
100
AcDbEntity
  8
1-0ﾚｲﾔ
  6
Continuous
 62
     4
370
     9
100
AcDbLine
 10
-262.3784575591216
 20
592.8015994510135
 30
0.0
 11
-262.3784575591216
 21
262.8016984269427
 31
0.0
  0
LINE
  5
95
330
1F
100
AcDbEntity
  8
1-0ﾚｲﾔ
  6
Continuous
 62
     4
370
     9
100
AcDbLine
 10
-272.3784658071156
 20
252.8020613386825
 30
0.0
 11
-262.3784575591216
 21
262.8016984269427
 31
0.0
  0
LINE
  5
96
330
1F
100
AcDbEntity
  8
1-0ﾚｲﾔ
  6
Continuous
 62
     4
370
     9
100
AcDbLine
 10
-587.378391575169
 20
287.801830394848
 30
0.0
 11
-577.3784575591216
 21
277.8015994510136
 31
0.0
  0
LINE
  5
97
330
1F
100
AcDbEntity
  8
1-0ﾚｲﾔ
  6
Continuous
 62
     4
370
     9
100
AcDbLine
 10
-562.3785565350506
 20
592.8015994510135
 30
0.0
 11
-562.3785565350506
 21
262.8016984269427
 31
0.0
  0
LINE
  5
98
330
1F
100
AcDbEntity
  8
1-0ﾚｲﾔ
  6
Continuous
 62
     4
370
     9
100
AcDbLine
 10
-552.3784740551098
 20
252.8020613386825
 30
0.0
 11
-562.3785565350506
 21
262.8016984269427
 31
0.0
  0
LINE
  5
99
330
1F
100
AcDbEntity
  8
1-0ﾚｲﾔ
  6
Continuous
 62
     4
370
     9
100
AcDbLine
 10
-560.8784773543074
 20
576.3016192461994
 30
0.0
 11
-562.3785565350506
 21
577.8016984269427
 31
0.0
  0
LINE
  5
9A
330
1F
100
AcDbEntity
  8
1-0ﾚｲﾔ
  6
Continuous
 62
     4
370
     9
100
AcDbLine
 10
-560.8784773543074
 20
576.3016192461994
 30
0.0
 11
-263.878462507918
 21
576.3016192461994
 31
0.0
  0
LINE
  5
9B
330
1F
100
AcDbEntity
  8
1-0ﾚｲﾔ
  6
Continuous
 62
     4
370
     9
100
AcDbLine
 10
-263.878462507918
 20
576.3016192461994
 30
0.0
 11
-262.3784575591216
 21
577.8016984269427
 31
0.0
  0
LINE
  5
9C
330
1F
100
AcDbEntity
  8
1-0ﾚｲﾔ
  6
Continuous
 62
     4
370
     9
100
AcDbLine
 10
-263.878462507918
 20
576.3016192461994
 30
0.0
 11
-263.878462507918
 21
279.3016786317569
 31
0.0
  0
LINE
  5
9D
330
1F
100
AcDbEntity
  8
1-0ﾚｲﾔ
  6
Continuous
 62
     4
370
     9
100
AcDbLine
 10
-263.878462507918
 20
279.3016786317569
 30
0.0
 11
-262.3784575591216
 21
277.8015994510136
 31
0.0
  0
LINE
  5
9E
330
1F
100
AcDbEntity
  8
1-0ﾚｲﾔ
  6
Continuous
 62
     4
370
     9
100
AcDbLine
 10
-560.8784773543074
 20
576.3016192461994
 30
0.0
 11
-560.8784773543074
 21
279.3016786317569
 31
0.0
  0
LINE
  5
9F
330
1F
100
AcDbEntity
  8
1-0ﾚｲﾔ
  6
Continuous
 62
     4
370
     9
100
AcDbLine
 10
-263.878462507918
 20
279.3016786317569
 30
0.0
 11
-560.8784773543074
 21
279.3016786317569
 31
0.0
  0
LINE
  5
A0
330
1F
100
AcDbEntity
  8
1-0ﾚｲﾔ
  6
Continuous
 62
     4
370
     9
100
AcDbLine
 10
-560.8784773543074
 20
279.3016786317569
 30
0.0
 11
-562.3785565350506
 21
277.8015994510136
 31
0.0
  0
LINE
  5
A1
330
1F
100
AcDbEntity
  8
1-0ﾚｲﾔ
  6
Continuous
 62
     4
370
     9
100
AcDbLine
 10
-262.3786060230152
 20
-137.011121595228
 30
0.0
 11
-562.3785565350506
 21
-137.011121595228
 31
0.0
  0
LINE
  5
A2
330
1F
100
AcDbEntity
  8
1-0ﾚｲﾔ
  6
Continuous
 62
     4
370
     9
100
AcDbLine
 10
-262.3786060230152
 20
-137.011121595228
 30
0.0
 11
-262.3786060230152
 21
-487.0110391152871
 31
0.0
  0
LINE
  5
A3
330
1F
100
AcDbEntity
  8
1-0ﾚｲﾔ
  6
Continuous
 62
     4
370
     9
100
AcDbLine
 10
-562.3785565350506
 20
-137.011121595228
 30
0.0
 11
-562.3785565350506
 21
-487.0110391152871
 31
0.0
  0
LINE
  5
A4
330
1F
100
AcDbEntity
  8
1-0ﾚｲﾔ
  6
Continuous
 62
     4
370
     9
100
AcDbLine
 10
-237.3785482870566
 20
-485.5111083984375
 30
0.0
 11
-237.3785482870566
 21
-487.0110391152871
 31
0.0
  0
LINE
  5
A5
330
1F
100
AcDbEntity
  8
1-0ﾚｲﾔ
  6
Continuous
 62
     4
370
     9
100
AcDbLine
 10
-587.378391575169
 20
-485.5111083984375
 30
0.0
 11
-587.378391575169
 21
-487.0110391152871
 31
0.0
  0
LINE
  5
A6
330
1F
100
AcDbEntity
  8
1-0ﾚｲﾔ
  6
JWW_DASHED1
 62
     4
370
     9
100
AcDbLine
 10
-263.878462507918
 20
-137.011121595228
 30
0.0
 11
-263.878462507918
 21
-487.0110391152871
 31
0.0
  0
LINE
  5
A7
330
1F
100
AcDbEntity
  8
1-0ﾚｲﾔ
  6
JWW_DASHED1
 62
     4
370
     9
100
AcDbLine
 10
-560.8784773543074
 20
-137.011121595228
 30
0.0
 11
-560.8784773543074
 21
-487.0110391152871
 31
0.0
  0
LINE
  5
A8
330
1F
100
AcDbEntity
  8
1-0ﾚｲﾔ
  6
Continuous
 62
     4
370
     9
100
AcDbLine
 10
-502.3785070470861
 20
-479.0110622096706
 30
0.0
 11
-502.3785070470861
 21
-487.0110391152871
 31
0.0
  0
LINE
  5
A9
330
1F
100
AcDbEntity
  8
1-0ﾚｲﾔ
  6
Continuous
 62
     4
370
     9
100
AcDbLine
 10
-322.3784328151394
 20
-479.0110622096706
 30
0.0
 11
-322.3784328151394
 21
-487.0110391152871
 31
0.0
  0
LINE
  5
AA
330
1F
100
AcDbEntity
  8
1-0ﾚｲﾔ
  6
Continuous
 62
     4
370
     9
100
AcDbLine
 10
-502.3785070470861
 20
-485.5111083984375
 30
0.0
 11
-587.378391575169
 21
-485.5111083984375
 31
0.0
  0
LINE
  5
AB
330
1F
100
AcDbEntity
  8
1-0ﾚｲﾔ
  6
Continuous
 62
     4
370
     9
100
AcDbLine
 10
-502.3785070470861
 20
-487.0110391152871
 30
0.0
 11
-587.378391575169
 21
-487.0110391152871
 31
0.0
  0
LINE
  5
AC
330
1F
100
AcDbEntity
  8
1-0ﾚｲﾔ
  6
Continuous
 62
     4
370
     9
100
AcDbLine
 10
-237.3785482870566
 20
-485.5111083984375
 30
0.0
 11
-322.3784328151394
 21
-485.5111083984375
 31
0.0
  0
LINE
  5
AD
330
1F
100
AcDbEntity
  8
1-0ﾚｲﾔ
  6
Continuous
 62
     4
370
     9
100
AcDbLine
 10
-237.3785482870566
 20
-487.0110391152871
 30
0.0
 11
-322.3784328151394
 21
-487.0110391152871
 31
0.0
  0
LINE
  5
AE
330
1F
100
AcDbEntity
  8
1-0ﾚｲﾔ
  6
Continuous
 62
     4
370
     9
100
AcDbLine
 10
-512.378589527027
 20
-485.5111083984375
 30
0.0
 11
-512.378589527027
 21
-487.0110391152871
 31
0.0
  0
LINE
  5
AF
330
1F
100
AcDbEntity
  8
1-0ﾚｲﾔ
  6
Continuous
 62
     4
370
     9
100
AcDbLine
 10
-552.3784740551098
 20
-485.5111083984375
 30
0.0
 11
-552.3784740551098
 21
-487.0110391152871
 31
0.0
  0
LINE
  5
B0
330
1F
100
AcDbEntity
  8
1-0ﾚｲﾔ
  6
Continuous
 62
     4
370
     9
100
AcDbLine
 10
-577.3783090952279
 20
-485.5111083984375
 30
0.0
 11
-577.3783090952279
 21
-487.0110391152871
 31
0.0
  0
LINE
  5
B1
330
1F
100
AcDbEntity
  8
1-0ﾚｲﾔ
  6
Continuous
 62
     4
370
     9
100
AcDbLine
 10
-312.3784245671451
 20
-485.5111083984375
 30
0.0
 11
-312.3784245671451
 21
-487.0110391152871
 31
0.0
  0
LINE
  5
B2
330
1F
100
AcDbEntity
  8
1-0ﾚｲﾔ
  6
Continuous
 62
     4
370
     9
100
AcDbLine
 10
-272.3786142710092
 20
-485.5111083984375
 30
0.0
 11
-272.3786142710092
 21
-487.0110391152871
 31
0.0
  0
LINE
  5
B3
330
1F
100
AcDbEntity
  8
1-0ﾚｲﾔ
  6
Continuous
 62
     4
370
     9
100
AcDbLine
 10
-247.3785565350506
 20
-485.5111083984375
 30
0.0
 11
-247.3785565350506
 21
-487.0110391152871
 31
0.0
  0
LINE
  5
B4
330
1F
100
AcDbEntity
  8
1-1ﾚｲﾔ
  6
JWW_DASHED1
 62
     2
370
     9
100
AcDbLine
 10
-298.8785284918708
 20
-139.5111050992398
 30
0.0
 11
-560.8784773543074
 21
-139.5111050992398
 31
0.0
  0
LINE
  5
B5
330
1F
100
AcDbEntity
  8
1-1ﾚｲﾔ
  6
JWW_DASHED1
 62
     2
370
     9
100
AcDbLine
 10
-298.8785284918708
 20
-139.5111050992398
 30
0.0
 11
-298.8785284918708
 21
-154.5110061233108
 31
0.0
  0
LINE
  5
B6
330
1F
100
AcDbEntity
  8
1-1ﾚｲﾔ
  6
JWW_DASHED1
 62
     2
370
     9
100
AcDbLine
 10
-298.8785284918708
 20
-154.5110061233108
 30
0.0
 11
-560.8784773543074
 21
-154.5110061233108
 31
0.0
  0
LINE
  5
B7
330
1F
100
AcDbEntity
  8
1-1ﾚｲﾔ
  6
JWW_DASHED1
 62
     2
370
     9
100
AcDbLine
 10
-298.8785284918708
 20
279.3016786317569
 30
0.0
 11
-298.8785284918708
 21
291.3017182221284
 31
0.0
  0
LINE
  5
B8
330
1F
100
AcDbEntity
  8
1-1ﾚｲﾔ
  6
JWW_DASHED1
 62
     2
370
     9
100
AcDbLine
 10
-298.8785284918708
 20
291.3017182221284
 30
0.0
 11
-548.8784377639358
 21
291.3017182221284
 31
0.0
  0
LINE
  5
B9
330
1F
100
AcDbEntity
  8
1-1ﾚｲﾔ
  6
JWW_DASHED1
 62
     2
370
     9
100
AcDbLine
 10
-548.8784377639358
 20
564.3015796558278
 30
0.0
 11
-548.8784377639358
 21
291.3017182221284
 31
0.0
  0
LINE
  5
BA
330
1F
100
AcDbEntity
  8
1-1ﾚｲﾔ
  6
JWW_DASHED1
 62
     2
370
     9
100
AcDbLine
 10
-298.8785284918708
 20
564.3015796558278
 30
0.0
 11
-298.8785284918708
 21
576.3016192461994
 31
0.0
  0
LINE
  5
BB
330
1F
100
AcDbEntity
  8
1-1ﾚｲﾔ
  6
JWW_DASHED1
 62
     2
370
     9
100
AcDbLine
 10
-548.8784377639358
 20
564.3015796558278
 30
0.0
 11
-298.8785284918708
 21
564.3015796558278
 31
0.0
  0
LINE
  5
BC
330
1F
100
AcDbEntity
  8
1-1ﾚｲﾔ
  6
JWW_DASHED1
 62
     2
370
     9
100
AcDbLine
 10
-560.8784773543074
 20
576.3016192461994
 30
0.0
 11
-548.8784377639358
 21
564.3015796558278
 31
0.0
  0
LINE
  5
BD
330
1F
100
AcDbEntity
  8
1-1ﾚｲﾔ
  6
JWW_DASHED1
 62
     2
370
     9
100
AcDbLine
 10
-560.8784773543074
 20
279.3016786317569
 30
0.0
 11
-548.8784377639358
 21
291.3017182221284
 31
0.0
  0
LINE
  5
BE
330
1F
100
AcDbEntity
  8
1-1ﾚｲﾔ
  6
JWW_DASHED1
 62
     2
370
     9
100
AcDbLine
 10
-548.8784377639358
 20
-139.5111050992398
 30
0.0
 11
-548.8784377639358
 21
-142.5111149968327
 31
0.0
  0
LINE
  5
BF
330
1F
100
AcDbEntity
  8
1-1ﾚｲﾔ
  6
JWW_DASHED1
 62
     2
370
     9
100
AcDbLine
 10
-298.8785284918708
 20
-142.5111149968327
 30
0.0
 11
-557.8784674567145
 21
-142.5111149968327
 31
0.0
  0
LINE
  5
C0
330
1F
100
AcDbEntity
  8
1-1ﾚｲﾔ
  6
JWW_DASHED1
 62
     2
370
     9
100
AcDbLine
 10
-557.8784674567145
 20
-142.5111149968327
 30
0.0
 11
-557.8784674567145
 21
-154.5110061233108
 31
0.0
  0
LINE
  5
C1
330
1F
100
AcDbEntity
  8
1-0ﾚｲﾔ
  6
Continuous
 62
     4
370
     9
100
AcDbLine
 10
325.3878701699747
 20
277.8015994510136
 30
0.0
 11
675.3877876900337
 21
277.8015994510136
 31
0.0
  0
LINE
  5
C2
330
1F
100
AcDbEntity
  8
1-0ﾚｲﾔ
  6
Continuous
 62
     4
370
     9
100
AcDbLine
 10
673.8878569731844
 20
602.801533467061
 30
0.0
 11
675.3877876900337
 21
602.801533467061
 31
0.0
  0
LINE
  5
C3
330
1F
100
AcDbEntity
  8
1-0ﾚｲﾔ
  6
Continuous
 62
     4
370
     9
100
AcDbLine
 10
673.8878569731844
 20
252.8020613386825
 30
0.0
 11
675.3877876900337
 21
252.8020613386825
 31
0.0
  0
LINE
  5
C4
330
1F
100
AcDbEntity
  8
1-0ﾚｲﾔ
  6
JWW_DASHED1
 62
     4
370
     9
100
AcDbLine
 10
325.3878701699747
 20
279.3016786317569
 30
0.0
 11
675.3877876900337
 21
279.3016786317569
 31
0.0
  0
LINE
  5
C5
330
1F
100
AcDbEntity
  8
1-0ﾚｲﾔ
  6
Continuous
 62
     4
370
     9
100
AcDbLine
 10
667.3881077122044
 20
337.8017974028717
 30
0.0
 11
675.3877876900337
 21
337.8017974028717
 31
0.0
  0
LINE
  5
C6
330
1F
100
AcDbEntity
  8
1-0ﾚｲﾔ
  6
Continuous
 62
     4
370
     9
100
AcDbLine
 10
667.3881077122044
 20
517.8017974028717
 30
0.0
 11
675.3877876900337
 21
517.8017974028717
 31
0.0
  0
LINE
  5
C7
330
1F
100
AcDbEntity
  8
1-0ﾚｲﾔ
  6
Continuous
 62
     4
370
     9
100
AcDbLine
 10
673.8878569731844
 20
337.8017974028717
 30
0.0
 11
673.8878569731844
 21
252.8020613386825
 31
0.0
  0
LINE
  5
C8
330
1F
100
AcDbEntity
  8
1-0ﾚｲﾔ
  6
Continuous
 62
     4
370
     9
100
AcDbLine
 10
675.3877876900337
 20
337.8017974028717
 30
0.0
 11
675.3877876900337
 21
252.8020613386825
 31
0.0
  0
LINE
  5
C9
330
1F
100
AcDbEntity
  8
1-0ﾚｲﾔ
  6
Continuous
 62
     4
370
     9
100
AcDbLine
 10
673.8878569731844
 20
602.801533467061
 30
0.0
 11
673.8878569731844
 21
517.8017974028717
 31
0.0
  0
LINE
  5
CA
330
1F
100
AcDbEntity
  8
1-0ﾚｲﾔ
  6
Continuous
 62
     4
370
     9
100
AcDbLine
 10
675.3877876900337
 20
602.801533467061
 30
0.0
 11
675.3877876900337
 21
517.8017974028717
 31
0.0
  0
LINE
  5
CB
330
1F
100
AcDbEntity
  8
1-0ﾚｲﾔ
  6
Continuous
 62
     4
370
     9
100
AcDbLine
 10
673.8878569731844
 20
327.8015664590372
 30
0.0
 11
675.3877876900337
 21
327.8015664590372
 31
0.0
  0
LINE
  5
CC
330
1F
100
AcDbEntity
  8
1-0ﾚｲﾔ
  6
Continuous
 62
     4
370
     9
100
AcDbLine
 10
673.8878569731844
 20
287.801830394848
 30
0.0
 11
675.3877876900337
 21
287.801830394848
 31
0.0
  0
LINE
  5
CD
330
1F
100
AcDbEntity
  8
1-0ﾚｲﾔ
  6
Continuous
 62
     4
370
     9
100
AcDbLine
 10
673.8878569731844
 20
262.8019953547299
 30
0.0
 11
675.3877876900337
 21
262.8019953547299
 31
0.0
  0
LINE
  5
CE
330
1F
100
AcDbEntity
  8
1-0ﾚｲﾔ
  6
Continuous
 62
     4
370
     9
100
AcDbLine
 10
673.8878569731844
 20
527.8017314189191
 30
0.0
 11
675.3877876900337
 21
527.8017314189191
 31
0.0
  0
LINE
  5
CF
330
1F
100
AcDbEntity
  8
1-0ﾚｲﾔ
  6
Continuous
 62
     4
370
     9
100
AcDbLine
 10
673.8878569731844
 20
567.8014674831081
 30
0.0
 11
675.3877876900337
 21
567.8014674831081
 31
0.0
  0
LINE
  5
D0
330
1F
100
AcDbEntity
  8
1-0ﾚｲﾔ
  6
Continuous
 62
     4
370
     9
100
AcDbLine
 10
673.8878569731844
 20
592.8015994510135
 30
0.0
 11
675.3877876900337
 21
592.8015994510135
 31
0.0
  0
LINE
  5
D1
330
1F
100
AcDbEntity
  8
1-0ﾚｲﾔ
  6
JWW_CENTER1
 62
     4
370
     9
100
AcDbLine
 10
308.0115076013516
 20
427.8017974028717
 30
0.0
 11
697.3527238175678
 21
427.8017974028717
 31
0.0
  0
LINE
  5
D2
330
1F
100
AcDbEntity
  8
1-2ﾚｲﾔ
  6
Continuous
 62
     3
370
     9
100
AcDbLine
 10
-560.3784509607264
 20
575.8018897804054
 30
0.0
 11
-560.3784509607264
 21
279.801705025338
 31
0.0
  0
LINE
  5
D3
330
1F
100
AcDbEntity
  8
1-2ﾚｲﾔ
  6
Continuous
 62
     3
370
     9
100
AcDbLine
 10
-560.3784509607264
 20
575.8018897804054
 30
0.0
 11
-266.8785466374576
 21
575.8018897804054
 31
0.0
  0
LINE
  5
D4
330
1F
100
AcDbEntity
  8
1-2ﾚｲﾔ
  6
Continuous
 62
     3
370
     9
100
AcDbLine
 10
-266.8785466374576
 20
575.8018897804054
 30
0.0
 11
-266.8785466374576
 21
279.801705025338
 31
0.0
  0
LINE
  5
D5
330
1F
100
AcDbEntity
  8
1-2ﾚｲﾔ
  6
Continuous
 62
     3
370
     9
100
AcDbLine
 10
-266.8785466374576
 20
279.801705025338
 30
0.0
 11
-560.3784509607264
 21
279.801705025338
 31
0.0
  0
LINE
  5
D6
330
1F
100
AcDbEntity
  8
1-2ﾚｲﾔ
  6
JWW_DASHED1
 62
     3
370
     9
100
AcDbLine
 10
-560.3784509607264
 20
-137.5109995249155
 30
0.0
 11
-560.3784509607264
 21
-139.5111050992398
 31
0.0
  0
LINE
  5
D7
330
1F
100
AcDbEntity
  8
1-2ﾚｲﾔ
  6
JWW_DASHED1
 62
     3
370
     9
100
AcDbLine
 10
-266.8785466374576
 20
-137.5109995249155
 30
0.0
 11
-560.3784509607264
 21
-137.5109995249155
 31
0.0
  0
LINE
  5
D8
330
1F
100
AcDbEntity
  8
1-2ﾚｲﾔ
  6
JWW_DASHED1
 62
     3
370
     9
100
AcDbLine
 10
-298.8785284918708
 20
-139.5111050992398
 30
0.0
 11
-266.8785466374576
 21
-139.5111050992398
 31
0.0
  0
LINE
  5
D9
330
1F
100
AcDbEntity
  8
1-2ﾚｲﾔ
  6
JWW_DASHED1
 62
     3
370
     9
100
AcDbLine
 10
-266.8785466374576
 20
-137.5109995249155
 30
0.0
 11
-266.8785466374576
 21
-139.5111050992398
 31
0.0
  0
LINE
  5
DA
330
1F
100
AcDbEntity
  8
1-2ﾚｲﾔ
  6
Continuous
 62
     3
370
     9
100
AcDbLine
 10
325.8880450274494
 20
575.8018897804054
 30
0.0
 11
327.88800213788
 21
575.8018897804054
 31
0.0
  0
LINE
  5
DB
330
1F
100
AcDbEntity
  8
1-0ﾚｲﾔ
  6
Continuous
 62
     4
370
     9
100
AcDbLine
 10
325.3878701699747
 20
576.3016192461994
 30
0.0
 11
332.8881176097975
 21
576.3016192461994
 31
0.0
  0
LINE
  5
DC
330
1F
100
AcDbEntity
  8
1-0ﾚｲﾔ
  6
Continuous
 62
     4
370
     9
100
AcDbLine
 10
325.3878701699747
 20
577.8016984269427
 30
0.0
 11
332.8881176097975
 21
577.8016984269427
 31
0.0
  0
LINE
  5
DD
330
1F
100
AcDbEntity
  8
1-0ﾚｲﾔ
  6
Continuous
 62
     4
370
     9
100
AcDbLine
 10
325.3878701699747
 20
577.8016984269427
 30
0.0
 11
325.3878701699747
 21
277.8015994510136
 31
0.0
  0
LINE
  5
DE
330
1F
100
AcDbEntity
  8
1-F
  6
Continuous
 62
     7
370
     9
100
AcDbLine
 10
342.3621925147806
 20
520.452174831081
 30
0.0
 11
355.4019247519003
 21
541.0411475929054
 31
0.0
  0
LINE
  5
DF
330
1F
100
AcDbEntity
  8
1-F
  6
Continuous
 62
     7
370
     9
100
AcDbLine
 10
355.4019247519003
 20
541.0411475929054
 30
0.0
 11
363.6376623205238
 21
573.9838009396116
 31
0.0
  0
LINE
  5
E0
330
1F
100
AcDbEntity
  8
1-F
  6
Continuous
 62
     7
370
     9
100
AcDbLine
 10
363.6376623205238
 20
573.9838009396116
 30
0.0
 11
364.3240109005491
 21
582.9055901604731
 31
0.0
  0
LINE
  5
E1
330
1F
100
AcDbEntity
  8
1-1ﾚｲﾔ
  6
Continuous
 62
     2
370
     9
100
AcDbLine
 10
327.88800213788
 20
511.5104914484799
 30
0.0
 11
327.88800213788
 21
576.3016192461994
 31
0.0
  0
LINE
  5
E2
330
1F
100
AcDbEntity
  8
1-2ﾚｲﾔ
  6
Continuous
 62
     3
370
     9
100
AcDbLine
 10
325.8880450274494
 20
510.274974926098
 30
0.0
 11
325.8880450274494
 21
575.8018897804054
 31
0.0
  0
LINE
  5
E3
330
1F
100
AcDbEntity
  8
1-2ﾚｲﾔ
  6
JWW_DASHED1
 62
     3
370
     9
100
AcDbLine
 10
325.8880450274494
 20
510.274974926098
 30
0.0
 11
325.8880450274494
 21
279.801705025338
 31
0.0
  0
LINE
  5
E4
330
1F
100
AcDbEntity
  8
1-2ﾚｲﾔ
  6
Continuous
 62
     3
370
     9
100
AcDbLine
 10
330.8880120354731
 20
513.363914695946
 30
0.0
 11
330.8880120354731
 21
574.8018369932433
 31
0.0
  0
LINE
  5
E5
330
1F
100
AcDbEntity
  8
1-0ﾚｲﾔ
  6
Continuous
 62
     4
370
     9
100
AcDbLine
 10
337.8879361539275
 20
577.8016984269427
 30
0.0
 11
675.3877876900337
 21
577.8016984269427
 31
0.0
  0
LINE
  5
E6
330
1F
100
AcDbEntity
  8
1-0ﾚｲﾔ
  6
Continuous
 62
     4
370
     9
100
AcDbLine
 10
337.8879361539275
 20
576.3016192461994
 30
0.0
 11
363.8158189928209
 21
576.3016192461994
 31
0.0
  0
LINE
  5
E7
330
1F
100
AcDbEntity
  8
1-0ﾚｲﾔ
  6
JWW_DASHED1
 62
     4
370
     9
100
AcDbLine
 10
363.8158189928209
 20
576.3016192461994
 30
0.0
 11
675.3877876900337
 21
576.3016192461994
 31
0.0
  0
LINE
  5
E8
330
1F
100
AcDbEntity
  8
1-0ﾚｲﾔ
  6
Continuous
 62
     4
370
     9
100
AcDbLine
 10
-247.3785565350506
 20
277.8015994510136
 30
0.0
 11
-577.3784575591216
 21
277.8015994510136
 31
0.0
  0
LINE
  5
E9
330
1F
100
AcDbEntity
  8
1-2ﾚｲﾔ
  6
JWW_DASHED1
 62
     3
370
     9
100
AcDbLine
 10
325.8880450274494
 20
279.801705025338
 30
0.0
 11
327.8878536739866
 21
279.801705025338
 31
0.0
  0
LINE
  5
EA
330
1F
100
AcDbEntity
  8
1-2ﾚｲﾔ
  6
JWW_DASHED1
 62
     3
370
     9
100
AcDbLine
 10
327.8878536739866
 20
511.5104914484799
 30
0.0
 11
327.8878536739866
 21
279.801705025338
 31
0.0
  0
LINE
  5
EB
330
1F
100
AcDbEntity
  8
1-2ﾚｲﾔ
  6
JWW_DASHED1
 62
     3
370
     9
100
AcDbLine
 10
330.8878635715794
 20
513.363914695946
 30
0.0
 11
330.8878635715794
 21
280.8017578125
 31
0.0
  0
LINE
  5
EC
330
1F
100
AcDbEntity
  8
1-2ﾚｲﾔ
  6
JWW_DASHED1
 62
     3
370
     9
100
AcDbLine
 10
-275.8784278663428
 20
280.8017578125
 30
0.0
 11
-287.8784674567145
 21
280.8017578125
 31
0.0
  0
LINE
  5
ED
330
1F
100
AcDbEntity
  8
1-2ﾚｲﾔ
  6
JWW_DASHED1
 62
     3
370
     9
100
AcDbLine
 10
-287.8784674567145
 20
280.8017578125
 30
0.0
 11
-287.8784674567145
 21
574.8018369932433
 31
0.0
  0
LINE
  5
EE
330
1F
100
AcDbEntity
  8
1-2ﾚｲﾔ
  6
JWW_DASHED1
 62
     3
370
     9
100
AcDbLine
 10
-287.8784674567145
 20
574.8018369932433
 30
0.0
 11
-275.8784278663428
 21
574.8018369932433
 31
0.0
  0
LINE
  5
EF
330
1F
100
AcDbEntity
  8
1-2ﾚｲﾔ
  6
JWW_DASHED1
 62
     3
370
     9
100
AcDbLine
 10
-275.8784278663428
 20
280.8017578125
 30
0.0
 11
-275.8784278663428
 21
574.8018369932433
 31
0.0
  0
LINE
  5
F0
330
1F
100
AcDbEntity
  8
1-2ﾚｲﾔ
  6
JWW_DASHED1
 62
     3
370
     9
100
AcDbLine
 10
-278.8785119958825
 20
280.8017578125
 30
0.0
 11
-278.8785119958825
 21
574.8018369932433
 31
0.0
  0
LINE
  5
F1
330
1F
100
AcDbEntity
  8
1-F
  6
Continuous
 62
     7
370
     9
100
AcDbLine
 10
320.2841269003378
 20
506.8130938555744
 30
0.0
 11
342.3621925147806
 21
520.452174831081
 31
0.0
  0
LINE
  5
F2
330
1F
100
AcDbEntity
  8
1-2ﾚｲﾔ
  6
JWW_CENTER1
 62
     3
370
     9
100
AcDbLine
 10
-530.3783519847973
 20
439.673267261402
 30
0.0
 11
-530.3783519847973
 21
415.7108979096284
 31
0.0
  0
LINE
  5
F3
330
1F
100
AcDbEntity
  8
1-0ﾚｲﾔ
  6
JWW_CENTER1
 62
     4
370
     9
100
AcDbLine
 10
-524.5112073743664
 20
-437.0107751794764
 30
0.0
 11
-533.7692673141892
 21
-437.0107751794764
 31
0.0
  0
LINE
  5
F4
330
1F
100
AcDbEntity
  8
1-0ﾚｲﾔ
  6
JWW_CENTER1
 62
     4
370
     9
100
AcDbLine
 10
-529.3784476615286
 20
-432.198169605152
 30
0.0
 11
-529.3784476615286
 21
-441.6217667863176
 31
0.0
  0
LINE
  5
F5
330
1F
100
AcDbEntity
  8
1-0ﾚｲﾔ
  6
JWW_CENTER1
 62
     4
370
     9
100
AcDbLine
 10
-491.0826317039695
 20
-437.0107751794764
 30
0.0
 11
-500.3406916437922
 21
-437.0107751794764
 31
0.0
  0
LINE
  5
F6
330
1F
100
AcDbEntity
  8
1-0ﾚｲﾔ
  6
JWW_CENTER1
 62
     4
370
     9
100
AcDbLine
 10
-495.9498719911317
 20
-432.198169605152
 30
0.0
 11
-495.9498719911317
 21
-441.6217667863176
 31
0.0
  0
LINE
  5
F7
330
1F
100
AcDbEntity
  8
1-0ﾚｲﾔ
  6
JWW_CENTER1
 62
     4
370
     9
100
AcDbLine
 10
-457.6540560335727
 20
-437.0107751794764
 30
0.0
 11
-466.9121159733951
 21
-437.0107751794764
 31
0.0
  0
LINE
  5
F8
330
1F
100
AcDbEntity
  8
1-0ﾚｲﾔ
  6
JWW_CENTER1
 62
     4
370
     9
100
AcDbLine
 10
-462.5211478568413
 20
-432.198169605152
 30
0.0
 11
-462.5211478568413
 21
-441.6217667863176
 31
0.0
  0
LINE
  5
F9
330
1F
100
AcDbEntity
  8
1-0ﾚｲﾔ
  6
JWW_CENTER1
 62
     4
370
     9
100
AcDbLine
 10
-424.2254803631756
 20
-437.0107751794764
 30
0.0
 11
-433.4833918391047
 21
-437.0107751794764
 31
0.0
  0
LINE
  5
FA
330
1F
100
AcDbEntity
  8
1-0ﾚｲﾔ
  6
JWW_CENTER1
 62
     4
370
     9
100
AcDbLine
 10
-429.0927206503378
 20
-432.198169605152
 30
0.0
 11
-429.0927206503378
 21
-441.6217667863176
 31
0.0
  0
LINE
  5
FB
330
1F
100
AcDbEntity
  8
1-0ﾚｲﾔ
  6
JWW_CENTER1
 62
     4
370
     9
100
AcDbLine
 10
-390.7967562288852
 20
-437.0107751794764
 30
0.0
 11
-400.0549646326012
 21
-437.0107751794764
 31
0.0
  0
LINE
  5
FC
330
1F
100
AcDbEntity
  8
1-0ﾚｲﾔ
  6
JWW_CENTER1
 62
     4
370
     9
100
AcDbLine
 10
-395.6639965160472
 20
-432.198169605152
 30
0.0
 11
-395.6639965160472
 21
-441.6217667863176
 31
0.0
  0
LINE
  5
FD
330
1F
100
AcDbEntity
  8
1-0ﾚｲﾔ
  6
JWW_CENTER1
 62
     4
370
     9
100
AcDbLine
 10
-357.3683290223817
 20
-437.0107751794764
 30
0.0
 11
-366.6262404983108
 21
-437.0107751794764
 31
0.0
  0
LINE
  5
FE
330
1F
100
AcDbEntity
  8
1-0ﾚｲﾔ
  6
JWW_CENTER1
 62
     4
370
     9
100
AcDbLine
 10
-362.2355693095439
 20
-432.198169605152
 30
0.0
 11
-362.2355693095439
 21
-441.6217667863176
 31
0.0
  0
LINE
  5
FF
330
1F
100
AcDbEntity
  8
1-0ﾚｲﾔ
  6
JWW_CENTER1
 62
     4
370
     9
100
AcDbLine
 10
-323.9396048880911
 20
-437.0107751794764
 30
0.0
 11
-333.1977390598606
 21
-437.0107751794764
 31
0.0
  0
LINE
  5
100
330
1F
100
AcDbEntity
  8
1-0ﾚｲﾔ
  6
JWW_CENTER1
 62
     4
370
     9
100
AcDbLine
 10
-328.8069194072002
 20
-432.198169605152
 30
0.0
 11
-328.8069194072002
 21
-441.6217667863176
 31
0.0
  0
LINE
  5
101
330
1F
100
AcDbEntity
  8
1-0ﾚｲﾔ
  6
JWW_CENTER1
 62
     4
370
     9
100
AcDbLine
 10
-290.5110292176942
 20
-437.0107751794764
 30
0.0
 11
-299.7690891575169
 21
-437.0107751794764
 31
0.0
  0
LINE
  5
102
330
1F
100
AcDbEntity
  8
1-0ﾚｲﾔ
  6
JWW_CENTER1
 62
     4
370
     9
100
AcDbLine
 10
-295.3782695048564
 20
-432.198169605152
 30
0.0
 11
-295.3782695048564
 21
-441.6217667863176
 31
0.0
  0
LINE
  5
103
330
1F
100
AcDbEntity
  8
1-0ﾚｲﾔ
  6
JWW_CENTER1
 62
     4
370
     9
100
AcDbLine
 10
-524.5112073743664
 20
-387.0111050992398
 30
0.0
 11
-533.7692673141892
 21
-387.0111050992398
 31
0.0
  0
LINE
  5
104
330
1F
100
AcDbEntity
  8
1-0ﾚｲﾔ
  6
JWW_CENTER1
 62
     4
370
     9
100
AcDbLine
 10
-529.3784476615286
 20
-382.1984995249155
 30
0.0
 11
-529.3784476615286
 21
-391.6217997782939
 31
0.0
  0
LINE
  5
105
330
1F
100
AcDbEntity
  8
1-0ﾚｲﾔ
  6
JWW_CENTER1
 62
     4
370
     9
100
AcDbLine
 10
-491.0826317039695
 20
-387.0111050992398
 30
0.0
 11
-500.3406916437922
 21
-387.0111050992398
 31
0.0
  0
LINE
  5
106
330
1F
100
AcDbEntity
  8
1-0ﾚｲﾔ
  6
JWW_CENTER1
 62
     4
370
     9
100
AcDbLine
 10
-495.9498719911317
 20
-382.1984995249155
 30
0.0
 11
-495.9498719911317
 21
-391.6217997782939
 31
0.0
  0
LINE
  5
107
330
1F
100
AcDbEntity
  8
1-0ﾚｲﾔ
  6
JWW_CENTER1
 62
     4
370
     9
100
AcDbLine
 10
-457.6540560335727
 20
-387.0111050992398
 30
0.0
 11
-466.9121159733951
 21
-387.0111050992398
 31
0.0
  0
LINE
  5
108
330
1F
100
AcDbEntity
  8
1-0ﾚｲﾔ
  6
JWW_CENTER1
 62
     4
370
     9
100
AcDbLine
 10
-462.5211478568413
 20
-382.1984995249155
 30
0.0
 11
-462.5211478568413
 21
-391.6217997782939
 31
0.0
  0
LINE
  5
109
330
1F
100
AcDbEntity
  8
1-0ﾚｲﾔ
  6
JWW_CENTER1
 62
     4
370
     9
100
AcDbLine
 10
-424.2254803631756
 20
-387.0111050992398
 30
0.0
 11
-433.4833918391047
 21
-387.0111050992398
 31
0.0
  0
LINE
  5
10A
330
1F
100
AcDbEntity
  8
1-0ﾚｲﾔ
  6
JWW_CENTER1
 62
     4
370
     9
100
AcDbLine
 10
-429.0927206503378
 20
-382.1984995249155
 30
0.0
 11
-429.0927206503378
 21
-391.6217997782939
 31
0.0
  0
LINE
  5
10B
330
1F
100
AcDbEntity
  8
1-0ﾚｲﾔ
  6
JWW_CENTER1
 62
     4
370
     9
100
AcDbLine
 10
-390.7967562288852
 20
-387.0111050992398
 30
0.0
 11
-400.0549646326012
 21
-387.0111050992398
 31
0.0
  0
LINE
  5
10C
330
1F
100
AcDbEntity
  8
1-0ﾚｲﾔ
  6
JWW_CENTER1
 62
     4
370
     9
100
AcDbLine
 10
-395.6639965160472
 20
-382.1984995249155
 30
0.0
 11
-395.6639965160472
 21
-391.6217997782939
 31
0.0
  0
LINE
  5
10D
330
1F
100
AcDbEntity
  8
1-0ﾚｲﾔ
  6
JWW_CENTER1
 62
     4
370
     9
100
AcDbLine
 10
-357.3683290223817
 20
-387.0111050992398
 30
0.0
 11
-366.6262404983108
 21
-387.0111050992398
 31
0.0
  0
LINE
  5
10E
330
1F
100
AcDbEntity
  8
1-0ﾚｲﾔ
  6
JWW_CENTER1
 62
     4
370
     9
100
AcDbLine
 10
-362.2355693095439
 20
-382.1984995249155
 30
0.0
 11
-362.2355693095439
 21
-391.6217997782939
 31
0.0
  0
LINE
  5
10F
330
1F
100
AcDbEntity
  8
1-0ﾚｲﾔ
  6
JWW_CENTER1
 62
     4
370
     9
100
AcDbLine
 10
-323.9396048880911
 20
-387.0111050992398
 30
0.0
 11
-333.1977390598606
 21
-387.0111050992398
 31
0.0
  0
LINE
  5
110
330
1F
100
AcDbEntity
  8
1-0ﾚｲﾔ
  6
JWW_CENTER1
 62
     4
370
     9
100
AcDbLine
 10
-328.8069194072002
 20
-382.1984995249155
 30
0.0
 11
-328.8069194072002
 21
-391.6217997782939
 31
0.0
  0
LINE
  5
111
330
1F
100
AcDbEntity
  8
1-0ﾚｲﾔ
  6
JWW_CENTER1
 62
     4
370
     9
100
AcDbLine
 10
-290.5110292176942
 20
-387.0111050992398
 30
0.0
 11
-299.7690891575169
 21
-387.0111050992398
 31
0.0
  0
LINE
  5
112
330
1F
100
AcDbEntity
  8
1-0ﾚｲﾔ
  6
JWW_CENTER1
 62
     4
370
     9
100
AcDbLine
 10
-295.3782695048564
 20
-382.1984995249155
 30
0.0
 11
-295.3782695048564
 21
-391.6217997782939
 31
0.0
  0
LINE
  5
113
330
1F
100
AcDbEntity
  8
1-0ﾚｲﾔ
  6
Continuous
 62
     4
370
     9
100
AcDbLine
 10
-322.3784328151394
 20
-479.0110622096706
 30
0.0
 11
-502.3785070470861
 21
-479.0110622096706
 31
0.0
  0
LINE
  5
114
330
1F
100
AcDbEntity
  8
1-0ﾚｲﾔ
  6
Continuous
 62
     4
370
     9
100
AcDbLine
 10
667.3881077122044
 20
337.8017974028717
 30
0.0
 11
667.3881077122044
 21
517.8017974028717
 31
0.0
  0
LINE
  5
115
330
1F
100
AcDbEntity
  8
1-0ﾚｲﾔ
  6
JWW_CENTER1
 62
     4
370
     9
100
AcDbLine
 10
625.3876722181166
 20
315.6690970755913
 30
0.0
 11
625.3876722181166
 21
306.410888671875
 31
0.0
  0
LINE
  5
116
330
1F
100
AcDbEntity
  8
1-0ﾚｲﾔ
  6
JWW_CENTER1
 62
     4
370
     9
100
AcDbLine
 10
620.5753635715794
 20
310.8018567884291
 30
0.0
 11
629.9985153610644
 21
310.8018567884291
 31
0.0
  0
LINE
  5
117
330
1F
100
AcDbEntity
  8
1-0ﾚｲﾔ
  6
JWW_CENTER1
 62
     4
370
     9
100
AcDbLine
 10
625.3876722181166
 20
349.0975242820947
 30
0.0
 11
625.3876722181166
 21
339.8396128061656
 31
0.0
  0
LINE
  5
118
330
1F
100
AcDbEntity
  8
1-0ﾚｲﾔ
  6
JWW_CENTER1
 62
     4
370
     9
100
AcDbLine
 10
620.5753635715794
 20
344.2302839949325
 30
0.0
 11
629.9985153610644
 21
344.2302839949325
 31
0.0
  0
LINE
  5
119
330
1F
100
AcDbEntity
  8
1-0ﾚｲﾔ
  6
JWW_CENTER1
 62
     4
370
     9
100
AcDbLine
 10
625.3876722181166
 20
382.5262484163852
 30
0.0
 11
625.3876722181166
 21
373.2683369404561
 31
0.0
  0
LINE
  5
11A
330
1F
100
AcDbEntity
  8
1-0ﾚｲﾔ
  6
JWW_CENTER1
 62
     4
370
     9
100
AcDbLine
 10
620.5753635715794
 20
377.659008129223
 30
0.0
 11
629.9985153610644
 21
377.659008129223
 31
0.0
  0
LINE
  5
11B
330
1F
100
AcDbEntity
  8
1-0ﾚｲﾔ
  6
JWW_CENTER1
 62
     4
370
     9
100
AcDbLine
 10
625.3876722181166
 20
415.9546756228886
 30
0.0
 11
625.3876722181166
 21
406.6967641469595
 31
0.0
  0
LINE
  5
11C
330
1F
100
AcDbEntity
  8
1-0ﾚｲﾔ
  6
JWW_CENTER1
 62
     4
370
     9
100
AcDbLine
 10
620.5753635715794
 20
411.0877322635136
 30
0.0
 11
629.9985153610644
 21
411.0877322635136
 31
0.0
  0
LINE
  5
11D
330
1F
100
AcDbEntity
  8
1-0ﾚｲﾔ
  6
JWW_CENTER1
 62
     4
370
     9
100
AcDbLine
 10
625.3876722181166
 20
449.3836966849663
 30
0.0
 11
625.3876722181166
 21
440.125191353463
 31
0.0
  0
LINE
  5
11E
330
1F
100
AcDbEntity
  8
1-0ﾚｲﾔ
  6
JWW_CENTER1
 62
     4
370
     9
100
AcDbLine
 10
620.5753635715794
 20
444.516159470017
 30
0.0
 11
629.9985153610644
 21
444.516159470017
 31
0.0
  0
LINE
  5
11F
330
1F
100
AcDbEntity
  8
1-0ﾚｲﾔ
  6
JWW_CENTER1
 62
     4
370
     9
100
AcDbLine
 10
625.3876722181166
 20
482.8121238914697
 30
0.0
 11
625.3876722181166
 21
473.5539154877534
 31
0.0
  0
LINE
  5
120
330
1F
100
AcDbEntity
  8
1-0ﾚｲﾔ
  6
JWW_CENTER1
 62
     4
370
     9
100
AcDbLine
 10
620.5753635715794
 20
477.9448836043075
 30
0.0
 11
629.9985153610644
 21
477.9448836043075
 31
0.0
  0
LINE
  5
121
330
1F
100
AcDbEntity
  8
1-0ﾚｲﾔ
  6
JWW_CENTER1
 62
     4
370
     9
100
AcDbLine
 10
625.3876722181166
 20
516.2405510979729
 30
0.0
 11
625.3876722181166
 21
506.9826396220441
 31
0.0
  0
LINE
  5
122
330
1F
100
AcDbEntity
  8
1-0ﾚｲﾔ
  6
JWW_CENTER1
 62
     4
370
     9
100
AcDbLine
 10
620.5753635715794
 20
511.373607738598
 30
0.0
 11
629.9985153610644
 21
511.373607738598
 31
0.0
  0
LINE
  5
123
330
1F
100
AcDbEntity
  8
1-0ﾚｲﾔ
  6
JWW_CENTER1
 62
     4
370
     9
100
AcDbLine
 10
625.3876722181166
 20
549.6692752322635
 30
0.0
 11
625.3876722181166
 21
540.4110668285473
 31
0.0
  0
LINE
  5
124
330
1F
100
AcDbEntity
  8
1-0ﾚｲﾔ
  6
JWW_CENTER1
 62
     4
370
     9
100
AcDbLine
 10
620.5753635715794
 20
544.8020349451015
 30
0.0
 11
629.9985153610644
 21
544.8020349451015
 31
0.0
  0
LINE
  5
125
330
1F
100
AcDbEntity
  8
1-0ﾚｲﾔ
  6
JWW_CENTER1
 62
     4
370
     9
100
AcDbLine
 10
575.3880021378803
 20
315.6690970755913
 30
0.0
 11
575.3880021378803
 21
306.410888671875
 31
0.0
  0
LINE
  5
126
330
1F
100
AcDbEntity
  8
1-0ﾚｲﾔ
  6
JWW_CENTER1
 62
     4
370
     9
100
AcDbLine
 10
570.5752480996622
 20
310.8018567884291
 30
0.0
 11
579.9986968169341
 21
310.8018567884291
 31
0.0
  0
LINE
  5
127
330
1F
100
AcDbEntity
  8
1-0ﾚｲﾔ
  6
JWW_CENTER1
 62
     4
370
     9
100
AcDbLine
 10
575.3880021378803
 20
349.0975242820947
 30
0.0
 11
575.3880021378803
 21
339.8396128061656
 31
0.0
  0
LINE
  5
128
330
1F
100
AcDbEntity
  8
1-0ﾚｲﾔ
  6
JWW_CENTER1
 62
     4
370
     9
100
AcDbLine
 10
570.5752480996622
 20
344.2302839949325
 30
0.0
 11
579.9986968169341
 21
344.2302839949325
 31
0.0
  0
LINE
  5
129
330
1F
100
AcDbEntity
  8
1-0ﾚｲﾔ
  6
JWW_CENTER1
 62
     4
370
     9
100
AcDbLine
 10
575.3880021378803
 20
382.5262484163852
 30
0.0
 11
575.3880021378803
 21
373.2683369404561
 31
0.0
  0
LINE
  5
12A
330
1F
100
AcDbEntity
  8
1-0ﾚｲﾔ
  6
JWW_CENTER1
 62
     4
370
     9
100
AcDbLine
 10
570.5752480996622
 20
377.659008129223
 30
0.0
 11
579.9986968169341
 21
377.659008129223
 31
0.0
  0
LINE
  5
12B
330
1F
100
AcDbEntity
  8
1-0ﾚｲﾔ
  6
JWW_CENTER1
 62
     4
370
     9
100
AcDbLine
 10
575.3880021378803
 20
415.9546756228886
 30
0.0
 11
575.3880021378803
 21
406.6967641469595
 31
0.0
  0
LINE
  5
12C
330
1F
100
AcDbEntity
  8
1-0ﾚｲﾔ
  6
JWW_CENTER1
 62
     4
370
     9
100
AcDbLine
 10
570.5752480996622
 20
411.0877322635136
 30
0.0
 11
579.9986968169341
 21
411.0877322635136
 31
0.0
  0
LINE
  5
12D
330
1F
100
AcDbEntity
  8
1-0ﾚｲﾔ
  6
JWW_CENTER1
 62
     4
370
     9
100
AcDbLine
 10
575.3880021378803
 20
449.3836966849663
 30
0.0
 11
575.3880021378803
 21
440.125191353463
 31
0.0
  0
LINE
  5
12E
330
1F
100
AcDbEntity
  8
1-0ﾚｲﾔ
  6
JWW_CENTER1
 62
     4
370
     9
100
AcDbLine
 10
570.5752480996622
 20
444.516159470017
 30
0.0
 11
579.9986968169341
 21
444.516159470017
 31
0.0
  0
LINE
  5
12F
330
1F
100
AcDbEntity
  8
1-0ﾚｲﾔ
  6
JWW_CENTER1
 62
     4
370
     9
100
AcDbLine
 10
575.3880021378803
 20
482.8121238914697
 30
0.0
 11
575.3880021378803
 21
473.5539154877534
 31
0.0
  0
LINE
  5
130
330
1F
100
AcDbEntity
  8
1-0ﾚｲﾔ
  6
JWW_CENTER1
 62
     4
370
     9
100
AcDbLine
 10
570.5752480996622
 20
477.9448836043075
 30
0.0
 11
579.9986968169341
 21
477.9448836043075
 31
0.0
  0
LINE
  5
131
330
1F
100
AcDbEntity
  8
1-0ﾚｲﾔ
  6
JWW_CENTER1
 62
     4
370
     9
100
AcDbLine
 10
575.3880021378803
 20
516.2405510979729
 30
0.0
 11
575.3880021378803
 21
506.9826396220441
 31
0.0
  0
LINE
  5
132
330
1F
100
AcDbEntity
  8
1-0ﾚｲﾔ
  6
JWW_CENTER1
 62
     4
370
     9
100
AcDbLine
 10
570.5752480996622
 20
511.373607738598
 30
0.0
 11
579.9986968169341
 21
511.373607738598
 31
0.0
  0
LINE
  5
133
330
1F
100
AcDbEntity
  8
1-0ﾚｲﾔ
  6
JWW_CENTER1
 62
     4
370
     9
100
AcDbLine
 10
575.3880021378803
 20
549.6692752322635
 30
0.0
 11
575.3880021378803
 21
540.4110668285473
 31
0.0
  0
LINE
  5
134
330
1F
100
AcDbEntity
  8
1-0ﾚｲﾔ
  6
JWW_CENTER1
 62
     4
370
     9
100
AcDbLine
 10
570.5752480996622
 20
544.8020349451015
 30
0.0
 11
579.9986968169341
 21
544.8020349451015
 31
0.0
  0
LINE
  5
135
330
1F
100
AcDbEntity
  8
1-0ﾚｲﾔ
  6
JWW_CENTER1
 62
     4
370
     9
100
AcDbLine
 10
525.3877382020694
 20
315.6690970755913
 30
0.0
 11
525.3877382020694
 21
306.410888671875
 31
0.0
  0
LINE
  5
136
330
1F
100
AcDbEntity
  8
1-0ﾚｲﾔ
  6
JWW_CENTER1
 62
     4
370
     9
100
AcDbLine
 10
520.575132627745
 20
310.8018567884291
 30
0.0
 11
529.9987298089106
 21
310.8018567884291
 31
0.0
  0
LINE
  5
137
330
1F
100
AcDbEntity
  8
1-0ﾚｲﾔ
  6
JWW_CENTER1
 62
     4
370
     9
100
AcDbLine
 10
525.3877382020694
 20
349.0975242820947
 30
0.0
 11
525.3877382020694
 21
339.8396128061656
 31
0.0
  0
LINE
  5
138
330
1F
100
AcDbEntity
  8
1-0ﾚｲﾔ
  6
JWW_CENTER1
 62
     4
370
     9
100
AcDbLine
 10
520.575132627745
 20
344.2302839949325
 30
0.0
 11
529.9987298089106
 21
344.2302839949325
 31
0.0
  0
LINE
  5
139
330
1F
100
AcDbEntity
  8
1-0ﾚｲﾔ
  6
JWW_CENTER1
 62
     4
370
     9
100
AcDbLine
 10
525.3877382020694
 20
382.5262484163852
 30
0.0
 11
525.3877382020694
 21
373.2683369404561
 31
0.0
  0
LINE
  5
13A
330
1F
100
AcDbEntity
  8
1-0ﾚｲﾔ
  6
JWW_CENTER1
 62
     4
370
     9
100
AcDbLine
 10
520.575132627745
 20
377.659008129223
 30
0.0
 11
529.9987298089106
 21
377.659008129223
 31
0.0
  0
LINE
  5
13B
330
1F
100
AcDbEntity
  8
1-0ﾚｲﾔ
  6
JWW_CENTER1
 62
     4
370
     9
100
AcDbLine
 10
525.3877382020694
 20
415.9546756228886
 30
0.0
 11
525.3877382020694
 21
406.6967641469595
 31
0.0
  0
LINE
  5
13C
330
1F
100
AcDbEntity
  8
1-0ﾚｲﾔ
  6
JWW_CENTER1
 62
     4
370
     9
100
AcDbLine
 10
520.575132627745
 20
411.0877322635136
 30
0.0
 11
529.9987298089106
 21
411.0877322635136
 31
0.0
  0
LINE
  5
13D
330
1F
100
AcDbEntity
  8
1-0ﾚｲﾔ
  6
JWW_CENTER1
 62
     4
370
     9
100
AcDbLine
 10
525.3877382020694
 20
449.3836966849663
 30
0.0
 11
525.3877382020694
 21
440.125191353463
 31
0.0
  0
LINE
  5
13E
330
1F
100
AcDbEntity
  8
1-0ﾚｲﾔ
  6
JWW_CENTER1
 62
     4
370
     9
100
AcDbLine
 10
520.575132627745
 20
444.516159470017
 30
0.0
 11
529.9987298089106
 21
444.516159470017
 31
0.0
  0
LINE
  5
13F
330
1F
100
AcDbEntity
  8
1-0ﾚｲﾔ
  6
JWW_CENTER1
 62
     4
370
     9
100
AcDbLine
 10
525.3877382020694
 20
482.8121238914697
 30
0.0
 11
525.3877382020694
 21
473.5539154877534
 31
0.0
  0
LINE
  5
140
330
1F
100
AcDbEntity
  8
1-0ﾚｲﾔ
  6
JWW_CENTER1
 62
     4
370
     9
100
AcDbLine
 10
520.575132627745
 20
477.9448836043075
 30
0.0
 11
529.9987298089106
 21
477.9448836043075
 31
0.0
  0
LINE
  5
141
330
1F
100
AcDbEntity
  8
1-0ﾚｲﾔ
  6
JWW_CENTER1
 62
     4
370
     9
100
AcDbLine
 10
525.3877382020694
 20
516.2405510979729
 30
0.0
 11
525.3877382020694
 21
506.9826396220441
 31
0.0
  0
LINE
  5
142
330
1F
100
AcDbEntity
  8
1-0ﾚｲﾔ
  6
JWW_CENTER1
 62
     4
370
     9
100
AcDbLine
 10
520.575132627745
 20
511.373607738598
 30
0.0
 11
529.9987298089106
 21
511.373607738598
 31
0.0
  0
LINE
  5
143
330
1F
100
AcDbEntity
  8
1-0ﾚｲﾔ
  6
JWW_CENTER1
 62
     4
370
     9
100
AcDbLine
 10
525.3877382020694
 20
549.6692752322635
 30
0.0
 11
525.3877382020694
 21
540.4110668285473
 31
0.0
  0
LINE
  5
144
330
1F
100
AcDbEntity
  8
1-0ﾚｲﾔ
  6
JWW_CENTER1
 62
     4
370
     9
100
AcDbLine
 10
520.575132627745
 20
544.8020349451015
 30
0.0
 11
529.9987298089106
 21
544.8020349451015
 31
0.0
  0
LINE
  5
145
330
1F
100
AcDbEntity
  8
F-Fﾚｲﾔ
  6
Continuous
 62
     7
370
     9
100
AcDbLine
 10
444.2330685177366
 20
-568.6085765941723
 30
0.0
 11
771.4506077122044
 21
-568.6085765941723
 31
0.0
  0
LINE
  5
146
330
1F
100
AcDbEntity
  8
1-4ﾚｲﾔ
  6
Continuous
 62
     7
370
     9
100
AcDbLine
 10
-587.378391575169
 20
662.8017314189191
 30
0.0
 11
-562.3785565350506
 21
662.8017314189191
 31
0.0
  0
LINE
  5
147
330
1F
100
AcDbEntity
  8
1-4ﾚｲﾔ
  6
Continuous
 62
     7
370
     9
100
AcDbLine
 10
-587.378391575169
 20
582.8016654349663
 30
0.0
 11
-587.378391575169
 21
664.6017076646959
 31
0.0
  0
LINE
  5
148
330
1F
100
AcDbEntity
  8
1-4ﾚｲﾔ
  6
Continuous
 62
     7
370
     9
100
AcDbLine
 10
-562.3785565350506
 20
607.8017974028717
 30
0.0
 11
-562.3785565350506
 21
664.6017076646959
 31
0.0
  0
LINE
  5
149
330
1F
100
AcDbEntity
  8
1-4ﾚｲﾔ
  6
Continuous
 62
     7
370
     9
100
AcDbLine
 10
-562.3785565350506
 20
662.8017314189191
 30
0.0
 11
-262.3784575591216
 21
662.8017314189191
 31
0.0
  0
LINE
  5
14A
330
1F
100
AcDbEntity
  8
1-4ﾚｲﾔ
  6
Continuous
 62
     7
370
     9
100
AcDbLine
 10
-262.3784575591216
 20
607.8017974028717
 30
0.0
 11
-262.3784575591216
 21
664.6017076646959
 31
0.0
  0
LINE
  5
14B
330
1F
100
AcDbEntity
  8
1-4ﾚｲﾔ
  6
Continuous
 62
     7
370
     9
100
AcDbLine
 10
-262.3784575591216
 20
662.8017314189191
 30
0.0
 11
-237.3785482870566
 21
662.8017314189191
 31
0.0
  0
LINE
  5
14C
330
1F
100
AcDbEntity
  8
1-4ﾚｲﾔ
  6
Continuous
 62
     7
370
     9
100
AcDbLine
 10
-237.3785482870566
 20
582.8016654349663
 30
0.0
 11
-237.3785482870566
 21
664.6017076646959
 31
0.0
  0
LINE
  5
14D
330
1F
100
AcDbEntity
  8
1-4ﾚｲﾔ
  6
Continuous
 62
     7
370
     9
100
AcDbLine
 10
-587.378391575169
 20
710.8015928526185
 30
0.0
 11
-237.3785482870566
 21
710.8015928526185
 31
0.0
  0
LINE
  5
14E
330
1F
100
AcDbEntity
  8
1-4ﾚｲﾔ
  6
Continuous
 62
     7
370
     9
100
AcDbLine
 10
-587.378391575169
 20
582.8016654349663
 30
0.0
 11
-587.378391575169
 21
712.6015690983953
 31
0.0
  0
LINE
  5
14F
330
1F
100
AcDbEntity
  8
1-4ﾚｲﾔ
  6
Continuous
 62
     7
370
     9
100
AcDbLine
 10
-237.3785482870566
 20
582.8016654349663
 30
0.0
 11
-237.3785482870566
 21
712.6015690983953
 31
0.0
  0
LINE
  5
150
330
1F
100
AcDbEntity
  8
1-4ﾚｲﾔ
  6
Continuous
 62
     7
370
     9
100
AcDbLine
 10
-647.3782925992398
 20
252.8017644108953
 30
0.0
 11
-647.3782925992398
 21
277.8015994510136
 31
0.0
  0
LINE
  5
151
330
1F
100
AcDbEntity
  8
1-4ﾚｲﾔ
  6
Continuous
 62
     7
370
     9
100
AcDbLine
 10
-567.3785235430743
 20
252.8017644108953
 30
0.0
 11
-649.1782688450169
 21
252.8017644108953
 31
0.0
  0
LINE
  5
152
330
1F
100
AcDbEntity
  8
1-4ﾚｲﾔ
  6
Continuous
 62
     7
370
     9
100
AcDbLine
 10
-592.3783585831925
 20
277.8015994510136
 30
0.0
 11
-649.1782688450169
 21
277.8015994510136
 31
0.0
  0
LINE
  5
153
330
1F
100
AcDbEntity
  8
1-4ﾚｲﾔ
  6
Continuous
 62
     7
370
     9
100
AcDbLine
 10
-647.3782925992398
 20
277.8015994510136
 30
0.0
 11
-647.3782925992398
 21
577.8016984269427
 31
0.0
  0
LINE
  5
154
330
1F
100
AcDbEntity
  8
1-4ﾚｲﾔ
  6
Continuous
 62
     7
370
     9
100
AcDbLine
 10
-592.3783585831925
 20
577.8016984269427
 30
0.0
 11
-649.1782688450169
 21
577.8016984269427
 31
0.0
  0
LINE
  5
155
330
1F
100
AcDbEntity
  8
1-4ﾚｲﾔ
  6
Continuous
 62
     7
370
     9
100
AcDbLine
 10
-647.3782925992398
 20
577.8016984269427
 30
0.0
 11
-647.3782925992398
 21
602.801533467061
 31
0.0
  0
LINE
  5
156
330
1F
100
AcDbEntity
  8
1-4ﾚｲﾔ
  6
Continuous
 62
     7
370
     9
100
AcDbLine
 10
-567.3785235430743
 20
602.801533467061
 30
0.0
 11
-649.1782688450169
 21
602.801533467061
 31
0.0
  0
LINE
  5
157
330
1F
100
AcDbEntity
  8
1-4ﾚｲﾔ
  6
Continuous
 62
     7
370
     9
100
AcDbLine
 10
-695.3784509607264
 20
252.8017644108953
 30
0.0
 11
-695.3784509607264
 21
602.801533467061
 31
0.0
  0
LINE
  5
158
330
1F
100
AcDbEntity
  8
1-4ﾚｲﾔ
  6
Continuous
 62
     7
370
     9
100
AcDbLine
 10
-567.3785235430743
 20
252.8017644108953
 30
0.0
 11
-697.1784272065033
 21
252.8017644108953
 31
0.0
  0
LINE
  5
159
330
1F
100
AcDbEntity
  8
1-4ﾚｲﾔ
  6
Continuous
 62
     7
370
     9
100
AcDbLine
 10
-567.3785235430743
 20
602.801533467061
 30
0.0
 11
-697.1784272065033
 21
602.801533467061
 31
0.0
  0
LINE
  5
15A
330
1F
100
AcDbEntity
  8
1-4ﾚｲﾔ
  6
Continuous
 62
     7
370
     9
100
AcDbLine
 10
-562.3785565350506
 20
-122.0110721072634
 30
0.0
 11
-562.3785565350506
 21
-75.2110958614864
 31
0.0
  0
LINE
  5
15B
330
1F
100
AcDbEntity
  8
1-4ﾚｲﾔ
  6
Continuous
 62
     7
370
     9
100
AcDbLine
 10
-560.8784773543074
 20
-122.0110721072634
 30
0.0
 11
-560.8784773543074
 21
-75.2110958614864
 31
0.0
  0
LINE
  5
15C
330
1F
100
AcDbEntity
  8
1-4ﾚｲﾔ
  6
Continuous
 62
     7
370
     9
100
AcDbLine
 10
-560.8784773543074
 20
-77.01107210726343
 30
0.0
 11
-560.3784509607264
 21
-77.01107210726343
 31
0.0
  0
LINE
  5
15D
330
1F
100
AcDbEntity
  8
1-4ﾚｲﾔ
  6
Continuous
 62
     7
370
     9
100
AcDbLine
 10
-560.3784509607264
 20
-122.5110985008445
 30
0.0
 11
-560.3784509607264
 21
-75.2110958614864
 31
0.0
  0
LINE
  5
15E
330
1F
100
AcDbEntity
  8
1-4ﾚｲﾔ
  6
Continuous
 62
     7
370
     9
100
AcDbLine
 10
-560.3784509607264
 20
-77.01107210726343
 30
0.0
 11
-266.8785466374576
 21
-77.01107210726343
 31
0.0
  0
LINE
  5
15F
330
1F
100
AcDbEntity
  8
1-4ﾚｲﾔ
  6
Continuous
 62
     7
370
     9
100
AcDbLine
 10
-266.8785466374576
 20
-122.5110985008445
 30
0.0
 11
-266.8785466374576
 21
-75.2110958614864
 31
0.0
  0
LINE
  5
160
330
1F
100
AcDbEntity
  8
1-4ﾚｲﾔ
  6
Continuous
 62
     7
370
     9
100
AcDbLine
 10
-266.8785466374576
 20
-77.01107210726343
 30
0.0
 11
-263.878462507918
 21
-77.01107210726343
 31
0.0
  0
LINE
  5
161
330
1F
100
AcDbEntity
  8
1-4ﾚｲﾔ
  6
Continuous
 62
     7
370
     9
100
AcDbLine
 10
-263.878462507918
 20
-122.0110721072634
 30
0.0
 11
-263.878462507918
 21
-75.2110958614864
 31
0.0
  0
LINE
  5
162
330
1F
100
AcDbEntity
  8
1-4ﾚｲﾔ
  6
Continuous
 62
     7
370
     9
100
AcDbLine
 10
-262.3786060230152
 20
-122.0110721072634
 30
0.0
 11
-262.3786060230152
 21
-75.2110958614864
 31
0.0
  0
LINE
  5
163
330
1F
100
AcDbEntity
  8
1-4ﾚｲﾔ
  6
Continuous
 62
     7
370
     9
100
AcDbLine
 10
-562.3785565350506
 20
-29.01091374577703
 30
0.0
 11
-262.3786060230152
 21
-29.01091374577703
 31
0.0
  0
LINE
  5
164
330
1F
100
AcDbEntity
  8
1-4ﾚｲﾔ
  6
Continuous
 62
     7
370
     9
100
AcDbLine
 10
-562.3785565350506
 20
-122.0110721072634
 30
0.0
 11
-562.3785565350506
 21
-27.2109375
 31
0.0
  0
LINE
  5
165
330
1F
100
AcDbEntity
  8
1-4ﾚｲﾔ
  6
Continuous
 62
     7
370
     9
100
AcDbLine
 10
-262.3786060230152
 20
-122.0110721072634
 30
0.0
 11
-262.3786060230152
 21
-27.2109375
 31
0.0
  0
LINE
  5
166
330
1F
100
AcDbEntity
  8
1-4ﾚｲﾔ
  6
Continuous
 62
     7
370
     9
100
AcDbLine
 10
-263.878462507918
 20
-77.01107210726343
 30
0.0
 11
-221.837719066723
 21
-77.01107210726343
 31
0.0
  0
LINE
  5
167
330
1F
100
AcDbEntity
  8
1-4ﾚｲﾔ
  6
Continuous
 62
     7
370
     9
100
AcDbLine
 10
-606.0987977723817
 20
-77.01107210726343
 30
0.0
 11
-560.8784773543074
 21
-77.01107210726343
 31
0.0
  0
LINE
  5
168
330
1F
100
AcDbEntity
  8
1-4ﾚｲﾔ
  6
Continuous
 62
     7
370
     9
100
AcDbLine
 10
-531.853489231419
 20
-334.5362449852195
 30
0.0
 11
-540.9849094700169
 21
-322.6358246674408
 31
0.0
  0
LINE
  5
169
330
1F
100
AcDbEntity
  8
1-4ﾚｲﾔ
  6
Continuous
 62
     7
370
     9
100
AcDbLine
 10
-531.853489231419
 20
-334.5362449852195
 30
0.0
 11
-543.753761085304
 21
-325.4048247466216
 31
0.0
  0
LINE
  5
16A
330
1F
100
AcDbEntity
  8
1-4ﾚｲﾔ
  6
Continuous
 62
     7
370
     9
100
AcDbLine
 10
-531.853489231419
 20
-334.5362449852195
 30
0.0
 11
-591.9049072265625
 21
-274.484826990076
 31
0.0
  0
LINE
  5
16B
330
1F
100
AcDbEntity
  8
1-4ﾚｲﾔ
  6
Continuous
 62
     7
370
     9
100
AcDbLine
 10
-591.9049072265625
 20
-274.484826990076
 30
0.0
 11
-650.6627593169341
 21
-274.484826990076
 31
0.0
  0
LINE
  5
16C
330
1F
100
AcDbEntity
  8
1-4ﾚｲﾔ
  6
Continuous
 62
     7
370
     9
100
AcDbLine
 10
-647.3782925992398
 20
-487.0110391152871
 30
0.0
 11
-647.3782925992398
 21
-437.0107751794764
 31
0.0
  0
LINE
  5
16D
330
1F
100
AcDbEntity
  8
1-4ﾚｲﾔ
  6
Continuous
 62
     7
370
     9
100
AcDbLine
 10
-602.3784410631334
 20
-487.0110391152871
 30
0.0
 11
-649.1784173089104
 21
-487.0110391152871
 31
0.0
  0
LINE
  5
16E
330
1F
100
AcDbEntity
  8
1-4ﾚｲﾔ
  6
Continuous
 62
     7
370
     9
100
AcDbLine
 10
-548.7693168021536
 20
-437.0107751794764
 30
0.0
 11
-649.1784173089104
 21
-437.0107751794764
 31
0.0
  0
LINE
  5
16F
330
1F
100
AcDbEntity
  8
1-4ﾚｲﾔ
  6
Continuous
 62
     7
370
     9
100
AcDbLine
 10
-647.3782925992398
 20
-437.0107751794764
 30
0.0
 11
-647.3782925992398
 21
-387.0111050992398
 31
0.0
  0
LINE
  5
170
330
1F
100
AcDbEntity
  8
1-4ﾚｲﾔ
  6
Continuous
 62
     7
370
     9
100
AcDbLine
 10
-548.7693168021536
 20
-387.0111050992398
 30
0.0
 11
-649.1784173089104
 21
-387.0111050992398
 31
0.0
  0
LINE
  5
171
330
1F
100
AcDbEntity
  8
1-4ﾚｲﾔ
  6
Continuous
 62
     7
370
     9
100
AcDbLine
 10
-647.3782925992398
 20
-387.0111050992398
 30
0.0
 11
-647.3782925992398
 21
-337.0109896273226
 31
0.0
  0
LINE
  5
172
330
1F
100
AcDbEntity
  8
1-4ﾚｲﾔ
  6
Continuous
 62
     7
370
     9
100
AcDbLine
 10
-548.7693168021536
 20
-337.0109896273226
 30
0.0
 11
-649.1784173089104
 21
-337.0109896273226
 31
0.0
  0
LINE
  5
173
330
1F
100
AcDbEntity
  8
1-4ﾚｲﾔ
  6
Continuous
 62
     7
370
     9
100
AcDbLine
 10
-695.3784509607264
 20
-487.0110391152871
 30
0.0
 11
-695.3784509607264
 21
-137.011121595228
 31
0.0
  0
LINE
  5
174
330
1F
100
AcDbEntity
  8
1-4ﾚｲﾔ
  6
Continuous
 62
     7
370
     9
100
AcDbLine
 10
-602.3784410631334
 20
-487.0110391152871
 30
0.0
 11
-697.1784272065033
 21
-487.0110391152871
 31
0.0
  0
LINE
  5
175
330
1F
100
AcDbEntity
  8
1-4ﾚｲﾔ
  6
Continuous
 62
     7
370
     9
100
AcDbLine
 10
-577.3784575591216
 20
-137.011121595228
 30
0.0
 11
-697.1784272065033
 21
-137.011121595228
 31
0.0
  0
LINE
  5
176
330
1F
100
AcDbEntity
  8
1-4ﾚｲﾔ
  6
Continuous
 62
     7
370
     9
100
AcDbLine
 10
-502.3785070470861
 20
-547.0109401393581
 30
0.0
 11
-322.3784328151394
 21
-547.0109401393581
 31
0.0
  0
LINE
  5
177
330
1F
100
AcDbEntity
  8
1-4ﾚｲﾔ
  6
Continuous
 62
     7
370
     9
100
AcDbLine
 10
-502.3785070470861
 20
-502.0109401393581
 30
0.0
 11
-502.3785070470861
 21
-548.8109163851352
 31
0.0
  0
LINE
  5
178
330
1F
100
AcDbEntity
  8
1-4ﾚｲﾔ
  6
Continuous
 62
     7
370
     9
100
AcDbLine
 10
-322.3784328151394
 20
-502.0109401393581
 30
0.0
 11
-322.3784328151394
 21
-548.8109163851352
 31
0.0
  0
LINE
  5
179
330
1F
100
AcDbEntity
  8
1-4ﾚｲﾔ
  6
Continuous
 62
     7
370
     9
100
AcDbLine
 10
-222.3785730310387
 20
-487.0110391152871
 30
0.0
 11
-175.5785967852617
 21
-487.0110391152871
 31
0.0
  0
LINE
  5
17A
330
1F
100
AcDbEntity
  8
1-4ﾚｲﾔ
  6
Continuous
 62
     7
370
     9
100
AcDbLine
 10
-307.3784575591216
 20
-479.0110622096706
 30
0.0
 11
-175.5785967852617
 21
-479.0110622096706
 31
0.0
  0
LINE
  5
17B
330
1F
100
AcDbEntity
  8
1-4ﾚｲﾔ
  6
Continuous
 62
     7
370
     9
100
AcDbLine
 10
-177.3785730310387
 20
-487.0110391152871
 30
0.0
 11
-177.3785730310387
 21
-453.6240333350929
 31
0.0
  0
LINE
  5
17C
330
1F
100
AcDbEntity
  8
1-0ﾚｲﾔ
  6
JWW_CENTER1
 62
     4
370
     9
100
AcDbLine
 10
-412.3783585831925
 20
-122.0700122730152
 30
0.0
 11
-412.3783585831925
 21
-489.3998231630067
 31
0.0
  0
LINE
  5
17D
330
1F
100
AcDbEntity
  8
1-4ﾚｲﾔ
  6
Continuous
 62
     7
370
     9
100
AcDbLine
 10
310.3878206820103
 20
277.8015994510136
 30
0.0
 11
263.5878444362331
 21
277.8015994510136
 31
0.0
  0
LINE
  5
17E
330
1F
100
AcDbEntity
  8
1-4ﾚｲﾔ
  6
Continuous
 62
     7
370
     9
100
AcDbLine
 10
310.3878206820103
 20
279.3016786317569
 30
0.0
 11
263.5878444362331
 21
279.3016786317569
 31
0.0
  0
LINE
  5
17F
330
1F
100
AcDbEntity
  8
1-4ﾚｲﾔ
  6
Continuous
 62
     7
370
     9
100
AcDbLine
 10
265.3878206820102
 20
279.3016786317569
 30
0.0
 11
265.3878206820102
 21
279.801705025338
 31
0.0
  0
LINE
  5
180
330
1F
100
AcDbEntity
  8
1-4ﾚｲﾔ
  6
Continuous
 62
     7
370
     9
100
AcDbLine
 10
310.887995539485
 20
279.801705025338
 30
0.0
 11
263.5878444362331
 21
279.801705025338
 31
0.0
  0
LINE
  5
181
330
1F
100
AcDbEntity
  8
1-4ﾚｲﾔ
  6
Continuous
 62
     7
370
     9
100
AcDbLine
 10
265.3878206820102
 20
279.801705025338
 30
0.0
 11
265.3878206820102
 21
575.8018897804054
 31
0.0
  0
LINE
  5
182
330
1F
100
AcDbEntity
  8
1-4ﾚｲﾔ
  6
Continuous
 62
     7
370
     9
100
AcDbLine
 10
310.887995539485
 20
575.8018897804054
 30
0.0
 11
263.5878444362331
 21
575.8018897804054
 31
0.0
  0
LINE
  5
183
330
1F
100
AcDbEntity
  8
1-4ﾚｲﾔ
  6
Continuous
 62
     7
370
     9
100
AcDbLine
 10
265.3878206820102
 20
575.8018897804054
 30
0.0
 11
265.3878206820102
 21
576.3016192461994
 31
0.0
  0
LINE
  5
184
330
1F
100
AcDbEntity
  8
1-4ﾚｲﾔ
  6
Continuous
 62
     7
370
     9
100
AcDbLine
 10
310.3878206820103
 20
576.3016192461994
 30
0.0
 11
263.5878444362331
 21
576.3016192461994
 31
0.0
  0
LINE
  5
185
330
1F
100
AcDbEntity
  8
1-4ﾚｲﾔ
  6
Continuous
 62
     7
370
     9
100
AcDbLine
 10
310.3878206820103
 20
577.8016984269427
 30
0.0
 11
263.5878444362331
 21
577.8016984269427
 31
0.0
  0
LINE
  5
186
330
1F
100
AcDbEntity
  8
1-4ﾚｲﾔ
  6
Continuous
 62
     7
370
     9
100
AcDbLine
 10
217.3878107844174
 20
277.8015994510136
 30
0.0
 11
217.3878107844174
 21
577.8016984269427
 31
0.0
  0
LINE
  5
187
330
1F
100
AcDbEntity
  8
1-4ﾚｲﾔ
  6
Continuous
 62
     7
370
     9
100
AcDbLine
 10
310.3878206820103
 20
277.8015994510136
 30
0.0
 11
215.5878345386403
 21
277.8015994510136
 31
0.0
  0
LINE
  5
188
330
1F
100
AcDbEntity
  8
1-4ﾚｲﾔ
  6
Continuous
 62
     7
370
     9
100
AcDbLine
 10
310.3878206820103
 20
577.8016984269427
 30
0.0
 11
215.5878345386403
 21
577.8016984269427
 31
0.0
  0
LINE
  5
189
330
1F
100
AcDbEntity
  8
1-4ﾚｲﾔ
  6
Continuous
 62
     7
370
     9
100
AcDbLine
 10
265.3878206820102
 20
237.2893660261825
 30
0.0
 11
265.3878206820102
 21
279.3016786317569
 31
0.0
  0
LINE
  5
18A
330
1F
100
AcDbEntity
  8
1-4ﾚｲﾔ
  6
Continuous
 62
     7
370
     9
100
AcDbLine
 10
265.3878206820102
 20
576.3016192461994
 30
0.0
 11
265.3878206820102
 21
617.5024282094596
 31
0.0
  0
LINE
  5
18B
330
1F
100
AcDbEntity
  8
1-0ﾚｲﾔ
  6
JWW_CENTER1
 62
     4
370
     9
100
AcDbLine
 10
-524.5112073743664
 20
-337.0111380912161
 30
0.0
 11
-533.7692673141892
 21
-337.0111380912161
 31
0.0
  0
LINE
  5
18C
330
1F
100
AcDbEntity
  8
1-0ﾚｲﾔ
  6
JWW_CENTER1
 62
     4
370
     9
100
AcDbLine
 10
-529.3784476615286
 20
-332.1985325168919
 30
0.0
 11
-529.3784476615286
 21
-341.6218327702702
 31
0.0
  0
LINE
  5
18D
330
1F
100
AcDbEntity
  8
1-0ﾚｲﾔ
  6
JWW_CENTER1
 62
     4
370
     9
100
AcDbLine
 10
-491.0826317039695
 20
-337.0111380912161
 30
0.0
 11
-500.3406916437922
 21
-337.0111380912161
 31
0.0
  0
LINE
  5
18E
330
1F
100
AcDbEntity
  8
1-0ﾚｲﾔ
  6
JWW_CENTER1
 62
     4
370
     9
100
AcDbLine
 10
-495.9498719911317
 20
-332.1985325168919
 30
0.0
 11
-495.9498719911317
 21
-341.6218327702702
 31
0.0
  0
LINE
  5
18F
330
1F
100
AcDbEntity
  8
1-0ﾚｲﾔ
  6
JWW_CENTER1
 62
     4
370
     9
100
AcDbLine
 10
-457.6540560335727
 20
-337.0111380912161
 30
0.0
 11
-466.9121159733951
 21
-337.0111380912161
 31
0.0
  0
LINE
  5
190
330
1F
100
AcDbEntity
  8
1-0ﾚｲﾔ
  6
JWW_CENTER1
 62
     4
370
     9
100
AcDbLine
 10
-462.5211478568413
 20
-332.1985325168919
 30
0.0
 11
-462.5211478568413
 21
-341.6218327702702
 31
0.0
  0
LINE
  5
191
330
1F
100
AcDbEntity
  8
1-0ﾚｲﾔ
  6
JWW_CENTER1
 62
     4
370
     9
100
AcDbLine
 10
-424.2254803631756
 20
-337.0111380912161
 30
0.0
 11
-433.4833918391047
 21
-337.0111380912161
 31
0.0
  0
LINE
  5
192
330
1F
100
AcDbEntity
  8
1-0ﾚｲﾔ
  6
JWW_CENTER1
 62
     4
370
     9
100
AcDbLine
 10
-429.0927206503378
 20
-332.1985325168919
 30
0.0
 11
-429.0927206503378
 21
-341.6218327702702
 31
0.0
  0
LINE
  5
193
330
1F
100
AcDbEntity
  8
1-0ﾚｲﾔ
  6
JWW_CENTER1
 62
     4
370
     9
100
AcDbLine
 10
-390.7967562288852
 20
-337.0111380912161
 30
0.0
 11
-400.0549646326012
 21
-337.0111380912161
 31
0.0
  0
LINE
  5
194
330
1F
100
AcDbEntity
  8
1-0ﾚｲﾔ
  6
JWW_CENTER1
 62
     4
370
     9
100
AcDbLine
 10
-395.6639965160472
 20
-332.1985325168919
 30
0.0
 11
-395.6639965160472
 21
-341.6218327702702
 31
0.0
  0
LINE
  5
195
330
1F
100
AcDbEntity
  8
1-0ﾚｲﾔ
  6
JWW_CENTER1
 62
     4
370
     9
100
AcDbLine
 10
-357.3683290223817
 20
-337.0111380912161
 30
0.0
 11
-366.6262404983108
 21
-337.0111380912161
 31
0.0
  0
LINE
  5
196
330
1F
100
AcDbEntity
  8
1-0ﾚｲﾔ
  6
JWW_CENTER1
 62
     4
370
     9
100
AcDbLine
 10
-362.2355693095439
 20
-332.1985325168919
 30
0.0
 11
-362.2355693095439
 21
-341.6218327702702
 31
0.0
  0
LINE
  5
197
330
1F
100
AcDbEntity
  8
1-0ﾚｲﾔ
  6
JWW_CENTER1
 62
     4
370
     9
100
AcDbLine
 10
-323.9396048880911
 20
-337.0111380912161
 30
0.0
 11
-333.1977390598606
 21
-337.0111380912161
 31
0.0
  0
LINE
  5
198
330
1F
100
AcDbEntity
  8
1-0ﾚｲﾔ
  6
JWW_CENTER1
 62
     4
370
     9
100
AcDbLine
 10
-328.8069194072002
 20
-332.1985325168919
 30
0.0
 11
-328.8069194072002
 21
-341.6218327702702
 31
0.0
  0
LINE
  5
199
330
1F
100
AcDbEntity
  8
1-0ﾚｲﾔ
  6
JWW_CENTER1
 62
     4
370
     9
100
AcDbLine
 10
-290.5110292176942
 20
-337.0111380912161
 30
0.0
 11
-299.7690891575169
 21
-337.0111380912161
 31
0.0
  0
LINE
  5
19A
330
1F
100
AcDbEntity
  8
1-0ﾚｲﾔ
  6
JWW_CENTER1
 62
     4
370
     9
100
AcDbLine
 10
-295.3782695048564
 20
-332.1985325168919
 30
0.0
 11
-295.3782695048564
 21
-341.6218327702702
 31
0.0
  0
LINE
  5
19B
330
1F
100
AcDbEntity
  8
1-4ﾚｲﾔ
  6
Continuous
 62
     7
370
     9
100
AcDbLine
 10
-548.7693168021536
 20
-337.0111380912161
 30
0.0
 11
-649.1784173089104
 21
-337.0111380912161
 31
0.0
  0
LINE
  5
19C
330
1F
100
AcDbEntity
  8
F-2ﾚｲﾔ
  6
Continuous
 62
     3
370
     9
100
AcDbLine
 10
489.4290408572638
 20
-238.6067455394848
 30
0.0
 11
489.4290408572638
 21
-250.6073789854307
 31
0.0
  0
LINE
  5
19D
330
1F
100
AcDbEntity
  8
F-0ﾚｲﾔ
  6
Continuous
 62
     4
370
     9
100
AcDbLine
 10
492.4280115076016
 20
-235.607774889147
 30
0.0
 11
492.4280115076016
 21
-280.6071810335726
 31
0.0
  0
LINE
  5
19E
330
1F
100
AcDbEntity
  8
F-0ﾚｲﾔ
  6
Continuous
 62
     4
370
     9
100
AcDbLine
 10
501.4284865920609
 20
-310.6069830817145
 30
0.0
 11
501.4284865920609
 21
-496.5349978885135
 31
0.0
  0
LINE
  5
19F
330
1F
100
AcDbEntity
  8
F-0ﾚｲﾔ
  6
Continuous
 62
     4
370
     9
100
AcDbLine
 10
916.2729789115288
 20
-235.607774889147
 30
0.0
 11
679.2567567567569
 21
-235.607774889147
 31
0.0
  0
LINE
  5
1A0
330
1F
100
AcDbEntity
  8
F-2ﾚｲﾔ
  6
Continuous
 62
     3
370
     9
100
AcDbLine
 10
889.2727413692991
 20
-238.6079332506334
 30
0.0
 11
889.2727413692991
 21
-250.6073789854307
 31
0.0
  0
LINE
  5
1A1
330
1F
100
AcDbEntity
  8
F-2ﾚｲﾔ
  6
Continuous
 62
     3
370
     9
100
AcDbLine
 10
889.2727413692991
 20
-238.6079332506334
 30
0.0
 11
679.2567567567569
 21
-238.6079332506334
 31
0.0
  0
LINE
  5
1A2
330
1F
100
AcDbEntity
  8
F-0ﾚｲﾔ
  6
Continuous
 62
     4
370
     9
100
AcDbLine
 10
492.4280115076016
 20
-310.6069830817145
 30
0.0
 11
492.4280115076016
 21
-496.5349978885135
 31
0.0
  0
LINE
  5
1A3
330
1F
100
AcDbEntity
  8
F-2ﾚｲﾔ
  6
Continuous
 62
     3
370
     9
100
AcDbLine
 10
175.6697536159206
 20
-238.6067455394848
 30
0.0
 11
489.4290408572638
 21
-238.6067455394848
 31
0.0
  0
LINE
  5
1A4
330
1F
100
AcDbEntity
  8
F-2ﾚｲﾔ
  6
Continuous
 62
     3
370
     9
100
AcDbLine
 10
175.6697536159206
 20
-268.607141443201
 30
0.0
 11
483.4287241342906
 21
-268.607141443201
 31
0.0
  0
LINE
  5
1A5
330
1F
100
AcDbEntity
  8
F-1ﾚｲﾔ
  6
Continuous
 62
     2
370
     9
100
AcDbLine
 10
175.6697536159206
 20
-250.6073789854307
 30
0.0
 11
492.4280115076016
 21
-250.6073789854307
 31
0.0
  0
LINE
  5
1A6
330
1F
100
AcDbEntity
  8
F-Fﾚｲﾔ
  6
Continuous
 62
     7
370
     9
100
AcDbLine
 10
489.4290408572638
 20
-220.6065376900337
 30
0.0
 11
489.4290408572638
 21
-143.0559774862753
 31
0.0
  0
LINE
  5
1A7
330
1F
100
AcDbEntity
  8
F-Fﾚｲﾔ
  6
Continuous
 62
     7
370
     9
100
AcDbLine
 10
489.4290408572638
 20
-144.8561021959459
 30
0.0
 11
474.5572641733531
 21
-142.8981603673986
 31
0.0
  0
LINE
  5
1A8
330
1F
100
AcDbEntity
  8
F-Fﾚｲﾔ
  6
Continuous
 62
     7
370
     9
100
AcDbLine
 10
489.4290408572638
 20
-144.8561021959459
 30
0.0
 11
474.5572641733531
 21
-146.8140440244932
 31
0.0
  0
LINE
  5
1A9
330
1F
100
AcDbEntity
  8
F-Fﾚｲﾔ
  6
Continuous
 62
     7
370
     9
100
AcDbLine
 10
492.4280115076016
 20
-217.6075670396959
 30
0.0
 11
492.4280115076016
 21
-143.0559774862753
 31
0.0
  0
LINE
  5
1AA
330
1F
100
AcDbEntity
  8
F-Fﾚｲﾔ
  6
Continuous
 62
     7
370
     9
100
AcDbLine
 10
501.4284865920609
 20
-217.6075670396959
 30
0.0
 11
501.4284865920609
 21
-143.0559774862753
 31
0.0
  0
LINE
  5
1AB
330
1F
100
AcDbEntity
  8
F-Fﾚｲﾔ
  6
Continuous
 62
     7
370
     9
100
AcDbLine
 10
501.4284865920609
 20
-144.8561021959459
 30
0.0
 11
516.300411739865
 21
-142.8981603673986
 31
0.0
  0
LINE
  5
1AC
330
1F
100
AcDbEntity
  8
F-Fﾚｲﾔ
  6
Continuous
 62
     7
370
     9
100
AcDbLine
 10
501.4284865920609
 20
-144.8561021959459
 30
0.0
 11
516.300411739865
 21
-146.8140440244932
 31
0.0
  0
LINE
  5
1AD
330
1F
100
AcDbEntity
  8
F-Fﾚｲﾔ
  6
Continuous
 62
     7
370
     9
100
AcDbLine
 10
175.6697536159206
 20
-144.8561021959459
 30
0.0
 11
545.8904534417231
 21
-144.8561021959459
 31
0.0
  0
LINE
  5
1AE
330
1F
100
AcDbEntity
  8
F-Fﾚｲﾔ
  6
Continuous
 62
     7
370
     9
100
AcDbLine
 10
889.2727413692991
 20
-220.607873865076
 30
0.0
 11
889.2727413692991
 21
-143.0559774862753
 31
0.0
  0
LINE
  5
1AF
330
1F
100
AcDbEntity
  8
F-Fﾚｲﾔ
  6
Continuous
 62
     7
370
     9
100
AcDbLine
 10
889.2727413692991
 20
-144.8561021959459
 30
0.0
 11
874.4009646853888
 21
-142.8981603673986
 31
0.0
  0
LINE
  5
1B0
330
1F
100
AcDbEntity
  8
F-Fﾚｲﾔ
  6
Continuous
 62
     7
370
     9
100
AcDbLine
 10
889.2727413692991
 20
-144.8561021959459
 30
0.0
 11
874.4009646853888
 21
-146.8140440244932
 31
0.0
  0
LINE
  5
1B1
330
1F
100
AcDbEntity
  8
F-Fﾚｲﾔ
  6
Continuous
 62
     7
370
     9
100
AcDbLine
 10
907.2725038270694
 20
-217.6075670396959
 30
0.0
 11
907.2725038270694
 21
-143.0559774862753
 31
0.0
  0
LINE
  5
1B2
330
1F
100
AcDbEntity
  8
F-Fﾚｲﾔ
  6
Continuous
 62
     7
370
     9
100
AcDbLine
 10
916.2729789115288
 20
-217.6075670396959
 30
0.0
 11
916.2729789115288
 21
-143.0559774862753
 31
0.0
  0
LINE
  5
1B3
330
1F
100
AcDbEntity
  8
F-Fﾚｲﾔ
  6
Continuous
 62
     7
370
     9
100
AcDbLine
 10
916.2729789115288
 20
-144.8561021959459
 30
0.0
 11
931.1447555954394
 21
-142.8981603673986
 31
0.0
  0
LINE
  5
1B4
330
1F
100
AcDbEntity
  8
F-Fﾚｲﾔ
  6
Continuous
 62
     7
370
     9
100
AcDbLine
 10
916.2729789115288
 20
-144.8561021959459
 30
0.0
 11
931.1447555954394
 21
-146.8140440244932
 31
0.0
  0
LINE
  5
1B5
330
1F
100
AcDbEntity
  8
F-Fﾚｲﾔ
  6
Continuous
 62
     7
370
     9
100
AcDbLine
 10
679.2567567567569
 20
-144.8561021959459
 30
0.0
 11
964.5642749683278
 21
-144.8561021959459
 31
0.0
  0
LINE
  5
1B6
330
1F
100
AcDbEntity
  8
F-2ﾚｲﾔ
  6
Continuous
 62
     3
370
     9
100
AcDbLine
 10
679.2567567567569
 20
-250.6073789854307
 30
0.0
 11
889.2727413692991
 21
-250.6073789854307
 31
0.0
  0
LINE
  5
1B7
330
1F
100
AcDbEntity
  8
F-0ﾚｲﾔ
  6
Continuous
 62
     4
370
     9
100
AcDbLine
 10
907.2725038270694
 20
-235.607774889147
 30
0.0
 11
907.2725038270694
 21
-496.5349978885135
 31
0.0
  0
LINE
  5
1B8
330
1F
100
AcDbEntity
  8
F-0ﾚｲﾔ
  6
Continuous
 62
     4
370
     9
100
AcDbLine
 10
916.2729789115288
 20
-235.607774889147
 30
0.0
 11
916.2729789115288
 21
-496.5349978885135
 31
0.0
  0
LINE
  5
1B9
330
1F
100
AcDbEntity
  8
F-0ﾚｲﾔ
  6
Continuous
 62
     4
370
     9
100
AcDbLine
 10
175.6697536159206
 20
-235.607774889147
 30
0.0
 11
501.4284865920609
 21
-235.607774889147
 31
0.0
  0
LINE
  5
1BA
330
1F
100
AcDbEntity
  8
F-0ﾚｲﾔ
  6
Continuous
 62
     4
370
     9
100
AcDbLine
 10
501.4284865920609
 20
-235.607774889147
 30
0.0
 11
501.4284865920609
 21
-280.6071810335726
 31
0.0
  0
LINE
  5
1BB
330
1F
100
AcDbEntity
  8
F-4ﾚｲﾔ
  6
Continuous
 62
     7
370
     9
100
AcDbLine
 10
375.6981267155828
 20
-238.6067455394848
 30
0.0
 11
366.566706476985
 21
-226.7064736855996
 31
0.0
  0
LINE
  5
1BC
330
1F
100
AcDbEntity
  8
F-4ﾚｲﾔ
  6
Continuous
 62
     7
370
     9
100
AcDbLine
 10
375.6981267155828
 20
-238.6067455394848
 30
0.0
 11
369.9579187341641
 21
-224.7485318570523
 31
0.0
  0
LINE
  5
1BD
330
1F
100
AcDbEntity
  8
F-4ﾚｲﾔ
  6
Continuous
 62
     7
370
     9
100
AcDbLine
 10
501.4284865920609
 20
-235.607774889147
 30
0.0
 11
507.1686945734797
 21
-221.7495612067145
 31
0.0
  0
LINE
  5
1BE
330
1F
100
AcDbEntity
  8
F-4ﾚｲﾔ
  6
Continuous
 62
     7
370
     9
100
AcDbLine
 10
501.4284865920609
 20
-235.607774889147
 30
0.0
 11
510.5599068306587
 21
-223.7075030352618
 31
0.0
  0
LINE
  5
1BF
330
1F
100
AcDbEntity
  8
F-4ﾚｲﾔ
  6
Continuous
 62
     7
370
     9
100
AcDbLine
 10
395.1810434702281
 20
-310.9445899757179
 30
0.0
 11
389.4408354888091
 21
-324.8028036581503
 31
0.0
  0
LINE
  5
1C0
330
1F
100
AcDbEntity
  8
F-4ﾚｲﾔ
  6
Continuous
 62
     7
370
     9
100
AcDbLine
 10
395.1810434702281
 20
-310.9445899757179
 30
0.0
 11
386.0494747677366
 21
-322.844861829603
 31
0.0
  0
LINE
  5
1C1
330
1F
100
AcDbEntity
  8
F-4ﾚｲﾔ
  6
Continuous
 62
     7
370
     9
100
AcDbLine
 10
395.1810434702281
 20
-310.9445899757179
 30
0.0
 11
334.5587818042653
 21
-415.9453817831503
 31
0.0
  0
LINE
  5
1C2
330
1F
100
AcDbEntity
  8
F-4ﾚｲﾔ
  6
Continuous
 62
     7
370
     9
100
AcDbLine
 10
375.6981267155828
 20
-238.6067455394848
 30
0.0
 11
269.6096884237755
 21
-54.85610219594594
 31
0.0
  0
LINE
  5
1C3
330
1F
100
AcDbEntity
  8
F-4ﾚｲﾔ
  6
Continuous
 62
     7
370
     9
100
AcDbLine
 10
501.4284865920609
 20
-235.607774889147
 30
0.0
 11
605.7855389569256
 21
-54.85610219594594
 31
0.0
  0
LINE
  5
1C4
330
1F
100
AcDbEntity
  8
F-4ﾚｲﾔ
  6
Continuous
 62
     7
370
     9
100
AcDbLine
 10
124.5021180848819
 20
-54.85610219594594
 30
0.0
 11
269.6096884237755
 21
-54.85610219594594
 31
0.0
  0
LINE
  5
1C5
330
1F
100
AcDbEntity
  8
F-4ﾚｲﾔ
  6
Continuous
 62
     7
370
     9
100
AcDbLine
 10
605.7855389569256
 20
-54.85610219594594
 30
0.0
 11
738.0419262035475
 21
-54.85610219594594
 31
0.0
  0
LINE
  5
1C6
330
1F
100
AcDbEntity
  8
F-4ﾚｲﾔ
  6
Continuous
 62
     7
370
     9
100
AcDbLine
 10
207.1794334617822
 20
-415.9453817831503
 30
0.0
 11
334.5587818042653
 21
-415.9453817831503
 31
0.0
  0
LINE
  5
1C7
330
1F
100
AcDbEntity
  8
1-2ﾚｲﾔ
  6
JWW_DASHED1
 62
     3
370
     9
100
AcDbLine
 10
-275.8784278663428
 20
-139.5109566353462
 30
0.0
 11
-275.8784278663428
 21
-154.5110061233108
 31
0.0
  0
LINE
  5
1C8
330
1F
100
AcDbEntity
  8
1-2ﾚｲﾔ
  6
JWW_DASHED1
 62
     3
370
     9
100
AcDbLine
 10
-287.8783189928209
 20
-139.5109566353462
 30
0.0
 11
-287.8783189928209
 21
-142.5109665329391
 31
0.0
  0
LINE
  5
1C9
330
1F
100
AcDbEntity
  8
1-2ﾚｲﾔ
  6
JWW_DASHED1
 62
     3
370
     9
100
AcDbLine
 10
-287.8783189928209
 20
-142.5109665329391
 30
0.0
 11
-278.8784377639358
 21
-142.5109665329391
 31
0.0
  0
LINE
  5
1CA
330
1F
100
AcDbEntity
  8
1-2ﾚｲﾔ
  6
JWW_DASHED1
 62
     3
370
     9
100
AcDbLine
 10
-278.8784377639358
 20
-142.5109665329391
 30
0.0
 11
-278.8784377639358
 21
-154.5110061233108
 31
0.0
  0
LINE
  5
1CB
330
1F
100
AcDbEntity
  8
1-2ﾚｲﾔ
  6
JWW_DASHED1
 62
     3
370
     9
100
AcDbLine
 10
-278.8784377639358
 20
-154.5110061233108
 30
0.0
 11
-275.8784278663428
 21
-154.5110061233108
 31
0.0
  0
LINE
  5
1CC
330
1F
100
AcDbEntity
  8
1-2ﾚｲﾔ
  6
JWW_DASHED1
 62
     3
370
     9
100
AcDbLine
 10
-285.8785103462837
 20
-150.5110919024493
 30
0.0
 11
-285.8785103462837
 21
-143.5111677839949
 31
0.0
  0
LINE
  5
1CD
330
1F
100
AcDbEntity
  8
1-2ﾚｲﾔ
  6
JWW_DASHED1
 62
     3
370
     9
100
AcDbLine
 10
-285.8785103462837
 20
-143.5111677839949
 30
0.0
 11
-278.8784377639358
 21
-143.5111677839949
 31
0.0
  0
LINE
  5
1CE
330
1F
100
AcDbEntity
  8
1-2ﾚｲﾔ
  6
JWW_DASHED1
 62
     3
370
     9
100
AcDbLine
 10
-278.8784377639358
 20
-143.5111677839949
 30
0.0
 11
-278.8784377639358
 21
-150.5110919024493
 31
0.0
  0
LINE
  5
1CF
330
1F
100
AcDbEntity
  8
1-2ﾚｲﾔ
  6
JWW_DASHED1
 62
     3
370
     9
100
AcDbLine
 10
-278.8784377639358
 20
-150.5110919024493
 30
0.0
 11
-285.8785103462837
 21
-150.5110919024493
 31
0.0
  0
LINE
  5
1D0
330
1F
100
AcDbEntity
  8
1-0ﾚｲﾔ
  6
JWW_CENTER1
 62
     4
370
     9
100
AcDbLine
 10
-278.6177351668073
 20
-147.0110556112753
 30
0.0
 11
-286.4257482580236
 21
-147.0110556112753
 31
0.0
  0
LINE
  5
1D1
330
1F
100
AcDbEntity
  8
1-0ﾚｲﾔ
  6
JWW_CENTER1
 62
     4
370
     9
100
AcDbLine
 10
-282.3783255912161
 20
-143.100368190456
 30
0.0
 11
-282.3783255912161
 21
-150.9368863492398
 31
0.0
  0
LINE
  5
1D2
330
1F
100
AcDbEntity
  8
1-3ﾚｲﾔ
  6
Continuous
 62
     6
370
     9
100
AcDbLine
 10
332.8879691459038
 20
577.8016984269427
 30
0.0
 11
337.8877876900337
 21
577.8016984269427
 31
0.0
  0
LINE
  5
1D3
330
1F
100
AcDbEntity
  8
1-3ﾚｲﾔ
  6
Continuous
 62
     6
370
     9
100
AcDbLine
 10
337.8877876900337
 20
577.8016984269427
 30
0.0
 11
337.8877876900337
 21
574.8018369932433
 31
0.0
  0
LINE
  5
1D4
330
1F
100
AcDbEntity
  8
1-3ﾚｲﾔ
  6
Continuous
 62
     6
370
     9
100
AcDbLine
 10
332.8879691459038
 20
577.8016984269427
 30
0.0
 11
332.8879691459038
 21
574.8018369932433
 31
0.0
  0
LINE
  5
1D5
330
1F
100
AcDbEntity
  8
1-3ﾚｲﾔ
  6
Continuous
 62
     6
370
     9
100
AcDbLine
 10
331.8879163587416
 20
556.801777607686
 30
0.0
 11
331.8879163587416
 21
574.8018369932433
 31
0.0
  0
LINE
  5
1D6
330
1F
100
AcDbEntity
  8
1-3ﾚｲﾔ
  6
Continuous
 62
     6
370
     9
100
AcDbLine
 10
331.8879163587416
 20
556.801777607686
 30
0.0
 11
338.8879889410897
 21
556.801777607686
 31
0.0
  0
LINE
  5
1D7
330
1F
100
AcDbEntity
  8
1-3ﾚｲﾔ
  6
Continuous
 62
     6
370
     9
100
AcDbLine
 10
338.8879889410897
 20
556.801777607686
 30
0.0
 11
338.8879889410897
 21
574.8018369932433
 31
0.0
  0
LINE
  5
1D8
330
1F
100
AcDbEntity
  8
1-2ﾚｲﾔ
  6
JWW_CENTER1
 62
     3
370
     9
100
AcDbLine
 10
335.3879526499156
 20
553.9298920502534
 30
0.0
 11
335.3879526499156
 21
580.6536898226352
 31
0.0
  0
LINE
  5
1D9
330
1F
100
AcDbEntity
  8
1-3ﾚｲﾔ
  6
Continuous
 62
     6
370
     9
100
AcDbLine
 10
332.8879691459038
 20
574.8018369932433
 30
0.0
 11
337.8877876900337
 21
574.8018369932433
 31
0.0
  0
LINE
  5
1DA
330
1F
100
AcDbEntity
  8
1-3ﾚｲﾔ
  6
Continuous
 62
     6
370
     9
100
AcDbLine
 10
332.8879691459038
 20
277.8018963788008
 30
0.0
 11
337.8877876900337
 21
277.8018963788008
 31
0.0
  0
LINE
  5
1DB
330
1F
100
AcDbEntity
  8
1-3ﾚｲﾔ
  6
JWW_DASHED1
 62
     6
370
     9
100
AcDbLine
 10
337.8877876900337
 20
277.8018963788008
 30
0.0
 11
337.8877876900337
 21
280.8017578125
 31
0.0
  0
LINE
  5
1DC
330
1F
100
AcDbEntity
  8
1-3ﾚｲﾔ
  6
JWW_DASHED1
 62
     6
370
     9
100
AcDbLine
 10
332.8879691459038
 20
277.8018963788008
 30
0.0
 11
332.8879691459038
 21
280.8017578125
 31
0.0
  0
LINE
  5
1DD
330
1F
100
AcDbEntity
  8
1-3ﾚｲﾔ
  6
JWW_DASHED1
 62
     6
370
     9
100
AcDbLine
 10
331.8879163587416
 20
298.8018171980575
 30
0.0
 11
331.8879163587416
 21
280.8017578125
 31
0.0
  0
LINE
  5
1DE
330
1F
100
AcDbEntity
  8
1-3ﾚｲﾔ
  6
JWW_DASHED1
 62
     6
370
     9
100
AcDbLine
 10
331.8879163587416
 20
298.8018171980575
 30
0.0
 11
338.8879889410897
 21
298.8018171980575
 31
0.0
  0
LINE
  5
1DF
330
1F
100
AcDbEntity
  8
1-3ﾚｲﾔ
  6
JWW_DASHED1
 62
     6
370
     9
100
AcDbLine
 10
338.8879889410897
 20
298.8018171980575
 30
0.0
 11
338.8879889410897
 21
280.8017578125
 31
0.0
  0
LINE
  5
1E0
330
1F
100
AcDbEntity
  8
1-2ﾚｲﾔ
  6
JWW_CENTER1
 62
     3
370
     9
100
AcDbLine
 10
335.3879526499156
 20
301.67370275549
 30
0.0
 11
335.3879526499156
 21
274.9499049831081
 31
0.0
  0
LINE
  5
1E1
330
1F
100
AcDbEntity
  8
1-3ﾚｲﾔ
  6
JWW_DASHED1
 62
     6
370
     9
100
AcDbLine
 10
332.8879691459038
 20
280.8017578125
 30
0.0
 11
337.8877876900337
 21
280.8017578125
 31
0.0
  0
LINE
  5
1E2
330
1F
100
AcDbEntity
  8
F-3ﾚｲﾔ
  6
Continuous
 62
     6
370
     9
100
AcDbLine
 10
501.4284865920609
 20
-280.6073294974661
 30
0.0
 11
501.4284865920609
 21
-310.607131545608
 31
0.0
  0
LINE
  5
1E3
330
1F
100
AcDbEntity
  8
F-3ﾚｲﾔ
  6
Continuous
 62
     6
370
     9
100
AcDbLine
 10
501.4284865920609
 20
-310.607131545608
 30
0.0
 11
483.4287241342906
 21
-310.607131545608
 31
0.0
  0
LINE
  5
1E4
330
1F
100
AcDbEntity
  8
F-3ﾚｲﾔ
  6
Continuous
 62
     6
370
     9
100
AcDbLine
 10
501.4284865920609
 20
-280.6073294974661
 30
0.0
 11
483.4287241342906
 21
-280.6073294974661
 31
0.0
  0
LINE
  5
1E5
330
1F
100
AcDbEntity
  8
F-3ﾚｲﾔ
  6
Continuous
 62
     6
370
     9
100
AcDbLine
 10
375.4285162848397
 20
-274.607458166174
 30
0.0
 11
483.4287241342906
 21
-274.607458166174
 31
0.0
  0
LINE
  5
1E6
330
1F
100
AcDbEntity
  8
F-3ﾚｲﾔ
  6
Continuous
 62
     6
370
     9
100
AcDbLine
 10
375.4285162848397
 20
-274.607458166174
 30
0.0
 11
375.4285162848397
 21
-316.6075967324746
 31
0.0
  0
LINE
  5
1E7
330
1F
100
AcDbEntity
  8
F-3ﾚｲﾔ
  6
Continuous
 62
     6
370
     9
100
AcDbLine
 10
375.4285162848397
 20
-316.6075967324746
 30
0.0
 11
483.4287241342906
 21
-316.6075967324746
 31
0.0
  0
LINE
  5
1E8
330
1F
100
AcDbEntity
  8
F-2ﾚｲﾔ
  6
JWW_CENTER1
 62
     3
370
     9
100
AcDbLine
 10
358.1964606207772
 20
-295.6075274493243
 30
0.0
 11
518.5401380384291
 21
-295.6075274493243
 31
0.0
  0
LINE
  5
1E9
330
1F
100
AcDbEntity
  8
F-2ﾚｲﾔ
  6
Continuous
 62
     3
370
     9
100
AcDbLine
 10
483.4287241342906
 20
-250.6073789854307
 30
0.0
 11
483.4287241342906
 21
-340.6076759132179
 31
0.0
  0
LINE
  5
1EA
330
1F
100
AcDbEntity
  8
F-2ﾚｲﾔ
  6
Continuous
 62
     3
370
     9
100
AcDbLine
 10
175.6697536159206
 20
-340.6076759132179
 30
0.0
 11
483.4287241342906
 21
-340.6076759132179
 31
0.0
  0
LINE
  5
1EB
330
1F
100
AcDbEntity
  8
F-2ﾚｲﾔ
  6
Continuous
 62
     3
370
     9
100
AcDbLine
 10
835.2737509237753
 20
-250.6073789854307
 30
0.0
 11
835.2737509237753
 21
-340.6076759132179
 31
0.0
  0
LINE
  5
1EC
330
1F
100
AcDbEntity
  8
F-2ﾚｲﾔ
  6
JWW_CENTER1
 62
     3
370
     9
100
AcDbLine
 10
793.4266786317569
 20
-404.6472794816301
 30
0.0
 11
783.3627566775763
 21
-398.1118988861908
 31
0.0
  0
LINE
  5
1ED
330
1F
100
AcDbEntity
  8
F-2ﾚｲﾔ
  6
JWW_CENTER1
 62
     3
370
     9
100
AcDbLine
 10
836.8905227248734
 20
-282.6378701699746
 30
0.0
 11
807.4802707981419
 21
-327.9255931957348
 31
0.0
  0
LINE
  5
1EE
330
1F
100
AcDbEntity
  8
F-2ﾚｲﾔ
  6
JWW_CENTER1
 62
     3
370
     9
100
AcDbLine
 10
812.7725632126269
 20
-352.8247697160051
 30
0.0
 11
737.2923320048566
 21
-303.8071882918074
 31
0.0
  0
LINE
  5
1EF
330
1F
100
AcDbEntity
  8
F-2ﾚｲﾔ
  6
JWW_CENTER1
 62
     3
370
     9
100
AcDbLine
 10
945.2941069731844
 20
-148.760108741554
 30
0.0
 11
783.3627566775763
 21
-398.1118988861908
 31
0.0
  0
LINE
  5
1F0
330
1F
100
AcDbEntity
  8
F-2ﾚｲﾔ
  6
JWW_CENTER1
 62
     3
370
     9
100
AcDbLine
 10
793.4266786317569
 20
-404.6472794816301
 30
0.0
 11
955.3572866078972
 21
-155.295192409206
 31
0.0
  0
LINE
  5
1F1
330
1F
100
AcDbEntity
  8
F-2ﾚｲﾔ
  6
Continuous
 62
     3
370
     9
100
AcDbLine
 10
763.2742557010138
 20
-250.6073789854307
 30
0.0
 11
763.2742557010138
 21
-268.6072899070945
 31
0.0
  0
LINE
  5
1F2
330
1F
100
AcDbEntity
  8
F-2ﾚｲﾔ
  6
Continuous
 62
     3
370
     9
100
AcDbLine
 10
763.2742557010138
 20
-268.6072899070945
 30
0.0
 11
817.2739884660053
 21
-268.6072899070945
 31
0.0
  0
LINE
  5
1F3
330
1F
100
AcDbEntity
  8
F-2ﾚｲﾔ
  6
JWW_CENTER1
 62
     3
370
     9
100
AcDbLine
 10
747.0954028980153
 20
-288.7112311285895
 30
0.0
 11
737.2923320048566
 21
-303.8071882918074
 31
0.0
  0
LINE
  5
1F4
330
1F
100
AcDbEntity
  8
F-2ﾚｲﾔ
  6
JWW_CENTER1
 62
     3
370
     9
100
AcDbLine
 10
807.4802707981419
 20
-327.9255931957348
 30
0.0
 11
747.0954028980153
 21
-288.7112311285895
 31
0.0
  0
LINE
  5
1F5
330
1F
100
AcDbEntity
  8
F-2ﾚｲﾔ
  6
JWW_CENTER1
 62
     3
370
     9
100
AcDbLine
 10
836.8905227248734
 20
-282.6378701699746
 30
0.0
 11
851.9863314241978
 21
-292.4412379909205
 31
0.0
  0
LINE
  5
1F6
330
1F
100
AcDbEntity
  8
F-2ﾚｲﾔ
  6
Continuous
 62
     3
370
     9
100
AcDbLine
 10
817.2739884660053
 20
-268.6072899070945
 30
0.0
 11
817.2739884660053
 21
-340.6076759132179
 31
0.0
  0
LINE
  5
1F7
330
1F
100
AcDbEntity
  8
F-2ﾚｲﾔ
  6
Continuous
 62
     3
370
     9
100
AcDbLine
 10
817.2739884660053
 20
-340.6076759132179
 30
0.0
 11
835.2737509237753
 21
-340.6076759132179
 31
0.0
  0
LINE
  5
1F8
330
1F
100
AcDbEntity
  8
F-0ﾚｲﾔ
  6
Continuous
 62
     4
370
     9
100
AcDbLine
 10
775.2734045080238
 20
-316.6075967324746
 30
0.0
 11
775.2734045080238
 21
-274.607458166174
 31
0.0
  0
LINE
  5
1F9
330
1F
100
AcDbEntity
  8
F-0ﾚｲﾔ
  6
Continuous
 62
     4
370
     9
100
AcDbLine
 10
775.2734045080238
 20
-274.607458166174
 30
0.0
 11
817.2735430743244
 21
-274.607458166174
 31
0.0
  0
LINE
  5
1FA
330
1F
100
AcDbEntity
  8
F-0ﾚｲﾔ
  6
Continuous
 62
     4
370
     9
100
AcDbLine
 10
817.2735430743244
 20
-274.607458166174
 30
0.0
 11
817.2735430743244
 21
-316.6075967324746
 31
0.0
  0
LINE
  5
1FB
330
1F
100
AcDbEntity
  8
F-0ﾚｲﾔ
  6
Continuous
 62
     4
370
     9
100
AcDbLine
 10
817.2735430743244
 20
-316.6075967324746
 30
0.0
 11
775.2734045080238
 21
-316.6075967324746
 31
0.0
  0
LINE
  5
1FC
330
1F
100
AcDbEntity
  8
F-2ﾚｲﾔ
  6
JWW_CENTER1
 62
     3
370
     9
100
AcDbLine
 10
825.3229584565034
 20
-289.4329141152871
 30
0.0
 11
802.4480871252113
 21
-324.6570121146536
 31
0.0
  0
LINE
  5
1FD
330
1F
100
AcDbEntity
  8
F-2ﾚｲﾔ
  6
JWW_CENTER1
 62
     3
370
     9
100
AcDbLine
 10
802.4480871252113
 20
-324.6570121146536
 30
0.0
 11
767.2239891258447
 21
-301.7821407833615
 31
0.0
  0
LINE
  5
1FE
330
1F
100
AcDbEntity
  8
F-2ﾚｲﾔ
  6
JWW_CENTER1
 62
     3
370
     9
100
AcDbLine
 10
767.2239891258447
 20
-301.7821407833615
 30
0.0
 11
790.0988604571369
 21
-266.5580427839949
 31
0.0
  0
LINE
  5
1FF
330
1F
100
AcDbEntity
  8
F-2ﾚｲﾔ
  6
JWW_CENTER1
 62
     3
370
     9
100
AcDbLine
 10
790.0988604571369
 20
-266.5580427839949
 30
0.0
 11
825.3229584565034
 21
-289.4329141152871
 31
0.0
  0
LINE
  5
200
330
1F
100
AcDbEntity
  8
F-0ﾚｲﾔ
  6
JWW_CENTER1
 62
     4
370
     9
100
AcDbLine
 10
819.6382759712837
 20
-295.6075274493243
 30
0.0
 11
770.3755806587837
 21
-295.6075274493243
 31
0.0
  0
LINE
  5
201
330
1F
100
AcDbEntity
  8
F-0ﾚｲﾔ
  6
JWW_CENTER1
 62
     4
370
     9
100
AcDbLine
 10
796.2736222550678
 20
-272.0452682907517
 30
0.0
 11
796.2736222550678
 21
-320.8539610166807
 31
0.0
  0
LINE
  5
202
330
1F
100
AcDbEntity
  8
1-2ﾚｲﾔ
  6
Continuous
 62
     3
370
     9
100
AcDbLine
 10
327.88800213788
 20
574.8018369932433
 30
0.0
 11
342.8877546980575
 21
574.8018369932433
 31
0.0
  0
LINE
  5
203
330
1F
100
AcDbEntity
  8
1-2ﾚｲﾔ
  6
Continuous
 62
     3
370
     9
100
AcDbLine
 10
342.8877546980575
 20
521.2820879961994
 30
0.0
 11
342.8877546980575
 21
574.8018369932433
 31
0.0
  0
LINE
  5
204
330
1F
100
AcDbEntity
  8
1-2ﾚｲﾔ
  6
JWW_DASHED1
 62
     3
370
     9
100
AcDbLine
 10
327.8878536739866
 20
280.8017578125
 30
0.0
 11
342.8877546980575
 21
280.8017578125
 31
0.0
  0
LINE
  5
205
330
1F
100
AcDbEntity
  8
1-2ﾚｲﾔ
  6
JWW_DASHED1
 62
     3
370
     9
100
AcDbLine
 10
342.8877546980575
 20
521.2820879961994
 30
0.0
 11
342.8877546980575
 21
280.8017578125
 31
0.0
  0
LINE
  5
206
330
1F
100
AcDbEntity
  8
1-2ﾚｲﾔ
  6
JWW_CENTER1
 62
     3
370
     9
100
AcDbLine
 10
-282.3784740551097
 20
549.7699337521116
 30
0.0
 11
-282.3784740551097
 21
579.6289920291385
 31
0.0
  0
LINE
  5
207
330
1F
100
AcDbEntity
  8
1-3ﾚｲﾔ
  6
Continuous
 62
     6
370
     9
100
AcDbLine
 10
-279.878490551098
 20
577.8016984269427
 30
0.0
 11
-284.8784575591216
 21
577.8016984269427
 31
0.0
  0
LINE
  5
208
330
1F
100
AcDbEntity
  8
1-3ﾚｲﾔ
  6
JWW_DASHED1
 62
     6
370
     9
100
AcDbLine
 10
-284.8784575591216
 20
577.8016984269427
 30
0.0
 11
-284.8784575591216
 21
574.801540065456
 31
0.0
  0
LINE
  5
209
330
1F
100
AcDbEntity
  8
1-3ﾚｲﾔ
  6
JWW_DASHED1
 62
     6
370
     9
100
AcDbLine
 10
-279.878490551098
 20
577.8016984269427
 30
0.0
 11
-279.878490551098
 21
574.801540065456
 31
0.0
  0
LINE
  5
20A
330
1F
100
AcDbEntity
  8
1-3ﾚｲﾔ
  6
JWW_DASHED1
 62
     6
370
     9
100
AcDbLine
 10
-278.8785862278294
 20
556.801777607686
 30
0.0
 11
-278.8785862278294
 21
574.801540065456
 31
0.0
  0
LINE
  5
20B
330
1F
100
AcDbEntity
  8
1-3ﾚｲﾔ
  6
JWW_DASHED1
 62
     6
370
     9
100
AcDbLine
 10
-278.8785862278294
 20
556.801777607686
 30
0.0
 11
-285.8785103462837
 21
556.801777607686
 31
0.0
  0
LINE
  5
20C
330
1F
100
AcDbEntity
  8
1-3ﾚｲﾔ
  6
JWW_DASHED1
 62
     6
370
     9
100
AcDbLine
 10
-285.8785103462837
 20
556.801777607686
 30
0.0
 11
-285.8785103462837
 21
574.801540065456
 31
0.0
  0
LINE
  5
20D
330
1F
100
AcDbEntity
  8
1-3ﾚｲﾔ
  6
JWW_DASHED1
 62
     6
370
     9
100
AcDbLine
 10
-279.878490551098
 20
574.801540065456
 30
0.0
 11
-284.8784575591216
 21
574.801540065456
 31
0.0
  0
LINE
  5
20E
330
1F
100
AcDbEntity
  8
1-2ﾚｲﾔ
  6
JWW_CENTER1
 62
     3
370
     9
100
AcDbLine
 10
-282.3784740551097
 20
275.2138737858953
 30
0.0
 11
-282.3784740551097
 21
304.3395204286319
 31
0.0
  0
LINE
  5
20F
330
1F
100
AcDbEntity
  8
1-3ﾚｲﾔ
  6
Continuous
 62
     6
370
     9
100
AcDbLine
 10
-279.878490551098
 20
277.8018963788008
 30
0.0
 11
-284.8784575591216
 21
277.8018963788008
 31
0.0
  0
LINE
  5
210
330
1F
100
AcDbEntity
  8
1-3ﾚｲﾔ
  6
JWW_DASHED1
 62
     6
370
     9
100
AcDbLine
 10
-284.8784575591216
 20
277.8018963788008
 30
0.0
 11
-284.8784575591216
 21
280.8017578125
 31
0.0
  0
LINE
  5
211
330
1F
100
AcDbEntity
  8
1-3ﾚｲﾔ
  6
JWW_DASHED1
 62
     6
370
     9
100
AcDbLine
 10
-279.878490551098
 20
277.8018963788008
 30
0.0
 11
-279.878490551098
 21
280.8017578125
 31
0.0
  0
LINE
  5
212
330
1F
100
AcDbEntity
  8
1-3ﾚｲﾔ
  6
JWW_DASHED1
 62
     6
370
     9
100
AcDbLine
 10
-278.8785862278294
 20
298.8018171980575
 30
0.0
 11
-278.8785862278294
 21
280.8017578125
 31
0.0
  0
LINE
  5
213
330
1F
100
AcDbEntity
  8
1-3ﾚｲﾔ
  6
JWW_DASHED1
 62
     6
370
     9
100
AcDbLine
 10
-278.8785862278294
 20
298.8018171980575
 30
0.0
 11
-285.8785103462837
 21
298.8018171980575
 31
0.0
  0
LINE
  5
214
330
1F
100
AcDbEntity
  8
1-3ﾚｲﾔ
  6
JWW_DASHED1
 62
     6
370
     9
100
AcDbLine
 10
-285.8785103462837
 20
298.8018171980575
 30
0.0
 11
-285.8785103462837
 21
280.8017578125
 31
0.0
  0
LINE
  5
215
330
1F
100
AcDbEntity
  8
1-3ﾚｲﾔ
  6
JWW_DASHED1
 62
     6
370
     9
100
AcDbLine
 10
-279.878490551098
 20
280.8017578125
 30
0.0
 11
-284.8784575591216
 21
280.8017578125
 31
0.0
  0
CIRCLE
  5
216
330
1F
100
AcDbEntity
  8
1-2ﾚｲﾔ
  6
Continuous
 62
     3
370
     9
100
AcDbCircle
 10
-530.3783519847973
 20
427.8017974028717
 30
0.0
 40
9.999998969000739
  0
CIRCLE
  5
217
330
1F
100
AcDbEntity
  8
1-0ﾚｲﾔ
  6
Continuous
 62
     4
370
     9
100
AcDbCircle
 10
-529.3784476615286
 20
-437.0107751794764
 30
0.0
 40
3.499999465169133
  0
CIRCLE
  5
218
330
1F
100
AcDbEntity
  8
1-0ﾚｲﾔ
  6
Continuous
 62
     4
370
     9
100
AcDbCircle
 10
-495.9498719911317
 20
-437.0107751794764
 30
0.0
 40
3.499999465169133
  0
CIRCLE
  5
219
330
1F
100
AcDbEntity
  8
1-0ﾚｲﾔ
  6
Continuous
 62
     4
370
     9
100
AcDbCircle
 10
-462.5211478568413
 20
-437.0107751794764
 30
0.0
 40
3.499999465169133
  0
CIRCLE
  5
21A
330
1F
100
AcDbEntity
  8
1-0ﾚｲﾔ
  6
Continuous
 62
     4
370
     9
100
AcDbCircle
 10
-429.0927206503378
 20
-437.0107751794764
 30
0.0
 40
3.499999465169133
  0
CIRCLE
  5
21B
330
1F
100
AcDbEntity
  8
1-0ﾚｲﾔ
  6
Continuous
 62
     4
370
     9
100
AcDbCircle
 10
-395.6639965160472
 20
-437.0107751794764
 30
0.0
 40
3.499999465169133
  0
CIRCLE
  5
21C
330
1F
100
AcDbEntity
  8
1-0ﾚｲﾔ
  6
Continuous
 62
     4
370
     9
100
AcDbCircle
 10
-362.2355693095439
 20
-437.0107751794764
 30
0.0
 40
3.499999465169133
  0
CIRCLE
  5
21D
330
1F
100
AcDbEntity
  8
1-0ﾚｲﾔ
  6
Continuous
 62
     4
370
     9
100
AcDbCircle
 10
-328.8069194072002
 20
-437.0107751794764
 30
0.0
 40
3.499999465169133
  0
CIRCLE
  5
21E
330
1F
100
AcDbEntity
  8
1-0ﾚｲﾔ
  6
Continuous
 62
     4
370
     9
100
AcDbCircle
 10
-295.3782695048564
 20
-437.0107751794764
 30
0.0
 40
3.499999465169133
  0
CIRCLE
  5
21F
330
1F
100
AcDbEntity
  8
1-0ﾚｲﾔ
  6
Continuous
 62
     4
370
     9
100
AcDbCircle
 10
-529.3784476615286
 20
-387.0111050992398
 30
0.0
 40
3.499999465169133
  0
CIRCLE
  5
220
330
1F
100
AcDbEntity
  8
1-0ﾚｲﾔ
  6
Continuous
 62
     4
370
     9
100
AcDbCircle
 10
-495.9498719911317
 20
-387.0111050992398
 30
0.0
 40
3.499999465169133
  0
CIRCLE
  5
221
330
1F
100
AcDbEntity
  8
1-0ﾚｲﾔ
  6
Continuous
 62
     4
370
     9
100
AcDbCircle
 10
-462.5211478568413
 20
-387.0111050992398
 30
0.0
 40
3.499999465169133
  0
CIRCLE
  5
222
330
1F
100
AcDbEntity
  8
1-0ﾚｲﾔ
  6
Continuous
 62
     4
370
     9
100
AcDbCircle
 10
-429.0927206503378
 20
-387.0111050992398
 30
0.0
 40
3.499999465169133
  0
CIRCLE
  5
223
330
1F
100
AcDbEntity
  8
1-0ﾚｲﾔ
  6
Continuous
 62
     4
370
     9
100
AcDbCircle
 10
-395.6639965160472
 20
-387.0111050992398
 30
0.0
 40
3.499999465169133
  0
CIRCLE
  5
224
330
1F
100
AcDbEntity
  8
1-0ﾚｲﾔ
  6
Continuous
 62
     4
370
     9
100
AcDbCircle
 10
-362.2355693095439
 20
-387.0111050992398
 30
0.0
 40
3.499999465169133
  0
CIRCLE
  5
225
330
1F
100
AcDbEntity
  8
1-0ﾚｲﾔ
  6
Continuous
 62
     4
370
     9
100
AcDbCircle
 10
-328.8069194072002
 20
-387.0111050992398
 30
0.0
 40
3.499999465169133
  0
CIRCLE
  5
226
330
1F
100
AcDbEntity
  8
1-0ﾚｲﾔ
  6
Continuous
 62
     4
370
     9
100
AcDbCircle
 10
-295.3782695048564
 20
-387.0111050992398
 30
0.0
 40
3.499999465169133
  0
CIRCLE
  5
227
330
1F
100
AcDbEntity
  8
1-0ﾚｲﾔ
  6
Continuous
 62
     4
370
     9
100
AcDbCircle
 10
625.3876722181166
 20
310.8018567884291
 30
0.0
 40
3.499999465169133
  0
CIRCLE
  5
228
330
1F
100
AcDbEntity
  8
1-0ﾚｲﾔ
  6
Continuous
 62
     4
370
     9
100
AcDbCircle
 10
625.3876722181166
 20
344.2302839949325
 30
0.0
 40
3.499999465169133
  0
CIRCLE
  5
229
330
1F
100
AcDbEntity
  8
1-0ﾚｲﾔ
  6
Continuous
 62
     4
370
     9
100
AcDbCircle
 10
625.3876722181166
 20
377.659008129223
 30
0.0
 40
3.499999465169133
  0
CIRCLE
  5
22A
330
1F
100
AcDbEntity
  8
1-0ﾚｲﾔ
  6
Continuous
 62
     4
370
     9
100
AcDbCircle
 10
625.3876722181166
 20
411.0877322635136
 30
0.0
 40
3.499999465169133
  0
CIRCLE
  5
22B
330
1F
100
AcDbEntity
  8
1-0ﾚｲﾔ
  6
Continuous
 62
     4
370
     9
100
AcDbCircle
 10
625.3876722181166
 20
444.516159470017
 30
0.0
 40
3.499999465169133
  0
CIRCLE
  5
22C
330
1F
100
AcDbEntity
  8
1-0ﾚｲﾔ
  6
Continuous
 62
     4
370
     9
100
AcDbCircle
 10
625.3876722181166
 20
477.9448836043075
 30
0.0
 40
3.499999465169133
  0
CIRCLE
  5
22D
330
1F
100
AcDbEntity
  8
1-0ﾚｲﾔ
  6
Continuous
 62
     4
370
     9
100
AcDbCircle
 10
625.3876722181166
 20
511.373607738598
 30
0.0
 40
3.499999465169133
  0
CIRCLE
  5
22E
330
1F
100
AcDbEntity
  8
1-0ﾚｲﾔ
  6
Continuous
 62
     4
370
     9
100
AcDbCircle
 10
625.3876722181166
 20
544.8020349451015
 30
0.0
 40
3.499999465169133
  0
CIRCLE
  5
22F
330
1F
100
AcDbEntity
  8
1-0ﾚｲﾔ
  6
Continuous
 62
     4
370
     9
100
AcDbCircle
 10
575.3880021378803
 20
310.8018567884291
 30
0.0
 40
3.499999465169133
  0
CIRCLE
  5
230
330
1F
100
AcDbEntity
  8
1-0ﾚｲﾔ
  6
Continuous
 62
     4
370
     9
100
AcDbCircle
 10
575.3880021378803
 20
344.2302839949325
 30
0.0
 40
3.499999465169133
  0
CIRCLE
  5
231
330
1F
100
AcDbEntity
  8
1-0ﾚｲﾔ
  6
Continuous
 62
     4
370
     9
100
AcDbCircle
 10
575.3880021378803
 20
377.659008129223
 30
0.0
 40
3.499999465169133
  0
CIRCLE
  5
232
330
1F
100
AcDbEntity
  8
1-0ﾚｲﾔ
  6
Continuous
 62
     4
370
     9
100
AcDbCircle
 10
575.3880021378803
 20
411.0877322635136
 30
0.0
 40
3.499999465169133
  0
CIRCLE
  5
233
330
1F
100
AcDbEntity
  8
1-0ﾚｲﾔ
  6
Continuous
 62
     4
370
     9
100
AcDbCircle
 10
575.3880021378803
 20
444.516159470017
 30
0.0
 40
3.499999465169133
  0
CIRCLE
  5
234
330
1F
100
AcDbEntity
  8
1-0ﾚｲﾔ
  6
Continuous
 62
     4
370
     9
100
AcDbCircle
 10
575.3880021378803
 20
477.9448836043075
 30
0.0
 40
3.499999465169133
  0
CIRCLE
  5
235
330
1F
100
AcDbEntity
  8
1-0ﾚｲﾔ
  6
Continuous
 62
     4
370
     9
100
AcDbCircle
 10
575.3880021378803
 20
511.373607738598
 30
0.0
 40
3.499999465169133
  0
CIRCLE
  5
236
330
1F
100
AcDbEntity
  8
1-0ﾚｲﾔ
  6
Continuous
 62
     4
370
     9
100
AcDbCircle
 10
575.3880021378803
 20
544.8020349451015
 30
0.0
 40
3.499999465169133
  0
CIRCLE
  5
237
330
1F
100
AcDbEntity
  8
1-0ﾚｲﾔ
  6
Continuous
 62
     4
370
     9
100
AcDbCircle
 10
525.3877382020694
 20
310.8018567884291
 30
0.0
 40
3.499999465169133
  0
CIRCLE
  5
238
330
1F
100
AcDbEntity
  8
1-0ﾚｲﾔ
  6
Continuous
 62
     4
370
     9
100
AcDbCircle
 10
525.3877382020694
 20
344.2302839949325
 30
0.0
 40
3.499999465169133
  0
CIRCLE
  5
239
330
1F
100
AcDbEntity
  8
1-0ﾚｲﾔ
  6
Continuous
 62
     4
370
     9
100
AcDbCircle
 10
525.3877382020694
 20
377.659008129223
 30
0.0
 40
3.499999465169133
  0
CIRCLE
  5
23A
330
1F
100
AcDbEntity
  8
1-0ﾚｲﾔ
  6
Continuous
 62
     4
370
     9
100
AcDbCircle
 10
525.3877382020694
 20
411.0877322635136
 30
0.0
 40
3.499999465169133
  0
CIRCLE
  5
23B
330
1F
100
AcDbEntity
  8
1-0ﾚｲﾔ
  6
Continuous
 62
     4
370
     9
100
AcDbCircle
 10
525.3877382020694
 20
444.516159470017
 30
0.0
 40
3.499999465169133
  0
CIRCLE
  5
23C
330
1F
100
AcDbEntity
  8
1-0ﾚｲﾔ
  6
Continuous
 62
     4
370
     9
100
AcDbCircle
 10
525.3877382020694
 20
477.9448836043075
 30
0.0
 40
3.499999465169133
  0
CIRCLE
  5
23D
330
1F
100
AcDbEntity
  8
1-0ﾚｲﾔ
  6
Continuous
 62
     4
370
     9
100
AcDbCircle
 10
525.3877382020694
 20
511.373607738598
 30
0.0
 40
3.499999465169133
  0
CIRCLE
  5
23E
330
1F
100
AcDbEntity
  8
1-0ﾚｲﾔ
  6
Continuous
 62
     4
370
     9
100
AcDbCircle
 10
525.3877382020694
 20
544.8020349451015
 30
0.0
 40
3.499999465169133
  0
CIRCLE
  5
23F
330
1F
100
AcDbEntity
  8
1-0ﾚｲﾔ
  6
Continuous
 62
     4
370
     9
100
AcDbCircle
 10
-529.3784476615286
 20
-337.0111380912161
 30
0.0
 40
3.499999465169133
  0
CIRCLE
  5
240
330
1F
100
AcDbEntity
  8
1-0ﾚｲﾔ
  6
Continuous
 62
     4
370
     9
100
AcDbCircle
 10
-495.9498719911317
 20
-337.0111380912161
 30
0.0
 40
3.499999465169133
  0
CIRCLE
  5
241
330
1F
100
AcDbEntity
  8
1-0ﾚｲﾔ
  6
Continuous
 62
     4
370
     9
100
AcDbCircle
 10
-462.5211478568413
 20
-337.0111380912161
 30
0.0
 40
3.499999465169133
  0
CIRCLE
  5
242
330
1F
100
AcDbEntity
  8
1-0ﾚｲﾔ
  6
Continuous
 62
     4
370
     9
100
AcDbCircle
 10
-429.0927206503378
 20
-337.0111380912161
 30
0.0
 40
3.499999465169133
  0
CIRCLE
  5
243
330
1F
100
AcDbEntity
  8
1-0ﾚｲﾔ
  6
Continuous
 62
     4
370
     9
100
AcDbCircle
 10
-395.6639965160472
 20
-337.0111380912161
 30
0.0
 40
3.499999465169133
  0
CIRCLE
  5
244
330
1F
100
AcDbEntity
  8
1-0ﾚｲﾔ
  6
Continuous
 62
     4
370
     9
100
AcDbCircle
 10
-362.2355693095439
 20
-337.0111380912161
 30
0.0
 40
3.499999465169133
  0
CIRCLE
  5
245
330
1F
100
AcDbEntity
  8
1-0ﾚｲﾔ
  6
Continuous
 62
     4
370
     9
100
AcDbCircle
 10
-328.8069194072002
 20
-337.0111380912161
 30
0.0
 40
3.499999465169133
  0
CIRCLE
  5
246
330
1F
100
AcDbEntity
  8
1-0ﾚｲﾔ
  6
Continuous
 62
     4
370
     9
100
AcDbCircle
 10
-295.3782695048564
 20
-337.0111380912161
 30
0.0
 40
3.499999465169133
  0
CIRCLE
  5
247
330
1F
100
AcDbEntity
  8
1-0ﾚｲﾔ
  6
Continuous
 62
     4
370
     9
100
AcDbCircle
 10
-282.3783255912161
 20
-147.0110556112753
 30
0.0
 40
2.500000032218727
  0
CIRCLE
  5
248
330
1F
100
AcDbEntity
  8
1-3ﾚｲﾔ
  6
Continuous
 62
     6
370
     9
100
AcDbCircle
 10
-282.3783255912161
 20
-147.0110556112753
 30
0.0
 40
2.000000025774982
  0
CIRCLE
  5
249
330
1F
100
AcDbEntity
  8
F-0ﾚｲﾔ
  6
Continuous
 62
     4
370
     9
100
AcDbCircle
 10
796.2736222550678
 20
-295.6075274493243
 30
0.0
 40
15.00000193312362
  0
TEXT
  5
24A
330
1F
100
AcDbEntity
  8
F-5ﾚｲﾔ
  6
Continuous
 62
     6
370
     9
100
AcDbText
 10
-458.6907051705025
 20
-815.4913125989759
 30
0.0
 40
18.288
  1
屋上緑化用たて型ドレインカバー　ＢＸＡ　３００×３００×３５０
 41
0.7983870967741935
  7
ＭＳ ゴシック
100
AcDbText
  0
TEXT
  5
24B
330
1F
100
AcDbEntity
  8
1-F
  6
Continuous
 62
     6
370
     9
100
AcDbText
 10
-551.6863783783783
 20
468.3018567884291
 30
0.0
 40
9.144
  1
ＫＡＮＥＳＯ
 50
270.0
 41
1.125
  7
ＭＳ ゴシック
100
AcDbText
  0
TEXT
  5
24C
330
1F
100
AcDbEntity
  8
F-Fﾚｲﾔ
  6
Continuous
 62
     2
370
     9
100
AcDbText
 10
453.8861908783784
 20
-557.5916024334881
 30
0.0
 40
18.288
  1
蝶番部　詳細　Ｓ＝１：１
 41
1.114583333333333
  7
ＭＳ ゴシック
100
AcDbText
  0
TEXT
  5
24D
330
1F
100
AcDbEntity
  8
1-4ﾚｲﾔ
  6
Continuous
 62
     2
370
     9
100
AcDbText
 10
-582.0975308804898
 20
672.1854542863175
 30
0.0
 40
18.288
  1
25
 41
1.0625
  7
ＭＳ ゴシック
100
AcDbText
  0
TEXT
  5
24E
330
1F
100
AcDbEntity
  8
1-4ﾚｲﾔ
  6
Continuous
 62
     2
370
     9
100
AcDbText
 10
-431.8784971494931
 20
672.1854542863175
 30
0.0
 40
18.288
  1
300
 41
1.083333333333333
  7
ＭＳ ゴシック
100
AcDbText
  0
TEXT
  5
24F
330
1F
100
AcDbEntity
  8
1-4ﾚｲﾔ
  6
Continuous
 62
     2
370
     9
100
AcDbText
 10
-267.3507360509923
 20
672.1854542863175
 30
0.0
 40
18.288
  1
25
 41
1.0625
  7
ＭＳ ゴシック
100
AcDbText
  0
TEXT
  5
250
330
1F
100
AcDbEntity
  8
1-4ﾚｲﾔ
  6
Continuous
 62
     2
370
     9
100
AcDbText
 10
-431.8784971494931
 20
720.1856126478041
 30
0.0
 40
18.288
  1
350
 41
1.083333333333333
  7
ＭＳ ゴシック
100
AcDbText
  0
TEXT
  5
251
330
1F
100
AcDbEntity
  8
1-4ﾚｲﾔ
  6
Continuous
 62
     2
370
     9
100
AcDbText
 10
-656.7623123944256
 20
257.7450182115709
 30
0.0
 40
18.288
  1
25
 50
90.0
 41
1.0625
  7
ＭＳ ゴシック
100
AcDbText
  0
TEXT
  5
252
330
1F
100
AcDbEntity
  8
1-4ﾚｲﾔ
  6
Continuous
 62
     2
370
     9
100
AcDbText
 10
-656.7623123944256
 20
408.3016588365709
 30
0.0
 40
18.288
  1
300
 50
90.0
 41
1.083333333333333
  7
ＭＳ ゴシック
100
AcDbText
  0
TEXT
  5
253
330
1F
100
AcDbEntity
  8
1-4ﾚｲﾔ
  6
Continuous
 62
     2
370
     9
100
AcDbText
 10
-656.7623123944256
 20
572.7773833403717
 30
0.0
 40
18.288
  1
25
 50
90.0
 41
1.0625
  7
ＭＳ ゴシック
100
AcDbText
  0
TEXT
  5
254
330
1F
100
AcDbEntity
  8
1-4ﾚｲﾔ
  6
Continuous
 62
     2
370
     9
100
AcDbText
 10
-704.7624707559121
 20
408.3016588365709
 30
0.0
 40
18.288
  1
350
 50
90.0
 41
1.083333333333333
  7
ＭＳ ゴシック
100
AcDbText
  0
TEXT
  5
255
330
1F
100
AcDbEntity
  8
1-4ﾚｲﾔ
  6
Continuous
 62
     6
370
     9
100
AcDbText
 10
-600.1078342747044
 20
-67.62705231207765
 30
0.0
 40
18.288
  1
1.5
 41
0.7833333333333338
  7
ＭＳ ゴシック
100
AcDbText
  0
TEXT
  5
256
330
1F
100
AcDbEntity
  8
1-4ﾚｲﾔ
  6
Continuous
 62
     6
370
     9
100
AcDbText
 10
-549.1317171663851
 20
-67.62705231207765
 30
0.0
 40
18.288
  1
0.5
 41
0.7833333333333338
  7
ＭＳ ゴシック
100
AcDbText
  0
TEXT
  5
257
330
1F
100
AcDbEntity
  8
1-4ﾚｲﾔ
  6
Continuous
 62
     2
370
     9
100
AcDbText
 10
-446.6283849767736
 20
-67.62705231207765
 30
0.0
 40
18.288
  1
293.5
 41
1.09999991752006
  7
ＭＳ ゴシック
100
AcDbText
  0
TEXT
  5
258
330
1F
100
AcDbEntity
  8
1-4ﾚｲﾔ
  6
Continuous
 62
     2
370
     9
100
AcDbText
 10
-286.8145751953125
 20
-67.62705231207765
 30
0.0
 40
18.288
  1
3
  7
ＭＳ ゴシック
100
AcDbText
  0
TEXT
  5
259
330
1F
100
AcDbEntity
  8
1-4ﾚｲﾔ
  6
Continuous
 62
     6
370
     9
100
AcDbText
 10
-253.5206562763936
 20
-67.62705231207765
 30
0.0
 40
18.288
  1
1.5
 41
0.7833333333333338
  7
ＭＳ ゴシック
100
AcDbText
  0
TEXT
  5
25A
330
1F
100
AcDbEntity
  8
1-4ﾚｲﾔ
  6
Continuous
 62
     2
370
     9
100
AcDbText
 10
-431.8784971494931
 20
-19.62719087837827
 30
0.0
 40
18.288
  1
300
 41
1.083333333333333
  7
ＭＳ ゴシック
100
AcDbText
  0
TEXT
  5
25B
330
1F
100
AcDbEntity
  8
1-4ﾚｲﾔ
  6
Continuous
 62
     2
370
     9
100
AcDbText
 10
-647.2072621938345
 20
-265.341170238598
 30
0.0
 40
18.288
  1
φ７
 41
1.0625
  7
ＭＳ ゴシック
100
AcDbText
  0
TEXT
  5
25C
330
1F
100
AcDbEntity
  8
1-4ﾚｲﾔ
  6
Continuous
 62
     2
370
     9
100
AcDbText
 10
-656.7623123944256
 20
-474.760986328125
 30
0.0
 40
18.288
  1
50
 50
90.0
 41
1.0625
  7
ＭＳ ゴシック
100
AcDbText
  0
TEXT
  5
25D
330
1F
100
AcDbEntity
  8
1-4ﾚｲﾔ
  6
Continuous
 62
     2
370
     9
100
AcDbText
 10
-656.7623123944256
 20
-424.7610193201014
 30
0.0
 40
18.288
  1
50
 50
90.0
 41
1.0625
  7
ＭＳ ゴシック
100
AcDbText
  0
TEXT
  5
25E
330
1F
100
AcDbEntity
  8
1-4ﾚｲﾔ
  6
Continuous
 62
     2
370
     9
100
AcDbText
 10
-656.7623123944256
 20
-374.7610523120777
 30
0.0
 40
18.288
  1
50
 50
90.0
 41
1.0625
  7
ＭＳ ゴシック
100
AcDbText
  0
TEXT
  5
25F
330
1F
100
AcDbEntity
  8
1-4ﾚｲﾔ
  6
Continuous
 62
     2
370
     9
100
AcDbText
 10
-431.8784971494931
 20
-537.6269203441723
 30
0.0
 40
18.288
  1
180
 41
1.083333333333334
  7
ＭＳ ゴシック
100
AcDbText
  0
TEXT
  5
260
330
1F
100
AcDbEntity
  8
1-4ﾚｲﾔ
  6
Continuous
 62
     2
370
     9
100
AcDbText
 10
-186.7625928262245
 20
-470.2193273595861
 30
0.0
 40
18.288
  1
8
 50
90.0
 41
1.00000020619985
  7
ＭＳ ゴシック
100
AcDbText
  0
TEXT
  5
261
330
1F
100
AcDbEntity
  8
1-4ﾚｲﾔ
  6
Continuous
 62
     6
370
     9
100
AcDbText
 10
256.0038008868244
 20
240.2295449746622
 30
0.0
 40
18.288
  1
1.5
 50
90.0
 41
0.7833333333333338
  7
ＭＳ ゴシック
100
AcDbText
  0
TEXT
  5
262
330
1F
100
AcDbEntity
  8
1-4ﾚｲﾔ
  6
Continuous
 62
     6
370
     9
100
AcDbText
 10
256.0038008868244
 20
285.798755542652
 30
0.0
 40
18.288
  1
0.5
 50
90.0
 41
0.7833333333333338
  7
ＭＳ ゴシック
100
AcDbText
  0
TEXT
  5
263
330
1F
100
AcDbEntity
  8
1-4ﾚｲﾔ
  6
Continuous
 62
     2
370
     9
100
AcDbText
 10
256.0038008868244
 20
408.3019557643581
 30
0.0
 40
18.288
  1
296
 50
90.0
 41
1.083333333333333
  7
ＭＳ ゴシック
100
AcDbText
  0
TEXT
  5
264
330
1F
100
AcDbEntity
  8
1-4ﾚｲﾔ
  6
Continuous
 62
     6
370
     9
100
AcDbText
 10
256.0038008868244
 20
541.6038257495778
 30
0.0
 40
18.288
  1
0.5
 50
90.0
 41
0.7833333333333338
  7
ＭＳ ゴシック
100
AcDbText
  0
TEXT
  5
265
330
1F
100
AcDbEntity
  8
1-4ﾚｲﾔ
  6
Continuous
 62
     6
370
     9
100
AcDbText
 10
256.0038008868244
 20
588.5638460726352
 30
0.0
 40
18.288
  1
1.5
 50
90.0
 41
0.7833333333333338
  7
ＭＳ ゴシック
100
AcDbText
  0
TEXT
  5
266
330
1F
100
AcDbEntity
  8
1-4ﾚｲﾔ
  6
Continuous
 62
     2
370
     9
100
AcDbText
 10
208.0037909892316
 20
408.3016588365709
 30
0.0
 40
18.288
  1
300
 50
90.0
 41
1.083333333333333
  7
ＭＳ ゴシック
100
AcDbText
  0
TEXT
  5
267
330
1F
100
AcDbEntity
  8
1-4ﾚｲﾔ
  6
Continuous
 62
     2
370
     9
100
AcDbText
 10
-704.7623965239653
 20
-331.5109962257179
 30
0.0
 40
18.288
  1
350
 50
90.0
 41
1.083333333333333
  7
ＭＳ ゴシック
100
AcDbText
  0
TEXT
  5
268
330
1F
100
AcDbEntity
  8
F-Fﾚｲﾔ
  6
Continuous
 62
     2
370
     9
100
AcDbText
 10
437.1792520059122
 20
-138.4722407622465
 30
0.0
 40
18.288
  1
0.5
 41
1.083333333333333
  7
ＭＳ ゴシック
100
AcDbText
  0
TEXT
  5
269
330
1F
100
AcDbEntity
  8
F-Fﾚｲﾔ
  6
Continuous
 62
     2
370
     9
100
AcDbText
 10
506.6431323902028
 20
-138.4722407622465
 30
0.0
 40
18.288
  1
1.5
 41
1.083333333333333
  7
ＭＳ ゴシック
100
AcDbText
  0
TEXT
  5
26A
330
1F
100
AcDbEntity
  8
F-Fﾚｲﾔ
  6
Continuous
 62
     2
370
     9
100
AcDbText
 10
892.2726028029984
 20
-138.4722407622465
 30
0.0
 40
18.288
  1
3
  7
ＭＳ ゴシック
100
AcDbText
  0
TEXT
  5
26B
330
1F
100
AcDbEntity
  8
F-Fﾚｲﾔ
  6
Continuous
 62
     2
370
     9
100
AcDbText
 10
924.3810375316725
 20
-138.4722407622465
 30
0.0
 40
18.288
  1
1.5
 41
1.083333333333333
  7
ＭＳ ゴシック
100
AcDbText
  0
TEXT
  5
26C
330
1F
100
AcDbEntity
  8
F-Fﾚｲﾔ
  6
Continuous
 62
     2
370
     9
100
AcDbText
 10
175.8891832506336
 20
-138.4722407622465
 30
0.0
 40
18.288
  1
296
 41
1.083333333333333
  7
ＭＳ ゴシック
100
AcDbText
  0
TEXT
  5
26D
330
1F
100
AcDbEntity
  8
F-Fﾚｲﾔ
  6
Continuous
 62
     2
370
     9
100
AcDbText
 10
674.0876893739444
 20
-138.4722407622465
 30
0.0
 40
18.288
  1
293.5
 41
1.1
  7
ＭＳ ゴシック
100
AcDbText
  0
TEXT
  5
26E
330
1F
100
AcDbEntity
  8
F-4ﾚｲﾔ
  6
Continuous
 62
     7
370
     9
100
AcDbText
 10
130.8841354782517
 20
-45.78836322846281
 30
0.0
 40
13.716
  1
点検蓋：t=2.0
 41
1.153846153846154
  7
ＭＳ ゴシック
100
AcDbText
  0
TEXT
  5
26F
330
1F
100
AcDbEntity
  8
F-4ﾚｲﾔ
  6
Continuous
 62
     7
370
     9
100
AcDbText
 10
137.2661528716217
 20
-75.14531661739859
 30
0.0
 40
13.716
  1
ＳＵＳ３０４
 41
1.138888888888889
  7
ＭＳ ゴシック
100
AcDbText
  0
TEXT
  5
270
330
1F
100
AcDbEntity
  8
F-4ﾚｲﾔ
  6
Continuous
 62
     7
370
     9
100
AcDbText
 10
616.9446790540541
 20
-46.20198363597968
 30
0.0
 40
13.716
  1
本体：t=1.5
 41
1.151515151515151
  7
ＭＳ ゴシック
100
AcDbText
  0
TEXT
  5
271
330
1F
100
AcDbEntity
  8
F-4ﾚｲﾔ
  6
Continuous
 62
     7
370
     9
100
AcDbText
 10
612.4448869035053
 20
-76.83542958192562
 30
0.0
 40
13.716
  1
ＳＵＳ３０４
 41
1.138888888888889
  7
ＭＳ ゴシック
100
AcDbText
  0
TEXT
  5
272
330
1F
100
AcDbEntity
  8
F-4ﾚｲﾔ
  6
Continuous
 62
     7
370
     9
100
AcDbText
 10
228.1795027449325
 20
-408.087623548353
 30
0.0
 40
13.716
  1
蝶番ピン
 41
1.125
  7
ＭＳ ゴシック
100
AcDbText
  0
TEXT
  5
273
330
1F
100
AcDbEntity
  8
F-4ﾚｲﾔ
  6
Continuous
 62
     7
370
     9
100
AcDbText
 10
207.1794334617822
 20
-437.0501083720439
 30
0.0
 40
13.716
  1
ＳＵＳ３０４
 41
1.138888888888889
  7
ＭＳ ゴシック
100
AcDbText
  0
ENDSEC
  0
SECTION
  2
OBJECTS
  0
DICTIONARY
  5
C
330
0
100
AcDbDictionary
281
     1
  3
ACAD_GROUP
350
D
  3
ACAD_LAYOUT
350
1A
  3
ACAD_MLEADERSTYLE
350
275
  3
ACAD_MLINESTYLE
350
17
  3
ACAD_PLOTSETTINGS
350
19
  3
ACAD_PLOTSTYLENAME
350
E
  3
ACAD_TABLESTYLE
350
274
  3
ACAD_VISUALSTYLE
350
2A
  0
DICTIONARY
  5
D
102
{ACAD_REACTORS
330
C
102
}
330
C
100
AcDbDictionary
281
     1
  0
DICTIONARY
  5
1A
102
{ACAD_REACTORS
330
C
102
}
330
C
100
AcDbDictionary
281
     1
  3
Layout1
350
1E
  3
Layout2
350
26
  3
Model
350
22
  0
DICTIONARY
  5
275
102
{ACAD_REACTORS
330
C
102
}
330
C
100
AcDbDictionary
281
     1
  0
DICTIONARY
  5
17
102
{ACAD_REACTORS
330
C
102
}
330
C
100
AcDbDictionary
281
     1
  3
Standard
350
18
  0
DICTIONARY
  5
19
102
{ACAD_REACTORS
330
C
102
}
330
C
100
AcDbDictionary
281
     1
  0
ACDBDICTIONARYWDFLT
  5
E
102
{ACAD_REACTORS
330
C
102
}
330
C
100
AcDbDictionary
281
     1
  3
Normal
350
F
100
AcDbDictionaryWithDefault
340
F
  0
DICTIONARY
  5
274
102
{ACAD_REACTORS
330
C
102
}
330
C
100
AcDbDictionary
281
     1
  0
DICTIONARY
  5
2A
102
{ACAD_REACTORS
330
C
102
}
330
C
100
AcDbDictionary
281
     1
  3
2dWireframe
350
2F
  3
3D Hidden
350
31
  3
3dWireframe
350
30
  3
Basic
350
32
  3
Brighten
350
36
  3
ColorChange
350
3A
  3
Conceptual
350
34
  3
Dim
350
35
  3
Facepattern
350
39
  3
Flat
350
2B
  3
FlatWithEdges
350
2C
  3
Gouraud
350
2D
  3
GouraudWithEdges
350
2E
  3
Linepattern
350
38
  3
Realistic
350
33
  3
Thicken
350
37
  0
LAYOUT
  5
1E
102
{ACAD_REACTORS
330
1A
102
}
330
1A
100
AcDbPlotSettings
  1

  2
none_device
  4

  6

 40
0.0
 41
0.0
 42
0.0
 43
0.0
 44
0.0
 45
0.0
 46
0.0
 47
0.0
 48
0.0
 49
0.0
140
0.0
141
0.0
142
1.0
143
1.0
 70
   688
 72
     0
 73
     0
 74
     5
  7

 75
    16
 76
     0
 77
     5
 78
   300
147
1.0
148
0.0
149
0.0
100
AcDbLayout
  1
Layout1
 70
     1
 71
     1
 10
0.0
 20
0.0
 11
420.0
 21
297.0
 12
0.0
 22
0.0
 32
0.0
 14
1.000000000000000E+20
 24
1.000000000000000E+20
 34
1.000000000000000E+20
 15
-1.000000000000000E+20
 25
-1.000000000000000E+20
 35
-1.000000000000000E+20
146
0.0
 13
0.0
 23
0.0
 33
0.0
 16
1.0
 26
0.0
 36
0.0
 17
0.0
 27
1.0
 37
0.0
 76
     0
330
1B
  0
LAYOUT
  5
26
102
{ACAD_REACTORS
330
1A
102
}
330
1A
100
AcDbPlotSettings
  1

  2
none_device
  4

  6

 40
0.0
 41
0.0
 42
0.0
 43
0.0
 44
0.0
 45
0.0
 46
0.0
 47
0.0
 48
0.0
 49
0.0
140
0.0
141
0.0
142
1.0
143
1.0
 70
   688
 72
     0
 73
     0
 74
     5
  7

 75
    16
 76
     0
 77
     5
 78
   300
147
1.0
148
0.0
149
0.0
100
AcDbLayout
  1
Layout2
 70
     1
 71
     2
 10
0.0
 20
0.0
 11
0.0
 21
0.0
 12
0.0
 22
0.0
 32
0.0
 14
0.0
 24
0.0
 34
0.0
 15
0.0
 25
0.0
 35
0.0
146
0.0
 13
0.0
 23
0.0
 33
0.0
 16
1.0
 26
0.0
 36
0.0
 17
0.0
 27
1.0
 37
0.0
 76
     0
330
23
  0
LAYOUT
  5
22
102
{ACAD_REACTORS
330
1A
102
}
330
1A
100
AcDbPlotSettings
  1

  2
none_device
  4

  6

 40
0.0
 41
0.0
 42
0.0
 43
0.0
 44
0.0
 45
0.0
 46
0.0
 47
0.0
 48
0.0
 49
0.0
140
0.0
141
0.0
142
1.0
143
1.0
 70
  1712
 72
     0
 73
     0
 74
     0
  7

 75
     0
 76
     0
 77
     5
 78
   300
147
1.0
148
0.0
149
0.0
100
AcDbLayout
  1
Model
 70
     1
 71
     0
 10
-1260.0
 20
-891.0
 11
1260.0
 21
891.0
 12
0.0
 22
0.0
 32
0.0
 14
-1260.0
 24
-891.0
 34
0.0
 15
1260.0
 25
891.0
 35
0.0
146
0.0
 13
0.0
 23
0.0
 33
0.0
 16
1.0
 26
0.0
 36
0.0
 17
0.0
 27
1.0
 37
0.0
 76
     0
330
1F
331
29
  0
MLINESTYLE
  5
18
102
{ACAD_REACTORS
330
17
102
}
330
17
100
AcDbMlineStyle
  2
Standard
 70
     0
  3

 62
   256
 51
90.0
 52
90.0
 71
     2
 49
0.5
 62
   256
  6
BYLAYER
 49
-0.5
 62
   256
  6
BYLAYER
  0
ACDBPLACEHOLDER
  5
F
102
{ACAD_REACTORS
330
E
102
}
330
E
  0
VISUALSTYLE
  5
2F
102
{ACAD_REACTORS
330
2A
102
}
330
2A
100
AcDbVisualStyle
  2
2dWireframe
 70
     4
 71
     0
 72
     2
 73
     0
 90
        0
 40
-0.6
 41
-30.0
 62
     5
 63
     7
421
 16777215
 74
     1
 91
        4
 64
     7
 65
   257
 75
     1
175
     1
 42
1.0
 92
        0
 66
   257
 43
1.0
 76
     1
 77
     6
 78
     2
 67
     7
 79
     5
170
     0
171
     0
290
     0
174
     0
 93
        1
 44
0.0
173
     0
291
     0
 45
0.0
1001
ACAD
1000
AcDbSavedByObjectVersion
1070
     0
  0
VISUALSTYLE
  5
31
102
{ACAD_REACTORS
330
2A
102
}
330
2A
100
AcDbVisualStyle
  2
3D Hidden
 70
     6
 71
     1
 72
     2
 73
     2
 90
        0
 40
-0.6
 41
-30.0
 62
     5
 63
     7
421
 16777215
 74
     2
 91
        2
 64
     7
 65
   257
 75
     2
175
     1
 42
40.0
 92
        0
 66
   257
 43
1.0
 76
     1
 77
     6
 78
     2
 67
     7
 79
     3
170
     0
171
     0
290
     0
174
     0
 93
        1
 44
0.0
173
     0
291
     0
 45
0.0
1001
ACAD
1000
AcDbSavedByObjectVersion
1070
     0
  0
VISUALSTYLE
  5
30
102
{ACAD_REACTORS
330
2A
102
}
330
2A
100
AcDbVisualStyle
  2
3dWireframe
 70
     5
 71
     0
 72
     2
 73
     0
 90
        0
 40
-0.6
 41
-30.0
 62
     5
 63
     7
421
 16777215
 74
     1
 91
        4
 64
     7
 65
   257
 75
     1
175
     1
 42
1.0
 92
        0
 66
   257
 43
1.0
 76
     1
 77
     6
 78
     2
 67
     7
 79
     5
170
     0
171
     0
290
     0
174
     0
 93
        1
 44
0.0
173
     0
291
     0
 45
0.0
1001
ACAD
1000
AcDbSavedByObjectVersion
1070
     0
  0
VISUALSTYLE
  5
32
102
{ACAD_REACTORS
330
2A
102
}
330
2A
100
AcDbVisualStyle
  2
Basic
 70
     7
 71
     1
 72
     0
 73
     1
 90
        0
 40
-0.6
 41
-30.0
 62
     5
 63
     7
421
 16777215
 74
     0
 91
        4
 64
     7
 65
   257
 75
     1
175
     1
 42
1.0
 92
        8
 66
     7
 43
1.0
 76
     1
 77
     6
 78
     2
 67
     7
 79
     5
170
     0
171
     0
290
     0
174
     0
 93
        1
 44
0.0
173
     0
291
     1
 45
0.0
1001
ACAD
1000
AcDbSavedByObjectVersion
1070
     0
  0
VISUALSTYLE
  5
36
102
{ACAD_REACTORS
330
2A
102
}
330
2A
100
AcDbVisualStyle
  2
Brighten
 70
    12
 71
     2
 72
     2
 73
     0
 90
        0
 40
-0.6
 41
-30.0
 62
     5
 63
     7
421
 16777215
 74
     1
 91
        4
 64
     7
 65
   257
 75
     1
175
     1
 42
1.0
 92
        8
 66
     7
 43
1.0
 76
     1
 77
     6
 78
     2
 67
     7
 79
     5
170
     0
171
     0
290
     0
174
     0
 93
        1
 44
50.0
173
     0
291
     1
 45
0.0
1001
ACAD
1000
AcDbSavedByObjectVersion
1070
     0
  0
VISUALSTYLE
  5
3A
102
{ACAD_REACTORS
330
2A
102
}
330
2A
100
AcDbVisualStyle
  2
ColorChange
 70
    16
 71
     2
 72
     2
 73
     3
 90
        0
 40
-0.6
 41
-30.0
 62
     5
 63
     8
421
  8421504
 74
     1
 91
        4
 64
     7
 65
   257
 75
     1
175
     1
 42
1.0
 92
        8
 66
     8
424
  8421504
 43
1.0
 76
     1
 77
     6
 78
     2
 67
     7
 79
     5
170
     0
171
     0
290
     0
174
     0
 93
        1
 44
0.0
173
     0
291
     1
 45
0.0
1001
ACAD
1000
AcDbSavedByObjectVersion
1070
     0
  0
VISUALSTYLE
  5
34
102
{ACAD_REACTORS
330
2A
102
}
330
2A
100
AcDbVisualStyle
  2
Conceptual
 70
     9
 71
     3
 72
     2
 73
     0
 90
        0
 40
-0.6
 41
-30.0
 62
     5
 63
     7
421
 16777215
 74
     2
 91
        2
 64
     7
 65
   257
 75
     1
175
     1
 42
40.0
 92
        8
 66
     7
 43
1.0
 76
     1
 77
     6
 78
     2
 67
     7
 79
     3
170
     0
171
     0
290
     0
174
     0
 93
        1
 44
0.0
173
     0
291
     0
 45
0.0
1001
ACAD
1000
AcDbSavedByObjectVersion
1070
     0
  0
VISUALSTYLE
  5
35
102
{ACAD_REACTORS
330
2A
102
}
330
2A
100
AcDbVisualStyle
  2
Dim
 70
    11
 71
     2
 72
     2
 73
     0
 90
        0
 40
-0.6
 41
-30.0
 62
     5
 63
     7
421
 16777215
 74
     1
 91
        4
 64
     7
 65
   257
 75
     1
175
     1
 42
1.0
 92
        8
 66
     7
 43
1.0
 76
     1
 77
     6
 78
     2
 67
     7
 79
     5
170
     0
171
     0
290
     0
174
     0
 93
        1
 44
-50.0
173
     0
291
     1
 45
0.0
1001
ACAD
1000
AcDbSavedByObjectVersion
1070
     0
  0
VISUALSTYLE
  5
39
102
{ACAD_REACTORS
330
2A
102
}
330
2A
100
AcDbVisualStyle
  2
Facepattern
 70
    15
 71
     2
 72
     2
 73
     0
 90
        0
 40
-0.6
 41
-30.0
 62
     5
 63
     7
421
 16777215
 74
     1
 91
        4
 64
     7
 65
   257
 75
     1
175
     1
 42
1.0
 92
        8
 66
     7
 43
1.0
 76
     1
 77
     6
 78
     2
 67
     7
 79
     5
170
     0
171
     0
290
     0
174
     0
 93
        1
 44
0.0
173
     0
291
     1
 45
0.0
1001
ACAD
1000
AcDbSavedByObjectVersion
1070
     0
  0
VISUALSTYLE
  5
2B
102
{ACAD_REACTORS
330
2A
102
}
330
2A
100
AcDbVisualStyle
  2
Flat
 70
     0
 71
     2
 72
     1
 73
     1
 90
        2
 40
-0.6
 41
30.0
 62
     5
 63
     7
421
 16777215
 74
     0
 91
        4
 64
     7
 65
   257
 75
     1
175
     1
 42
1.0
 92
        8
 66
     7
 43
1.0
 76
     1
 77
     6
 78
     2
 67
     7
 79
     5
170
     0
171
     0
290
     0
174
     0
 93
       13
 44
0.0
173
     0
291
     1
 45
0.0
1001
ACAD
1000
AcDbSavedByObjectVersion
1070
     0
  0
VISUALSTYLE
  5
2C
102
{ACAD_REACTORS
330
2A
102
}
330
2A
100
AcDbVisualStyle
  2
FlatWithEdges
 70
     1
 71
     2
 72
     1
 73
     1
 90
        2
 40
-0.6
 41
30.0
 62
     5
 63
     7
421
 16777215
 74
     1
 91
        4
 64
     7
 65
   257
 75
     1
175
     1
 42
1.0
 92
        0
 66
   257
 43
1.0
 76
     1
 77
     6
 78
     2
 67
     7
 79
     5
170
     0
171
     0
290
     0
174
     0
 93
       13
 44
0.0
173
     0
291
     1
 45
0.0
1001
ACAD
1000
AcDbSavedByObjectVersion
1070
     0
  0
VISUALSTYLE
  5
2D
102
{ACAD_REACTORS
330
2A
102
}
330
2A
100
AcDbVisualStyle
  2
Gouraud
 70
     2
 71
     2
 72
     2
 73
     1
 90
        2
 40
-0.6
 41
30.0
 62
     5
 63
     7
421
 16777215
 74
     0
 91
        4
 64
     7
 65
   257
 75
     1
175
     1
 42
1.0
 92
        0
 66
     7
 43
1.0
 76
     1
 77
     6
 78
     2
 67
     7
 79
     5
170
     0
171
     0
290
     0
174
     0
 93
       13
 44
0.0
173
     0
291
     1
 45
0.0
1001
ACAD
1000
AcDbSavedByObjectVersion
1070
     0
  0
VISUALSTYLE
  5
2E
102
{ACAD_REACTORS
330
2A
102
}
330
2A
100
AcDbVisualStyle
  2
GouraudWithEdges
 70
     3
 71
     2
 72
     2
 73
     1
 90
        2
 40
-0.6
 41
30.0
 62
     5
 63
     7
421
 16777215
 74
     1
 91
        4
 64
     7
 65
   257
 75
     1
175
     1
 42
1.0
 92
        0
 66
   257
 43
1.0
 76
     1
 77
     6
 78
     2
 67
     7
 79
     5
170
     0
171
     0
290
     0
174
     0
 93
       13
 44
0.0
173
     0
291
     1
 45
0.0
1001
ACAD
1000
AcDbSavedByObjectVersion
1070
     0
  0
VISUALSTYLE
  5
38
102
{ACAD_REACTORS
330
2A
102
}
330
2A
100
AcDbVisualStyle
  2
Linepattern
 70
    14
 71
     2
 72
     2
 73
     0
 90
        0
 40
-0.6
 41
-30.0
 62
     5
 63
     7
421
 16777215
 74
     1
 91
        4
 64
     7
 65
   257
 75
     7
175
     7
 42
1.0
 92
        8
 66
     7
 43
1.0
 76
     1
 77
     6
 78
     2
 67
     7
 79
     5
170
     0
171
     0
290
     0
174
     0
 93
        1
 44
0.0
173
     0
291
     1
 45
0.0
1001
ACAD
1000
AcDbSavedByObjectVersion
1070
     0
  0
VISUALSTYLE
  5
33
102
{ACAD_REACTORS
330
2A
102
}
330
2A
100
AcDbVisualStyle
  2
Realistic
 70
     8
 71
     2
 72
     2
 73
     0
 90
        0
 40
-0.6
 41
-30.0
 62
     5
 63
     7
421
 16777215
 74
     1
 91
        0
 64
     7
 65
   257
 75
     1
175
     1
 42
1.0
 92
        8
 66
     8
424
  7895160
 43
1.0
 76
     1
 77
     6
 78
     2
 67
     7
 79
     5
170
     0
171
     0
290
     0
174
     0
 93
       13
 44
0.0
173
     0
291
     0
 45
0.0
1001
ACAD
1000
AcDbSavedByObjectVersion
1070
     0
  0
VISUALSTYLE
  5
37
102
{ACAD_REACTORS
330
2A
102
}
330
2A
100
AcDbVisualStyle
  2
Thicken
 70
    13
 71
     2
 72
     2
 73
     0
 90
        0
 40
-0.6
 41
-30.0
 62
     5
 63
     7
421
 16777215
 74
     1
 91
        4
 64
     7
 65
   257
 75
     1
175
     1
 42
1.0
 92
       12
 66
     7
 43
1.0
 76
     1
 77
     6
 78
     2
 67
     7
 79
     5
170
     0
171
     0
290
     0
174
     0
 93
        1
 44
0.0
173
     0
291
     1
 45
0.0
1001
ACAD
1000
AcDbSavedByObjectVersion
1070
     0
  0
ENDSEC
  0
EOF
