  0
SECTION
  2
HEADER
  9
$ACADVER
  1
AC1018
  9
$ACADMAINTVER
 70
     0
  9
$DWGCODEPAGE
  3
ANSI_932
  9
$INSBASE
 10
0.0
 20
0.0
 30
0.0
  9
$EXTMIN
 10
-1050.0
 20
-742.5
 30
0.0
  9
$EXTMAX
 10
1050.0
 20
742.5
 30
0.0
  9
$LIMMIN
 10
-1050.0
 20
-742.5
  9
$LIMMAX
 10
1050.0
 20
742.5
  9
$ORTHOMODE
 70
     0
  9
$REGENMODE
 70
     1
  9
$FILLMODE
 70
     1
  9
$QTEXTMODE
 70
     0
  9
$MIRRTEXT
 70
     1
  9
$LTSCALE
 40
5.0
  9
$ATTMODE
 70
     1
  9
$TEXTSIZE
 40
2.5
  9
$TRACEWID
 40
1.0
  9
$TEXTSTYLE
  7
Standard
  9
$CLAYER
  8
0
  9
$CELTYPE
  6
ByLayer
  9
$CECOLOR
 62
   256
  9
$CELTSCALE
 40
1.0
  9
$DISPSILH
 70
     0
  9
$DIMSCALE
 40
1.0
  9
$DIMASZ
 40
2.5
  9
$DIMEXO
 40
0.625
  9
$DIMDLI
 40
3.75
  9
$DIMRND
 40
0.0
  9
$DIMDLE
 40
0.0
  9
$DIMEXE
 40
1.25
  9
$DIMTP
 40
0.0
  9
$DIMTM
 40
0.0
  9
$DIMTXT
 40
2.5
  9
$DIMCEN
 40
2.5
  9
$DIMTSZ
 40
0.0
  9
$DIMTOL
 70
     0
  9
$DIMLIM
 70
     0
  9
$DIMTIH
 70
     0
  9
$DIMTOH
 70
     0
  9
$DIMSE1
 70
     0
  9
$DIMSE2
 70
     0
  9
$DIMTAD
 70
     1
  9
$DIMZIN
 70
     8
  9
$DIMBLK
  1

  9
$DIMASO
 70
     1
  9
$DIMSHO
 70
     1
  9
$DIMPOST
  1

  9
$DIMAPOST
  1

  9
$DIMALT
 70
     0
  9
$DIMALTD
 70
     3
  9
$DIMALTF
 40
0.03937007874016
  9
$DIMLFAC
 40
1.0
  9
$DIMTOFL
 70
     1
  9
$DIMTVP
 40
0.0
  9
$DIMTIX
 70
     0
  9
$DIMSOXD
 70
     0
  9
$DIMSAH
 70
     0
  9
$DIMBLK1
  1

  9
$DIMBLK2
  1

  9
$DIMSTYLE
  2
ISO-25
  9
$DIMCLRD
 70
     0
  9
$DIMCLRE
 70
     0
  9
$DIMCLRT
 70
     0
  9
$DIMTFAC
 40
1.0
  9
$DIMGAP
 40
0.625
  9
$DIMJUST
 70
     0
  9
$DIMSD1
 70
     0
  9
$DIMSD2
 70
     0
  9
$DIMTOLJ
 70
     0
  9
$DIMTZIN
 70
     8
  9
$DIMALTZ
 70
     0
  9
$DIMALTTZ
 70
     0
  9
$DIMUPT
 70
     0
  9
$DIMDEC
 70
     2
  9
$DIMTDEC
 70
     2
  9
$DIMALTU
 70
     2
  9
$DIMALTTD
 70
     3
  9
$DIMTXSTY
  7
Standard
  9
$DIMAUNIT
 70
     0
  9
$DIMADEC
 70
     0
  9
$DIMALTRND
 40
0.0
  9
$DIMAZIN
 70
     0
  9
$DIMDSEP
 70
    44
  9
$DIMATFIT
 70
     3
  9
$DIMFRAC
 70
     0
  9
$DIMLDRBLK
  1

  9
$DIMLUNIT
 70
     2
  9
$DIMLWD
 70
    -2
  9
$DIMLWE
 70
    -2
  9
$DIMTMOVE
 70
     0
  9
$LUNITS
 70
     2
  9
$LUPREC
 70
     4
  9
$SKETCHINC
 40
1.0
  9
$FILLETRAD
 40
10.0
  9
$AUNITS
 70
     0
  9
$AUPREC
 70
     0
  9
$MENU
  1
.
  9
$ELEVATION
 40
0.0
  9
$PELEVATION
 40
0.0
  9
$THICKNESS
 40
0.0
  9
$LIMCHECK
 70
     0
  9
$CHAMFERA
 40
10.0
  9
$CHAMFERB
 40
10.0
  9
$CHAMFERC
 40
20.0
  9
$CHAMFERD
 40
0.0
  9
$SKPOLY
 70
     0
  9
$TDCREATE
 40
2457424.661391678
  9
$TDUCREATE
 40
2457424.286391678
  9
$TDUPDATE
 40
2457424.66139169
  9
$TDUUPDATE
 40
2457424.28639169
  9
$TDINDWG
 40
0.0000000116
  9
$TDUSRTIMER
 40
0.0000000116
  9
$USRTIMER
 70
     1
  9
$ANGBASE
 50
0.0
  9
$ANGDIR
 70
     0
  9
$PDMODE
 70
     0
  9
$PDSIZE
 40
0.0
  9
$PLINEWID
 40
0.0
  9
$SPLFRAME
 70
     0
  9
$SPLINETYPE
 70
     6
  9
$SPLINESEGS
 70
     8
  9
$HANDSEED
  5
2C1
  9
$SURFTAB1
 70
     6
  9
$SURFTAB2
 70
     6
  9
$SURFTYPE
 70
     6
  9
$SURFU
 70
     6
  9
$SURFV
 70
     6
  9
$UCSBASE
  2

  9
$UCSNAME
  2

  9
$UCSORG
 10
0.0
 20
0.0
 30
0.0
  9
$UCSXDIR
 10
1.0
 20
0.0
 30
0.0
  9
$UCSYDIR
 10
0.0
 20
1.0
 30
0.0
  9
$UCSORTHOREF
  2

  9
$UCSORTHOVIEW
 70
     0
  9
$UCSORGTOP
 10
0.0
 20
0.0
 30
0.0
  9
$UCSORGBOTTOM
 10
0.0
 20
0.0
 30
0.0
  9
$UCSORGLEFT
 10
0.0
 20
0.0
 30
0.0
  9
$UCSORGRIGHT
 10
0.0
 20
0.0
 30
0.0
  9
$UCSORGFRONT
 10
0.0
 20
0.0
 30
0.0
  9
$UCSORGBACK
 10
0.0
 20
0.0
 30
0.0
  9
$PUCSBASE
  2

  9
$PUCSNAME
  2

  9
$PUCSORG
 10
0.0
 20
0.0
 30
0.0
  9
$PUCSXDIR
 10
1.0
 20
0.0
 30
0.0
  9
$PUCSYDIR
 10
0.0
 20
1.0
 30
0.0
  9
$PUCSORTHOREF
  2

  9
$PUCSORTHOVIEW
 70
     0
  9
$PUCSORGTOP
 10
0.0
 20
0.0
 30
0.0
  9
$PUCSORGBOTTOM
 10
0.0
 20
0.0
 30
0.0
  9
$PUCSORGLEFT
 10
0.0
 20
0.0
 30
0.0
  9
$PUCSORGRIGHT
 10
0.0
 20
0.0
 30
0.0
  9
$PUCSORGFRONT
 10
0.0
 20
0.0
 30
0.0
  9
$PUCSORGBACK
 10
0.0
 20
0.0
 30
0.0
  9
$USERI1
 70
     0
  9
$USERI2
 70
     0
  9
$USERI3
 70
     0
  9
$USERI4
 70
     0
  9
$USERI5
 70
     0
  9
$USERR1
 40
0.0
  9
$USERR2
 40
0.0
  9
$USERR3
 40
0.0
  9
$USERR4
 40
0.0
  9
$USERR5
 40
0.0
  9
$WORLDVIEW
 70
     1
  9
$SHADEDGE
 70
     3
  9
$SHADEDIF
 70
    70
  9
$TILEMODE
 70
     1
  9
$MAXACTVP
 70
    64
  9
$PINSBASE
 10
0.0
 20
0.0
 30
0.0
  9
$PLIMCHECK
 70
     0
  9
$PEXTMIN
 10
1.000000000000000E+20
 20
1.000000000000000E+20
 30
1.000000000000000E+20
  9
$PEXTMAX
 10
-1.000000000000000E+20
 20
-1.000000000000000E+20
 30
-1.000000000000000E+20
  9
$PLIMMIN
 10
0.0
 20
0.0
  9
$PLIMMAX
 10
420.0
 20
297.0
  9
$UNITMODE
 70
     0
  9
$VISRETAIN
 70
     1
  9
$PLINEGEN
 70
     0
  9
$PSLTSCALE
 70
     1
  9
$TREEDEPTH
 70
  3020
  9
$CMLSTYLE
  2
Standard
  9
$CMLJUST
 70
     0
  9
$CMLSCALE
 40
20.0
  9
$PROXYGRAPHICS
 70
     1
  9
$MEASUREMENT
 70
     1
  9
$CELWEIGHT
370
    -1
  9
$ENDCAPS
280
     0
  9
$JOINSTYLE
280
     0
  9
$LWDISPLAY
290
     0
  9
$INSUNITS
 70
     4
  9
$HYPERLINKBASE
  1

  9
$STYLESHEET
  1

  9
$XEDIT
290
     1
  9
$CEPSNTYPE
380
     0
  9
$PSTYLEMODE
290
     1
  9
$FINGERPRINTGUID
  2
{8233B731-7AFA-4018-95B8-E99562DFF85A}
  9
$VERSIONGUID
  2
{FAEB1C32-E019-11D5-929B-00C0DF256EC4}
  9
$EXTNAMES
290
     1
  9
$PSVPSCALE
 40
0.0
  9
$OLESTARTUP
290
     0
  9
$SORTENTS
280
   127
  9
$INDEXCTL
280
     0
  9
$HIDETEXT
280
     1
  9
$XCLIPFRAME
290
     0
  9
$HALOGAP
280
     0
  9
$OBSCOLOR
 70
   257
  9
$OBSLTYPE
280
     0
  9
$INTERSECTIONDISPLAY
280
     0
  9
$INTERSECTIONCOLOR
 70
   257
  9
$DIMASSOC
280
     2
  9
$PROJECTNAME
  1

  0
ENDSEC
  0
SECTION
  2
CLASSES
  0
CLASS
  1
ACDBDICTIONARYWDFLT
  2
AcDbDictionaryWithDefault
  3
ObjectDBX Classes
 90
        0
 91
        4
280
     0
281
     0
  0
CLASS
  1
VISUALSTYLE
  2
AcDbVisualStyle
  3
ObjectDBX Classes
 90
     4095
 91
        4
280
     0
281
     0
  0
ENDSEC
  0
SECTION
  2
TABLES
  0
TABLE
  2
VPORT
  5
8
330
0
100
AcDbSymbolTable
 70
     1
  0
VPORT
  5
29
330
8
100
AcDbSymbolTableRecord
100
AcDbViewportTableRecord
  2
*Active
 70
     0
 10
0.0
 20
0.0
 11
1.0
 21
1.0
 12
0.0
 22
0.0
 13
0.0
 23
0.0
 14
10.0
 24
10.0
 15
10.0
 25
10.0
 16
0.0
 26
0.0
 36
1.0
 17
0.0
 27
0.0
 37
0.0
 40
1633.5
 41
1.414141414141414
 42
50.0
 43
0.0
 44
0.0
 50
0.0
 51
0.0
 71
     0
 72
 10000
 73
     1
 74
     3
 75
     0
 76
     0
 77
     0
 78
     0
281
     0
 65
     1
110
0.0
120
0.0
130
0.0
111
1.0
121
0.0
131
0.0
112
0.0
122
1.0
132
0.0
 79
     0
146
0.0
  0
ENDTAB
  0
TABLE
  2
LTYPE
  5
5
330
0
100
AcDbSymbolTable
 70
     3
  0
LTYPE
  5
14
330
5
100
AcDbSymbolTableRecord
100
AcDbLinetypeTableRecord
  2
ByBlock
 70
     0
  3

 72
    65
 73
     0
 40
0.0
  0
LTYPE
  5
15
330
5
100
AcDbSymbolTableRecord
100
AcDbLinetypeTableRecord
  2
ByLayer
 70
     0
  3

 72
    65
 73
     0
 40
0.0
  0
LTYPE
  5
16
330
5
100
AcDbSymbolTableRecord
100
AcDbLinetypeTableRecord
  2
Continuous
 70
     0
  3
Solid line
 72
    65
 73
     0
 40
0.0
  0
LTYPE
  5
3C
330
5
100
AcDbSymbolTableRecord
100
AcDbLinetypeTableRecord
  2
JWW_DASHED1
 70
     0
  3
-  --  --  --  --  --  --  --  -
 72
    65
 73
     2
 40
1.693333333333333
 49
0.8466666666666667
 74
     0
 49
-0.8466666666666667
 74
     0
  0
LTYPE
  5
3D
330
5
100
AcDbSymbolTableRecord
100
AcDbLinetypeTableRecord
  2
JWW_CENTER1
 70
     0
  3
-----  --  ----------  --  -----
 72
    65
 73
     4
 40
6.773333333333333
 49
4.233333333333333
 74
     0
 49
-0.8466666666666667
 74
     0
 49
0.8466666666666667
 74
     0
 49
-0.8466666666666667
 74
     0
  0
ENDTAB
  0
TABLE
  2
LAYER
  5
2
330
0
100
AcDbSymbolTable
 70
    12
  0
LAYER
  5
10
330
2
100
AcDbSymbolTableRecord
100
AcDbLayerTableRecord
  2
0
 70
     0
 62
     7
  6
Continuous
370
    -3
390
F
  0
LAYER
  5
3E
330
2
100
AcDbSymbolTableRecord
100
AcDbLayerTableRecord
  2
F-Fﾚｲﾔ
 70
     0
 62
     7
  6
Continuous
370
    -3
390
F
  0
LAYER
  5
3F
330
2
100
AcDbSymbolTableRecord
100
AcDbLayerTableRecord
  2
通り芯
 70
     0
 62
     7
  6
Continuous
370
    -3
390
F
  0
LAYER
  5
40
330
2
100
AcDbSymbolTableRecord
100
AcDbLayerTableRecord
  2
躯体
 70
     0
 62
     7
  6
Continuous
370
    -3
390
F
  0
LAYER
  5
41
330
2
100
AcDbSymbolTableRecord
100
AcDbLayerTableRecord
  2
仕上
 70
     0
 62
     7
  6
Continuous
370
    -3
390
F
  0
LAYER
  5
42
330
2
100
AcDbSymbolTableRecord
100
AcDbLayerTableRecord
  2
0-F
 70
     0
 62
     7
  6
Continuous
370
    -3
390
F
  0
LAYER
  5
43
330
2
100
AcDbSymbolTableRecord
100
AcDbLayerTableRecord
  2
F-0ﾚｲﾔ
 70
     0
 62
     7
  6
Continuous
370
    -3
390
F
  0
LAYER
  5
44
330
2
100
AcDbSymbolTableRecord
100
AcDbLayerTableRecord
  2
F-2ﾚｲﾔ
 70
     0
 62
     7
  6
Continuous
370
    -3
390
F
  0
LAYER
  5
45
330
2
100
AcDbSymbolTableRecord
100
AcDbLayerTableRecord
  2
F-Eﾚｲﾔ
 70
     0
 62
     7
  6
Continuous
370
    -3
390
F
  0
LAYER
  5
46
330
2
100
AcDbSymbolTableRecord
100
AcDbLayerTableRecord
  2
建具
 70
     0
 62
     7
  6
Continuous
370
    -3
390
F
  0
LAYER
  5
47
330
2
100
AcDbSymbolTableRecord
100
AcDbLayerTableRecord
  2
F-3ﾚｲﾔ
 70
     0
 62
     7
  6
Continuous
370
    -3
390
F
  0
LAYER
  5
48
330
2
100
AcDbSymbolTableRecord
100
AcDbLayerTableRecord
  2
F-5ﾚｲﾔ
 70
     0
 62
     7
  6
Continuous
370
    -3
390
F
  0
ENDTAB
  0
TABLE
  2
STYLE
  5
3
330
0
100
AcDbSymbolTable
 70
     2
  0
STYLE
  5
11
330
3
100
AcDbSymbolTableRecord
100
AcDbTextStyleTableRecord
  2
Standard
 70
     0
 40
0.0
 41
1.0
 50
0.0
 71
     0
 42
2.5
  3
txt
  4

1001
ACAD
1000

1071
        0
  0
STYLE
  5
3B
330
3
100
AcDbSymbolTableRecord
100
AcDbTextStyleTableRecord
  2
ＭＳ ゴシック
 70
     0
 40
1.0
 41
1.0
 50
0.0
 71
     0
 42
10.0
  3

  4

1001
ACAD
1000
MS Gothic
1071
    32817
  0
ENDTAB
  0
TABLE
  2
VIEW
  5
6
330
0
100
AcDbSymbolTable
 70
     0
  0
ENDTAB
  0
TABLE
  2
UCS
  5
7
330
0
100
AcDbSymbolTable
 70
     0
  0
ENDTAB
  0
TABLE
  2
APPID
  5
9
330
0
100
AcDbSymbolTable
 70
     1
  0
APPID
  5
12
330
9
100
AcDbSymbolTableRecord
100
AcDbRegAppTableRecord
  2
ACAD
 70
     0
  0
ENDTAB
  0
TABLE
  2
DIMSTYLE
  5
A
330
0
100
AcDbSymbolTable
 70
     1
100
AcDbDimStyleTable
  0
DIMSTYLE
105
27
330
A
100
AcDbSymbolTableRecord
100
AcDbDimStyleTableRecord
  2
ISO-25
 70
     0
 41
2.5
 42
0.625
 43
3.75
 44
1.25
 73
     0
 74
     0
 77
     1
 78
     8
140
2.5
141
2.5
143
0.03937007874016
147
0.625
171
     3
172
     1
271
     2
272
     2
274
     3
278
    44
283
     0
284
     8
340
11
  0
ENDTAB
  0
TABLE
  2
BLOCK_RECORD
  5
1
330
0
100
AcDbSymbolTable
 70
     1
  0
BLOCK_RECORD
  5
1F
330
1
100
AcDbSymbolTableRecord
100
AcDbBlockTableRecord
  2
*Model_Space
340
22
  0
BLOCK_RECORD
  5
1B
330
1
100
AcDbSymbolTableRecord
100
AcDbBlockTableRecord
  2
*Paper_Space
340
1E
  0
BLOCK_RECORD
  5
23
330
1
100
AcDbSymbolTableRecord
100
AcDbBlockTableRecord
  2
*Paper_Space0
340
26
  0
ENDTAB
  0
ENDSEC
  0
SECTION
  2
BLOCKS
  0
BLOCK
  5
20
330
1F
100
AcDbEntity
  8
0
100
AcDbBlockBegin
  2
*Model_Space
 70
     0
 10
0.0
 20
0.0
 30
0.0
  3
*Model_Space
  1

  0
ENDBLK
  5
21
330
1F
100
AcDbEntity
  8
0
100
AcDbBlockEnd
  0
BLOCK
  5
1C
330
1B
100
AcDbEntity
 67
     1
  8
0
100
AcDbBlockBegin
  2
*Paper_Space
 70
     0
 10
0.0
 20
0.0
 30
0.0
  3
*Paper_Space
  1

  0
ENDBLK
  5
1D
330
1B
100
AcDbEntity
 67
     1
  8
0
100
AcDbBlockEnd
  0
BLOCK
  5
24
330
23
100
AcDbEntity
  8
0
100
AcDbBlockBegin
  2
*Paper_Space0
 70
     0
 10
0.0
 20
0.0
 30
0.0
  3
*Paper_Space0
  1

  0
ENDBLK
  5
25
330
23
100
AcDbEntity
  8
0
100
AcDbBlockEnd
  0
ENDSEC
  0
SECTION
  2
ENTITIES
  0
LWPOLYLINE
  5
49
330
1F
100
AcDbEntity
  8
F-Fﾚｲﾔ
  6
Continuous
 62
     7
370
     9
100
AcDbPolyline
 90
        4
 70
     1
 43
0.5
 10
254.730722788218
 20
447.0668235985009
 42
0.4142135623731
 10
254.480722788218
 20
447.3168235985009
 42
0.4142135623731
 10
254.230722788218
 20
447.0668235985009
 42
0.4142135623731
 10
254.480722788218
 20
446.8168235985009
 42
0.4142135623731
  0
LWPOLYLINE
  5
4A
330
1F
100
AcDbEntity
  8
F-Fﾚｲﾔ
  6
Continuous
 62
     7
370
     9
100
AcDbPolyline
 90
        4
 70
     1
 43
0.5
 10
667.721643396326
 20
447.0668235985009
 42
0.4142135623731
 10
667.471643396326
 20
447.3168235985009
 42
0.4142135623731
 10
667.221643396326
 20
447.0668235985009
 42
0.4142135623731
 10
667.471643396326
 20
446.8168235985009
 42
0.4142135623731
  0
LINE
  5
4B
330
1F
100
AcDbEntity
  8
通り芯
  6
Continuous
 62
     4
370
     9
100
AcDbLine
 10
-577.46206747519
 20
412.7578075512037
 30
0.0
 11
-577.46206747519
 21
411.2575799065668
 31
0.0
  0
LINE
  5
4C
330
1F
100
AcDbEntity
  8
通り芯
  6
Continuous
 62
     4
370
     9
100
AcDbLine
 10
-277.46206747519
 20
412.7578075512037
 30
0.0
 11
-277.46206747519
 21
411.2575799065668
 31
0.0
  0
LINE
  5
4D
330
1F
100
AcDbEntity
  8
通り芯
  6
Continuous
 62
     4
370
     9
100
AcDbLine
 10
-303.962130159945
 20
264.2577877560178
 30
0.0
 11
-302.4620880951753
 21
262.757560111381
 31
0.0
  0
LINE
  5
4E
330
1F
100
AcDbEntity
  8
通り芯
  6
Continuous
 62
     4
370
     9
100
AcDbLine
 10
-550.9621285103462
 20
264.2577877560178
 30
0.0
 11
-552.4621087151604
 21
262.757560111381
 31
0.0
  0
LINE
  5
4F
330
1F
100
AcDbEntity
  8
通り芯
  6
Continuous
 62
     4
370
     9
100
AcDbLine
 10
-302.4620880951753
 20
247.7575106234164
 30
0.0
 11
-312.4620592271959
 21
237.7574776314401
 31
0.0
  0
LINE
  5
50
330
1F
100
AcDbEntity
  8
通り芯
  6
Continuous
 62
     4
370
     9
100
AcDbLine
 10
-552.4621087151604
 20
247.7575106234164
 30
0.0
 11
-542.4620757231842
 21
237.7574776314401
 31
0.0
  0
LINE
  5
51
330
1F
100
AcDbEntity
  8
通り芯
  6
Continuous
 62
     4
370
     9
100
AcDbLine
 10
-502.4621911951013
 20
247.7575106234164
 30
0.0
 11
-502.4621911951013
 21
262.757560111381
 31
0.0
  0
LINE
  5
52
330
1F
100
AcDbEntity
  8
通り芯
  6
Continuous
 62
     4
370
     9
100
AcDbLine
 10
-512.4622241870777
 20
237.7574776314401
 30
0.0
 11
-542.4620757231842
 21
237.7574776314401
 31
0.0
  0
LINE
  5
53
330
1F
100
AcDbEntity
  8
通り芯
  6
Continuous
 62
     4
370
     9
100
AcDbLine
 10
-502.4621911951013
 20
247.7575106234164
 30
0.0
 11
-512.4622241870777
 21
237.7574776314401
 31
0.0
  0
LINE
  5
54
330
1F
100
AcDbEntity
  8
通り芯
  6
Continuous
 62
     4
370
     9
100
AcDbLine
 10
-552.4621087151604
 20
-126.283907503695
 30
0.0
 11
-552.4621087151604
 21
-376.2837425438133
 31
0.0
  0
LINE
  5
55
330
1F
100
AcDbEntity
  8
通り芯
  6
Continuous
 62
     4
370
     9
100
AcDbLine
 10
-577.46206747519
 20
-374.7837623389992
 30
0.0
 11
-577.46206747519
 21
-376.2837425438133
 31
0.0
  0
LINE
  5
56
330
1F
100
AcDbEntity
  8
通り芯
  6
Continuous
 62
     4
370
     9
100
AcDbLine
 10
-277.46206747519
 20
-374.7837623389992
 30
0.0
 11
-277.46206747519
 21
-376.2837425438133
 31
0.0
  0
LINE
  5
57
330
1F
100
AcDbEntity
  8
通り芯
  6
Continuous
 62
     4
370
     9
100
AcDbLine
 10
-502.46206747519
 20
-368.2838893581081
 30
0.0
 11
-502.46206747519
 21
-376.2837425438133
 31
0.0
  0
LINE
  5
58
330
1F
100
AcDbEntity
  8
通り芯
  6
Continuous
 62
     4
370
     9
100
AcDbLine
 10
-352.46206747519
 20
-368.2838893581081
 30
0.0
 11
-352.46206747519
 21
-376.2837425438133
 31
0.0
  0
LINE
  5
59
330
1F
100
AcDbEntity
  8
通り芯
  6
Continuous
 62
     4
370
     9
100
AcDbLine
 10
-352.46206747519
 20
-374.7837623389992
 30
0.0
 11
-277.46206747519
 21
-374.7837623389992
 31
0.0
  0
LINE
  5
5A
330
1F
100
AcDbEntity
  8
通り芯
  6
Continuous
 62
     4
370
     9
100
AcDbLine
 10
-352.46206747519
 20
-376.2837425438133
 30
0.0
 11
-277.46206747519
 21
-376.2837425438133
 31
0.0
  0
LINE
  5
5B
330
1F
100
AcDbEntity
  8
通り芯
  6
Continuous
 62
     4
370
     9
100
AcDbLine
 10
-577.46206747519
 20
-374.7837623389992
 30
0.0
 11
-502.46206747519
 21
-374.7837623389992
 31
0.0
  0
LINE
  5
5C
330
1F
100
AcDbEntity
  8
通り芯
  6
Continuous
 62
     4
370
     9
100
AcDbLine
 10
-577.46206747519
 20
-376.2837425438133
 30
0.0
 11
-502.46206747519
 21
-376.2837425438133
 31
0.0
  0
LINE
  5
5D
330
1F
100
AcDbEntity
  8
通り芯
  6
JWW_DASHED1
 62
     4
370
     9
100
AcDbLine
 10
-550.9621285103462
 20
-126.283907503695
 30
0.0
 11
-550.9621285103462
 21
-376.2837425438133
 31
0.0
  0
LINE
  5
5E
330
1F
100
AcDbEntity
  8
通り芯
  6
Continuous
 62
     4
370
     9
100
AcDbLine
 10
-287.4621004671664
 20
-374.7837623389992
 30
0.0
 11
-287.4621004671664
 21
-376.2837425438133
 31
0.0
  0
LINE
  5
5F
330
1F
100
AcDbEntity
  8
通り芯
  6
Continuous
 62
     4
370
     9
100
AcDbLine
 10
-342.4620344832136
 20
-374.7837623389992
 30
0.0
 11
-342.4620344832136
 21
-376.2837425438133
 31
0.0
  0
LINE
  5
60
330
1F
100
AcDbEntity
  8
通り芯
  6
Continuous
 62
     4
370
     9
100
AcDbLine
 10
-312.4620592271959
 20
-374.7837623389992
 30
0.0
 11
-312.4620592271959
 21
-376.2837425438133
 31
0.0
  0
LINE
  5
61
330
1F
100
AcDbEntity
  8
通り芯
  6
Continuous
 62
     4
370
     9
100
AcDbLine
 10
-567.462158203125
 20
-374.7837623389992
 30
0.0
 11
-567.462158203125
 21
-376.2837425438133
 31
0.0
  0
LINE
  5
62
330
1F
100
AcDbEntity
  8
通り芯
  6
Continuous
 62
     4
370
     9
100
AcDbLine
 10
-542.4620757231842
 20
-374.7837623389992
 30
0.0
 11
-542.4620757231842
 21
-376.2837425438133
 31
0.0
  0
LINE
  5
63
330
1F
100
AcDbEntity
  8
通り芯
  6
Continuous
 62
     4
370
     9
100
AcDbLine
 10
-512.4621004671664
 20
-374.7837623389992
 30
0.0
 11
-512.4621004671664
 21
-376.2837425438133
 31
0.0
  0
LINE
  5
64
330
1F
100
AcDbEntity
  8
通り芯
  6
Continuous
 62
     4
370
     9
100
AcDbLine
 10
-567.462158203125
 20
-126.283907503695
 30
0.0
 11
-577.46206747519
 21
-136.2838167757601
 31
0.0
  0
LINE
  5
65
330
1F
100
AcDbEntity
  8
通り芯
  6
Continuous
 62
     4
370
     9
100
AcDbLine
 10
-567.462158203125
 20
-316.2837920317779
 30
0.0
 11
-552.4621087151604
 21
-316.2837920317779
 31
0.0
  0
LINE
  5
66
330
1F
100
AcDbEntity
  8
通り芯
  6
Continuous
 62
     4
370
     9
100
AcDbLine
 10
-577.46206747519
 20
-306.2838827597128
 30
0.0
 11
-567.462158203125
 21
-316.2837920317779
 31
0.0
  0
LINE
  5
67
330
1F
100
AcDbEntity
  8
通り芯
  6
Continuous
 62
     4
370
     9
100
AcDbLine
 10
-277.46206747519
 20
-306.2838827597128
 30
0.0
 11
-287.4621004671664
 21
-316.2837920317779
 31
0.0
  0
LINE
  5
68
330
1F
100
AcDbEntity
  8
通り芯
  6
Continuous
 62
     4
370
     9
100
AcDbLine
 10
-287.4621004671664
 20
-126.283907503695
 30
0.0
 11
-277.46206747519
 21
-136.2838167757601
 31
0.0
  0
LINE
  5
69
330
1F
100
AcDbEntity
  8
通り芯
  6
Continuous
 62
     4
370
     9
100
AcDbLine
 10
-567.462158203125
 20
-126.283907503695
 30
0.0
 11
-287.4621004671664
 21
-126.283907503695
 31
0.0
  0
LINE
  5
6A
330
1F
100
AcDbEntity
  8
通り芯
  6
Continuous
 62
     4
370
     9
100
AcDbLine
 10
-287.4621004671664
 20
-316.2837920317779
 30
0.0
 11
-302.4620880951753
 21
-316.2837920317779
 31
0.0
  0
LINE
  5
6B
330
1F
100
AcDbEntity
  8
通り芯
  6
Continuous
 62
     4
370
     9
100
AcDbLine
 10
113.2096574113176
 20
-126.2837837837837
 30
0.0
 11
-36.79034258868242
 21
-126.2837837837837
 31
0.0
  0
LINE
  5
6C
330
1F
100
AcDbEntity
  8
通り芯
  6
Continuous
 62
     4
370
     9
100
AcDbLine
 10
-36.79034258868242
 20
-126.2837837837837
 30
0.0
 11
-36.79034258868242
 21
-376.2837425438133
 31
0.0
  0
LINE
  5
6D
330
1F
100
AcDbEntity
  8
通り芯
  6
Continuous
 62
     4
370
     9
100
AcDbLine
 10
-61.79042506862331
 20
-374.7837623389992
 30
0.0
 11
-61.79042506862331
 21
-376.2837425438133
 31
0.0
  0
LINE
  5
6E
330
1F
100
AcDbEntity
  8
通り芯
  6
Continuous
 62
     4
370
     9
100
AcDbLine
 10
113.2096574113176
 20
-126.2837837837837
 30
0.0
 11
113.2096574113176
 21
-316.2837920317779
 31
0.0
  0
LINE
  5
6F
330
1F
100
AcDbEntity
  8
通り芯
  6
Continuous
 62
     4
370
     9
100
AcDbLine
 10
113.2096574113176
 20
-316.2837920317779
 30
0.0
 11
111.7096772065034
 21
-316.2837920317779
 31
0.0
  0
LINE
  5
70
330
1F
100
AcDbEntity
  8
通り芯
  6
Continuous
 62
     4
370
     9
100
AcDbLine
 10
111.7096772065034
 20
-126.2837837837837
 30
0.0
 11
111.7096772065034
 21
-316.2837920317779
 31
0.0
  0
LINE
  5
71
330
1F
100
AcDbEntity
  8
通り芯
  6
Continuous
 62
     4
370
     9
100
AcDbLine
 10
-282.4620839711781
 20
292.75765908731
 30
0.0
 11
-302.4620880951753
 21
292.75765908731
 31
0.0
  0
LINE
  5
72
330
1F
100
AcDbEntity
  8
通り芯
  6
Continuous
 62
     4
370
     9
100
AcDbLine
 10
-282.4620839711781
 20
292.75765908731
 30
0.0
 11
-277.46206747519
 21
287.7576425913219
 31
0.0
  0
LINE
  5
73
330
1F
100
AcDbEntity
  8
通り芯
  6
Continuous
 62
     4
370
     9
100
AcDbLine
 10
-277.46206747519
 20
267.7575766073692
 30
0.0
 11
-277.46206747519
 21
287.7576425913219
 31
0.0
  0
LINE
  5
74
330
1F
100
AcDbEntity
  8
通り芯
  6
Continuous
 62
     4
370
     9
100
AcDbLine
 10
-277.46206747519
 20
267.7575766073692
 30
0.0
 11
-282.4620839711781
 21
262.757560111381
 31
0.0
  0
LINE
  5
75
330
1F
100
AcDbEntity
  8
通り芯
  6
Continuous
 62
     4
370
     9
100
AcDbLine
 10
-352.4621911951013
 20
247.7575106234164
 30
0.0
 11
-352.4621911951013
 21
262.757560111381
 31
0.0
  0
LINE
  5
76
330
1F
100
AcDbEntity
  8
通り芯
  6
Continuous
 62
     4
370
     9
100
AcDbLine
 10
-342.462158203125
 20
237.7574776314401
 30
0.0
 11
-312.4620592271959
 21
237.7574776314401
 31
0.0
  0
LINE
  5
77
330
1F
100
AcDbEntity
  8
通り芯
  6
Continuous
 62
     4
370
     9
100
AcDbLine
 10
-352.4621911951013
 20
247.7575106234164
 30
0.0
 11
-342.462158203125
 21
237.7574776314401
 31
0.0
  0
LINE
  5
78
330
1F
100
AcDbEntity
  8
通り芯
  6
Continuous
 62
     4
370
     9
100
AcDbLine
 10
-572.4621746991131
 20
292.75765908731
 30
0.0
 11
-552.4621087151604
 21
292.75765908731
 31
0.0
  0
LINE
  5
79
330
1F
100
AcDbEntity
  8
通り芯
  6
Continuous
 62
     4
370
     9
100
AcDbLine
 10
-572.4621746991131
 20
292.75765908731
 30
0.0
 11
-577.46206747519
 21
287.7576425913219
 31
0.0
  0
LINE
  5
7A
330
1F
100
AcDbEntity
  8
通り芯
  6
Continuous
 62
     4
370
     9
100
AcDbLine
 10
-577.46206747519
 20
267.7575766073692
 30
0.0
 11
-577.46206747519
 21
287.7576425913219
 31
0.0
  0
LINE
  5
7B
330
1F
100
AcDbEntity
  8
通り芯
  6
Continuous
 62
     4
370
     9
100
AcDbLine
 10
-577.46206747519
 20
267.7575766073692
 30
0.0
 11
-572.4621746991131
 21
262.757560111381
 31
0.0
  0
LINE
  5
7C
330
1F
100
AcDbEntity
  8
通り芯
  6
Continuous
 62
     4
370
     9
100
AcDbLine
 10
-282.4620839711781
 20
262.757560111381
 30
0.0
 11
-572.4621746991131
 21
262.757560111381
 31
0.0
  0
LINE
  5
7D
330
1F
100
AcDbEntity
  8
通り芯
  6
Continuous
 62
     4
370
     9
100
AcDbLine
 10
-6.790367332664573
 20
-368.2837656381968
 30
0.0
 11
-6.790367332664573
 21
-376.2837425438133
 31
0.0
  0
LINE
  5
7E
330
1F
100
AcDbEntity
  8
通り芯
  6
Continuous
 62
     4
370
     9
100
AcDbLine
 10
-6.790367332664573
 20
-374.7837623389992
 30
0.0
 11
-61.79042506862331
 21
-374.7837623389992
 31
0.0
  0
LINE
  5
7F
330
1F
100
AcDbEntity
  8
通り芯
  6
Continuous
 62
     4
370
     9
100
AcDbLine
 10
-6.790367332664573
 20
-376.2837425438133
 30
0.0
 11
-61.79042506862331
 21
-376.2837425438133
 31
0.0
  0
LINE
  5
80
330
1F
100
AcDbEntity
  8
通り芯
  6
JWW_DASHED1
 62
     4
370
     9
100
AcDbLine
 10
-35.29036238386823
 20
-126.2837837837837
 30
0.0
 11
-35.29036238386823
 21
-376.2837425438133
 31
0.0
  0
LINE
  5
81
330
1F
100
AcDbEntity
  8
通り芯
  6
Continuous
 62
     4
370
     9
100
AcDbLine
 10
-11.79038382865286
 20
-374.7837623389992
 30
0.0
 11
-11.79038382865286
 21
-376.2837425438133
 31
0.0
  0
LINE
  5
82
330
1F
100
AcDbEntity
  8
通り芯
  6
Continuous
 62
     4
370
     9
100
AcDbLine
 10
-31.79032609269413
 20
-374.7837623389992
 30
0.0
 11
-31.79032609269413
 21
-376.2837425438133
 31
0.0
  0
LINE
  5
83
330
1F
100
AcDbEntity
  8
通り芯
  6
Continuous
 62
     4
370
     9
100
AcDbLine
 10
-51.79039207664687
 20
-374.7837623389992
 30
0.0
 11
-51.79039207664687
 21
-376.2837425438133
 31
0.0
  0
LINE
  5
84
330
1F
100
AcDbEntity
  8
通り芯
  6
Continuous
 62
     4
370
     9
100
AcDbLine
 10
-301.4621219119509
 20
411.2575799065668
 30
0.0
 11
-277.46206747519
 21
411.2575799065668
 31
0.0
  0
LINE
  5
85
330
1F
100
AcDbEntity
  8
通り芯
  6
Continuous
 62
     4
370
     9
100
AcDbLine
 10
-303.962130159945
 20
410.2576755832982
 30
0.0
 11
-303.962130159945
 21
264.2577877560178
 31
0.0
  0
LINE
  5
86
330
1F
100
AcDbEntity
  8
通り芯
  6
Continuous
 62
     4
370
     9
100
AcDbLine
 10
-301.4621219119509
 20
412.7578075512037
 30
0.0
 11
-277.46206747519
 21
412.7578075512037
 31
0.0
  0
LINE
  5
87
330
1F
100
AcDbEntity
  8
通り芯
  6
Continuous
 62
     4
370
     9
100
AcDbLine
 10
-577.46206747519
 20
411.2575799065668
 30
0.0
 11
-553.4620130384291
 21
411.2575799065668
 31
0.0
  0
LINE
  5
88
330
1F
100
AcDbEntity
  8
通り芯
  6
Continuous
 62
     4
370
     9
100
AcDbLine
 10
-577.46206747519
 20
412.7578075512037
 30
0.0
 11
-553.4620130384291
 21
412.7578075512037
 31
0.0
  0
LINE
  5
89
330
1F
100
AcDbEntity
  8
通り芯
  6
Continuous
 62
     4
370
     9
100
AcDbLine
 10
-548.4621202623522
 20
412.7578075512037
 30
0.0
 11
-306.4621384079392
 21
412.7578075512037
 31
0.0
  0
LINE
  5
8A
330
1F
100
AcDbEntity
  8
通り芯
  6
JWW_DASHED1
 62
     4
370
     9
100
AcDbLine
 10
113.2096574113176
 20
-216.283709551837
 30
0.0
 11
98.20985536317579
 21
-216.283709551837
 31
0.0
  0
LINE
  5
8B
330
1F
100
AcDbEntity
  8
躯体
  6
JWW_DASHED1
 62
     2
370
     9
100
AcDbLine
 10
-32.29040197423984
 20
-131.7837524414062
 30
0.0
 11
-32.29040197423984
 21
-143.783717799831
 31
0.0
  0
LINE
  5
8C
330
1F
100
AcDbEntity
  8
躯体
  6
JWW_DASHED1
 62
     2
370
     9
100
AcDbLine
 10
-23.29039702544335
 20
-128.7837920317779
 30
0.0
 11
-23.29039702544335
 21
-131.7837524414062
 31
0.0
  0
LINE
  5
8D
330
1F
100
AcDbEntity
  8
躯体
  6
JWW_DASHED1
 62
     2
370
     9
100
AcDbLine
 10
76.20973329286329
 20
-131.7837524414062
 30
0.0
 11
-32.29040197423984
 21
-131.7837524414062
 31
0.0
  0
LINE
  5
8E
330
1F
100
AcDbEntity
  8
躯体
  6
JWW_DASHED1
 62
     2
370
     9
100
AcDbLine
 10
76.20973329286329
 20
-128.7837920317779
 30
0.0
 11
76.20973329286329
 21
-143.783717799831
 31
0.0
  0
LINE
  5
8F
330
1F
100
AcDbEntity
  8
躯体
  6
JWW_DASHED1
 62
     2
370
     9
100
AcDbLine
 10
76.20973329286329
 20
-143.783717799831
 30
0.0
 11
-35.29036238386823
 21
-143.783717799831
 31
0.0
  0
LINE
  5
90
330
1F
100
AcDbEntity
  8
躯体
  6
JWW_DASHED1
 62
     2
370
     9
100
AcDbLine
 10
-315.9620955183699
 20
375.7576359929266
 30
0.0
 11
-315.9620955183699
 21
276.2576293945312
 31
0.0
  0
LINE
  5
91
330
1F
100
AcDbEntity
  8
躯体
  6
JWW_DASHED1
 62
     2
370
     9
100
AcDbLine
 10
-538.9620394320101
 20
276.2576293945312
 30
0.0
 11
-315.9620955183699
 21
276.2576293945312
 31
0.0
  0
LINE
  5
92
330
1F
100
AcDbEntity
  8
躯体
  6
JWW_DASHED1
 62
     2
370
     9
100
AcDbLine
 10
-538.9620394320101
 20
375.7576359929266
 30
0.0
 11
-550.9621285103462
 21
375.7576359929266
 31
0.0
  0
LINE
  5
93
330
1F
100
AcDbEntity
  8
躯体
  6
JWW_DASHED1
 62
     2
370
     9
100
AcDbLine
 10
-303.962130159945
 20
375.7576359929266
 30
0.0
 11
-315.9620955183699
 21
375.7576359929266
 31
0.0
  0
LINE
  5
94
330
1F
100
AcDbEntity
  8
通り芯
  6
Continuous
 62
     4
370
     9
100
AcDbLine
 10
344.9548669763513
 20
-374.7837623389992
 30
0.0
 11
344.9548669763513
 21
-376.2837425438133
 31
0.0
  0
LINE
  5
95
330
1F
100
AcDbEntity
  8
通り芯
  6
Continuous
 62
     4
370
     9
100
AcDbLine
 10
419.955114416174
 20
-368.2838893581081
 30
0.0
 11
419.955114416174
 21
-376.2837425438133
 31
0.0
  0
LINE
  5
96
330
1F
100
AcDbEntity
  8
通り芯
  6
Continuous
 62
     4
370
     9
100
AcDbLine
 10
344.9548669763513
 20
-376.2837425438133
 30
0.0
 11
419.955114416174
 21
-376.2837425438133
 31
0.0
  0
LINE
  5
97
330
1F
100
AcDbEntity
  8
通り芯
  6
Continuous
 62
     4
370
     9
100
AcDbLine
 10
371.4549296611065
 20
-126.283907503695
 30
0.0
 11
371.4549296611065
 21
-376.2837425438133
 31
0.0
  0
LINE
  5
98
330
1F
100
AcDbEntity
  8
通り芯
  6
Continuous
 62
     4
370
     9
100
AcDbLine
 10
354.9551474081505
 20
-374.7837623389992
 30
0.0
 11
354.9551474081505
 21
-376.2837425438133
 31
0.0
  0
LINE
  5
99
330
1F
100
AcDbEntity
  8
通り芯
  6
Continuous
 62
     4
370
     9
100
AcDbLine
 10
354.9551474081505
 20
-126.283907503695
 30
0.0
 11
344.9548669763513
 21
-136.2838167757601
 31
0.0
  0
LINE
  5
9A
330
1F
100
AcDbEntity
  8
通り芯
  6
Continuous
 62
     4
370
     9
100
AcDbLine
 10
344.9548669763513
 20
-306.2838827597128
 30
0.0
 11
344.9548669763513
 21
-136.2838167757601
 31
0.0
  0
LINE
  5
9B
330
1F
100
AcDbEntity
  8
通り芯
  6
Continuous
 62
     4
370
     9
100
AcDbLine
 10
344.9548669763513
 20
-306.2838827597128
 30
0.0
 11
354.9551474081505
 21
-316.2837920317779
 31
0.0
  0
LINE
  5
9C
330
1F
100
AcDbEntity
  8
通り芯
  6
Continuous
 62
     4
370
     9
100
AcDbLine
 10
354.9551474081505
 20
-316.2837920317779
 30
0.0
 11
371.4549296611065
 21
-316.2837920317779
 31
0.0
  0
LINE
  5
9D
330
1F
100
AcDbEntity
  8
通り芯
  6
JWW_DASHED1
 62
     4
370
     9
100
AcDbLine
 10
369.9551968961148
 20
-126.283907503695
 30
0.0
 11
369.9551968961148
 21
-316.2837920317779
 31
0.0
  0
LINE
  5
9E
330
1F
100
AcDbEntity
  8
通り芯
  6
JWW_DASHED1
 62
     4
370
     9
100
AcDbLine
 10
371.4549296611065
 20
-374.7837623389992
 30
0.0
 11
419.955114416174
 21
-374.7837623389992
 31
0.0
  0
LINE
  5
9F
330
1F
100
AcDbEntity
  8
通り芯
  6
Continuous
 62
     4
370
     9
100
AcDbLine
 10
369.9551968961148
 20
-316.2837920317779
 30
0.0
 11
369.9551968961148
 21
-374.7837623389992
 31
0.0
  0
LINE
  5
A0
330
1F
100
AcDbEntity
  8
通り芯
  6
Continuous
 62
     4
370
     9
100
AcDbLine
 10
344.9548669763513
 20
-374.7837623389992
 30
0.0
 11
369.9551968961148
 21
-374.7837623389992
 31
0.0
  0
LINE
  5
A1
330
1F
100
AcDbEntity
  8
躯体
  6
JWW_DASHED1
 62
     2
370
     9
100
AcDbLine
 10
-538.9620394320101
 20
276.2576293945312
 30
0.0
 11
-550.9621285103462
 21
264.2577877560178
 31
0.0
  0
LINE
  5
A2
330
1F
100
AcDbEntity
  8
躯体
  6
JWW_DASHED1
 62
     2
370
     9
100
AcDbLine
 10
-315.9620955183699
 20
276.2576293945312
 30
0.0
 11
-303.962130159945
 21
264.2577877560178
 31
0.0
  0
LINE
  5
A3
330
1F
100
AcDbEntity
  8
通り芯
  6
JWW_DASHED1
 62
     4
370
     9
100
AcDbLine
 10
111.7096772065034
 20
-156.2837590398015
 30
0.0
 11
98.20985536317579
 21
-156.2837590398015
 31
0.0
  0
LINE
  5
A4
330
1F
100
AcDbEntity
  8
躯体
  6
JWW_DASHED1
 62
     2
370
     9
100
AcDbLine
 10
-538.9620394320101
 20
375.7576359929266
 30
0.0
 11
-538.9620394320101
 21
276.2576293945312
 31
0.0
  0
LINE
  5
A5
330
1F
100
AcDbEntity
  8
仕上
  6
Continuous
 62
     3
370
     9
100
AcDbLine
 10
-304.4620823215793
 20
408.2576194969384
 30
0.0
 11
-304.4620823215793
 21
264.7576161977407
 31
0.0
  0
LINE
  5
A6
330
1F
100
AcDbEntity
  8
仕上
  6
Continuous
 62
     3
370
     9
100
AcDbLine
 10
-304.4620823215793
 20
408.2576194969384
 30
0.0
 11
-550.4620526288006
 21
408.2576194969384
 31
0.0
  0
LINE
  5
A7
330
1F
100
AcDbEntity
  8
通り芯
  6
JWW_DASHED1
 62
     4
370
     9
100
AcDbLine
 10
-550.4620526288006
 20
397.7577580632391
 30
0.0
 11
-549.4620245856207
 21
397.7577580632391
 31
0.0
  0
LINE
  5
A8
330
1F
100
AcDbEntity
  8
通り芯
  6
Continuous
 62
     4
370
     9
100
AcDbLine
 10
-550.9621285103462
 20
397.7577580632391
 30
0.0
 11
-550.4620526288006
 21
397.7577580632391
 31
0.0
  0
LINE
  5
A9
330
1F
100
AcDbEntity
  8
通り芯
  6
JWW_DASHED1
 62
     4
370
     9
100
AcDbLine
 10
-549.4620245856207
 20
408.2576194969384
 30
0.0
 11
-549.4620245856207
 21
397.7577580632391
 31
0.0
  0
LINE
  5
AA
330
1F
100
AcDbEntity
  8
通り芯
  6
Continuous
 62
     4
370
     9
100
AcDbLine
 10
-549.4620245856207
 20
410.2576755832982
 30
0.0
 11
-549.4620245856207
 21
408.2576194969384
 31
0.0
  0
LINE
  5
AB
330
1F
100
AcDbEntity
  8
通り芯
  6
Continuous
 62
     4
370
     9
100
AcDbLine
 10
-305.4621103647593
 20
410.2576755832982
 30
0.0
 11
-305.4621103647593
 21
408.2576194969384
 31
0.0
  0
LINE
  5
AC
330
1F
100
AcDbEntity
  8
通り芯
  6
JWW_DASHED1
 62
     4
370
     9
100
AcDbLine
 10
-305.4621103647593
 20
408.2576194969384
 30
0.0
 11
-305.4621103647593
 21
397.7577580632391
 31
0.0
  0
LINE
  5
AD
330
1F
100
AcDbEntity
  8
通り芯
  6
Continuous
 62
     4
370
     9
100
AcDbLine
 10
-303.962130159945
 20
397.7577580632391
 30
0.0
 11
-304.4620823215793
 21
397.7577580632391
 31
0.0
  0
LINE
  5
AE
330
1F
100
AcDbEntity
  8
通り芯
  6
JWW_DASHED1
 62
     4
370
     9
100
AcDbLine
 10
-304.4620823215793
 20
397.7577580632391
 30
0.0
 11
-305.4621103647593
 21
397.7577580632391
 31
0.0
  0
LINE
  5
AF
330
1F
100
AcDbEntity
  8
仕上
  6
JWW_CENTER1
 62
     3
370
     9
100
AcDbLine
 10
-439.5045924831081
 20
294.7577151736698
 30
0.0
 11
-415.1467400628167
 21
294.7577151736698
 31
0.0
  0
LINE
  5
B0
330
1F
100
AcDbEntity
  8
仕上
  6
JWW_DASHED1
 62
     3
370
     9
100
AcDbLine
 10
-34.79028650232252
 20
-128.7837920317779
 30
0.0
 11
108.709716796875
 21
-128.7837920317779
 31
0.0
  0
LINE
  5
B1
330
1F
100
AcDbEntity
  8
仕上
  6
JWW_DASHED1
 62
     3
370
     9
100
AcDbLine
 10
108.709716796875
 20
-126.783735945418
 30
0.0
 11
108.709716796875
 21
-128.7837920317779
 31
0.0
  0
LINE
  5
B2
330
1F
100
AcDbEntity
  8
仕上
  6
JWW_DASHED1
 62
     3
370
     9
100
AcDbLine
 10
108.709716796875
 20
-126.783735945418
 30
0.0
 11
-34.79028650232252
 21
-126.783735945418
 31
0.0
  0
LINE
  5
B3
330
1F
100
AcDbEntity
  8
仕上
  6
JWW_DASHED1
 62
     3
370
     9
100
AcDbLine
 10
-34.79028650232252
 20
-126.783735945418
 30
0.0
 11
-34.79028650232252
 21
-128.7837920317779
 31
0.0
  0
LINE
  5
B4
330
1F
100
AcDbEntity
  8
通り芯
  6
Continuous
 62
     4
370
     9
100
AcDbLine
 10
-577.46206747519
 20
-306.2838827597128
 30
0.0
 11
-577.46206747519
 21
-136.2838167757601
 31
0.0
  0
LINE
  5
B5
330
1F
100
AcDbEntity
  8
通り芯
  6
Continuous
 62
     4
370
     9
100
AcDbLine
 10
-277.46206747519
 20
-306.2838827597128
 30
0.0
 11
-277.46206747519
 21
-136.2838167757601
 31
0.0
  0
LINE
  5
B6
330
1F
100
AcDbEntity
  8
0-F
  6
Continuous
 62
     7
370
     9
100
AcDbLine
 10
-369.8945741395693
 20
-121.7230966928842
 30
0.0
 11
-365.8029092324746
 21
-133.7256601694467
 31
0.0
  0
LINE
  5
B7
330
1F
100
AcDbEntity
  8
0-F
  6
Continuous
 62
     7
370
     9
100
AcDbLine
 10
-365.8029092324746
 20
-133.7256601694467
 30
0.0
 11
-351.8908526446369
 21
-153.3660723711993
 31
0.0
  0
LINE
  5
B8
330
1F
100
AcDbEntity
  8
0-F
  6
Continuous
 62
     7
370
     9
100
AcDbLine
 10
-351.8908526446369
 20
-153.3660723711993
 30
0.0
 11
-328.7042566247888
 21
-162.6407355231208
 31
0.0
  0
LINE
  5
B9
330
1F
100
AcDbEntity
  8
0-F
  6
Continuous
 62
     7
370
     9
100
AcDbLine
 10
-328.7042566247888
 20
-162.6407355231208
 30
0.0
 11
-311.2461399387668
 21
-167.0053265545819
 31
0.0
  0
LINE
  5
BA
330
1F
100
AcDbEntity
  8
0-F
  6
Continuous
 62
     7
370
     9
100
AcDbLine
 10
-311.2461399387668
 20
-167.0053265545819
 30
0.0
 11
-297.0614046663852
 21
-168.9146959459459
 31
0.0
  0
LINE
  5
BB
330
1F
100
AcDbEntity
  8
通り芯
  6
JWW_DASHED1
 62
     4
370
     9
100
AcDbLine
 10
-303.962130159945
 20
-167.9856831318623
 30
0.0
 11
-303.962130159945
 21
-376.2837425438133
 31
0.0
  0
LINE
  5
BC
330
1F
100
AcDbEntity
  8
仕上
  6
JWW_DASHED1
 62
     3
370
     9
100
AcDbLine
 10
-550.4620526288006
 20
-126.783735945418
 30
0.0
 11
-368.169423696157
 21
-126.783735945418
 31
0.0
  0
LINE
  5
BD
330
1F
100
AcDbEntity
  8
仕上
  6
Continuous
 62
     3
370
     9
100
AcDbLine
 10
-368.169423696157
 20
-126.783735945418
 30
0.0
 11
-304.4620823215793
 21
-126.783735945418
 31
0.0
  0
LINE
  5
BE
330
1F
100
AcDbEntity
  8
通り芯
  6
Continuous
 62
     4
370
     9
100
AcDbLine
 10
-303.962130159945
 20
-126.283907503695
 30
0.0
 11
-303.962130159945
 21
-133.783808527766
 31
0.0
  0
LINE
  5
BF
330
1F
100
AcDbEntity
  8
通り芯
  6
Continuous
 62
     4
370
     9
100
AcDbLine
 10
-303.962130159945
 20
-138.7838250237542
 30
0.0
 11
-303.962130159945
 21
-167.9856831318623
 31
0.0
  0
LINE
  5
C0
330
1F
100
AcDbEntity
  8
通り芯
  6
Continuous
 62
     4
370
     9
100
AcDbLine
 10
-302.4620880951753
 20
-126.283907503695
 30
0.0
 11
-302.4620880951753
 21
-133.783808527766
 31
0.0
  0
LINE
  5
C1
330
1F
100
AcDbEntity
  8
通り芯
  6
Continuous
 62
     4
370
     9
100
AcDbLine
 10
-302.4620880951753
 20
-138.7838250237542
 30
0.0
 11
-302.4620880951753
 21
-376.2837425438133
 31
0.0
  0
LINE
  5
C2
330
1F
100
AcDbEntity
  8
仕上
  6
Continuous
 62
     3
370
     9
100
AcDbLine
 10
-366.4648107580235
 20
-131.7837524414062
 30
0.0
 11
-305.4621103647593
 21
-131.7837524414062
 31
0.0
  0
LINE
  5
C3
330
1F
100
AcDbEntity
  8
仕上
  6
JWW_DASHED1
 62
     3
370
     9
100
AcDbLine
 10
-304.4620823215793
 20
399.2579857078759
 30
0.0
 11
-550.4620526288006
 21
399.2579857078759
 31
0.0
  0
LINE
  5
C4
330
1F
100
AcDbEntity
  8
通り芯
  6
Continuous
 62
     4
370
     9
100
AcDbLine
 10
-552.4621087151604
 20
247.7575106234164
 30
0.0
 11
-552.4621087151604
 21
410.2576755832982
 31
0.0
  0
LINE
  5
C5
330
1F
100
AcDbEntity
  8
通り芯
  6
Continuous
 62
     4
370
     9
100
AcDbLine
 10
-302.4620880951753
 20
410.2576755832982
 30
0.0
 11
-302.4620880951753
 21
247.7575106234164
 31
0.0
  0
LINE
  5
C6
330
1F
100
AcDbEntity
  8
通り芯
  6
JWW_CENTER1
 62
     4
370
     9
100
AcDbLine
 10
-427.46206747519
 20
418.240579141153
 30
0.0
 11
-427.46206747519
 21
256.1185022302577
 31
0.0
  0
LINE
  5
C7
330
1F
100
AcDbEntity
  8
通り芯
  6
Continuous
 62
     4
370
     9
100
AcDbLine
 10
-502.46206747519
 20
-368.2838893581081
 30
0.0
 11
-352.46206747519
 21
-368.2838893581081
 31
0.0
  0
LINE
  5
C8
330
1F
100
AcDbEntity
  8
通り芯
  6
JWW_CENTER1
 62
     4
370
     9
100
AcDbLine
 10
494.955114416174
 20
-113.1126857448268
 30
0.0
 11
494.955114416174
 21
-377.7516792915963
 31
0.0
  0
LINE
  5
C9
330
1F
100
AcDbEntity
  8
通り芯
  6
JWW_CENTER1
 62
     4
370
     9
100
AcDbLine
 10
-536.8390057538006
 20
-326.2838250237542
 30
0.0
 11
-527.8378873258023
 21
-326.2838250237542
 31
0.0
  0
LINE
  5
CA
330
1F
100
AcDbEntity
  8
通り芯
  6
JWW_CENTER1
 62
     4
370
     9
100
AcDbLine
 10
-532.4621664511191
 20
-321.7527069916596
 30
0.0
 11
-532.4621664511191
 21
-330.5202422270904
 31
0.0
  0
LINE
  5
CB
330
1F
100
AcDbEntity
  8
通り芯
  6
JWW_CENTER1
 62
     4
370
     9
100
AcDbLine
 10
-506.8391542176942
 20
-326.2838250237542
 30
0.0
 11
-497.8377883498733
 21
-326.2838250237542
 31
0.0
  0
LINE
  5
CC
330
1F
100
AcDbEntity
  8
通り芯
  6
JWW_CENTER1
 62
     4
370
     9
100
AcDbLine
 10
-502.4621911951013
 20
-321.7527069916596
 30
0.0
 11
-502.4621911951013
 21
-330.5202422270904
 31
0.0
  0
LINE
  5
CD
330
1F
100
AcDbEntity
  8
通り芯
  6
JWW_CENTER1
 62
     4
370
     9
100
AcDbLine
 10
-476.8390552417652
 20
-326.2838250237542
 30
0.0
 11
-467.8379368137669
 21
-326.2838250237542
 31
0.0
  0
LINE
  5
CE
330
1F
100
AcDbEntity
  8
通り芯
  6
JWW_CENTER1
 62
     4
370
     9
100
AcDbLine
 10
-472.4620922191723
 20
-321.7527069916596
 30
0.0
 11
-472.4620922191723
 21
-330.5202422270904
 31
0.0
  0
LINE
  5
CF
330
1F
100
AcDbEntity
  8
通り芯
  6
JWW_CENTER1
 62
     4
370
     9
100
AcDbLine
 10
-446.8389562658361
 20
-326.2838250237542
 30
0.0
 11
-437.8378378378378
 21
-326.2838250237542
 31
0.0
  0
LINE
  5
D0
330
1F
100
AcDbEntity
  8
通り芯
  6
JWW_CENTER1
 62
     4
370
     9
100
AcDbLine
 10
-442.4622406830658
 20
-321.7527069916596
 30
0.0
 11
-442.4622406830658
 21
-330.5202422270904
 31
0.0
  0
LINE
  5
D1
330
1F
100
AcDbEntity
  8
通り芯
  6
JWW_CENTER1
 62
     4
370
     9
100
AcDbLine
 10
-416.8391047297297
 20
-326.2838250237542
 30
0.0
 11
-407.8377388619087
 21
-326.2838250237542
 31
0.0
  0
LINE
  5
D2
330
1F
100
AcDbEntity
  8
通り芯
  6
JWW_CENTER1
 62
     4
370
     9
100
AcDbLine
 10
-412.4621417071368
 20
-321.7527069916596
 30
0.0
 11
-412.4621417071368
 21
-330.5202422270904
 31
0.0
  0
LINE
  5
D3
330
1F
100
AcDbEntity
  8
通り芯
  6
JWW_CENTER1
 62
     4
370
     9
100
AcDbLine
 10
-386.8390057538006
 20
-326.2838250237542
 30
0.0
 11
-377.8378873258023
 21
-326.2838250237542
 31
0.0
  0
LINE
  5
D4
330
1F
100
AcDbEntity
  8
通り芯
  6
JWW_CENTER1
 62
     4
370
     9
100
AcDbLine
 10
-382.4620427312077
 20
-321.7527069916596
 30
0.0
 11
-382.4620427312077
 21
-330.5202422270904
 31
0.0
  0
LINE
  5
D5
330
1F
100
AcDbEntity
  8
通り芯
  6
JWW_CENTER1
 62
     4
370
     9
100
AcDbLine
 10
-356.8391542176943
 20
-326.2838250237542
 30
0.0
 11
-347.8377883498733
 21
-326.2838250237542
 31
0.0
  0
LINE
  5
D6
330
1F
100
AcDbEntity
  8
通り芯
  6
JWW_CENTER1
 62
     4
370
     9
100
AcDbLine
 10
-352.4621911951013
 20
-321.7527069916596
 30
0.0
 11
-352.4621911951013
 21
-330.5202422270904
 31
0.0
  0
LINE
  5
D7
330
1F
100
AcDbEntity
  8
通り芯
  6
JWW_CENTER1
 62
     4
370
     9
100
AcDbLine
 10
-326.8390552417651
 20
-326.2838250237542
 30
0.0
 11
-317.8379368137668
 21
-326.2838250237542
 31
0.0
  0
LINE
  5
D8
330
1F
100
AcDbEntity
  8
通り芯
  6
JWW_CENTER1
 62
     4
370
     9
100
AcDbLine
 10
-322.4620922191723
 20
-321.7527069916596
 30
0.0
 11
-322.4620922191723
 21
-330.5202422270904
 31
0.0
  0
LINE
  5
D9
330
1F
100
AcDbEntity
  8
通り芯
  6
JWW_CENTER1
 62
     4
370
     9
100
AcDbLine
 10
-536.8390057538006
 20
-276.2837837837838
 30
0.0
 11
-527.8378873258023
 21
-276.2837837837838
 31
0.0
  0
LINE
  5
DA
330
1F
100
AcDbEntity
  8
通り芯
  6
JWW_CENTER1
 62
     4
370
     9
100
AcDbLine
 10
-532.4621664511191
 20
-271.7527894716005
 30
0.0
 11
-532.4621664511191
 21
-280.5202009871199
 31
0.0
  0
LINE
  5
DB
330
1F
100
AcDbEntity
  8
通り芯
  6
JWW_CENTER1
 62
     4
370
     9
100
AcDbLine
 10
-506.8391542176942
 20
-276.2837837837838
 30
0.0
 11
-497.8377883498733
 21
-276.2837837837838
 31
0.0
  0
LINE
  5
DC
330
1F
100
AcDbEntity
  8
通り芯
  6
JWW_CENTER1
 62
     4
370
     9
100
AcDbLine
 10
-502.4621911951013
 20
-271.7527894716005
 30
0.0
 11
-502.4621911951013
 21
-280.5202009871199
 31
0.0
  0
LINE
  5
DD
330
1F
100
AcDbEntity
  8
通り芯
  6
JWW_CENTER1
 62
     4
370
     9
100
AcDbLine
 10
-476.8390552417652
 20
-276.2837837837838
 30
0.0
 11
-467.8379368137669
 21
-276.2837837837838
 31
0.0
  0
LINE
  5
DE
330
1F
100
AcDbEntity
  8
通り芯
  6
JWW_CENTER1
 62
     4
370
     9
100
AcDbLine
 10
-472.4620922191723
 20
-271.7527894716005
 30
0.0
 11
-472.4620922191723
 21
-280.5202009871199
 31
0.0
  0
LINE
  5
DF
330
1F
100
AcDbEntity
  8
通り芯
  6
JWW_CENTER1
 62
     4
370
     9
100
AcDbLine
 10
-446.8389562658361
 20
-276.2837837837838
 30
0.0
 11
-437.8378378378378
 21
-276.2837837837838
 31
0.0
  0
LINE
  5
E0
330
1F
100
AcDbEntity
  8
通り芯
  6
JWW_CENTER1
 62
     4
370
     9
100
AcDbLine
 10
-442.4622406830658
 20
-271.7527894716005
 30
0.0
 11
-442.4622406830658
 21
-280.5202009871199
 31
0.0
  0
LINE
  5
E1
330
1F
100
AcDbEntity
  8
通り芯
  6
JWW_CENTER1
 62
     4
370
     9
100
AcDbLine
 10
-416.8391047297297
 20
-276.2837837837838
 30
0.0
 11
-407.8377388619087
 21
-276.2837837837838
 31
0.0
  0
LINE
  5
E2
330
1F
100
AcDbEntity
  8
通り芯
  6
JWW_CENTER1
 62
     4
370
     9
100
AcDbLine
 10
-412.4621417071368
 20
-271.7527894716005
 30
0.0
 11
-412.4621417071368
 21
-280.5202009871199
 31
0.0
  0
LINE
  5
E3
330
1F
100
AcDbEntity
  8
通り芯
  6
JWW_CENTER1
 62
     4
370
     9
100
AcDbLine
 10
-386.8390057538006
 20
-276.2837837837838
 30
0.0
 11
-377.8378873258023
 21
-276.2837837837838
 31
0.0
  0
LINE
  5
E4
330
1F
100
AcDbEntity
  8
通り芯
  6
JWW_CENTER1
 62
     4
370
     9
100
AcDbLine
 10
-382.4620427312077
 20
-271.7527894716005
 30
0.0
 11
-382.4620427312077
 21
-280.5202009871199
 31
0.0
  0
LINE
  5
E5
330
1F
100
AcDbEntity
  8
通り芯
  6
JWW_CENTER1
 62
     4
370
     9
100
AcDbLine
 10
-356.8391542176943
 20
-276.2837837837838
 30
0.0
 11
-347.8377883498733
 21
-276.2837837837838
 31
0.0
  0
LINE
  5
E6
330
1F
100
AcDbEntity
  8
通り芯
  6
JWW_CENTER1
 62
     4
370
     9
100
AcDbLine
 10
-352.4621911951013
 20
-271.7527894716005
 30
0.0
 11
-352.4621911951013
 21
-280.5202009871199
 31
0.0
  0
LINE
  5
E7
330
1F
100
AcDbEntity
  8
通り芯
  6
JWW_CENTER1
 62
     4
370
     9
100
AcDbLine
 10
-326.8390552417651
 20
-276.2837837837838
 30
0.0
 11
-317.8379368137668
 21
-276.2837837837838
 31
0.0
  0
LINE
  5
E8
330
1F
100
AcDbEntity
  8
通り芯
  6
JWW_CENTER1
 62
     4
370
     9
100
AcDbLine
 10
-322.4620922191723
 20
-271.7527894716005
 30
0.0
 11
-322.4620922191723
 21
-280.5202009871199
 31
0.0
  0
LINE
  5
E9
330
1F
100
AcDbEntity
  8
通り芯
  6
JWW_CENTER1
 62
     4
370
     9
100
AcDbLine
 10
385.5780524176521
 20
-326.2838250237542
 30
0.0
 11
394.5791708456505
 21
-326.2838250237542
 31
0.0
  0
LINE
  5
EA
330
1F
100
AcDbEntity
  8
通り芯
  6
JWW_CENTER1
 62
     4
370
     9
100
AcDbLine
 10
389.9550154402451
 20
-321.7527069916596
 30
0.0
 11
389.9550154402451
 21
-330.5202422270904
 31
0.0
  0
LINE
  5
EB
330
1F
100
AcDbEntity
  8
通り芯
  6
JWW_CENTER1
 62
     4
370
     9
100
AcDbLine
 10
415.5779039537586
 20
-326.2838250237542
 30
0.0
 11
424.5792698215794
 21
-326.2838250237542
 31
0.0
  0
LINE
  5
EC
330
1F
100
AcDbEntity
  8
通り芯
  6
JWW_CENTER1
 62
     4
370
     9
100
AcDbLine
 10
419.9548669763513
 20
-321.7527069916596
 30
0.0
 11
419.9548669763513
 21
-330.5202422270904
 31
0.0
  0
LINE
  5
ED
330
1F
100
AcDbEntity
  8
通り芯
  6
JWW_CENTER1
 62
     4
370
     9
100
AcDbLine
 10
445.5780029296875
 20
-326.2838250237542
 30
0.0
 11
454.5791213576859
 21
-326.2838250237542
 31
0.0
  0
LINE
  5
EE
330
1F
100
AcDbEntity
  8
通り芯
  6
JWW_CENTER1
 62
     4
370
     9
100
AcDbLine
 10
449.9549659522805
 20
-321.7527069916596
 30
0.0
 11
449.9549659522805
 21
-330.5202422270904
 31
0.0
  0
LINE
  5
EF
330
1F
100
AcDbEntity
  8
通り芯
  6
JWW_CENTER1
 62
     4
370
     9
100
AcDbLine
 10
475.577854465794
 20
-326.2838250237542
 30
0.0
 11
484.5792203336148
 21
-326.2838250237542
 31
0.0
  0
LINE
  5
F0
330
1F
100
AcDbEntity
  8
通り芯
  6
JWW_CENTER1
 62
     4
370
     9
100
AcDbLine
 10
479.954817488387
 20
-321.7527069916596
 30
0.0
 11
479.954817488387
 21
-330.5202422270904
 31
0.0
  0
LINE
  5
F1
330
1F
100
AcDbEntity
  8
通り芯
  6
JWW_CENTER1
 62
     4
370
     9
100
AcDbLine
 10
385.5780524176521
 20
-276.2837837837838
 30
0.0
 11
394.5791708456505
 21
-276.2837837837838
 31
0.0
  0
LINE
  5
F2
330
1F
100
AcDbEntity
  8
通り芯
  6
JWW_CENTER1
 62
     4
370
     9
100
AcDbLine
 10
389.9550154402451
 20
-271.7527894716005
 30
0.0
 11
389.9550154402451
 21
-280.5202009871199
 31
0.0
  0
LINE
  5
F3
330
1F
100
AcDbEntity
  8
通り芯
  6
JWW_CENTER1
 62
     4
370
     9
100
AcDbLine
 10
415.5779039537586
 20
-276.2837837837838
 30
0.0
 11
424.5792698215794
 21
-276.2837837837838
 31
0.0
  0
LINE
  5
F4
330
1F
100
AcDbEntity
  8
通り芯
  6
JWW_CENTER1
 62
     4
370
     9
100
AcDbLine
 10
419.9548669763513
 20
-271.7527894716005
 30
0.0
 11
419.9548669763513
 21
-280.5202009871199
 31
0.0
  0
LINE
  5
F5
330
1F
100
AcDbEntity
  8
通り芯
  6
JWW_CENTER1
 62
     4
370
     9
100
AcDbLine
 10
445.5780029296875
 20
-276.2837837837838
 30
0.0
 11
454.5791213576859
 21
-276.2837837837838
 31
0.0
  0
LINE
  5
F6
330
1F
100
AcDbEntity
  8
通り芯
  6
JWW_CENTER1
 62
     4
370
     9
100
AcDbLine
 10
449.9549659522805
 20
-271.7527894716005
 30
0.0
 11
449.9549659522805
 21
-280.5202009871199
 31
0.0
  0
LINE
  5
F7
330
1F
100
AcDbEntity
  8
通り芯
  6
JWW_CENTER1
 62
     4
370
     9
100
AcDbLine
 10
475.577854465794
 20
-276.2837837837838
 30
0.0
 11
484.5792203336148
 21
-276.2837837837838
 31
0.0
  0
LINE
  5
F8
330
1F
100
AcDbEntity
  8
通り芯
  6
JWW_CENTER1
 62
     4
370
     9
100
AcDbLine
 10
479.954817488387
 20
-271.7527894716005
 30
0.0
 11
479.954817488387
 21
-280.5202009871199
 31
0.0
  0
LINE
  5
F9
330
1F
100
AcDbEntity
  8
通り芯
  6
JWW_CENTER1
 62
     4
370
     9
100
AcDbLine
 10
-16.79040032464101
 20
-321.3597725533151
 30
0.0
 11
-16.79040032464101
 21
-331.3182356550886
 31
0.0
  0
LINE
  5
FA
330
1F
100
AcDbEntity
  8
通り芯
  6
JWW_CENTER1
 62
     4
370
     9
100
AcDbLine
 10
-11.35538462046028
 20
-326.2838250237542
 30
0.0
 11
-21.31384772223385
 21
-326.2838250237542
 31
0.0
  0
LINE
  5
FB
330
1F
100
AcDbEntity
  8
通り芯
  6
JWW_CENTER1
 62
     4
370
     9
100
AcDbLine
 10
10.70956668338269
 20
-321.3597725533151
 30
0.0
 11
10.70956668338269
 21
-331.3182356550886
 31
0.0
  0
LINE
  5
FC
330
1F
100
AcDbEntity
  8
通り芯
  6
JWW_CENTER1
 62
     4
370
     9
100
AcDbLine
 10
16.14470610747475
 20
-326.2838250237542
 30
0.0
 11
6.186243005701044
 21
-326.2838250237542
 31
0.0
  0
LINE
  5
FD
330
1F
100
AcDbEntity
  8
通り芯
  6
JWW_CENTER1
 62
     4
370
     9
100
AcDbLine
 10
38.20965741131758
 20
-321.3597725533151
 30
0.0
 11
38.20965741131758
 21
-331.3182356550886
 31
0.0
  0
LINE
  5
FE
330
1F
100
AcDbEntity
  8
通り芯
  6
JWW_CENTER1
 62
     4
370
     9
100
AcDbLine
 10
43.64467311549831
 20
-326.2838250237542
 30
0.0
 11
33.68621001372475
 21
-326.2838250237542
 31
0.0
  0
LINE
  5
FF
330
1F
100
AcDbEntity
  8
通り芯
  6
JWW_CENTER1
 62
     4
370
     9
100
AcDbLine
 10
65.70962441934128
 20
-321.3597725533151
 30
0.0
 11
65.70962441934128
 21
-331.3182356550886
 31
0.0
  0
LINE
  5
100
330
1F
100
AcDbEntity
  8
通り芯
  6
JWW_CENTER1
 62
     4
370
     9
100
AcDbLine
 10
71.14464012352201
 20
-326.2838250237542
 30
0.0
 11
61.18617702174831
 21
-326.2838250237542
 31
0.0
  0
LINE
  5
101
330
1F
100
AcDbEntity
  8
通り芯
  6
JWW_CENTER1
 62
     4
370
     9
100
AcDbLine
 10
-16.79040032464101
 20
-271.6612367372255
 30
0.0
 11
-16.79040032464101
 21
-281.5509115683066
 31
0.0
  0
LINE
  5
102
330
1F
100
AcDbEntity
  8
通り芯
  6
JWW_CENTER1
 62
     4
370
     9
100
AcDbLine
 10
-12.08137306007174
 20
-276.2836600638724
 30
0.0
 11
-21.6113941089526
 21
-276.2836600638724
 31
0.0
  0
LINE
  5
103
330
1F
100
AcDbEntity
  8
通り芯
  6
JWW_CENTER1
 62
     4
370
     9
100
AcDbLine
 10
8.209682155299873
 20
-271.6612367372255
 30
0.0
 11
8.209682155299873
 21
-281.5509115683066
 31
0.0
  0
LINE
  5
104
330
1F
100
AcDbEntity
  8
通り芯
  6
JWW_CENTER1
 62
     4
370
     9
100
AcDbLine
 10
12.91858569995782
 20
-276.2836600638724
 30
0.0
 11
3.388564651076962
 21
-276.2836600638724
 31
0.0
  0
LINE
  5
105
330
1F
100
AcDbEntity
  8
通り芯
  6
JWW_CENTER1
 62
     4
370
     9
100
AcDbLine
 10
33.20964091532943
 20
-271.6612367372255
 30
0.0
 11
33.20964091532943
 21
-281.5509115683066
 31
0.0
  0
LINE
  5
106
330
1F
100
AcDbEntity
  8
通り芯
  6
JWW_CENTER1
 62
     4
370
     9
100
AcDbLine
 10
37.9186681798987
 20
-276.2836600638724
 30
0.0
 11
28.38877085092918
 21
-276.2836600638724
 31
0.0
  0
LINE
  5
107
330
1F
100
AcDbEntity
  8
通り芯
  6
JWW_CENTER1
 62
     4
370
     9
100
AcDbLine
 10
58.20972339527032
 20
-271.6612367372255
 30
0.0
 11
58.20972339527032
 21
-281.5509115683066
 31
0.0
  0
LINE
  5
108
330
1F
100
AcDbEntity
  8
通り芯
  6
JWW_CENTER1
 62
     4
370
     9
100
AcDbLine
 10
62.91875065983959
 20
-276.2836600638724
 30
0.0
 11
53.3886058910474
 21
-276.2836600638724
 31
0.0
  0
LINE
  5
109
330
1F
100
AcDbEntity
  8
通り芯
  6
JWW_CENTER1
 62
     4
370
     9
100
AcDbLine
 10
83.2098058752112
 20
-271.6612367372255
 30
0.0
 11
83.2098058752112
 21
-281.5509115683066
 31
0.0
  0
LINE
  5
10A
330
1F
100
AcDbEntity
  8
通り芯
  6
JWW_CENTER1
 62
     4
370
     9
100
AcDbLine
 10
87.91883313978047
 20
-276.2836600638724
 30
0.0
 11
78.38868837098829
 21
-276.2836600638724
 31
0.0
  0
LINE
  5
10B
330
1F
100
AcDbEntity
  8
通り芯
  6
JWW_DASHED1
 62
     4
370
     9
100
AcDbLine
 10
98.20985536317579
 20
-156.2837590398015
 30
0.0
 11
98.20985536317579
 21
-216.283709551837
 31
0.0
  0
LINE
  5
10C
330
1F
100
AcDbEntity
  8
通り芯
  6
Continuous
 62
     4
370
     9
100
AcDbLine
 10
59.70970360008451
 20
-368.2837656381968
 30
0.0
 11
-6.790367332664573
 21
-368.2837656381968
 31
0.0
  0
LINE
  5
10D
330
1F
100
AcDbEntity
  8
通り芯
  6
Continuous
 62
     4
370
     9
100
AcDbLine
 10
111.7096772065034
 20
-316.2837920317779
 30
0.0
 11
59.70970360008451
 21
-368.2837656381968
 31
0.0
  0
LINE
  5
10E
330
1F
100
AcDbEntity
  8
通り芯
  6
Continuous
 62
     4
370
     9
100
AcDbLine
 10
354.9551474081505
 20
-126.283907503695
 30
0.0
 11
634.9550814241977
 21
-126.283907503695
 31
0.0
  0
LINE
  5
10F
330
1F
100
AcDbEntity
  8
通り芯
  6
Continuous
 62
     4
370
     9
100
AcDbLine
 10
618.455051731419
 20
-216.2838332717483
 30
0.0
 11
371.4549296611065
 21
-216.2838332717483
 31
0.0
  0
LINE
  5
110
330
1F
100
AcDbEntity
  8
通り芯
  6
Continuous
 62
     4
370
     9
100
AcDbLine
 10
419.955114416174
 20
-368.2838893581081
 30
0.0
 11
569.9548669763516
 21
-368.2838893581081
 31
0.0
  0
LINE
  5
111
330
1F
100
AcDbEntity
  8
通り芯
  6
Continuous
 62
     4
370
     9
100
AcDbLine
 10
644.955114416174
 20
-374.7837623389992
 30
0.0
 11
644.955114416174
 21
-376.2837425438133
 31
0.0
  0
LINE
  5
112
330
1F
100
AcDbEntity
  8
通り芯
  6
Continuous
 62
     4
370
     9
100
AcDbLine
 10
569.9548669763516
 20
-368.2838893581081
 30
0.0
 11
569.9548669763516
 21
-376.2837425438133
 31
0.0
  0
LINE
  5
113
330
1F
100
AcDbEntity
  8
通り芯
  6
Continuous
 62
     4
370
     9
100
AcDbLine
 10
644.955114416174
 20
-376.2837425438133
 30
0.0
 11
569.9548669763516
 21
-376.2837425438133
 31
0.0
  0
LINE
  5
114
330
1F
100
AcDbEntity
  8
通り芯
  6
Continuous
 62
     4
370
     9
100
AcDbLine
 10
618.455051731419
 20
-126.283907503695
 30
0.0
 11
618.455051731419
 21
-376.2837425438133
 31
0.0
  0
LINE
  5
115
330
1F
100
AcDbEntity
  8
通り芯
  6
Continuous
 62
     4
370
     9
100
AcDbLine
 10
634.9550814241977
 20
-374.7837623389992
 30
0.0
 11
634.9550814241977
 21
-376.2837425438133
 31
0.0
  0
LINE
  5
116
330
1F
100
AcDbEntity
  8
通り芯
  6
Continuous
 62
     4
370
     9
100
AcDbLine
 10
634.9550814241977
 20
-126.283907503695
 30
0.0
 11
644.955114416174
 21
-136.2838167757601
 31
0.0
  0
LINE
  5
117
330
1F
100
AcDbEntity
  8
通り芯
  6
Continuous
 62
     4
370
     9
100
AcDbLine
 10
644.955114416174
 20
-306.2838827597128
 30
0.0
 11
644.955114416174
 21
-136.2838167757601
 31
0.0
  0
LINE
  5
118
330
1F
100
AcDbEntity
  8
通り芯
  6
Continuous
 62
     4
370
     9
100
AcDbLine
 10
644.955114416174
 20
-306.2838827597128
 30
0.0
 11
634.9550814241977
 21
-316.2837920317779
 31
0.0
  0
LINE
  5
119
330
1F
100
AcDbEntity
  8
通り芯
  6
Continuous
 62
     4
370
     9
100
AcDbLine
 10
634.9550814241977
 20
-316.2837920317779
 30
0.0
 11
618.455051731419
 21
-316.2837920317779
 31
0.0
  0
LINE
  5
11A
330
1F
100
AcDbEntity
  8
通り芯
  6
JWW_DASHED1
 62
     4
370
     9
100
AcDbLine
 10
619.9550319362331
 20
-126.283907503695
 30
0.0
 11
619.9550319362331
 21
-316.2837920317779
 31
0.0
  0
LINE
  5
11B
330
1F
100
AcDbEntity
  8
通り芯
  6
JWW_DASHED1
 62
     4
370
     9
100
AcDbLine
 10
618.455051731419
 20
-374.7837623389992
 30
0.0
 11
569.9548669763516
 21
-374.7837623389992
 31
0.0
  0
LINE
  5
11C
330
1F
100
AcDbEntity
  8
通り芯
  6
Continuous
 62
     4
370
     9
100
AcDbLine
 10
619.9550319362331
 20
-316.2837920317779
 30
0.0
 11
619.9550319362331
 21
-374.7837623389992
 31
0.0
  0
LINE
  5
11D
330
1F
100
AcDbEntity
  8
通り芯
  6
Continuous
 62
     4
370
     9
100
AcDbLine
 10
644.955114416174
 20
-374.7837623389992
 30
0.0
 11
619.9550319362331
 21
-374.7837623389992
 31
0.0
  0
LINE
  5
11E
330
1F
100
AcDbEntity
  8
通り芯
  6
JWW_CENTER1
 62
     4
370
     9
100
AcDbLine
 10
604.332176414696
 20
-326.2838250237542
 30
0.0
 11
595.330810546875
 21
-326.2838250237542
 31
0.0
  0
LINE
  5
11F
330
1F
100
AcDbEntity
  8
通り芯
  6
JWW_CENTER1
 62
     4
370
     9
100
AcDbLine
 10
599.9552133921031
 20
-321.7527069916596
 30
0.0
 11
599.9552133921031
 21
-330.5202422270904
 31
0.0
  0
LINE
  5
120
330
1F
100
AcDbEntity
  8
通り芯
  6
JWW_CENTER1
 62
     4
370
     9
100
AcDbLine
 10
574.3320774387669
 20
-326.2838250237542
 30
0.0
 11
565.3309590107688
 21
-326.2838250237542
 31
0.0
  0
LINE
  5
121
330
1F
100
AcDbEntity
  8
通り芯
  6
JWW_CENTER1
 62
     4
370
     9
100
AcDbLine
 10
569.9553618559967
 20
-321.7527069916596
 30
0.0
 11
569.9553618559967
 21
-330.5202422270904
 31
0.0
  0
LINE
  5
122
330
1F
100
AcDbEntity
  8
通り芯
  6
JWW_CENTER1
 62
     4
370
     9
100
AcDbLine
 10
544.3322259026606
 20
-326.2838250237542
 30
0.0
 11
535.3308600348396
 21
-326.2838250237542
 31
0.0
  0
LINE
  5
123
330
1F
100
AcDbEntity
  8
通り芯
  6
JWW_CENTER1
 62
     4
370
     9
100
AcDbLine
 10
539.955015440245
 20
-321.7527069916596
 30
0.0
 11
539.955015440245
 21
-330.5202422270904
 31
0.0
  0
LINE
  5
124
330
1F
100
AcDbEntity
  8
通り芯
  6
JWW_CENTER1
 62
     4
370
     9
100
AcDbLine
 10
514.3321269267315
 20
-326.2838250237542
 30
0.0
 11
505.3307610589107
 21
-326.2838250237542
 31
0.0
  0
LINE
  5
125
330
1F
100
AcDbEntity
  8
通り芯
  6
JWW_CENTER1
 62
     4
370
     9
100
AcDbLine
 10
509.9551639041385
 20
-321.7527069916596
 30
0.0
 11
509.9551639041385
 21
-330.5202422270904
 31
0.0
  0
LINE
  5
126
330
1F
100
AcDbEntity
  8
通り芯
  6
JWW_CENTER1
 62
     4
370
     9
100
AcDbLine
 10
604.332176414696
 20
-276.2837837837838
 30
0.0
 11
595.330810546875
 21
-276.2837837837838
 31
0.0
  0
LINE
  5
127
330
1F
100
AcDbEntity
  8
通り芯
  6
JWW_CENTER1
 62
     4
370
     9
100
AcDbLine
 10
599.9552133921031
 20
-271.7527894716005
 30
0.0
 11
599.9552133921031
 21
-280.5202009871199
 31
0.0
  0
LINE
  5
128
330
1F
100
AcDbEntity
  8
通り芯
  6
JWW_CENTER1
 62
     4
370
     9
100
AcDbLine
 10
574.3320774387669
 20
-276.2837837837838
 30
0.0
 11
565.3309590107688
 21
-276.2837837837838
 31
0.0
  0
LINE
  5
129
330
1F
100
AcDbEntity
  8
通り芯
  6
JWW_CENTER1
 62
     4
370
     9
100
AcDbLine
 10
569.9553618559967
 20
-271.7527894716005
 30
0.0
 11
569.9553618559967
 21
-280.5202009871199
 31
0.0
  0
LINE
  5
12A
330
1F
100
AcDbEntity
  8
通り芯
  6
JWW_CENTER1
 62
     4
370
     9
100
AcDbLine
 10
544.3322259026606
 20
-276.2837837837838
 30
0.0
 11
535.3308600348396
 21
-276.2837837837838
 31
0.0
  0
LINE
  5
12B
330
1F
100
AcDbEntity
  8
通り芯
  6
JWW_CENTER1
 62
     4
370
     9
100
AcDbLine
 10
539.955015440245
 20
-271.7527894716005
 30
0.0
 11
539.955015440245
 21
-280.5202009871199
 31
0.0
  0
LINE
  5
12C
330
1F
100
AcDbEntity
  8
通り芯
  6
JWW_CENTER1
 62
     4
370
     9
100
AcDbLine
 10
514.3321269267315
 20
-276.2837837837838
 30
0.0
 11
505.3307610589107
 21
-276.2837837837838
 31
0.0
  0
LINE
  5
12D
330
1F
100
AcDbEntity
  8
通り芯
  6
JWW_CENTER1
 62
     4
370
     9
100
AcDbLine
 10
509.9551639041385
 20
-271.7527894716005
 30
0.0
 11
509.9551639041385
 21
-280.5202009871199
 31
0.0
  0
LINE
  5
12E
330
1F
100
AcDbEntity
  8
F-0ﾚｲﾔ
  6
Continuous
 62
     4
370
     9
100
AcDbLine
 10
336.9813661317568
 20
371.4403059675888
 30
0.0
 11
386.9812836518159
 21
321.440141007707
 31
0.0
  0
LINE
  5
12F
330
1F
100
AcDbEntity
  8
F-0ﾚｲﾔ
  6
Continuous
 62
     4
370
     9
100
AcDbLine
 10
254.480722788218
 20
371.4403059675888
 30
0.0
 11
254.480722788218
 21
333.940800847234
 31
0.0
  0
LINE
  5
130
330
1F
100
AcDbEntity
  8
F-0ﾚｲﾔ
  6
Continuous
 62
     4
370
     9
100
AcDbLine
 10
261.9811186919341
 20
371.4403059675888
 30
0.0
 11
261.9811186919341
 21
333.940800847234
 31
0.0
  0
LINE
  5
131
330
1F
100
AcDbEntity
  8
F-0ﾚｲﾔ
  6
Continuous
 62
     4
370
     9
100
AcDbLine
 10
674.9720393000422
 20
371.4403059675888
 30
0.0
 11
477.4581496779984
 21
371.4403059675888
 31
0.0
  0
LINE
  5
132
330
1F
100
AcDbEntity
  8
F-2ﾚｲﾔ
  6
Continuous
 62
     3
370
     9
100
AcDbLine
 10
652.4718413481842
 20
368.9401739996833
 30
0.0
 11
652.4718413481842
 21
358.9406358873522
 31
0.0
  0
LINE
  5
133
330
1F
100
AcDbEntity
  8
F-2ﾚｲﾔ
  6
Continuous
 62
     3
370
     9
100
AcDbLine
 10
652.4718413481842
 20
368.9401739996833
 30
0.0
 11
477.4581496779984
 21
368.9401739996833
 31
0.0
  0
LINE
  5
134
330
1F
100
AcDbEntity
  8
F-Fﾚｲﾔ
  6
Continuous
 62
     7
370
     9
100
AcDbLine
 10
251.9815805796031
 20
383.941460686761
 30
0.0
 11
251.9815805796031
 21
448.5668038033151
 31
0.0
  0
LINE
  5
135
330
1F
100
AcDbEntity
  8
F-Fﾚｲﾔ
  6
Continuous
 62
     7
370
     9
100
AcDbLine
 10
251.9815805796031
 20
447.0668235985009
 30
0.0
 11
239.5885570629224
 21
448.698441788957
 31
0.0
  0
LINE
  5
136
330
1F
100
AcDbEntity
  8
F-Fﾚｲﾔ
  6
Continuous
 62
     7
370
     9
100
AcDbLine
 10
251.9815805796031
 20
447.0668235985009
 30
0.0
 11
239.5885570629224
 21
445.4352054080448
 31
0.0
  0
LINE
  5
137
330
1F
100
AcDbEntity
  8
F-Fﾚｲﾔ
  6
Continuous
 62
     7
370
     9
100
AcDbLine
 10
254.480722788218
 20
386.4406028953759
 30
0.0
 11
254.480722788218
 21
448.5668038033151
 31
0.0
  0
LINE
  5
138
330
1F
100
AcDbEntity
  8
F-Fﾚｲﾔ
  6
Continuous
 62
     7
370
     9
100
AcDbLine
 10
261.9811186919341
 20
386.4406028953759
 30
0.0
 11
261.9811186919341
 21
448.5668038033151
 31
0.0
  0
LINE
  5
139
330
1F
100
AcDbEntity
  8
F-Fﾚｲﾔ
  6
Continuous
 62
     7
370
     9
100
AcDbLine
 10
261.9811186919341
 20
447.0668235985009
 30
0.0
 11
274.3743896484375
 21
448.698441788957
 31
0.0
  0
LINE
  5
13A
330
1F
100
AcDbEntity
  8
F-Fﾚｲﾔ
  6
Continuous
 62
     7
370
     9
100
AcDbLine
 10
261.9811186919341
 20
447.0668235985009
 30
0.0
 11
274.3743896484375
 21
445.4352054080448
 31
0.0
  0
LINE
  5
13B
330
1F
100
AcDbEntity
  8
F-Fﾚｲﾔ
  6
Continuous
 62
     7
370
     9
100
AcDbLine
 10
652.4718413481842
 20
383.9404709274704
 30
0.0
 11
652.4718413481842
 21
448.5668038033151
 31
0.0
  0
LINE
  5
13C
330
1F
100
AcDbEntity
  8
F-Fﾚｲﾔ
  6
Continuous
 62
     7
370
     9
100
AcDbLine
 10
652.4718413481842
 20
447.0668235985009
 30
0.0
 11
640.0785703916807
 21
448.698441788957
 31
0.0
  0
LINE
  5
13D
330
1F
100
AcDbEntity
  8
F-Fﾚｲﾔ
  6
Continuous
 62
     7
370
     9
100
AcDbLine
 10
652.4718413481842
 20
447.0668235985009
 30
0.0
 11
640.0785703916807
 21
445.4352054080448
 31
0.0
  0
LINE
  5
13E
330
1F
100
AcDbEntity
  8
F-Fﾚｲﾔ
  6
Continuous
 62
     7
370
     9
100
AcDbLine
 10
667.471643396326
 20
386.4406028953759
 30
0.0
 11
667.471643396326
 21
448.5668038033151
 31
0.0
  0
LINE
  5
13F
330
1F
100
AcDbEntity
  8
F-Fﾚｲﾔ
  6
Continuous
 62
     7
370
     9
100
AcDbLine
 10
674.9720393000422
 20
386.4406028953759
 30
0.0
 11
674.9720393000422
 21
448.5668038033151
 31
0.0
  0
LINE
  5
140
330
1F
100
AcDbEntity
  8
F-Fﾚｲﾔ
  6
Continuous
 62
     7
370
     9
100
AcDbLine
 10
674.9720393000422
 20
447.0668235985009
 30
0.0
 11
687.3650628167231
 21
448.698441788957
 31
0.0
  0
LINE
  5
141
330
1F
100
AcDbEntity
  8
F-Fﾚｲﾔ
  6
Continuous
 62
     7
370
     9
100
AcDbLine
 10
674.9720393000422
 20
447.0668235985009
 30
0.0
 11
687.3650628167231
 21
445.4352054080448
 31
0.0
  0
LINE
  5
142
330
1F
100
AcDbEntity
  8
F-Fﾚｲﾔ
  6
Continuous
 62
     7
370
     9
100
AcDbLine
 10
477.4581496779984
 20
447.0668235985009
 30
0.0
 11
715.2146622941302
 21
447.0668235985009
 31
0.0
  0
LINE
  5
143
330
1F
100
AcDbEntity
  8
F-2ﾚｲﾔ
  6
Continuous
 62
     3
370
     9
100
AcDbLine
 10
477.4581496779984
 20
358.9406358873522
 30
0.0
 11
652.4718413481842
 21
358.9406358873522
 31
0.0
  0
LINE
  5
144
330
1F
100
AcDbEntity
  8
F-Fﾚｲﾔ
  6
Continuous
 62
     7
370
     9
100
AcDbLine
 10
232.1361644847974
 20
142.8073944916596
 30
0.0
 11
504.8173234269427
 21
142.8073944916596
 31
0.0
  0
LINE
  5
145
330
1F
100
AcDbEntity
  8
F-Fﾚｲﾔ
  6
Continuous
 62
     7
370
     9
100
AcDbLine
 10
61.98144861169766
 20
447.0668235985009
 30
0.0
 11
299.0327577333193
 21
447.0668235985009
 31
0.0
  0
LINE
  5
146
330
1F
100
AcDbEntity
  8
F-2ﾚｲﾔ
  6
Continuous
 62
     3
370
     9
100
AcDbLine
 10
61.98144861169766
 20
368.9411637589739
 30
0.0
 11
251.9815805796031
 21
368.9411637589739
 31
0.0
  0
LINE
  5
147
330
1F
100
AcDbEntity
  8
F-2ﾚｲﾔ
  6
Continuous
 62
     3
370
     9
100
AcDbLine
 10
61.98144861169766
 20
343.9408338392104
 30
0.0
 11
246.9813166437922
 21
343.9408338392104
 31
0.0
  0
LINE
  5
148
330
1F
100
AcDbEntity
  8
F-0ﾚｲﾔ
  6
Continuous
 62
     4
370
     9
100
AcDbLine
 10
386.9812836518159
 20
221.4403059675887
 30
0.0
 11
386.9812836518159
 21
321.440141007707
 31
0.0
  0
LINE
  5
149
330
1F
100
AcDbEntity
  8
F-0ﾚｲﾔ
  6
Continuous
 62
     4
370
     9
100
AcDbLine
 10
261.9811186919341
 20
308.9409658071157
 30
0.0
 11
261.9811186919341
 21
221.4403059675887
 31
0.0
  0
LINE
  5
14A
330
1F
100
AcDbEntity
  8
F-0ﾚｲﾔ
  6
Continuous
 62
     4
370
     9
100
AcDbLine
 10
254.480722788218
 20
308.9409658071157
 30
0.0
 11
254.480722788218
 21
221.4403059675887
 31
0.0
  0
LINE
  5
14B
330
1F
100
AcDbEntity
  8
通り芯
  6
Continuous
 62
     4
370
     9
100
AcDbLine
 10
-306.4621384079392
 20
411.2575799065668
 30
0.0
 11
-548.4621202623522
 21
411.2575799065668
 31
0.0
  0
LINE
  5
14C
330
1F
100
AcDbEntity
  8
0-F
  6
Continuous
 62
     7
370
     9
100
AcDbLine
 10
-577.46206747519
 20
462.7577250712628
 30
0.0
 11
-277.46206747519
 21
462.7577250712628
 31
0.0
  0
LINE
  5
14D
330
1F
100
AcDbEntity
  8
0-F
  6
Continuous
 62
     7
370
     9
100
AcDbLine
 10
-577.46206747519
 20
425.2577250712628
 30
0.0
 11
-577.46206747519
 21
464.257705276077
 31
0.0
  0
LINE
  5
14E
330
1F
100
AcDbEntity
  8
0-F
  6
Continuous
 62
     7
370
     9
100
AcDbLine
 10
-277.46206747519
 20
425.2577250712628
 30
0.0
 11
-277.46206747519
 21
464.257705276077
 31
0.0
  0
LINE
  5
14F
330
1F
100
AcDbEntity
  8
0-F
  6
Continuous
 62
     7
370
     9
100
AcDbLine
 10
-577.46206747519
 20
462.7577250712628
 30
0.0
 11
-565.0690439585093
 21
464.3893432617188
 31
0.0
  0
LINE
  5
150
330
1F
100
AcDbEntity
  8
0-F
  6
Continuous
 62
     7
370
     9
100
AcDbLine
 10
-577.46206747519
 20
462.7577250712628
 30
0.0
 11
-565.0690439585093
 21
461.1261068808067
 31
0.0
  0
LINE
  5
151
330
1F
100
AcDbEntity
  8
0-F
  6
Continuous
 62
     7
370
     9
100
AcDbLine
 10
-277.46206747519
 20
462.7577250712628
 30
0.0
 11
-289.8551528518265
 21
464.3893432617188
 31
0.0
  0
LINE
  5
152
330
1F
100
AcDbEntity
  8
0-F
  6
Continuous
 62
     7
370
     9
100
AcDbLine
 10
-277.46206747519
 20
462.7577250712628
 30
0.0
 11
-289.8551528518265
 21
461.1261068808067
 31
0.0
  0
LINE
  5
153
330
1F
100
AcDbEntity
  8
0-F
  6
Continuous
 62
     7
370
     9
100
AcDbLine
 10
-627.4621087151605
 20
237.7574776314401
 30
0.0
 11
-627.4621087151605
 21
412.7578075512037
 31
0.0
  0
LINE
  5
154
330
1F
100
AcDbEntity
  8
0-F
  6
Continuous
 62
     7
370
     9
100
AcDbLine
 10
-554.9621169631546
 20
237.7574776314401
 30
0.0
 11
-628.9620889199746
 21
237.7574776314401
 31
0.0
  0
LINE
  5
155
330
1F
100
AcDbEntity
  8
0-F
  6
Continuous
 62
     7
370
     9
100
AcDbLine
 10
-589.9621087151605
 20
412.7578075512037
 30
0.0
 11
-628.9620889199746
 21
412.7578075512037
 31
0.0
  0
LINE
  5
156
330
1F
100
AcDbEntity
  8
0-F
  6
Continuous
 62
     7
370
     9
100
AcDbLine
 10
-627.4621087151605
 20
237.7574776314401
 30
0.0
 11
-629.0937269056166
 21
250.1507485879435
 31
0.0
  0
LINE
  5
157
330
1F
100
AcDbEntity
  8
0-F
  6
Continuous
 62
     7
370
     9
100
AcDbLine
 10
-627.4621087151605
 20
237.7574776314401
 30
0.0
 11
-625.8304905247044
 21
250.1507485879435
 31
0.0
  0
LINE
  5
158
330
1F
100
AcDbEntity
  8
0-F
  6
Continuous
 62
     7
370
     9
100
AcDbLine
 10
-627.4621087151605
 20
412.7578075512037
 30
0.0
 11
-629.0937269056166
 21
400.3645365947003
 31
0.0
  0
LINE
  5
159
330
1F
100
AcDbEntity
  8
0-F
  6
Continuous
 62
     7
370
     9
100
AcDbLine
 10
-627.4621087151605
 20
412.7578075512037
 30
0.0
 11
-625.8304905247044
 21
400.3645365947003
 31
0.0
  0
LINE
  5
15A
330
1F
100
AcDbEntity
  8
0-F
  6
Continuous
 62
     7
370
     9
100
AcDbLine
 10
-550.4620526288006
 20
-76.2838662637246
 30
0.0
 11
-304.4620823215793
 21
-76.2838662637246
 31
0.0
  0
LINE
  5
15B
330
1F
100
AcDbEntity
  8
0-F
  6
Continuous
 62
     7
370
     9
100
AcDbLine
 10
-550.4620526288006
 20
-114.2838184253589
 30
0.0
 11
-550.4620526288006
 21
-74.78388605891041
 31
0.0
  0
LINE
  5
15C
330
1F
100
AcDbEntity
  8
0-F
  6
Continuous
 62
     7
370
     9
100
AcDbLine
 10
-304.4620823215793
 20
-114.2838184253589
 30
0.0
 11
-304.4620823215793
 21
-74.78388605891041
 31
0.0
  0
LINE
  5
15D
330
1F
100
AcDbEntity
  8
0-F
  6
Continuous
 62
     7
370
     9
100
AcDbLine
 10
-550.4620526288006
 20
-76.2838662637246
 30
0.0
 11
-538.0690291121199
 21
-74.65237179317981
 31
0.0
  0
LINE
  5
15E
330
1F
100
AcDbEntity
  8
0-F
  6
Continuous
 62
     7
370
     9
100
AcDbLine
 10
-550.4620526288006
 20
-76.2838662637246
 30
0.0
 11
-538.0690291121199
 21
-77.9153607342694
 31
0.0
  0
LINE
  5
15F
330
1F
100
AcDbEntity
  8
0-F
  6
Continuous
 62
     7
370
     9
100
AcDbLine
 10
-304.4620823215793
 20
-76.2838662637246
 30
0.0
 11
-316.8552295581713
 21
-74.65237179317981
 31
0.0
  0
LINE
  5
160
330
1F
100
AcDbEntity
  8
0-F
  6
Continuous
 62
     7
370
     9
100
AcDbLine
 10
-304.4620823215793
 20
-76.2838662637246
 30
0.0
 11
-316.8552295581713
 21
-77.9153607342694
 31
0.0
  0
LINE
  5
161
330
1F
100
AcDbEntity
  8
0-F
  6
Continuous
 62
     7
370
     9
100
AcDbLine
 10
-552.4621087151604
 20
-36.2838580157306
 30
0.0
 11
-302.4620880951753
 21
-36.2838580157306
 31
0.0
  0
LINE
  5
162
330
1F
100
AcDbEntity
  8
0-F
  6
Continuous
 62
     7
370
     9
100
AcDbLine
 10
-552.4621087151604
 20
-113.7838662637246
 30
0.0
 11
-552.4621087151604
 21
-34.78387781091641
 31
0.0
  0
LINE
  5
163
330
1F
100
AcDbEntity
  8
0-F
  6
Continuous
 62
     7
370
     9
100
AcDbLine
 10
-302.4620880951753
 20
-113.7838662637246
 30
0.0
 11
-302.4620880951753
 21
-34.78387781091641
 31
0.0
  0
LINE
  5
164
330
1F
100
AcDbEntity
  8
0-F
  6
Continuous
 62
     7
370
     9
100
AcDbLine
 10
-552.4621087151604
 20
-36.2838580157306
 30
0.0
 11
-540.0690851984797
 21
-34.65223982527448
 31
0.0
  0
LINE
  5
165
330
1F
100
AcDbEntity
  8
0-F
  6
Continuous
 62
     7
370
     9
100
AcDbLine
 10
-552.4621087151604
 20
-36.2838580157306
 30
0.0
 11
-540.0690851984797
 21
-37.91547620618658
 31
0.0
  0
LINE
  5
166
330
1F
100
AcDbEntity
  8
0-F
  6
Continuous
 62
     7
370
     9
100
AcDbLine
 10
-302.4620880951753
 20
-36.2838580157306
 30
0.0
 11
-314.8551734718116
 21
-34.65223982527448
 31
0.0
  0
LINE
  5
167
330
1F
100
AcDbEntity
  8
0-F
  6
Continuous
 62
     7
370
     9
100
AcDbLine
 10
-302.4620880951753
 20
-36.2838580157306
 30
0.0
 11
-314.8551734718116
 21
-37.91547620618658
 31
0.0
  0
LINE
  5
168
330
1F
100
AcDbEntity
  8
0-F
  6
Continuous
 62
     7
370
     9
100
AcDbLine
 10
-34.79028650232252
 20
-76.2838662637246
 30
0.0
 11
108.709716796875
 21
-76.2838662637246
 31
0.0
  0
LINE
  5
169
330
1F
100
AcDbEntity
  8
0-F
  6
Continuous
 62
     7
370
     9
100
AcDbLine
 10
-34.79028650232252
 20
-114.2838184253589
 30
0.0
 11
-34.79028650232252
 21
-74.78388605891041
 31
0.0
  0
LINE
  5
16A
330
1F
100
AcDbEntity
  8
0-F
  6
Continuous
 62
     7
370
     9
100
AcDbLine
 10
108.709716796875
 20
-114.2838184253589
 30
0.0
 11
108.709716796875
 21
-74.78388605891041
 31
0.0
  0
LINE
  5
16B
330
1F
100
AcDbEntity
  8
0-F
  6
Continuous
 62
     7
370
     9
100
AcDbLine
 10
-34.79028650232252
 20
-76.2838662637246
 30
0.0
 11
-22.39720112568619
 21
-74.65237179317981
 31
0.0
  0
LINE
  5
16C
330
1F
100
AcDbEntity
  8
0-F
  6
Continuous
 62
     7
370
     9
100
AcDbLine
 10
-34.79028650232252
 20
-76.2838662637246
 30
0.0
 11
-22.39720112568619
 21
-77.9153607342694
 31
0.0
  0
LINE
  5
16D
330
1F
100
AcDbEntity
  8
0-F
  6
Continuous
 62
     7
370
     9
100
AcDbLine
 10
108.709716796875
 20
-76.2838662637246
 30
0.0
 11
96.31644584037176
 21
-74.65237179317981
 31
0.0
  0
LINE
  5
16E
330
1F
100
AcDbEntity
  8
0-F
  6
Continuous
 62
     7
370
     9
100
AcDbLine
 10
108.709716796875
 20
-76.2838662637246
 30
0.0
 11
96.31644584037176
 21
-77.9153607342694
 31
0.0
  0
LINE
  5
16F
330
1F
100
AcDbEntity
  8
0-F
  6
Continuous
 62
     7
370
     9
100
AcDbLine
 10
-36.79034258868242
 20
-36.2838580157306
 30
0.0
 11
113.2096574113176
 21
-36.2838580157306
 31
0.0
  0
LINE
  5
170
330
1F
100
AcDbEntity
  8
0-F
  6
Continuous
 62
     7
370
     9
100
AcDbLine
 10
-36.79034258868242
 20
-113.7837425438133
 30
0.0
 11
-36.79034258868242
 21
-34.78387781091641
 31
0.0
  0
LINE
  5
171
330
1F
100
AcDbEntity
  8
0-F
  6
Continuous
 62
     7
370
     9
100
AcDbLine
 10
113.2096574113176
 20
-113.7837425438133
 30
0.0
 11
113.2096574113176
 21
-34.78387781091641
 31
0.0
  0
LINE
  5
172
330
1F
100
AcDbEntity
  8
0-F
  6
Continuous
 62
     7
370
     9
100
AcDbLine
 10
-36.79034258868242
 20
-36.2838580157306
 30
0.0
 11
-24.39725721204596
 21
-34.65223982527448
 31
0.0
  0
LINE
  5
173
330
1F
100
AcDbEntity
  8
0-F
  6
Continuous
 62
     7
370
     9
100
AcDbLine
 10
-36.79034258868242
 20
-36.2838580157306
 30
0.0
 11
-24.39725721204596
 21
-37.91547620618658
 31
0.0
  0
LINE
  5
174
330
1F
100
AcDbEntity
  8
0-F
  6
Continuous
 62
     7
370
     9
100
AcDbLine
 10
113.2096574113176
 20
-36.2838580157306
 30
0.0
 11
100.8166338946369
 21
-34.65223982527448
 31
0.0
  0
LINE
  5
175
330
1F
100
AcDbEntity
  8
0-F
  6
Continuous
 62
     7
370
     9
100
AcDbLine
 10
113.2096574113176
 20
-36.2838580157306
 30
0.0
 11
100.8166338946369
 21
-37.91547620618658
 31
0.0
  0
LINE
  5
176
330
1F
100
AcDbEntity
  8
0-F
  6
Continuous
 62
     7
370
     9
100
AcDbLine
 10
-667.4621169631546
 20
-376.2837425438133
 30
0.0
 11
-667.4621169631546
 21
-126.283907503695
 31
0.0
  0
LINE
  5
177
330
1F
100
AcDbEntity
  8
0-F
  6
Continuous
 62
     7
370
     9
100
AcDbLine
 10
-589.9621087151605
 20
-376.2837425438133
 30
0.0
 11
-668.9620971679688
 21
-376.2837425438133
 31
0.0
  0
LINE
  5
178
330
1F
100
AcDbEntity
  8
0-F
  6
Continuous
 62
     7
370
     9
100
AcDbLine
 10
-579.9620757231842
 20
-126.283907503695
 30
0.0
 11
-668.9620971679688
 21
-126.283907503695
 31
0.0
  0
LINE
  5
179
330
1F
100
AcDbEntity
  8
0-F
  6
Continuous
 62
     7
370
     9
100
AcDbLine
 10
-667.4621169631546
 20
-376.2837425438133
 30
0.0
 11
-669.0937351536106
 21
-363.8907190271325
 31
0.0
  0
LINE
  5
17A
330
1F
100
AcDbEntity
  8
0-F
  6
Continuous
 62
     7
370
     9
100
AcDbLine
 10
-667.4621169631546
 20
-376.2837425438133
 30
0.0
 11
-665.8304987726984
 21
-363.8907190271325
 31
0.0
  0
LINE
  5
17B
330
1F
100
AcDbEntity
  8
0-F
  6
Continuous
 62
     7
370
     9
100
AcDbLine
 10
-667.4621169631546
 20
-126.283907503695
 30
0.0
 11
-669.0937351536106
 21
-138.6769310203758
 31
0.0
  0
LINE
  5
17C
330
1F
100
AcDbEntity
  8
0-F
  6
Continuous
 62
     7
370
     9
100
AcDbLine
 10
-667.4621169631546
 20
-126.283907503695
 30
0.0
 11
-665.8304987726984
 21
-138.6769310203758
 31
0.0
  0
LINE
  5
17D
330
1F
100
AcDbEntity
  8
0-F
  6
Continuous
 62
     7
370
     9
100
AcDbLine
 10
-502.46206747519
 20
-426.283907503695
 30
0.0
 11
-352.46206747519
 21
-426.283907503695
 31
0.0
  0
LINE
  5
17E
330
1F
100
AcDbEntity
  8
0-F
  6
Continuous
 62
     7
370
     9
100
AcDbLine
 10
-502.46206747519
 20
-388.7837837837838
 30
0.0
 11
-502.46206747519
 21
-427.7838877085093
 31
0.0
  0
LINE
  5
17F
330
1F
100
AcDbEntity
  8
0-F
  6
Continuous
 62
     7
370
     9
100
AcDbLine
 10
-352.46206747519
 20
-388.7837837837838
 30
0.0
 11
-352.46206747519
 21
-427.7838877085093
 31
0.0
  0
LINE
  5
180
330
1F
100
AcDbEntity
  8
0-F
  6
Continuous
 62
     7
370
     9
100
AcDbLine
 10
-502.46206747519
 20
-426.283907503695
 30
0.0
 11
-490.0690439585093
 21
-424.652289313239
 31
0.0
  0
LINE
  5
181
330
1F
100
AcDbEntity
  8
0-F
  6
Continuous
 62
     7
370
     9
100
AcDbLine
 10
-502.46206747519
 20
-426.283907503695
 30
0.0
 11
-490.0690439585093
 21
-427.9154019742398
 31
0.0
  0
LINE
  5
182
330
1F
100
AcDbEntity
  8
0-F
  6
Continuous
 62
     7
370
     9
100
AcDbLine
 10
-352.46206747519
 20
-426.283907503695
 30
0.0
 11
-364.855214711782
 21
-424.652289313239
 31
0.0
  0
LINE
  5
183
330
1F
100
AcDbEntity
  8
0-F
  6
Continuous
 62
     7
370
     9
100
AcDbLine
 10
-352.46206747519
 20
-426.283907503695
 30
0.0
 11
-364.855214711782
 21
-427.9154019742398
 31
0.0
  0
LINE
  5
184
330
1F
100
AcDbEntity
  8
0-F
  6
Continuous
 62
     7
370
     9
100
AcDbLine
 10
-339.9620262352195
 20
-368.2838893581081
 30
0.0
 11
-225.9621078903611
 21
-368.2838893581081
 31
0.0
  0
LINE
  5
185
330
1F
100
AcDbEntity
  8
0-F
  6
Continuous
 62
     7
370
     9
100
AcDbLine
 10
-264.9620880951753
 20
-376.2837425438133
 30
0.0
 11
-225.9621078903611
 21
-376.2837425438133
 31
0.0
  0
LINE
  5
186
330
1F
100
AcDbEntity
  8
0-F
  6
Continuous
 62
     7
370
     9
100
AcDbLine
 10
-227.4620880951753
 20
-368.2838893581081
 30
0.0
 11
-229.0936444256756
 21
-355.8908658414273
 31
0.0
  0
LINE
  5
187
330
1F
100
AcDbEntity
  8
0-F
  6
Continuous
 62
     7
370
     9
100
AcDbLine
 10
-227.4620880951753
 20
-368.2838893581081
 30
0.0
 11
-225.8305317646747
 21
-355.8908658414273
 31
0.0
  0
LINE
  5
188
330
1F
100
AcDbEntity
  8
0-F
  6
Continuous
 62
     7
370
     9
100
AcDbLine
 10
-227.4620880951753
 20
-376.2837425438133
 30
0.0
 11
-229.0936444256756
 21
-388.6768897804054
 31
0.0
  0
LINE
  5
189
330
1F
100
AcDbEntity
  8
0-F
  6
Continuous
 62
     7
370
     9
100
AcDbLine
 10
-227.4620880951753
 20
-376.2837425438133
 30
0.0
 11
-225.8305317646747
 21
-388.6768897804054
 31
0.0
  0
LINE
  5
18A
330
1F
100
AcDbEntity
  8
0-F
  6
Continuous
 62
     7
370
     9
100
AcDbLine
 10
-227.4620880951753
 20
-340.5316574509079
 30
0.0
 11
-227.4620880951753
 21
-398.2563987938133
 31
0.0
  0
LINE
  5
18B
330
1F
100
AcDbEntity
  8
0-F
  6
Continuous
 62
     7
370
     9
100
AcDbLine
 10
-6.790367332664573
 20
-426.283907503695
 30
0.0
 11
113.2096574113176
 21
-426.283907503695
 31
0.0
  0
LINE
  5
18C
330
1F
100
AcDbEntity
  8
0-F
  6
Continuous
 62
     7
370
     9
100
AcDbLine
 10
-6.790367332664573
 20
-388.7837837837838
 30
0.0
 11
-6.790367332664573
 21
-427.7838877085093
 31
0.0
  0
LINE
  5
18D
330
1F
100
AcDbEntity
  8
0-F
  6
Continuous
 62
     7
370
     9
100
AcDbLine
 10
59.70970360008451
 20
-380.7838068781672
 30
0.0
 11
59.70970360008451
 21
-427.7838877085093
 31
0.0
  0
LINE
  5
18E
330
1F
100
AcDbEntity
  8
0-F
  6
Continuous
 62
     7
370
     9
100
AcDbLine
 10
-6.790367332664573
 20
-426.283907503695
 30
0.0
 11
5.602779903927484
 21
-424.652289313239
 31
0.0
  0
LINE
  5
18F
330
1F
100
AcDbEntity
  8
0-F
  6
Continuous
 62
     7
370
     9
100
AcDbLine
 10
-6.790367332664573
 20
-426.283907503695
 30
0.0
 11
5.602779903927484
 21
-427.9154019742398
 31
0.0
  0
LINE
  5
190
330
1F
100
AcDbEntity
  8
0-F
  6
Continuous
 62
     7
370
     9
100
AcDbLine
 10
72.10272711676524
 20
-427.9152782543285
 30
0.0
 11
47.31668008340378
 21
-424.652289313239
 31
0.0
  0
LINE
  5
191
330
1F
100
AcDbEntity
  8
0-F
  6
Continuous
 62
     7
370
     9
100
AcDbLine
 10
72.10272711676524
 20
-424.6521655933277
 30
0.0
 11
47.31668008340378
 21
-427.9154019742398
 31
0.0
  0
LINE
  5
192
330
1F
100
AcDbEntity
  8
通り芯
  6
JWW_CENTER1
 62
     4
370
     9
100
AcDbLine
 10
-427.46206747519
 20
-113.1126857448268
 30
0.0
 11
-427.46206747519
 21
-391.7869609111063
 31
0.0
  0
LINE
  5
193
330
1F
100
AcDbEntity
  8
0-F
  6
Continuous
 62
     7
370
     9
100
AcDbLine
 10
-627.4621087151605
 20
-376.2837425438133
 30
0.0
 11
-627.4621087151605
 21
-276.283907503695
 31
0.0
  0
LINE
  5
194
330
1F
100
AcDbEntity
  8
0-F
  6
Continuous
 62
     7
370
     9
100
AcDbLine
 10
-549.339046993771
 20
-326.2838250237542
 30
0.0
 11
-628.9620889199746
 21
-326.2838250237542
 31
0.0
  0
LINE
  5
195
330
1F
100
AcDbEntity
  8
0-F
  6
Continuous
 62
     7
370
     9
100
AcDbLine
 10
-627.4621087151605
 20
-376.2837425438133
 30
0.0
 11
-629.0937269056166
 21
-363.8907190271325
 31
0.0
  0
LINE
  5
196
330
1F
100
AcDbEntity
  8
0-F
  6
Continuous
 62
     7
370
     9
100
AcDbLine
 10
-627.4621087151605
 20
-376.2837425438133
 30
0.0
 11
-625.8304905247044
 21
-363.8907190271325
 31
0.0
  0
LINE
  5
197
330
1F
100
AcDbEntity
  8
0-F
  6
Continuous
 62
     7
370
     9
100
AcDbLine
 10
-625.8304905247044
 20
-313.8908015070734
 30
0.0
 11
-629.0937269056166
 21
-338.6768485404349
 31
0.0
  0
LINE
  5
198
330
1F
100
AcDbEntity
  8
0-F
  6
Continuous
 62
     7
370
     9
100
AcDbLine
 10
-629.0937269056166
 20
-313.8908015070734
 30
0.0
 11
-625.8304905247044
 21
-338.6768485404349
 31
0.0
  0
LINE
  5
199
330
1F
100
AcDbEntity
  8
0-F
  6
Continuous
 62
     7
370
     9
100
AcDbLine
 10
-627.4621087151605
 20
-276.283907503695
 30
0.0
 11
-629.0937269056166
 21
-288.6769310203758
 31
0.0
  0
LINE
  5
19A
330
1F
100
AcDbEntity
  8
0-F
  6
Continuous
 62
     7
370
     9
100
AcDbLine
 10
-627.4621087151605
 20
-276.283907503695
 30
0.0
 11
-625.8304905247044
 21
-288.6769310203758
 31
0.0
  0
LINE
  5
19B
330
1F
100
AcDbEntity
  8
0-F
  6
Continuous
 62
     7
370
     9
100
AcDbLine
 10
-549.339046993771
 20
-276.283907503695
 30
0.0
 11
-628.9620889199746
 21
-276.283907503695
 31
0.0
  0
LINE
  5
19C
330
1F
100
AcDbEntity
  8
0-F
  6
Continuous
 62
     7
370
     9
100
AcDbLine
 10
-534.9370595571157
 20
-273.8088906777871
 30
0.0
 11
-582.4620839711782
 21
-226.2838662637246
 31
0.0
  0
LINE
  5
19D
330
1F
100
AcDbEntity
  8
0-F
  6
Continuous
 62
     7
370
     9
100
AcDbLine
 10
-534.9370595571157
 20
-273.8088906777871
 30
0.0
 11
-544.8539527686867
 21
-266.1993738122888
 31
0.0
  0
LINE
  5
19E
330
1F
100
AcDbEntity
  8
0-F
  6
Continuous
 62
     7
370
     9
100
AcDbLine
 10
-534.9370595571157
 20
-273.8088906777871
 30
0.0
 11
-542.546576422614
 21
-263.8919974662162
 31
0.0
  0
LINE
  5
19F
330
1F
100
AcDbEntity
  8
0-F
  6
Continuous
 62
     7
370
     9
100
AcDbLine
 10
-582.4620839711782
 20
-226.2838662637246
 30
0.0
 11
-625.6013612489442
 21
-226.2838662637246
 31
0.0
  0
LINE
  5
1A0
330
1F
100
AcDbEntity
  8
0-F
  6
Continuous
 62
     7
370
     9
100
AcDbLine
 10
-427.46206747519
 20
512.8697328309755
 30
0.0
 11
-429.0936856656461
 21
525.2627563476562
 31
0.0
  0
LINE
  5
1A1
330
1F
100
AcDbEntity
  8
0-F
  6
Continuous
 62
     7
370
     9
100
AcDbLine
 10
-427.46206747519
 20
512.8697328309755
 30
0.0
 11
-425.8304492847339
 21
525.2627563476562
 31
0.0
  0
LINE
  5
1A2
330
1F
100
AcDbEntity
  8
0-F
  6
Continuous
 62
     7
370
     9
100
AcDbLine
 10
-427.46206747519
 20
512.8697328309755
 30
0.0
 11
-427.46206747519
 21
537.8698153109165
 31
0.0
  0
LINE
  5
1A3
330
1F
100
AcDbEntity
  8
F-0ﾚｲﾔ
  6
Continuous
 62
     4
370
     9
100
AcDbLine
 10
674.9720393000422
 20
371.4403059675888
 30
0.0
 11
674.9720393000422
 21
221.4403059675887
 31
0.0
  0
LINE
  5
1A4
330
1F
100
AcDbEntity
  8
F-0ﾚｲﾔ
  6
Continuous
 62
     4
370
     9
100
AcDbLine
 10
667.471643396326
 20
371.4403059675888
 30
0.0
 11
667.471643396326
 21
221.4403059675887
 31
0.0
  0
LINE
  5
1A5
330
1F
100
AcDbEntity
  8
0-F
  6
Continuous
 62
     7
370
     9
100
AcDbLine
 10
431.8433606946792
 20
-433.4002768026816
 30
0.0
 11
558.066868137669
 21
-433.4002768026816
 31
0.0
  0
LINE
  5
1A6
330
1F
100
AcDbEntity
  8
F-Eﾚｲﾔ
  6
Continuous
 62
     7
370
     9
100
AcDbLine
 10
336.9813661317568
 20
371.4403059675888
 30
0.0
 11
341.7648727829393
 21
382.9888173696157
 31
0.0
  0
LINE
  5
1A7
330
1F
100
AcDbEntity
  8
F-Eﾚｲﾔ
  6
Continuous
 62
     7
370
     9
100
AcDbLine
 10
336.9813661317568
 20
371.4403059675888
 30
0.0
 11
344.5908829972552
 21
381.3571991791596
 31
0.0
  0
LINE
  5
1A8
330
1F
100
AcDbEntity
  8
F-Eﾚｲﾔ
  6
Continuous
 62
     7
370
     9
100
AcDbLine
 10
181.578270164696
 20
309.4306492161107
 30
0.0
 11
176.7947635135135
 21
297.881890374261
 31
0.0
  0
LINE
  5
1A9
330
1F
100
AcDbEntity
  8
F-Eﾚｲﾔ
  6
Continuous
 62
     7
370
     9
100
AcDbLine
 10
181.578270164696
 20
309.4306492161107
 30
0.0
 11
173.9687532991977
 21
299.5135085647171
 31
0.0
  0
LINE
  5
1AA
330
1F
100
AcDbEntity
  8
F-Eﾚｲﾔ
  6
Continuous
 62
     7
370
     9
100
AcDbLine
 10
195.4975025073902
 20
368.9411637589739
 30
0.0
 11
187.8879856418919
 21
378.8580569705448
 31
0.0
  0
LINE
  5
1AB
330
1F
100
AcDbEntity
  8
F-Eﾚｲﾔ
  6
Continuous
 62
     7
370
     9
100
AcDbLine
 10
195.4975025073902
 20
368.9411637589739
 30
0.0
 11
190.7139958562078
 21
380.4896751610009
 31
0.0
  0
LINE
  5
1AC
330
1F
100
AcDbEntity
  8
F-0ﾚｲﾔ
  6
Continuous
 62
     4
370
     9
100
AcDbLine
 10
205.3611961570947
 20
371.4403059675888
 30
0.0
 11
336.9813661317568
 21
371.4403059675888
 31
0.0
  0
LINE
  5
1AD
330
1F
100
AcDbEntity
  8
F-0ﾚｲﾔ
  6
Continuous
 62
     4
370
     9
100
AcDbLine
 10
61.98144861169766
 20
371.4403059675888
 30
0.0
 11
179.9186912742822
 21
371.4403059675888
 31
0.0
  0
LINE
  5
1AE
330
1F
100
AcDbEntity
  8
F-Eﾚｲﾔ
  6
Continuous
 62
     7
370
     9
100
AcDbLine
 10
195.4975025073902
 20
368.9411637589739
 30
0.0
 11
107.0904705975508
 21
522.066823598501
 31
0.0
  0
LINE
  5
1AF
330
1F
100
AcDbEntity
  8
F-Eﾚｲﾔ
  6
Continuous
 62
     7
370
     9
100
AcDbLine
 10
336.9813661317568
 20
371.4403059675888
 30
0.0
 11
423.9455764358109
 21
522.066823598501
 31
0.0
  0
LINE
  5
1B0
330
1F
100
AcDbEntity
  8
F-Eﾚｲﾔ
  6
Continuous
 62
     7
370
     9
100
AcDbLine
 10
423.9455764358109
 20
522.066823598501
 30
0.0
 11
530.0230283994932
 21
522.066823598501
 31
0.0
  0
LINE
  5
1B1
330
1F
100
AcDbEntity
  8
F-Eﾚｲﾔ
  6
Continuous
 62
     7
370
     9
100
AcDbLine
 10
181.578270164696
 20
309.4306492161107
 30
0.0
 11
123.8428889094173
 21
209.4300718565245
 31
0.0
  0
LINE
  5
1B2
330
1F
100
AcDbEntity
  8
F-Eﾚｲﾔ
  6
Continuous
 62
     7
370
     9
100
AcDbLine
 10
16.41169367609805
 20
209.4300718565245
 30
0.0
 11
123.8428889094173
 21
209.4300718565245
 31
0.0
  0
LINE
  5
1B3
330
1F
100
AcDbEntity
  8
F-Eﾚｲﾔ
  6
Continuous
 62
     7
370
     9
100
AcDbLine
 10
-91.29589183910468
 20
522.066823598501
 30
0.0
 11
107.0904705975508
 21
522.066823598501
 31
0.0
  0
LINE
  5
1B4
330
1F
100
AcDbEntity
  8
0-F
  6
Continuous
 62
     7
370
     9
100
AcDbLine
 10
-299.9620798471811
 20
237.7574776314401
 30
0.0
 11
-225.9621078903611
 21
237.7574776314401
 31
0.0
  0
LINE
  5
1B5
330
1F
100
AcDbEntity
  8
0-F
  6
Continuous
 62
     7
370
     9
100
AcDbLine
 10
-269.9621045911634
 20
262.757560111381
 30
0.0
 11
-225.9621078903611
 21
262.757560111381
 31
0.0
  0
LINE
  5
1B6
330
1F
100
AcDbEntity
  8
0-F
  6
Continuous
 62
     7
370
     9
100
AcDbLine
 10
-227.4620880951753
 20
237.7574776314401
 30
0.0
 11
-229.0936444256756
 21
225.364701554582
 31
0.0
  0
LINE
  5
1B7
330
1F
100
AcDbEntity
  8
0-F
  6
Continuous
 62
     7
370
     9
100
AcDbLine
 10
-227.4620880951753
 20
237.7574776314401
 30
0.0
 11
-225.8305317646747
 21
225.364701554582
 31
0.0
  0
LINE
  5
1B8
330
1F
100
AcDbEntity
  8
0-F
  6
Continuous
 62
     7
370
     9
100
AcDbLine
 10
-227.4620880951753
 20
216.5637619430954
 30
0.0
 11
-227.4620880951753
 21
412.7578075512037
 31
0.0
  0
LINE
  5
1B9
330
1F
100
AcDbEntity
  8
0-F
  6
Continuous
 62
     7
370
     9
100
AcDbLine
 10
-264.9620880951753
 20
412.7578075512037
 30
0.0
 11
-225.9621078903611
 21
412.7578075512037
 31
0.0
  0
LINE
  5
1BA
330
1F
100
AcDbEntity
  8
0-F
  6
Continuous
 62
     7
370
     9
100
AcDbLine
 10
-227.4620880951753
 20
262.757560111381
 30
0.0
 11
-229.0936444256756
 21
275.1505836280617
 31
0.0
  0
LINE
  5
1BB
330
1F
100
AcDbEntity
  8
0-F
  6
Continuous
 62
     7
370
     9
100
AcDbLine
 10
-227.4620880951753
 20
262.757560111381
 30
0.0
 11
-225.8305317646747
 21
275.1505836280617
 31
0.0
  0
LINE
  5
1BC
330
1F
100
AcDbEntity
  8
0-F
  6
Continuous
 62
     7
370
     9
100
AcDbLine
 10
-227.4620880951753
 20
412.7578075512037
 30
0.0
 11
-229.0936444256756
 21
400.3645365947003
 31
0.0
  0
LINE
  5
1BD
330
1F
100
AcDbEntity
  8
0-F
  6
Continuous
 62
     7
370
     9
100
AcDbLine
 10
-227.4620880951753
 20
412.7578075512037
 30
0.0
 11
-225.8305317646747
 21
400.3645365947003
 31
0.0
  0
LINE
  5
1BE
330
1F
100
AcDbEntity
  8
0-F
  6
Continuous
 62
     7
370
     9
100
AcDbLine
 10
-577.46206747519
 20
255.25765908731
 30
0.0
 11
-577.46206747519
 21
186.2575799065668
 31
0.0
  0
LINE
  5
1BF
330
1F
100
AcDbEntity
  8
0-F
  6
Continuous
 62
     7
370
     9
100
AcDbLine
 10
-552.4621087151604
 20
235.2575931033573
 30
0.0
 11
-552.4621087151604
 21
186.2575799065668
 31
0.0
  0
LINE
  5
1C0
330
1F
100
AcDbEntity
  8
0-F
  6
Continuous
 62
     7
370
     9
100
AcDbLine
 10
-577.46206747519
 20
187.757560111381
 30
0.0
 11
-589.8550909918707
 21
189.389178301837
 31
0.0
  0
LINE
  5
1C1
330
1F
100
AcDbEntity
  8
0-F
  6
Continuous
 62
     7
370
     9
100
AcDbLine
 10
-577.46206747519
 20
187.757560111381
 30
0.0
 11
-589.8550909918707
 21
186.1261893607475
 31
0.0
  0
LINE
  5
1C2
330
1F
100
AcDbEntity
  8
0-F
  6
Continuous
 62
     7
370
     9
100
AcDbLine
 10
-302.4620880951753
 20
235.2575931033573
 30
0.0
 11
-302.4620880951753
 21
186.2575799065668
 31
0.0
  0
LINE
  5
1C3
330
1F
100
AcDbEntity
  8
0-F
  6
Continuous
 62
     7
370
     9
100
AcDbLine
 10
-277.46206747519
 20
255.25765908731
 30
0.0
 11
-277.46206747519
 21
186.2575799065668
 31
0.0
  0
LINE
  5
1C4
330
1F
100
AcDbEntity
  8
0-F
  6
Continuous
 62
     7
370
     9
100
AcDbLine
 10
-277.46206747519
 20
187.757560111381
 30
0.0
 11
-265.0689820985536
 21
189.389178301837
 31
0.0
  0
LINE
  5
1C5
330
1F
100
AcDbEntity
  8
0-F
  6
Continuous
 62
     7
370
     9
100
AcDbLine
 10
-601.1205930967589
 20
187.757560111381
 30
0.0
 11
-253.771127236856
 21
187.757560111381
 31
0.0
  0
LINE
  5
1C6
330
1F
100
AcDbEntity
  8
0-F
  6
Continuous
 62
     7
370
     9
100
AcDbLine
 10
-277.46206747519
 20
187.757560111381
 30
0.0
 11
-265.0689820985536
 21
186.1261893607475
 31
0.0
  0
LINE
  5
1C7
330
1F
100
AcDbEntity
  8
0-F
  6
Continuous
 62
     7
370
     9
100
AcDbLine
 10
-502.4621911951013
 20
235.2575931033573
 30
0.0
 11
-502.4621911951013
 21
186.2575799065668
 31
0.0
  0
LINE
  5
1C8
330
1F
100
AcDbEntity
  8
0-F
  6
Continuous
 62
     7
370
     9
100
AcDbLine
 10
-552.4621087151604
 20
187.757560111381
 30
0.0
 11
-540.0690851984797
 21
189.389178301837
 31
0.0
  0
LINE
  5
1C9
330
1F
100
AcDbEntity
  8
0-F
  6
Continuous
 62
     7
370
     9
100
AcDbLine
 10
-552.4621087151604
 20
187.757560111381
 30
0.0
 11
-540.0690851984797
 21
186.1261893607475
 31
0.0
  0
LINE
  5
1CA
330
1F
100
AcDbEntity
  8
0-F
  6
Continuous
 62
     7
370
     9
100
AcDbLine
 10
-490.0691058184649
 20
186.1261893607475
 30
0.0
 11
-514.8552147117821
 21
189.389178301837
 31
0.0
  0
LINE
  5
1CB
330
1F
100
AcDbEntity
  8
0-F
  6
Continuous
 62
     7
370
     9
100
AcDbLine
 10
-490.0691058184649
 20
189.389178301837
 30
0.0
 11
-514.8552147117821
 21
186.1261893607475
 31
0.0
  0
LINE
  5
1CC
330
1F
100
AcDbEntity
  8
0-F
  6
Continuous
 62
     7
370
     9
100
AcDbLine
 10
-352.4621911951013
 20
235.2575931033573
 30
0.0
 11
-352.4621911951013
 21
186.2575799065668
 31
0.0
  0
LINE
  5
1CD
330
1F
100
AcDbEntity
  8
0-F
  6
Continuous
 62
     7
370
     9
100
AcDbLine
 10
-364.8552765717378
 20
186.1261893607475
 30
0.0
 11
-340.069105818465
 21
189.389178301837
 31
0.0
  0
LINE
  5
1CE
330
1F
100
AcDbEntity
  8
0-F
  6
Continuous
 62
     7
370
     9
100
AcDbLine
 10
-364.8552765717378
 20
189.389178301837
 30
0.0
 11
-340.069105818465
 21
186.1261893607475
 31
0.0
  0
LINE
  5
1CF
330
1F
100
AcDbEntity
  8
0-F
  6
Continuous
 62
     7
370
     9
100
AcDbLine
 10
-302.4620880951753
 20
187.757560111381
 30
0.0
 11
-314.8551734718116
 21
189.389178301837
 31
0.0
  0
LINE
  5
1D0
330
1F
100
AcDbEntity
  8
0-F
  6
Continuous
 62
     7
370
     9
100
AcDbLine
 10
-302.4620880951753
 20
187.757560111381
 30
0.0
 11
-314.8551734718116
 21
186.1261893607475
 31
0.0
  0
LINE
  5
1D1
330
1F
100
AcDbEntity
  8
0-F
  6
Continuous
 62
     7
370
     9
100
AcDbLine
 10
163.2098223711994
 20
-401.9187556086359
 30
0.0
 11
163.2098223711994
 21
-316.2837920317779
 31
0.0
  0
LINE
  5
1D2
330
1F
100
AcDbEntity
  8
0-F
  6
Continuous
 62
     7
370
     9
100
AcDbLine
 10
72.20986855996628
 20
-368.2837656381968
 30
0.0
 11
164.7098025760135
 21
-368.2837656381968
 31
0.0
  0
LINE
  5
1D3
330
1F
100
AcDbEntity
  8
0-F
  6
Continuous
 62
     7
370
     9
100
AcDbLine
 10
125.7098223711994
 20
-316.2837920317779
 30
0.0
 11
164.7098025760135
 21
-316.2837920317779
 31
0.0
  0
LINE
  5
1D4
330
1F
100
AcDbEntity
  8
0-F
  6
Continuous
 62
     7
370
     9
100
AcDbLine
 10
163.2098223711994
 20
-368.2837656381968
 30
0.0
 11
161.5782041807434
 21
-355.890742121516
 31
0.0
  0
LINE
  5
1D5
330
1F
100
AcDbEntity
  8
0-F
  6
Continuous
 62
     7
370
     9
100
AcDbLine
 10
163.2098223711994
 20
-368.2837656381968
 30
0.0
 11
164.8414405616555
 21
-355.890742121516
 31
0.0
  0
LINE
  5
1D6
330
1F
100
AcDbEntity
  8
0-F
  6
Continuous
 62
     7
370
     9
100
AcDbLine
 10
163.2098223711994
 20
-316.2837920317779
 30
0.0
 11
161.5782041807434
 21
-328.6768155484586
 31
0.0
  0
LINE
  5
1D7
330
1F
100
AcDbEntity
  8
0-F
  6
Continuous
 62
     7
370
     9
100
AcDbLine
 10
163.2098223711994
 20
-316.2837920317779
 30
0.0
 11
164.8414405616555
 21
-328.6768155484586
 31
0.0
  0
LINE
  5
1D8
330
1F
100
AcDbEntity
  8
0-F
  6
Continuous
 62
     7
370
     9
100
AcDbLine
 10
5.70967390730587
 20
-376.2837425438133
 30
0.0
 11
164.7098025760135
 21
-376.2837425438133
 31
0.0
  0
LINE
  5
1D9
330
1F
100
AcDbEntity
  8
0-F
  6
Continuous
 62
     7
370
     9
100
AcDbLine
 10
163.2098223711994
 20
-376.2837425438133
 30
0.0
 11
161.5782041807434
 21
-388.6768897804054
 31
0.0
  0
LINE
  5
1DA
330
1F
100
AcDbEntity
  8
0-F
  6
Continuous
 62
     7
370
     9
100
AcDbLine
 10
163.2098223711994
 20
-376.2837425438133
 30
0.0
 11
164.8414405616555
 21
-388.6768897804054
 31
0.0
  0
LINE
  5
1DB
330
1F
100
AcDbEntity
  8
0-F
  6
Continuous
 62
     7
370
     9
100
AcDbLine
 10
113.2096574113176
 20
-328.783709551837
 30
0.0
 11
113.2096574113176
 21
-427.7837639885979
 31
0.0
  0
LINE
  5
1DC
330
1F
100
AcDbEntity
  8
0-F
  6
Continuous
 62
     7
370
     9
100
AcDbLine
 10
113.2096574113176
 20
-426.283907503695
 30
0.0
 11
100.8166338946369
 21
-424.652289313239
 31
0.0
  0
LINE
  5
1DD
330
1F
100
AcDbEntity
  8
0-F
  6
Continuous
 62
     7
370
     9
100
AcDbLine
 10
113.2096574113176
 20
-426.283907503695
 30
0.0
 11
100.8166338946369
 21
-427.9152782543285
 31
0.0
  0
LINE
  5
1DE
330
1F
100
AcDbEntity
  8
0-F
  6
Continuous
 62
     7
370
     9
100
AcDbLine
 10
694.9552793760557
 20
-376.2837425438133
 30
0.0
 11
694.9552793760557
 21
-216.2838332717483
 31
0.0
  0
LINE
  5
1DF
330
1F
100
AcDbEntity
  8
0-F
  6
Continuous
 62
     7
370
     9
100
AcDbLine
 10
657.4552793760557
 20
-376.2837425438133
 30
0.0
 11
696.45525958087
 21
-376.2837425438133
 31
0.0
  0
LINE
  5
1E0
330
1F
100
AcDbEntity
  8
0-F
  6
Continuous
 62
     7
370
     9
100
AcDbLine
 10
630.9552166913008
 20
-216.2838332717483
 30
0.0
 11
696.45525958087
 21
-216.2838332717483
 31
0.0
  0
LINE
  5
1E1
330
1F
100
AcDbEntity
  8
0-F
  6
Continuous
 62
     7
370
     9
100
AcDbLine
 10
694.9552793760557
 20
-376.2837425438133
 30
0.0
 11
693.3236611855998
 21
-363.8907190271325
 31
0.0
  0
LINE
  5
1E2
330
1F
100
AcDbEntity
  8
0-F
  6
Continuous
 62
     7
370
     9
100
AcDbLine
 10
694.9552793760557
 20
-376.2837425438133
 30
0.0
 11
696.586897566512
 21
-363.8907190271325
 31
0.0
  0
LINE
  5
1E3
330
1F
100
AcDbEntity
  8
0-F
  6
Continuous
 62
     7
370
     9
100
AcDbLine
 10
694.9552793760557
 20
-216.2838332717483
 30
0.0
 11
693.3236611855998
 21
-228.676856788429
 31
0.0
  0
LINE
  5
1E4
330
1F
100
AcDbEntity
  8
0-F
  6
Continuous
 62
     7
370
     9
100
AcDbLine
 10
694.9552793760557
 20
-216.2838332717483
 30
0.0
 11
696.586897566512
 21
-228.676856788429
 31
0.0
  0
LINE
  5
1E5
330
1F
100
AcDbEntity
  8
通り芯
  6
JWW_DASHED1
 62
     4
370
     9
100
AcDbLine
 10
372.9549098659206
 20
-156.2837590398015
 30
0.0
 11
372.9549098659206
 21
-216.2838332717483
 31
0.0
  0
LINE
  5
1E6
330
1F
100
AcDbEntity
  8
通り芯
  6
JWW_DASHED1
 62
     4
370
     9
100
AcDbLine
 10
371.4549296611065
 20
-156.2837590398015
 30
0.0
 11
372.9549098659206
 21
-156.2837590398015
 31
0.0
  0
LINE
  5
1E7
330
1F
100
AcDbEntity
  8
通り芯
  6
JWW_DASHED1
 62
     4
370
     9
100
AcDbLine
 10
616.9550715266047
 20
-156.2837590398015
 30
0.0
 11
616.9550715266047
 21
-216.2838332717483
 31
0.0
  0
LINE
  5
1E8
330
1F
100
AcDbEntity
  8
通り芯
  6
JWW_DASHED1
 62
     4
370
     9
100
AcDbLine
 10
616.9550715266047
 20
-156.2837590398015
 30
0.0
 11
618.455051731419
 21
-156.2837590398015
 31
0.0
  0
LINE
  5
1E9
330
1F
100
AcDbEntity
  8
仕上
  6
Continuous
 62
     3
370
     9
100
AcDbLine
 10
-550.4620526288006
 20
408.2576194969384
 30
0.0
 11
-550.4620526288006
 21
264.7576161977407
 31
0.0
  0
LINE
  5
1EA
330
1F
100
AcDbEntity
  8
仕上
  6
Continuous
 62
     3
370
     9
100
AcDbLine
 10
-550.4620526288006
 20
264.7576161977407
 30
0.0
 11
-304.4620823215793
 21
264.7576161977407
 31
0.0
  0
LINE
  5
1EB
330
1F
100
AcDbEntity
  8
通り芯
  6
Continuous
 62
     4
370
     9
100
AcDbLine
 10
-550.9621285103462
 20
410.2576755832982
 30
0.0
 11
-550.9621285103462
 21
264.2577877560178
 31
0.0
  0
LINE
  5
1EC
330
1F
100
AcDbEntity
  8
通り芯
  6
Continuous
 62
     4
370
     9
100
AcDbLine
 10
-550.9621285103462
 20
264.2577877560178
 30
0.0
 11
-303.962130159945
 21
264.2577877560178
 31
0.0
  0
LINE
  5
1ED
330
1F
100
AcDbEntity
  8
仕上
  6
JWW_DASHED1
 62
     3
370
     9
100
AcDbLine
 10
371.9550055426521
 20
-126.783735945418
 30
0.0
 11
617.955223289696
 21
-126.783735945418
 31
0.0
  0
LINE
  5
1EE
330
1F
100
AcDbEntity
  8
仕上
  6
JWW_DASHED1
 62
     3
370
     9
100
AcDbLine
 10
617.955223289696
 20
-126.783735945418
 30
0.0
 11
617.955223289696
 21
-128.7837920317779
 31
0.0
  0
LINE
  5
1EF
330
1F
100
AcDbEntity
  8
仕上
  6
JWW_DASHED1
 62
     3
370
     9
100
AcDbLine
 10
-550.4620526288006
 20
-128.7837920317779
 30
0.0
 11
-367.4876032648859
 21
-128.7837920317779
 31
0.0
  0
LINE
  5
1F0
330
1F
100
AcDbEntity
  8
仕上
  6
JWW_DASHED1
 62
     3
370
     9
100
AcDbLine
 10
-550.4620526288006
 20
-126.783735945418
 30
0.0
 11
-550.4620526288006
 21
-128.7837920317779
 31
0.0
  0
LINE
  5
1F1
330
1F
100
AcDbEntity
  8
仕上
  6
JWW_DASHED1
 62
     3
370
     9
100
AcDbLine
 10
-549.4620245856207
 20
-131.7837524414062
 30
0.0
 11
-366.4648107580235
 21
-131.7837524414062
 31
0.0
  0
LINE
  5
1F2
330
1F
100
AcDbEntity
  8
仕上
  6
Continuous
 62
     3
370
     9
100
AcDbLine
 10
-367.4876032648859
 20
-128.7837920317779
 30
0.0
 11
-304.4620823215793
 21
-128.7837920317779
 31
0.0
  0
LINE
  5
1F3
330
1F
100
AcDbEntity
  8
仕上
  6
Continuous
 62
     3
370
     9
100
AcDbLine
 10
-304.4620823215793
 20
-126.783735945418
 30
0.0
 11
-304.4620823215793
 21
-128.7837920317779
 31
0.0
  0
LINE
  5
1F4
330
1F
100
AcDbEntity
  8
躯体
  6
JWW_DASHED1
 62
     2
370
     9
100
AcDbLine
 10
-34.79028650232252
 20
-128.7837920317779
 30
0.0
 11
-35.29036238386823
 21
-128.7837920317779
 31
0.0
  0
LINE
  5
1F5
330
1F
100
AcDbEntity
  8
仕上
  6
JWW_DASHED1
 62
     3
370
     9
100
AcDbLine
 10
371.9550055426521
 20
-128.7837920317779
 30
0.0
 11
617.955223289696
 21
-128.7837920317779
 31
0.0
  0
LINE
  5
1F6
330
1F
100
AcDbEntity
  8
仕上
  6
JWW_DASHED1
 62
     3
370
     9
100
AcDbLine
 10
371.9550055426521
 20
-126.783735945418
 30
0.0
 11
371.9550055426521
 21
-128.7837920317779
 31
0.0
  0
LINE
  5
1F7
330
1F
100
AcDbEntity
  8
仕上
  6
JWW_DASHED1
 62
     3
370
     9
100
AcDbLine
 10
372.9549098659206
 20
-131.7837524414062
 30
0.0
 11
616.9550715266047
 21
-131.7837524414062
 31
0.0
  0
LINE
  5
1F8
330
1F
100
AcDbEntity
  8
F-2ﾚｲﾔ
  6
Continuous
 62
     3
370
     9
100
AcDbLine
 10
251.9815805796031
 20
368.9411637589739
 30
0.0
 11
251.9815805796031
 21
358.9406358873522
 31
0.0
  0
LINE
  5
1F9
330
1F
100
AcDbEntity
  8
F-2ﾚｲﾔ
  6
Continuous
 62
     3
370
     9
100
AcDbLine
 10
61.98144861169766
 20
358.9406358873522
 30
0.0
 11
251.9815805796031
 21
358.9406358873522
 31
0.0
  0
LINE
  5
1FA
330
1F
100
AcDbEntity
  8
仕上
  6
Continuous
 62
     3
370
     9
100
AcDbLine
 10
-358.6783744193411
 20
-143.7838415197424
 30
0.0
 11
-305.4621103647593
 21
-143.7838415197424
 31
0.0
  0
LINE
  5
1FB
330
1F
100
AcDbEntity
  8
仕上
  6
Continuous
 62
     3
370
     9
100
AcDbLine
 10
-305.4621103647593
 20
-128.7837920317779
 30
0.0
 11
-305.4621103647593
 21
-143.7838415197424
 31
0.0
  0
LINE
  5
1FC
330
1F
100
AcDbEntity
  8
仕上
  6
JWW_DASHED1
 62
     3
370
     9
100
AcDbLine
 10
-549.4620245856207
 20
-143.7838415197424
 30
0.0
 11
-549.4620245856207
 21
-128.7837920317779
 31
0.0
  0
LINE
  5
1FD
330
1F
100
AcDbEntity
  8
仕上
  6
JWW_DASHED1
 62
     3
370
     9
100
AcDbLine
 10
-549.4620245856207
 20
-143.7838415197424
 30
0.0
 11
-358.6783744193411
 21
-143.7838415197424
 31
0.0
  0
LINE
  5
1FE
330
1F
100
AcDbEntity
  8
建具
  6
Continuous
 62
     6
370
     9
100
AcDbLine
 10
-302.4621499551308
 20
-133.783808527766
 30
0.0
 11
-302.4621499551308
 21
-138.7838250237542
 31
0.0
  0
LINE
  5
1FF
330
1F
100
AcDbEntity
  8
建具
  6
Continuous
 62
     6
370
     9
100
AcDbLine
 10
-302.4621499551308
 20
-138.7838250237542
 30
0.0
 11
-305.4621103647593
 21
-138.7838250237542
 31
0.0
  0
LINE
  5
200
330
1F
100
AcDbEntity
  8
建具
  6
Continuous
 62
     6
370
     9
100
AcDbLine
 10
-302.4621499551308
 20
-133.783808527766
 30
0.0
 11
-305.4621103647593
 21
-133.783808527766
 31
0.0
  0
LINE
  5
201
330
1F
100
AcDbEntity
  8
建具
  6
Continuous
 62
     6
370
     9
100
AcDbLine
 10
-323.4621821223078
 20
-132.7839042044974
 30
0.0
 11
-305.4621103647593
 21
-132.7839042044974
 31
0.0
  0
LINE
  5
202
330
1F
100
AcDbEntity
  8
建具
  6
Continuous
 62
     6
370
     9
100
AcDbLine
 10
-323.4621821223078
 20
-132.7839042044974
 30
0.0
 11
-323.4621821223078
 21
-139.7839767868454
 31
0.0
  0
LINE
  5
203
330
1F
100
AcDbEntity
  8
建具
  6
Continuous
 62
     6
370
     9
100
AcDbLine
 10
-323.4621821223078
 20
-139.7839767868454
 30
0.0
 11
-305.4621103647593
 21
-139.7839767868454
 31
0.0
  0
LINE
  5
204
330
1F
100
AcDbEntity
  8
仕上
  6
JWW_CENTER1
 62
     3
370
     9
100
AcDbLine
 10
-326.3341542836781
 20
-136.2839404956714
 30
0.0
 11
-299.610220419394
 21
-136.2839404956714
 31
0.0
  0
LINE
  5
205
330
1F
100
AcDbEntity
  8
建具
  6
Continuous
 62
     6
370
     9
100
AcDbLine
 10
-305.4621103647593
 20
-133.783808527766
 30
0.0
 11
-305.4621103647593
 21
-138.7838250237542
 31
0.0
  0
LINE
  5
206
330
1F
100
AcDbEntity
  8
建具
  6
Continuous
 62
     6
370
     9
100
AcDbLine
 10
-552.4619849952492
 20
-133.783808527766
 30
0.0
 11
-552.4619849952492
 21
-138.7838250237542
 31
0.0
  0
LINE
  5
207
330
1F
100
AcDbEntity
  8
建具
  6
JWW_DASHED1
 62
     6
370
     9
100
AcDbLine
 10
-552.4619849952492
 20
-138.7838250237542
 30
0.0
 11
-549.4620245856207
 21
-138.7838250237542
 31
0.0
  0
LINE
  5
208
330
1F
100
AcDbEntity
  8
建具
  6
JWW_DASHED1
 62
     6
370
     9
100
AcDbLine
 10
-552.4619849952492
 20
-133.783808527766
 30
0.0
 11
-549.4620245856207
 21
-133.783808527766
 31
0.0
  0
LINE
  5
209
330
1F
100
AcDbEntity
  8
建具
  6
JWW_DASHED1
 62
     6
370
     9
100
AcDbLine
 10
-531.4619528280722
 20
-132.7839042044974
 30
0.0
 11
-549.4620245856207
 21
-132.7839042044974
 31
0.0
  0
LINE
  5
20A
330
1F
100
AcDbEntity
  8
建具
  6
JWW_DASHED1
 62
     6
370
     9
100
AcDbLine
 10
-531.4619528280722
 20
-132.7839042044974
 30
0.0
 11
-531.4619528280722
 21
-139.7839767868454
 31
0.0
  0
LINE
  5
20B
330
1F
100
AcDbEntity
  8
建具
  6
JWW_DASHED1
 62
     6
370
     9
100
AcDbLine
 10
-531.4619528280722
 20
-139.7839767868454
 30
0.0
 11
-549.4620245856207
 21
-139.7839767868454
 31
0.0
  0
LINE
  5
20C
330
1F
100
AcDbEntity
  8
仕上
  6
JWW_CENTER1
 62
     3
370
     9
100
AcDbLine
 10
-528.5899806667019
 20
-136.2839404956714
 30
0.0
 11
-555.313914530986
 21
-136.2839404956714
 31
0.0
  0
LINE
  5
20D
330
1F
100
AcDbEntity
  8
建具
  6
JWW_DASHED1
 62
     6
370
     9
100
AcDbLine
 10
-549.4620245856207
 20
-133.783808527766
 30
0.0
 11
-549.4620245856207
 21
-138.7838250237542
 31
0.0
  0
LINE
  5
20E
330
1F
100
AcDbEntity
  8
仕上
  6
JWW_DASHED1
 62
     3
370
     9
100
AcDbLine
 10
99.70983556798998
 20
-128.7837920317779
 30
0.0
 11
99.70983556798998
 21
-143.7838415197424
 31
0.0
  0
LINE
  5
20F
330
1F
100
AcDbEntity
  8
仕上
  6
JWW_DASHED1
 62
     3
370
     9
100
AcDbLine
 10
87.70974648965378
 20
-128.7837920317779
 30
0.0
 11
87.70974648965378
 21
-131.7837524414062
 31
0.0
  0
LINE
  5
210
330
1F
100
AcDbEntity
  8
仕上
  6
JWW_DASHED1
 62
     3
370
     9
100
AcDbLine
 10
87.70974648965378
 20
-131.7837524414062
 30
0.0
 11
96.70962771853894
 21
-131.7837524414062
 31
0.0
  0
LINE
  5
211
330
1F
100
AcDbEntity
  8
仕上
  6
JWW_DASHED1
 62
     3
370
     9
100
AcDbLine
 10
96.70962771853894
 20
-131.7837524414062
 30
0.0
 11
96.70962771853894
 21
-143.7838415197424
 31
0.0
  0
LINE
  5
212
330
1F
100
AcDbEntity
  8
仕上
  6
JWW_DASHED1
 62
     3
370
     9
100
AcDbLine
 10
96.70962771853894
 20
-143.7838415197424
 30
0.0
 11
99.70983556798998
 21
-143.7838415197424
 31
0.0
  0
LINE
  5
213
330
1F
100
AcDbEntity
  8
仕上
  6
JWW_DASHED1
 62
     3
370
     9
100
AcDbLine
 10
89.70980257601354
 20
-139.7837293470228
 30
0.0
 11
89.70980257601354
 21
-132.7840279244087
 31
0.0
  0
LINE
  5
214
330
1F
100
AcDbEntity
  8
仕上
  6
JWW_DASHED1
 62
     3
370
     9
100
AcDbLine
 10
89.70980257601354
 20
-132.7840279244087
 30
0.0
 11
96.7098751583616
 21
-132.7840279244087
 31
0.0
  0
LINE
  5
215
330
1F
100
AcDbEntity
  8
仕上
  6
JWW_DASHED1
 62
     3
370
     9
100
AcDbLine
 10
96.7098751583616
 20
-132.7840279244087
 30
0.0
 11
96.7098751583616
 21
-139.7837293470228
 31
0.0
  0
LINE
  5
216
330
1F
100
AcDbEntity
  8
仕上
  6
JWW_DASHED1
 62
     3
370
     9
100
AcDbLine
 10
96.7098751583616
 20
-139.7837293470228
 30
0.0
 11
89.70980257601354
 21
-139.7837293470228
 31
0.0
  0
LINE
  5
217
330
1F
100
AcDbEntity
  8
通り芯
  6
JWW_CENTER1
 62
     4
370
     9
100
AcDbLine
 10
96.97042929159636
 20
-136.2839404956714
 30
0.0
 11
89.16246568834467
 21
-136.2839404956714
 31
0.0
  0
LINE
  5
218
330
1F
100
AcDbEntity
  8
通り芯
  6
JWW_CENTER1
 62
     4
370
     9
100
AcDbLine
 10
93.2098388671875
 20
-132.3731540989231
 30
0.0
 11
93.2098388671875
 21
-140.2095732817779
 31
0.0
  0
LINE
  5
219
330
1F
100
AcDbEntity
  8
仕上
  6
JWW_DASHED1
 62
     3
370
     9
100
AcDbLine
 10
616.9550715266047
 20
-143.7838415197424
 30
0.0
 11
616.9550715266047
 21
-128.7837920317779
 31
0.0
  0
LINE
  5
21A
330
1F
100
AcDbEntity
  8
仕上
  6
JWW_DASHED1
 62
     3
370
     9
100
AcDbLine
 10
372.9549098659206
 20
-143.7838415197424
 30
0.0
 11
372.9549098659206
 21
-128.7837920317779
 31
0.0
  0
LINE
  5
21B
330
1F
100
AcDbEntity
  8
仕上
  6
JWW_DASHED1
 62
     3
370
     9
100
AcDbLine
 10
372.9549098659206
 20
-143.7838415197424
 30
0.0
 11
616.9550715266047
 21
-143.7838415197424
 31
0.0
  0
LINE
  5
21C
330
1F
100
AcDbEntity
  8
建具
  6
Continuous
 62
     6
370
     9
100
AcDbLine
 10
619.9550319362331
 20
-133.783808527766
 30
0.0
 11
619.9550319362331
 21
-138.7838250237542
 31
0.0
  0
LINE
  5
21D
330
1F
100
AcDbEntity
  8
建具
  6
JWW_DASHED1
 62
     6
370
     9
100
AcDbLine
 10
619.9550319362331
 20
-138.7838250237542
 30
0.0
 11
616.9550715266047
 21
-138.7838250237542
 31
0.0
  0
LINE
  5
21E
330
1F
100
AcDbEntity
  8
建具
  6
JWW_DASHED1
 62
     6
370
     9
100
AcDbLine
 10
619.9550319362331
 20
-133.783808527766
 30
0.0
 11
616.9550715266047
 21
-133.783808527766
 31
0.0
  0
LINE
  5
21F
330
1F
100
AcDbEntity
  8
建具
  6
JWW_DASHED1
 62
     6
370
     9
100
AcDbLine
 10
598.955061629012
 20
-132.7839042044974
 30
0.0
 11
616.9550715266047
 21
-132.7839042044974
 31
0.0
  0
LINE
  5
220
330
1F
100
AcDbEntity
  8
建具
  6
JWW_DASHED1
 62
     6
370
     9
100
AcDbLine
 10
598.955061629012
 20
-132.7839042044974
 30
0.0
 11
598.955061629012
 21
-139.7839767868454
 31
0.0
  0
LINE
  5
221
330
1F
100
AcDbEntity
  8
建具
  6
JWW_DASHED1
 62
     6
370
     9
100
AcDbLine
 10
598.955061629012
 20
-139.7839767868454
 30
0.0
 11
616.9550715266047
 21
-139.7839767868454
 31
0.0
  0
LINE
  5
222
330
1F
100
AcDbEntity
  8
仕上
  6
JWW_CENTER1
 62
     3
370
     9
100
AcDbLine
 10
596.083027607686
 20
-136.2839404956714
 30
0.0
 11
622.8070233319258
 21
-136.2839404956714
 31
0.0
  0
LINE
  5
223
330
1F
100
AcDbEntity
  8
建具
  6
JWW_DASHED1
 62
     6
370
     9
100
AcDbLine
 10
616.9550715266047
 20
-133.783808527766
 30
0.0
 11
616.9550715266047
 21
-138.7838250237542
 31
0.0
  0
LINE
  5
224
330
1F
100
AcDbEntity
  8
建具
  6
Continuous
 62
     6
370
     9
100
AcDbLine
 10
369.9547020164698
 20
-133.783808527766
 30
0.0
 11
369.9547020164698
 21
-138.7838250237542
 31
0.0
  0
LINE
  5
225
330
1F
100
AcDbEntity
  8
建具
  6
JWW_DASHED1
 62
     6
370
     9
100
AcDbLine
 10
369.9547020164698
 20
-138.7838250237542
 30
0.0
 11
372.9549098659206
 21
-138.7838250237542
 31
0.0
  0
LINE
  5
226
330
1F
100
AcDbEntity
  8
建具
  6
JWW_DASHED1
 62
     6
370
     9
100
AcDbLine
 10
369.9547020164698
 20
-133.783808527766
 30
0.0
 11
372.9549098659206
 21
-133.783808527766
 31
0.0
  0
LINE
  5
227
330
1F
100
AcDbEntity
  8
建具
  6
JWW_DASHED1
 62
     6
370
     9
100
AcDbLine
 10
390.9546723236909
 20
-132.7839042044974
 30
0.0
 11
372.9549098659206
 21
-132.7839042044974
 31
0.0
  0
LINE
  5
228
330
1F
100
AcDbEntity
  8
建具
  6
JWW_DASHED1
 62
     6
370
     9
100
AcDbLine
 10
390.9546723236909
 20
-132.7839042044974
 30
0.0
 11
390.9546723236909
 21
-139.7839767868454
 31
0.0
  0
LINE
  5
229
330
1F
100
AcDbEntity
  8
建具
  6
JWW_DASHED1
 62
     6
370
     9
100
AcDbLine
 10
390.9546723236909
 20
-139.7839767868454
 30
0.0
 11
372.9549098659206
 21
-139.7839767868454
 31
0.0
  0
LINE
  5
22A
330
1F
100
AcDbEntity
  8
仕上
  6
JWW_CENTER1
 62
     3
370
     9
100
AcDbLine
 10
393.8267063450169
 20
-136.2839404956714
 30
0.0
 11
367.1027106207771
 21
-136.2839404956714
 31
0.0
  0
LINE
  5
22B
330
1F
100
AcDbEntity
  8
建具
  6
JWW_DASHED1
 62
     6
370
     9
100
AcDbLine
 10
372.9549098659206
 20
-133.783808527766
 30
0.0
 11
372.9549098659206
 21
-138.7838250237542
 31
0.0
  0
LINE
  5
22C
330
1F
100
AcDbEntity
  8
通り芯
  6
JWW_DASHED1
 62
     4
370
     9
100
AcDbLine
 10
-304.4620823215793
 20
397.7577580632391
 30
0.0
 11
-305.4621103647593
 21
397.7577580632391
 31
0.0
  0
LINE
  5
22D
330
1F
100
AcDbEntity
  8
仕上
  6
JWW_CENTER1
 62
     3
370
     9
100
AcDbLine
 10
-299.87417685019
 20
392.7577415672509
 30
0.0
 11
-328.9999472128378
 21
392.7577415672509
 31
0.0
  0
LINE
  5
22E
330
1F
100
AcDbEntity
  8
仕上
  6
JWW_DASHED1
 62
     3
370
     9
100
AcDbLine
 10
-305.4621103647593
 20
399.2579857078759
 30
0.0
 11
-305.4621103647593
 21
387.2576491897171
 31
0.0
  0
LINE
  5
22F
330
1F
100
AcDbEntity
  8
建具
  6
Continuous
 62
     6
370
     9
100
AcDbLine
 10
-302.4621499551308
 20
395.2576260953338
 30
0.0
 11
-302.4621499551308
 21
390.2576095993454
 31
0.0
  0
LINE
  5
230
330
1F
100
AcDbEntity
  8
建具
  6
JWW_DASHED1
 62
     6
370
     9
100
AcDbLine
 10
-302.4621499551308
 20
390.2576095993454
 30
0.0
 11
-305.4621103647593
 21
390.2576095993454
 31
0.0
  0
LINE
  5
231
330
1F
100
AcDbEntity
  8
建具
  6
JWW_DASHED1
 62
     6
370
     9
100
AcDbLine
 10
-302.4621499551308
 20
395.2576260953338
 30
0.0
 11
-305.4621103647593
 21
395.2576260953338
 31
0.0
  0
LINE
  5
232
330
1F
100
AcDbEntity
  8
建具
  6
JWW_DASHED1
 62
     6
370
     9
100
AcDbLine
 10
-323.4621202623522
 20
396.2575304186022
 30
0.0
 11
-305.4621103647593
 21
396.2575304186022
 31
0.0
  0
LINE
  5
233
330
1F
100
AcDbEntity
  8
建具
  6
JWW_DASHED1
 62
     6
370
     9
100
AcDbLine
 10
-323.4621202623522
 20
396.2575304186022
 30
0.0
 11
-323.4621202623522
 21
389.257705276077
 31
0.0
  0
LINE
  5
234
330
1F
100
AcDbEntity
  8
建具
  6
JWW_DASHED1
 62
     6
370
     9
100
AcDbLine
 10
-323.4621202623522
 20
389.257705276077
 30
0.0
 11
-305.4621103647593
 21
389.257705276077
 31
0.0
  0
LINE
  5
235
330
1F
100
AcDbEntity
  8
建具
  6
JWW_DASHED1
 62
     6
370
     9
100
AcDbLine
 10
-305.4621103647593
 20
395.2576260953338
 30
0.0
 11
-305.4621103647593
 21
390.2576095993454
 31
0.0
  0
LINE
  5
236
330
1F
100
AcDbEntity
  8
仕上
  6
JWW_CENTER1
 62
     3
370
     9
100
AcDbLine
 10
-524.4303935282938
 20
392.7577415672509
 30
0.0
 11
-554.2894518053209
 21
392.7577415672509
 31
0.0
  0
LINE
  5
237
330
1F
100
AcDbEntity
  8
仕上
  6
JWW_DASHED1
 62
     3
370
     9
100
AcDbLine
 10
-549.4620555155985
 20
399.2579857078759
 30
0.0
 11
-549.4620555155985
 21
387.2576491897171
 31
0.0
  0
LINE
  5
238
330
1F
100
AcDbEntity
  8
建具
  6
Continuous
 62
     6
370
     9
100
AcDbLine
 10
-552.4621087151604
 20
395.2576260953338
 30
0.0
 11
-552.4621087151604
 21
390.2576095993454
 31
0.0
  0
LINE
  5
239
330
1F
100
AcDbEntity
  8
建具
  6
JWW_DASHED1
 62
     6
370
     9
100
AcDbLine
 10
-552.4621087151604
 20
390.2576095993454
 30
0.0
 11
-549.4621483055321
 21
390.2576095993454
 31
0.0
  0
LINE
  5
23A
330
1F
100
AcDbEntity
  8
建具
  6
JWW_DASHED1
 62
     6
370
     9
100
AcDbLine
 10
-552.4621087151604
 20
395.2576260953338
 30
0.0
 11
-549.4621483055321
 21
395.2576260953338
 31
0.0
  0
LINE
  5
23B
330
1F
100
AcDbEntity
  8
建具
  6
JWW_DASHED1
 62
     6
370
     9
100
AcDbLine
 10
-531.4620765479835
 20
396.2575304186022
 30
0.0
 11
-549.4621483055321
 21
396.2575304186022
 31
0.0
  0
LINE
  5
23C
330
1F
100
AcDbEntity
  8
建具
  6
JWW_DASHED1
 62
     6
370
     9
100
AcDbLine
 10
-531.4620765479835
 20
396.2575304186022
 30
0.0
 11
-531.4620765479835
 21
389.257705276077
 31
0.0
  0
LINE
  5
23D
330
1F
100
AcDbEntity
  8
建具
  6
JWW_DASHED1
 62
     6
370
     9
100
AcDbLine
 10
-531.4620765479835
 20
389.257705276077
 30
0.0
 11
-549.4621483055321
 21
389.257705276077
 31
0.0
  0
LINE
  5
23E
330
1F
100
AcDbEntity
  8
建具
  6
JWW_DASHED1
 62
     6
370
     9
100
AcDbLine
 10
-549.4621483055321
 20
395.2576260953338
 30
0.0
 11
-549.4621483055321
 21
390.2576095993454
 31
0.0
  0
LINE
  5
23F
330
1F
100
AcDbEntity
  8
仕上
  6
JWW_DASHED1
 62
     3
370
     9
100
AcDbLine
 10
-305.4621103647593
 20
387.2576491897171
 30
0.0
 11
-549.4620555155985
 21
387.2576491897171
 31
0.0
  0
LINE
  5
240
330
1F
100
AcDbEntity
  8
仕上
  6
JWW_DASHED1
 62
     3
370
     9
100
AcDbLine
 10
-305.4621103647593
 20
396.2580252982475
 30
0.0
 11
-549.4620555155985
 21
396.2580252982475
 31
0.0
  0
LINE
  5
241
330
1F
100
AcDbEntity
  8
F-2ﾚｲﾔ
  6
Continuous
 62
     3
370
     9
100
AcDbLine
 10
61.98144861169766
 20
283.9406358873522
 30
0.0
 11
246.9813166437922
 21
283.9406358873522
 31
0.0
  0
LINE
  5
242
330
1F
100
AcDbEntity
  8
F-2ﾚｲﾔ
  6
Continuous
 62
     3
370
     9
100
AcDbLine
 10
246.9813166437922
 20
358.9406358873522
 30
0.0
 11
246.9813166437922
 21
283.9406358873522
 31
0.0
  0
LINE
  5
243
330
1F
100
AcDbEntity
  8
F-3ﾚｲﾔ
  6
Continuous
 62
     6
370
     9
100
AcDbLine
 10
261.9811186919341
 20
333.940800847234
 30
0.0
 11
261.9811186919341
 21
308.9409658071157
 31
0.0
  0
LINE
  5
244
330
1F
100
AcDbEntity
  8
F-3ﾚｲﾔ
  6
Continuous
 62
     6
370
     9
100
AcDbLine
 10
261.9811186919341
 20
308.9409658071157
 30
0.0
 11
246.9813166437922
 21
308.9409658071157
 31
0.0
  0
LINE
  5
245
330
1F
100
AcDbEntity
  8
F-3ﾚｲﾔ
  6
Continuous
 62
     6
370
     9
100
AcDbLine
 10
261.9811186919341
 20
333.940800847234
 30
0.0
 11
246.9813166437922
 21
333.940800847234
 31
0.0
  0
LINE
  5
246
330
1F
100
AcDbEntity
  8
F-3ﾚｲﾔ
  6
Continuous
 62
     6
370
     9
100
AcDbLine
 10
156.9812671558277
 20
338.9405699033996
 30
0.0
 11
246.9813166437922
 21
338.9405699033996
 31
0.0
  0
LINE
  5
247
330
1F
100
AcDbEntity
  8
F-3ﾚｲﾔ
  6
Continuous
 62
     6
370
     9
100
AcDbLine
 10
156.9812671558277
 20
338.9405699033996
 30
0.0
 11
156.9812671558277
 21
303.940701871305
 31
0.0
  0
LINE
  5
248
330
1F
100
AcDbEntity
  8
F-3ﾚｲﾔ
  6
Continuous
 62
     6
370
     9
100
AcDbLine
 10
156.9812671558277
 20
303.940701871305
 30
0.0
 11
246.9813166437922
 21
303.940701871305
 31
0.0
  0
LINE
  5
249
330
1F
100
AcDbEntity
  8
F-2ﾚｲﾔ
  6
JWW_CENTER1
 62
     3
370
     9
100
AcDbLine
 10
142.6210970491977
 20
321.4406358873522
 30
0.0
 11
276.2408282305745
 21
321.4406358873522
 31
0.0
  0
LINE
  5
24A
330
1F
100
AcDbEntity
  8
F-2ﾚｲﾔ
  6
Continuous
 62
     3
370
     9
100
AcDbLine
 10
607.4726826435813
 20
358.9406358873522
 30
0.0
 11
607.4726826435813
 21
283.9406358873522
 31
0.0
  0
LINE
  5
24B
330
1F
100
AcDbEntity
  8
F-2ﾚｲﾔ
  6
JWW_CENTER1
 62
     3
370
     9
100
AcDbLine
 10
572.599998680321
 20
230.5742995803421
 30
0.0
 11
564.2135207717484
 21
236.0204500765414
 31
0.0
  0
LINE
  5
24C
330
1F
100
AcDbEntity
  8
F-2ﾚｲﾔ
  6
JWW_CENTER1
 62
     3
370
     9
100
AcDbLine
 10
608.8199924778294
 20
332.248807340055
 30
0.0
 11
584.3113254856419
 21
294.5087907120989
 31
0.0
  0
LINE
  5
24D
330
1F
100
AcDbEntity
  8
F-2ﾚｲﾔ
  6
JWW_CENTER1
 62
     3
370
     9
100
AcDbLine
 10
588.7216928842906
 20
273.759476945207
 30
0.0
 11
525.8215002111488
 21
314.6078326251056
 31
0.0
  0
LINE
  5
24E
330
1F
100
AcDbEntity
  8
F-2ﾚｲﾔ
  6
JWW_CENTER1
 62
     3
370
     9
100
AcDbLine
 10
699.1565601245779
 20
443.8137322503168
 30
0.0
 11
564.2135207717484
 21
236.0204500765414
 31
0.0
  0
LINE
  5
24F
330
1F
100
AcDbEntity
  8
F-2ﾚｲﾔ
  6
JWW_CENTER1
 62
     3
370
     9
100
AcDbLine
 10
572.599998680321
 20
230.5742995803421
 30
0.0
 11
707.5425431535052
 21
438.3678291939401
 31
0.0
  0
LINE
  5
250
330
1F
100
AcDbEntity
  8
F-2ﾚｲﾔ
  6
Continuous
 62
     3
370
     9
100
AcDbLine
 10
547.4732270111908
 20
358.9406358873522
 30
0.0
 11
547.4732270111908
 21
343.9408338392104
 31
0.0
  0
LINE
  5
251
330
1F
100
AcDbEntity
  8
F-2ﾚｲﾔ
  6
Continuous
 62
     3
370
     9
100
AcDbLine
 10
547.4732270111908
 20
343.9408338392104
 30
0.0
 11
592.4728805954394
 21
343.9408338392104
 31
0.0
  0
LINE
  5
252
330
1F
100
AcDbEntity
  8
F-2ﾚｲﾔ
  6
JWW_CENTER1
 62
     3
370
     9
100
AcDbLine
 10
533.9907259554477
 20
327.1876732078759
 30
0.0
 11
525.8215002111488
 21
314.6078326251056
 31
0.0
  0
LINE
  5
253
330
1F
100
AcDbEntity
  8
F-2ﾚｲﾔ
  6
JWW_CENTER1
 62
     3
370
     9
100
AcDbLine
 10
584.3113254856419
 20
294.5087907120989
 30
0.0
 11
533.9907259554477
 21
327.1876732078759
 31
0.0
  0
LINE
  5
254
330
1F
100
AcDbEntity
  8
F-2ﾚｲﾔ
  6
JWW_CENTER1
 62
     3
370
     9
100
AcDbLine
 10
608.8199924778294
 20
332.248807340055
 30
0.0
 11
621.3998330605998
 21
324.0793341559333
 31
0.0
  0
LINE
  5
255
330
1F
100
AcDbEntity
  8
F-2ﾚｲﾔ
  6
Continuous
 62
     3
370
     9
100
AcDbLine
 10
592.4728805954394
 20
343.9408338392104
 30
0.0
 11
592.4728805954394
 21
283.9406358873522
 31
0.0
  0
LINE
  5
256
330
1F
100
AcDbEntity
  8
F-2ﾚｲﾔ
  6
Continuous
 62
     3
370
     9
100
AcDbLine
 10
592.4728805954394
 20
283.9406358873522
 30
0.0
 11
607.4726826435813
 21
283.9406358873522
 31
0.0
  0
LINE
  5
257
330
1F
100
AcDbEntity
  8
F-0ﾚｲﾔ
  6
Continuous
 62
     4
370
     9
100
AcDbLine
 10
557.4725176836995
 20
303.940701871305
 30
0.0
 11
557.4725176836995
 21
338.9405699033996
 31
0.0
  0
LINE
  5
258
330
1F
100
AcDbEntity
  8
F-0ﾚｲﾔ
  6
Continuous
 62
     4
370
     9
100
AcDbLine
 10
557.4725176836995
 20
338.9405699033996
 30
0.0
 11
592.4726331556167
 21
338.9405699033996
 31
0.0
  0
LINE
  5
259
330
1F
100
AcDbEntity
  8
F-0ﾚｲﾔ
  6
Continuous
 62
     4
370
     9
100
AcDbLine
 10
592.4726331556167
 20
338.9405699033996
 30
0.0
 11
592.4726331556167
 21
303.940701871305
 31
0.0
  0
LINE
  5
25A
330
1F
100
AcDbEntity
  8
F-0ﾚｲﾔ
  6
Continuous
 62
     4
370
     9
100
AcDbLine
 10
592.4726331556167
 20
303.940701871305
 30
0.0
 11
557.4725176836995
 21
303.940701871305
 31
0.0
  0
LINE
  5
25B
330
1F
100
AcDbEntity
  8
F-2ﾚｲﾔ
  6
JWW_CENTER1
 62
     3
370
     9
100
AcDbLine
 10
599.1804793074325
 20
326.5863944388725
 30
0.0
 11
580.1179628114443
 21
297.2328557194891
 31
0.0
  0
LINE
  5
25C
330
1F
100
AcDbEntity
  8
F-2ﾚｲﾔ
  6
JWW_CENTER1
 62
     3
370
     9
100
AcDbLine
 10
580.1179628114443
 20
297.2328557194891
 30
0.0
 11
550.7646715318836
 21
316.2953722154772
 31
0.0
  0
LINE
  5
25D
330
1F
100
AcDbEntity
  8
F-2ﾚｲﾔ
  6
JWW_CENTER1
 62
     3
370
     9
100
AcDbLine
 10
550.7646715318836
 20
316.2953722154772
 30
0.0
 11
569.826940588049
 21
345.648663495038
 31
0.0
  0
LINE
  5
25E
330
1F
100
AcDbEntity
  8
F-2ﾚｲﾔ
  6
JWW_CENTER1
 62
     3
370
     9
100
AcDbLine
 10
569.826940588049
 20
345.648663495038
 30
0.0
 11
599.1804793074325
 21
326.5863944388725
 31
0.0
  0
LINE
  5
25F
330
1F
100
AcDbEntity
  8
F-0ﾚｲﾔ
  6
JWW_CENTER1
 62
     4
370
     9
100
AcDbLine
 10
594.4432439030828
 20
321.4406358873522
 30
0.0
 11
553.3909978093328
 21
321.4406358873522
 31
0.0
  0
LINE
  5
260
330
1F
100
AcDbEntity
  8
F-0ﾚｲﾔ
  6
JWW_CENTER1
 62
     4
370
     9
100
AcDbLine
 10
574.9724516997467
 20
341.0759755727407
 30
0.0
 11
574.9724516997467
 21
300.4018175279772
 31
0.0
  0
ARC
  5
261
330
1F
100
AcDbEntity
  8
通り芯
  6
Continuous
 62
     4
370
     9
100
AcDbCircle
 10
-301.4621219119509
 20
410.2576755832982
 30
0.0
 40
0.9999999524773778
100
AcDbArc
 50
90.0
 51
180.0
  0
ARC
  5
262
330
1F
100
AcDbEntity
  8
通り芯
  6
Continuous
 62
     4
370
     9
100
AcDbCircle
 10
-306.4621384079392
 20
410.2576755832982
 30
0.0
 40
0.9999999524773778
100
AcDbArc
 50
0.0
 51
90.0
  0
ARC
  5
263
330
1F
100
AcDbEntity
  8
通り芯
  6
Continuous
 62
     4
370
     9
100
AcDbCircle
 10
-301.4621219119509
 20
410.2576755832982
 30
0.0
 40
2.499999790578275
100
AcDbArc
 50
90.0
 51
180.0
  0
ARC
  5
264
330
1F
100
AcDbEntity
  8
通り芯
  6
Continuous
 62
     4
370
     9
100
AcDbCircle
 10
-306.4621384079392
 20
410.2576755832982
 30
0.0
 40
2.499999790578275
100
AcDbArc
 50
0.0
 51
90.0
  0
ARC
  5
265
330
1F
100
AcDbEntity
  8
通り芯
  6
Continuous
 62
     4
370
     9
100
AcDbCircle
 10
-553.4620130384291
 20
410.2576755832982
 30
0.0
 40
0.9999999524773778
100
AcDbArc
 50
0.0
 51
90.0
  0
ARC
  5
266
330
1F
100
AcDbEntity
  8
通り芯
  6
Continuous
 62
     4
370
     9
100
AcDbCircle
 10
-548.4621202623522
 20
410.2576755832982
 30
0.0
 40
0.9999999524773778
100
AcDbArc
 50
90.0
 51
180.0
  0
ARC
  5
267
330
1F
100
AcDbEntity
  8
通り芯
  6
Continuous
 62
     4
370
     9
100
AcDbCircle
 10
-553.4620130384291
 20
410.2576755832982
 30
0.0
 40
2.499999790578275
100
AcDbArc
 50
0.0
 51
90.0
  0
ARC
  5
268
330
1F
100
AcDbEntity
  8
通り芯
  6
Continuous
 62
     4
370
     9
100
AcDbCircle
 10
-548.4621202623522
 20
410.2576755832982
 30
0.0
 40
2.499999790578275
100
AcDbArc
 50
90.0
 51
180.0
  0
CIRCLE
  5
269
330
1F
100
AcDbEntity
  8
仕上
  6
Continuous
 62
     3
370
     9
100
AcDbCircle
 10
-427.46206747519
 20
294.7577151736698
 30
0.0
 40
9.9999991623131
  0
CIRCLE
  5
26A
330
1F
100
AcDbEntity
  8
通り芯
  6
Continuous
 62
     4
370
     9
100
AcDbCircle
 10
-532.4621664511191
 20
-326.2838250237542
 30
0.0
 40
3.499999561825314
  0
CIRCLE
  5
26B
330
1F
100
AcDbEntity
  8
通り芯
  6
Continuous
 62
     4
370
     9
100
AcDbCircle
 10
-502.4621911951013
 20
-326.2838250237542
 30
0.0
 40
3.499999561825314
  0
CIRCLE
  5
26C
330
1F
100
AcDbEntity
  8
通り芯
  6
Continuous
 62
     4
370
     9
100
AcDbCircle
 10
-472.4620922191723
 20
-326.2838250237542
 30
0.0
 40
3.499999561825314
  0
CIRCLE
  5
26D
330
1F
100
AcDbEntity
  8
通り芯
  6
Continuous
 62
     4
370
     9
100
AcDbCircle
 10
-442.4622406830658
 20
-326.2838250237542
 30
0.0
 40
3.499999561825314
  0
CIRCLE
  5
26E
330
1F
100
AcDbEntity
  8
通り芯
  6
Continuous
 62
     4
370
     9
100
AcDbCircle
 10
-412.4621417071368
 20
-326.2838250237542
 30
0.0
 40
3.499999561825314
  0
CIRCLE
  5
26F
330
1F
100
AcDbEntity
  8
通り芯
  6
Continuous
 62
     4
370
     9
100
AcDbCircle
 10
-382.4620427312077
 20
-326.2838250237542
 30
0.0
 40
3.499999561825314
  0
CIRCLE
  5
270
330
1F
100
AcDbEntity
  8
通り芯
  6
Continuous
 62
     4
370
     9
100
AcDbCircle
 10
-352.4621911951013
 20
-326.2838250237542
 30
0.0
 40
3.499999561825314
  0
CIRCLE
  5
271
330
1F
100
AcDbEntity
  8
通り芯
  6
Continuous
 62
     4
370
     9
100
AcDbCircle
 10
-322.4620922191723
 20
-326.2838250237542
 30
0.0
 40
3.499999561825314
  0
CIRCLE
  5
272
330
1F
100
AcDbEntity
  8
通り芯
  6
Continuous
 62
     4
370
     9
100
AcDbCircle
 10
-532.4621664511191
 20
-276.2837837837838
 30
0.0
 40
3.499999561825314
  0
CIRCLE
  5
273
330
1F
100
AcDbEntity
  8
通り芯
  6
Continuous
 62
     4
370
     9
100
AcDbCircle
 10
-502.4621911951013
 20
-276.2837837837838
 30
0.0
 40
3.499999561825314
  0
CIRCLE
  5
274
330
1F
100
AcDbEntity
  8
通り芯
  6
Continuous
 62
     4
370
     9
100
AcDbCircle
 10
-472.4620922191723
 20
-276.2837837837838
 30
0.0
 40
3.499999561825314
  0
CIRCLE
  5
275
330
1F
100
AcDbEntity
  8
通り芯
  6
Continuous
 62
     4
370
     9
100
AcDbCircle
 10
-442.4622406830658
 20
-276.2837837837838
 30
0.0
 40
3.499999561825314
  0
CIRCLE
  5
276
330
1F
100
AcDbEntity
  8
通り芯
  6
Continuous
 62
     4
370
     9
100
AcDbCircle
 10
-412.4621417071368
 20
-276.2837837837838
 30
0.0
 40
3.499999561825314
  0
CIRCLE
  5
277
330
1F
100
AcDbEntity
  8
通り芯
  6
Continuous
 62
     4
370
     9
100
AcDbCircle
 10
-382.4620427312077
 20
-276.2837837837838
 30
0.0
 40
3.499999561825314
  0
CIRCLE
  5
278
330
1F
100
AcDbEntity
  8
通り芯
  6
Continuous
 62
     4
370
     9
100
AcDbCircle
 10
-352.4621911951013
 20
-276.2837837837838
 30
0.0
 40
3.499999561825314
  0
CIRCLE
  5
279
330
1F
100
AcDbEntity
  8
通り芯
  6
Continuous
 62
     4
370
     9
100
AcDbCircle
 10
-322.4620922191723
 20
-276.2837837837838
 30
0.0
 40
3.499999561825314
  0
CIRCLE
  5
27A
330
1F
100
AcDbEntity
  8
通り芯
  6
Continuous
 62
     4
370
     9
100
AcDbCircle
 10
389.9550154402451
 20
-326.2838250237542
 30
0.0
 40
3.499999561825314
  0
CIRCLE
  5
27B
330
1F
100
AcDbEntity
  8
通り芯
  6
Continuous
 62
     4
370
     9
100
AcDbCircle
 10
419.9548669763513
 20
-326.2838250237542
 30
0.0
 40
3.499999561825314
  0
CIRCLE
  5
27C
330
1F
100
AcDbEntity
  8
通り芯
  6
Continuous
 62
     4
370
     9
100
AcDbCircle
 10
449.9549659522805
 20
-326.2838250237542
 30
0.0
 40
3.499999561825314
  0
CIRCLE
  5
27D
330
1F
100
AcDbEntity
  8
通り芯
  6
Continuous
 62
     4
370
     9
100
AcDbCircle
 10
479.954817488387
 20
-326.2838250237542
 30
0.0
 40
3.499999561825314
  0
CIRCLE
  5
27E
330
1F
100
AcDbEntity
  8
通り芯
  6
Continuous
 62
     4
370
     9
100
AcDbCircle
 10
389.9550154402451
 20
-276.2837837837838
 30
0.0
 40
3.499999561825314
  0
CIRCLE
  5
27F
330
1F
100
AcDbEntity
  8
通り芯
  6
Continuous
 62
     4
370
     9
100
AcDbCircle
 10
419.9548669763513
 20
-276.2837837837838
 30
0.0
 40
3.499999561825314
  0
CIRCLE
  5
280
330
1F
100
AcDbEntity
  8
通り芯
  6
Continuous
 62
     4
370
     9
100
AcDbCircle
 10
449.9549659522805
 20
-276.2837837837838
 30
0.0
 40
3.499999561825314
  0
CIRCLE
  5
281
330
1F
100
AcDbEntity
  8
通り芯
  6
Continuous
 62
     4
370
     9
100
AcDbCircle
 10
479.954817488387
 20
-276.2837837837838
 30
0.0
 40
3.499999561825314
  0
CIRCLE
  5
282
330
1F
100
AcDbEntity
  8
通り芯
  6
Continuous
 62
     4
370
     9
100
AcDbCircle
 10
-16.79040032464101
 20
-326.2838250237542
 30
0.0
 40
3.499999561825314
  0
CIRCLE
  5
283
330
1F
100
AcDbEntity
  8
通り芯
  6
Continuous
 62
     4
370
     9
100
AcDbCircle
 10
10.70956668338269
 20
-326.2838250237542
 30
0.0
 40
3.499999561825314
  0
CIRCLE
  5
284
330
1F
100
AcDbEntity
  8
通り芯
  6
Continuous
 62
     4
370
     9
100
AcDbCircle
 10
38.20965741131758
 20
-326.2838250237542
 30
0.0
 40
3.499999561825314
  0
CIRCLE
  5
285
330
1F
100
AcDbEntity
  8
通り芯
  6
Continuous
 62
     4
370
     9
100
AcDbCircle
 10
65.70962441934128
 20
-326.2838250237542
 30
0.0
 40
3.499999561825314
  0
CIRCLE
  5
286
330
1F
100
AcDbEntity
  8
通り芯
  6
Continuous
 62
     4
370
     9
100
AcDbCircle
 10
-16.79040032464101
 20
-276.2836600638724
 30
0.0
 40
3.499999561825314
  0
CIRCLE
  5
287
330
1F
100
AcDbEntity
  8
通り芯
  6
Continuous
 62
     4
370
     9
100
AcDbCircle
 10
8.209682155299873
 20
-276.2836600638724
 30
0.0
 40
3.499999561825314
  0
CIRCLE
  5
288
330
1F
100
AcDbEntity
  8
通り芯
  6
Continuous
 62
     4
370
     9
100
AcDbCircle
 10
33.20964091532943
 20
-276.2836600638724
 30
0.0
 40
3.499999561825314
  0
CIRCLE
  5
289
330
1F
100
AcDbEntity
  8
通り芯
  6
Continuous
 62
     4
370
     9
100
AcDbCircle
 10
58.20972339527032
 20
-276.2836600638724
 30
0.0
 40
3.499999561825314
  0
CIRCLE
  5
28A
330
1F
100
AcDbEntity
  8
通り芯
  6
Continuous
 62
     4
370
     9
100
AcDbCircle
 10
83.2098058752112
 20
-276.2836600638724
 30
0.0
 40
3.499999561825314
  0
CIRCLE
  5
28B
330
1F
100
AcDbEntity
  8
通り芯
  6
Continuous
 62
     4
370
     9
100
AcDbCircle
 10
599.9552133921031
 20
-326.2838250237542
 30
0.0
 40
3.499999561825314
  0
CIRCLE
  5
28C
330
1F
100
AcDbEntity
  8
通り芯
  6
Continuous
 62
     4
370
     9
100
AcDbCircle
 10
569.9553618559967
 20
-326.2838250237542
 30
0.0
 40
3.499999561825314
  0
CIRCLE
  5
28D
330
1F
100
AcDbEntity
  8
通り芯
  6
Continuous
 62
     4
370
     9
100
AcDbCircle
 10
539.955015440245
 20
-326.2838250237542
 30
0.0
 40
3.499999561825314
  0
CIRCLE
  5
28E
330
1F
100
AcDbEntity
  8
通り芯
  6
Continuous
 62
     4
370
     9
100
AcDbCircle
 10
509.9551639041385
 20
-326.2838250237542
 30
0.0
 40
3.499999561825314
  0
CIRCLE
  5
28F
330
1F
100
AcDbEntity
  8
通り芯
  6
Continuous
 62
     4
370
     9
100
AcDbCircle
 10
599.9552133921031
 20
-276.2837837837838
 30
0.0
 40
3.499999561825314
  0
CIRCLE
  5
290
330
1F
100
AcDbEntity
  8
通り芯
  6
Continuous
 62
     4
370
     9
100
AcDbCircle
 10
569.9553618559967
 20
-276.2837837837838
 30
0.0
 40
3.499999561825314
  0
CIRCLE
  5
291
330
1F
100
AcDbEntity
  8
通り芯
  6
Continuous
 62
     4
370
     9
100
AcDbCircle
 10
539.955015440245
 20
-276.2837837837838
 30
0.0
 40
3.499999561825314
  0
CIRCLE
  5
292
330
1F
100
AcDbEntity
  8
通り芯
  6
Continuous
 62
     4
370
     9
100
AcDbCircle
 10
509.9551639041385
 20
-276.2837837837838
 30
0.0
 40
3.499999561825314
  0
CIRCLE
  5
293
330
1F
100
AcDbEntity
  8
通り芯
  6
Continuous
 62
     4
370
     9
100
AcDbCircle
 10
93.2098388671875
 20
-136.2839404956714
 30
0.0
 40
2.499999790578275
  0
CIRCLE
  5
294
330
1F
100
AcDbEntity
  8
建具
  6
Continuous
 62
     6
370
     9
100
AcDbCircle
 10
93.2098388671875
 20
-136.2839404956714
 30
0.0
 40
1.999999904954756
  0
CIRCLE
  5
295
330
1F
100
AcDbEntity
  8
F-0ﾚｲﾔ
  6
Continuous
 62
     4
370
     9
100
AcDbCircle
 10
574.9724516997467
 20
321.4406358873522
 30
0.0
 40
12.50000161093635
  0
TEXT
  5
296
330
1F
100
AcDbEntity
  8
F-5ﾚｲﾔ
  6
Continuous
 62
     2
370
     9
100
AcDbText
 10
-405.6198120117188
 20
-680.1246060593063
 30
0.0
 40
15.24
  1
屋上緑化用よこ型ドレインカバー　ＢＸＬ　２５０×１５０×２５０
 41
0.8225806451612901
  7
ＭＳ ゴシック
100
AcDbText
  0
TEXT
  5
297
330
1F
100
AcDbEntity
  8
仕上
  6
Continuous
 62
     4
370
     9
100
AcDbText
 10
-461.2119932432432
 20
273.1676887800887
 30
0.0
 40
7.620000000000001
  1
ＫＡＮＥＳＯ
 41
1.125
  7
ＭＳ ゴシック
100
AcDbText
  0
TEXT
  5
298
330
1F
100
AcDbEntity
  8
F-Fﾚｲﾔ
  6
Continuous
 62
     2
370
     9
100
AcDbText
 10
208.4400898701436
 20
452.386460686761
 30
0.0
 40
15.24
  1
0.5
 41
1.083333333333334
  7
ＭＳ ゴシック
100
AcDbText
  0
TEXT
  5
299
330
1F
100
AcDbEntity
  8
F-Fﾚｲﾔ
  6
Continuous
 62
     2
370
     9
100
AcDbText
 10
266.3266568570523
 20
452.386460686761
 30
0.0
 40
15.24
  1
1.5
 41
1.083333333333333
  7
ＭＳ ゴシック
100
AcDbText
  0
TEXT
  5
29A
330
1F
100
AcDbEntity
  8
F-Fﾚｲﾔ
  6
Continuous
 62
     2
370
     9
100
AcDbText
 10
61.98144861169766
 20
452.386460686761
 30
0.0
 40
15.24
  1
246
 41
1.083333333333333
  7
ＭＳ ゴシック
100
AcDbText
  0
TEXT
  5
29B
330
1F
100
AcDbEntity
  8
F-Fﾚｲﾔ
  6
Continuous
 62
     2
370
     9
100
AcDbText
 10
654.9717258762669
 20
452.386460686761
 30
0.0
 40
15.24
  1
3
 41
0.9999999999999998
  7
ＭＳ ゴシック
100
AcDbText
  0
TEXT
  5
29C
330
1F
100
AcDbEntity
  8
F-Fﾚｲﾔ
  6
Continuous
 62
     2
370
     9
100
AcDbText
 10
681.7286310969175
 20
452.386460686761
 30
0.0
 40
15.24
  1
1.5
 41
1.083333333333335
  7
ＭＳ ゴシック
100
AcDbText
  0
TEXT
  5
29D
330
1F
100
AcDbEntity
  8
F-Fﾚｲﾔ
  6
Continuous
 62
     2
370
     9
100
AcDbText
 10
473.1509646853885
 20
452.386460686761
 30
0.0
 40
15.24
  1
143.5
 41
1.1
  7
ＭＳ ゴシック
100
AcDbText
  0
TEXT
  5
29E
330
1F
100
AcDbEntity
  8
F-Fﾚｲﾔ
  6
Continuous
 62
     2
370
     9
100
AcDbText
 10
240.1804331186656
 20
151.9883300121411
 30
0.0
 40
15.24
  1
蝶番部　詳細　Ｓ＝１：１
 41
1.114583333333333
  7
ＭＳ ゴシック
100
AcDbText
  0
TEXT
  5
29F
330
1F
100
AcDbEntity
  8
0-F
  6
Continuous
 62
     2
370
     9
100
AcDbText
 10
-443.7120592271959
 20
470.5777415672509
 30
0.0
 40
15.24
  1
300
 41
1.083333333333333
  7
ＭＳ ゴシック
100
AcDbText
  0
TEXT
  5
2A0
330
1F
100
AcDbEntity
  8
0-F
  6
Continuous
 62
     2
370
     9
100
AcDbText
 10
-635.2821252111487
 20
309.0077745592272
 30
0.0
 40
15.24
  1
175
 50
90.0
 41
1.083333333333333
  7
ＭＳ ゴシック
100
AcDbText
  0
TEXT
  5
2A1
330
1F
100
AcDbEntity
  8
0-F
  6
Continuous
 62
     2
370
     9
100
AcDbText
 10
-443.7120592271959
 20
-68.46384976773646
 30
0.0
 40
15.24
  1
246
 41
1.083333333333333
  7
ＭＳ ゴシック
100
AcDbText
  0
TEXT
  5
2A2
330
1F
100
AcDbEntity
  8
0-F
  6
Continuous
 62
     2
370
     9
100
AcDbText
 10
-443.7120592271959
 20
-28.46384151974231
 30
0.0
 40
15.24
  1
250
 41
1.083333333333333
  7
ＭＳ ゴシック
100
AcDbText
  0
TEXT
  5
2A3
330
1F
100
AcDbEntity
  8
0-F
  6
Continuous
 62
     2
370
     9
100
AcDbText
 10
9.459624419341282
 20
-68.46384976773646
 30
0.0
 40
15.24
  1
143.5
 41
1.1
  7
ＭＳ ゴシック
100
AcDbText
  0
TEXT
  5
2A4
330
1F
100
AcDbEntity
  8
0-F
  6
Continuous
 62
     2
370
     9
100
AcDbText
 10
21.95978937922305
 20
-28.46384151974231
 30
0.0
 40
15.24
  1
150
 41
1.083333333333333
  7
ＭＳ ゴシック
100
AcDbText
  0
TEXT
  5
2A5
330
1F
100
AcDbEntity
  8
0-F
  6
Continuous
 62
     2
370
     9
100
AcDbText
 10
-443.7120592271959
 20
-418.4638910077069
 30
0.0
 40
15.24
  1
150
 41
1.083333333333334
  7
ＭＳ ゴシック
100
AcDbText
  0
TEXT
  5
2A6
330
1F
100
AcDbEntity
  8
0-F
  6
Continuous
 62
     2
370
     9
100
AcDbText
 10
-235.2821045911634
 20
-359.3687562684755
 30
0.0
 40
15.24
  1
8
 50
90.0
 41
1.00000020619985
  7
ＭＳ ゴシック
100
AcDbText
  0
TEXT
  5
2A7
330
1F
100
AcDbEntity
  8
0-F
  6
Continuous
 62
     2
370
     9
100
AcDbText
 10
4.58468875369519
 20
-418.4638910077069
 30
0.0
 40
15.24
  1
66.5
 41
1.09375
  7
ＭＳ ゴシック
100
AcDbText
  0
TEXT
  5
2A8
330
1F
100
AcDbEntity
  8
0-F
  6
Continuous
 62
     2
370
     9
100
AcDbText
 10
-635.2821252111487
 20
-361.9088497677365
 30
0.0
 40
15.24
  1
50
 50
90.0
 41
1.0625
  7
ＭＳ ゴシック
100
AcDbText
  0
TEXT
  5
2A9
330
1F
100
AcDbEntity
  8
0-F
  6
Continuous
 62
     2
370
     9
100
AcDbText
 10
-635.2821252111487
 20
-311.908808527766
 30
0.0
 40
15.24
  1
50
 50
90.0
 41
1.0625
  7
ＭＳ ゴシック
100
AcDbText
  0
TEXT
  5
2AA
330
1F
100
AcDbEntity
  8
0-F
  6
Continuous
 62
     7
370
     9
100
AcDbText
 10
-623.0970228040541
 20
-221.3506504038217
 30
0.0
 40
11.43
  1
φ７
 41
1.083333333333333
  7
ＭＳ ゴシック
100
AcDbText
  0
TEXT
  5
2AB
330
1F
100
AcDbEntity
  8
0-F
  6
Continuous
 62
     2
370
     9
100
AcDbText
 10
-437.4621004671664
 20
545.509943055849
 30
0.0
 40
15.24
  1
Ａ
 41
1.00000020619985
  7
ＭＳ ゴシック
100
AcDbText
  0
TEXT
  5
2AC
330
1F
100
AcDbEntity
  8
0-F
  6
Continuous
 62
     2
370
     9
100
AcDbText
 10
439.9549329603042
 20
-424.2194650021115
 30
0.0
 40
15.24
  1
Ａ矢視図・
 41
1.1
  7
ＭＳ ゴシック
100
AcDbText
  0
TEXT
  5
2AD
330
1F
100
AcDbEntity
  8
F-Eﾚｲﾔ
  6
Continuous
 62
     7
370
     9
100
AcDbText
 10
35.9463253536741
 20
218.3855457532729
 30
0.0
 40
11.43
  1
蝶番ピン
 41
1.125
  7
ＭＳ ゴシック
100
AcDbText
  0
TEXT
  5
2AE
330
1F
100
AcDbEntity
  8
F-Eﾚｲﾔ
  6
Continuous
 62
     7
370
     9
100
AcDbText
 10
16.41169367609805
 20
190.304590041702
 30
0.0
 40
11.43
  1
ＳＵＳ３０４
 41
1.138888888888889
  7
ＭＳ ゴシック
100
AcDbText
  0
TEXT
  5
2AF
330
1F
100
AcDbEntity
  8
F-Eﾚｲﾔ
  6
Continuous
 62
     7
370
     9
100
AcDbText
 10
-55.13806729703333
 20
533.3766874076225
 30
0.0
 40
11.43
  1
点検蓋：t=2.0
 41
1.153846153846154
  7
ＭＳ ゴシック
100
AcDbText
  0
TEXT
  5
2B0
330
1F
100
AcDbEntity
  8
F-Eﾚｲﾔ
  6
Continuous
 62
     7
370
     9
100
AcDbText
 10
431.3484810494089
 20
505.436524955131
 30
0.0
 40
11.43
  1
ＳＵＳ３０４
 41
1.138888888888889
  7
ＭＳ ゴシック
100
AcDbText
  0
TEXT
  5
2B1
330
1F
100
AcDbEntity
  8
F-Eﾚｲﾔ
  6
Continuous
 62
     7
370
     9
100
AcDbText
 10
428.061243005701
 20
531.73319210568
 30
0.0
 40
11.43
  1
本体：t=1.5
 41
1.151515151515152
  7
ＭＳ ゴシック
100
AcDbText
  0
TEXT
  5
2B2
330
1F
100
AcDbEntity
  8
F-Eﾚｲﾔ
  6
Continuous
 62
     7
370
     9
100
AcDbText
 10
-91.29589183910468
 20
505.436524955131
 30
0.0
 40
11.43
  1
ＳＵＳ３０４，ＨＬ仕上
 41
1.151515151515152
  7
ＭＳ ゴシック
100
AcDbText
  0
TEXT
  5
2B3
330
1F
100
AcDbEntity
  8
0-F
  6
Continuous
 62
     2
370
     9
100
AcDbText
 10
-235.2821045911634
 20
239.6325766073691
 30
0.0
 40
15.24
  1
25
 50
90.0
 41
1.0625
  7
ＭＳ ゴシック
100
AcDbText
  0
TEXT
  5
2B4
330
1F
100
AcDbEntity
  8
0-F
  6
Continuous
 62
     2
370
     9
100
AcDbText
 10
-235.2821045911634
 20
321.5076920792864
 30
0.0
 40
15.24
  1
150
 50
90.0
 41
1.083333333333333
  7
ＭＳ ゴシック
100
AcDbText
  0
TEXT
  5
2B5
330
1F
100
AcDbEntity
  8
0-F
  6
Continuous
 62
     2
370
     9
100
AcDbText
 10
-575.5870922191723
 20
195.5775766073691
 30
0.0
 40
15.24
  1
25
 41
1.0625
  7
ＭＳ ゴシック
100
AcDbText
  0
TEXT
  5
2B6
330
1F
100
AcDbEntity
  8
0-F
  6
Continuous
 62
     2
370
     9
100
AcDbText
 10
-300.5870509792018
 20
195.5775766073691
 30
0.0
 40
15.24
  1
25
 41
1.0625
  7
ＭＳ ゴシック
100
AcDbText
  0
TEXT
  5
2B7
330
1F
100
AcDbEntity
  8
0-F
  6
Continuous
 62
     2
370
     9
100
AcDbText
 10
-538.0871540791279
 20
195.5775766073691
 30
0.0
 40
15.24
  1
50
 41
1.0625
  7
ＭＳ ゴシック
100
AcDbText
  0
TEXT
  5
2B8
330
1F
100
AcDbEntity
  8
0-F
  6
Continuous
 62
     2
370
     9
100
AcDbText
 10
-338.0871128391574
 20
195.5775766073691
 30
0.0
 40
15.24
  1
50
 41
1.0625
  7
ＭＳ ゴシック
100
AcDbText
  0
TEXT
  5
2B9
330
1F
100
AcDbEntity
  8
0-F
  6
Continuous
 62
     2
370
     9
100
AcDbText
 10
-443.7121829471072
 20
195.5775766073691
 30
0.0
 40
15.24
  1
150
 41
1.083333333333333
  7
ＭＳ ゴシック
100
AcDbText
  0
TEXT
  5
2BA
330
1F
100
AcDbEntity
  8
0-F
  6
Continuous
 62
     2
370
     9
100
AcDbText
 10
155.3898058752112
 20
-352.9088448189401
 30
0.0
 40
15.24
  1
52
 50
90.0
 41
1.0625
  7
ＭＳ ゴシック
100
AcDbText
  0
TEXT
  5
2BB
330
1F
100
AcDbEntity
  8
0-F
  6
Continuous
 62
     2
370
     9
100
AcDbText
 10
155.3898058752112
 20
-401.3878734691723
 30
0.0
 40
15.24
  1
8
 50
90.0
 41
1.00000020619985
  7
ＭＳ ゴシック
100
AcDbText
  0
TEXT
  5
2BC
330
1F
100
AcDbEntity
  8
0-F
  6
Continuous
 62
     2
370
     9
100
AcDbText
 10
64.58476298564193
 20
-418.4637672877956
 30
0.0
 40
15.24
  1
53.5
 41
1.09375
  7
ＭＳ ゴシック
100
AcDbText
  0
TEXT
  5
2BD
330
1F
100
AcDbEntity
  8
0-F
  6
Continuous
 62
     2
370
     9
100
AcDbText
 10
687.1352628800677
 20
-312.5338415197424
 30
0.0
 40
15.24
  1
160
 50
90.0
 41
1.083333333333333
  7
ＭＳ ゴシック
100
AcDbText
  0
TEXT
  5
2BE
330
1F
100
AcDbEntity
  8
0-F
  6
Continuous
 62
     2
370
     9
100
AcDbText
 10
-675.2821334591428
 20
-267.5338167757601
 30
0.0
 40
15.24
  1
250
 50
90.0
 41
1.083333333333333
  7
ＭＳ ゴシック
100
AcDbText
  0
ENDSEC
  0
SECTION
  2
OBJECTS
  0
DICTIONARY
  5
C
330
0
100
AcDbDictionary
281
     1
  3
ACAD_GROUP
350
D
  3
ACAD_LAYOUT
350
1A
  3
ACAD_MLEADERSTYLE
350
2C0
  3
ACAD_MLINESTYLE
350
17
  3
ACAD_PLOTSETTINGS
350
19
  3
ACAD_PLOTSTYLENAME
350
E
  3
ACAD_TABLESTYLE
350
2BF
  3
ACAD_VISUALSTYLE
350
2A
  0
DICTIONARY
  5
D
102
{ACAD_REACTORS
330
C
102
}
330
C
100
AcDbDictionary
281
     1
  0
DICTIONARY
  5
1A
102
{ACAD_REACTORS
330
C
102
}
330
C
100
AcDbDictionary
281
     1
  3
Layout1
350
1E
  3
Layout2
350
26
  3
Model
350
22
  0
DICTIONARY
  5
2C0
102
{ACAD_REACTORS
330
C
102
}
330
C
100
AcDbDictionary
281
     1
  0
DICTIONARY
  5
17
102
{ACAD_REACTORS
330
C
102
}
330
C
100
AcDbDictionary
281
     1
  3
Standard
350
18
  0
DICTIONARY
  5
19
102
{ACAD_REACTORS
330
C
102
}
330
C
100
AcDbDictionary
281
     1
  0
ACDBDICTIONARYWDFLT
  5
E
102
{ACAD_REACTORS
330
C
102
}
330
C
100
AcDbDictionary
281
     1
  3
Normal
350
F
100
AcDbDictionaryWithDefault
340
F
  0
DICTIONARY
  5
2BF
102
{ACAD_REACTORS
330
C
102
}
330
C
100
AcDbDictionary
281
     1
  0
DICTIONARY
  5
2A
102
{ACAD_REACTORS
330
C
102
}
330
C
100
AcDbDictionary
281
     1
  3
2dWireframe
350
2F
  3
3D Hidden
350
31
  3
3dWireframe
350
30
  3
Basic
350
32
  3
Brighten
350
36
  3
ColorChange
350
3A
  3
Conceptual
350
34
  3
Dim
350
35
  3
Facepattern
350
39
  3
Flat
350
2B
  3
FlatWithEdges
350
2C
  3
Gouraud
350
2D
  3
GouraudWithEdges
350
2E
  3
Linepattern
350
38
  3
Realistic
350
33
  3
Thicken
350
37
  0
LAYOUT
  5
1E
102
{ACAD_REACTORS
330
1A
102
}
330
1A
100
AcDbPlotSettings
  1

  2
none_device
  4

  6

 40
0.0
 41
0.0
 42
0.0
 43
0.0
 44
0.0
 45
0.0
 46
0.0
 47
0.0
 48
0.0
 49
0.0
140
0.0
141
0.0
142
1.0
143
1.0
 70
   688
 72
     0
 73
     0
 74
     5
  7

 75
    16
 76
     0
 77
     5
 78
   300
147
1.0
148
0.0
149
0.0
100
AcDbLayout
  1
Layout1
 70
     1
 71
     1
 10
0.0
 20
0.0
 11
420.0
 21
297.0
 12
0.0
 22
0.0
 32
0.0
 14
1.000000000000000E+20
 24
1.000000000000000E+20
 34
1.000000000000000E+20
 15
-1.000000000000000E+20
 25
-1.000000000000000E+20
 35
-1.000000000000000E+20
146
0.0
 13
0.0
 23
0.0
 33
0.0
 16
1.0
 26
0.0
 36
0.0
 17
0.0
 27
1.0
 37
0.0
 76
     0
330
1B
  0
LAYOUT
  5
26
102
{ACAD_REACTORS
330
1A
102
}
330
1A
100
AcDbPlotSettings
  1

  2
none_device
  4

  6

 40
0.0
 41
0.0
 42
0.0
 43
0.0
 44
0.0
 45
0.0
 46
0.0
 47
0.0
 48
0.0
 49
0.0
140
0.0
141
0.0
142
1.0
143
1.0
 70
   688
 72
     0
 73
     0
 74
     5
  7

 75
    16
 76
     0
 77
     5
 78
   300
147
1.0
148
0.0
149
0.0
100
AcDbLayout
  1
Layout2
 70
     1
 71
     2
 10
0.0
 20
0.0
 11
0.0
 21
0.0
 12
0.0
 22
0.0
 32
0.0
 14
0.0
 24
0.0
 34
0.0
 15
0.0
 25
0.0
 35
0.0
146
0.0
 13
0.0
 23
0.0
 33
0.0
 16
1.0
 26
0.0
 36
0.0
 17
0.0
 27
1.0
 37
0.0
 76
     0
330
23
  0
LAYOUT
  5
22
102
{ACAD_REACTORS
330
1A
102
}
330
1A
100
AcDbPlotSettings
  1

  2
none_device
  4

  6

 40
0.0
 41
0.0
 42
0.0
 43
0.0
 44
0.0
 45
0.0
 46
0.0
 47
0.0
 48
0.0
 49
0.0
140
0.0
141
0.0
142
1.0
143
1.0
 70
  1712
 72
     0
 73
     0
 74
     0
  7

 75
     0
 76
     0
 77
     5
 78
   300
147
1.0
148
0.0
149
0.0
100
AcDbLayout
  1
Model
 70
     1
 71
     0
 10
-1050.0
 20
-742.5
 11
1050.0
 21
742.5
 12
0.0
 22
0.0
 32
0.0
 14
-1050.0
 24
-742.5
 34
0.0
 15
1050.0
 25
742.5
 35
0.0
146
0.0
 13
0.0
 23
0.0
 33
0.0
 16
1.0
 26
0.0
 36
0.0
 17
0.0
 27
1.0
 37
0.0
 76
     0
330
1F
331
29
  0
MLINESTYLE
  5
18
102
{ACAD_REACTORS
330
17
102
}
330
17
100
AcDbMlineStyle
  2
Standard
 70
     0
  3

 62
   256
 51
90.0
 52
90.0
 71
     2
 49
0.5
 62
   256
  6
BYLAYER
 49
-0.5
 62
   256
  6
BYLAYER
  0
ACDBPLACEHOLDER
  5
F
102
{ACAD_REACTORS
330
E
102
}
330
E
  0
VISUALSTYLE
  5
2F
102
{ACAD_REACTORS
330
2A
102
}
330
2A
100
AcDbVisualStyle
  2
2dWireframe
 70
     4
 71
     0
 72
     2
 73
     0
 90
        0
 40
-0.6
 41
-30.0
 62
     5
 63
     7
421
 16777215
 74
     1
 91
        4
 64
     7
 65
   257
 75
     1
175
     1
 42
1.0
 92
        0
 66
   257
 43
1.0
 76
     1
 77
     6
 78
     2
 67
     7
 79
     5
170
     0
171
     0
290
     0
174
     0
 93
        1
 44
0.0
173
     0
291
     0
 45
0.0
1001
ACAD
1000
AcDbSavedByObjectVersion
1070
     0
  0
VISUALSTYLE
  5
31
102
{ACAD_REACTORS
330
2A
102
}
330
2A
100
AcDbVisualStyle
  2
3D Hidden
 70
     6
 71
     1
 72
     2
 73
     2
 90
        0
 40
-0.6
 41
-30.0
 62
     5
 63
     7
421
 16777215
 74
     2
 91
        2
 64
     7
 65
   257
 75
     2
175
     1
 42
40.0
 92
        0
 66
   257
 43
1.0
 76
     1
 77
     6
 78
     2
 67
     7
 79
     3
170
     0
171
     0
290
     0
174
     0
 93
        1
 44
0.0
173
     0
291
     0
 45
0.0
1001
ACAD
1000
AcDbSavedByObjectVersion
1070
     0
  0
VISUALSTYLE
  5
30
102
{ACAD_REACTORS
330
2A
102
}
330
2A
100
AcDbVisualStyle
  2
3dWireframe
 70
     5
 71
     0
 72
     2
 73
     0
 90
        0
 40
-0.6
 41
-30.0
 62
     5
 63
     7
421
 16777215
 74
     1
 91
        4
 64
     7
 65
   257
 75
     1
175
     1
 42
1.0
 92
        0
 66
   257
 43
1.0
 76
     1
 77
     6
 78
     2
 67
     7
 79
     5
170
     0
171
     0
290
     0
174
     0
 93
        1
 44
0.0
173
     0
291
     0
 45
0.0
1001
ACAD
1000
AcDbSavedByObjectVersion
1070
     0
  0
VISUALSTYLE
  5
32
102
{ACAD_REACTORS
330
2A
102
}
330
2A
100
AcDbVisualStyle
  2
Basic
 70
     7
 71
     1
 72
     0
 73
     1
 90
        0
 40
-0.6
 41
-30.0
 62
     5
 63
     7
421
 16777215
 74
     0
 91
        4
 64
     7
 65
   257
 75
     1
175
     1
 42
1.0
 92
        8
 66
     7
 43
1.0
 76
     1
 77
     6
 78
     2
 67
     7
 79
     5
170
     0
171
     0
290
     0
174
     0
 93
        1
 44
0.0
173
     0
291
     1
 45
0.0
1001
ACAD
1000
AcDbSavedByObjectVersion
1070
     0
  0
VISUALSTYLE
  5
36
102
{ACAD_REACTORS
330
2A
102
}
330
2A
100
AcDbVisualStyle
  2
Brighten
 70
    12
 71
     2
 72
     2
 73
     0
 90
        0
 40
-0.6
 41
-30.0
 62
     5
 63
     7
421
 16777215
 74
     1
 91
        4
 64
     7
 65
   257
 75
     1
175
     1
 42
1.0
 92
        8
 66
     7
 43
1.0
 76
     1
 77
     6
 78
     2
 67
     7
 79
     5
170
     0
171
     0
290
     0
174
     0
 93
        1
 44
50.0
173
     0
291
     1
 45
0.0
1001
ACAD
1000
AcDbSavedByObjectVersion
1070
     0
  0
VISUALSTYLE
  5
3A
102
{ACAD_REACTORS
330
2A
102
}
330
2A
100
AcDbVisualStyle
  2
ColorChange
 70
    16
 71
     2
 72
     2
 73
     3
 90
        0
 40
-0.6
 41
-30.0
 62
     5
 63
     8
421
  8421504
 74
     1
 91
        4
 64
     7
 65
   257
 75
     1
175
     1
 42
1.0
 92
        8
 66
     8
424
  8421504
 43
1.0
 76
     1
 77
     6
 78
     2
 67
     7
 79
     5
170
     0
171
     0
290
     0
174
     0
 93
        1
 44
0.0
173
     0
291
     1
 45
0.0
1001
ACAD
1000
AcDbSavedByObjectVersion
1070
     0
  0
VISUALSTYLE
  5
34
102
{ACAD_REACTORS
330
2A
102
}
330
2A
100
AcDbVisualStyle
  2
Conceptual
 70
     9
 71
     3
 72
     2
 73
     0
 90
        0
 40
-0.6
 41
-30.0
 62
     5
 63
     7
421
 16777215
 74
     2
 91
        2
 64
     7
 65
   257
 75
     1
175
     1
 42
40.0
 92
        8
 66
     7
 43
1.0
 76
     1
 77
     6
 78
     2
 67
     7
 79
     3
170
     0
171
     0
290
     0
174
     0
 93
        1
 44
0.0
173
     0
291
     0
 45
0.0
1001
ACAD
1000
AcDbSavedByObjectVersion
1070
     0
  0
VISUALSTYLE
  5
35
102
{ACAD_REACTORS
330
2A
102
}
330
2A
100
AcDbVisualStyle
  2
Dim
 70
    11
 71
     2
 72
     2
 73
     0
 90
        0
 40
-0.6
 41
-30.0
 62
     5
 63
     7
421
 16777215
 74
     1
 91
        4
 64
     7
 65
   257
 75
     1
175
     1
 42
1.0
 92
        8
 66
     7
 43
1.0
 76
     1
 77
     6
 78
     2
 67
     7
 79
     5
170
     0
171
     0
290
     0
174
     0
 93
        1
 44
-50.0
173
     0
291
     1
 45
0.0
1001
ACAD
1000
AcDbSavedByObjectVersion
1070
     0
  0
VISUALSTYLE
  5
39
102
{ACAD_REACTORS
330
2A
102
}
330
2A
100
AcDbVisualStyle
  2
Facepattern
 70
    15
 71
     2
 72
     2
 73
     0
 90
        0
 40
-0.6
 41
-30.0
 62
     5
 63
     7
421
 16777215
 74
     1
 91
        4
 64
     7
 65
   257
 75
     1
175
     1
 42
1.0
 92
        8
 66
     7
 43
1.0
 76
     1
 77
     6
 78
     2
 67
     7
 79
     5
170
     0
171
     0
290
     0
174
     0
 93
        1
 44
0.0
173
     0
291
     1
 45
0.0
1001
ACAD
1000
AcDbSavedByObjectVersion
1070
     0
  0
VISUALSTYLE
  5
2B
102
{ACAD_REACTORS
330
2A
102
}
330
2A
100
AcDbVisualStyle
  2
Flat
 70
     0
 71
     2
 72
     1
 73
     1
 90
        2
 40
-0.6
 41
30.0
 62
     5
 63
     7
421
 16777215
 74
     0
 91
        4
 64
     7
 65
   257
 75
     1
175
     1
 42
1.0
 92
        8
 66
     7
 43
1.0
 76
     1
 77
     6
 78
     2
 67
     7
 79
     5
170
     0
171
     0
290
     0
174
     0
 93
       13
 44
0.0
173
     0
291
     1
 45
0.0
1001
ACAD
1000
AcDbSavedByObjectVersion
1070
     0
  0
VISUALSTYLE
  5
2C
102
{ACAD_REACTORS
330
2A
102
}
330
2A
100
AcDbVisualStyle
  2
FlatWithEdges
 70
     1
 71
     2
 72
     1
 73
     1
 90
        2
 40
-0.6
 41
30.0
 62
     5
 63
     7
421
 16777215
 74
     1
 91
        4
 64
     7
 65
   257
 75
     1
175
     1
 42
1.0
 92
        0
 66
   257
 43
1.0
 76
     1
 77
     6
 78
     2
 67
     7
 79
     5
170
     0
171
     0
290
     0
174
     0
 93
       13
 44
0.0
173
     0
291
     1
 45
0.0
1001
ACAD
1000
AcDbSavedByObjectVersion
1070
     0
  0
VISUALSTYLE
  5
2D
102
{ACAD_REACTORS
330
2A
102
}
330
2A
100
AcDbVisualStyle
  2
Gouraud
 70
     2
 71
     2
 72
     2
 73
     1
 90
        2
 40
-0.6
 41
30.0
 62
     5
 63
     7
421
 16777215
 74
     0
 91
        4
 64
     7
 65
   257
 75
     1
175
     1
 42
1.0
 92
        0
 66
     7
 43
1.0
 76
     1
 77
     6
 78
     2
 67
     7
 79
     5
170
     0
171
     0
290
     0
174
     0
 93
       13
 44
0.0
173
     0
291
     1
 45
0.0
1001
ACAD
1000
AcDbSavedByObjectVersion
1070
     0
  0
VISUALSTYLE
  5
2E
102
{ACAD_REACTORS
330
2A
102
}
330
2A
100
AcDbVisualStyle
  2
GouraudWithEdges
 70
     3
 71
     2
 72
     2
 73
     1
 90
        2
 40
-0.6
 41
30.0
 62
     5
 63
     7
421
 16777215
 74
     1
 91
        4
 64
     7
 65
   257
 75
     1
175
     1
 42
1.0
 92
        0
 66
   257
 43
1.0
 76
     1
 77
     6
 78
     2
 67
     7
 79
     5
170
     0
171
     0
290
     0
174
     0
 93
       13
 44
0.0
173
     0
291
     1
 45
0.0
1001
ACAD
1000
AcDbSavedByObjectVersion
1070
     0
  0
VISUALSTYLE
  5
38
102
{ACAD_REACTORS
330
2A
102
}
330
2A
100
AcDbVisualStyle
  2
Linepattern
 70
    14
 71
     2
 72
     2
 73
     0
 90
        0
 40
-0.6
 41
-30.0
 62
     5
 63
     7
421
 16777215
 74
     1
 91
        4
 64
     7
 65
   257
 75
     7
175
     7
 42
1.0
 92
        8
 66
     7
 43
1.0
 76
     1
 77
     6
 78
     2
 67
     7
 79
     5
170
     0
171
     0
290
     0
174
     0
 93
        1
 44
0.0
173
     0
291
     1
 45
0.0
1001
ACAD
1000
AcDbSavedByObjectVersion
1070
     0
  0
VISUALSTYLE
  5
33
102
{ACAD_REACTORS
330
2A
102
}
330
2A
100
AcDbVisualStyle
  2
Realistic
 70
     8
 71
     2
 72
     2
 73
     0
 90
        0
 40
-0.6
 41
-30.0
 62
     5
 63
     7
421
 16777215
 74
     1
 91
        0
 64
     7
 65
   257
 75
     1
175
     1
 42
1.0
 92
        8
 66
     8
424
  7895160
 43
1.0
 76
     1
 77
     6
 78
     2
 67
     7
 79
     5
170
     0
171
     0
290
     0
174
     0
 93
       13
 44
0.0
173
     0
291
     0
 45
0.0
1001
ACAD
1000
AcDbSavedByObjectVersion
1070
     0
  0
VISUALSTYLE
  5
37
102
{ACAD_REACTORS
330
2A
102
}
330
2A
100
AcDbVisualStyle
  2
Thicken
 70
    13
 71
     2
 72
     2
 73
     0
 90
        0
 40
-0.6
 41
-30.0
 62
     5
 63
     7
421
 16777215
 74
     1
 91
        4
 64
     7
 65
   257
 75
     1
175
     1
 42
1.0
 92
       12
 66
     7
 43
1.0
 76
     1
 77
     6
 78
     2
 67
     7
 79
     5
170
     0
171
     0
290
     0
174
     0
 93
        1
 44
0.0
173
     0
291
     1
 45
0.0
1001
ACAD
1000
AcDbSavedByObjectVersion
1070
     0
  0
ENDSEC
  0
EOF
