  0
SECTION
  2
HEADER
  9
$ACADVER
  1
AC1018
  9
$ACADMAINTVER
 70
     0
  9
$DWGCODEPAGE
  3
ANSI_932
  9
$INSBASE
 10
0.0
 20
0.0
 30
0.0
  9
$EXTMIN
 10
-2100.0
 20
-1485.0
 30
0.0
  9
$EXTMAX
 10
2100.0
 20
1485.0
 30
0.0
  9
$LIMMIN
 10
-2100.0
 20
-1485.0
  9
$LIMMAX
 10
2100.0
 20
1485.0
  9
$ORTHOMODE
 70
     0
  9
$REGENMODE
 70
     1
  9
$FILLMODE
 70
     1
  9
$QTEXTMODE
 70
     0
  9
$MIRRTEXT
 70
     1
  9
$LTSCALE
 40
10.0
  9
$ATTMODE
 70
     1
  9
$TEXTSIZE
 40
2.5
  9
$TRACEWID
 40
1.0
  9
$TEXTSTYLE
  7
Standard
  9
$CLAYER
  8
0
  9
$CELTYPE
  6
ByLayer
  9
$CECOLOR
 62
   256
  9
$CELTSCALE
 40
1.0
  9
$DISPSILH
 70
     0
  9
$DIMSCALE
 40
1.0
  9
$DIMASZ
 40
2.5
  9
$DIMEXO
 40
0.625
  9
$DIMDLI
 40
3.75
  9
$DIMRND
 40
0.0
  9
$DIMDLE
 40
0.0
  9
$DIMEXE
 40
1.25
  9
$DIMTP
 40
0.0
  9
$DIMTM
 40
0.0
  9
$DIMTXT
 40
2.5
  9
$DIMCEN
 40
2.5
  9
$DIMTSZ
 40
0.0
  9
$DIMTOL
 70
     0
  9
$DIMLIM
 70
     0
  9
$DIMTIH
 70
     0
  9
$DIMTOH
 70
     0
  9
$DIMSE1
 70
     0
  9
$DIMSE2
 70
     0
  9
$DIMTAD
 70
     1
  9
$DIMZIN
 70
     8
  9
$DIMBLK
  1

  9
$DIMASO
 70
     1
  9
$DIMSHO
 70
     1
  9
$DIMPOST
  1

  9
$DIMAPOST
  1

  9
$DIMALT
 70
     0
  9
$DIMALTD
 70
     3
  9
$DIMALTF
 40
0.03937007874016
  9
$DIMLFAC
 40
1.0
  9
$DIMTOFL
 70
     1
  9
$DIMTVP
 40
0.0
  9
$DIMTIX
 70
     0
  9
$DIMSOXD
 70
     0
  9
$DIMSAH
 70
     0
  9
$DIMBLK1
  1

  9
$DIMBLK2
  1

  9
$DIMSTYLE
  2
ISO-25
  9
$DIMCLRD
 70
     0
  9
$DIMCLRE
 70
     0
  9
$DIMCLRT
 70
     0
  9
$DIMTFAC
 40
1.0
  9
$DIMGAP
 40
0.625
  9
$DIMJUST
 70
     0
  9
$DIMSD1
 70
     0
  9
$DIMSD2
 70
     0
  9
$DIMTOLJ
 70
     0
  9
$DIMTZIN
 70
     8
  9
$DIMALTZ
 70
     0
  9
$DIMALTTZ
 70
     0
  9
$DIMUPT
 70
     0
  9
$DIMDEC
 70
     2
  9
$DIMTDEC
 70
     2
  9
$DIMALTU
 70
     2
  9
$DIMALTTD
 70
     3
  9
$DIMTXSTY
  7
Standard
  9
$DIMAUNIT
 70
     0
  9
$DIMADEC
 70
     0
  9
$DIMALTRND
 40
0.0
  9
$DIMAZIN
 70
     0
  9
$DIMDSEP
 70
    44
  9
$DIMATFIT
 70
     3
  9
$DIMFRAC
 70
     0
  9
$DIMLDRBLK
  1

  9
$DIMLUNIT
 70
     2
  9
$DIMLWD
 70
    -2
  9
$DIMLWE
 70
    -2
  9
$DIMTMOVE
 70
     0
  9
$LUNITS
 70
     2
  9
$LUPREC
 70
     4
  9
$SKETCHINC
 40
1.0
  9
$FILLETRAD
 40
10.0
  9
$AUNITS
 70
     0
  9
$AUPREC
 70
     0
  9
$MENU
  1
.
  9
$ELEVATION
 40
0.0
  9
$PELEVATION
 40
0.0
  9
$THICKNESS
 40
0.0
  9
$LIMCHECK
 70
     0
  9
$CHAMFERA
 40
10.0
  9
$CHAMFERB
 40
10.0
  9
$CHAMFERC
 40
20.0
  9
$CHAMFERD
 40
0.0
  9
$SKPOLY
 70
     0
  9
$TDCREATE
 40
2458570.415517604
  9
$TDUCREATE
 40
2458570.040517604
  9
$TDUPDATE
 40
2458570.415517616
  9
$TDUUPDATE
 40
2458570.040517616
  9
$TDINDWG
 40
0.0000000116
  9
$TDUSRTIMER
 40
0.0000000116
  9
$USRTIMER
 70
     1
  9
$ANGBASE
 50
0.0
  9
$ANGDIR
 70
     0
  9
$PDMODE
 70
     0
  9
$PDSIZE
 40
0.0
  9
$PLINEWID
 40
0.0
  9
$SPLFRAME
 70
     0
  9
$SPLINETYPE
 70
     6
  9
$SPLINESEGS
 70
     8
  9
$HANDSEED
  5
18F
  9
$SURFTAB1
 70
     6
  9
$SURFTAB2
 70
     6
  9
$SURFTYPE
 70
     6
  9
$SURFU
 70
     6
  9
$SURFV
 70
     6
  9
$UCSBASE
  2

  9
$UCSNAME
  2

  9
$UCSORG
 10
0.0
 20
0.0
 30
0.0
  9
$UCSXDIR
 10
1.0
 20
0.0
 30
0.0
  9
$UCSYDIR
 10
0.0
 20
1.0
 30
0.0
  9
$UCSORTHOREF
  2

  9
$UCSORTHOVIEW
 70
     0
  9
$UCSORGTOP
 10
0.0
 20
0.0
 30
0.0
  9
$UCSORGBOTTOM
 10
0.0
 20
0.0
 30
0.0
  9
$UCSORGLEFT
 10
0.0
 20
0.0
 30
0.0
  9
$UCSORGRIGHT
 10
0.0
 20
0.0
 30
0.0
  9
$UCSORGFRONT
 10
0.0
 20
0.0
 30
0.0
  9
$UCSORGBACK
 10
0.0
 20
0.0
 30
0.0
  9
$PUCSBASE
  2

  9
$PUCSNAME
  2

  9
$PUCSORG
 10
0.0
 20
0.0
 30
0.0
  9
$PUCSXDIR
 10
1.0
 20
0.0
 30
0.0
  9
$PUCSYDIR
 10
0.0
 20
1.0
 30
0.0
  9
$PUCSORTHOREF
  2

  9
$PUCSORTHOVIEW
 70
     0
  9
$PUCSORGTOP
 10
0.0
 20
0.0
 30
0.0
  9
$PUCSORGBOTTOM
 10
0.0
 20
0.0
 30
0.0
  9
$PUCSORGLEFT
 10
0.0
 20
0.0
 30
0.0
  9
$PUCSORGRIGHT
 10
0.0
 20
0.0
 30
0.0
  9
$PUCSORGFRONT
 10
0.0
 20
0.0
 30
0.0
  9
$PUCSORGBACK
 10
0.0
 20
0.0
 30
0.0
  9
$USERI1
 70
     0
  9
$USERI2
 70
     0
  9
$USERI3
 70
     0
  9
$USERI4
 70
     0
  9
$USERI5
 70
     0
  9
$USERR1
 40
0.0
  9
$USERR2
 40
0.0
  9
$USERR3
 40
0.0
  9
$USERR4
 40
0.0
  9
$USERR5
 40
0.0
  9
$WORLDVIEW
 70
     1
  9
$SHADEDGE
 70
     3
  9
$SHADEDIF
 70
    70
  9
$TILEMODE
 70
     1
  9
$MAXACTVP
 70
    64
  9
$PINSBASE
 10
0.0
 20
0.0
 30
0.0
  9
$PLIMCHECK
 70
     0
  9
$PEXTMIN
 10
1.000000000000000E+20
 20
1.000000000000000E+20
 30
1.000000000000000E+20
  9
$PEXTMAX
 10
-1.000000000000000E+20
 20
-1.000000000000000E+20
 30
-1.000000000000000E+20
  9
$PLIMMIN
 10
0.0
 20
0.0
  9
$PLIMMAX
 10
420.0
 20
297.0
  9
$UNITMODE
 70
     0
  9
$VISRETAIN
 70
     1
  9
$PLINEGEN
 70
     0
  9
$PSLTSCALE
 70
     1
  9
$TREEDEPTH
 70
  3020
  9
$CMLSTYLE
  2
Standard
  9
$CMLJUST
 70
     0
  9
$CMLSCALE
 40
20.0
  9
$PROXYGRAPHICS
 70
     1
  9
$MEASUREMENT
 70
     1
  9
$CELWEIGHT
370
    -1
  9
$ENDCAPS
280
     0
  9
$JOINSTYLE
280
     0
  9
$LWDISPLAY
290
     0
  9
$INSUNITS
 70
     4
  9
$HYPERLINKBASE
  1

  9
$STYLESHEET
  1

  9
$XEDIT
290
     1
  9
$CEPSNTYPE
380
     0
  9
$PSTYLEMODE
290
     1
  9
$FINGERPRINTGUID
  2
{B52B7A1F-C0DB-499D-8CA7-97CF42EFFD01}
  9
$VERSIONGUID
  2
{FAEB1C32-E019-11D5-929B-00C0DF256EC4}
  9
$EXTNAMES
290
     1
  9
$PSVPSCALE
 40
0.0
  9
$OLESTARTUP
290
     0
  9
$SORTENTS
280
   127
  9
$INDEXCTL
280
     0
  9
$HIDETEXT
280
     1
  9
$XCLIPFRAME
290
     0
  9
$HALOGAP
280
     0
  9
$OBSCOLOR
 70
   257
  9
$OBSLTYPE
280
     0
  9
$INTERSECTIONDISPLAY
280
     0
  9
$INTERSECTIONCOLOR
 70
   257
  9
$DIMASSOC
280
     2
  9
$PROJECTNAME
  1

  0
ENDSEC
  0
SECTION
  2
CLASSES
  0
CLASS
  1
ACDBDICTIONARYWDFLT
  2
AcDbDictionaryWithDefault
  3
ObjectDBX Classes
 90
        0
 91
        4
280
     0
281
     0
  0
CLASS
  1
VISUALSTYLE
  2
AcDbVisualStyle
  3
ObjectDBX Classes
 90
     4095
 91
        4
280
     0
281
     0
  0
ENDSEC
  0
SECTION
  2
TABLES
  0
TABLE
  2
VPORT
  5
8
330
0
100
AcDbSymbolTable
 70
     1
  0
VPORT
  5
29
330
8
100
AcDbSymbolTableRecord
100
AcDbViewportTableRecord
  2
*Active
 70
     0
 10
0.0
 20
0.0
 11
1.0
 21
1.0
 12
0.0
 22
0.0
 13
0.0
 23
0.0
 14
10.0
 24
10.0
 15
10.0
 25
10.0
 16
0.0
 26
0.0
 36
1.0
 17
0.0
 27
0.0
 37
0.0
 40
3267.0
 41
1.414141414141414
 42
50.0
 43
0.0
 44
0.0
 50
0.0
 51
0.0
 71
     0
 72
 10000
 73
     1
 74
     3
 75
     0
 76
     0
 77
     0
 78
     0
281
     0
 65
     1
110
0.0
120
0.0
130
0.0
111
1.0
121
0.0
131
0.0
112
0.0
122
1.0
132
0.0
 79
     0
146
0.0
  0
ENDTAB
  0
TABLE
  2
LTYPE
  5
5
330
0
100
AcDbSymbolTable
 70
     4
  0
LTYPE
  5
14
330
5
100
AcDbSymbolTableRecord
100
AcDbLinetypeTableRecord
  2
ByBlock
 70
     0
  3

 72
    65
 73
     0
 40
0.0
  0
LTYPE
  5
15
330
5
100
AcDbSymbolTableRecord
100
AcDbLinetypeTableRecord
  2
ByLayer
 70
     0
  3

 72
    65
 73
     0
 40
0.0
  0
LTYPE
  5
16
330
5
100
AcDbSymbolTableRecord
100
AcDbLinetypeTableRecord
  2
Continuous
 70
     0
  3
Solid line
 72
    65
 73
     0
 40
0.0
  0
LTYPE
  5
3C
330
5
100
AcDbSymbolTableRecord
100
AcDbLinetypeTableRecord
  2
JWW_DASHED1
 70
     0
  3
-  --  --  --  --  --  --  --  -
 72
    65
 73
     2
 40
1.693333333333333
 49
0.8466666666666667
 74
     0
 49
-0.8466666666666667
 74
     0
  0
LTYPE
  5
3D
330
5
100
AcDbSymbolTableRecord
100
AcDbLinetypeTableRecord
  2
JWW_CENTER1
 70
     0
  3
-----  --  ----------  --  -----
 72
    65
 73
     4
 40
6.773333333333333
 49
4.233333333333333
 74
     0
 49
-0.8466666666666667
 74
     0
 49
0.8466666666666667
 74
     0
 49
-0.8466666666666667
 74
     0
  0
LTYPE
  5
3E
330
5
100
AcDbSymbolTableRecord
100
AcDbLinetypeTableRecord
  2
JWW_CENTER2
 70
     0
  3
-------------  --  -------------
 72
    65
 73
     4
 40
13.54666666666667
 49
11.00666666666667
 74
     0
 49
-0.8466666666666667
 74
     0
 49
0.8466666666666667
 74
     0
 49
-0.8466666666666667
 74
     0
  0
ENDTAB
  0
TABLE
  2
LAYER
  5
2
330
0
100
AcDbSymbolTable
 70
    13
  0
LAYER
  5
10
330
2
100
AcDbSymbolTableRecord
100
AcDbLayerTableRecord
  2
0
 70
     0
 62
     7
  6
Continuous
370
    -3
390
F
  0
LAYER
  5
3F
330
2
100
AcDbSymbolTableRecord
100
AcDbLayerTableRecord
  2
C-E
 70
     0
 62
     7
  6
Continuous
370
    -1
390
F
  0
LAYER
  5
40
330
2
100
AcDbSymbolTableRecord
100
AcDbLayerTableRecord
  2
C-5
 70
     0
 62
     7
  6
Continuous
370
    -1
390
F
  0
LAYER
  5
41
330
2
100
AcDbSymbolTableRecord
100
AcDbLayerTableRecord
  2
C-1
 70
     0
 62
     7
  6
Continuous
370
    -1
390
F
  0
LAYER
  5
42
330
2
100
AcDbSymbolTableRecord
100
AcDbLayerTableRecord
  2
C-6
 70
     0
 62
     7
  6
Continuous
370
    -1
390
F
  0
LAYER
  5
43
330
2
100
AcDbSymbolTableRecord
100
AcDbLayerTableRecord
  2
C-2
 70
     0
 62
     7
  6
Continuous
370
    -1
390
F
  0
LAYER
  5
44
330
2
100
AcDbSymbolTableRecord
100
AcDbLayerTableRecord
  2
D-6
 70
     0
 62
     7
  6
Continuous
370
    -1
390
F
  0
LAYER
  5
45
330
2
100
AcDbSymbolTableRecord
100
AcDbLayerTableRecord
  2
D-2
 70
     0
 62
     7
  6
Continuous
370
    -1
390
F
  0
LAYER
  5
46
330
2
100
AcDbSymbolTableRecord
100
AcDbLayerTableRecord
  2
D-4
 70
     0
 62
     7
  6
Continuous
370
    -1
390
F
  0
LAYER
  5
47
330
2
100
AcDbSymbolTableRecord
100
AcDbLayerTableRecord
  2
C-4
 70
     0
 62
     7
  6
Continuous
370
    -1
390
F
  0
LAYER
  5
48
330
2
100
AcDbSymbolTableRecord
100
AcDbLayerTableRecord
  2
F-4ﾚｲﾔ
 70
     0
 62
     7
  6
Continuous
370
    -1
390
F
  0
LAYER
  5
49
330
2
100
AcDbSymbolTableRecord
100
AcDbLayerTableRecord
  2
C-0
 70
     0
 62
     7
  6
Continuous
370
    -1
390
F
  0
LAYER
  5
4A
330
2
100
AcDbSymbolTableRecord
100
AcDbLayerTableRecord
  2
C-3
 70
     0
 62
     7
  6
Continuous
370
    -1
390
F
  0
ENDTAB
  0
TABLE
  2
STYLE
  5
3
330
0
100
AcDbSymbolTable
 70
     2
  0
STYLE
  5
11
330
3
100
AcDbSymbolTableRecord
100
AcDbTextStyleTableRecord
  2
Standard
 70
     0
 40
0.0
 41
1.0
 50
0.0
 71
     0
 42
2.5
  3
txt
  4

1001
ACAD
1000

1071
        0
  0
STYLE
  5
3B
330
3
100
AcDbSymbolTableRecord
100
AcDbTextStyleTableRecord
  2
ＭＳ ゴシック
 70
     0
 40
1.0
 41
1.0
 50
0.0
 71
     0
 42
10.0
  3

  4

1001
ACAD
1000
MS Gothic
1071
    32817
  0
ENDTAB
  0
TABLE
  2
VIEW
  5
6
330
0
100
AcDbSymbolTable
 70
     0
  0
ENDTAB
  0
TABLE
  2
UCS
  5
7
330
0
100
AcDbSymbolTable
 70
     0
  0
ENDTAB
  0
TABLE
  2
APPID
  5
9
330
0
100
AcDbSymbolTable
 70
     1
  0
APPID
  5
12
330
9
100
AcDbSymbolTableRecord
100
AcDbRegAppTableRecord
  2
ACAD
 70
     0
  0
ENDTAB
  0
TABLE
  2
DIMSTYLE
  5
A
330
0
100
AcDbSymbolTable
 70
     1
100
AcDbDimStyleTable
  0
DIMSTYLE
105
27
330
A
100
AcDbSymbolTableRecord
100
AcDbDimStyleTableRecord
  2
ISO-25
 70
     0
 41
2.5
 42
0.625
 43
3.75
 44
1.25
 73
     0
 74
     0
 77
     1
 78
     8
140
2.5
141
2.5
143
0.03937007874016
147
0.625
171
     3
172
     1
271
     2
272
     2
274
     3
278
    44
283
     0
284
     8
340
11
  0
ENDTAB
  0
TABLE
  2
BLOCK_RECORD
  5
1
330
0
100
AcDbSymbolTable
 70
     1
  0
BLOCK_RECORD
  5
1F
330
1
100
AcDbSymbolTableRecord
100
AcDbBlockTableRecord
  2
*Model_Space
340
22
  0
BLOCK_RECORD
  5
1B
330
1
100
AcDbSymbolTableRecord
100
AcDbBlockTableRecord
  2
*Paper_Space
340
1E
  0
BLOCK_RECORD
  5
23
330
1
100
AcDbSymbolTableRecord
100
AcDbBlockTableRecord
  2
*Paper_Space0
340
26
  0
ENDTAB
  0
ENDSEC
  0
SECTION
  2
BLOCKS
  0
BLOCK
  5
20
330
1F
100
AcDbEntity
  8
0
100
AcDbBlockBegin
  2
*Model_Space
 70
     0
 10
0.0
 20
0.0
 30
0.0
  3
*Model_Space
  1

  0
ENDBLK
  5
21
330
1F
100
AcDbEntity
  8
0
100
AcDbBlockEnd
  0
BLOCK
  5
1C
330
1B
100
AcDbEntity
 67
     1
  8
0
100
AcDbBlockBegin
  2
*Paper_Space
 70
     0
 10
0.0
 20
0.0
 30
0.0
  3
*Paper_Space
  1

  0
ENDBLK
  5
1D
330
1B
100
AcDbEntity
 67
     1
  8
0
100
AcDbBlockEnd
  0
BLOCK
  5
24
330
23
100
AcDbEntity
  8
0
100
AcDbBlockBegin
  2
*Paper_Space0
 70
     0
 10
0.0
 20
0.0
 30
0.0
  3
*Paper_Space0
  1

  0
ENDBLK
  5
25
330
23
100
AcDbEntity
  8
0
100
AcDbBlockEnd
  0
ENDSEC
  0
SECTION
  2
ENTITIES
  0
LINE
  5
4B
330
1F
100
AcDbEntity
  8
C-E
  6
Continuous
 62
     7
370
     9
100
AcDbLine
 10
-969.2910684121621
 20
-448.2204004236169
 30
0.0
 11
-888.9064067118876
 21
-748.2204004236169
 31
0.0
  0
LINE
  5
4C
330
1F
100
AcDbEntity
  8
C-E
  6
Continuous
 62
     7
370
     9
100
AcDbLine
 10
-969.2910684121621
 20
-448.2204004236169
 30
0.0
 11
-966.0279557511612
 21
-473.0065711768897
 31
0.0
  0
LINE
  5
4D
330
1F
100
AcDbEntity
  8
C-E
  6
Continuous
 62
     7
370
     9
100
AcDbLine
 10
-969.2910684121621
 20
-448.2204004236169
 30
0.0
 11
-959.7240551097973
 21
-471.3174232276709
 31
0.0
  0
LINE
  5
4E
330
1F
100
AcDbEntity
  8
C-5
  6
Continuous
 62
     7
370
     9
100
AcDbLine
 10
-1137.111742281998
 20
-529.6027615260246
 30
0.0
 11
-1207.528758932768
 21
-427.439864142602
 31
0.0
  0
LINE
  5
4F
330
1F
100
AcDbEntity
  8
C-5
  6
Continuous
 62
     7
370
     9
100
AcDbLine
 10
-1207.528758932768
 20
-427.439864142602
 30
0.0
 11
-1196.149061346316
 21
-449.6997492016246
 31
0.0
  0
LINE
  5
50
330
1F
100
AcDbEntity
  8
C-5
  6
Continuous
 62
     7
370
     9
100
AcDbLine
 10
-1207.528758932768
 20
-427.439864142602
 30
0.0
 11
-1190.775532943587
 21
-445.9959795484571
 31
0.0
  0
LINE
  5
51
330
1F
100
AcDbEntity
  8
C-E
  6
Continuous
 62
     7
370
     9
100
AcDbLine
 10
-862.2911607896958
 20
-442.9704078468116
 30
0.0
 11
-772.6574459591427
 21
-598.2204004236169
 31
0.0
  0
LINE
  5
52
330
1F
100
AcDbEntity
  8
C-1
  6
JWW_DASHED1
 62
     2
370
     9
100
AcDbLine
 10
-1261.791229248047
 20
785.0770197687925
 30
0.0
 11
-871.7911179001266
 21
785.0770197687925
 31
0.0
  0
LINE
  5
53
330
1F
100
AcDbEntity
  8
C-1
  6
JWW_DASHED1
 62
     2
370
     9
100
AcDbLine
 10
-1261.791229248047
 20
735.0771022487334
 30
0.0
 11
-871.7911179001266
 21
735.0771022487334
 31
0.0
  0
LINE
  5
54
330
1F
100
AcDbEntity
  8
C-1
  6
JWW_DASHED1
 62
     2
370
     9
100
AcDbLine
 10
-1261.791229248047
 20
735.0771022487334
 30
0.0
 11
-1261.791229248047
 21
785.0770197687925
 31
0.0
  0
LINE
  5
55
330
1F
100
AcDbEntity
  8
C-6
  6
JWW_CENTER1
 62
     6
370
     5
100
AcDbLine
 10
-866.7911014041384
 20
635.8435883393158
 30
0.0
 11
-866.7911014041384
 21
444.3101955104521
 31
0.0
  0
LINE
  5
56
330
1F
100
AcDbEntity
  8
C-1
  6
JWW_DASHED1
 62
     2
370
     9
100
AcDbLine
 10
-1261.791229248047
 20
781.0771550358953
 30
0.0
 11
-871.7911179001266
 21
781.0771550358953
 31
0.0
  0
LINE
  5
57
330
1F
100
AcDbEntity
  8
C-6
  6
JWW_CENTER1
 62
     6
370
     5
100
AcDbLine
 10
-1266.791245744035
 20
444.3101955104521
 30
0.0
 11
-1266.791245744035
 21
635.8435883393158
 31
0.0
  0
LINE
  5
58
330
1F
100
AcDbEntity
  8
C-6
  6
JWW_CENTER1
 62
     6
370
     5
100
AcDbLine
 10
-1280.949257515572
 20
615.0772012246623
 30
0.0
 11
-1252.81658688107
 21
615.0772012246623
 31
0.0
  0
LINE
  5
59
330
1F
100
AcDbEntity
  8
C-6
  6
Continuous
 62
     6
370
     5
100
AcDbLine
 10
-1262.291305129593
 20
465.0770775047511
 30
0.0
 11
-1262.291305129593
 21
615.0772012246623
 31
0.0
  0
LINE
  5
5A
330
1F
100
AcDbEntity
  8
C-6
  6
Continuous
 62
     6
370
     5
100
AcDbLine
 10
-1271.291186358478
 20
465.0770775047511
 30
0.0
 11
-1271.291186358478
 21
615.0772012246623
 31
0.0
  0
LINE
  5
5B
330
1F
100
AcDbEntity
  8
C-1
  6
JWW_DASHED1
 62
     2
370
     9
100
AcDbLine
 10
-871.7911179001266
 20
735.0771022487334
 30
0.0
 11
-871.7911179001266
 21
785.0770197687925
 31
0.0
  0
LINE
  5
5C
330
1F
100
AcDbEntity
  8
C-6
  6
JWW_CENTER1
 62
     6
370
     5
100
AcDbLine
 10
-852.63296591269
 20
465.0770775047511
 30
0.0
 11
-880.7660077069256
 21
465.0770775047511
 31
0.0
  0
LINE
  5
5D
330
1F
100
AcDbEntity
  8
C-6
  6
Continuous
 62
     6
370
     5
100
AcDbLine
 10
-871.291042018581
 20
615.0772012246623
 30
0.0
 11
-871.291042018581
 21
465.0770775047511
 31
0.0
  0
LINE
  5
5E
330
1F
100
AcDbEntity
  8
C-6
  6
Continuous
 62
     6
370
     5
100
AcDbLine
 10
-862.2911607896958
 20
615.0772012246623
 30
0.0
 11
-862.2911607896958
 21
465.0770775047511
 31
0.0
  0
LINE
  5
5F
330
1F
100
AcDbEntity
  8
C-1
  6
JWW_DASHED1
 62
     2
370
     9
100
AcDbLine
 10
-871.7911179001266
 20
295.076887800887
 30
0.0
 11
-1261.791229248047
 21
295.076887800887
 31
0.0
  0
LINE
  5
60
330
1F
100
AcDbEntity
  8
C-1
  6
JWW_DASHED1
 62
     2
370
     9
100
AcDbLine
 10
-871.7911179001266
 20
345.0769290408573
 30
0.0
 11
-1261.791229248047
 21
345.0769290408573
 31
0.0
  0
LINE
  5
61
330
1F
100
AcDbEntity
  8
C-1
  6
JWW_DASHED1
 62
     2
370
     9
100
AcDbLine
 10
-871.7911179001266
 20
345.0769290408573
 30
0.0
 11
-871.7911179001266
 21
295.076887800887
 31
0.0
  0
LINE
  5
62
330
1F
100
AcDbEntity
  8
C-1
  6
JWW_DASHED1
 62
     2
370
     9
100
AcDbLine
 10
-871.7911179001266
 20
299.0768762536953
 30
0.0
 11
-1261.791229248047
 21
299.0768762536953
 31
0.0
  0
LINE
  5
63
330
1F
100
AcDbEntity
  8
C-1
  6
JWW_DASHED1
 62
     2
370
     9
100
AcDbLine
 10
-1261.791229248047
 20
345.0769290408573
 30
0.0
 11
-1261.791229248047
 21
295.076887800887
 31
0.0
  0
LINE
  5
64
330
1F
100
AcDbEntity
  8
C-6
  6
JWW_CENTER1
 62
     6
370
     5
100
AcDbLine
 10
-1280.949257515572
 20
465.0770775047511
 30
0.0
 11
-1252.81658688107
 21
465.0770775047511
 31
0.0
  0
LINE
  5
65
330
1F
100
AcDbEntity
  8
C-2
  6
Continuous
 62
     3
370
     9
100
AcDbLine
 10
-1376.791608655775
 20
-392.2205002243454
 30
0.0
 11
-756.7912333720437
 21
-392.2205002243454
 31
0.0
  0
LINE
  5
66
330
1F
100
AcDbEntity
  8
C-6
  6
JWW_CENTER1
 62
     6
370
     5
100
AcDbLine
 10
-852.63296591269
 20
615.0772012246623
 30
0.0
 11
-880.7660077069256
 21
615.0772012246623
 31
0.0
  0
LINE
  5
67
330
1F
100
AcDbEntity
  8
C-6
  6
Continuous
 62
     6
370
     5
100
AcDbLine
 10
-1279.291163264094
 20
-487.7203327900654
 30
0.0
 11
-1254.291328223976
 21
-487.7203327900654
 31
0.0
  0
LINE
  5
68
330
1F
100
AcDbEntity
  8
C-6
  6
Continuous
 62
     6
370
     5
100
AcDbLine
 10
-862.2911607896958
 20
-392.2205002243454
 30
0.0
 11
-862.2911607896958
 21
-387.7204358899916
 31
0.0
  0
LINE
  5
69
330
1F
100
AcDbEntity
  8
C-2
  6
Continuous
 62
     3
370
     9
100
AcDbLine
 10
-1376.791608655775
 20
-398.2204210436021
 30
0.0
 11
-1376.791608655775
 21
-392.2205002243454
 31
0.0
  0
LINE
  5
6A
330
1F
100
AcDbEntity
  8
C-2
  6
Continuous
 62
     3
370
     9
100
AcDbLine
 10
-1376.791608655775
 20
-398.2204210436021
 30
0.0
 11
-756.7912333720437
 21
-398.2204210436021
 31
0.0
  0
LINE
  5
6B
330
1F
100
AcDbEntity
  8
C-6
  6
Continuous
 62
     6
370
     5
100
AcDbLine
 10
-871.291042018581
 20
-392.2205002243454
 30
0.0
 11
-871.291042018581
 21
-387.7204358899916
 31
0.0
  0
LINE
  5
6C
330
1F
100
AcDbEntity
  8
C-1
  6
Continuous
 62
     2
370
     9
100
AcDbLine
 10
-1261.791229248047
 20
-448.2204004236169
 30
0.0
 11
-1261.791229248047
 21
-398.2204210436021
 31
0.0
  0
LINE
  5
6D
330
1F
100
AcDbEntity
  8
C-1
  6
Continuous
 62
     2
370
     9
100
AcDbLine
 10
-1261.791229248047
 20
-402.2206569362331
 30
0.0
 11
-871.7911179001266
 21
-402.2206569362331
 31
0.0
  0
LINE
  5
6E
330
1F
100
AcDbEntity
  8
C-6
  6
JWW_CENTER1
 62
     6
370
     5
100
AcDbLine
 10
-1266.791245744035
 20
-508.8752004262562
 30
0.0
 11
-1266.791245744035
 21
-375.4178516284838
 31
0.0
  0
LINE
  5
6F
330
1F
100
AcDbEntity
  8
C-6
  6
JWW_CENTER1
 62
     6
370
     5
100
AcDbLine
 10
-854.0590853304475
 20
-387.7204358899916
 30
0.0
 11
-879.3103192303631
 21
-387.7204358899916
 31
0.0
  0
LINE
  5
70
330
1F
100
AcDbEntity
  8
C-6
  6
Continuous
 62
     6
370
     5
100
AcDbLine
 10
-854.2911838840793
 20
-493.7203773292334
 30
0.0
 11
-854.2911838840793
 21
-487.7203327900654
 31
0.0
  0
LINE
  5
71
330
1F
100
AcDbEntity
  8
C-6
  6
Continuous
 62
     6
370
     5
100
AcDbLine
 10
-1271.291186358478
 20
-487.7203327900654
 30
0.0
 11
-1271.291186358478
 21
-398.2204210436021
 31
0.0
  0
LINE
  5
72
330
1F
100
AcDbEntity
  8
C-6
  6
Continuous
 62
     6
370
     5
100
AcDbLine
 10
-1262.291305129593
 20
-487.7203327900654
 30
0.0
 11
-1262.291305129593
 21
-398.2204210436021
 31
0.0
  0
LINE
  5
73
330
1F
100
AcDbEntity
  8
C-6
  6
Continuous
 62
     6
370
     5
100
AcDbLine
 10
-879.2912663640202
 20
-493.7203773292334
 30
0.0
 11
-879.2912663640202
 21
-487.7203327900654
 31
0.0
  0
LINE
  5
74
330
1F
100
AcDbEntity
  8
C-6
  6
Continuous
 62
     6
370
     5
100
AcDbLine
 10
-854.2911838840793
 20
-493.7203773292334
 30
0.0
 11
-879.2912663640202
 21
-493.7203773292334
 31
0.0
  0
LINE
  5
75
330
1F
100
AcDbEntity
  8
C-1
  6
Continuous
 62
     2
370
     9
100
AcDbLine
 10
-871.7911179001266
 20
-448.2204004236169
 30
0.0
 11
-1261.791229248047
 21
-448.2204004236169
 31
0.0
  0
LINE
  5
76
330
1F
100
AcDbEntity
  8
C-6
  6
Continuous
 62
     6
370
     5
100
AcDbLine
 10
-1279.291163264094
 20
-493.7203773292334
 30
0.0
 11
-1254.291328223976
 21
-493.7203773292334
 31
0.0
  0
LINE
  5
77
330
1F
100
AcDbEntity
  8
C-6
  6
Continuous
 62
     6
370
     5
100
AcDbLine
 10
-1254.291328223976
 20
-493.7203773292334
 30
0.0
 11
-1254.291328223976
 21
-487.7203327900654
 31
0.0
  0
LINE
  5
78
330
1F
100
AcDbEntity
  8
C-6
  6
Continuous
 62
     6
370
     5
100
AcDbLine
 10
-1279.291163264094
 20
-493.7203773292334
 30
0.0
 11
-1279.291163264094
 21
-487.7203327900654
 31
0.0
  0
LINE
  5
79
330
1F
100
AcDbEntity
  8
C-6
  6
JWW_CENTER1
 62
     6
370
     5
100
AcDbLine
 10
-1279.523261817726
 20
-387.7204358899916
 30
0.0
 11
-1254.27202791781
 21
-387.7204358899916
 31
0.0
  0
LINE
  5
7A
330
1F
100
AcDbEntity
  8
C-6
  6
Continuous
 62
     6
370
     5
100
AcDbLine
 10
-1262.291305129593
 20
-392.2205002243454
 30
0.0
 11
-1262.291305129593
 21
-387.7204358899916
 31
0.0
  0
LINE
  5
7B
330
1F
100
AcDbEntity
  8
C-6
  6
Continuous
 62
     6
370
     5
100
AcDbLine
 10
-1271.291186358478
 20
-392.2205002243454
 30
0.0
 11
-1271.291186358478
 21
-387.7204358899916
 31
0.0
  0
LINE
  5
7C
330
1F
100
AcDbEntity
  8
C-6
  6
Continuous
 62
     6
370
     5
100
AcDbLine
 10
-871.291042018581
 20
-487.7203327900654
 30
0.0
 11
-871.291042018581
 21
-398.2204210436021
 31
0.0
  0
LINE
  5
7D
330
1F
100
AcDbEntity
  8
C-6
  6
Continuous
 62
     6
370
     5
100
AcDbLine
 10
-862.2911607896958
 20
-487.7203327900654
 30
0.0
 11
-862.2911607896958
 21
-398.2204210436021
 31
0.0
  0
LINE
  5
7E
330
1F
100
AcDbEntity
  8
C-6
  6
JWW_CENTER1
 62
     6
370
     5
100
AcDbLine
 10
-866.7911014041384
 20
-508.8752004262562
 30
0.0
 11
-866.7911014041384
 21
-375.4178516284838
 31
0.0
  0
LINE
  5
7F
330
1F
100
AcDbEntity
  8
C-1
  6
Continuous
 62
     2
370
     9
100
AcDbLine
 10
-871.7911179001266
 20
-448.2204004236169
 30
0.0
 11
-871.7911179001266
 21
-398.2204210436021
 31
0.0
  0
LINE
  5
80
330
1F
100
AcDbEntity
  8
C-2
  6
Continuous
 62
     3
370
     9
100
AcDbLine
 10
-756.7912333720437
 20
-398.2204210436021
 30
0.0
 11
-756.7912333720437
 21
-392.2205002243454
 31
0.0
  0
LINE
  5
81
330
1F
100
AcDbEntity
  8
C-6
  6
Continuous
 62
     6
370
     5
100
AcDbLine
 10
-854.2911838840793
 20
-487.7203327900654
 30
0.0
 11
-879.2912663640202
 21
-487.7203327900654
 31
0.0
  0
LINE
  5
82
330
1F
100
AcDbEntity
  8
C-2
  6
Continuous
 62
     3
370
     9
100
AcDbLine
 10
-776.791051916174
 20
230.0769207928633
 30
0.0
 11
-756.7912333720437
 21
250.0768630569047
 31
0.0
  0
LINE
  5
83
330
1F
100
AcDbEntity
  8
C-2
  6
Continuous
 62
     3
370
     9
100
AcDbLine
 10
-756.7912333720437
 20
830.0769207928633
 30
0.0
 11
-756.7912333720437
 21
250.0768630569047
 31
0.0
  0
LINE
  5
84
330
1F
100
AcDbEntity
  8
C-2
  6
Continuous
 62
     3
370
     9
100
AcDbLine
 10
-776.791051916174
 20
850.0769867768158
 30
0.0
 11
-756.7912333720437
 21
830.0769207928633
 31
0.0
  0
LINE
  5
85
330
1F
100
AcDbEntity
  8
C-2
  6
Continuous
 62
     3
370
     9
100
AcDbLine
 10
-1356.791542671822
 20
850.0769867768158
 30
0.0
 11
-776.791051916174
 21
850.0769867768158
 31
0.0
  0
LINE
  5
86
330
1F
100
AcDbEntity
  8
C-2
  6
Continuous
 62
     3
370
     9
100
AcDbLine
 10
-1376.791608655775
 20
830.0769207928633
 30
0.0
 11
-1356.791542671822
 21
850.0769867768158
 31
0.0
  0
LINE
  5
87
330
1F
100
AcDbEntity
  8
C-2
  6
Continuous
 62
     3
370
     9
100
AcDbLine
 10
-1376.791608655775
 20
250.0768630569047
 30
0.0
 11
-1376.791608655775
 21
830.0769207928633
 31
0.0
  0
LINE
  5
88
330
1F
100
AcDbEntity
  8
C-2
  6
Continuous
 62
     3
370
     9
100
AcDbLine
 10
-1356.791542671822
 20
230.0769207928633
 30
0.0
 11
-776.791051916174
 21
230.0769207928633
 31
0.0
  0
LINE
  5
89
330
1F
100
AcDbEntity
  8
C-2
  6
Continuous
 62
     3
370
     9
100
AcDbLine
 10
-1376.791608655775
 20
250.0768630569047
 30
0.0
 11
-1356.791542671822
 21
230.0769207928633
 31
0.0
  0
LINE
  5
8A
330
1F
100
AcDbEntity
  8
D-6
  6
Continuous
 62
     6
370
     5
100
AcDbLine
 10
704.0543839738177
 20
538.5435692039698
 30
0.0
 11
1319.054680901605
 21
538.5435692039698
 31
0.0
  0
LINE
  5
8B
330
1F
100
AcDbEntity
  8
D-2
  6
Continuous
 62
     3
370
     9
100
AcDbLine
 10
661.6278571051521
 20
508.5434702280406
 30
0.0
 11
1361.480712890625
 21
508.5434702280406
 31
0.0
  0
LINE
  5
8C
330
1F
100
AcDbEntity
  8
D-6
  6
Continuous
 62
     6
370
     5
100
AcDbLine
 10
614.0545819256761
 20
61.04335475612345
 30
0.0
 11
614.0545819256761
 21
493.543420740076
 31
0.0
  0
LINE
  5
8D
330
1F
100
AcDbEntity
  8
D-6
  6
Continuous
 62
     6
370
     5
100
AcDbLine
 10
1409.054482949747
 20
61.04335475612345
 30
0.0
 11
1409.054482949747
 21
493.543420740076
 31
0.0
  0
LINE
  5
8E
330
1F
100
AcDbEntity
  8
D-6
  6
Continuous
 62
     6
370
     5
100
AcDbLine
 10
1324.05444995777
 20
61.04335475612345
 30
0.0
 11
1449.054120038007
 21
61.04335475612345
 31
0.0
  0
LINE
  5
8F
330
1F
100
AcDbEntity
  8
D-6
  6
Continuous
 62
     6
370
     5
100
AcDbLine
 10
1364.054581925676
 20
61.04335475612345
 30
0.0
 11
1364.054581925676
 21
493.543420740076
 31
0.0
  0
LINE
  5
90
330
1F
100
AcDbEntity
  8
D-6
  6
Continuous
 62
     6
370
     5
100
AcDbLine
 10
704.0543839738177
 20
583.5433465081294
 30
0.0
 11
1319.054680901605
 21
583.5433465081294
 31
0.0
  0
LINE
  5
91
330
1F
100
AcDbEntity
  8
D-6
  6
Continuous
 62
     6
370
     5
100
AcDbLine
 10
1324.05444995777
 20
31.04337950010574
 30
0.0
 11
1449.054120038007
 21
31.04337950010574
 31
0.0
  0
LINE
  5
92
330
1F
100
AcDbEntity
  8
D-6
  6
Continuous
 62
     6
370
     5
100
AcDbLine
 10
1449.054120038007
 20
31.04337950010574
 30
0.0
 11
1449.054120038007
 21
61.04335475612345
 31
0.0
  0
LINE
  5
93
330
1F
100
AcDbEntity
  8
D-6
  6
Continuous
 62
     6
370
     5
100
AcDbLine
 10
1324.05444995777
 20
31.04337950010574
 30
0.0
 11
1324.05444995777
 21
61.04335475612345
 31
0.0
  0
LINE
  5
94
330
1F
100
AcDbEntity
  8
D-6
  6
JWW_DASHED1
 62
     6
370
     5
100
AcDbLine
 10
1324.05444995777
 20
872.5769372888516
 30
0.0
 11
1324.05444995777
 21
912.5770692567568
 31
0.0
  0
LINE
  5
95
330
1F
100
AcDbEntity
  8
D-6
  6
JWW_CENTER1
 62
     6
370
     5
100
AcDbLine
 10
1386.554779877534
 20
-19.53666068412161
 30
0.0
 11
1386.554779877534
 21
493.543420740076
 31
0.0
  0
LINE
  5
96
330
1F
100
AcDbEntity
  8
D-2
  6
Continuous
 62
     3
370
     9
100
AcDbLine
 10
1436.55444995777
 20
508.5434702280406
 30
0.0
 11
1436.55444995777
 21
538.5435692039698
 31
0.0
  0
LINE
  5
97
330
1F
100
AcDbEntity
  8
D-2
  6
Continuous
 62
     3
370
     9
100
AcDbLine
 10
1336.554120038007
 20
508.5434702280406
 30
0.0
 11
1336.554120038007
 21
535.001220703125
 31
0.0
  0
LINE
  5
98
330
1F
100
AcDbEntity
  8
D-6
  6
JWW_CENTER1
 62
     6
370
     5
100
AcDbLine
 10
704.0543839738177
 20
561.0435197160052
 30
0.0
 11
1319.054680901605
 21
561.0435197160052
 31
0.0
  0
LINE
  5
99
330
1F
100
AcDbEntity
  8
D-6
  6
JWW_DASHED1
 62
     6
370
     5
100
AcDbLine
 10
574.0544499577703
 20
787.5773991765203
 30
0.0
 11
574.0544499577703
 21
912.5770692567568
 31
0.0
  0
LINE
  5
9A
330
1F
100
AcDbEntity
  8
D-6
  6
JWW_DASHED1
 62
     6
370
     5
100
AcDbLine
 10
699.0546149176521
 20
787.5773991765203
 30
0.0
 11
699.0546149176521
 21
827.5770362647804
 31
0.0
  0
LINE
  5
9B
330
1F
100
AcDbEntity
  8
D-2
  6
Continuous
 62
     3
370
     9
100
AcDbLine
 10
1396.996740392736
 20
538.5435692039698
 30
0.0
 11
1522.02709301098
 21
538.5435692039698
 31
0.0
  0
LINE
  5
9C
330
1F
100
AcDbEntity
  8
D-2
  6
Continuous
 62
     3
370
     9
100
AcDbLine
 10
1407.795509132179
 20
508.5434702280406
 30
0.0
 11
1522.02709301098
 21
508.5434702280406
 31
0.0
  0
LINE
  5
9D
330
1F
100
AcDbEntity
  8
D-6
  6
Continuous
 62
     6
370
     5
100
AcDbLine
 10
636.5542849978885
 20
827.5770362647804
 30
0.0
 11
1386.554779877534
 21
827.5770362647804
 31
0.0
  0
LINE
  5
9E
330
1F
100
AcDbEntity
  8
D-6
  6
Continuous
 62
     6
370
     5
100
AcDbLine
 10
636.5542849978885
 20
872.5769372888516
 30
0.0
 11
1386.554779877534
 21
872.5769372888516
 31
0.0
  0
LINE
  5
9F
330
1F
100
AcDbEntity
  8
D-6
  6
JWW_CENTER1
 62
     6
370
     5
100
AcDbLine
 10
1386.554779877534
 20
767.0953204180745
 30
0.0
 11
1386.554779877534
 21
929.2512965846709
 31
0.0
  0
LINE
  5
A0
330
1F
100
AcDbEntity
  8
D-6
  6
JWW_DASHED1
 62
     6
370
     5
100
AcDbLine
 10
699.0546149176521
 20
787.5773991765203
 30
0.0
 11
574.0544499577703
 21
787.5773991765203
 31
0.0
  0
LINE
  5
A1
330
1F
100
AcDbEntity
  8
D-6
  6
JWW_DASHED1
 62
     6
370
     5
100
AcDbLine
 10
699.0546149176521
 20
912.5770692567568
 30
0.0
 11
574.0544499577703
 21
912.5770692567568
 31
0.0
  0
LINE
  5
A2
330
1F
100
AcDbEntity
  8
D-6
  6
JWW_CENTER1
 62
     6
370
     5
100
AcDbLine
 10
558.0822094066724
 20
850.0769867768158
 30
0.0
 11
1465.02685546875
 21
850.0769867768158
 31
0.0
  0
LINE
  5
A3
330
1F
100
AcDbEntity
  8
D-6
  6
JWW_CENTER1
 62
     6
370
     5
100
AcDbLine
 10
636.5542849978885
 20
767.0953204180745
 30
0.0
 11
636.5542849978885
 21
929.2512965846709
 31
0.0
  0
LINE
  5
A4
330
1F
100
AcDbEntity
  8
D-6
  6
JWW_DASHED1
 62
     6
370
     5
100
AcDbLine
 10
1324.05444995777
 20
912.5770692567568
 30
0.0
 11
1449.054120038007
 21
912.5770692567568
 31
0.0
  0
LINE
  5
A5
330
1F
100
AcDbEntity
  8
D-6
  6
JWW_DASHED1
 62
     6
370
     5
100
AcDbLine
 10
1324.05444995777
 20
787.5773991765203
 30
0.0
 11
1449.054120038007
 21
787.5773991765203
 31
0.0
  0
LINE
  5
A6
330
1F
100
AcDbEntity
  8
D-6
  6
JWW_DASHED1
 62
     6
370
     5
100
AcDbLine
 10
1324.05444995777
 20
787.5773991765203
 30
0.0
 11
1324.05444995777
 21
827.5770362647804
 31
0.0
  0
LINE
  5
A7
330
1F
100
AcDbEntity
  8
D-6
  6
JWW_DASHED1
 62
     6
370
     5
100
AcDbLine
 10
1449.054120038007
 20
787.5773991765203
 30
0.0
 11
1449.054120038007
 21
912.5770692567568
 31
0.0
  0
LINE
  5
A8
330
1F
100
AcDbEntity
  8
D-6
  6
JWW_DASHED1
 62
     6
370
     5
100
AcDbLine
 10
699.0546149176521
 20
872.5769372888516
 30
0.0
 11
699.0546149176521
 21
912.5770692567568
 31
0.0
  0
LINE
  5
A9
330
1F
100
AcDbEntity
  8
D-2
  6
Continuous
 62
     3
370
     9
100
AcDbLine
 10
615.3128134237755
 20
508.5434702280406
 30
0.0
 11
501.0814769847974
 21
508.5434702280406
 31
0.0
  0
LINE
  5
AA
330
1F
100
AcDbEntity
  8
D-2
  6
Continuous
 62
     3
370
     9
100
AcDbLine
 10
626.1118296030406
 20
538.5435692039698
 30
0.0
 11
501.0814769847974
 21
538.5435692039698
 31
0.0
  0
LINE
  5
AB
330
1F
100
AcDbEntity
  8
D-2
  6
Continuous
 62
     3
370
     9
100
AcDbLine
 10
686.5544499577703
 20
508.5434702280406
 30
0.0
 11
686.5544499577703
 21
535.001220703125
 31
0.0
  0
LINE
  5
AC
330
1F
100
AcDbEntity
  8
D-2
  6
Continuous
 62
     3
370
     9
100
AcDbLine
 10
586.5546149176521
 20
508.5434702280406
 30
0.0
 11
586.5546149176521
 21
538.5435692039698
 31
0.0
  0
LINE
  5
AD
330
1F
100
AcDbEntity
  8
D-6
  6
JWW_CENTER1
 62
     6
370
     5
100
AcDbLine
 10
636.5542849978885
 20
-19.53666068412161
 30
0.0
 11
636.5542849978885
 21
493.543420740076
 31
0.0
  0
LINE
  5
AE
330
1F
100
AcDbEntity
  8
D-6
  6
Continuous
 62
     6
370
     5
100
AcDbLine
 10
699.0546149176521
 20
31.04337950010574
 30
0.0
 11
699.0546149176521
 21
61.04335475612345
 31
0.0
  0
LINE
  5
AF
330
1F
100
AcDbEntity
  8
D-6
  6
Continuous
 62
     6
370
     5
100
AcDbLine
 10
574.0544499577703
 20
31.04337950010574
 30
0.0
 11
574.0544499577703
 21
61.04335475612345
 31
0.0
  0
LINE
  5
B0
330
1F
100
AcDbEntity
  8
D-6
  6
Continuous
 62
     6
370
     5
100
AcDbLine
 10
699.0546149176521
 20
31.04337950010574
 30
0.0
 11
574.0544499577703
 21
31.04337950010574
 31
0.0
  0
LINE
  5
B1
330
1F
100
AcDbEntity
  8
D-6
  6
Continuous
 62
     6
370
     5
100
AcDbLine
 10
659.0544829497469
 20
61.04335475612345
 30
0.0
 11
659.0544829497469
 21
493.543420740076
 31
0.0
  0
LINE
  5
B2
330
1F
100
AcDbEntity
  8
D-6
  6
Continuous
 62
     6
370
     5
100
AcDbLine
 10
699.0546149176521
 20
61.04335475612345
 30
0.0
 11
574.0544499577703
 21
61.04335475612345
 31
0.0
  0
LINE
  5
B3
330
1F
100
AcDbEntity
  8
D-4
  6
Continuous
 62
     7
370
     9
100
AcDbLine
 10
1411.554862357475
 20
893.3782134184967
 30
0.0
 11
1499.537782411318
 21
1045.76922442462
 31
0.0
  0
LINE
  5
B4
330
1F
100
AcDbEntity
  8
D-4
  6
Continuous
 62
     7
370
     9
100
AcDbLine
 10
1411.554862357475
 20
893.3782134184967
 30
0.0
 11
1423.035327808277
 21
921.094690271326
 31
0.0
  0
LINE
  5
B5
330
1F
100
AcDbEntity
  8
D-4
  6
Continuous
 62
     7
370
     9
100
AcDbLine
 10
1411.554862357475
 20
893.3782134184967
 30
0.0
 11
1429.817653346706
 21
917.1787076383026
 31
0.0
  0
LINE
  5
B6
330
1F
100
AcDbEntity
  8
D-4
  6
Continuous
 62
     7
370
     9
100
AcDbLine
 10
1479.054219013936
 20
31.04337950010574
 30
0.0
 11
1631.065657332137
 21
31.04337950010574
 31
0.0
  0
LINE
  5
B7
330
1F
100
AcDbEntity
  8
D-4
  6
Continuous
 62
     7
370
     9
100
AcDbLine
 10
1479.054219013936
 20
61.04335475612345
 30
0.0
 11
1631.065657332137
 21
61.04335475612345
 31
0.0
  0
LINE
  5
B8
330
1F
100
AcDbEntity
  8
D-4
  6
Continuous
 62
     7
370
     9
100
AcDbLine
 10
1628.065696922509
 20
31.04337950010574
 30
0.0
 11
1624.149961729308
 21
1.299999340160696
 31
0.0
  0
LINE
  5
B9
330
1F
100
AcDbEntity
  8
D-4
  6
Continuous
 62
     7
370
     9
100
AcDbLine
 10
1628.065696922509
 20
31.04337950010574
 30
0.0
 11
1631.98143211571
 21
1.299999340160696
 31
0.0
  0
LINE
  5
BA
330
1F
100
AcDbEntity
  8
D-4
  6
Continuous
 62
     7
370
     9
100
AcDbLine
 10
1628.065696922509
 20
-19.36691696579373
 30
0.0
 11
1628.065696922509
 21
561.0433959960938
 31
0.0
  0
LINE
  5
BB
330
1F
100
AcDbEntity
  8
D-4
  6
Continuous
 62
     7
370
     9
100
AcDbLine
 10
1349.054779877534
 20
561.0433959960938
 30
0.0
 11
1631.065657332137
 21
561.0433959960938
 31
0.0
  0
LINE
  5
BC
330
1F
100
AcDbEntity
  8
D-4
  6
Continuous
 62
     7
370
     9
100
AcDbLine
 10
1628.065696922509
 20
61.04335475612345
 30
0.0
 11
1624.149961729308
 21
90.7867349160685
 31
0.0
  0
LINE
  5
BD
330
1F
100
AcDbEntity
  8
D-4
  6
Continuous
 62
     7
370
     9
100
AcDbLine
 10
1628.065696922509
 20
61.04335475612345
 30
0.0
 11
1631.98143211571
 21
90.7867349160685
 31
0.0
  0
LINE
  5
BE
330
1F
100
AcDbEntity
  8
D-4
  6
Continuous
 62
     7
370
     9
100
AcDbLine
 10
1628.065696922509
 20
561.0433959960938
 30
0.0
 11
1624.149961729308
 21
531.3000158361488
 31
0.0
  0
LINE
  5
BF
330
1F
100
AcDbEntity
  8
D-4
  6
Continuous
 62
     7
370
     9
100
AcDbLine
 10
1628.065696922509
 20
561.0433959960938
 30
0.0
 11
1631.98143211571
 21
531.3000158361488
 31
0.0
  0
LINE
  5
C0
330
1F
100
AcDbEntity
  8
D-4
  6
Continuous
 62
     7
370
     9
100
AcDbLine
 10
636.5542849978885
 20
-146.1637424778294
 30
0.0
 11
1386.554779877534
 21
-146.1637424778294
 31
0.0
  0
LINE
  5
C1
330
1F
100
AcDbEntity
  8
D-4
  6
Continuous
 62
     7
370
     9
100
AcDbLine
 10
636.5542849978885
 20
-49.53663594013932
 30
0.0
 11
636.5542849978885
 21
-149.1637028874578
 31
0.0
  0
LINE
  5
C2
330
1F
100
AcDbEntity
  8
D-4
  6
Continuous
 62
     7
370
     9
100
AcDbLine
 10
1386.554779877534
 20
-49.53663594013932
 30
0.0
 11
1386.554779877534
 21
-149.1637028874578
 31
0.0
  0
LINE
  5
C3
330
1F
100
AcDbEntity
  8
D-4
  6
Continuous
 62
     7
370
     9
100
AcDbLine
 10
636.5542849978885
 20
-146.1637424778294
 30
0.0
 11
666.2975414379224
 21
-142.2480072846284
 31
0.0
  0
LINE
  5
C4
330
1F
100
AcDbEntity
  8
D-4
  6
Continuous
 62
     7
370
     9
100
AcDbLine
 10
636.5542849978885
 20
-146.1637424778294
 30
0.0
 11
666.2975414379224
 21
-150.079353951119
 31
0.0
  0
LINE
  5
C5
330
1F
100
AcDbEntity
  8
D-4
  6
Continuous
 62
     7
370
     9
100
AcDbLine
 10
1386.554779877534
 20
-146.1637424778294
 30
0.0
 11
1356.8115234375
 21
-142.2480072846284
 31
0.0
  0
LINE
  5
C6
330
1F
100
AcDbEntity
  8
D-4
  6
Continuous
 62
     7
370
     9
100
AcDbLine
 10
1386.554779877534
 20
-146.1637424778294
 30
0.0
 11
1356.8115234375
 21
-150.079353951119
 31
0.0
  0
LINE
  5
C7
330
1F
100
AcDbEntity
  8
D-4
  6
Continuous
 62
     7
370
     9
100
AcDbLine
 10
574.0544499577703
 20
1.043280524176566
 30
0.0
 11
574.0544499577703
 21
-82.8888021933065
 31
0.0
  0
LINE
  5
C8
330
1F
100
AcDbEntity
  8
D-4
  6
Continuous
 62
     7
370
     9
100
AcDbLine
 10
699.0546149176521
 20
1.043280524176566
 30
0.0
 11
699.0546149176521
 21
-82.8888021933065
 31
0.0
  0
LINE
  5
C9
330
1F
100
AcDbEntity
  8
D-4
  6
Continuous
 62
     7
370
     9
100
AcDbLine
 10
574.0544499577703
 20
-79.88884178367812
 30
0.0
 11
603.7974589579818
 21
-75.97310659047707
 31
0.0
  0
LINE
  5
CA
330
1F
100
AcDbEntity
  8
D-4
  6
Continuous
 62
     7
370
     9
100
AcDbLine
 10
574.0544499577703
 20
-79.88884178367812
 30
0.0
 11
603.7974589579818
 21
-83.80457697687916
 31
0.0
  0
LINE
  5
CB
330
1F
100
AcDbEntity
  8
D-4
  6
Continuous
 62
     7
370
     9
100
AcDbLine
 10
699.0546149176521
 20
-79.88884178367812
 30
0.0
 11
669.3113584776182
 21
-75.97310659047707
 31
0.0
  0
LINE
  5
CC
330
1F
100
AcDbEntity
  8
D-4
  6
Continuous
 62
     7
370
     9
100
AcDbLine
 10
699.0546149176521
 20
-79.88884178367812
 30
0.0
 11
669.3113584776182
 21
-83.80457697687916
 31
0.0
  0
LINE
  5
CD
330
1F
100
AcDbEntity
  8
D-4
  6
Continuous
 62
     7
370
     9
100
AcDbLine
 10
659.0544829497469
 20
218.3485206397805
 30
0.0
 11
688.7977393897808
 21
222.2642558329815
 31
0.0
  0
LINE
  5
CE
330
1F
100
AcDbEntity
  8
D-4
  6
Continuous
 62
     7
370
     9
100
AcDbLine
 10
614.0545819256761
 20
218.3485206397805
 30
0.0
 11
584.3110780458193
 21
222.2642558329815
 31
0.0
  0
LINE
  5
CF
330
1F
100
AcDbEntity
  8
D-4
  6
Continuous
 62
     7
370
     9
100
AcDbLine
 10
614.0545819256761
 20
218.3485206397805
 30
0.0
 11
584.3110780458193
 21
214.4327854465794
 31
0.0
  0
LINE
  5
D0
330
1F
100
AcDbEntity
  8
D-4
  6
Continuous
 62
     7
370
     9
100
AcDbLine
 10
469.5969865128802
 20
-79.88884178367812
 30
0.0
 11
699.0546149176521
 21
-79.88884178367812
 31
0.0
  0
LINE
  5
D1
330
1F
100
AcDbEntity
  8
D-4
  6
Continuous
 62
     7
370
     9
100
AcDbLine
 10
659.0544829497469
 20
218.3485206397805
 30
0.0
 11
688.7977393897808
 21
214.4327854465794
 31
0.0
  0
LINE
  5
D2
330
1F
100
AcDbEntity
  8
D-4
  6
Continuous
 62
     7
370
     9
100
AcDbLine
 10
703.4627553578969
 20
218.3485206397805
 30
0.0
 11
519.687219568201
 21
218.3485206397805
 31
0.0
  0
LINE
  5
D3
330
1F
100
AcDbEntity
  8
D-4
  6
Continuous
 62
     2
370
     9
100
AcDbLine
 10
1286.55444995777
 20
-366.1637259818411
 30
0.0
 11
1286.55444995777
 21
-296.1637424778293
 31
0.0
  0
LINE
  5
D4
330
1F
100
AcDbEntity
  8
D-4
  6
Continuous
 62
     2
370
     9
100
AcDbLine
 10
1286.55444995777
 20
-296.1637424778293
 30
0.0
 11
736.5543674778297
 21
-296.1637424778293
 31
0.0
  0
LINE
  5
D5
330
1F
100
AcDbEntity
  8
D-4
  6
Continuous
 62
     2
370
     9
100
AcDbLine
 10
1286.55444995777
 20
-366.1637259818411
 30
0.0
 11
736.5543674778297
 21
-366.1637259818411
 31
0.0
  0
LINE
  5
D6
330
1F
100
AcDbEntity
  8
D-4
  6
Continuous
 62
     2
370
     9
100
AcDbLine
 10
736.5543674778297
 20
-366.1637259818411
 30
0.0
 11
736.5543674778297
 21
-296.1637424778293
 31
0.0
  0
LINE
  5
D7
330
1F
100
AcDbEntity
  8
C-2
  6
Continuous
 62
     6
370
     5
100
AcDbLine
 10
-1376.791608655775
 20
814.7213002797721
 30
0.0
 11
-1341.436293318465
 21
850.0769867768158
 31
0.0
  0
LINE
  5
D8
330
1F
100
AcDbEntity
  8
C-2
  6
JWW_DASHED1
 62
     6
370
     5
100
AcDbLine
 10
-1235.370594746358
 20
850.0769867768158
 30
0.0
 11
-1191.176110344964
 21
805.8822549355998
 31
0.0
  0
LINE
  5
D9
330
1F
100
AcDbEntity
  8
C-2
  6
JWW_DASHED1
 62
     6
370
     5
100
AcDbLine
 10
-1376.791608655775
 20
779.3661086623734
 30
0.0
 11
-1297.242180076805
 21
699.816680083404
 31
0.0
  0
LINE
  5
DA
330
1F
100
AcDbEntity
  8
C-2
  6
JWW_DASHED1
 62
     6
370
     5
100
AcDbLine
 10
-1376.791608655775
 20
744.0104221653294
 30
0.0
 11
-1314.920023325327
 21
682.1385893950592
 31
0.0
  0
LINE
  5
DB
330
1F
100
AcDbEntity
  8
C-2
  6
JWW_DASHED1
 62
     6
370
     5
100
AcDbLine
 10
-1376.791608655775
 20
708.655725427576
 30
0.0
 11
-1332.597371694204
 21
664.4609935863599
 31
0.0
  0
LINE
  5
DC
330
1F
100
AcDbEntity
  8
C-2
  6
JWW_DASHED1
 62
     6
370
     5
100
AcDbLine
 10
-1200.014784529402
 20
850.0769867768158
 30
0.0
 11
-1173.498267096442
 21
823.5603456239443
 31
0.0
  0
LINE
  5
DD
330
1F
100
AcDbEntity
  8
C-2
  6
JWW_DASHED1
 62
     6
370
     5
100
AcDbLine
 10
-1376.791608655775
 20
673.3000389305323
 30
0.0
 11
-1350.275214942726
 21
646.7833977776606
 31
0.0
  0
LINE
  5
DE
330
1F
100
AcDbEntity
  8
C-2
  6
Continuous
 62
     6
370
     5
100
AcDbLine
 10
-1376.791608655775
 20
779.3661086623734
 30
0.0
 11
-1306.080235661687
 21
850.0769867768158
 31
0.0
  0
LINE
  5
DF
330
1F
100
AcDbEntity
  8
C-2
  6
Continuous
 62
     6
370
     5
100
AcDbLine
 10
-1376.791608655775
 20
744.0104221653294
 30
0.0
 11
-1270.72615752349
 21
850.0769867768158
 31
0.0
  0
LINE
  5
E0
330
1F
100
AcDbEntity
  8
C-2
  6
Continuous
 62
     6
370
     5
100
AcDbLine
 10
-1376.791608655775
 20
708.6547356682856
 30
0.0
 11
-1235.370594746358
 21
850.0769867768158
 31
0.0
  0
LINE
  5
E1
330
1F
100
AcDbEntity
  8
C-2
  6
JWW_DASHED1
 62
     6
370
     5
100
AcDbLine
 10
-1270.725786363756
 20
850.0769867768158
 30
0.0
 11
-1208.853829873575
 21
788.2051540065459
 31
0.0
  0
LINE
  5
E2
330
1F
100
AcDbEntity
  8
C-2
  6
JWW_DASHED1
 62
     6
370
     5
100
AcDbLine
 10
-1306.081967740445
 20
850.0769867768158
 30
0.0
 11
-1226.531425682274
 21
770.5275581978464
 31
0.0
  0
LINE
  5
E3
330
1F
100
AcDbEntity
  8
C-2
  6
JWW_DASHED1
 62
     6
370
     5
100
AcDbLine
 10
-1341.436417038376
 20
850.0769867768158
 30
0.0
 11
-1244.209392650707
 21
752.8494675095019
 31
0.0
  0
LINE
  5
E4
330
1F
100
AcDbEntity
  8
C-2
  6
Continuous
 62
     6
370
     5
100
AcDbLine
 10
-1376.791608655775
 20
637.9443524334883
 30
0.0
 11
-1164.659716631915
 21
850.0769867768158
 31
0.0
  0
LINE
  5
E5
330
1F
100
AcDbEntity
  8
C-2
  6
JWW_DASHED1
 62
     6
370
     5
100
AcDbLine
 10
-1376.791608655775
 20
814.7213002797721
 30
0.0
 11
-1279.565079147751
 21
717.4942758921031
 31
0.0
  0
LINE
  5
E6
330
1F
100
AcDbEntity
  8
C-2
  6
Continuous
 62
     6
370
     5
100
AcDbLine
 10
-1376.791608655775
 20
673.299544050887
 30
0.0
 11
-1200.015155689136
 21
850.0769867768158
 31
0.0
  0
LINE
  5
E7
330
1F
100
AcDbEntity
  8
C-2
  6
JWW_DASHED1
 62
     6
370
     5
100
AcDbLine
 10
-1366.791575663799
 20
840.0769537848396
 30
0.0
 11
-1261.887112179318
 21
735.1718717008026
 31
0.0
  0
LINE
  5
E8
330
1F
100
AcDbEntity
  8
C-4
  6
Continuous
 62
     7
370
     9
100
AcDbLine
 10
-1261.791229248047
 20
130.0769620328336
 30
0.0
 11
-871.7911179001266
 21
130.0769620328336
 31
0.0
  0
LINE
  5
E9
330
1F
100
AcDbEntity
  8
C-4
  6
Continuous
 62
     7
370
     9
100
AcDbLine
 10
-1261.791229248047
 20
270.0769290408573
 30
0.0
 11
-1261.791229248047
 21
127.0770016232052
 31
0.0
  0
LINE
  5
EA
330
1F
100
AcDbEntity
  8
C-4
  6
Continuous
 62
     7
370
     9
100
AcDbLine
 10
-871.7911179001266
 20
270.0769290408573
 30
0.0
 11
-871.7911179001266
 21
127.0770016232052
 31
0.0
  0
LINE
  5
EB
330
1F
100
AcDbEntity
  8
C-4
  6
Continuous
 62
     7
370
     9
100
AcDbLine
 10
-1261.791229248047
 20
130.0769620328336
 30
0.0
 11
-1237.005182214685
 21
133.3400746938347
 31
0.0
  0
LINE
  5
EC
330
1F
100
AcDbEntity
  8
C-4
  6
Continuous
 62
     7
370
     9
100
AcDbLine
 10
-1261.791229248047
 20
130.0769620328336
 30
0.0
 11
-1237.005182214685
 21
126.8138493718328
 31
0.0
  0
LINE
  5
ED
330
1F
100
AcDbEntity
  8
C-4
  6
Continuous
 62
     7
370
     9
100
AcDbLine
 10
-871.7911179001266
 20
130.0769620328336
 30
0.0
 11
-896.5771649334881
 21
133.3400746938347
 31
0.0
  0
LINE
  5
EE
330
1F
100
AcDbEntity
  8
C-4
  6
Continuous
 62
     7
370
     9
100
AcDbLine
 10
-871.7911179001266
 20
130.0769620328336
 30
0.0
 11
-896.5771649334881
 21
126.8138493718328
 31
0.0
  0
LINE
  5
EF
330
1F
100
AcDbEntity
  8
C-4
  6
Continuous
 62
     7
370
     9
100
AcDbLine
 10
-1376.791608655775
 20
30.07700327280418
 30
0.0
 11
-756.7912333720437
 21
30.07700327280418
 31
0.0
  0
LINE
  5
F0
330
1F
100
AcDbEntity
  8
C-4
  6
Continuous
 62
     7
370
     9
100
AcDbLine
 10
-1376.791608655775
 20
225.076904296875
 30
0.0
 11
-1376.791608655775
 21
27.07704286317579
 31
0.0
  0
LINE
  5
F1
330
1F
100
AcDbEntity
  8
C-4
  6
Continuous
 62
     7
370
     9
100
AcDbLine
 10
-756.7912333720437
 20
225.076904296875
 30
0.0
 11
-756.7912333720437
 21
27.07704286317579
 31
0.0
  0
LINE
  5
F2
330
1F
100
AcDbEntity
  8
C-4
  6
Continuous
 62
     7
370
     9
100
AcDbLine
 10
-1376.791608655775
 20
30.07700327280418
 30
0.0
 11
-1352.005437902502
 21
33.34011593380495
 31
0.0
  0
LINE
  5
F3
330
1F
100
AcDbEntity
  8
C-4
  6
Continuous
 62
     7
370
     9
100
AcDbLine
 10
-1376.791608655775
 20
30.07700327280418
 30
0.0
 11
-1352.005437902502
 21
26.8138906118034
 31
0.0
  0
LINE
  5
F4
330
1F
100
AcDbEntity
  8
C-4
  6
Continuous
 62
     7
370
     9
100
AcDbLine
 10
-756.7912333720437
 20
30.07700327280418
 30
0.0
 11
-781.5774041253167
 21
33.34011593380495
 31
0.0
  0
LINE
  5
F5
330
1F
100
AcDbEntity
  8
C-4
  6
Continuous
 62
     7
370
     9
100
AcDbLine
 10
-756.7912333720437
 20
30.07700327280418
 30
0.0
 11
-781.5774041253167
 21
26.8138906118034
 31
0.0
  0
LINE
  5
F6
330
1F
100
AcDbEntity
  8
C-4
  6
Continuous
 62
     7
370
     9
100
AcDbLine
 10
-656.7912746120144
 20
295.076887800887
 30
0.0
 11
-656.7912746120144
 21
785.0770197687925
 31
0.0
  0
LINE
  5
F7
330
1F
100
AcDbEntity
  8
C-4
  6
Continuous
 62
     7
370
     9
100
AcDbLine
 10
-846.7910354201858
 20
295.076887800887
 30
0.0
 11
-653.7913142023859
 21
295.076887800887
 31
0.0
  0
LINE
  5
F8
330
1F
100
AcDbEntity
  8
C-4
  6
Continuous
 62
     7
370
     9
100
AcDbLine
 10
-846.7910354201858
 20
785.0770197687925
 30
0.0
 11
-653.7913142023859
 21
785.0770197687925
 31
0.0
  0
LINE
  5
F9
330
1F
100
AcDbEntity
  8
C-4
  6
Continuous
 62
     7
370
     9
100
AcDbLine
 10
-656.7912746120144
 20
295.076887800887
 30
0.0
 11
-660.0543872730151
 21
319.8630585541596
 31
0.0
  0
LINE
  5
FA
330
1F
100
AcDbEntity
  8
C-4
  6
Continuous
 62
     7
370
     9
100
AcDbLine
 10
-656.7912746120144
 20
295.076887800887
 30
0.0
 11
-653.5281619510135
 21
319.8630585541596
 31
0.0
  0
LINE
  5
FB
330
1F
100
AcDbEntity
  8
C-4
  6
Continuous
 62
     7
370
     9
100
AcDbLine
 10
-656.7912746120144
 20
785.0770197687925
 30
0.0
 11
-660.0543872730151
 21
760.2909727354307
 31
0.0
  0
LINE
  5
FC
330
1F
100
AcDbEntity
  8
C-4
  6
Continuous
 62
     7
370
     9
100
AcDbLine
 10
-656.7912746120144
 20
785.0770197687925
 30
0.0
 11
-653.5281619510135
 21
760.2909727354307
 31
0.0
  0
LINE
  5
FD
330
1F
100
AcDbEntity
  8
C-4
  6
Continuous
 62
     7
370
     9
100
AcDbLine
 10
-556.7913158519846
 20
230.0769207928633
 30
0.0
 11
-556.7913158519846
 21
850.0769867768158
 31
0.0
  0
LINE
  5
FE
330
1F
100
AcDbEntity
  8
C-4
  6
Continuous
 62
     7
370
     9
100
AcDbLine
 10
-751.7910931561443
 20
230.0769207928633
 30
0.0
 11
-553.7913554423562
 21
230.0769207928633
 31
0.0
  0
LINE
  5
FF
330
1F
100
AcDbEntity
  8
C-4
  6
Continuous
 62
     7
370
     9
100
AcDbLine
 10
-751.7910931561443
 20
850.0769867768158
 30
0.0
 11
-553.7913554423562
 21
850.0769867768158
 31
0.0
  0
LINE
  5
100
330
1F
100
AcDbEntity
  8
C-4
  6
Continuous
 62
     7
370
     9
100
AcDbLine
 10
-556.7913158519846
 20
230.0769207928633
 30
0.0
 11
-560.0544285129856
 21
254.8630915461362
 31
0.0
  0
LINE
  5
101
330
1F
100
AcDbEntity
  8
C-4
  6
Continuous
 62
     7
370
     9
100
AcDbLine
 10
-556.7913158519846
 20
230.0769207928633
 30
0.0
 11
-553.5282031909838
 21
254.8630915461362
 31
0.0
  0
LINE
  5
102
330
1F
100
AcDbEntity
  8
C-4
  6
Continuous
 62
     7
370
     9
100
AcDbLine
 10
-556.7913158519846
 20
850.0769867768158
 30
0.0
 11
-560.0544285129856
 21
825.2909397434544
 31
0.0
  0
LINE
  5
103
330
1F
100
AcDbEntity
  8
C-4
  6
Continuous
 62
     7
370
     9
100
AcDbLine
 10
-556.7913158519846
 20
850.0769867768158
 30
0.0
 11
-553.5282031909838
 21
825.2909397434544
 31
0.0
  0
LINE
  5
104
330
1F
100
AcDbEntity
  8
C-4
  6
Continuous
 62
     7
370
     9
100
AcDbLine
 10
-1266.791245744035
 20
-292.2205414643157
 30
0.0
 11
-866.7911014041384
 21
-292.2205414643157
 31
0.0
  0
LINE
  5
105
330
1F
100
AcDbEntity
  8
C-4
  6
Continuous
 62
     7
370
     9
100
AcDbLine
 10
-1266.791245744035
 20
-350.4178928684543
 30
0.0
 11
-1266.791245744035
 21
-289.2205810546875
 31
0.0
  0
LINE
  5
106
330
1F
100
AcDbEntity
  8
C-4
  6
Continuous
 62
     7
370
     9
100
AcDbLine
 10
-866.7911014041384
 20
-350.4178928684543
 30
0.0
 11
-866.7911014041384
 21
-289.2205810546875
 31
0.0
  0
LINE
  5
107
330
1F
100
AcDbEntity
  8
C-4
  6
Continuous
 62
     7
370
     9
100
AcDbLine
 10
-1266.791245744035
 20
-292.2205414643157
 30
0.0
 11
-1242.005198710674
 21
-288.957428803315
 31
0.0
  0
LINE
  5
108
330
1F
100
AcDbEntity
  8
C-4
  6
Continuous
 62
     7
370
     9
100
AcDbLine
 10
-1266.791245744035
 20
-292.2205414643157
 30
0.0
 11
-1242.005198710674
 21
-295.4836541253167
 31
0.0
  0
LINE
  5
109
330
1F
100
AcDbEntity
  8
C-4
  6
Continuous
 62
     7
370
     9
100
AcDbLine
 10
-866.7911014041384
 20
-292.2205414643157
 30
0.0
 11
-891.5771484375
 21
-288.957428803315
 31
0.0
  0
LINE
  5
10A
330
1F
100
AcDbEntity
  8
C-4
  6
Continuous
 62
     7
370
     9
100
AcDbLine
 10
-866.7911014041384
 20
-292.2205414643157
 30
0.0
 11
-891.5771484375
 21
-295.4836541253167
 31
0.0
  0
LINE
  5
10B
330
1F
100
AcDbEntity
  8
C-4
  6
Continuous
 62
     7
370
     9
100
AcDbLine
 10
-731.7912746120144
 20
-392.2205002243454
 30
0.0
 11
-553.7913554423562
 21
-392.2205002243454
 31
0.0
  0
LINE
  5
10C
330
1F
100
AcDbEntity
  8
C-4
  6
Continuous
 62
     7
370
     9
100
AcDbLine
 10
-731.7912746120144
 20
-398.2204210436021
 30
0.0
 11
-653.7913142023859
 21
-398.2204210436021
 31
0.0
  0
LINE
  5
10D
330
1F
100
AcDbEntity
  8
C-4
  6
Continuous
 62
     7
370
     9
100
AcDbLine
 10
-656.7912746120144
 20
-392.2205002243454
 30
0.0
 11
-660.0543872730151
 21
-367.4343294710725
 31
0.0
  0
LINE
  5
10E
330
1F
100
AcDbEntity
  8
C-4
  6
Continuous
 62
     7
370
     9
100
AcDbLine
 10
-656.7912746120144
 20
-392.2205002243454
 30
0.0
 11
-653.5281619510135
 21
-367.4343294710725
 31
0.0
  0
LINE
  5
10F
330
1F
100
AcDbEntity
  8
C-4
  6
Continuous
 62
     7
370
     9
100
AcDbLine
 10
-656.7912746120144
 20
-398.2204210436021
 30
0.0
 11
-660.0543872730151
 21
-423.006591796875
 31
0.0
  0
LINE
  5
110
330
1F
100
AcDbEntity
  8
C-4
  6
Continuous
 62
     7
370
     9
100
AcDbLine
 10
-656.7912746120144
 20
-398.2204210436021
 30
0.0
 11
-653.5281619510135
 21
-423.006591796875
 31
0.0
  0
LINE
  5
111
330
1F
100
AcDbEntity
  8
C-4
  6
Continuous
 62
     7
370
     9
100
AcDbLine
 10
-846.7910354201858
 20
-448.2204004236169
 30
0.0
 11
-553.7913554423562
 21
-448.2204004236169
 31
0.0
  0
LINE
  5
112
330
1F
100
AcDbEntity
  8
C-4
  6
Continuous
 62
     7
370
     9
100
AcDbLine
 10
-556.7913158519846
 20
-392.2205002243454
 30
0.0
 11
-560.0544285129856
 21
-367.4343294710725
 31
0.0
  0
LINE
  5
113
330
1F
100
AcDbEntity
  8
C-4
  6
Continuous
 62
     7
370
     9
100
AcDbLine
 10
-556.7913158519846
 20
-392.2205002243454
 30
0.0
 11
-553.5282031909838
 21
-367.4343294710725
 31
0.0
  0
LINE
  5
114
330
1F
100
AcDbEntity
  8
C-4
  6
Continuous
 62
     7
370
     9
100
AcDbLine
 10
-556.7913158519846
 20
-448.2204004236169
 30
0.0
 11
-560.0544285129856
 21
-473.0065711768897
 31
0.0
  0
LINE
  5
115
330
1F
100
AcDbEntity
  8
C-4
  6
Continuous
 62
     7
370
     9
100
AcDbLine
 10
-556.7913158519846
 20
-448.2204004236169
 30
0.0
 11
-553.5282031909838
 21
-473.0065711768897
 31
0.0
  0
LINE
  5
116
330
1F
100
AcDbEntity
  8
C-4
  6
Continuous
 62
     7
370
     9
100
AcDbLine
 10
-656.7912746120144
 20
-318.3016885293496
 30
0.0
 11
-656.7912746120144
 21
-434.9199532173775
 31
0.0
  0
LINE
  5
117
330
1F
100
AcDbEntity
  8
C-4
  6
Continuous
 62
     7
370
     9
100
AcDbLine
 10
-556.7913158519846
 20
-339.8726262273015
 30
0.0
 11
-556.7913158519846
 21
-496.9366001438449
 31
0.0
  0
LINE
  5
118
330
1F
100
AcDbEntity
  8
C-2
  6
JWW_CENTER1
 62
     3
370
     9
100
AcDbLine
 10
-1390.00761702254
 20
540.0770775047511
 30
0.0
 11
-743.574977565456
 21
540.0770775047511
 31
0.0
  0
LINE
  5
119
330
1F
100
AcDbEntity
  8
C-2
  6
JWW_CENTER1
 62
     3
370
     9
100
AcDbLine
 10
-1066.79126636402
 20
216.8607887061867
 30
0.0
 11
-1066.79126636402
 21
863.2934900232266
 31
0.0
  0
LINE
  5
11A
330
1F
100
AcDbEntity
  8
C-2
  6
JWW_CENTER1
 62
     3
370
     9
100
AcDbLine
 10
-1066.79126636402
 20
-474.0628917797192
 30
0.0
 11
-1066.79126636402
 21
-369.0819075300886
 31
0.0
  0
LINE
  5
11B
330
1F
100
AcDbEntity
  8
C-E
  6
Continuous
 62
     7
370
     9
100
AcDbLine
 10
-756.7912333720437
 20
-392.2205002243454
 30
0.0
 11
-747.2240963497677
 21
-369.1234774202912
 31
0.0
  0
LINE
  5
11C
330
1F
100
AcDbEntity
  8
C-E
  6
Continuous
 62
     7
370
     9
100
AcDbLine
 10
-756.7912333720437
 20
-392.2205002243454
 30
0.0
 11
-741.5721996410471
 21
-372.3867138012035
 31
0.0
  0
LINE
  5
11D
330
1F
100
AcDbEntity
  8
C-E
  6
Continuous
 62
     7
370
     9
100
AcDbLine
 10
-862.2911607896958
 20
-442.9704078468116
 30
0.0
 11
-847.0721270586992
 21
-462.8041324099978
 31
0.0
  0
LINE
  5
11E
330
1F
100
AcDbEntity
  8
C-E
  6
Continuous
 62
     7
370
     9
100
AcDbLine
 10
-862.2911607896958
 20
-442.9704078468116
 30
0.0
 11
-852.7240237674197
 21
-466.06736879091
 31
0.0
  0
LINE
  5
11F
330
1F
100
AcDbEntity
  8
C-E
  6
Continuous
 62
     7
370
     9
100
AcDbLine
 10
-756.7912333720437
 20
-392.2205002243454
 30
0.0
 11
-652.8682399440456
 21
-212.2205249683276
 31
0.0
  0
LINE
  5
120
330
1F
100
AcDbEntity
  8
C-E
  6
Continuous
 62
     7
370
     9
100
AcDbLine
 10
-888.9064067118876
 20
-748.2204004236169
 30
0.0
 11
-271.2857220623943
 21
-748.2204004236169
 31
0.0
  0
LINE
  5
121
330
1F
100
AcDbEntity
  8
C-E
  6
Continuous
 62
     7
370
     9
100
AcDbLine
 10
-652.8682399440456
 20
-212.2205249683276
 30
0.0
 11
-250.7833532384922
 21
-212.2205249683276
 31
0.0
  0
LINE
  5
122
330
1F
100
AcDbEntity
  8
C-E
  6
Continuous
 62
     7
370
     9
100
AcDbLine
 10
-772.6574459591427
 20
-598.2204004236169
 30
0.0
 11
-471.7414237357474
 21
-598.2204004236169
 31
0.0
  0
LINE
  5
123
330
1F
100
AcDbEntity
  8
D-4
  6
Continuous
 62
     7
370
     9
100
AcDbLine
 10
1499.537782411318
 20
1045.76922442462
 30
0.0
 11
1687.417107659417
 21
1045.76922442462
 31
0.0
  0
ARC
  5
124
330
1F
100
AcDbEntity
  8
C-6
  6
Continuous
 62
     6
370
     5
100
AcDbCircle
 10
-1266.791245744035
 20
615.0772012246623
 30
0.0
 40
4.500000057993709
100
AcDbArc
 50
0.0
 51
180.0
  0
ARC
  5
125
330
1F
100
AcDbEntity
  8
C-6
  6
Continuous
 62
     6
370
     5
100
AcDbCircle
 10
-866.7911014041384
 20
465.0770775047511
 30
0.0
 40
4.500000057993709
100
AcDbArc
 50
180.0
 51
0.0
  0
ARC
  5
126
330
1F
100
AcDbEntity
  8
C-6
  6
Continuous
 62
     6
370
     5
100
AcDbCircle
 10
-866.7911014041384
 20
615.0772012246623
 30
0.0
 40
4.500000057993709
100
AcDbArc
 50
7.016464233398438
 51
180.0
  0
ARC
  5
127
330
1F
100
AcDbEntity
  8
C-6
  6
Continuous
 62
     6
370
     5
100
AcDbCircle
 10
-1266.791245744035
 20
465.0770775047511
 30
0.0
 40
4.500000057993709
100
AcDbArc
 50
180.0
 51
0.0
  0
ARC
  5
128
330
1F
100
AcDbEntity
  8
C-6
  6
Continuous
 62
     6
370
     5
100
AcDbCircle
 10
-1266.791245744035
 20
-387.7204358899916
 30
0.0
 40
4.500000057993709
100
AcDbArc
 50
9.053009033203125
 51
0.0
  0
CIRCLE
  5
129
330
1F
100
AcDbEntity
  8
C-6
  6
Continuous
 62
     6
370
     5
100
AcDbCircle
 10
-866.7911014041384
 20
-387.7204358899916
 30
0.0
 40
4.500000057993709
  0
ARC
  5
12A
330
1F
100
AcDbEntity
  8
C-2
  6
Continuous
 62
     3
370
     9
100
AcDbCircle
 10
-1266.791245744035
 20
615.0772012246623
 30
0.0
 40
9.9999991623131
100
AcDbArc
 50
296.7432098388672
 51
243.2567901611328
  0
ARC
  5
12B
330
1F
100
AcDbEntity
  8
C-2
  6
Continuous
 62
     3
370
     9
100
AcDbCircle
 10
-1266.791245744035
 20
465.0770775047511
 30
0.0
 40
9.9999991623131
100
AcDbArc
 50
116.7432098388672
 51
63.25679016113282
  0
ARC
  5
12C
330
1F
100
AcDbEntity
  8
C-2
  6
Continuous
 62
     3
370
     9
100
AcDbCircle
 10
-866.791348843961
 20
615.0772012246623
 30
0.0
 40
9.9999991623131
100
AcDbArc
 50
296.7432098388672
 51
243.2567901611328
  0
ARC
  5
12D
330
1F
100
AcDbEntity
  8
C-2
  6
Continuous
 62
     3
370
     9
100
AcDbCircle
 10
-866.791348843961
 20
465.0770775047511
 30
0.0
 40
9.9999991623131
100
AcDbArc
 50
116.7432098388672
 51
63.25679016113282
  0
ARC
  5
12E
330
1F
100
AcDbEntity
  8
D-6
  6
Continuous
 62
     6
370
     5
100
AcDbCircle
 10
1319.054680901605
 20
493.543420740076
 30
0.0
 40
45.00000154649889
100
AcDbArc
 50
0.0
 51
90.0
  0
ARC
  5
12F
330
1F
100
AcDbEntity
  8
D-6
  6
Continuous
 62
     6
370
     5
100
AcDbCircle
 10
1319.054680901605
 20
493.543420740076
 30
0.0
 40
90.00000309299779
100
AcDbArc
 50
0.0
 51
90.0
  0
ARC
  5
130
330
1F
100
AcDbEntity
  8
D-6
  6
JWW_CENTER1
 62
     6
370
     5
100
AcDbCircle
 10
1319.054680901605
 20
493.543420740076
 30
0.0
 40
67.49999845350112
100
AcDbArc
 50
0.0
 51
90.0
  0
ARC
  5
131
330
1F
100
AcDbEntity
  8
D-2
  6
Continuous
 62
     3
370
     9
100
AcDbCircle
 10
636.5542849978885
 20
850.0769867768158
 30
0.0
 40
50.00000257749815
100
AcDbArc
 50
26.74368286132812
 51
333.2563018798828
  0
ARC
  5
132
330
1F
100
AcDbEntity
  8
D-6
  6
Continuous
 62
     6
370
     5
100
AcDbCircle
 10
1386.554779877534
 20
850.0769867768158
 30
0.0
 40
22.50000077324945
100
AcDbArc
 50
270.0
 51
90.0
  0
ARC
  5
133
330
1F
100
AcDbEntity
  8
D-6
  6
Continuous
 62
     6
370
     5
100
AcDbCircle
 10
636.5542849978885
 20
850.0769867768158
 30
0.0
 40
22.50000077324945
100
AcDbArc
 50
90.0
 51
270.0
  0
ARC
  5
134
330
1F
100
AcDbEntity
  8
D-2
  6
Continuous
 62
     3
370
     9
100
AcDbCircle
 10
1386.554779877534
 20
850.0769867768158
 30
0.0
 40
50.00000257749815
100
AcDbArc
 50
206.7436828613282
 51
153.2563018798828
  0
ARC
  5
135
330
1F
100
AcDbEntity
  8
D-6
  6
JWW_CENTER1
 62
     6
370
     5
100
AcDbCircle
 10
704.0543839738177
 20
493.543420740076
 30
0.0
 40
67.49999845350112
100
AcDbArc
 50
90.0
 51
180.0
  0
ARC
  5
136
330
1F
100
AcDbEntity
  8
D-6
  6
Continuous
 62
     6
370
     5
100
AcDbCircle
 10
704.0543839738177
 20
493.543420740076
 30
0.0
 40
90.00000309299779
100
AcDbArc
 50
90.0
 51
180.0
  0
ARC
  5
137
330
1F
100
AcDbEntity
  8
D-6
  6
Continuous
 62
     6
370
     5
100
AcDbCircle
 10
704.0543839738177
 20
493.543420740076
 30
0.0
 40
45.00000154649889
100
AcDbArc
 50
90.0
 51
180.0
  0
TEXT
  5
138
330
1F
100
AcDbEntity
  8
C-E
  6
Continuous
 62
     7
370
     9
100
AcDbText
 10
-875.0111306680213
 20
-730.5048063700907
 30
0.0
 40
22.86
  1
補強材：ＳＳ４００，溶融亜鉛めっき
 41
1.156862745098039
  7
ＭＳ ゴシック
100
AcDbText
  0
TEXT
  5
139
330
1F
100
AcDbEntity
  8
D-4
  6
Continuous
 62
     7
370
     9
100
AcDbText
 10
1512.17357738598
 20
1061.58089276288
 30
0.0
 40
22.86
  1
２－φ２０
 41
1.133333333333333
  7
ＭＳ ゴシック
100
AcDbText
  0
TEXT
  5
13A
330
1F
100
AcDbEntity
  8
D-4
  6
Continuous
 62
     2
370
     9
100
AcDbText
 10
1612.425663930532
 20
-19.36694583377303
 30
0.0
 40
30.48
  1
6
 50
90.0
 41
0.9999999999999998
  7
ＭＳ ゴシック
100
AcDbText
  0
TEXT
  5
13B
330
1F
100
AcDbEntity
  8
D-4
  6
Continuous
 62
     2
370
     9
100
AcDbText
 10
1612.425663930532
 20
278.543313516153
 30
0.0
 40
30.48
  1
100
 50
90.0
 41
1.083333333333333
  7
ＭＳ ゴシック
100
AcDbText
  0
TEXT
  5
13C
330
1F
100
AcDbEntity
  8
D-4
  6
Continuous
 62
     2
370
     9
100
AcDbText
 10
979.0545324377113
 20
-130.5237094858529
 30
0.0
 40
30.48
  1
150
 41
1.083333333333333
  7
ＭＳ ゴシック
100
AcDbText
  0
TEXT
  5
13D
330
1F
100
AcDbEntity
  8
D-4
  6
Continuous
 62
     2
370
     9
100
AcDbText
 10
519.687203072213
 20
233.9885536317568
 30
0.0
 40
30.48
  1
φ9
 41
1.083333333333333
  7
ＭＳ ゴシック
100
AcDbText
  0
TEXT
  5
13E
330
1F
100
AcDbEntity
  8
D-4
  6
Continuous
 62
     2
370
     9
100
AcDbText
 10
469.5969452729099
 20
-64.24880879170182
 30
0.0
 40
30.48
  1
□25
 41
1.09375
  7
ＭＳ ゴシック
100
AcDbText
  0
TEXT
  5
13F
330
1F
100
AcDbEntity
  8
F-4ﾚｲﾔ
  6
Continuous
 62
     2
370
     9
100
AcDbText
 10
-632.5005361196156
 20
-1347.468295749974
 30
0.0
 40
30.48
  1
縞鋼板製ハンドホール鉄蓋　　Ｃ１
 41
1.1171875
  7
ＭＳ ゴシック
100
AcDbText
  0
TEXT
  5
140
330
1F
100
AcDbEntity
  8
D-4
  6
Continuous
 62
     2
370
     9
100
AcDbText
 10
766.5544087177998
 20
-345.5238002137879
 30
0.0
 40
30.48
  1
把手詳細図　Ｓ＝１：２
 41
1.113636363636364
  7
ＭＳ ゴシック
100
AcDbText
  0
TEXT
  5
141
330
1F
100
AcDbEntity
  8
C-4
  6
Continuous
 62
     2
370
     9
100
AcDbText
 10
-1099.291173574087
 20
145.7169950248102
 30
0.0
 40
30.48
  1
390
 41
1.083333333333333
  7
ＭＳ ゴシック
100
AcDbText
  0
TEXT
  5
142
330
1F
100
AcDbEntity
  8
C-4
  6
Continuous
 62
     2
370
     9
100
AcDbText
 10
-1099.291421013909
 20
45.71703626478048
 30
0.0
 40
30.48
  1
620
 41
1.083333333333333
  7
ＭＳ ゴシック
100
AcDbText
  0
TEXT
  5
143
330
1F
100
AcDbEntity
  8
C-4
  6
Continuous
 62
     2
370
     9
100
AcDbText
 10
-672.4313076039906
 20
507.5768300649282
 30
0.0
 40
30.48
  1
490
 50
90.0
 41
1.083333333333333
  7
ＭＳ ゴシック
100
AcDbText
  0
TEXT
  5
144
330
1F
100
AcDbEntity
  8
C-4
  6
Continuous
 62
     2
370
     9
100
AcDbText
 10
-572.4313488439612
 20
507.5768300649282
 30
0.0
 40
30.48
  1
620
 50
90.0
 41
1.083333333333333
  7
ＭＳ ゴシック
100
AcDbText
  0
TEXT
  5
145
330
1F
100
AcDbEntity
  8
C-4
  6
Continuous
 62
     2
370
     9
100
AcDbText
 10
-1099.291173574087
 20
-276.5805084723395
 30
0.0
 40
30.48
  1
400
 41
1.083333333333333
  7
ＭＳ ゴシック
100
AcDbText
  0
TEXT
  5
146
330
1F
100
AcDbEntity
  8
C-4
  6
Continuous
 62
     2
370
     9
100
AcDbText
 10
-672.4313076039906
 20
-354.7027134250949
 30
0.0
 40
30.48
  1
6
 50
90.0
 41
0.9999999999999998
  7
ＭＳ ゴシック
100
AcDbText
  0
TEXT
  5
147
330
1F
100
AcDbEntity
  8
C-4
  6
Continuous
 62
     2
370
     9
100
AcDbText
 10
-572.4313488439612
 20
-441.4704193940033
 30
0.0
 40
30.48
  1
56
 50
90.0
 41
1.0625
  7
ＭＳ ゴシック
100
AcDbText
  0
TEXT
  5
148
330
1F
100
AcDbEntity
  8
C-E
  6
Continuous
 62
     7
370
     9
100
AcDbText
 10
-579.7452318346177
 20
-249.3092637510557
 30
0.0
 40
22.86
  1
溶融亜鉛めっき
 41
1.142857142857143
  7
ＭＳ ゴシック
100
AcDbText
  0
TEXT
  5
149
330
1F
100
AcDbEntity
  8
C-E
  6
Continuous
 62
     7
370
     9
100
AcDbText
 10
-741.2023142221811
 20
-633.4393601866026
 30
0.0
 40
22.86
  1
溶融亜鉛めっき
 41
1.142857142857143
  7
ＭＳ ゴシック
100
AcDbText
  0
TEXT
  5
14A
330
1F
100
AcDbEntity
  8
C-E
  6
Continuous
 62
     7
370
     9
100
AcDbText
 10
-638.7595223091744
 20
-192.1329727750211
 30
0.0
 40
22.86
  1
蓋プレート：ＳＳ４００
 41
1.151515151515152
  7
ＭＳ ゴシック
100
AcDbText
  0
TEXT
  5
14B
330
1F
100
AcDbEntity
  8
C-E
  6
Continuous
 62
     7
370
     9
100
AcDbText
 10
-762.1239739495353
 20
-581.6836096851245
 30
0.0
 40
22.86
  1
把手：ＳＳ４００
 41
1.145833333333333
  7
ＭＳ ゴシック
100
AcDbText
  0
CIRCLE
  5
14C
330
1F
100
AcDbEntity
  8
C-1
  6
Continuous
 62
     2
370
     9
100
AcDbCircle
 10
-1211.791229248047
 20
-423.2204107336095
 30
0.0
 40
6.0
  0
LINE
  5
14D
330
1F
100
AcDbEntity
  8
C-0
  6
JWW_CENTER2
 62
     7
370
     9
100
AcDbLine
 10
-1221.427346240691
 20
-423.2204107336095
 30
0.0
 11
-1203.00682528002
 21
-423.2204107336095
 31
0.0
  0
LINE
  5
14E
330
1F
100
AcDbEntity
  8
C-0
  6
JWW_CENTER2
 62
     7
370
     9
100
AcDbLine
 10
-1211.791229248047
 20
-432.5338154433325
 30
0.0
 11
-1211.791229248047
 21
-414.7872159812226
 31
0.0
  0
TEXT
  5
14F
330
1F
100
AcDbEntity
  8
C-5
  6
Continuous
 62
     7
370
     9
100
AcDbText
 10
-1130.029083642711
 20
-520.4685318515141
 30
0.0
 40
22.86
  1
φ12
 41
1.125
  7
ＭＳ ゴシック
100
AcDbText
  0
LINE
  5
150
330
1F
100
AcDbEntity
  8
C-5
  6
Continuous
 62
     7
370
     9
100
AcDbLine
 10
-1137.111742281998
 20
-529.6027615260246
 30
0.0
 11
-1059.871507160339
 21
-529.6027615260246
 31
0.0
  0
LINE
  5
151
330
1F
100
AcDbEntity
  8
C-3
  6
JWW_CENTER2
 62
     4
370
     9
100
AcDbLine
 10
-911.7911179001266
 20
743.0771467887334
 30
0.0
 11
-911.7911179001266
 21
771.0770577087334
 31
0.0
  0
CIRCLE
  5
152
330
1F
100
AcDbEntity
  8
C-3
  6
JWW_DASHED1
 62
     4
370
     9
100
AcDbCircle
 10
-911.7911179001266
 20
750.5771467887334
 30
0.0
 40
2.5
  0
CIRCLE
  5
153
330
1F
100
AcDbEntity
  8
C-3
  6
JWW_DASHED1
 62
     4
370
     9
100
AcDbCircle
 10
-911.7911179001266
 20
763.5770577087334
 30
0.0
 40
2.5
  0
TEXT
  5
154
330
1F
100
AcDbEntity
  8
C-4
  6
Continuous
 62
     2
370
     9
100
AcDbText
 10
616.0164328264591
 20
-1095.211673721672
 30
0.0
 40
30.48
  1
※ＮＥＸＣＯ　機械電気通信設備標準図集　Ｖ－６３該当品
 41
1.12037037037037
  7
ＭＳ ゴシック
100
AcDbText
  0
LINE
  5
155
330
1F
100
AcDbEntity
  8
C-2
  6
Continuous
 62
     3
370
     9
100
AcDbLine
 10
-170.5807354893511
 20
230.0769207928633
 30
0.0
 11
-170.5807354893511
 21
850.0769867768158
 31
0.0
  0
LINE
  5
156
330
1F
100
AcDbEntity
  8
C-2
  6
Continuous
 62
     3
370
     9
100
AcDbLine
 10
-164.5805672302717
 20
230.0769207928633
 30
0.0
 11
-164.5805672302717
 21
850.0769867768158
 31
0.0
  0
LINE
  5
157
330
1F
100
AcDbEntity
  8
C-6
  6
Continuous
 62
     6
370
     5
100
AcDbLine
 10
-75.08084106367535
 20
602.5770362647804
 30
0.0
 11
-75.08084106367535
 21
627.5768713048988
 31
0.0
  0
LINE
  5
158
330
1F
100
AcDbEntity
  8
C-6
  6
Continuous
 62
     6
370
     5
100
AcDbLine
 10
-161.5806068206433
 20
619.577141839105
 30
0.0
 11
-75.08084106367535
 21
619.577141839105
 31
0.0
  0
LINE
  5
159
330
1F
100
AcDbEntity
  8
C-6
  6
Continuous
 62
     6
370
     5
100
AcDbLine
 10
-161.5806068206433
 20
610.5770131703971
 30
0.0
 11
-75.08084106367535
 21
610.5770131703971
 31
0.0
  0
LINE
  5
15A
330
1F
100
AcDbEntity
  8
C-6
  6
Continuous
 62
     6
370
     5
100
AcDbLine
 10
-179.580616718236
 20
478.5768993480787
 30
0.0
 11
-179.580616718236
 21
601.5768845016894
 31
0.0
  0
LINE
  5
15B
330
1F
100
AcDbEntity
  8
C-6
  6
Continuous
 62
     6
370
     5
100
AcDbLine
 10
-69.08042536477326
 20
602.5770362647804
 30
0.0
 11
-69.08042536477326
 21
627.5768713048988
 31
0.0
  0
LINE
  5
15C
330
1F
100
AcDbEntity
  8
C-6
  6
Continuous
 62
     6
370
     5
100
AcDbLine
 10
-75.08084106367535
 20
602.5770362647804
 30
0.0
 11
-69.08042536477326
 21
602.5770362647804
 31
0.0
  0
LINE
  5
15D
330
1F
100
AcDbEntity
  8
C-6
  6
Continuous
 62
     6
370
     5
100
AcDbLine
 10
-75.08084106367535
 20
627.5768713048988
 30
0.0
 11
-69.08042536477326
 21
627.5768713048988
 31
0.0
  0
LINE
  5
15E
330
1F
100
AcDbEntity
  8
C-6
  6
Continuous
 62
     6
370
     5
100
AcDbLine
 10
-75.08084106367535
 20
452.5769125448693
 30
0.0
 11
-69.08042536477326
 21
452.5769125448693
 31
0.0
  0
LINE
  5
15F
330
1F
100
AcDbEntity
  8
C-6
  6
Continuous
 62
     6
370
     5
100
AcDbLine
 10
-75.08084106367535
 20
477.5767475849875
 30
0.0
 11
-69.08042536477326
 21
477.5767475849875
 31
0.0
  0
LINE
  5
160
330
1F
100
AcDbEntity
  8
C-6
  6
Continuous
 62
     6
370
     5
100
AcDbLine
 10
-69.08042536477326
 20
477.5767475849875
 30
0.0
 11
-69.08042536477326
 21
452.5769125448693
 31
0.0
  0
LINE
  5
161
330
1F
100
AcDbEntity
  8
C-6
  6
Continuous
 62
     6
370
     5
100
AcDbLine
 10
-161.5806068206433
 20
469.5770181191935
 30
0.0
 11
-75.08084106367535
 21
469.5770181191935
 31
0.0
  0
LINE
  5
162
330
1F
100
AcDbEntity
  8
C-6
  6
Continuous
 62
     6
370
     5
100
AcDbLine
 10
-161.5806068206433
 20
460.5768894504857
 30
0.0
 11
-75.08084106367535
 21
460.5768894504857
 31
0.0
  0
LINE
  5
163
330
1F
100
AcDbEntity
  8
C-6
  6
Continuous
 62
     6
370
     5
100
AcDbLine
 10
-75.08084106367535
 20
477.5767475849875
 30
0.0
 11
-75.08084106367535
 21
452.5769125448693
 31
0.0
  0
LINE
  5
164
330
1F
100
AcDbEntity
  8
C-2
  6
Continuous
 62
     3
370
     9
100
AcDbLine
 10
-170.5807354893511
 20
850.0769867768158
 30
0.0
 11
-164.5805672302717
 21
850.0769867768158
 31
0.0
  0
LINE
  5
165
330
1F
100
AcDbEntity
  8
C-2
  6
Continuous
 62
     3
370
     9
100
AcDbLine
 10
-170.5807354893511
 20
230.0769207928633
 30
0.0
 11
-164.5805672302717
 21
230.0769207928633
 31
0.0
  0
LINE
  5
166
330
1F
100
AcDbEntity
  8
C-1
  6
Continuous
 62
     2
370
     9
100
AcDbLine
 10
-114.5806497102126
 20
295.076887800887
 30
0.0
 11
-164.5805672302717
 21
295.076887800887
 31
0.0
  0
LINE
  5
167
330
1F
100
AcDbEntity
  8
C-1
  6
Continuous
 62
     2
370
     9
100
AcDbLine
 10
-114.5806497102126
 20
296.0769158440669
 30
0.0
 11
-114.5806497102126
 21
295.076887800887
 31
0.0
  0
LINE
  5
168
330
1F
100
AcDbEntity
  8
C-1
  6
Continuous
 62
     2
370
     9
100
AcDbLine
 10
-163.5806629070029
 20
345.0769290408573
 30
0.0
 11
-164.5805672302717
 21
345.0769290408573
 31
0.0
  0
LINE
  5
169
330
1F
100
AcDbEntity
  8
C-1
  6
Continuous
 62
     2
370
     9
100
AcDbLine
 10
-154.0807057965722
 20
299.0768762536953
 30
0.0
 11
-117.580610119841
 21
299.0768762536953
 31
0.0
  0
LINE
  5
16A
330
1F
100
AcDbEntity
  8
C-1
  6
Continuous
 62
     2
370
     9
100
AcDbLine
 10
-160.5807024973745
 20
305.5768729544977
 30
0.0
 11
-160.5807024973745
 21
342.0769686312289
 31
0.0
  0
LINE
  5
16B
330
1F
100
AcDbEntity
  8
C-1
  6
Continuous
 62
     2
370
     9
100
AcDbLine
 10
-114.5806497102126
 20
785.0772672086151
 30
0.0
 11
-164.5805672302717
 21
785.0772672086151
 31
0.0
  0
LINE
  5
16C
330
1F
100
AcDbEntity
  8
C-1
  6
Continuous
 62
     2
370
     9
100
AcDbLine
 10
-114.5806497102126
 20
784.0773628853464
 30
0.0
 11
-114.5806497102126
 21
785.0772672086151
 31
0.0
  0
LINE
  5
16D
330
1F
100
AcDbEntity
  8
C-1
  6
Continuous
 62
     2
370
     9
100
AcDbLine
 10
-163.5806629070029
 20
735.0773496885557
 30
0.0
 11
-164.5805672302717
 21
735.0773496885557
 31
0.0
  0
LINE
  5
16E
330
1F
100
AcDbEntity
  8
C-1
  6
Continuous
 62
     2
370
     9
100
AcDbLine
 10
-154.0807057965722
 20
781.0774024757179
 30
0.0
 11
-117.580610119841
 21
781.0774024757179
 31
0.0
  0
LINE
  5
16F
330
1F
100
AcDbEntity
  8
C-1
  6
Continuous
 62
     2
370
     9
100
AcDbLine
 10
-160.5807024973745
 20
774.5774057749156
 30
0.0
 11
-160.5807024973745
 21
738.0775575380068
 31
0.0
  0
LINE
  5
170
330
1F
100
AcDbEntity
  8
C-2
  6
JWW_CENTER1
 62
     3
370
     9
100
AcDbLine
 10
-224.6792462315386
 20
540.0770775047511
 30
0.0
 11
-125.9418491665048
 21
540.0770775047511
 31
0.0
  0
ARC
  5
171
330
1F
100
AcDbEntity
  8
C-6
  6
Continuous
 62
     6
370
     5
100
AcDbCircle
 10
-161.5806068206433
 20
478.5768993480787
 30
0.0
 40
18.00000023197483
100
AcDbArc
 50
180.0
 51
240.0
  0
ARC
  5
172
330
1F
100
AcDbEntity
  8
C-6
  6
Continuous
 62
     6
370
     5
100
AcDbCircle
 10
-161.5806068206433
 20
478.5768993480787
 30
0.0
 40
18.00000023197483
100
AcDbArc
 50
260.4059295654297
 51
270.0
  0
ARC
  5
173
330
1F
100
AcDbEntity
  8
C-6
  6
Continuous
 62
     6
370
     5
100
AcDbCircle
 10
-161.5806068206433
 20
478.5768993480787
 30
0.0
 40
9.000000115987417
100
AcDbArc
 50
250.5287780761719
 51
270.0
  0
ARC
  5
174
330
1F
100
AcDbEntity
  8
C-6
  6
Continuous
 62
     6
370
     5
100
AcDbCircle
 10
-161.5806068206433
 20
601.5768845016894
 30
0.0
 40
9.000000115987417
100
AcDbArc
 50
90.0
 51
109.4712066650391
  0
ARC
  5
175
330
1F
100
AcDbEntity
  8
C-6
  6
Continuous
 62
     6
370
     5
100
AcDbCircle
 10
-161.5806068206433
 20
601.5768845016894
 30
0.0
 40
18.00000023197483
100
AcDbArc
 50
90.0
 51
99.59405517578125
  0
ARC
  5
176
330
1F
100
AcDbEntity
  8
C-6
  6
Continuous
 62
     6
370
     5
100
AcDbCircle
 10
-161.5806068206433
 20
601.5768845016894
 30
0.0
 40
18.00000023197483
100
AcDbArc
 50
119.999984741211
 51
180.0
  0
ARC
  5
177
330
1F
100
AcDbEntity
  8
C-1
  6
Continuous
 62
     2
370
     9
100
AcDbCircle
 10
-117.580610119841
 20
296.0769158440669
 30
0.0
 40
2.999999797022021
100
AcDbArc
 50
0.0
 51
90.0
  0
ARC
  5
178
330
1F
100
AcDbEntity
  8
C-1
  6
Continuous
 62
     2
370
     9
100
AcDbCircle
 10
-163.5806629070029
 20
342.0769686312289
 30
0.0
 40
2.999999797022021
100
AcDbArc
 50
0.0
 51
90.0
  0
ARC
  5
179
330
1F
100
AcDbEntity
  8
C-1
  6
Continuous
 62
     2
370
     9
100
AcDbCircle
 10
-154.0807057965722
 20
305.5768729544977
 30
0.0
 40
6.499999117206883
100
AcDbArc
 50
180.0
 51
270.0
  0
ARC
  5
17A
330
1F
100
AcDbEntity
  8
C-1
  6
Continuous
 62
     2
370
     9
100
AcDbCircle
 10
-117.580610119841
 20
784.0773628853464
 30
0.0
 40
2.999999797022021
100
AcDbArc
 50
270.0
 51
0.0
  0
ARC
  5
17B
330
1F
100
AcDbEntity
  8
C-1
  6
Continuous
 62
     2
370
     9
100
AcDbCircle
 10
-163.5806629070029
 20
738.0775575380068
 30
0.0
 40
2.999999797022021
100
AcDbArc
 50
270.0
 51
0.0
  0
ARC
  5
17C
330
1F
100
AcDbEntity
  8
C-1
  6
Continuous
 62
     2
370
     9
100
AcDbCircle
 10
-154.0807057965722
 20
774.5774057749156
 30
0.0
 40
6.499999117206883
100
AcDbArc
 50
90.0
 51
180.0
  0
LINE
  5
17D
330
1F
100
AcDbEntity
  8
C-3
  6
Continuous
 62
     4
370
     9
100
AcDbLine
 10
-160.5805078759096
 20
761.0770164695948
 30
0.0
 11
-160.5805078759096
 21
766.0769834776186
 31
0.0
  0
LINE
  5
17E
330
1F
100
AcDbEntity
  8
C-3
  6
Continuous
 62
     4
370
     9
100
AcDbLine
 10
-160.5805078759096
 20
748.076924092061
 30
0.0
 11
-160.5805078759096
 21
753.0768911000847
 31
0.0
  0
LINE
  5
17F
330
1F
100
AcDbEntity
  8
C-3
  6
JWW_CENTER1
 62
     4
370
     9
100
AcDbLine
 10
-116.2052802134116
 20
757.0771022487334
 30
0.0
 11
-179.6146599957101
 21
757.0771022487334
 31
0.0
  0
ARC
  5
180
330
1F
100
AcDbEntity
  8
C-3
  6
Continuous
 62
     4
370
     9
100
AcDbCircle
 10
-144.5806567983323
 20
757.0771022487334
 30
0.0
 40
8.999954300957757
100
AcDbArc
 50
270.0
 51
90.0
  0
LINE
  5
181
330
1F
100
AcDbEntity
  8
C-3
  6
Continuous
 62
     4
370
     9
100
AcDbLine
 10
-160.5805078759096
 20
761.0770164695948
 30
0.0
 11
-144.5563354371801
 21
761.0770164695948
 31
0.0
  0
ARC
  5
182
330
1F
100
AcDbEntity
  8
C-3
  6
Continuous
 62
     4
370
     9
100
AcDbCircle
 10
-144.5806567983323
 20
757.0771022487334
 30
0.0
 40
3.999988162839736
100
AcDbArc
 50
270.0
 51
89.65161898586234
  0
LINE
  5
183
330
1F
100
AcDbEntity
  8
C-3
  6
Continuous
 62
     4
370
     9
100
AcDbLine
 10
-160.5805078759096
 20
753.0768911000847
 30
0.0
 11
-144.5806567983323
 21
753.0768911000847
 31
0.0
  0
LINE
  5
184
330
1F
100
AcDbEntity
  8
C-3
  6
Continuous
 62
     4
370
     9
100
AcDbLine
 10
-160.5805078759096
 20
748.076924092061
 30
0.0
 11
-144.5806567983323
 21
748.076924092061
 31
0.0
  0
LINE
  5
185
330
1F
100
AcDbEntity
  8
C-3
  6
Continuous
 62
     4
370
     9
100
AcDbLine
 10
-160.5805078759096
 20
766.0769834776186
 30
0.0
 11
-144.5443899362043
 21
766.0769834776186
 31
0.0
  0
LINE
  5
186
330
1F
100
AcDbEntity
  8
C-E
  6
Continuous
 62
     7
370
     9
100
AcDbLine
 10
-31.65770906937638
 20
937.0770775047513
 30
0.0
 11
370.427177636177
 21
937.0770775047513
 31
0.0
  0
TEXT
  5
187
330
1F
100
AcDbEntity
  8
C-E
  6
Continuous
 62
     7
370
     9
100
AcDbText
 10
41.46529904005149
 20
899.9883387220232
 30
0.0
 40
22.86
  1
溶融亜鉛めっき
 41
1.142857142857143
  7
ＭＳ ゴシック
100
AcDbText
  0
TEXT
  5
188
330
1F
100
AcDbEntity
  8
C-E
  6
Continuous
 62
     7
370
     9
100
AcDbText
 10
-17.54899143450515
 20
957.1646296980578
 30
0.0
 40
22.86
  1
鎖ピン　ＳＷＲＭ　φ５
 41
1.151515151515152
  7
ＭＳ ゴシック
100
AcDbText
  0
LINE
  5
189
330
1F
100
AcDbEntity
  8
C-5
  6
Continuous
 62
     7
370
     9
100
AcDbLine
 10
-31.65770906937638
 20
937.0770775047513
 30
0.0
 11
-135.5807024973745
 21
757.0771022487334
 31
0.0
  0
LINE
  5
18A
330
1F
100
AcDbEntity
  8
C-5
  6
Continuous
 62
     7
370
     9
100
AcDbLine
 10
-135.5807024973745
 20
757.0771022487334
 30
0.0
 11
-126.0136206089804
 21
780.1740921855361
 31
0.0
  0
LINE
  5
18B
330
1F
100
AcDbEntity
  8
C-5
  6
Continuous
 62
     7
370
     9
100
AcDbLine
 10
-135.5807024973745
 20
757.0771022487334
 30
0.0
 11
-120.3616701389663
 21
776.910938339458
 31
0.0
  0
TEXT
  5
18C
330
1F
100
AcDbEntity
  8
C-E
  6
Continuous
 62
     7
370
     9
100
AcDbText
 10
-730.4110346613703
 20
-790.8772775351033
 30
0.0
 40
22.86
  1
Ｌ５０×５０×４
 41
1.145833333333333
  7
ＭＳ ゴシック
100
AcDbText
  0
ENDSEC
  0
SECTION
  2
OBJECTS
  0
DICTIONARY
  5
C
330
0
100
AcDbDictionary
281
     1
  3
ACAD_GROUP
350
D
  3
ACAD_LAYOUT
350
1A
  3
ACAD_MLEADERSTYLE
350
18E
  3
ACAD_MLINESTYLE
350
17
  3
ACAD_PLOTSETTINGS
350
19
  3
ACAD_PLOTSTYLENAME
350
E
  3
ACAD_TABLESTYLE
350
18D
  3
ACAD_VISUALSTYLE
350
2A
  0
DICTIONARY
  5
D
102
{ACAD_REACTORS
330
C
102
}
330
C
100
AcDbDictionary
281
     1
  0
DICTIONARY
  5
1A
102
{ACAD_REACTORS
330
C
102
}
330
C
100
AcDbDictionary
281
     1
  3
Layout1
350
1E
  3
Layout2
350
26
  3
Model
350
22
  0
DICTIONARY
  5
18E
102
{ACAD_REACTORS
330
C
102
}
330
C
100
AcDbDictionary
281
     1
  0
DICTIONARY
  5
17
102
{ACAD_REACTORS
330
C
102
}
330
C
100
AcDbDictionary
281
     1
  3
Standard
350
18
  0
DICTIONARY
  5
19
102
{ACAD_REACTORS
330
C
102
}
330
C
100
AcDbDictionary
281
     1
  0
ACDBDICTIONARYWDFLT
  5
E
102
{ACAD_REACTORS
330
C
102
}
330
C
100
AcDbDictionary
281
     1
  3
Normal
350
F
100
AcDbDictionaryWithDefault
340
F
  0
DICTIONARY
  5
18D
102
{ACAD_REACTORS
330
C
102
}
330
C
100
AcDbDictionary
281
     1
  0
DICTIONARY
  5
2A
102
{ACAD_REACTORS
330
C
102
}
330
C
100
AcDbDictionary
281
     1
  3
2dWireframe
350
2F
  3
3D Hidden
350
31
  3
3dWireframe
350
30
  3
Basic
350
32
  3
Brighten
350
36
  3
ColorChange
350
3A
  3
Conceptual
350
34
  3
Dim
350
35
  3
Facepattern
350
39
  3
Flat
350
2B
  3
FlatWithEdges
350
2C
  3
Gouraud
350
2D
  3
GouraudWithEdges
350
2E
  3
Linepattern
350
38
  3
Realistic
350
33
  3
Thicken
350
37
  0
LAYOUT
  5
1E
102
{ACAD_REACTORS
330
1A
102
}
330
1A
100
AcDbPlotSettings
  1

  2
none_device
  4

  6

 40
0.0
 41
0.0
 42
0.0
 43
0.0
 44
0.0
 45
0.0
 46
0.0
 47
0.0
 48
0.0
 49
0.0
140
0.0
141
0.0
142
1.0
143
1.0
 70
   688
 72
     0
 73
     0
 74
     5
  7

 75
    16
 76
     0
 77
     5
 78
   300
147
1.0
148
0.0
149
0.0
100
AcDbLayout
  1
Layout1
 70
     1
 71
     1
 10
0.0
 20
0.0
 11
420.0
 21
297.0
 12
0.0
 22
0.0
 32
0.0
 14
1.000000000000000E+20
 24
1.000000000000000E+20
 34
1.000000000000000E+20
 15
-1.000000000000000E+20
 25
-1.000000000000000E+20
 35
-1.000000000000000E+20
146
0.0
 13
0.0
 23
0.0
 33
0.0
 16
1.0
 26
0.0
 36
0.0
 17
0.0
 27
1.0
 37
0.0
 76
     0
330
1B
  0
LAYOUT
  5
26
102
{ACAD_REACTORS
330
1A
102
}
330
1A
100
AcDbPlotSettings
  1

  2
none_device
  4

  6

 40
0.0
 41
0.0
 42
0.0
 43
0.0
 44
0.0
 45
0.0
 46
0.0
 47
0.0
 48
0.0
 49
0.0
140
0.0
141
0.0
142
1.0
143
1.0
 70
   688
 72
     0
 73
     0
 74
     5
  7

 75
    16
 76
     0
 77
     5
 78
   300
147
1.0
148
0.0
149
0.0
100
AcDbLayout
  1
Layout2
 70
     1
 71
     2
 10
0.0
 20
0.0
 11
0.0
 21
0.0
 12
0.0
 22
0.0
 32
0.0
 14
0.0
 24
0.0
 34
0.0
 15
0.0
 25
0.0
 35
0.0
146
0.0
 13
0.0
 23
0.0
 33
0.0
 16
1.0
 26
0.0
 36
0.0
 17
0.0
 27
1.0
 37
0.0
 76
     0
330
23
  0
LAYOUT
  5
22
102
{ACAD_REACTORS
330
1A
102
}
330
1A
100
AcDbPlotSettings
  1

  2
none_device
  4

  6

 40
0.0
 41
0.0
 42
0.0
 43
0.0
 44
0.0
 45
0.0
 46
0.0
 47
0.0
 48
0.0
 49
0.0
140
0.0
141
0.0
142
1.0
143
1.0
 70
  1712
 72
     0
 73
     0
 74
     0
  7

 75
     0
 76
     0
 77
     5
 78
   300
147
1.0
148
0.0
149
0.0
100
AcDbLayout
  1
Model
 70
     1
 71
     0
 10
-2100.0
 20
-1485.0
 11
2100.0
 21
1485.0
 12
0.0
 22
0.0
 32
0.0
 14
-2100.0
 24
-1485.0
 34
0.0
 15
2100.0
 25
1485.0
 35
0.0
146
0.0
 13
0.0
 23
0.0
 33
0.0
 16
1.0
 26
0.0
 36
0.0
 17
0.0
 27
1.0
 37
0.0
 76
     0
330
1F
331
29
  0
MLINESTYLE
  5
18
102
{ACAD_REACTORS
330
17
102
}
330
17
100
AcDbMlineStyle
  2
Standard
 70
     0
  3

 62
   256
 51
90.0
 52
90.0
 71
     2
 49
0.5
 62
   256
  6
BYLAYER
 49
-0.5
 62
   256
  6
BYLAYER
  0
ACDBPLACEHOLDER
  5
F
102
{ACAD_REACTORS
330
E
102
}
330
E
  0
VISUALSTYLE
  5
2F
102
{ACAD_REACTORS
330
2A
102
}
330
2A
100
AcDbVisualStyle
  2
2dWireframe
 70
     4
 71
     0
 72
     2
 73
     0
 90
        0
 40
-0.6
 41
-30.0
 62
     5
 63
     7
421
 16777215
 74
     1
 91
        4
 64
     7
 65
   257
 75
     1
175
     1
 42
1.0
 92
        0
 66
   257
 43
1.0
 76
     1
 77
     6
 78
     2
 67
     7
 79
     5
170
     0
171
     0
290
     0
174
     0
 93
        1
 44
0.0
173
     0
291
     0
 45
0.0
1001
ACAD
1000
AcDbSavedByObjectVersion
1070
     0
  0
VISUALSTYLE
  5
31
102
{ACAD_REACTORS
330
2A
102
}
330
2A
100
AcDbVisualStyle
  2
3D Hidden
 70
     6
 71
     1
 72
     2
 73
     2
 90
        0
 40
-0.6
 41
-30.0
 62
     5
 63
     7
421
 16777215
 74
     2
 91
        2
 64
     7
 65
   257
 75
     2
175
     1
 42
40.0
 92
        0
 66
   257
 43
1.0
 76
     1
 77
     6
 78
     2
 67
     7
 79
     3
170
     0
171
     0
290
     0
174
     0
 93
        1
 44
0.0
173
     0
291
     0
 45
0.0
1001
ACAD
1000
AcDbSavedByObjectVersion
1070
     0
  0
VISUALSTYLE
  5
30
102
{ACAD_REACTORS
330
2A
102
}
330
2A
100
AcDbVisualStyle
  2
3dWireframe
 70
     5
 71
     0
 72
     2
 73
     0
 90
        0
 40
-0.6
 41
-30.0
 62
     5
 63
     7
421
 16777215
 74
     1
 91
        4
 64
     7
 65
   257
 75
     1
175
     1
 42
1.0
 92
        0
 66
   257
 43
1.0
 76
     1
 77
     6
 78
     2
 67
     7
 79
     5
170
     0
171
     0
290
     0
174
     0
 93
        1
 44
0.0
173
     0
291
     0
 45
0.0
1001
ACAD
1000
AcDbSavedByObjectVersion
1070
     0
  0
VISUALSTYLE
  5
32
102
{ACAD_REACTORS
330
2A
102
}
330
2A
100
AcDbVisualStyle
  2
Basic
 70
     7
 71
     1
 72
     0
 73
     1
 90
        0
 40
-0.6
 41
-30.0
 62
     5
 63
     7
421
 16777215
 74
     0
 91
        4
 64
     7
 65
   257
 75
     1
175
     1
 42
1.0
 92
        8
 66
     7
 43
1.0
 76
     1
 77
     6
 78
     2
 67
     7
 79
     5
170
     0
171
     0
290
     0
174
     0
 93
        1
 44
0.0
173
     0
291
     1
 45
0.0
1001
ACAD
1000
AcDbSavedByObjectVersion
1070
     0
  0
VISUALSTYLE
  5
36
102
{ACAD_REACTORS
330
2A
102
}
330
2A
100
AcDbVisualStyle
  2
Brighten
 70
    12
 71
     2
 72
     2
 73
     0
 90
        0
 40
-0.6
 41
-30.0
 62
     5
 63
     7
421
 16777215
 74
     1
 91
        4
 64
     7
 65
   257
 75
     1
175
     1
 42
1.0
 92
        8
 66
     7
 43
1.0
 76
     1
 77
     6
 78
     2
 67
     7
 79
     5
170
     0
171
     0
290
     0
174
     0
 93
        1
 44
50.0
173
     0
291
     1
 45
0.0
1001
ACAD
1000
AcDbSavedByObjectVersion
1070
     0
  0
VISUALSTYLE
  5
3A
102
{ACAD_REACTORS
330
2A
102
}
330
2A
100
AcDbVisualStyle
  2
ColorChange
 70
    16
 71
     2
 72
     2
 73
     3
 90
        0
 40
-0.6
 41
-30.0
 62
     5
 63
     8
421
  8421504
 74
     1
 91
        4
 64
     7
 65
   257
 75
     1
175
     1
 42
1.0
 92
        8
 66
     8
424
  8421504
 43
1.0
 76
     1
 77
     6
 78
     2
 67
     7
 79
     5
170
     0
171
     0
290
     0
174
     0
 93
        1
 44
0.0
173
     0
291
     1
 45
0.0
1001
ACAD
1000
AcDbSavedByObjectVersion
1070
     0
  0
VISUALSTYLE
  5
34
102
{ACAD_REACTORS
330
2A
102
}
330
2A
100
AcDbVisualStyle
  2
Conceptual
 70
     9
 71
     3
 72
     2
 73
     0
 90
        0
 40
-0.6
 41
-30.0
 62
     5
 63
     7
421
 16777215
 74
     2
 91
        2
 64
     7
 65
   257
 75
     1
175
     1
 42
40.0
 92
        8
 66
     7
 43
1.0
 76
     1
 77
     6
 78
     2
 67
     7
 79
     3
170
     0
171
     0
290
     0
174
     0
 93
        1
 44
0.0
173
     0
291
     0
 45
0.0
1001
ACAD
1000
AcDbSavedByObjectVersion
1070
     0
  0
VISUALSTYLE
  5
35
102
{ACAD_REACTORS
330
2A
102
}
330
2A
100
AcDbVisualStyle
  2
Dim
 70
    11
 71
     2
 72
     2
 73
     0
 90
        0
 40
-0.6
 41
-30.0
 62
     5
 63
     7
421
 16777215
 74
     1
 91
        4
 64
     7
 65
   257
 75
     1
175
     1
 42
1.0
 92
        8
 66
     7
 43
1.0
 76
     1
 77
     6
 78
     2
 67
     7
 79
     5
170
     0
171
     0
290
     0
174
     0
 93
        1
 44
-50.0
173
     0
291
     1
 45
0.0
1001
ACAD
1000
AcDbSavedByObjectVersion
1070
     0
  0
VISUALSTYLE
  5
39
102
{ACAD_REACTORS
330
2A
102
}
330
2A
100
AcDbVisualStyle
  2
Facepattern
 70
    15
 71
     2
 72
     2
 73
     0
 90
        0
 40
-0.6
 41
-30.0
 62
     5
 63
     7
421
 16777215
 74
     1
 91
        4
 64
     7
 65
   257
 75
     1
175
     1
 42
1.0
 92
        8
 66
     7
 43
1.0
 76
     1
 77
     6
 78
     2
 67
     7
 79
     5
170
     0
171
     0
290
     0
174
     0
 93
        1
 44
0.0
173
     0
291
     1
 45
0.0
1001
ACAD
1000
AcDbSavedByObjectVersion
1070
     0
  0
VISUALSTYLE
  5
2B
102
{ACAD_REACTORS
330
2A
102
}
330
2A
100
AcDbVisualStyle
  2
Flat
 70
     0
 71
     2
 72
     1
 73
     1
 90
        2
 40
-0.6
 41
30.0
 62
     5
 63
     7
421
 16777215
 74
     0
 91
        4
 64
     7
 65
   257
 75
     1
175
     1
 42
1.0
 92
        8
 66
     7
 43
1.0
 76
     1
 77
     6
 78
     2
 67
     7
 79
     5
170
     0
171
     0
290
     0
174
     0
 93
       13
 44
0.0
173
     0
291
     1
 45
0.0
1001
ACAD
1000
AcDbSavedByObjectVersion
1070
     0
  0
VISUALSTYLE
  5
2C
102
{ACAD_REACTORS
330
2A
102
}
330
2A
100
AcDbVisualStyle
  2
FlatWithEdges
 70
     1
 71
     2
 72
     1
 73
     1
 90
        2
 40
-0.6
 41
30.0
 62
     5
 63
     7
421
 16777215
 74
     1
 91
        4
 64
     7
 65
   257
 75
     1
175
     1
 42
1.0
 92
        0
 66
   257
 43
1.0
 76
     1
 77
     6
 78
     2
 67
     7
 79
     5
170
     0
171
     0
290
     0
174
     0
 93
       13
 44
0.0
173
     0
291
     1
 45
0.0
1001
ACAD
1000
AcDbSavedByObjectVersion
1070
     0
  0
VISUALSTYLE
  5
2D
102
{ACAD_REACTORS
330
2A
102
}
330
2A
100
AcDbVisualStyle
  2
Gouraud
 70
     2
 71
     2
 72
     2
 73
     1
 90
        2
 40
-0.6
 41
30.0
 62
     5
 63
     7
421
 16777215
 74
     0
 91
        4
 64
     7
 65
   257
 75
     1
175
     1
 42
1.0
 92
        0
 66
     7
 43
1.0
 76
     1
 77
     6
 78
     2
 67
     7
 79
     5
170
     0
171
     0
290
     0
174
     0
 93
       13
 44
0.0
173
     0
291
     1
 45
0.0
1001
ACAD
1000
AcDbSavedByObjectVersion
1070
     0
  0
VISUALSTYLE
  5
2E
102
{ACAD_REACTORS
330
2A
102
}
330
2A
100
AcDbVisualStyle
  2
GouraudWithEdges
 70
     3
 71
     2
 72
     2
 73
     1
 90
        2
 40
-0.6
 41
30.0
 62
     5
 63
     7
421
 16777215
 74
     1
 91
        4
 64
     7
 65
   257
 75
     1
175
     1
 42
1.0
 92
        0
 66
   257
 43
1.0
 76
     1
 77
     6
 78
     2
 67
     7
 79
     5
170
     0
171
     0
290
     0
174
     0
 93
       13
 44
0.0
173
     0
291
     1
 45
0.0
1001
ACAD
1000
AcDbSavedByObjectVersion
1070
     0
  0
VISUALSTYLE
  5
38
102
{ACAD_REACTORS
330
2A
102
}
330
2A
100
AcDbVisualStyle
  2
Linepattern
 70
    14
 71
     2
 72
     2
 73
     0
 90
        0
 40
-0.6
 41
-30.0
 62
     5
 63
     7
421
 16777215
 74
     1
 91
        4
 64
     7
 65
   257
 75
     7
175
     7
 42
1.0
 92
        8
 66
     7
 43
1.0
 76
     1
 77
     6
 78
     2
 67
     7
 79
     5
170
     0
171
     0
290
     0
174
     0
 93
        1
 44
0.0
173
     0
291
     1
 45
0.0
1001
ACAD
1000
AcDbSavedByObjectVersion
1070
     0
  0
VISUALSTYLE
  5
33
102
{ACAD_REACTORS
330
2A
102
}
330
2A
100
AcDbVisualStyle
  2
Realistic
 70
     8
 71
     2
 72
     2
 73
     0
 90
        0
 40
-0.6
 41
-30.0
 62
     5
 63
     7
421
 16777215
 74
     1
 91
        0
 64
     7
 65
   257
 75
     1
175
     1
 42
1.0
 92
        8
 66
     8
424
  7895160
 43
1.0
 76
     1
 77
     6
 78
     2
 67
     7
 79
     5
170
     0
171
     0
290
     0
174
     0
 93
       13
 44
0.0
173
     0
291
     0
 45
0.0
1001
ACAD
1000
AcDbSavedByObjectVersion
1070
     0
  0
VISUALSTYLE
  5
37
102
{ACAD_REACTORS
330
2A
102
}
330
2A
100
AcDbVisualStyle
  2
Thicken
 70
    13
 71
     2
 72
     2
 73
     0
 90
        0
 40
-0.6
 41
-30.0
 62
     5
 63
     7
421
 16777215
 74
     1
 91
        4
 64
     7
 65
   257
 75
     1
175
     1
 42
1.0
 92
       12
 66
     7
 43
1.0
 76
     1
 77
     6
 78
     2
 67
     7
 79
     5
170
     0
171
     0
290
     0
174
     0
 93
        1
 44
0.0
173
     0
291
     1
 45
0.0
1001
ACAD
1000
AcDbSavedByObjectVersion
1070
     0
  0
ENDSEC
  0
EOF
