  0
SECTION
  2
HEADER
  9
$ACADVER
  1
AC1018
  9
$ACADMAINTVER
 70
     0
  9
$DWGCODEPAGE
  3
ANSI_932
  9
$INSBASE
 10
0.0
 20
0.0
 30
0.0
  9
$EXTMIN
 10
-2100.0
 20
-1485.0
 30
0.0
  9
$EXTMAX
 10
2100.0
 20
1485.0
 30
0.0
  9
$LIMMIN
 10
-2100.0
 20
-1485.0
  9
$LIMMAX
 10
2100.0
 20
1485.0
  9
$ORTHOMODE
 70
     0
  9
$REGENMODE
 70
     1
  9
$FILLMODE
 70
     1
  9
$QTEXTMODE
 70
     0
  9
$MIRRTEXT
 70
     1
  9
$LTSCALE
 40
10.0
  9
$ATTMODE
 70
     1
  9
$TEXTSIZE
 40
2.5
  9
$TRACEWID
 40
1.0
  9
$TEXTSTYLE
  7
Standard
  9
$CLAYER
  8
0
  9
$CELTYPE
  6
ByLayer
  9
$CECOLOR
 62
   256
  9
$CELTSCALE
 40
1.0
  9
$DISPSILH
 70
     0
  9
$DIMSCALE
 40
1.0
  9
$DIMASZ
 40
2.5
  9
$DIMEXO
 40
0.625
  9
$DIMDLI
 40
3.75
  9
$DIMRND
 40
0.0
  9
$DIMDLE
 40
0.0
  9
$DIMEXE
 40
1.25
  9
$DIMTP
 40
0.0
  9
$DIMTM
 40
0.0
  9
$DIMTXT
 40
2.5
  9
$DIMCEN
 40
2.5
  9
$DIMTSZ
 40
0.0
  9
$DIMTOL
 70
     0
  9
$DIMLIM
 70
     0
  9
$DIMTIH
 70
     0
  9
$DIMTOH
 70
     0
  9
$DIMSE1
 70
     0
  9
$DIMSE2
 70
     0
  9
$DIMTAD
 70
     1
  9
$DIMZIN
 70
     8
  9
$DIMBLK
  1

  9
$DIMASO
 70
     1
  9
$DIMSHO
 70
     1
  9
$DIMPOST
  1

  9
$DIMAPOST
  1

  9
$DIMALT
 70
     0
  9
$DIMALTD
 70
     3
  9
$DIMALTF
 40
0.03937007874016
  9
$DIMLFAC
 40
1.0
  9
$DIMTOFL
 70
     1
  9
$DIMTVP
 40
0.0
  9
$DIMTIX
 70
     0
  9
$DIMSOXD
 70
     0
  9
$DIMSAH
 70
     0
  9
$DIMBLK1
  1

  9
$DIMBLK2
  1

  9
$DIMSTYLE
  2
ISO-25
  9
$DIMCLRD
 70
     0
  9
$DIMCLRE
 70
     0
  9
$DIMCLRT
 70
     0
  9
$DIMTFAC
 40
1.0
  9
$DIMGAP
 40
0.625
  9
$DIMJUST
 70
     0
  9
$DIMSD1
 70
     0
  9
$DIMSD2
 70
     0
  9
$DIMTOLJ
 70
     0
  9
$DIMTZIN
 70
     8
  9
$DIMALTZ
 70
     0
  9
$DIMALTTZ
 70
     0
  9
$DIMUPT
 70
     0
  9
$DIMDEC
 70
     2
  9
$DIMTDEC
 70
     2
  9
$DIMALTU
 70
     2
  9
$DIMALTTD
 70
     3
  9
$DIMTXSTY
  7
Standard
  9
$DIMAUNIT
 70
     0
  9
$DIMADEC
 70
     0
  9
$DIMALTRND
 40
0.0
  9
$DIMAZIN
 70
     0
  9
$DIMDSEP
 70
    44
  9
$DIMATFIT
 70
     3
  9
$DIMFRAC
 70
     0
  9
$DIMLDRBLK
  1

  9
$DIMLUNIT
 70
     2
  9
$DIMLWD
 70
    -2
  9
$DIMLWE
 70
    -2
  9
$DIMTMOVE
 70
     0
  9
$LUNITS
 70
     2
  9
$LUPREC
 70
     4
  9
$SKETCHINC
 40
1.0
  9
$FILLETRAD
 40
10.0
  9
$AUNITS
 70
     0
  9
$AUPREC
 70
     0
  9
$MENU
  1
.
  9
$ELEVATION
 40
0.0
  9
$PELEVATION
 40
0.0
  9
$THICKNESS
 40
0.0
  9
$LIMCHECK
 70
     0
  9
$CHAMFERA
 40
0.0
  9
$CHAMFERB
 40
0.0
  9
$CHAMFERC
 40
0.0
  9
$CHAMFERD
 40
0.0
  9
$SKPOLY
 70
     0
  9
$TDCREATE
 40
2458268.382664109
  9
$TDUCREATE
 40
2458268.007664109
  9
$TDUPDATE
 40
2458268.38266522
  9
$TDUUPDATE
 40
2458268.00766522
  9
$TDINDWG
 40
0.0000000116
  9
$TDUSRTIMER
 40
0.0000000116
  9
$USRTIMER
 70
     1
  9
$ANGBASE
 50
0.0
  9
$ANGDIR
 70
     0
  9
$PDMODE
 70
     0
  9
$PDSIZE
 40
0.0
  9
$PLINEWID
 40
0.0
  9
$SPLFRAME
 70
     0
  9
$SPLINETYPE
 70
     6
  9
$SPLINESEGS
 70
     8
  9
$HANDSEED
  5
3DD
  9
$SURFTAB1
 70
     6
  9
$SURFTAB2
 70
     6
  9
$SURFTYPE
 70
     6
  9
$SURFU
 70
     6
  9
$SURFV
 70
     6
  9
$UCSBASE
  2

  9
$UCSNAME
  2

  9
$UCSORG
 10
0.0
 20
0.0
 30
0.0
  9
$UCSXDIR
 10
1.0
 20
0.0
 30
0.0
  9
$UCSYDIR
 10
0.0
 20
1.0
 30
0.0
  9
$UCSORTHOREF
  2

  9
$UCSORTHOVIEW
 70
     0
  9
$UCSORGTOP
 10
0.0
 20
0.0
 30
0.0
  9
$UCSORGBOTTOM
 10
0.0
 20
0.0
 30
0.0
  9
$UCSORGLEFT
 10
0.0
 20
0.0
 30
0.0
  9
$UCSORGRIGHT
 10
0.0
 20
0.0
 30
0.0
  9
$UCSORGFRONT
 10
0.0
 20
0.0
 30
0.0
  9
$UCSORGBACK
 10
0.0
 20
0.0
 30
0.0
  9
$PUCSBASE
  2

  9
$PUCSNAME
  2

  9
$PUCSORG
 10
0.0
 20
0.0
 30
0.0
  9
$PUCSXDIR
 10
1.0
 20
0.0
 30
0.0
  9
$PUCSYDIR
 10
0.0
 20
1.0
 30
0.0
  9
$PUCSORTHOREF
  2

  9
$PUCSORTHOVIEW
 70
     0
  9
$PUCSORGTOP
 10
0.0
 20
0.0
 30
0.0
  9
$PUCSORGBOTTOM
 10
0.0
 20
0.0
 30
0.0
  9
$PUCSORGLEFT
 10
0.0
 20
0.0
 30
0.0
  9
$PUCSORGRIGHT
 10
0.0
 20
0.0
 30
0.0
  9
$PUCSORGFRONT
 10
0.0
 20
0.0
 30
0.0
  9
$PUCSORGBACK
 10
0.0
 20
0.0
 30
0.0
  9
$USERI1
 70
     0
  9
$USERI2
 70
     0
  9
$USERI3
 70
     0
  9
$USERI4
 70
     0
  9
$USERI5
 70
     0
  9
$USERR1
 40
0.0
  9
$USERR2
 40
0.0
  9
$USERR3
 40
0.0
  9
$USERR4
 40
0.0
  9
$USERR5
 40
0.0
  9
$WORLDVIEW
 70
     1
  9
$SHADEDGE
 70
     3
  9
$SHADEDIF
 70
    70
  9
$TILEMODE
 70
     1
  9
$MAXACTVP
 70
    64
  9
$PINSBASE
 10
0.0
 20
0.0
 30
0.0
  9
$PLIMCHECK
 70
     0
  9
$PEXTMIN
 10
1.000000000000000E+20
 20
1.000000000000000E+20
 30
1.000000000000000E+20
  9
$PEXTMAX
 10
-1.000000000000000E+20
 20
-1.000000000000000E+20
 30
-1.000000000000000E+20
  9
$PLIMMIN
 10
0.0
 20
0.0
  9
$PLIMMAX
 10
420.0
 20
297.0
  9
$UNITMODE
 70
     0
  9
$VISRETAIN
 70
     1
  9
$PLINEGEN
 70
     0
  9
$PSLTSCALE
 70
     1
  9
$TREEDEPTH
 70
  3020
  9
$CMLSTYLE
  2
Standard
  9
$CMLJUST
 70
     0
  9
$CMLSCALE
 40
20.0
  9
$PROXYGRAPHICS
 70
     1
  9
$MEASUREMENT
 70
     1
  9
$CELWEIGHT
370
    -1
  9
$ENDCAPS
280
     0
  9
$JOINSTYLE
280
     0
  9
$LWDISPLAY
290
     0
  9
$INSUNITS
 70
     4
  9
$HYPERLINKBASE
  1

  9
$STYLESHEET
  1

  9
$XEDIT
290
     1
  9
$CEPSNTYPE
380
     0
  9
$PSTYLEMODE
290
     1
  9
$FINGERPRINTGUID
  2
{FD598A1D-3207-4187-A287-04097DC7E0A3}
  9
$VERSIONGUID
  2
{FAEB1C32-E019-11D5-929B-00C0DF256EC4}
  9
$EXTNAMES
290
     1
  9
$PSVPSCALE
 40
0.0
  9
$OLESTARTUP
290
     0
  9
$SORTENTS
280
   127
  9
$INDEXCTL
280
     0
  9
$HIDETEXT
280
     1
  9
$XCLIPFRAME
290
     0
  9
$HALOGAP
280
     0
  9
$OBSCOLOR
 70
   257
  9
$OBSLTYPE
280
     0
  9
$INTERSECTIONDISPLAY
280
     0
  9
$INTERSECTIONCOLOR
 70
   257
  9
$DIMASSOC
280
     2
  9
$PROJECTNAME
  1

  0
ENDSEC
  0
SECTION
  2
CLASSES
  0
CLASS
  1
ACDBDICTIONARYWDFLT
  2
AcDbDictionaryWithDefault
  3
ObjectDBX Classes
 90
        0
 91
        4
280
     0
281
     0
  0
CLASS
  1
VISUALSTYLE
  2
AcDbVisualStyle
  3
ObjectDBX Classes
 90
     4095
 91
        4
280
     0
281
     0
  0
CLASS
  1
MATERIAL
  2
AcDbMaterial
  3
ObjectDBX Classes
 90
     1153
 91
        4
280
     0
281
     0
  0
CLASS
  1
SCALE
  2
AcDbScale
  3
ObjectDBX Classes
 90
     1153
 91
        4
280
     0
281
     0
  0
CLASS
  1
TABLESTYLE
  2
AcDbTableStyle
  3
ObjectDBX Classes
 90
     4095
 91
        4
280
     0
281
     0
  0
CLASS
  1
MLEADERSTYLE
  2
AcDbMLeaderStyle
  3
ACDB_MLEADERSTYLE_CLASS
 90
     4095
 91
        4
280
     0
281
     0
  0
CLASS
  1
SUN
  2
AcDbSun
  3
SCENEOE
 90
     1153
 91
        4
280
     0
281
     0
  0
CLASS
  1
DICTIONARYVAR
  2
AcDbDictionaryVar
  3
ObjectDBX Classes
 90
        0
 91
        4
280
     0
281
     0
  0
CLASS
  1
CELLSTYLEMAP
  2
AcDbCellStyleMap
  3
ObjectDBX Classes
 90
     1152
 91
        4
280
     0
281
     0
  0
ENDSEC
  0
SECTION
  2
TABLES
  0
TABLE
  2
VPORT
  5
8
102
{ACAD_XDICTIONARY
360
394
102
}
330
0
100
AcDbSymbolTable
 70
     1
  0
VPORT
  5
29
330
8
100
AcDbSymbolTableRecord
100
AcDbViewportTableRecord
  2
*Active
 70
     0
 10
0.0
 20
0.0
 11
1.0
 21
1.0
 12
0.0
 22
0.0
 13
0.0
 23
0.0
 14
10.0
 24
10.0
 15
10.0
 25
10.0
 16
0.0
 26
0.0
 36
1.0
 17
0.0
 27
0.0
 37
0.0
 40
3267.0
 41
1.414141414141414
 42
50.0
 43
0.0
 44
0.0
 50
0.0
 51
0.0
 71
     0
 72
 10000
 73
     1
 74
     3
 75
     0
 76
     0
 77
     0
 78
     0
281
     0
 65
     1
110
0.0
120
0.0
130
0.0
111
1.0
121
0.0
131
0.0
112
0.0
122
1.0
132
0.0
 79
     0
146
0.0
  0
ENDTAB
  0
TABLE
  2
LTYPE
  5
5
330
0
100
AcDbSymbolTable
 70
     5
  0
LTYPE
  5
14
330
5
100
AcDbSymbolTableRecord
100
AcDbLinetypeTableRecord
  2
ByBlock
 70
     0
  3

 72
    65
 73
     0
 40
0.0
  0
LTYPE
  5
15
330
5
100
AcDbSymbolTableRecord
100
AcDbLinetypeTableRecord
  2
ByLayer
 70
     0
  3

 72
    65
 73
     0
 40
0.0
  0
LTYPE
  5
16
330
5
100
AcDbSymbolTableRecord
100
AcDbLinetypeTableRecord
  2
Continuous
 70
     0
  3
Solid line
 72
    65
 73
     0
 40
0.0
  0
LTYPE
  5
6F
330
5
100
AcDbSymbolTableRecord
100
AcDbLinetypeTableRecord
  2
JWW_HOJO
 70
     0
  3
  -   -   -   -   -   -   -   - 
 72
    65
 73
     2
 40
1.693333333333333
 49
-1.27
 74
     0
 49
0.4233333333333333
 74
     0
  0
LTYPE
  5
70
330
5
100
AcDbSymbolTableRecord
100
AcDbLinetypeTableRecord
  2
JWW_CENTER1
 70
     0
  3
-----  --  ----------  --  -----
 72
    65
 73
     4
 40
6.773333333333333
 49
4.233333333333333
 74
     0
 49
-0.8466666666666667
 74
     0
 49
0.8466666666666667
 74
     0
 49
-0.8466666666666667
 74
     0
  0
LTYPE
  5
71
330
5
100
AcDbSymbolTableRecord
100
AcDbLinetypeTableRecord
  2
JWW_DASHED2
 70
     0
  3
--    ----    ----    ----    --
 72
    65
 73
     2
 40
3.386666666666667
 49
1.693333333333333
 74
     0
 49
-1.693333333333333
 74
     0
  0
LTYPE
  5
72
330
5
100
AcDbSymbolTableRecord
100
AcDbLinetypeTableRecord
  2
JWW_DASHED1
 70
     0
  3
-  --  --  --  --  --  --  --  -
 72
    65
 73
     2
 40
1.693333333333333
 49
0.8466666666666667
 74
     0
 49
-0.8466666666666667
 74
     0
  0
ENDTAB
  0
TABLE
  2
LAYER
  5
2
330
0
100
AcDbSymbolTable
 70
    15
  0
LAYER
  5
10
330
2
100
AcDbSymbolTableRecord
100
AcDbLayerTableRecord
  2
0
 70
     0
 62
     7
  6
Continuous
370
    -3
390
F
  0
LAYER
  5
73
330
2
100
AcDbSymbolTableRecord
100
AcDbLayerTableRecord
  2
D-3
 70
     0
 62
     7
  6
Continuous
370
    -3
390
F
  0
LAYER
  5
74
330
2
100
AcDbSymbolTableRecord
100
AcDbLayerTableRecord
  2
D-5
 70
     0
 62
     7
  6
Continuous
370
    -3
390
F
  0
LAYER
  5
75
330
2
100
AcDbSymbolTableRecord
100
AcDbLayerTableRecord
  2
D-6
 70
     0
 62
     7
  6
Continuous
370
    -3
390
F
  0
LAYER
  5
76
330
2
100
AcDbSymbolTableRecord
100
AcDbLayerTableRecord
  2
D-B
 70
     0
 62
     7
  6
Continuous
370
    -3
390
F
  0
LAYER
  5
77
330
2
100
AcDbSymbolTableRecord
100
AcDbLayerTableRecord
  2
D-9
 70
     0
 62
     7
  6
Continuous
370
    -3
390
F
  0
LAYER
  5
78
330
2
100
AcDbSymbolTableRecord
100
AcDbLayerTableRecord
  2
D-A
 70
     0
 62
     7
  6
Continuous
370
    -3
390
F
  0
LAYER
  5
79
330
2
100
AcDbSymbolTableRecord
100
AcDbLayerTableRecord
  2
D-4
 70
     0
 62
     7
  6
Continuous
370
    -3
390
F
  0
LAYER
  5
7A
330
2
100
AcDbSymbolTableRecord
100
AcDbLayerTableRecord
  2
F-5ﾚｲﾔ
 70
     0
 62
     7
  6
Continuous
370
    -3
390
F
  0
LAYER
  5
7B
330
2
100
AcDbSymbolTableRecord
100
AcDbLayerTableRecord
  2
D-F
 70
     0
 62
     7
  6
Continuous
370
    -3
390
F
  0
LAYER
  5
7C
330
2
100
AcDbSymbolTableRecord
100
AcDbLayerTableRecord
  2
D-2
 70
     0
 62
     7
  6
Continuous
370
    -3
390
F
  0
LAYER
  5
7D
330
2
100
AcDbSymbolTableRecord
100
AcDbLayerTableRecord
  2
D-0
 70
     0
 62
     7
  6
Continuous
370
    -3
390
F
  0
LAYER
  5
7E
330
2
100
AcDbSymbolTableRecord
100
AcDbLayerTableRecord
  2
D-D
 70
     0
 62
     7
  6
Continuous
370
    -3
390
F
  0
LAYER
  5
7F
330
2
100
AcDbSymbolTableRecord
100
AcDbLayerTableRecord
  2
D-E
 70
     0
 62
     7
  6
Continuous
370
    -3
390
F
  0
LAYER
  5
80
330
2
100
AcDbSymbolTableRecord
100
AcDbLayerTableRecord
  2
F-4ﾚｲﾔ
 70
     0
 62
     7
  6
Continuous
370
    -3
390
F
  0
ENDTAB
  0
TABLE
  2
STYLE
  5
3
330
0
100
AcDbSymbolTable
 70
     2
  0
STYLE
  5
11
330
3
100
AcDbSymbolTableRecord
100
AcDbTextStyleTableRecord
  2
Standard
 70
     0
 40
0.0
 41
1.0
 50
0.0
 71
     0
 42
2.5
  3
txt
  4

  0
STYLE
  5
6E
330
3
100
AcDbSymbolTableRecord
100
AcDbTextStyleTableRecord
  2
ＭＳ ゴシック
 70
     0
 40
1.0
 41
1.0
 50
0.0
 71
     0
 42
2.5
  3

  4

1001
ACAD
1000
MS Gothic
1071
    32817
  0
ENDTAB
  0
TABLE
  2
VIEW
  5
6
330
0
100
AcDbSymbolTable
 70
     0
  0
ENDTAB
  0
TABLE
  2
UCS
  5
7
330
0
100
AcDbSymbolTable
 70
     0
  0
ENDTAB
  0
TABLE
  2
APPID
  5
9
330
0
100
AcDbSymbolTable
 70
     2
  0
APPID
  5
12
330
9
100
AcDbSymbolTableRecord
100
AcDbRegAppTableRecord
  2
ACAD
 70
     0
  0
APPID
  5
3D3
330
9
100
AcDbSymbolTableRecord
100
AcDbRegAppTableRecord
  2
ACAD_MLEADERVER
 70
     0
  0
ENDTAB
  0
TABLE
  2
DIMSTYLE
  5
A
330
0
100
AcDbSymbolTable
 70
     1
100
AcDbDimStyleTable
  0
DIMSTYLE
105
27
330
A
100
AcDbSymbolTableRecord
100
AcDbDimStyleTableRecord
  2
ISO-25
 70
     0
 41
2.5
 42
0.625
 43
3.75
 44
1.25
 73
     0
 74
     0
 77
     1
 78
     8
140
2.5
141
2.5
143
0.03937007874016
147
0.625
171
     3
172
     1
178
     0
271
     2
272
     2
274
     3
278
    44
283
     0
284
     8
340
11
  0
ENDTAB
  0
TABLE
  2
BLOCK_RECORD
  5
1
330
0
100
AcDbSymbolTable
 70
     1
  0
BLOCK_RECORD
  5
1F
330
1
100
AcDbSymbolTableRecord
100
AcDbBlockTableRecord
  2
*Model_Space
340
22
  0
BLOCK_RECORD
  5
1B
330
1
100
AcDbSymbolTableRecord
100
AcDbBlockTableRecord
  2
*Paper_Space
340
1E
  0
BLOCK_RECORD
  5
23
330
1
100
AcDbSymbolTableRecord
100
AcDbBlockTableRecord
  2
*Paper_Space0
340
26
  0
ENDTAB
  0
ENDSEC
  0
SECTION
  2
BLOCKS
  0
BLOCK
  5
20
330
1F
100
AcDbEntity
  8
0
100
AcDbBlockBegin
  2
*Model_Space
 70
     0
 10
0.0
 20
0.0
 30
0.0
  3
*Model_Space
  1

  0
ENDBLK
  5
21
330
1F
100
AcDbEntity
  8
0
100
AcDbBlockEnd
  0
BLOCK
  5
1C
330
1B
100
AcDbEntity
 67
     1
  8
0
100
AcDbBlockBegin
  2
*Paper_Space
 70
     0
 10
0.0
 20
0.0
 30
0.0
  3
*Paper_Space
  1

  0
ENDBLK
  5
1D
330
1B
100
AcDbEntity
 67
     1
  8
0
100
AcDbBlockEnd
  0
BLOCK
  5
24
330
23
100
AcDbEntity
  8
0
100
AcDbBlockBegin
  2
*Paper_Space0
 70
     0
 10
0.0
 20
0.0
 30
0.0
  3
*Paper_Space0
  1

  0
ENDBLK
  5
25
330
23
100
AcDbEntity
  8
0
100
AcDbBlockEnd
  0
ENDSEC
  0
SECTION
  2
ENTITIES
  0
LINE
  5
81
330
1F
100
AcDbEntity
  8
D-3
  6
Continuous
 62
     4
370
     9
100
AcDbLine
 10
297.0508525247755
 20
479.3614348858247
 30
0.0
 11
298.185439258786
 21
348.7315603275144
 31
0.0
  0
LINE
  5
82
330
1F
100
AcDbEntity
  8
D-3
  6
Continuous
 62
     4
370
     9
100
AcDbLine
 10
297.0508525247755
 20
479.3493486054432
 30
0.0
 11
255.6582081927297
 21
479.3493486054432
 31
0.0
  0
LINE
  5
83
330
1F
100
AcDbEntity
  8
D-5
  6
Continuous
 62
     7
370
     9
100
AcDbLine
 10
1275.676806567947
 20
-591.7875580107624
 30
0.0
 11
800.1363277861496
 21
-591.7875580107624
 31
0.0
  0
TEXT
  5
84
330
1F
100
AcDbEntity
  8
D-5
  6
Continuous
 62
     2
370
     9
100
AcDbText
 10
837.906567177048
 20
-573.957986426712
 30
0.0
 40
30.48
  1
使用例　Ｓ＝１：２
 41
1.111111111111111
  7
ＭＳ ゴシック
100
AcDbText
  0
LINE
  5
85
330
1F
100
AcDbEntity
  8
D-5
  6
Continuous
 62
     7
370
     9
100
AcDbLine
 10
-590.9420035688025
 20
-752.9269524660572
 30
0.0
 11
-1066.4824823506
 21
-752.9269524660572
 31
0.0
  0
TEXT
  5
86
330
1F
100
AcDbEntity
  8
D-5
  6
Continuous
 62
     2
370
     9
100
AcDbText
 10
-1028.712242959701
 20
-735.0973808820067
 30
0.0
 40
30.48
  1
詳細図　Ｓ＝１：２
 41
1.111111111111111
  7
ＭＳ ゴシック
100
AcDbText
  0
CIRCLE
  5
87
330
1F
100
AcDbEntity
  8
D-6
  6
Continuous
 62
     4
370
     9
100
AcDbCircle
 10
-997.1592474112048
 20
-27.80811710525413
 30
0.0
 40
7.5
  0
CIRCLE
  5
88
330
1F
100
AcDbEntity
  8
D-6
  6
Continuous
 62
     4
370
     9
100
AcDbCircle
 10
-637.159148338619
 20
-387.8082408251657
 30
0.0
 40
7.5
  0
ARC
  5
89
330
1F
100
AcDbEntity
  8
D-6
  6
Continuous
 62
     4
370
     9
100
AcDbCircle
 10
-979.6594123710871
 20
-370.3080346253134
 30
0.0
 40
25.00000128874909
100
AcDbArc
 50
180.0
 51
270.0
  0
LINE
  5
8A
330
1F
100
AcDbEntity
  8
D-6
  6
JWW_HOJO
 62
     4
370
     9
100
AcDbLine
 10
-997.1592474112048
 20
-27.80811710525413
 30
0.0
 11
-997.1592474112048
 21
-2.941613641094065
 31
0.0
  0
LINE
  5
8B
330
1F
100
AcDbEntity
  8
D-6
  6
JWW_HOJO
 62
     4
370
     9
100
AcDbLine
 10
-637.159148338619
 20
-387.8082408251657
 30
0.0
 11
-614.7771907974316
 21
-387.8082408251657
 31
0.0
  0
LINE
  5
8C
330
1F
100
AcDbEntity
  8
D-B
  6
Continuous
 62
     7
370
     9
100
AcDbLine
 10
-951.6256371516095
 20
-120.7385322632865
 30
0.0
 11
-905.1255084829022
 21
-120.7385322632865
 31
0.0
  0
LINE
  5
8D
330
1F
100
AcDbEntity
  8
D-B
  6
Continuous
 62
     7
370
     9
100
AcDbLine
 10
-951.6256371516095
 20
-117.2387434119355
 30
0.0
 11
-905.1255084829022
 21
-117.2387434119355
 31
0.0
  0
LINE
  5
8E
330
1F
100
AcDbEntity
  8
D-B
  6
Continuous
 62
     7
370
     9
100
AcDbLine
 10
-951.6256371516095
 20
-95.73820234352297
 30
0.0
 11
-951.6256371516095
 21
-142.2385784520537
 31
0.0
  0
LINE
  5
8F
330
1F
100
AcDbEntity
  8
D-B
  6
Continuous
 62
     7
370
     9
100
AcDbLine
 10
-955.1254260029605
 20
-95.73820234352297
 30
0.0
 11
-955.1254260029605
 21
-142.2385784520537
 31
0.0
  0
LINE
  5
90
330
1F
100
AcDbEntity
  8
D-B
  6
Continuous
 62
     7
370
     9
100
AcDbLine
 10
-901.6254721917282
 20
-95.73820234352297
 30
0.0
 11
-901.6254721917282
 21
-142.2385784520537
 31
0.0
  0
LINE
  5
91
330
1F
100
AcDbEntity
  8
D-B
  6
Continuous
 62
     7
370
     9
100
AcDbLine
 10
-905.1255084829022
 20
-95.73820234352297
 30
0.0
 11
-905.1255084829022
 21
-142.2385784520537
 31
0.0
  0
LINE
  5
92
330
1F
100
AcDbEntity
  8
D-B
  6
Continuous
 62
     7
370
     9
100
AcDbLine
 10
-877.2326070365334
 20
-140.6386325588949
 30
0.0
 11
-932.0726949271584
 21
-189.7059493874423
 31
0.0
  0
LINE
  5
93
330
1F
100
AcDbEntity
  8
D-B
  6
Continuous
 62
     7
370
     9
100
AcDbLine
 10
-951.6256371516095
 20
-170.7386972231683
 30
0.0
 11
-910.8737830025386
 21
-170.7386972231683
 31
0.0
  0
LINE
  5
94
330
1F
100
AcDbEntity
  8
D-B
  6
Continuous
 62
     7
370
     9
100
AcDbLine
 10
-951.6256371516095
 20
-167.2389083718173
 30
0.0
 11
-906.9622542863219
 21
-167.2389083718173
 31
0.0
  0
LINE
  5
95
330
1F
100
AcDbEntity
  8
D-B
  6
Continuous
 62
     7
370
     9
100
AcDbLine
 10
-905.1255084829022
 20
-145.7383673034047
 30
0.0
 11
-905.1255084829022
 21
-165.5954130698746
 31
0.0
  0
LINE
  5
96
330
1F
100
AcDbEntity
  8
D-B
  6
Continuous
 62
     7
370
     9
100
AcDbLine
 10
-901.6254721917282
 20
-145.7383673034047
 30
0.0
 11
-901.6254721917282
 21
-162.4638146746042
 31
0.0
  0
LINE
  5
97
330
1F
100
AcDbEntity
  8
D-B
  6
Continuous
 62
     7
370
     9
100
AcDbLine
 10
-926.6253072318459
 20
-145.7383673034047
 30
0.0
 11
-882.9321359111116
 21
-145.7383673034047
 31
0.0
  0
LINE
  5
98
330
1F
100
AcDbEntity
  8
D-B
  6
Continuous
 62
     7
370
     9
100
AcDbLine
 10
-880.1256734427834
 20
-120.7385322632865
 30
0.0
 11
-880.1256734427834
 21
-143.2271005434808
 31
0.0
  0
LINE
  5
99
330
1F
100
AcDbEntity
  8
D-B
  6
Continuous
 62
     7
370
     9
100
AcDbLine
 10
-876.6253897117865
 20
-120.7385322632865
 30
0.0
 11
-876.6253897117865
 21
-140.0893161526449
 31
0.0
  0
LINE
  5
9A
330
1F
100
AcDbEntity
  8
D-B
  6
Continuous
 62
     7
370
     9
100
AcDbLine
 10
-930.1258384026657
 20
-120.7385322632865
 30
0.0
 11
-930.1258384026657
 21
-167.2389083718173
 31
0.0
  0
LINE
  5
9B
330
1F
100
AcDbEntity
  8
D-B
  6
Continuous
 62
     7
370
     9
100
AcDbLine
 10
-930.1258384026657
 20
-170.7386972231683
 30
0.0
 11
-930.1258384026657
 21
-187.9639730360907
 31
0.0
  0
LINE
  5
9C
330
1F
100
AcDbEntity
  8
D-B
  6
Continuous
 62
     7
370
     9
100
AcDbLine
 10
-926.6253072318459
 20
-120.7385322632865
 30
0.0
 11
-926.6253072318459
 21
-167.2389083718173
 31
0.0
  0
LINE
  5
9D
330
1F
100
AcDbEntity
  8
D-B
  6
Continuous
 62
     7
370
     9
100
AcDbLine
 10
-926.6253072318459
 20
-170.7386972231683
 30
0.0
 11
-926.6253072318459
 21
-184.832127200998
 31
0.0
  0
LINE
  5
9E
330
1F
100
AcDbEntity
  8
D-B
  6
Continuous
 62
     7
370
     9
100
AcDbLine
 10
-926.6253072318459
 20
-142.2385784520537
 30
0.0
 11
-880.1256734427834
 21
-142.2385784520537
 31
0.0
  0
LINE
  5
9F
330
1F
100
AcDbEntity
  8
D-B
  6
Continuous
 62
     7
370
     9
100
AcDbLine
 10
-955.1254260029605
 20
-145.7383673034047
 30
0.0
 11
-955.1254260029605
 21
-192.2387434119355
 31
0.0
  0
LINE
  5
A0
330
1F
100
AcDbEntity
  8
D-B
  6
Continuous
 62
     7
370
     9
100
AcDbLine
 10
-978.8071491079011
 20
-145.7383673034047
 30
0.0
 11
-930.1258384026657
 21
-145.7383673034047
 31
0.0
  0
LINE
  5
A1
330
1F
100
AcDbEntity
  8
D-B
  6
Continuous
 62
     7
370
     9
100
AcDbLine
 10
-978.8071491079011
 20
-142.2385784520537
 30
0.0
 11
-930.1258384026657
 21
-142.2385784520537
 31
0.0
  0
LINE
  5
A2
330
1F
100
AcDbEntity
  8
D-B
  6
Continuous
 62
     7
370
     9
100
AcDbLine
 10
-978.8071491079011
 20
-120.7385322632865
 30
0.0
 11
-978.8071491079011
 21
-167.2389083718173
 31
0.0
  0
LINE
  5
A3
330
1F
100
AcDbEntity
  8
D-B
  6
Continuous
 62
     7
370
     9
100
AcDbLine
 10
-982.3069379592521
 20
-170.7386972231683
 30
0.0
 11
-982.3069379592521
 21
-195.7738559617252
 31
0.0
  0
LINE
  5
A4
330
1F
100
AcDbEntity
  8
D-B
  6
Continuous
 62
     7
370
     9
100
AcDbLine
 10
-978.8071491079011
 20
-170.7386972231683
 30
0.0
 11
-978.8071491079011
 21
-195.351108638427
 31
0.0
  0
LINE
  5
A5
330
1F
100
AcDbEntity
  8
D-B
  6
Continuous
 62
     7
370
     9
100
AcDbLine
 10
-951.6256371516095
 20
-145.7383673034047
 30
0.0
 11
-951.6256371516095
 21
-192.0677930126067
 31
0.0
  0
LINE
  5
A6
330
1F
100
AcDbEntity
  8
D-B
  6
Continuous
 62
     7
370
     9
100
AcDbLine
 10
-932.0726949271584
 20
-189.7059493874423
 30
0.0
 11
-989.6592474112048
 21
-196.6619578652643
 31
0.0
  0
LINE
  5
A7
330
1F
100
AcDbEntity
  8
D-B
  6
Continuous
 62
     7
370
     9
100
AcDbLine
 10
-989.6592474112048
 20
-195.7385322632865
 30
0.0
 11
-982.0145044436002
 21
-195.7385322632865
 31
0.0
  0
LINE
  5
A8
330
1F
100
AcDbEntity
  8
D-B
  6
Continuous
 62
     7
370
     9
100
AcDbLine
 10
-989.6592474112048
 20
-170.7386972231683
 30
0.0
 11
-955.1254260029605
 21
-170.7386972231683
 31
0.0
  0
LINE
  5
A9
330
1F
100
AcDbEntity
  8
D-B
  6
Continuous
 62
     7
370
     9
100
AcDbLine
 10
-989.6592474112048
 20
-167.2389083718173
 30
0.0
 11
-955.1254260029605
 21
-167.2389083718173
 31
0.0
  0
LINE
  5
AA
330
1F
100
AcDbEntity
  8
D-B
  6
Continuous
 62
     7
370
     9
100
AcDbLine
 10
-989.6592474112048
 20
-145.7383673034047
 30
0.0
 11
-982.3069379592521
 21
-145.7383673034047
 31
0.0
  0
LINE
  5
AB
330
1F
100
AcDbEntity
  8
D-B
  6
Continuous
 62
     7
370
     9
100
AcDbLine
 10
-989.6592474112048
 20
-142.2385784520537
 30
0.0
 11
-982.3069379592521
 21
-142.2385784520537
 31
0.0
  0
LINE
  5
AC
330
1F
100
AcDbEntity
  8
D-B
  6
Continuous
 62
     7
370
     9
100
AcDbLine
 10
-989.6592474112048
 20
-120.7385322632865
 30
0.0
 11
-955.1254260029605
 21
-120.7385322632865
 31
0.0
  0
LINE
  5
AD
330
1F
100
AcDbEntity
  8
D-B
  6
Continuous
 62
     7
370
     9
100
AcDbLine
 10
-989.6592474112048
 20
-117.2387434119355
 30
0.0
 11
-955.1254260029605
 21
-117.2387434119355
 31
0.0
  0
LINE
  5
AE
330
1F
100
AcDbEntity
  8
D-B
  6
Continuous
 62
     7
370
     9
100
AcDbLine
 10
-989.6592474112048
 20
-70.73836730340474
 30
0.0
 11
-955.1254260029605
 21
-70.73836730340474
 31
0.0
  0
LINE
  5
AF
330
1F
100
AcDbEntity
  8
D-B
  6
Continuous
 62
     7
370
     9
100
AcDbLine
 10
-989.6592474112048
 20
-67.23857845205373
 30
0.0
 11
-955.1254260029605
 21
-67.23857845205373
 31
0.0
  0
LINE
  5
B0
330
1F
100
AcDbEntity
  8
D-B
  6
Continuous
 62
     7
370
     9
100
AcDbLine
 10
-982.3069379592521
 20
-120.7385322632865
 30
0.0
 11
-982.3069379592521
 21
-167.2389083718173
 31
0.0
  0
LINE
  5
B1
330
1F
100
AcDbEntity
  8
D-B
  6
Continuous
 62
     7
370
     9
100
AcDbLine
 10
-989.6592474112048
 20
-95.73820234352297
 30
0.0
 11
-982.3069379592521
 21
-95.73820234352297
 31
0.0
  0
LINE
  5
B2
330
1F
100
AcDbEntity
  8
D-B
  6
Continuous
 62
     7
370
     9
100
AcDbLine
 10
-978.8071491079011
 20
-95.73820234352297
 30
0.0
 11
-930.1258384026657
 21
-95.73820234352297
 31
0.0
  0
LINE
  5
B3
330
1F
100
AcDbEntity
  8
D-B
  6
Continuous
 62
     7
370
     9
100
AcDbLine
 10
-989.6592474112048
 20
-92.23841349217139
 30
0.0
 11
-982.3069379592521
 21
-92.23841349217139
 31
0.0
  0
LINE
  5
B4
330
1F
100
AcDbEntity
  8
D-B
  6
Continuous
 62
     7
370
     9
100
AcDbLine
 10
-978.8071491079011
 20
-92.23841349217139
 30
0.0
 11
-930.1258384026657
 21
-92.23841349217139
 31
0.0
  0
LINE
  5
B5
330
1F
100
AcDbEntity
  8
D-B
  6
Continuous
 62
     7
370
     9
100
AcDbLine
 10
-982.3069379592521
 20
-70.73836730340474
 30
0.0
 11
-982.3069379592521
 21
-117.2387434119355
 31
0.0
  0
LINE
  5
B6
330
1F
100
AcDbEntity
  8
D-B
  6
Continuous
 62
     7
370
     9
100
AcDbLine
 10
-978.8071491079011
 20
-117.2387434119355
 30
0.0
 11
-978.8071491079011
 21
-70.73836730340474
 31
0.0
  0
LINE
  5
B7
330
1F
100
AcDbEntity
  8
D-B
  6
Continuous
 62
     7
370
     9
100
AcDbLine
 10
-989.6592474112048
 20
-192.2387434119355
 30
0.0
 11
-982.3069379592521
 21
-192.2387434119355
 31
0.0
  0
LINE
  5
B8
330
1F
100
AcDbEntity
  8
D-B
  6
Continuous
 62
     7
370
     9
100
AcDbLine
 10
-978.8071491079011
 20
-192.2387434119355
 30
0.0
 11
-953.0408804156865
 21
-192.2387434119355
 31
0.0
  0
LINE
  5
B9
330
1F
100
AcDbEntity
  8
D-B
  6
Continuous
 62
     7
370
     9
100
AcDbLine
 10
-989.6592474112048
 20
-45.7380373836412
 30
0.0
 11
-982.3069379592521
 21
-45.7380373836412
 31
0.0
  0
LINE
  5
BA
330
1F
100
AcDbEntity
  8
D-B
  6
Continuous
 62
     7
370
     9
100
AcDbLine
 10
-978.8071491079011
 20
-67.23857845205373
 30
0.0
 11
-978.8071491079011
 21
-45.04742973831171
 31
0.0
  0
LINE
  5
BB
330
1F
100
AcDbEntity
  8
D-B
  6
Continuous
 62
     7
370
     9
100
AcDbLine
 10
-982.3069379592521
 20
-43.29015065533511
 30
0.0
 11
-982.3069379592521
 21
-67.23857845205373
 31
0.0
  0
LINE
  5
BC
330
1F
100
AcDbEntity
  8
D-B
  6
Continuous
 62
     7
370
     9
100
AcDbLine
 10
-955.1254260029605
 20
-57.56426045951883
 30
0.0
 11
-955.1254260029605
 21
-92.23841349217139
 31
0.0
  0
LINE
  5
BD
330
1F
100
AcDbEntity
  8
D-B
  6
Continuous
 62
     7
370
     9
100
AcDbLine
 10
-951.6256371516095
 20
-59.50890420252691
 30
0.0
 11
-951.6256371516095
 21
-92.23841349217139
 31
0.0
  0
LINE
  5
BE
330
1F
100
AcDbEntity
  8
D-B
  6
Continuous
 62
     7
370
     9
100
AcDbLine
 10
-951.6256371516095
 20
-67.23857845205373
 30
0.0
 11
-938.140042346822
 21
-67.23857845205373
 31
0.0
  0
LINE
  5
BF
330
1F
100
AcDbEntity
  8
D-B
  6
Continuous
 62
     7
370
     9
100
AcDbLine
 10
-951.6256371516095
 20
-70.73836730340474
 30
0.0
 11
-932.2442191759238
 21
-70.73836730340474
 31
0.0
  0
LINE
  5
C0
330
1F
100
AcDbEntity
  8
D-B
  6
Continuous
 62
     7
370
     9
100
AcDbLine
 10
-930.1258384026657
 20
-72.01409861972607
 30
0.0
 11
-930.1258384026657
 21
-117.2387434119355
 31
0.0
  0
LINE
  5
C1
330
1F
100
AcDbEntity
  8
D-B
  6
Continuous
 62
     7
370
     9
100
AcDbLine
 10
-926.6253072318459
 20
-74.14356625919169
 30
0.0
 11
-926.6253072318459
 21
-117.2387434119355
 31
0.0
  0
LINE
  5
C2
330
1F
100
AcDbEntity
  8
D-B
  6
Continuous
 62
     7
370
     9
100
AcDbLine
 10
-905.1255084829022
 20
-87.82265367314146
 30
0.0
 11
-905.1255084829022
 21
-92.23841349217139
 31
0.0
  0
LINE
  5
C3
330
1F
100
AcDbEntity
  8
D-B
  6
Continuous
 62
     7
370
     9
100
AcDbLine
 10
-901.6254721917282
 20
-90.15012964658986
 30
0.0
 11
-901.6254721917282
 21
-92.23841349217139
 31
0.0
  0
LINE
  5
C4
330
1F
100
AcDbEntity
  8
D-B
  6
Continuous
 62
     7
370
     9
100
AcDbLine
 10
-926.6253072318459
 20
-92.23841349217139
 30
0.0
 11
-898.5216409871531
 21
-92.23841349217139
 31
0.0
  0
LINE
  5
C5
330
1F
100
AcDbEntity
  8
D-B
  6
Continuous
 62
     7
370
     9
100
AcDbLine
 10
-926.6253072318459
 20
-95.73820234352297
 30
0.0
 11
-893.3951309770827
 21
-95.73820234352297
 31
0.0
  0
LINE
  5
C6
330
1F
100
AcDbEntity
  8
D-B
  6
Continuous
 62
     7
370
     9
100
AcDbLine
 10
-880.1256734427834
 20
-105.097248586522
 30
0.0
 11
-880.1256734427834
 21
-117.2387434119355
 31
0.0
  0
LINE
  5
C7
330
1F
100
AcDbEntity
  8
D-B
  6
Continuous
 62
     7
370
     9
100
AcDbLine
 10
-876.6253897117865
 20
-107.6400869552337
 30
0.0
 11
-876.6253897117865
 21
-117.2387434119355
 31
0.0
  0
LINE
  5
C8
330
1F
100
AcDbEntity
  8
D-B
  6
Continuous
 62
     7
370
     9
100
AcDbLine
 10
-901.6254721917282
 20
-117.2387434119355
 30
0.0
 11
-863.7901558833277
 21
-117.2387434119355
 31
0.0
  0
LINE
  5
C9
330
1F
100
AcDbEntity
  8
D-B
  6
Continuous
 62
     7
370
     9
100
AcDbLine
 10
-901.6254721917282
 20
-120.7385322632865
 30
0.0
 11
-859.2519095918708
 21
-120.7385322632865
 31
0.0
  0
LINE
  5
CA
330
1F
100
AcDbEntity
  8
D-B
  6
Continuous
 62
     7
370
     9
100
AcDbLine
 10
-857.0967328266402
 20
-122.4204332542612
 30
0.0
 11
-877.2326070365334
 21
-140.6386325588949
 31
0.0
  0
LINE
  5
CB
330
1F
100
AcDbEntity
  8
D-B
  6
Continuous
 62
     7
370
     9
100
AcDbLine
 10
-978.8071491079011
 20
-45.7380373836412
 30
0.0
 11
-977.4443473591809
 21
-45.7380373836412
 31
0.0
  0
LINE
  5
CC
330
1F
100
AcDbEntity
  8
D-9
  6
Continuous
 62
     7
370
     9
100
AcDbLine
 10
-773.3377159890306
 20
-230.1915718437085
 30
0.0
 11
-668.6867393811609
 21
-125.5392829880154
 31
0.0
  0
LINE
  5
CD
330
1F
100
AcDbEntity
  8
D-9
  6
Continuous
 62
     7
370
     9
100
AcDbLine
 10
-668.6867393811609
 20
-125.5392829880154
 30
0.0
 11
-665.8574018480356
 21
-125.5396766623626
 31
0.0
  0
LINE
  5
CE
330
1F
100
AcDbEntity
  8
D-9
  6
Continuous
 62
     7
370
     9
100
AcDbLine
 10
-665.8574018480356
 20
-125.5396766623626
 30
0.0
 11
-654.5445133581352
 21
-136.8525651522624
 31
0.0
  0
LINE
  5
CF
330
1F
100
AcDbEntity
  8
D-9
  6
Continuous
 62
     7
370
     9
100
AcDbLine
 10
-654.5445133581352
 20
-136.8525651522624
 30
0.0
 11
-654.5441196837884
 21
-139.6813777862584
 31
0.0
  0
LINE
  5
D0
330
1F
100
AcDbEntity
  8
D-9
  6
Continuous
 62
     7
370
     9
100
AcDbLine
 10
-668.6867393811609
 20
-125.5392829880154
 30
0.0
 11
-654.5445133581352
 21
-139.6809841119111
 31
0.0
  0
LINE
  5
D1
330
1F
100
AcDbEntity
  8
D-9
  6
JWW_CENTER1
 62
     7
370
     9
100
AcDbLine
 10
-772.6409123945358
 20
-243.6368630474571
 30
0.0
 11
-656.0890290468739
 21
-127.0836674519714
 31
0.0
  0
LINE
  5
D2
330
1F
100
AcDbEntity
  8
D-9
  6
Continuous
 62
     7
370
     9
100
AcDbLine
 10
-771.9236377339887
 20
-231.6056500987506
 30
0.0
 11
-665.8574018480356
 21
-125.5396766623626
 31
0.0
  0
LINE
  5
D3
330
1F
100
AcDbEntity
  8
D-9
  6
Continuous
 62
     7
370
     9
100
AcDbLine
 10
-760.6096994458294
 20
-242.9188010382151
 30
0.0
 11
-654.5441196837884
 21
-136.8519090283509
 31
0.0
  0
LINE
  5
D4
330
1F
100
AcDbEntity
  8
D-9
  6
Continuous
 62
     7
370
     9
100
AcDbLine
 10
-759.1958836403517
 20
-244.3339290915165
 30
0.0
 11
-654.5445133581352
 21
-139.6809841119111
 31
0.0
  0
LINE
  5
D5
330
1F
100
AcDbEntity
  8
D-A
  6
Continuous
 62
     2
370
     9
100
AcDbLine
 10
-740.2954424361001
 20
-150.8139007211579
 30
0.0
 11
-743.6435115340156
 21
-147.4658316232423
 31
0.0
  0
LINE
  5
D6
330
1F
100
AcDbEntity
  8
D-A
  6
Continuous
 62
     2
370
     9
100
AcDbLine
 10
-734.933466602834
 20
-169.3812888559617
 30
0.0
 11
-741.876044939995
 21
-191.6593201624266
 31
0.0
  0
LINE
  5
D7
330
1F
100
AcDbEntity
  8
D-A
  6
Continuous
 62
     2
370
     9
100
AcDbLine
 10
-748.3613049105246
 20
-195.7804344534055
 30
0.0
 11
-747.8862711982707
 21
-196.2562555143543
 31
0.0
  0
LINE
  5
D8
330
1F
100
AcDbEntity
  8
D-A
  6
Continuous
 62
     2
370
     9
100
AcDbLine
 10
-679.8168271774499
 20
-211.2919910806777
 30
0.0
 11
-676.4682331804044
 21
-214.6403226281582
 31
0.0
  0
LINE
  5
D9
330
1F
100
AcDbEntity
  8
D-A
  6
Continuous
 62
     2
370
     9
100
AcDbLine
 10
-698.3838216379069
 20
-205.9304089217598
 30
0.0
 11
-720.6622466187189
 21
-212.8731184837031
 31
0.0
  0
LINE
  5
DA
330
1F
100
AcDbEntity
  8
D-A
  6
Continuous
 62
     2
370
     9
100
AcDbLine
 10
-724.7833609096976
 20
-219.3586409037977
 30
0.0
 11
-725.2585258467342
 21
-218.883213517196
 31
0.0
  0
LINE
  5
DB
330
1F
100
AcDbEntity
  8
D-A
  6
Continuous
 62
     2
370
     9
100
AcDbLine
 10
-746.4725866175756
 20
-196.256124289572
 30
0.0
 11
-736.5722016853288
 21
-186.3565267060193
 31
0.0
  0
LINE
  5
DC
330
1F
100
AcDbEntity
  8
D-A
  6
Continuous
 62
     2
370
     9
100
AcDbLine
 10
-742.936341181712
 20
-199.7915823767414
 30
0.0
 11
-733.0363499238119
 21
-189.8923784675361
 31
0.0
  0
LINE
  5
DD
330
1F
100
AcDbEntity
  8
D-A
  6
Continuous
 62
     2
370
     9
100
AcDbLine
 10
-728.7946400578163
 20
-213.9330210510728
 30
0.0
 11
-718.8947800246983
 21
-204.034210816214
 31
0.0
  0
LINE
  5
DE
330
1F
100
AcDbEntity
  8
D-A
  6
Continuous
 62
     2
370
     9
100
AcDbLine
 10
-725.2597068697758
 20
-217.4682166886775
 30
0.0
 11
-715.359978061441
 21
-207.5690127794718
 31
0.0
  0
LINE
  5
DF
330
1F
100
AcDbEntity
  8
D-A
  6
Continuous
 62
     2
370
     9
100
AcDbLine
 10
-752.4115578190133
 20
-198.8016226183861
 30
0.0
 11
-747.1796257450966
 21
-204.0330297931727
 31
0.0
  0
LINE
  5
E0
330
1F
100
AcDbEntity
  8
D-A
  6
Continuous
 62
     2
370
     9
100
AcDbLine
 10
-733.0372684972888
 20
-218.175124591416
 30
0.0
 11
-727.8037617259843
 21
-223.4091562618509
 31
0.0
  0
LINE
  5
E1
330
1F
100
AcDbEntity
  8
D-A
  6
Continuous
 62
     2
370
     9
100
AcDbLine
 10
-715.3586658136173
 20
-207.5695376786017
 30
0.0
 11
-720.3100393027823
 21
-202.6181641894368
 31
0.0
  0
LINE
  5
E2
330
1F
100
AcDbEntity
  8
D-A
  6
Continuous
 62
     2
370
     9
100
AcDbLine
 10
-731.6233214670295
 20
-191.3054069243188
 30
0.0
 11
-736.5722016853288
 21
-186.3565267060193
 31
0.0
  0
ARC
  5
E3
330
1F
100
AcDbEntity
  8
D-A
  6
Continuous
 62
     2
370
     9
100
AcDbCircle
 10
-754.4374060095605
 20
-164.9556018450539
 30
0.0
 40
20.00000025774982
100
AcDbArc
 50
347.2168426513672
 51
45.00035095214843
  0
ARC
  5
E4
330
1F
100
AcDbEntity
  8
D-A
  6
Continuous
 62
     2
370
     9
100
AcDbCircle
 10
-747.1792320707492
 20
-195.5494788363983
 30
0.0
 40
6.000000439785622
100
AcDbArc
 50
225.0003509521484
 51
315.0003509521484
  0
ARC
  5
E5
330
1F
100
AcDbEntity
  8
D-A
  6
Continuous
 62
     2
370
     9
100
AcDbCircle
 10
-747.1792320707492
 20
-195.5494788363983
 30
0.0
 40
1.000000012887491
100
AcDbArc
 50
225.0003509521484
 51
315.0003509521484
  0
ARC
  5
E6
330
1F
100
AcDbEntity
  8
D-A
  6
Continuous
 62
     2
370
     9
100
AcDbCircle
 10
-715.9178146113838
 20
-178.6180700636587
 30
0.0
 40
36.70393969561603
100
AcDbArc
 50
131.6701507568359
 51
207.8788452148438
  0
ARC
  5
E7
330
1F
100
AcDbEntity
  8
D-A
  6
Continuous
 62
     2
370
     9
100
AcDbCircle
 10
-715.9178146113838
 20
-178.6180700636587
 30
0.0
 40
41.70394555942433
100
AcDbArc
 50
131.6701507568359
 51
208.9452667236328
  0
ARC
  5
E8
330
1F
100
AcDbEntity
  8
D-A
  6
Continuous
 62
     2
370
     9
100
AcDbCircle
 10
-693.9581346269982
 20
-225.4338234293562
 30
0.0
 40
20.00000025774982
100
AcDbArc
 50
45.00035095214844
 51
102.7838592529297
  0
ARC
  5
E9
330
1F
100
AcDbEntity
  8
D-A
  6
Continuous
 62
     2
370
     9
100
AcDbCircle
 10
-724.5518803935606
 20
-218.1765680640221
 30
0.0
 40
6.000000439785622
100
AcDbArc
 50
135.0003509521484
 51
225.0003509521484
  0
ARC
  5
EA
330
1F
100
AcDbEntity
  8
D-A
  6
Continuous
 62
     2
370
     9
100
AcDbCircle
 10
-724.5518803935606
 20
-218.1765680640221
 30
0.0
 40
1.000000012887491
100
AcDbArc
 50
135.0003509521484
 51
225.0003509521484
  0
ARC
  5
EB
330
1F
100
AcDbEntity
  8
D-A
  6
Continuous
 62
     2
370
     9
100
AcDbCircle
 10
-707.6212589695153
 20
-186.9138383568324
 30
0.0
 40
36.70393969561603
100
AcDbArc
 50
242.1218566894531
 51
318.3305511474609
  0
ARC
  5
EC
330
1F
100
AcDbEntity
  8
D-A
  6
Continuous
 62
     2
370
     9
100
AcDbCircle
 10
-707.6212589695153
 20
-186.9138383568324
 30
0.0
 40
41.70394555942433
100
AcDbArc
 50
241.0554351806641
 51
318.3305511474609
  0
LINE
  5
ED
330
1F
100
AcDbEntity
  8
D-9
  6
Continuous
 62
     7
370
     9
100
AcDbLine
 10
-783.9445854183241
 20
-219.585883433619
 30
0.0
 11
-748.5892171979337
 21
-254.9407267548793
 31
0.0
  0
LINE
  5
EE
330
1F
100
AcDbEntity
  8
D-9
  6
Continuous
 62
     7
370
     9
100
AcDbLine
 10
-819.2999536387144
 20
-254.9412516540091
 30
0.0
 11
-783.9445854183247
 21
-290.2960949752699
 31
0.0
  0
LINE
  5
EF
330
1F
100
AcDbEntity
  8
D-9
  6
Continuous
 62
     7
370
     9
100
AcDbLine
 10
-833.4420484369575
 20
-269.0833464522522
 30
0.0
 11
-798.0861553174377
 21
-304.4387146726427
 31
0.0
  0
LINE
  5
F0
330
1F
100
AcDbEntity
  8
D-9
  6
Continuous
 62
     7
370
     9
100
AcDbLine
 10
-833.8861131005671
 20
-269.527411115862
 30
0.0
 11
-798.530482430612
 21
-304.8830417858169
 31
0.0
  0
LINE
  5
F1
330
1F
100
AcDbEntity
  8
D-9
  6
Continuous
 62
     7
370
     9
100
AcDbLine
 10
-872.3323498453879
 20
-307.9746976589419
 30
0.0
 11
-836.9771128497802
 21
-343.3296722049847
 31
0.0
  0
LINE
  5
F2
330
1F
100
AcDbEntity
  8
D-9
  6
Continuous
 62
     7
370
     9
100
AcDbLine
 10
-783.9445854183241
 20
-219.585883433619
 30
0.0
 11
-872.3323498453879
 21
-307.9746976589419
 31
0.0
  0
LINE
  5
F3
330
1F
100
AcDbEntity
  8
D-9
  6
Continuous
 62
     7
370
     9
100
AcDbLine
 10
-748.5892171979337
 20
-254.9407267548793
 30
0.0
 11
-836.9771128497802
 21
-343.3296722049847
 31
0.0
  0
LINE
  5
F4
330
1F
100
AcDbEntity
  8
D-9
  6
JWW_DASHED2
 62
     7
370
     9
100
AcDbLine
 10
-785.7123144619088
 20
-221.3536124772037
 30
0.0
 11
-750.3570774663011
 21
-256.7085870232465
 31
0.0
  0
LINE
  5
F5
330
1F
100
AcDbEntity
  8
D-9
  6
JWW_DASHED2
 62
     7
370
     9
100
AcDbLine
 10
-817.5323558199124
 20
-253.1736538352069
 30
0.0
 11
-782.1767251499573
 21
-288.5282347069027
 31
0.0
  0
LINE
  5
F6
330
1F
100
AcDbEntity
  8
D-9
  6
JWW_DASHED2
 62
     7
370
     9
100
AcDbLine
 10
-870.5648832513679
 20
-306.2072310649218
 30
0.0
 11
-835.208465232718
 21
-341.562074386182
 31
0.0
  0
LINE
  5
F7
330
1F
100
AcDbEntity
  8
D-6
  6
Continuous
 62
     4
370
     9
100
AcDbLine
 10
-979.6594123710871
 20
-380.3082408251657
 30
0.0
 11
-644.659148338619
 21
-380.3082408251657
 31
0.0
  0
LINE
  5
F8
330
1F
100
AcDbEntity
  8
D-6
  6
Continuous
 62
     4
370
     9
100
AcDbLine
 10
-644.659148338619
 20
-380.3082408251657
 30
0.0
 11
-644.659148338619
 21
-395.3082408251657
 31
0.0
  0
LINE
  5
F9
330
1F
100
AcDbEntity
  8
D-6
  6
Continuous
 62
     4
370
     9
100
AcDbLine
 10
-979.6594123710871
 20
-395.3082408251657
 30
0.0
 11
-644.659148338619
 21
-395.3082408251657
 31
0.0
  0
ARC
  5
FA
330
1F
100
AcDbEntity
  8
D-6
  6
Continuous
 62
     4
370
     9
100
AcDbCircle
 10
-1310.366174308682
 20
-701.0151216316764
 30
0.0
 40
735.0
100
AcDbArc
 50
24.95001584403446
 51
25.07905008643044
  0
LINE
  5
FB
330
1F
100
AcDbEntity
  8
D-6
  6
Continuous
 62
     4
370
     9
100
AcDbLine
 10
-1004.659247411205
 20
-35.30811710525413
 30
0.0
 11
-1004.659247411205
 21
-370.3992070133869
 31
0.0
  0
LINE
  5
FC
330
1F
100
AcDbEntity
  8
D-6
  6
Continuous
 62
     4
370
     9
100
AcDbLine
 10
-989.6592474112048
 20
-35.30811710525413
 30
0.0
 11
-1004.659247411205
 21
-35.30811710525413
 31
0.0
  0
LINE
  5
FD
330
1F
100
AcDbEntity
  8
D-6
  6
Continuous
 62
     4
370
     9
100
AcDbLine
 10
-989.6592474112048
 20
-35.30811710525413
 30
0.0
 11
-989.6592474112048
 21
-370.3992070133869
 31
0.0
  0
ARC
  5
FE
330
1F
100
AcDbEntity
  8
D-6
  6
Continuous
 62
     4
370
     9
100
AcDbCircle
 10
-1310.366174308682
 20
-701.0151216316764
 30
0.0
 40
735.0
100
AcDbArc
 50
64.9209459698787
 51
65.0499802332229
  0
ARC
  5
FF
330
1F
100
AcDbEntity
  8
D-6
  6
Continuous
 62
     4
370
     9
100
AcDbCircle
 10
-979.6594123710871
 20
-370.3080346253134
 30
0.0
 40
10.00000128874909
100
AcDbArc
 50
180.0
 51
203.0414284011587
  0
ARC
  5
100
330
1F
100
AcDbEntity
  8
D-6
  6
Continuous
 62
     4
370
     9
100
AcDbCircle
 10
-979.6594123710871
 20
-370.3080346253134
 30
0.0
 40
10.00000128874909
100
AcDbArc
 50
248.3488782795092
 51
270.0
  0
ARC
  5
101
330
1F
100
AcDbEntity
  8
D-6
  6
Continuous
 62
     4
370
     9
100
AcDbCircle
 10
-1310.366174308682
 20
-701.0151216316764
 30
0.0
 40
750.0
100
AcDbArc
 50
24.95001584403447
 51
39.88903969233994
  0
ARC
  5
102
330
1F
100
AcDbEntity
  8
D-6
  6
Continuous
 62
     4
370
     9
100
AcDbCircle
 10
-1310.366174308682
 20
-701.0151216316764
 30
0.0
 40
750.0
100
AcDbArc
 50
41.42136930300784
 51
65.04998023322293
  0
ARC
  5
103
330
1F
100
AcDbEntity
  8
D-6
  6
Continuous
 62
     4
370
     9
100
AcDbCircle
 10
-1310.366174308682
 20
-701.0151216316764
 30
0.0
 40
735.0
100
AcDbArc
 50
25.87032928056323
 51
39.78443937122505
  0
ARC
  5
104
330
1F
100
AcDbEntity
  8
D-6
  6
Continuous
 62
     4
370
     9
100
AcDbCircle
 10
-1310.366174308682
 20
-701.0151216316764
 30
0.0
 40
735.0
100
AcDbArc
 50
41.34823060535576
 51
64.12966672631165
  0
LINE
  5
105
330
1F
100
AcDbEntity
  8
D-4
  6
Continuous
 62
     7
370
     9
100
AcDbLine
 10
-1004.659247411205
 20
80.12989937408868
 30
0.0
 11
-629.659148338619
 21
80.12989937408868
 31
0.0
  0
LWPOLYLINE
  5
106
330
1F
100
AcDbEntity
  8
D-4
  6
Continuous
 62
     7
370
     9
100
AcDbPolyline
 90
        4
 70
     1
 43
2.0
 10
-1003.659247411205
 20
80.12989937408868
 42
0.4142135623731
 10
-1004.659247411205
 20
81.12989937408868
 42
0.4142135623731
 10
-1005.659247411205
 20
80.12989937408868
 42
0.4142135623731
 10
-1004.659247411205
 20
79.12989937408868
 42
0.4142135623731
  0
LWPOLYLINE
  5
107
330
1F
100
AcDbEntity
  8
D-4
  6
Continuous
 62
     7
370
     9
100
AcDbPolyline
 90
        4
 70
     1
 43
2.0
 10
-628.659148338619
 20
80.12989937408868
 42
0.4142135623731
 10
-629.659148338619
 20
81.12989937408868
 42
0.4142135623731
 10
-630.659148338619
 20
80.12989937408868
 42
0.4142135623731
 10
-629.659148338619
 20
79.12989937408868
 42
0.4142135623731
  0
LINE
  5
108
330
1F
100
AcDbEntity
  8
D-4
  6
Continuous
 62
     7
370
     9
100
AcDbLine
 10
-1004.659247411205
 20
83.1298993740887
 30
0.0
 11
-1004.659247411205
 21
-15.30811710525413
 31
0.0
  0
LINE
  5
109
330
1F
100
AcDbEntity
  8
D-4
  6
Continuous
 62
     7
370
     9
100
AcDbLine
 10
-629.659148338619
 20
83.1298993740887
 30
0.0
 11
-629.659148338619
 21
-367.8082408251657
 31
0.0
  0
TEXT
  5
10A
330
1F
100
AcDbEntity
  8
D-4
  6
Continuous
 62
     2
370
   211
100
AcDbText
 10
-838.4091978749119
 20
91.7698993740887
 30
0.0
 40
30.48
  1
75
 41
1.0625
  7
ＭＳ ゴシック
100
AcDbText
  0
LINE
  5
10B
330
1F
100
AcDbEntity
  8
D-4
  6
Continuous
 62
     7
370
     9
100
AcDbLine
 10
-960.4385906757556
 20
-351.0872129299814
 30
0.0
 11
-997.3370828120345
 21
-387.9857050662604
 31
0.0
  0
LINE
  5
10C
330
1F
100
AcDbEntity
  8
D-4
  6
Continuous
 62
     7
370
     9
100
AcDbLine
 10
-997.3370828120345
 20
-387.9857050662604
 30
0.0
 11
-973.5364826032968
 21
-369.7228621959987
 31
0.0
  0
LINE
  5
10D
330
1F
100
AcDbEntity
  8
D-4
  6
Continuous
 62
     7
370
     9
100
AcDbLine
 10
-997.3370828120345
 20
-387.9857050662604
 30
0.0
 11
-979.0742399417728
 21
-364.1851048575232
 31
0.0
  0
TEXT
  5
10E
330
1F
100
AcDbEntity
  8
D-4
  6
Continuous
 62
     2
370
   211
100
AcDbText
 10
-941.9210253214126
 20
-354.3989009351278
 30
0.0
 40
30.48
  1
R5
 50
45.0
 41
1.062499999999998
  7
ＭＳ ゴシック
100
AcDbText
  0
TEXT
  5
10F
330
1F
100
AcDbEntity
  8
D-5
  6
Continuous
 62
     2
370
     9
100
AcDbText
 10
-1504.92756006628
 20
82.36396913806232
 30
0.0
 40
30.48
  1
(SUS304/電解研磨)
 41
1.11764705882353
  7
ＭＳ ゴシック
100
AcDbText
  0
TEXT
  5
110
330
1F
100
AcDbEntity
  8
D-5
  6
Continuous
 62
     2
370
     9
100
AcDbText
 10
-1598.097754069808
 20
139.3194795059883
 30
0.0
 40
30.48
  1
金網:Φ0.7×5メッシュ
 41
1.113095238095238
  7
ＭＳ ゴシック
100
AcDbText
  0
LINE
  5
111
330
1F
100
AcDbEntity
  8
D-5
  6
Continuous
 62
     7
370
     9
100
AcDbLine
 10
-1605.027722075284
 20
126.3668724948285
 30
0.0
 11
-1120.046078656839
 21
126.3668724948285
 31
0.0
  0
LINE
  5
112
330
1F
100
AcDbEntity
  8
D-5
  6
Continuous
 62
     7
370
     9
100
AcDbLine
 10
-955.0969386487411
 20
-159.3334186639887
 30
0.0
 11
-1120.046078656839
 21
126.3668724948285
 31
0.0
  0
LINE
  5
113
330
1F
100
AcDbEntity
  8
D-5
  6
Continuous
 62
     7
370
     9
100
AcDbLine
 10
-955.0969386487411
 20
-159.3334186639887
 30
0.0
 11
-970.3159743739592
 21
-139.4995851567078
 31
0.0
  0
LINE
  5
114
330
1F
100
AcDbEntity
  8
D-5
  6
Continuous
 62
     7
370
     9
100
AcDbLine
 10
-955.0969386487411
 20
-159.3334186639887
 30
0.0
 11
-964.6640244578684
 21
-136.2364303512064
 31
0.0
  0
LINE
  5
115
330
1F
100
AcDbEntity
  8
D-5
  6
Continuous
 62
     7
370
     9
100
AcDbLine
 10
-740.4146696107772
 20
-151.1118090741375
 30
0.0
 11
-725.1956338855585
 21
-131.2779755668568
 31
0.0
  0
LINE
  5
116
330
1F
100
AcDbEntity
  8
D-5
  6
Continuous
 62
     7
370
     9
100
AcDbLine
 10
-740.4146696107772
 20
-151.1118090741375
 30
0.0
 11
-730.8475838016499
 21
-128.0148207613554
 31
0.0
  0
LINE
  5
117
330
1F
100
AcDbEntity
  8
D-5
  6
Continuous
 62
     7
370
     9
100
AcDbLine
 10
-740.4146696107772
 20
-151.1118090741375
 30
0.0
 11
-562.4832107765518
 21
157.0745178915907
 31
0.0
  0
TEXT
  5
118
330
1F
100
AcDbEntity
  8
D-5
  6
Continuous
 62
     2
370
     9
100
AcDbText
 10
-558.2148895740635
 20
113.0716145348244
 30
0.0
 40
30.48
  1
(SUS304)
 41
1.109374999999994
  7
ＭＳ ゴシック
100
AcDbText
  0
LINE
  5
119
330
1F
100
AcDbEntity
  8
D-5
  6
Continuous
 62
     7
370
     9
100
AcDbLine
 10
-562.4832107765518
 20
157.0745178915907
 30
0.0
 11
-377.2249191983583
 21
157.0745178915907
 31
0.0
  0
TEXT
  5
11A
330
1F
100
AcDbEntity
  8
D-5
  6
Continuous
 62
     2
370
     9
100
AcDbText
 10
-558.2148895740635
 20
175.8582106547539
 30
0.0
 40
30.48
  1
蝶ナット
 41
1.093749999999998
  7
ＭＳ ゴシック
100
AcDbText
  0
LINE
  5
11B
330
1F
100
AcDbEntity
  8
D-5
  6
Continuous
 62
     7
370
     9
100
AcDbLine
 10
-824.1475558597448
 20
-330.1235753845916
 30
0.0
 11
-814.5804700506175
 21
-353.2205636973738
 31
0.0
  0
LINE
  5
11C
330
1F
100
AcDbEntity
  8
D-5
  6
Continuous
 62
     7
370
     9
100
AcDbLine
 10
-824.1475558597448
 20
-330.1235753845916
 30
0.0
 11
-808.9285201345267
 21
-349.9574088918724
 31
0.0
  0
LINE
  5
11D
330
1F
100
AcDbEntity
  8
D-5
  6
Continuous
 62
     7
370
     9
100
AcDbLine
 10
-824.1475558597448
 20
-330.1235753845916
 30
0.0
 11
-692.3265381530165
 21
-558.4442755580801
 31
0.0
  0
TEXT
  5
11E
330
1F
100
AcDbEntity
  8
D-5
  6
Continuous
 62
     2
370
     9
100
AcDbText
 10
-688.0582169505293
 20
-539.660582794917
 30
0.0
 40
30.48
  1
取付クリップ
 41
1.104166666666669
  7
ＭＳ ゴシック
100
AcDbText
  0
LINE
  5
11F
330
1F
100
AcDbEntity
  8
D-5
  6
Continuous
 62
     7
370
     9
100
AcDbLine
 10
-692.3265381530165
 20
-558.4442755580801
 30
0.0
 11
-419.738482324439
 21
-558.4442755580801
 31
0.0
  0
TEXT
  5
120
330
1F
100
AcDbEntity
  8
D-5
  6
Continuous
 62
     2
370
     9
100
AcDbText
 10
-688.0582169505293
 20
-602.4471789148464
 30
0.0
 40
30.48
  1
(SUS304CSP)
 41
1.113636363636366
  7
ＭＳ ゴシック
100
AcDbText
  0
LINE
  5
121
330
1F
100
AcDbEntity
  8
D-5
  6
Continuous
 62
     7
370
     9
100
AcDbLine
 10
-934.6498862360686
 20
-395.0075456730154
 30
0.0
 11
-949.8689219612867
 21
-414.8413791802963
 31
0.0
  0
LINE
  5
122
330
1F
100
AcDbEntity
  8
D-5
  6
Continuous
 62
     7
370
     9
100
AcDbLine
 10
-934.6498862360686
 20
-395.0075456730154
 30
0.0
 11
-944.2169720451959
 21
-418.1045339857975
 31
0.0
  0
LINE
  5
123
330
1F
100
AcDbEntity
  8
D-5
  6
Continuous
 62
     7
370
     9
100
AcDbLine
 10
-934.6498862360686
 20
-395.0075456730154
 30
0.0
 11
-1036.587929572737
 21
-571.5694159562827
 31
0.0
  0
TEXT
  5
124
330
1F
100
AcDbEntity
  8
D-5
  6
Continuous
 62
     2
370
     9
100
AcDbText
 10
-1406.575191967407
 20
-552.7857231931196
 30
0.0
 40
30.48
  1
補強棒:Φ3
 41
1.1125
  7
ＭＳ ゴシック
100
AcDbText
  0
LINE
  5
125
330
1F
100
AcDbEntity
  8
D-5
  6
Continuous
 62
     7
370
     9
100
AcDbLine
 10
-1420.874898700915
 20
-571.5694159562827
 30
0.0
 11
-1036.587929572737
 21
-571.5694159562827
 31
0.0
  0
TEXT
  5
126
330
1F
100
AcDbEntity
  8
D-5
  6
Continuous
 62
     2
370
     9
100
AcDbText
 10
-1416.606577498428
 20
-615.572319313049
 30
0.0
 40
30.48
  1
(SUS304/電解研磨)
 41
1.11764705882353
  7
ＭＳ ゴシック
100
AcDbText
  0
LINE
  5
127
330
1F
100
AcDbEntity
  8
D-4
  6
Continuous
 62
     7
370
     9
100
AcDbLine
 10
-1116.577883969592
 20
-395.3082408251657
 30
0.0
 11
-1116.577883969592
 21
-20.30811710525413
 31
0.0
  0
LWPOLYLINE
  5
128
330
1F
100
AcDbEntity
  8
D-4
  6
Continuous
 62
     7
370
     9
100
AcDbPolyline
 90
        4
 70
     1
 43
2.0
 10
-1115.577883969592
 20
-395.3082408251657
 42
0.4142135623731
 10
-1116.577883969592
 20
-394.3082408251657
 42
0.4142135623731
 10
-1117.577883969592
 20
-395.3082408251657
 42
0.4142135623731
 10
-1116.577883969592
 20
-396.3082408251657
 42
0.4142135623731
  0
LWPOLYLINE
  5
129
330
1F
100
AcDbEntity
  8
D-4
  6
Continuous
 62
     7
370
     9
100
AcDbPolyline
 90
        4
 70
     1
 43
2.0
 10
-1115.577883969592
 20
-20.30811710525413
 42
0.4142135623731
 10
-1116.577883969592
 20
-19.30811710525413
 42
0.4142135623731
 10
-1117.577883969592
 20
-20.30811710525413
 42
0.4142135623731
 10
-1116.577883969592
 20
-21.30811710525413
 42
0.4142135623731
  0
LINE
  5
12A
330
1F
100
AcDbEntity
  8
D-4
  6
Continuous
 62
     7
370
     9
100
AcDbLine
 10
-1119.577883969592
 20
-395.3082408251657
 30
0.0
 11
-999.6594123710871
 21
-395.3082408251657
 31
0.0
  0
LINE
  5
12B
330
1F
100
AcDbEntity
  8
D-4
  6
Continuous
 62
     7
370
     9
100
AcDbLine
 10
-1119.577883969592
 20
-20.30811710525413
 30
0.0
 11
-1017.159247411205
 21
-20.30811710525413
 31
0.0
  0
TEXT
  5
12C
330
1F
100
AcDbEntity
  8
D-4
  6
Continuous
 62
     2
370
   211
100
AcDbText
 10
-1128.217883969592
 20
-229.0581789652099
 30
0.0
 40
30.48
  1
75
 50
90.0
 41
1.0625
  7
ＭＳ ゴシック
100
AcDbText
  0
LINE
  5
12D
330
1F
100
AcDbEntity
  8
D-6
  6
JWW_CENTER1
 62
     4
370
     9
100
AcDbLine
 10
-608.5341232483414
 20
737.915853635779
 30
0.0
 11
-1030.115045048453
 21
737.915853635779
 31
0.0
  0
ARC
  5
12E
330
1F
100
AcDbEntity
  8
D-6
  6
Continuous
 62
     4
370
     9
100
AcDbCircle
 10
-659.659148338619
 20
1050.415931991723
 30
0.0
 40
15.0
100
AcDbArc
 50
0.0
 51
90.0
  0
LINE
  5
12F
330
1F
100
AcDbEntity
  8
D-6
  6
Continuous
 62
     4
370
     9
100
AcDbLine
 10
-644.659148338619
 20
425.4155896999685
 30
0.0
 11
-644.659148338619
 21
1050.415931991723
 31
0.0
  0
ARC
  5
130
330
1F
100
AcDbEntity
  8
D-6
  6
Continuous
 62
     4
370
     9
100
AcDbCircle
 10
-659.659148338619
 20
425.4155896999685
 30
0.0
 40
15.0
100
AcDbArc
 50
270.0
 51
0.0
  0
LINE
  5
131
330
1F
100
AcDbEntity
  8
D-6
  6
Continuous
 62
     4
370
     9
100
AcDbLine
 10
-974.6592720585305
 20
410.4155896999685
 30
0.0
 11
-659.659148338619
 21
410.4155896999685
 31
0.0
  0
ARC
  5
132
330
1F
100
AcDbEntity
  8
D-6
  6
Continuous
 62
     4
370
     9
100
AcDbCircle
 10
-974.6592720585305
 20
425.4155896999685
 30
0.0
 40
15.0
100
AcDbArc
 50
180.0
 51
270.0
  0
ARC
  5
133
330
1F
100
AcDbEntity
  8
D-6
  6
Continuous
 62
     4
370
     9
100
AcDbCircle
 10
-659.659148338619
 20
1050.415931991723
 30
0.0
 40
30.0
100
AcDbArc
 50
0.0
 51
90.0
  0
LINE
  5
134
330
1F
100
AcDbEntity
  8
D-6
  6
Continuous
 62
     4
370
     9
100
AcDbLine
 10
-629.659148338619
 20
425.4155896999685
 30
0.0
 11
-629.659148338619
 21
1050.415931991723
 31
0.0
  0
ARC
  5
135
330
1F
100
AcDbEntity
  8
D-6
  6
Continuous
 62
     4
370
     9
100
AcDbCircle
 10
-659.659148338619
 20
425.4155896999685
 30
0.0
 40
30.0
100
AcDbArc
 50
270.0
 51
0.0
  0
LINE
  5
136
330
1F
100
AcDbEntity
  8
D-6
  6
Continuous
 62
     4
370
     9
100
AcDbLine
 10
-1004.659272058531
 20
425.4155896999685
 30
0.0
 11
-1004.659272058531
 21
1050.415931991723
 31
0.0
  0
ARC
  5
137
330
1F
100
AcDbEntity
  8
D-6
  6
Continuous
 62
     4
370
     9
100
AcDbCircle
 10
-974.6592720585305
 20
425.4155896999685
 30
0.0
 40
30.0
100
AcDbArc
 50
180.0
 51
270.0
  0
ARC
  5
138
330
1F
100
AcDbEntity
  8
D-6
  6
Continuous
 62
     4
370
     9
100
AcDbCircle
 10
-997.1592720585305
 20
402.9155896999685
 30
0.0
 40
7.499999999999996
100
AcDbArc
 50
114.2951889453641
 51
335.7048110546351
  0
LINE
  5
139
330
1F
100
AcDbEntity
  8
D-6
  6
Continuous
 62
     4
370
     9
100
AcDbLine
 10
-997.1592720585305
 20
395.4155896999685
 30
0.0
 11
-659.659148338619
 21
395.4155896999685
 31
0.0
  0
ARC
  5
13A
330
1F
100
AcDbEntity
  8
D-6
  6
Continuous
 62
     4
370
     9
100
AcDbCircle
 10
-997.1592720585305
 20
1072.915931991723
 30
0.0
 40
7.499999999999996
100
AcDbArc
 50
24.29518894536437
 51
245.7048110546357
  0
LINE
  5
13B
330
1F
100
AcDbEntity
  8
D-B
  6
Continuous
 62
     7
370
     9
100
AcDbLine
 10
-959.1256617989352
 20
1058.379056660476
 30
0.0
 11
-912.6255331302274
 21
1058.379056660476
 31
0.0
  0
LINE
  5
13C
330
1F
100
AcDbEntity
  8
D-B
  6
Continuous
 62
     7
370
     9
100
AcDbLine
 10
-959.1256617989352
 20
1061.878845511827
 30
0.0
 11
-912.6255331302274
 21
1061.878845511827
 31
0.0
  0
LINE
  5
13D
330
1F
100
AcDbEntity
  8
D-B
  6
Continuous
 62
     7
370
     9
100
AcDbLine
 10
-959.1256617989352
 20
1008.378891700594
 30
0.0
 11
-912.6255331302274
 21
1008.378891700594
 31
0.0
  0
LINE
  5
13E
330
1F
100
AcDbEntity
  8
D-B
  6
Continuous
 62
     7
370
     9
100
AcDbLine
 10
-959.1256617989352
 20
1011.878680551945
 30
0.0
 11
-912.6255331302274
 21
1011.878680551945
 31
0.0
  0
LINE
  5
13F
330
1F
100
AcDbEntity
  8
D-B
  6
Continuous
 62
     7
370
     9
100
AcDbLine
 10
-959.1256617989352
 20
1033.379221620357
 30
0.0
 11
-959.1256617989352
 21
986.8788455118266
 31
0.0
  0
LINE
  5
140
330
1F
100
AcDbEntity
  8
D-B
  6
Continuous
 62
     7
370
     9
100
AcDbLine
 10
-962.6254506502862
 20
1033.379221620357
 30
0.0
 11
-962.6254506502862
 21
986.8788455118266
 31
0.0
  0
LINE
  5
141
330
1F
100
AcDbEntity
  8
D-B
  6
Continuous
 62
     7
370
     9
100
AcDbLine
 10
-937.6258630499909
 20
1058.379056660476
 30
0.0
 11
-937.6258630499909
 21
1011.878680551945
 31
0.0
  0
LINE
  5
142
330
1F
100
AcDbEntity
  8
D-B
  6
Continuous
 62
     7
370
     9
100
AcDbLine
 10
-934.1253318791711
 20
1058.379056660476
 30
0.0
 11
-934.1253318791711
 21
1011.878680551945
 31
0.0
  0
LINE
  5
143
330
1F
100
AcDbEntity
  8
D-B
  6
Continuous
 62
     7
370
     9
100
AcDbLine
 10
-909.1254968390534
 20
1033.379221620357
 30
0.0
 11
-909.1254968390534
 21
986.8788455118266
 31
0.0
  0
LINE
  5
144
330
1F
100
AcDbEntity
  8
D-B
  6
Continuous
 62
     7
370
     9
100
AcDbLine
 10
-912.6255331302274
 20
1033.379221620357
 30
0.0
 11
-912.6255331302274
 21
986.8788455118266
 31
0.0
  0
LINE
  5
145
330
1F
100
AcDbEntity
  8
D-B
  6
Continuous
 62
     7
370
     9
100
AcDbLine
 10
-934.1253318791711
 20
1033.379221620357
 30
0.0
 11
-887.6256980901086
 21
1033.379221620357
 31
0.0
  0
LINE
  5
146
330
1F
100
AcDbEntity
  8
D-B
  6
Continuous
 62
     7
370
     9
100
AcDbLine
 10
-934.1253318791711
 20
1036.879010471709
 30
0.0
 11
-887.6256980901086
 21
1036.879010471709
 31
0.0
  0
LINE
  5
147
330
1F
100
AcDbEntity
  8
D-B
  6
Continuous
 62
     7
370
     9
100
AcDbLine
 10
-884.1254143591117
 20
1058.379056660476
 30
0.0
 11
-884.1254143591117
 21
1011.878680551945
 31
0.0
  0
LINE
  5
148
330
1F
100
AcDbEntity
  8
D-B
  6
Continuous
 62
     7
370
     9
100
AcDbLine
 10
-887.6256980901086
 20
1058.379056660476
 30
0.0
 11
-887.6256980901086
 21
1011.878680551945
 31
0.0
  0
LINE
  5
149
330
1F
100
AcDbEntity
  8
D-B
  6
Continuous
 62
     7
370
     9
100
AcDbLine
 10
-909.1254968390534
 20
1058.379056660476
 30
0.0
 11
-862.625368170345
 21
1058.379056660476
 31
0.0
  0
LINE
  5
14A
330
1F
100
AcDbEntity
  8
D-B
  6
Continuous
 62
     7
370
     9
100
AcDbLine
 10
-909.1254968390534
 20
1061.878845511827
 30
0.0
 11
-862.625368170345
 21
1061.878845511827
 31
0.0
  0
LINE
  5
14B
330
1F
100
AcDbEntity
  8
D-B
  6
Continuous
 62
     7
370
     9
100
AcDbLine
 10
-824.1202676108013
 20
1043.318631855788
 30
0.0
 11
-884.7326316838586
 21
988.4787914049855
 31
0.0
  0
LINE
  5
14C
330
1F
100
AcDbEntity
  8
D-B
  6
Continuous
 62
     7
370
     9
100
AcDbLine
 10
-884.7326316838586
 20
988.4787914049855
 30
0.0
 11
-939.5727195744836
 21
939.4114745764381
 31
0.0
  0
LINE
  5
14D
330
1F
100
AcDbEntity
  8
D-B
  6
Continuous
 62
     7
370
     9
100
AcDbLine
 10
-959.1256617989352
 20
958.3787267407121
 30
0.0
 11
-918.3738076498638
 21
958.3787267407121
 31
0.0
  0
LINE
  5
14E
330
1F
100
AcDbEntity
  8
D-B
  6
Continuous
 62
     7
370
     9
100
AcDbLine
 10
-959.1256617989352
 20
961.8785155920631
 30
0.0
 11
-914.4622789336471
 21
961.8785155920631
 31
0.0
  0
LINE
  5
14F
330
1F
100
AcDbEntity
  8
D-B
  6
Continuous
 62
     7
370
     9
100
AcDbLine
 10
-912.6255331302274
 20
983.3790566604756
 30
0.0
 11
-912.6255331302274
 21
963.5220108940058
 31
0.0
  0
LINE
  5
150
330
1F
100
AcDbEntity
  8
D-B
  6
Continuous
 62
     7
370
     9
100
AcDbLine
 10
-909.1254968390534
 20
983.3790566604756
 30
0.0
 11
-909.1254968390534
 21
966.6536092892761
 31
0.0
  0
LINE
  5
151
330
1F
100
AcDbEntity
  8
D-B
  6
Continuous
 62
     7
370
     9
100
AcDbLine
 10
-934.1253318791711
 20
983.3790566604756
 30
0.0
 11
-890.4321605584367
 21
983.3790566604756
 31
0.0
  0
LINE
  5
152
330
1F
100
AcDbEntity
  8
D-B
  6
Continuous
 62
     7
370
     9
100
AcDbLine
 10
-887.6256980901086
 20
1008.378891700594
 30
0.0
 11
-887.6256980901086
 21
985.8903234203996
 31
0.0
  0
LINE
  5
153
330
1F
100
AcDbEntity
  8
D-B
  6
Continuous
 62
     7
370
     9
100
AcDbLine
 10
-884.1254143591117
 20
1008.378891700594
 30
0.0
 11
-884.1254143591117
 21
989.0281078112355
 31
0.0
  0
LINE
  5
154
330
1F
100
AcDbEntity
  8
D-B
  6
Continuous
 62
     7
370
     9
100
AcDbLine
 10
-909.1254968390534
 20
1008.378891700594
 30
0.0
 11
-862.737705849821
 21
1008.378891700594
 31
0.0
  0
LINE
  5
155
330
1F
100
AcDbEntity
  8
D-B
  6
Continuous
 62
     7
370
     9
100
AcDbLine
 10
-859.125579318994
 20
1058.379056660476
 30
0.0
 11
-813.7661482326336
 21
1058.379056660476
 31
0.0
  0
LINE
  5
156
330
1F
100
AcDbEntity
  8
D-B
  6
Continuous
 62
     7
370
     9
100
AcDbLine
 10
-937.6258630499909
 20
1008.378891700594
 30
0.0
 11
-937.6258630499909
 21
961.8785155920631
 31
0.0
  0
LINE
  5
157
330
1F
100
AcDbEntity
  8
D-B
  6
Continuous
 62
     7
370
     9
100
AcDbLine
 10
-937.6258630499909
 20
958.3787267407121
 30
0.0
 11
-937.6258630499909
 21
941.1534509277897
 31
0.0
  0
LINE
  5
158
330
1F
100
AcDbEntity
  8
D-B
  6
Continuous
 62
     7
370
     9
100
AcDbLine
 10
-934.1253318791711
 20
1008.378891700594
 30
0.0
 11
-934.1253318791711
 21
961.8785155920631
 31
0.0
  0
LINE
  5
159
330
1F
100
AcDbEntity
  8
D-B
  6
Continuous
 62
     7
370
     9
100
AcDbLine
 10
-934.1253318791711
 20
958.3787267407121
 30
0.0
 11
-934.1253318791711
 21
944.2852967628824
 31
0.0
  0
LINE
  5
15A
330
1F
100
AcDbEntity
  8
D-B
  6
Continuous
 62
     7
370
     9
100
AcDbLine
 10
-934.1253318791711
 20
986.8788455118266
 30
0.0
 11
-887.6256980901086
 21
986.8788455118266
 31
0.0
  0
LINE
  5
15B
330
1F
100
AcDbEntity
  8
D-B
  6
Continuous
 62
     7
370
     9
100
AcDbLine
 10
-862.625368170345
 20
1033.379221620357
 30
0.0
 11
-862.625368170345
 21
1008.378891700594
 31
0.0
  0
LINE
  5
15C
330
1F
100
AcDbEntity
  8
D-B
  6
Continuous
 62
     7
370
     9
100
AcDbLine
 10
-909.1254968390534
 20
1011.878680551945
 30
0.0
 11
-862.625368170345
 21
1011.878680551945
 31
0.0
  0
LINE
  5
15D
330
1F
100
AcDbEntity
  8
D-B
  6
Continuous
 62
     7
370
     9
100
AcDbLine
 10
-884.1254143591117
 20
1036.879010471709
 30
0.0
 11
-837.6252856904044
 21
1036.879010471709
 31
0.0
  0
LINE
  5
15E
330
1F
100
AcDbEntity
  8
D-B
  6
Continuous
 62
     7
370
     9
100
AcDbLine
 10
-834.1252493992305
 20
1036.879010471709
 30
0.0
 11
-831.2376266690784
 21
1036.879010471709
 31
0.0
  0
LINE
  5
15F
330
1F
100
AcDbEntity
  8
D-B
  6
Continuous
 62
     7
370
     9
100
AcDbLine
 10
-884.1254143591117
 20
1033.379221620357
 30
0.0
 11
-837.6252856904044
 21
1033.379221620357
 31
0.0
  0
LINE
  5
160
330
1F
100
AcDbEntity
  8
D-B
  6
Continuous
 62
     7
370
     9
100
AcDbLine
 10
-837.6252856904044
 20
1058.379056660476
 30
0.0
 11
-837.6252856904044
 21
1031.099805974242
 31
0.0
  0
LINE
  5
161
330
1F
100
AcDbEntity
  8
D-B
  6
Continuous
 62
     7
370
     9
100
AcDbLine
 10
-834.1252493992305
 20
1058.379056660476
 30
0.0
 11
-834.1252493992305
 21
1034.266540824327
 31
0.0
  0
LINE
  5
162
330
1F
100
AcDbEntity
  8
D-B
  6
Continuous
 62
     7
370
     9
100
AcDbLine
 10
-962.6254506502862
 20
983.3790566604756
 30
0.0
 11
-962.6254506502862
 21
936.8786805519449
 31
0.0
  0
LINE
  5
163
330
1F
100
AcDbEntity
  8
D-B
  6
Continuous
 62
     7
370
     9
100
AcDbLine
 10
-794.9749495021648
 20
1085.711630628487
 30
0.0
 11
-824.1202676108013
 21
1043.318631855788
 31
0.0
  0
LINE
  5
164
330
1F
100
AcDbEntity
  8
D-B
  6
Continuous
 62
     7
370
     9
100
AcDbLine
 10
-986.3071737552268
 20
983.3790566604756
 30
0.0
 11
-937.6258630499909
 21
983.3790566604756
 31
0.0
  0
LINE
  5
165
330
1F
100
AcDbEntity
  8
D-B
  6
Continuous
 62
     7
370
     9
100
AcDbLine
 10
-986.3071737552268
 20
986.8788455118266
 30
0.0
 11
-937.6258630499909
 21
986.8788455118266
 31
0.0
  0
LINE
  5
166
330
1F
100
AcDbEntity
  8
D-B
  6
Continuous
 62
     7
370
     9
100
AcDbLine
 10
-986.3071737552268
 20
1008.378891700594
 30
0.0
 11
-986.3071737552268
 21
961.8785155920631
 31
0.0
  0
LINE
  5
167
330
1F
100
AcDbEntity
  8
D-B
  6
Continuous
 62
     7
370
     9
100
AcDbLine
 10
-859.125579318994
 20
1033.379221620357
 30
0.0
 11
-859.125579318994
 21
1011.647111723459
 31
0.0
  0
LINE
  5
168
330
1F
100
AcDbEntity
  8
D-B
  6
Continuous
 62
     7
370
     9
100
AcDbLine
 10
-989.8069626065778
 20
958.3787267407121
 30
0.0
 11
-989.8069626065778
 21
933.3435680021552
 31
0.0
  0
LINE
  5
169
330
1F
100
AcDbEntity
  8
D-B
  6
Continuous
 62
     7
370
     9
100
AcDbLine
 10
-986.3071737552268
 20
958.3787267407121
 30
0.0
 11
-986.3071737552268
 21
933.7663153254533
 31
0.0
  0
LINE
  5
16A
330
1F
100
AcDbEntity
  8
D-B
  6
Continuous
 62
     7
370
     9
100
AcDbLine
 10
-959.1256617989352
 20
983.3790566604756
 30
0.0
 11
-959.1256617989352
 21
937.0496309512737
 31
0.0
  0
LINE
  5
16B
330
1F
100
AcDbEntity
  8
D-B
  6
Continuous
 62
     7
370
     9
100
AcDbLine
 10
-997.1592720585305
 20
933.3788917005938
 30
0.0
 11
-989.514529090926
 21
933.3788917005938
 31
0.0
  0
LINE
  5
16C
330
1F
100
AcDbEntity
  8
D-B
  6
Continuous
 62
     7
370
     9
100
AcDbLine
 10
-997.1592720585305
 20
958.3787267407121
 30
0.0
 11
-962.6254506502862
 21
958.3787267407121
 31
0.0
  0
LINE
  5
16D
330
1F
100
AcDbEntity
  8
D-B
  6
Continuous
 62
     7
370
     9
100
AcDbLine
 10
-997.1592720585305
 20
961.8785155920631
 30
0.0
 11
-962.6254506502862
 21
961.8785155920631
 31
0.0
  0
LINE
  5
16E
330
1F
100
AcDbEntity
  8
D-B
  6
Continuous
 62
     7
370
     9
100
AcDbLine
 10
-997.1592720585305
 20
983.3790566604756
 30
0.0
 11
-989.8069626065778
 21
983.3790566604756
 31
0.0
  0
LINE
  5
16F
330
1F
100
AcDbEntity
  8
D-B
  6
Continuous
 62
     7
370
     9
100
AcDbLine
 10
-997.1592720585305
 20
986.8788455118266
 30
0.0
 11
-989.8069626065778
 21
986.8788455118266
 31
0.0
  0
LINE
  5
170
330
1F
100
AcDbEntity
  8
D-B
  6
Continuous
 62
     7
370
     9
100
AcDbLine
 10
-997.1592720585305
 20
1008.378891700594
 30
0.0
 11
-962.6254506502862
 21
1008.378891700594
 31
0.0
  0
LINE
  5
171
330
1F
100
AcDbEntity
  8
D-B
  6
Continuous
 62
     7
370
     9
100
AcDbLine
 10
-997.1592720585305
 20
1011.878680551945
 30
0.0
 11
-962.6254506502862
 21
1011.878680551945
 31
0.0
  0
LINE
  5
172
330
1F
100
AcDbEntity
  8
D-B
  6
Continuous
 62
     7
370
     9
100
AcDbLine
 10
-997.1592720585305
 20
1058.379056660476
 30
0.0
 11
-962.6254506502862
 21
1058.379056660476
 31
0.0
  0
LINE
  5
173
330
1F
100
AcDbEntity
  8
D-B
  6
Continuous
 62
     7
370
     9
100
AcDbLine
 10
-997.1592720585305
 20
1061.878845511827
 30
0.0
 11
-962.6254506502862
 21
1061.878845511827
 31
0.0
  0
LINE
  5
174
330
1F
100
AcDbEntity
  8
D-B
  6
Continuous
 62
     7
370
     9
100
AcDbLine
 10
-989.8069626065778
 20
1008.378891700594
 30
0.0
 11
-989.8069626065778
 21
961.8785155920631
 31
0.0
  0
LINE
  5
175
330
1F
100
AcDbEntity
  8
D-B
  6
Continuous
 62
     7
370
     9
100
AcDbLine
 10
-997.1592720585305
 20
1033.379221620357
 30
0.0
 11
-989.8069626065778
 21
1033.379221620357
 31
0.0
  0
LINE
  5
176
330
1F
100
AcDbEntity
  8
D-B
  6
Continuous
 62
     7
370
     9
100
AcDbLine
 10
-986.3071737552268
 20
1033.379221620357
 30
0.0
 11
-937.6258630499909
 21
1033.379221620357
 31
0.0
  0
LINE
  5
177
330
1F
100
AcDbEntity
  8
D-B
  6
Continuous
 62
     7
370
     9
100
AcDbLine
 10
-997.1592720585305
 20
1036.879010471709
 30
0.0
 11
-989.8069626065778
 21
1036.879010471709
 31
0.0
  0
LINE
  5
178
330
1F
100
AcDbEntity
  8
D-B
  6
Continuous
 62
     7
370
     9
100
AcDbLine
 10
-986.3071737552268
 20
1036.879010471709
 30
0.0
 11
-937.6258630499909
 21
1036.879010471709
 31
0.0
  0
LINE
  5
179
330
1F
100
AcDbEntity
  8
D-B
  6
Continuous
 62
     7
370
     9
100
AcDbLine
 10
-989.8069626065778
 20
1058.379056660476
 30
0.0
 11
-989.8069626065778
 21
1011.878680551945
 31
0.0
  0
LINE
  5
17A
330
1F
100
AcDbEntity
  8
D-B
  6
Continuous
 62
     7
370
     9
100
AcDbLine
 10
-986.3071737552268
 20
1011.878680551945
 30
0.0
 11
-986.3071737552268
 21
1058.379056660476
 31
0.0
  0
LINE
  5
17B
330
1F
100
AcDbEntity
  8
D-B
  6
Continuous
 62
     7
370
     9
100
AcDbLine
 10
-997.1592720585305
 20
936.8786805519449
 30
0.0
 11
-989.8069626065778
 21
936.8786805519449
 31
0.0
  0
LINE
  5
17C
330
1F
100
AcDbEntity
  8
D-B
  6
Continuous
 62
     7
370
     9
100
AcDbLine
 10
-986.3071737552268
 20
936.8786805519449
 30
0.0
 11
-960.5409050630122
 21
936.8786805519449
 31
0.0
  0
LINE
  5
17D
330
1F
100
AcDbEntity
  8
D-B
  6
Continuous
 62
     7
370
     9
100
AcDbLine
 10
-859.125579318994
 20
1061.878845511827
 30
0.0
 11
-812.6254506502856
 21
1061.878845511827
 31
0.0
  0
LINE
  5
17E
330
1F
100
AcDbEntity
  8
D-B
  6
Continuous
 62
     7
370
     9
100
AcDbLine
 10
-811.3600631706787
 20
1061.878845511827
 30
0.0
 11
-811.3600433973305
 21
1061.878845511827
 31
0.0
  0
LINE
  5
17F
330
1F
100
AcDbEntity
  8
D-B
  6
Continuous
 62
     7
370
     9
100
AcDbLine
 10
-997.1592720585305
 20
1008.378891700594
 30
0.0
 11
-997.1592720585305
 21
1011.878680551945
 31
0.0
  0
LINE
  5
180
330
1F
100
AcDbEntity
  8
D-B
  6
Continuous
 62
     7
370
     9
100
AcDbLine
 10
-997.1592720585305
 20
983.3790566604756
 30
0.0
 11
-997.1592720585305
 21
986.8788455118266
 31
0.0
  0
LINE
  5
181
330
1F
100
AcDbEntity
  8
D-B
  6
Continuous
 62
     7
370
     9
100
AcDbLine
 10
-997.1592720585305
 20
933.3788917005938
 30
0.0
 11
-997.1592720585305
 21
936.8786805519449
 31
0.0
  0
LINE
  5
182
330
1F
100
AcDbEntity
  8
D-B
  6
Continuous
 62
     7
370
     9
100
AcDbLine
 10
-997.1592720585305
 20
958.3787267407121
 30
0.0
 11
-997.1592720585305
 21
961.8785155920631
 31
0.0
  0
LINE
  5
183
330
1F
100
AcDbEntity
  8
D-B
  6
Continuous
 62
     7
370
     9
100
AcDbLine
 10
-997.1592720585305
 20
1033.379221620357
 30
0.0
 11
-997.1592720585305
 21
1036.879010471709
 31
0.0
  0
LINE
  5
184
330
1F
100
AcDbEntity
  8
D-B
  6
Continuous
 62
     7
370
     9
100
AcDbLine
 10
-997.1592720585305
 20
1058.379056660476
 30
0.0
 11
-997.1592720585305
 21
1061.878845511827
 31
0.0
  0
LINE
  5
185
330
1F
100
AcDbEntity
  8
D-B
  6
Continuous
 62
     7
370
     9
100
AcDbLine
 10
-986.3071737552268
 20
1061.878845511827
 30
0.0
 11
-986.3071737552268
 21
1082.193116098984
 31
0.0
  0
LINE
  5
186
330
1F
100
AcDbEntity
  8
D-B
  6
Continuous
 62
     7
370
     9
100
AcDbLine
 10
-989.8069626065778
 20
1082.165931991723
 30
0.0
 11
-989.8069626065778
 21
1061.878845511827
 31
0.0
  0
LINE
  5
187
330
1F
100
AcDbEntity
  8
D-B
  6
Continuous
 62
     7
370
     9
100
AcDbLine
 10
-959.1256617989352
 20
1082.165931991723
 30
0.0
 11
-959.1256617989352
 21
1036.879010471709
 31
0.0
  0
LINE
  5
188
330
1F
100
AcDbEntity
  8
D-B
  6
Continuous
 62
     7
370
     9
100
AcDbLine
 10
-962.6254506502862
 20
1082.193116098984
 30
0.0
 11
-962.6254506502862
 21
1036.879010471709
 31
0.0
  0
LINE
  5
189
330
1F
100
AcDbEntity
  8
D-B
  6
Continuous
 62
     7
370
     9
100
AcDbLine
 10
-909.1254968390534
 20
1082.16595013731
 30
0.0
 11
-909.1254968390534
 21
1036.879010471709
 31
0.0
  0
LINE
  5
18A
330
1F
100
AcDbEntity
  8
D-B
  6
Continuous
 62
     7
370
     9
100
AcDbLine
 10
-912.6255331302274
 20
1082.16595013731
 30
0.0
 11
-912.6255331302274
 21
1036.879010471709
 31
0.0
  0
LINE
  5
18B
330
1F
100
AcDbEntity
  8
D-B
  6
Continuous
 62
     7
370
     9
100
AcDbLine
 10
-887.6256980901086
 20
1082.145980750509
 30
0.0
 11
-887.6256980901086
 21
1061.878845511827
 31
0.0
  0
LINE
  5
18C
330
1F
100
AcDbEntity
  8
D-B
  6
Continuous
 62
     7
370
     9
100
AcDbLine
 10
-884.1254143591117
 20
1082.118313693819
 30
0.0
 11
-884.1254143591117
 21
1061.878845511827
 31
0.0
  0
LINE
  5
18D
330
1F
100
AcDbEntity
  8
D-B
  6
Continuous
 62
     7
370
     9
100
AcDbLine
 10
-862.625368170345
 20
1082.193116098984
 30
0.0
 11
-862.625368170345
 21
1036.879010471709
 31
0.0
  0
LINE
  5
18E
330
1F
100
AcDbEntity
  8
D-B
  6
Continuous
 62
     7
370
     9
100
AcDbLine
 10
-859.125579318994
 20
1082.165931991723
 30
0.0
 11
-859.125579318994
 21
1036.879010471709
 31
0.0
  0
LINE
  5
18F
330
1F
100
AcDbEntity
  8
D-B
  6
Continuous
 62
     7
370
     9
100
AcDbLine
 10
-837.6252856904044
 20
1082.165931991723
 30
0.0
 11
-837.6252856904044
 21
1061.878845511827
 31
0.0
  0
LINE
  5
190
330
1F
100
AcDbEntity
  8
D-B
  6
Continuous
 62
     7
370
     9
100
AcDbLine
 10
-834.1252493992305
 20
1082.145980750509
 30
0.0
 11
-834.1252493992305
 21
1061.878845511827
 31
0.0
  0
LINE
  5
191
330
1F
100
AcDbEntity
  8
D-B
  6
Continuous
 62
     7
370
     9
100
AcDbLine
 10
-809.1254143591117
 20
1082.228981920579
 30
0.0
 11
-809.1254143591117
 21
1065.129215021962
 31
0.0
  0
LINE
  5
192
330
1F
100
AcDbEntity
  8
D-B
  6
Continuous
 62
     7
370
     9
100
AcDbLine
 10
-812.6254506502856
 20
1082.165931991723
 30
0.0
 11
-812.6254506502856
 21
1060.038388111067
 31
0.0
  0
LINE
  5
193
330
1F
100
AcDbEntity
  8
D-B
  6
Continuous
 62
     7
370
     9
100
AcDbLine
 10
-934.1253318791711
 20
1082.165931991723
 30
0.0
 11
-934.1253318791711
 21
1061.878845511827
 31
0.0
  0
LINE
  5
194
330
1F
100
AcDbEntity
  8
D-B
  6
Continuous
 62
     7
370
     9
100
AcDbLine
 10
-937.6258630499909
 20
1082.219980696045
 30
0.0
 11
-937.6258630499909
 21
1061.878845511827
 31
0.0
  0
ARC
  5
195
330
1F
100
AcDbEntity
  8
D-B
  6
Continuous
 62
     7
370
     9
100
AcDbCircle
 10
-988.0569626065777
 20
1082.165931991723
 30
0.0
 40
1.75
100
AcDbArc
 50
359.1099444222319
 51
180.0
  0
ARC
  5
196
330
1F
100
AcDbEntity
  8
D-B
  6
Continuous
 62
     7
370
     9
100
AcDbCircle
 10
-960.8756617989353
 20
1082.165931991723
 30
0.0
 40
1.75
100
AcDbArc
 50
0.0
 51
180.8900555777681
  0
ARC
  5
197
330
1F
100
AcDbEntity
  8
D-B
  6
Continuous
 62
     7
370
     9
100
AcDbCircle
 10
-935.8753318791712
 20
1082.165931991723
 30
0.0
 40
1.75
100
AcDbArc
 50
0.0
 51
178.2315201185748
  0
ARC
  5
198
330
1F
100
AcDbEntity
  8
D-B
  6
Continuous
 62
     7
370
     9
100
AcDbCircle
 10
-910.875514984641
 20
1082.16595013731
 30
0.0
 40
1.750018145586978
100
AcDbArc
 50
0.0
 51
180.0
  0
ARC
  5
199
330
1F
100
AcDbEntity
  8
D-B
  6
Continuous
 62
     7
370
     9
100
AcDbCircle
 10
-885.8754143591118
 20
1082.165931991723
 30
0.0
 40
1.75
100
AcDbArc
 50
358.4413403216459
 51
180.6530783501275
  0
ARC
  5
19A
330
1F
100
AcDbEntity
  8
D-B
  6
Continuous
 62
     7
370
     9
100
AcDbCircle
 10
-860.8755793189941
 20
1082.165931991723
 30
0.0
 40
1.75
100
AcDbArc
 50
0.0
 51
180.8900555777681
  0
ARC
  5
19B
330
1F
100
AcDbEntity
  8
D-B
  6
Continuous
 62
     7
370
     9
100
AcDbCircle
 10
-835.8752856904049
 20
1082.165931991723
 30
0.0
 40
1.75
100
AcDbArc
 50
359.3468293183062
 51
180.0
  0
ARC
  5
19C
330
1F
100
AcDbEntity
  8
D-B
  6
Continuous
 62
     7
370
     9
100
AcDbCircle
 10
-810.8754506502861
 20
1082.165931991723
 30
0.0
 40
1.75
100
AcDbArc
 50
2.063347513936454
 51
180.0
  0
LINE
  5
19D
330
1F
100
AcDbEntity
  8
D-B
  6
Continuous
 62
     7
370
     9
100
AcDbLine
 10
-939.5727195744836
 20
939.4114745764381
 30
0.0
 11
-1008.993523357391
 21
931.0259804146734
 31
0.0
  0
LINE
  5
19E
330
1F
100
AcDbEntity
  8
D-6
  6
Continuous
 62
     4
370
     9
100
AcDbLine
 10
-989.6592720585305
 20
425.4155896999685
 30
0.0
 11
-989.6592720585305
 21
933.3614078737921
 31
0.0
  0
ARC
  5
19F
330
1F
100
AcDbEntity
  8
D-6
  6
Continuous
 62
     4
370
     9
100
AcDbCircle
 10
-974.6592720585305
 20
1050.415931991723
 30
0.0
 40
15.0
100
AcDbArc
 50
90.0
 51
130.1646392605464
  0
LINE
  5
1A0
330
1F
100
AcDbEntity
  8
D-6
  6
Continuous
 62
     4
370
     9
100
AcDbLine
 10
-962.6254506502862
 20
1065.415931991723
 30
0.0
 11
-974.6592720585305
 21
1065.415931991723
 31
0.0
  0
LINE
  5
1A1
330
1F
100
AcDbEntity
  8
D-6
  6
Continuous
 62
     4
370
     9
100
AcDbLine
 10
-937.6258630499909
 20
1065.415931991723
 30
0.0
 11
-959.1256617989352
 21
1065.415931991723
 31
0.0
  0
LINE
  5
1A2
330
1F
100
AcDbEntity
  8
D-6
  6
Continuous
 62
     4
370
     9
100
AcDbLine
 10
-912.6255331302274
 20
1065.415931991723
 30
0.0
 11
-934.1253318791711
 21
1065.415931991723
 31
0.0
  0
LINE
  5
1A3
330
1F
100
AcDbEntity
  8
D-6
  6
Continuous
 62
     4
370
     9
100
AcDbLine
 10
-887.6256980901086
 20
1065.415931991723
 30
0.0
 11
-909.1254968390534
 21
1065.415931991723
 31
0.0
  0
LINE
  5
1A4
330
1F
100
AcDbEntity
  8
D-6
  6
Continuous
 62
     4
370
     9
100
AcDbLine
 10
-862.625368170345
 20
1065.415931991723
 30
0.0
 11
-884.1254143591117
 21
1065.415931991723
 31
0.0
  0
LINE
  5
1A5
330
1F
100
AcDbEntity
  8
D-6
  6
Continuous
 62
     4
370
     9
100
AcDbLine
 10
-837.6252856904044
 20
1065.415931991723
 30
0.0
 11
-859.125579318994
 21
1065.415931991723
 31
0.0
  0
LINE
  5
1A6
330
1F
100
AcDbEntity
  8
D-6
  6
Continuous
 62
     4
370
     9
100
AcDbLine
 10
-659.659148338619
 20
1065.415931991723
 30
0.0
 11
-809.1254143591117
 21
1065.415931991723
 31
0.0
  0
LINE
  5
1A7
330
1F
100
AcDbEntity
  8
D-6
  6
Continuous
 62
     4
370
     9
100
AcDbLine
 10
-812.6254506502856
 20
1065.415931991723
 30
0.0
 11
-834.1252493992305
 21
1065.415931991723
 31
0.0
  0
ARC
  5
1A8
330
1F
100
AcDbEntity
  8
D-6
  6
Continuous
 62
     4
370
     9
100
AcDbCircle
 10
-974.6592720585305
 20
1050.415931991723
 30
0.0
 40
30.0
100
AcDbArc
 50
90.0
 51
112.8464855256132
  0
ARC
  5
1A9
330
1F
100
AcDbEntity
  8
D-6
  6
Continuous
 62
     4
370
     9
100
AcDbCircle
 10
-974.6592720585305
 20
1050.415931991723
 30
0.0
 40
30.0
100
AcDbArc
 50
120.3262422782146
 51
180.0
  0
LINE
  5
1AA
330
1F
100
AcDbEntity
  8
D-6
  6
Continuous
 62
     4
370
     9
100
AcDbLine
 10
-989.8069626065778
 20
1080.415931991723
 30
0.0
 11
-997.1592720585305
 21
1080.415931991723
 31
0.0
  0
LINE
  5
1AB
330
1F
100
AcDbEntity
  8
D-6
  6
Continuous
 62
     4
370
     9
100
AcDbLine
 10
-962.6254506502862
 20
1080.415931991723
 30
0.0
 11
-986.3071737552268
 21
1080.415931991723
 31
0.0
  0
LINE
  5
1AC
330
1F
100
AcDbEntity
  8
D-6
  6
Continuous
 62
     4
370
     9
100
AcDbLine
 10
-937.6258630499909
 20
1080.415931991723
 30
0.0
 11
-959.1256617989352
 21
1080.415931991723
 31
0.0
  0
LINE
  5
1AD
330
1F
100
AcDbEntity
  8
D-6
  6
Continuous
 62
     4
370
     9
100
AcDbLine
 10
-912.6255331302274
 20
1080.415931991723
 30
0.0
 11
-934.1253318791711
 21
1080.415931991723
 31
0.0
  0
LINE
  5
1AE
330
1F
100
AcDbEntity
  8
D-6
  6
Continuous
 62
     4
370
     9
100
AcDbLine
 10
-887.6256980901086
 20
1080.415931991723
 30
0.0
 11
-909.1254968390534
 21
1080.415931991723
 31
0.0
  0
LINE
  5
1AF
330
1F
100
AcDbEntity
  8
D-6
  6
Continuous
 62
     4
370
     9
100
AcDbLine
 10
-862.625368170345
 20
1080.415931991723
 30
0.0
 11
-884.1254143591117
 21
1080.415931991723
 31
0.0
  0
LINE
  5
1B0
330
1F
100
AcDbEntity
  8
D-6
  6
Continuous
 62
     4
370
     9
100
AcDbLine
 10
-837.6252856904044
 20
1080.415931991723
 30
0.0
 11
-859.125579318994
 21
1080.415931991723
 31
0.0
  0
LINE
  5
1B1
330
1F
100
AcDbEntity
  8
D-6
  6
Continuous
 62
     4
370
     9
100
AcDbLine
 10
-659.659148338619
 20
1080.415931991723
 30
0.0
 11
-809.1254143591117
 21
1080.415931991723
 31
0.0
  0
LINE
  5
1B2
330
1F
100
AcDbEntity
  8
D-6
  6
Continuous
 62
     4
370
     9
100
AcDbLine
 10
-812.6254506502856
 20
1080.415931991723
 30
0.0
 11
-834.1252493992305
 21
1080.415931991723
 31
0.0
  0
ELLIPSE
  5
1B3
330
1F
100
AcDbEntity
  8
D-9
  6
Continuous
 62
     7
370
     9
100
AcDbEllipse
 10
-712.6128029879617
 20
697.915853635779
 30
0.0
 11
6.123243840148681E-16
 21
10.00001607714473
 31
0.0
210
0.0
220
0.0
230
1.0
 40
0.7071
 41
0.7227475650694432
 42
2.368192030903151
  0
LINE
  5
1B4
330
1F
100
AcDbEntity
  8
D-A
  6
Continuous
 62
     2
370
     9
100
AcDbLine
 10
-738.743932897168
 20
705.1504991699852
 30
0.0
 11
-721.0835960160977
 21
709.9740910724345
 31
0.0
  0
LINE
  5
1B5
330
1F
100
AcDbEntity
  8
D-A
  6
Continuous
 62
     2
370
     9
100
AcDbLine
 10
-738.743932897168
 20
690.6804657821051
 30
0.0
 11
-721.0835960160977
 21
685.8576161991239
 31
0.0
  0
LINE
  5
1B6
330
1F
100
AcDbEntity
  8
D-A
  6
Continuous
 62
     2
370
     9
100
AcDbLine
 10
-715.4412257405481
 20
690.4154577320629
 30
0.0
 11
-717.7901101168679
 21
690.4154577320629
 31
0.0
  0
LINE
  5
1B7
330
1F
100
AcDbEntity
  8
D-A
  6
Continuous
 62
     2
370
     9
100
AcDbLine
 10
-715.4412257405481
 20
705.4155072200274
 30
0.0
 11
-717.7901101168679
 21
705.4155072200274
 31
0.0
  0
LINE
  5
1B8
330
1F
100
AcDbEntity
  8
D-A
  6
Continuous
 62
     2
370
     9
100
AcDbLine
 10
-726.0333822280903
 20
714.1823001359903
 30
0.0
 11
-711.9248584210804
 21
712.883241067156
 31
0.0
  0
LINE
  5
1B9
330
1F
100
AcDbEntity
  8
D-A
  6
Continuous
 62
     2
370
     9
100
AcDbLine
 10
-726.0333822280903
 20
681.6486648161001
 30
0.0
 11
-711.9228170425434
 21
682.9477238849345
 31
0.0
  0
LINE
  5
1BA
330
1F
100
AcDbEntity
  8
D-A
  6
Continuous
 62
     2
370
     9
100
AcDbLine
 10
-715.4412257405481
 20
710.4157711558383
 30
0.0
 11
-717.7901101168679
 21
710.4157711558383
 31
0.0
  0
LINE
  5
1BB
330
1F
100
AcDbEntity
  8
D-A
  6
Continuous
 62
     2
370
     9
100
AcDbLine
 10
-715.4412257405481
 20
705.4155072200274
 30
0.0
 11
-715.4412257405481
 21
710.4157711558383
 31
0.0
  0
LINE
  5
1BC
330
1F
100
AcDbEntity
  8
D-A
  6
Continuous
 62
     2
370
     9
100
AcDbLine
 10
-715.4412257405481
 20
685.41593611572
 30
0.0
 11
-715.4412257405481
 21
690.4154577320629
 31
0.0
  0
LINE
  5
1BD
330
1F
100
AcDbEntity
  8
D-A
  6
Continuous
 62
     2
370
     9
100
AcDbLine
 10
-715.4412257405481
 20
685.41593611572
 30
0.0
 11
-717.7901101168679
 21
685.41593611572
 31
0.0
  0
LINE
  5
1BE
330
1F
100
AcDbEntity
  8
D-A
  6
Continuous
 62
     2
370
     9
100
AcDbLine
 10
-675.6150439679554
 20
685.415193796252
 30
0.0
 11
-706.7508917297799
 21
685.415193796252
 31
0.0
  0
LINE
  5
1BF
330
1F
100
AcDbEntity
  8
D-A
  6
Continuous
 62
     2
370
     9
100
AcDbLine
 10
-675.6150439679554
 20
710.4157711558383
 30
0.0
 11
-706.7525619485825
 21
710.4157711558383
 31
0.0
  0
ARC
  5
1C0
330
1F
100
AcDbEntity
  8
D-A
  6
Continuous
 62
     2
370
     9
100
AcDbCircle
 10
-717.7901101168679
 20
697.915853635779
 30
0.0
 40
7.500000096656181
100
AcDbArc
 50
90.0
 51
270.0
  0
ARC
  5
1C1
330
1F
100
AcDbEntity
  8
D-A
  6
Continuous
 62
     2
370
     9
100
AcDbCircle
 10
-717.7901101168679
 20
697.915853635779
 30
0.0
 40
12.50000161093635
100
AcDbArc
 50
90.0
 51
270.0
  0
ARC
  5
1C2
330
1F
100
AcDbEntity
  8
D-A
  6
Continuous
 62
     2
370
     9
100
AcDbCircle
 10
-736.7678784736039
 20
697.915853635779
 30
0.0
 40
7.500000096656181
100
AcDbArc
 50
105.2762451171875
 51
254.7237548828125
  0
ELLIPSE
  5
1C3
330
1F
100
AcDbEntity
  8
D-A
  6
Continuous
 62
     2
370
     9
100
AcDbEllipse
 10
-726.7549167508945
 20
697.915853635779
 30
0.0
 11
9.980829816366297E-16
 21
16.29993206745869
 31
0.0
210
0.0
220
0.0
230
1.0
 40
0.694
 41
2.069508660954732
 42
3.205408384894708
  0
ELLIPSE
  5
1C4
330
1F
100
AcDbEntity
  8
D-A
  6
Continuous
 62
     2
370
     9
100
AcDbEllipse
 10
-726.7549167508945
 20
697.915853635779
 30
0.0
 11
9.980829816366297E-16
 21
16.29993206745869
 31
0.0
210
0.0
220
0.0
230
1.0
 40
0.694
 41
6.219369309558561
 42
7.355262375595813
  0
ELLIPSE
  5
1C5
330
1F
100
AcDbEntity
  8
D-A
  6
Continuous
 62
     2
370
     9
100
AcDbEllipse
 10
-712.6128029879617
 20
697.915853635779
 30
0.0
 11
-0.002121107364868997
 21
14.99928962040711
 31
0.0
210
0.0
220
0.0
230
1.0
 40
0.707
 41
2.555871118191543
 42
3.982512133077104
  0
ELLIPSE
  5
1C6
330
1F
100
AcDbEntity
  8
D-A
  6
Continuous
 62
     2
370
     9
100
AcDbEllipse
 10
-712.6128029879617
 20
697.915853635779
 30
0.0
 11
-0.002121107364868997
 21
14.99928962040711
 31
0.0
210
0.0
220
0.0
230
1.0
 40
0.707
 41
5.442070351668264
 42
6.868704176018882
  0
LINE
  5
1C7
330
1F
100
AcDbEntity
  8
D-9
  6
Continuous
 62
     7
370
     9
100
AcDbLine
 10
-715.4412257405481
 20
707.9156391879328
 30
0.0
 11
-661.6155247262843
 21
707.9156391879328
 31
0.0
  0
LINE
  5
1C8
330
1F
100
AcDbEntity
  8
D-9
  6
Continuous
 62
     7
370
     9
100
AcDbLine
 10
-715.4412257405481
 20
687.9153257641575
 30
0.0
 11
-661.6155247262843
 21
687.9153257641575
 31
0.0
  0
ELLIPSE
  5
1C9
330
1F
100
AcDbEntity
  8
D-9
  6
Continuous
 62
     7
370
     9
100
AcDbEllipse
 10
-661.6155247262843
 20
697.915853635779
 30
0.0
 11
6.123243840148681E-16
 21
10.00001607714473
 31
0.0
210
0.0
220
0.0
230
1.0
 40
0.7071
 41
0.0
 42
6.283185307179586
  0
ELLIPSE
  5
1CA
330
1F
100
AcDbEntity
  8
D-9
  6
Continuous
 62
     7
370
     9
100
AcDbEllipse
 10
-660.2014061399244
 20
697.915853635779
 30
0.0
 11
4.898526003409303E-16
 21
7.999900063952884
 31
0.0
210
0.0
220
0.0
230
1.0
 40
0.7071
 41
0.0
 42
6.283185307179586
  0
ARC
  5
1CB
330
1F
100
AcDbEntity
  8
D-A
  6
Continuous
 62
     2
370
     9
100
AcDbCircle
 10
-675.6150439679554
 20
697.915853635779
 30
0.0
 40
12.50000161093635
100
AcDbArc
 50
270.0
 51
306.8658746612248
  0
ARC
  5
1CC
330
1F
100
AcDbEntity
  8
D-A
  6
Continuous
 62
     2
370
     9
100
AcDbCircle
 10
-675.6150439679554
 20
697.915853635779
 30
0.0
 40
12.50000161093635
100
AcDbArc
 50
53.12845427978647
 51
90.0
  0
LINE
  5
1CD
330
1F
100
AcDbEntity
  8
D-A
  6
JWW_CENTER1
 62
     2
370
     9
100
AcDbLine
 10
-776.6817005732343
 20
697.915853635779
 30
0.0
 11
-650.8653536420364
 21
697.915853635779
 31
0.0
  0
LINE
  5
1CE
330
1F
100
AcDbEntity
  8
D-9
  6
JWW_DASHED1
 62
     7
370
     9
100
AcDbLine
 10
-783.9449006839378
 20
660.4153587561341
 30
0.0
 11
-783.9449006839378
 21
735.4156061959567
 31
0.0
  0
LINE
  5
1CF
330
1F
100
AcDbEntity
  8
D-9
  6
JWW_DASHED1
 62
     7
370
     9
100
AcDbLine
 10
-819.3004634610701
 20
660.4153587561341
 30
0.0
 11
-748.5900802262727
 21
660.4153587561341
 31
0.0
  0
LINE
  5
1D0
330
1F
100
AcDbEntity
  8
D-9
  6
JWW_DASHED1
 62
     7
370
     9
100
AcDbLine
 10
-786.445032651843
 20
662.915490724039
 30
0.0
 11
-786.445032651843
 21
732.9154742280513
 31
0.0
  0
LINE
  5
1D1
330
1F
100
AcDbEntity
  8
D-9
  6
JWW_DASHED1
 62
     7
370
     9
100
AcDbLine
 10
-816.8007026528987
 20
732.9154742280513
 30
0.0
 11
-786.445032651843
 21
732.9154742280513
 31
0.0
  0
LINE
  5
1D2
330
1F
100
AcDbEntity
  8
D-9
  6
JWW_DASHED1
 62
     7
370
     9
100
AcDbLine
 10
-816.8007026528987
 20
662.915490724039
 30
0.0
 11
-786.445032651843
 21
662.915490724039
 31
0.0
  0
LINE
  5
1D3
330
1F
100
AcDbEntity
  8
D-9
  6
JWW_DASHED1
 62
     7
370
     9
100
AcDbLine
 10
-816.8007026528987
 20
707.9156391879328
 30
0.0
 11
-816.8007026528987
 21
732.9154742280513
 31
0.0
  0
LINE
  5
1D4
330
1F
100
AcDbEntity
  8
D-9
  6
JWW_DASHED1
 62
     7
370
     9
100
AcDbLine
 10
-816.8007026528987
 20
662.915490724039
 30
0.0
 11
-816.8007026528987
 21
687.9153257641575
 31
0.0
  0
LINE
  5
1D5
330
1F
100
AcDbEntity
  8
D-9
  6
JWW_DASHED1
 62
     7
370
     9
100
AcDbLine
 10
-819.3004634610701
 20
685.41593611572
 30
0.0
 11
-819.3004634610701
 21
660.4153587561341
 31
0.0
  0
LINE
  5
1D6
330
1F
100
AcDbEntity
  8
D-9
  6
JWW_DASHED1
 62
     7
370
     9
100
AcDbLine
 10
-819.3004634610701
 20
735.4156061959567
 30
0.0
 11
-748.5900802262727
 21
735.4156061959567
 31
0.0
  0
LINE
  5
1D7
330
1F
100
AcDbEntity
  8
D-9
  6
JWW_DASHED1
 62
     7
370
     9
100
AcDbLine
 10
-748.5900802262727
 20
660.4153587561341
 30
0.0
 11
-748.5900802262727
 21
687.9153257641575
 31
0.0
  0
LINE
  5
1D8
330
1F
100
AcDbEntity
  8
D-9
  6
JWW_DASHED1
 62
     7
370
     9
100
AcDbLine
 10
-748.5900802262727
 20
707.9156391879328
 30
0.0
 11
-748.5900802262727
 21
735.4156061959567
 31
0.0
  0
ELLIPSE
  5
1D9
330
1F
100
AcDbEntity
  8
D-9
  6
JWW_DASHED1
 62
     7
370
     9
100
AcDbEllipse
 10
-766.2676760349722
 20
697.915853635779
 30
0.0
 11
6.123243840148681E-16
 21
10.00001607714473
 31
0.0
210
0.0
220
0.0
230
1.0
 40
0.7071
 41
0.0
 42
3.141592653589793
  0
LINE
  5
1DA
330
1F
100
AcDbEntity
  8
D-9
  6
JWW_DASHED1
 62
     7
370
     9
100
AcDbLine
 10
-819.3004634610701
 20
710.4156391879328
 30
0.0
 11
-819.3004634610701
 21
735.4156061959567
 31
0.0
  0
LINE
  5
1DB
330
1F
100
AcDbEntity
  8
D-9
  6
JWW_DASHED1
 62
     7
370
     9
100
AcDbLine
 10
-861.0827725035107
 20
707.9156391879328
 30
0.0
 11
-786.445032651843
 21
707.9156391879328
 31
0.0
  0
LINE
  5
1DC
330
1F
100
AcDbEntity
  8
D-9
  6
JWW_DASHED1
 62
     7
370
     9
100
AcDbLine
 10
-837.421924660424
 20
727.915853635779
 30
0.0
 11
-837.421924660424
 21
730.415853635779
 31
0.0
  0
LINE
  5
1DD
330
1F
100
AcDbEntity
  8
D-9
  6
JWW_DASHED1
 62
     7
370
     9
100
AcDbLine
 10
-861.0827725035107
 20
710.4156391879328
 30
0.0
 11
-819.3004634610701
 21
710.4156391879328
 31
0.0
  0
ARC
  5
1DE
330
1F
100
AcDbEntity
  8
D-9
  6
JWW_DASHED1
 62
     7
370
     9
100
AcDbCircle
 10
-861.0827725035107
 20
719.1657464118559
 30
0.0
 40
8.750107223923038
100
AcDbArc
 50
90.0
 51
270.0
  0
ARC
  5
1DF
330
1F
100
AcDbEntity
  8
D-9
  6
JWW_DASHED1
 62
     7
370
     9
100
AcDbCircle
 10
-861.0827725035107
 20
719.1657464118559
 30
0.0
 40
11.25010722392304
100
AcDbArc
 50
90.0
 51
270.0
  0
LINE
  5
1E0
330
1F
100
AcDbEntity
  8
D-9
  6
JWW_DASHED1
 62
     7
370
     9
100
AcDbLine
 10
-861.0827725035107
 20
730.415853635779
 30
0.0
 11
-819.3004634610701
 21
730.415853635779
 31
0.0
  0
LINE
  5
1E1
330
1F
100
AcDbEntity
  8
D-9
  6
JWW_DASHED1
 62
     7
370
     9
100
AcDbLine
 10
-861.0827725035107
 20
727.915853635779
 30
0.0
 11
-819.3004634610701
 21
727.915853635779
 31
0.0
  0
LINE
  5
1E2
330
1F
100
AcDbEntity
  8
D-9
  6
JWW_DASHED1
 62
     7
370
     9
100
AcDbLine
 10
-837.421924660424
 20
667.915853635779
 30
0.0
 11
-837.421924660424
 21
665.415853635779
 31
0.0
  0
LINE
  5
1E3
330
1F
100
AcDbEntity
  8
D-9
  6
JWW_DASHED1
 62
     7
370
     9
100
AcDbLine
 10
-861.0827725035107
 20
685.4160680836251
 30
0.0
 11
-819.3004634610701
 21
685.4160680836251
 31
0.0
  0
ARC
  5
1E4
330
1F
100
AcDbEntity
  8
D-9
  6
JWW_DASHED1
 62
     7
370
     9
100
AcDbCircle
 10
-861.0827725035107
 20
676.665960859702
 30
0.0
 40
8.750107223923038
100
AcDbArc
 50
90.0
 51
270.0
  0
ARC
  5
1E5
330
1F
100
AcDbEntity
  8
D-9
  6
JWW_DASHED1
 62
     7
370
     9
100
AcDbCircle
 10
-861.0827725035107
 20
676.665960859702
 30
0.0
 40
11.25010722392304
100
AcDbArc
 50
90.0
 51
270.0
  0
LINE
  5
1E6
330
1F
100
AcDbEntity
  8
D-9
  6
JWW_DASHED1
 62
     7
370
     9
100
AcDbLine
 10
-861.0827725035107
 20
665.415853635779
 30
0.0
 11
-819.3004634610701
 21
665.415853635779
 31
0.0
  0
LINE
  5
1E7
330
1F
100
AcDbEntity
  8
D-9
  6
JWW_DASHED1
 62
     7
370
     9
100
AcDbLine
 10
-861.0827725035107
 20
667.915853635779
 30
0.0
 11
-819.3004634610701
 21
667.915853635779
 31
0.0
  0
LINE
  5
1E8
330
1F
100
AcDbEntity
  8
D-9
  6
JWW_DASHED1
 62
     7
370
     9
100
AcDbLine
 10
-861.0827725035107
 20
687.9153257641575
 30
0.0
 11
-786.445032651843
 21
687.9153257641575
 31
0.0
  0
LINE
  5
1E9
330
1F
100
AcDbEntity
  8
D-9
  6
JWW_DASHED1
 62
     7
370
     9
100
AcDbLine
 10
-766.2676760349722
 20
687.9153257641575
 30
0.0
 11
-735.6879892276685
 21
687.9153257641575
 31
0.0
  0
LINE
  5
1EA
330
1F
100
AcDbEntity
  8
D-9
  6
JWW_DASHED1
 62
     7
370
     9
100
AcDbLine
 10
-766.2676760349722
 20
707.9156391879328
 30
0.0
 11
-735.6879892276685
 21
707.9156391879328
 31
0.0
  0
LINE
  5
1EB
330
1F
100
AcDbEntity
  8
D-4
  6
Continuous
 62
     7
370
     9
100
AcDbLine
 10
-1116.577883969592
 20
1080.415931991723
 30
0.0
 11
-1116.577883969592
 21
395.4155896999685
 31
0.0
  0
LWPOLYLINE
  5
1EC
330
1F
100
AcDbEntity
  8
D-4
  6
Continuous
 62
     7
370
     9
100
AcDbPolyline
 90
        4
 70
     1
 43
2.0
 10
-1115.577883969592
 20
1080.415931991723
 42
0.4142135623731
 10
-1116.577883969592
 20
1081.415931991723
 42
0.4142135623731
 10
-1117.577883969592
 20
1080.415931991723
 42
0.4142135623731
 10
-1116.577883969592
 20
1079.415931991723
 42
0.4142135623731
  0
LWPOLYLINE
  5
1ED
330
1F
100
AcDbEntity
  8
D-4
  6
Continuous
 62
     7
370
     9
100
AcDbPolyline
 90
        4
 70
     1
 43
2.0
 10
-1115.577883969592
 20
395.4155896999685
 42
0.4142135623731
 10
-1116.577883969592
 20
396.4155896999685
 42
0.4142135623731
 10
-1117.577883969592
 20
395.4155896999685
 42
0.4142135623731
 10
-1116.577883969592
 20
394.4155896999685
 42
0.4142135623731
  0
TEXT
  5
1EE
330
1F
100
AcDbEntity
  8
D-4
  6
Continuous
 62
     2
370
   211
100
AcDbText
 10
-1128.217883969592
 20
705.4157608458457
 30
0.0
 40
30.48
  1
137
 50
90.0
 41
1.083333333333333
  7
ＭＳ ゴシック
100
AcDbText
  0
LINE
  5
1EF
330
1F
100
AcDbEntity
  8
D-4
  6
Continuous
 62
     7
370
     9
100
AcDbLine
 10
-1119.577883969592
 20
1080.415931991723
 30
0.0
 11
-1010.857343452339
 21
1080.415931991723
 31
0.0
  0
LINE
  5
1F0
330
1F
100
AcDbEntity
  8
D-4
  6
Continuous
 62
     7
370
     9
100
AcDbLine
 10
-1119.577883969592
 20
395.4155896999685
 30
0.0
 11
-1010.857343452339
 21
395.4155896999685
 31
0.0
  0
TEXT
  5
1F1
330
1F
100
AcDbEntity
  8
F-5ﾚｲﾔ
  6
Continuous
 62
     2
370
     9
100
AcDbText
 10
-875.19058582297
 20
-1351.939489551078
 30
0.0
 40
30.48
  1
ステンレス製　防塵網　よこ引きルーフドレン用　ＣＣ－５０／６５
 41
1.024193548387097
  7
ＭＳ ゴシック
100
AcDbText
  0
TEXT
  5
1F2
330
1F
100
AcDbEntity
  8
D-F
  6
Continuous
 62
     2
370
     9
100
AcDbText
 10
608.5018675953665
 20
-673.4514934038417
 30
0.0
 40
30.48
  1
※上図のルーフドレンはＥＸＧ－５０です。
 41
1.11875
  7
ＭＳ ゴシック
100
AcDbText
  0
LINE
  5
1F3
330
1F
100
AcDbEntity
  8
D-2
  6
Continuous
 62
     6
370
     9
100
AcDbLine
 10
920.1330050981801
 20
709.6449594858278
 30
0.0
 11
1030.901297499469
 21
705.384540619696
 31
0.0
  0
LINE
  5
1F4
330
1F
100
AcDbEntity
  8
D-2
  6
Continuous
 62
     6
370
     9
100
AcDbLine
 10
1011.436815011609
 20
683.6165171030153
 30
0.0
 11
919.2680791981593
 21
687.1615874419091
 31
0.0
  0
LINE
  5
1F5
330
1F
100
AcDbEntity
  8
D-2
  6
Continuous
 62
     6
370
     9
100
AcDbLine
 10
1039.740466563552
 20
664.7259712837586
 30
0.0
 11
1059.185896185068
 21
677.100189373919
 31
0.0
  0
LINE
  5
1F6
330
1F
100
AcDbEntity
  8
D-2
  6
Continuous
 62
     6
370
     9
100
AcDbLine
 10
1235.90160267525
 20
500.3846066036485
 30
0.0
 11
1235.90160267525
 21
495.3845901076605
 31
0.0
  0
LINE
  5
1F7
330
1F
100
AcDbEntity
  8
D-2
  6
Continuous
 62
     6
370
     9
100
AcDbLine
 10
900.9016109232437
 20
835.3844746357433
 30
0.0
 11
895.9015944272556
 21
835.3844746357433
 31
0.0
  0
LINE
  5
1F8
330
1F
100
AcDbEntity
  8
D-2
  6
Continuous
 62
     6
370
     9
100
AcDbLine
 10
895.9015944272556
 20
835.3844746357433
 30
0.0
 11
873.4015201953088
 21
808.5701633762412
 31
0.0
  0
LINE
  5
1F9
330
1F
100
AcDbEntity
  8
D-2
  6
Continuous
 62
     6
370
     9
100
AcDbLine
 10
900.9016109232437
 20
659.6611255542398
 30
0.0
 11
900.9016109232437
 21
626.5341295396704
 31
0.0
  0
LINE
  5
1FA
330
1F
100
AcDbEntity
  8
D-2
  6
Continuous
 62
     6
370
     9
100
AcDbLine
 10
1060.178253593746
 20
500.3846066036485
 30
0.0
 11
1027.051133859266
 21
500.3846066036484
 31
0.0
  0
LINE
  5
1FB
330
1F
100
AcDbEntity
  8
D-2
  6
Continuous
 62
     6
370
     9
100
AcDbLine
 10
1190.878937187496
 20
500.3846066036485
 30
0.0
 11
1151.082077033885
 21
500.3846066036485
 31
0.0
  0
LINE
  5
1FC
330
1F
100
AcDbEntity
  8
D-2
  6
Continuous
 62
     6
370
     9
100
AcDbLine
 10
1140.201281993239
 20
525.7098250105319
 30
0.0
 11
1158.974170176833
 21
545.4921439505657
 31
0.0
  0
LINE
  5
1FD
330
1F
100
AcDbEntity
  8
D-2
  6
Continuous
 62
     6
370
     9
100
AcDbLine
 10
1070.503546232576
 20
504.5042322107012
 30
0.0
 11
1136.927776859688
 21
567.538537267711
 31
0.0
  0
LINE
  5
1FE
330
1F
100
AcDbEntity
  8
D-2
  6
Continuous
 62
     6
370
     9
100
AcDbLine
 10
1031.695208170393
 20
672.7712296769174
 30
0.0
 11
905.0829727660437
 21
539.3496977934715
 31
0.0
  0
LINE
  5
1FF
330
1F
100
AcDbEntity
  8
D-2
  6
Continuous
 62
     6
370
     9
100
AcDbLine
 10
926.2270767699499
 20
615.6534582189354
 30
0.0
 11
998.3748379344343
 21
684.1190673827872
 31
0.0
  0
LINE
  5
200
330
1F
100
AcDbEntity
  8
D-2
  6
Continuous
 62
     6
370
     9
100
AcDbLine
 10
905.0213602502072
 20
669.9865419129815
 30
0.0
 11
921.2475977792406
 21
687.0853759765372
 31
0.0
  0
LINE
  5
201
330
1F
100
AcDbEntity
  8
D-2
  6
Continuous
 62
     4
370
     9
100
AcDbLine
 10
913.9019754845822
 20
790.3845736116718
 30
0.0
 11
900.9016109232437
 21
790.3845736116718
 31
0.0
  0
LINE
  5
202
330
1F
100
AcDbEntity
  8
D-2
  6
Continuous
 62
     4
370
     9
100
AcDbLine
 10
913.9019754845822
 20
730.3853654191049
 30
0.0
 11
900.9016109232437
 21
730.3853654191049
 31
0.0
  0
LINE
  5
203
330
1F
100
AcDbEntity
  8
D-2
  6
Continuous
 62
     4
370
     9
100
AcDbLine
 10
913.9019754845822
 20
757.9899994721034
 30
0.0
 11
913.9019754845822
 21
762.7801869984966
 31
0.0
  0
LINE
  5
204
330
1F
100
AcDbEntity
  8
D-2
  6
Continuous
 62
     4
370
     9
100
AcDbLine
 10
840.9020315709421
 20
775.3847715635302
 30
0.0
 11
840.9020315709421
 21
745.3846725876012
 31
0.0
  0
LINE
  5
205
330
1F
100
AcDbEntity
  8
D-2
  6
Continuous
 62
     4
370
     9
100
AcDbLine
 10
890.90182537109
 20
775.3847715635302
 30
0.0
 11
840.9020315709421
 21
775.3847715635302
 31
0.0
  0
LINE
  5
206
330
1F
100
AcDbEntity
  8
D-2
  6
Continuous
 62
     4
370
     9
100
AcDbLine
 10
890.90182537109
 20
745.3846725876012
 30
0.0
 11
840.9020315709421
 21
745.3846725876012
 31
0.0
  0
LINE
  5
207
330
1F
100
AcDbEntity
  8
D-2
  6
Continuous
 62
     4
370
     9
100
AcDbLine
 10
890.90182537109
 20
771.0345320417819
 30
0.0
 11
840.9020315709421
 21
771.0345320417819
 31
0.0
  0
LINE
  5
208
330
1F
100
AcDbEntity
  8
D-2
  6
Continuous
 62
     4
370
     9
100
AcDbLine
 10
890.90182537109
 20
749.7344172297044
 30
0.0
 11
840.9020315709421
 21
749.7344172297044
 31
0.0
  0
LINE
  5
209
330
1F
100
AcDbEntity
  8
D-2
  6
Continuous
 62
     4
370
     9
100
AcDbLine
 10
890.90182537109
 20
749.7344172297044
 30
0.0
 11
900.2642059401353
 21
744.4745889199492
 31
0.0
  0
LINE
  5
20A
330
1F
100
AcDbEntity
  8
D-2
  6
Continuous
 62
     4
370
     9
100
AcDbLine
 10
890.90182537109
 20
745.3846725876012
 30
0.0
 11
894.7205641538181
 21
747.589113967458
 31
0.0
  0
LINE
  5
20B
330
1F
100
AcDbEntity
  8
D-2
  6
Continuous
 62
     4
370
     9
100
AcDbLine
 10
890.90182537109
 20
771.0345320417819
 30
0.0
 11
900.2642059401353
 21
776.2946077913593
 31
0.0
  0
LINE
  5
20C
330
1F
100
AcDbEntity
  8
D-2
  6
Continuous
 62
     4
370
     9
100
AcDbLine
 10
890.90182537109
 20
775.3847715635302
 30
0.0
 11
894.7205641538181
 21
773.180082743851
 31
0.0
  0
LINE
  5
20D
330
1F
100
AcDbEntity
  8
D-2
  6
Continuous
 62
     4
370
     9
100
AcDbLine
 10
923.8444787177957
 20
762.7801869984966
 30
0.0
 11
913.9019754845822
 21
762.7801869984966
 31
0.0
  0
LINE
  5
20E
330
1F
100
AcDbEntity
  8
D-2
  6
Continuous
 62
     4
370
     9
100
AcDbLine
 10
890.90182537109
 20
775.3847715635302
 30
0.0
 11
890.90182537109
 21
745.3846725876012
 31
0.0
  0
LINE
  5
20F
330
1F
100
AcDbEntity
  8
D-2
  6
Continuous
 62
     4
370
     9
100
AcDbLine
 10
923.8446024377072
 20
757.9899994721034
 30
0.0
 11
913.9019754845822
 21
757.9899994721034
 31
0.0
  0
LINE
  5
210
330
1F
100
AcDbEntity
  8
D-2
  6
Continuous
 62
     6
370
     9
100
AcDbLine
 10
878.4015366912968
 20
814.5287617451183
 30
0.0
 11
878.4015366912968
 21
775.3847715635302
 31
0.0
  0
LINE
  5
211
330
1F
100
AcDbEntity
  8
D-2
  6
Continuous
 62
     6
370
     9
100
AcDbLine
 10
878.4015366912968
 20
740.3846560916132
 30
0.0
 11
900.9016109232437
 21
740.3846560916132
 31
0.0
  0
LINE
  5
212
330
1F
100
AcDbEntity
  8
D-2
  6
Continuous
 62
     6
370
     9
100
AcDbLine
 10
878.4015366912968
 20
780.3847880595183
 30
0.0
 11
900.9016109232437
 21
780.3847880595183
 31
0.0
  0
LINE
  5
213
330
1F
100
AcDbEntity
  8
D-2
  6
Continuous
 62
     6
370
     9
100
AcDbLine
 10
1209.385208962201
 20
526.9007528768751
 30
0.0
 11
1197.010743432218
 21
507.4554469752704
 31
0.0
  0
LINE
  5
214
330
1F
100
AcDbEntity
  8
D-0
  6
Continuous
 62
     3
370
     9
100
AcDbLine
 10
1304.633951967902
 20
389.856949429873
 30
0.0
 11
1305.901586179261
 21
382.8845901076605
 31
0.0
  0
LINE
  5
215
330
1F
100
AcDbEntity
  8
D-0
  6
Continuous
 62
     3
370
     9
100
AcDbLine
 10
820.9015944272556
 20
930.3847880595183
 30
0.0
 11
783.4014707073442
 21
930.3847880595183
 31
0.0
  0
LINE
  5
216
330
1F
100
AcDbEntity
  8
D-0
  6
Continuous
 62
     3
370
     9
100
AcDbLine
 10
1330.90142121938
 20
420.3848375474829
 30
0.0
 11
1330.90142121938
 21
382.8845901076605
 31
0.0
  0
LINE
  5
217
330
1F
100
AcDbEntity
  8
D-0
  6
Continuous
 62
     3
370
     9
100
AcDbLine
 10
804.1854260494051
 20
883.0965635557177
 30
0.0
 11
783.4014707073442
 21
905.3847055795777
 31
0.0
  0
LINE
  5
218
330
1F
100
AcDbEntity
  8
D-0
  6
Continuous
 62
     3
370
     9
100
AcDbLine
 10
862.3733747402832
 20
849.9059755067312
 30
0.0
 11
905.9017511391431
 21
880.3848705394594
 31
0.0
  0
LINE
  5
219
330
1F
100
AcDbEntity
  8
D-0
  6
Continuous
 62
     3
370
     9
100
AcDbLine
 10
1250.42236122677
 20
461.8562467007772
 30
0.0
 11
1280.901503699321
 21
505.3848705394595
 31
0.0
  0
LINE
  5
21A
330
1F
100
AcDbEntity
  8
D-0
  6
Continuous
 62
     3
370
     9
100
AcDbLine
 10
1190.460763887243
 20
442.0825881545355
 30
0.0
 11
1265.901206771533
 21
505.3848705394595
 31
0.0
  0
LINE
  5
21B
330
1F
100
AcDbEntity
  8
D-0
  6
Continuous
 62
     3
370
     9
100
AcDbLine
 10
830.9016274192322
 20
920.3845076277194
 30
0.0
 11
830.9016274192322
 21
866.2889661634038
 31
0.0
  0
LINE
  5
21C
330
1F
100
AcDbEntity
  8
D-0
  6
Continuous
 62
     3
370
     9
100
AcDbLine
 10
1320.901388227403
 20
430.3848705394595
 30
0.0
 11
1266.805599323264
 21
430.3848705394595
 31
0.0
  0
LINE
  5
21D
330
1F
100
AcDbEntity
  8
D-0
  6
Continuous
 62
     3
370
     9
100
AcDbLine
 10
1126.007144007598
 20
442.0825881545354
 30
0.0
 11
1135.901149035575
 21
450.384936523412
 31
0.0
  0
LINE
  5
21E
330
1F
100
AcDbEntity
  8
D-0
  6
Continuous
 62
     3
370
     9
100
AcDbLine
 10
1194.895627828332
 20
450.3849365234121
 30
0.0
 11
1135.901149035575
 21
450.384936523412
 31
0.0
  0
LINE
  5
21F
330
1F
100
AcDbEntity
  8
D-0
  6
Continuous
 62
     3
370
     9
100
AcDbLine
 10
1118.640489328016
 20
410.3848045555068
 30
0.0
 11
1280.036948959033
 21
410.3848045555069
 31
0.0
  0
LINE
  5
220
330
1F
100
AcDbEntity
  8
D-0
  6
Continuous
 62
     3
370
     9
100
AcDbLine
 10
1058.730854351242
 20
395.3850025073646
 30
0.0
 11
930.9015861792614
 21
395.3850025073646
 31
0.0
  0
LINE
  5
221
330
1F
100
AcDbEntity
  8
D-0
  6
Continuous
 62
     3
370
     9
100
AcDbLine
 10
1088.674165887876
 20
382.8845901076604
 30
0.0
 11
1330.90142121938
 21
382.8845901076605
 31
0.0
  0
LINE
  5
222
330
1F
100
AcDbEntity
  8
D-0
  6
Continuous
 62
     3
370
     9
100
AcDbLine
 10
871.6470481329145
 20
733.2935256545356
 30
0.0
 11
830.9016274192322
 21
684.7351925411486
 31
0.0
  0
LINE
  5
223
330
1F
100
AcDbEntity
  8
D-0
  6
Continuous
 62
     3
370
     9
100
AcDbLine
 10
830.9016274192322
 20
684.7351925411486
 30
0.0
 11
830.9016274192322
 21
495.3848375474828
 31
0.0
  0
LINE
  5
224
330
1F
100
AcDbEntity
  8
D-0
  6
Continuous
 62
     3
370
     9
100
AcDbLine
 10
1230.901338739439
 20
505.3848705394595
 30
0.0
 11
1280.901503699321
 21
505.3848705394595
 31
0.0
  0
LINE
  5
225
330
1F
100
AcDbEntity
  8
D-0
  6
Continuous
 62
     3
370
     9
100
AcDbLine
 10
1073.127769271533
 20
477.8846560916131
 30
0.0
 11
1018.564195382703
 21
432.1001233899661
 31
0.0
  0
LINE
  5
226
330
1F
100
AcDbEntity
  8
D-0
  6
Continuous
 62
     3
370
     9
100
AcDbLine
 10
1006.520062015938
 20
477.884656091613
 30
0.0
 11
1006.520062015938
 21
437.7162650443156
 31
0.0
  0
LINE
  5
227
330
1F
100
AcDbEntity
  8
D-2
  6
Continuous
 62
     6
370
     9
100
AcDbLine
 10
878.4015366912968
 20
745.3846725876012
 30
0.0
 11
878.4016604112082
 21
530.3847055795776
 31
0.0
  0
LINE
  5
228
330
1F
100
AcDbEntity
  8
D-2
  6
Continuous
 62
     6
370
     9
100
AcDbLine
 10
1215.045889784625
 20
477.8846560916131
 30
0.0
 11
930.9015861792614
 21
477.884656091613
 31
0.0
  0
LINE
  5
229
330
1F
100
AcDbEntity
  8
D-0
  6
Continuous
 62
     3
370
     9
100
AcDbLine
 10
905.9017511391431
 20
880.3848705394594
 30
0.0
 11
905.9017511391431
 21
830.3844581397548
 31
0.0
  0
LINE
  5
22A
330
1F
100
AcDbEntity
  8
D-0
  6
Continuous
 62
     3
370
     9
100
AcDbLine
 10
905.9017511391431
 20
670.9141938080409
 30
0.0
 11
905.9017511391431
 21
615.3538085937246
 31
0.0
  0
LINE
  5
22B
330
1F
100
AcDbEntity
  8
D-0
  6
Continuous
 62
     3
370
     9
100
AcDbLine
 10
905.9017511391431
 20
540.212520455
 30
0.0
 11
905.9017511391431
 21
530.3847055795776
 31
0.0
  0
LINE
  5
22C
330
1F
100
AcDbEntity
  8
D-0
  6
Continuous
 62
     3
370
     9
100
AcDbLine
 10
930.9015861792614
 20
505.3848705394594
 30
0.0
 11
940.7298959343291
 21
505.3848705394594
 31
0.0
  0
LINE
  5
22D
330
1F
100
AcDbEntity
  8
D-0
  6
Continuous
 62
     3
370
     9
100
AcDbLine
 10
1139.901384928206
 20
505.3848705394595
 30
0.0
 11
1199.081319868028
 21
505.3848705394595
 31
0.0
  0
LINE
  5
22E
330
1F
100
AcDbEntity
  8
D-2
  6
Continuous
 62
     6
370
     9
100
AcDbLine
 10
1235.90160267525
 20
495.3845901076605
 30
0.0
 11
1182.272485276601
 21
450.3846890835897
 31
0.0
  0
LINE
  5
22F
330
1F
100
AcDbEntity
  8
D-2
  6
Continuous
 62
     6
370
     9
100
AcDbLine
 10
1133.14095781408
 20
465.5680914801267
 30
0.0
 11
1135.90164391522
 21
450.3846890835896
 31
0.0
  0
LINE
  5
230
330
1F
100
AcDbEntity
  8
D-2
  6
Continuous
 62
     6
370
     9
100
AcDbLine
 10
900.9016109232437
 20
729.6299316405997
 30
0.0
 11
900.9016109232437
 21
835.3844746357433
 31
0.0
  0
LINE
  5
231
330
1F
100
AcDbEntity
  8
D-0
  6
Continuous
 62
     3
370
     9
100
AcDbLine
 10
1095.90101706767
 20
270.3850849873058
 30
0.0
 11
1095.90101706767
 21
240.385233451199
 31
0.0
  0
LINE
  5
232
330
1F
100
AcDbEntity
  8
D-0
  6
Continuous
 62
     3
370
     9
100
AcDbLine
 10
1055.900761379853
 20
270.3850849873058
 30
0.0
 11
1095.90101706767
 21
270.3850849873058
 31
0.0
  0
LINE
  5
233
330
1F
100
AcDbEntity
  8
D-0
  6
Continuous
 62
     3
370
     9
100
AcDbLine
 10
1015.900629411947
 20
280.3848705394594
 30
0.0
 11
1015.900629411947
 21
345.3850849873057
 31
0.0
  0
LINE
  5
234
330
1F
100
AcDbEntity
  8
D-0
  6
Continuous
 62
     3
370
     9
100
AcDbLine
 10
1055.900761379853
 20
240.385233451199
 30
0.0
 11
1095.90101706767
 21
240.385233451199
 31
0.0
  0
LINE
  5
235
330
1F
100
AcDbEntity
  8
D-0
  6
JWW_CENTER1
 62
     3
370
     9
100
AcDbLine
 10
1055.901751139143
 20
255.3850354993412
 30
0.0
 11
1110.900819115811
 21
255.3850354993412
 31
0.0
  0
LINE
  5
236
330
1F
100
AcDbEntity
  8
D-0
  6
Continuous
 62
     3
370
     9
100
AcDbLine
 10
1045.900728387876
 20
280.3848705394594
 30
0.0
 11
1045.900728387876
 21
345.3850849873057
 31
0.0
  0
LINE
  5
237
330
1F
100
AcDbEntity
  8
D-0
  6
Continuous
 62
     3
370
     9
100
AcDbLine
 10
1015.026424518577
 20
345.3850849873057
 30
0.0
 11
1046.776170480359
 21
345.3850849873057
 31
0.0
  0
LINE
  5
238
330
1F
100
AcDbEntity
  8
D-0
  6
JWW_CENTER1
 62
     3
370
     9
100
AcDbLine
 10
1030.901297499469
 20
280.3848705394594
 30
0.0
 11
1030.901297499469
 21
355.3846230996364
 31
0.0
  0
LINE
  5
239
330
1F
100
AcDbEntity
  8
D-0
  6
Continuous
 62
     3
370
     9
100
AcDbLine
 10
1042.701455201116
 20
345.3850849873057
 30
0.0
 11
1042.701455201116
 21
355.3846230996364
 31
0.0
  0
LINE
  5
23A
330
1F
100
AcDbEntity
  8
D-0
  6
Continuous
 62
     3
370
     9
100
AcDbLine
 10
1019.10188211729
 20
345.3850849873057
 30
0.0
 11
1019.10188211729
 21
355.3846230996364
 31
0.0
  0
LINE
  5
23B
330
1F
100
AcDbEntity
  8
D-0
  6
Continuous
 62
     3
370
     9
100
AcDbLine
 10
1015.026424518577
 20
345.3850849873057
 30
0.0
 11
1015.026424518577
 21
355.3846230996364
 31
0.0
  0
LINE
  5
23C
330
1F
100
AcDbEntity
  8
D-0
  6
Continuous
 62
     3
370
     9
100
AcDbLine
 10
1046.776170480359
 20
345.3850849873057
 30
0.0
 11
1046.776170480359
 21
355.3846230996364
 31
0.0
  0
LINE
  5
23D
330
1F
100
AcDbEntity
  8
D-0
  6
Continuous
 62
     3
370
     9
100
AcDbLine
 10
1057.991875320942
 20
357.1394663217651
 30
0.0
 11
1114.477190592268
 21
404.5360694678797
 31
0.0
  0
LINE
  5
23E
330
1F
100
AcDbEntity
  8
D-0
  6
Continuous
 62
     3
370
     9
100
AcDbLine
 10
1053.171005256542
 20
355.3846230996364
 30
0.0
 11
1012.160452772906
 21
355.3846230996364
 31
0.0
  0
LINE
  5
23F
330
1F
100
AcDbEntity
  8
D-0
  6
Continuous
 62
     3
370
     9
100
AcDbLine
 10
1158.321671364545
 20
430.3848705394594
 30
0.0
 11
930.9015861792614
 21
430.3848705394594
 31
0.0
  0
LINE
  5
240
330
1F
100
AcDbEntity
  8
D-0
  6
Continuous
 62
     3
370
     9
100
AcDbLine
 10
773.5277557448228
 20
736.7940568253549
 30
0.0
 11
757.5472259596665
 21
730.9829325907684
 31
0.0
  0
LINE
  5
241
330
1F
100
AcDbEntity
  8
D-0
  6
Continuous
 62
     3
370
     9
100
AcDbLine
 10
783.4014707073442
 20
750.8909509607013
 30
0.0
 11
783.4014707073442
 21
930.3847880595183
 31
0.0
  0
LINE
  5
242
330
1F
100
AcDbEntity
  8
D-0
  6
Continuous
 62
     3
370
     9
100
AcDbLine
 10
670.9019655869895
 20
730.3841282199912
 30
0.0
 11
670.9019655869895
 21
770.3842601878969
 31
0.0
  0
LINE
  5
243
330
1F
100
AcDbEntity
  8
D-0
  6
Continuous
 62
     3
370
     9
100
AcDbLine
 10
640.9021140508833
 20
730.3841282199912
 30
0.0
 11
640.9021140508833
 21
770.3842601878969
 31
0.0
  0
LINE
  5
244
330
1F
100
AcDbEntity
  8
D-0
  6
JWW_CENTER1
 62
     3
370
     9
100
AcDbLine
 10
655.9019160990249
 20
730.3851179792819
 30
0.0
 11
655.9019160990249
 21
785.3840622360385
 31
0.0
  0
LINE
  5
245
330
1F
100
AcDbEntity
  8
D-0
  6
Continuous
 62
     3
370
     9
100
AcDbLine
 10
680.9017511391431
 20
720.3838477881923
 30
0.0
 11
745.901841867078
 21
720.3838477881924
 31
0.0
  0
LINE
  5
246
330
1F
100
AcDbEntity
  8
D-0
  6
Continuous
 62
     3
370
     9
100
AcDbLine
 10
745.901841867078
 20
717.1846983213429
 30
0.0
 11
755.9016274192322
 21
717.1846983213429
 31
0.0
  0
LINE
  5
247
330
1F
100
AcDbEntity
  8
D-0
  6
Continuous
 62
     3
370
     9
100
AcDbLine
 10
745.901841867078
 20
721.2595373204981
 30
0.0
 11
755.9016274192322
 21
721.2595373204981
 31
0.0
  0
LINE
  5
248
330
1F
100
AcDbEntity
  8
D-0
  6
Continuous
 62
     3
370
     9
100
AcDbLine
 10
670.9019655869895
 20
770.3842601878969
 30
0.0
 11
640.9021140508833
 21
770.3842601878969
 31
0.0
  0
LINE
  5
249
330
1F
100
AcDbEntity
  8
D-0
  6
Continuous
 62
     3
370
     9
100
AcDbLine
 10
780.5602429439364
 20
365.0228990709203
 30
0.0
 11
777.3765584660009
 21
364.9580698373901
 31
0.0
  0
LINE
  5
24A
330
1F
100
AcDbEntity
  8
D-0
  6
Continuous
 62
     3
370
     9
100
AcDbLine
 10
774.2484242282478
 20
674.9585977090117
 30
0.0
 11
771.064616030402
 21
674.8937684754815
 31
0.0
  0
LINE
  5
24B
330
1F
100
AcDbEntity
  8
D-0
  6
Continuous
 62
     3
370
     9
100
AcDbLine
 10
794.5362627259254
 20
658.6070319098143
 30
0.0
 11
793.6006927565415
 21
661.3724193675846
 31
0.0
  0
LINE
  5
24C
330
1F
100
AcDbEntity
  8
D-0
  6
Continuous
 62
     3
370
     9
100
AcDbLine
 10
804.2123969900723
 20
651.8138190191893
 30
0.0
 11
830.9016274192322
 21
652.3574443095184
 31
0.0
  0
LINE
  5
24D
330
1F
100
AcDbEntity
  8
D-0
  6
Continuous
 62
     3
370
     9
100
AcDbLine
 10
1075.651655462412
 20
378.8941280880234
 30
0.0
 11
1108.998749199215
 21
406.8756129908953
 31
0.0
  0
LINE
  5
24E
330
1F
100
AcDbEntity
  8
D-0
  6
Continuous
 62
     3
370
     9
100
AcDbLine
 10
922.9293225337801
 20
372.0543965107432
 30
0.0
 11
1066.413489684329
 21
375.4317026498901
 31
0.0
  0
LINE
  5
24F
330
1F
100
AcDbEntity
  8
D-0
  6
Continuous
 62
     3
370
     9
100
AcDbLine
 10
890.7172352634041
 20
363.9376280088427
 30
0.0
 11
841.0988699498483
 21
338.7232626425
 31
0.0
  0
LINE
  5
250
330
1F
100
AcDbEntity
  8
D-0
  6
Continuous
 62
     3
370
     9
100
AcDbLine
 10
1004.781426102192
 20
361.5429054053797
 30
0.0
 11
1002.529476276389
 21
373.9280108477365
 31
0.0
  0
LINE
  5
251
330
1F
100
AcDbEntity
  8
D-0
  6
Continuous
 62
     3
370
     9
100
AcDbLine
 10
810.9015614352791
 20
727.8087745460049
 30
0.0
 11
810.9015614352791
 21
866.0469700168662
 31
0.0
  0
LINE
  5
252
330
1F
100
AcDbEntity
  8
D-0
  6
Continuous
 62
     3
370
     9
100
AcDbLine
 10
800.8107180283957
 20
384.3843228726521
 30
0.0
 11
799.3433998801697
 21
379.3855435757771
 31
0.0
  0
LINE
  5
253
330
1F
100
AcDbEntity
  8
D-0
  6
Continuous
 62
     3
370
     9
100
AcDbLine
 10
802.2673962642489
 20
387.378344726537
 30
0.0
 11
796.8200085689364
 21
654.8605455552955
 31
0.0
  0
LINE
  5
254
330
1F
100
AcDbEntity
  8
D-0
  6
Continuous
 62
     3
370
     9
100
AcDbLine
 10
1058.859151899278
 20
395.3048320048307
 30
0.0
 11
810.2556197782906
 21
391.5665111644594
 31
0.0
  0
LINE
  5
255
330
1F
100
AcDbEntity
  8
D-0
  6
Continuous
 62
     3
370
     9
100
AcDbLine
 10
1068.275350629747
 20
398.8122914906838
 30
0.0
 11
1101.719317057112
 21
426.875431535025
 31
0.0
  0
LINE
  5
256
330
1F
100
AcDbEntity
  8
D-0
  6
Continuous
 62
     3
370
     9
100
AcDbLine
 10
703.0227475628129
 20
343.4397131017479
 30
0.0
 11
703.2771157004822
 21
330.942517419738
 31
0.0
  0
LINE
  5
257
330
1F
100
AcDbEntity
  8
D-0
  6
Continuous
 62
     3
370
     9
100
AcDbLine
 10
819.4655774165926
 20
333.308537003775
 30
0.0
 11
703.2771157004822
 21
330.942517419738
 31
0.0
  0
LINE
  5
258
330
1F
100
AcDbEntity
  8
D-0
  6
Continuous
 62
     3
370
     9
100
AcDbLine
 10
670.9015944272556
 20
692.8583944784377
 30
0.0
 11
695.8964806709207
 21
693.367130753775
 31
0.0
  0
LINE
  5
259
330
1F
100
AcDbEntity
  8
D-0
  6
Continuous
 62
     3
370
     9
100
AcDbLine
 10
695.6419888133405
 20
705.8645738756079
 30
0.0
 11
695.8964806709207
 21
693.367130753775
 31
0.0
  0
LINE
  5
25A
330
1F
100
AcDbEntity
  8
D-0
  6
Continuous
 62
     3
370
     9
100
AcDbLine
 10
791.3086576794728
 20
707.8126675992148
 30
0.0
 11
695.6419888133405
 21
705.8645738756079
 31
0.0
  0
LINE
  5
25B
330
1F
100
AcDbEntity
  8
D-0
  6
Continuous
 62
     3
370
     9
100
AcDbLine
 10
751.7243483335056
 20
658.6330130911908
 30
0.0
 11
752.2814590941687
 21
660.5311239706252
 31
0.0
  0
LINE
  5
25C
330
1F
100
AcDbEntity
  8
D-0
  6
Continuous
 62
     3
370
     9
100
AcDbLine
 10
757.3903491121166
 20
380.417615075988
 30
0.0
 11
758.0242899377072
 21
378.5442481788172
 31
0.0
  0
LINE
  5
25D
330
1F
100
AcDbEntity
  8
D-0
  6
Continuous
 62
     3
370
     9
100
AcDbLine
 10
754.9020942556973
 20
380.2891938080401
 30
0.0
 11
749.2330004793041
 21
658.660231471681
 31
0.0
  0
LINE
  5
25E
330
1F
100
AcDbEntity
  8
D-0
  6
Continuous
 62
     3
370
     9
100
AcDbLine
 10
745.901841867078
 20
706.8882324218497
 30
0.0
 11
745.901841867078
 21
721.2595373204981
 31
0.0
  0
LINE
  5
25F
330
1F
100
AcDbEntity
  8
D-0
  6
Continuous
 62
     3
370
     9
100
AcDbLine
 10
755.9016274192322
 20
728.6334914748481
 30
0.0
 11
755.9016274192322
 21
707.091627956056
 31
0.0
  0
LINE
  5
260
330
1F
100
AcDbEntity
  8
D-3
  6
Continuous
 62
     4
370
     9
100
AcDbLine
 10
695.6419888133405
 20
705.8645738756079
 30
0.0
 11
695.5911399297895
 21
708.3639635240454
 31
0.0
  0
LINE
  5
261
330
1F
100
AcDbEntity
  8
D-0
  6
Continuous
 62
     3
370
     9
100
AcDbLine
 10
678.0278613191479
 20
342.9307293865875
 30
0.0
 11
703.0227475628129
 21
343.4397131017479
 31
0.0
  0
LINE
  5
262
330
1F
100
AcDbEntity
  8
D-3
  6
Continuous
 62
     4
370
     9
100
AcDbLine
 10
703.2771157004822
 20
330.942517419738
 30
0.0
 11
703.3280883039447
 21
328.4428803314776
 31
0.0
  0
ARC
  5
263
330
1F
100
AcDbEntity
  8
D-2
  6
Continuous
 62
     6
370
     9
100
AcDbCircle
 10
920.9015531872853
 20
729.6299316405997
 30
0.0
 40
42.50000103099926
100
AcDbArc
 50
180.0
 51
267.79736328125
  0
ARC
  5
264
330
1F
100
AcDbEntity
  8
D-2
  6
Continuous
 62
     6
370
     9
100
AcDbCircle
 10
1010.476129900229
 20
658.6349926097721
 30
0.0
 40
25.00000128874908
100
AcDbArc
 50
44.99989318847656
 51
87.79737854003906
  0
ARC
  5
265
330
1F
100
AcDbEntity
  8
D-2
  6
Continuous
 62
     6
370
     9
100
AcDbCircle
 10
863.4014872033322
 20
717.8639206344762
 30
0.0
 40
15.00000019331236
100
AcDbArc
 50
0.0
 51
63.89326477050782
  0
ARC
  5
266
330
1F
100
AcDbEntity
  8
D-2
  6
Continuous
 62
     6
370
     9
100
AcDbCircle
 10
1151.082077033885
 20
515.3846560916131
 30
0.0
 40
15.00000019331236
100
AcDbArc
 50
136.500015258789
 51
270.0
  0
ARC
  5
267
330
1F
100
AcDbEntity
  8
D-2
  6
Continuous
 62
     6
370
     9
100
AcDbCircle
 10
1060.178006153924
 20
515.3846560916131
 30
0.0
 40
15.00000019331236
100
AcDbArc
 50
270.0003356933594
 51
313.5004577636719
  0
ARC
  5
268
330
1F
100
AcDbEntity
  8
D-2
  6
Continuous
 62
     6
370
     9
100
AcDbCircle
 10
1027.051133859266
 20
515.384656091613
 30
0.0
 40
15.00000019331236
100
AcDbArc
 50
136.500015258789
 51
269.9996643066406
  0
ARC
  5
269
330
1F
100
AcDbEntity
  8
D-2
  6
Continuous
 62
     6
370
     9
100
AcDbCircle
 10
915.9017841311197
 20
659.6611255542398
 30
0.0
 40
15.00000019331236
100
AcDbArc
 50
136.4995422363282
 51
179.9996643066406
  0
ARC
  5
26A
330
1F
100
AcDbEntity
  8
D-2
  6
Continuous
 62
     6
370
     9
100
AcDbCircle
 10
915.9017841311197
 20
626.5341295396704
 30
0.0
 40
15.00000019331236
100
AcDbArc
 50
180.0003356933594
 51
313.4999847412109
  0
ARC
  5
26B
330
1F
100
AcDbEntity
  8
D-2
  6
Continuous
 62
     6
370
     9
100
AcDbCircle
 10
1190.878937187496
 20
515.3846560916131
 30
0.0
 40
15.00000019331236
100
AcDbArc
 50
270.0
 51
310.1397247314453
  0
ARC
  5
26C
330
1F
100
AcDbEntity
  8
D-2
  6
Continuous
 62
     4
370
     9
100
AcDbCircle
 10
873.9019672365885
 20
760.3849695153888
 30
0.0
 40
50.00000644374538
100
AcDbArc
 50
2.745620727539063
 51
36.869873046875
  0
ARC
  5
26D
330
1F
100
AcDbEntity
  8
D-2
  6
Continuous
 62
     4
370
     9
100
AcDbCircle
 10
873.9019672365885
 20
760.3849695153888
 30
0.0
 40
50.00000644374538
100
AcDbArc
 50
323.130126953125
 51
357.2543792724609
  0
ARC
  5
26E
330
1F
100
AcDbEntity
  8
D-0
  6
Continuous
 62
     3
370
     9
100
AcDbCircle
 10
930.9015861792614
 20
495.3848375474828
 30
0.0
 40
100.0000051549963
100
AcDbArc
 50
180.0
 51
270.0
  0
ARC
  5
26F
330
1F
100
AcDbEntity
  8
D-0
  6
Continuous
 62
     3
370
     9
100
AcDbCircle
 10
930.9015861792614
 20
530.3847055795776
 30
0.0
 40
100.0000051549963
100
AcDbArc
 50
180.0
 51
270.0
  0
ARC
  5
270
330
1F
100
AcDbEntity
  8
D-0
  6
Continuous
 62
     3
370
     9
100
AcDbCircle
 10
1280.036948959033
 20
385.3847220755657
 30
0.0
 40
25.00000128874908
100
AcDbArc
 50
10.30488586425781
 51
90.0
  0
ARC
  5
271
330
1F
100
AcDbEntity
  8
D-0
  6
Continuous
 62
     3
370
     9
100
AcDbCircle
 10
820.9015944272556
 20
920.3845076277194
 30
0.0
 40
10.00000012887491
100
AcDbArc
 50
0.0
 51
90.0
  0
ARC
  5
272
330
1F
100
AcDbEntity
  8
D-0
  6
Continuous
 62
     3
370
     9
100
AcDbCircle
 10
1320.901388227403
 20
420.3848375474829
 30
0.0
 40
10.00000012887491
100
AcDbArc
 50
0.0
 51
90.0
  0
ARC
  5
273
330
1F
100
AcDbEntity
  8
D-0
  6
Continuous
 62
     3
370
     9
100
AcDbCircle
 10
1118.640489328016
 20
395.3850025073646
 30
0.0
 40
15.00000019331236
100
AcDbArc
 50
90.0
 51
130.0000305175781
  0
ARC
  5
274
330
1F
100
AcDbEntity
  8
D-0
  6
Continuous
 62
     3
370
     9
100
AcDbCircle
 10
1111.361180905824
 20
415.3848210514948
 30
0.0
 40
15.00000019331236
100
AcDbArc
 50
90.0
 51
130.0000305175781
  0
ARC
  5
275
330
1F
100
AcDbEntity
  8
D-0
  6
Continuous
 62
     3
370
     9
100
AcDbCircle
 10
1130.546674993662
 20
385.3847220755656
 30
0.0
 40
25.00000128874908
100
AcDbArc
 50
90.0
 51
129.9999542236328
  0
ARC
  5
276
330
1F
100
AcDbEntity
  8
D-0
  6
Continuous
 62
     3
370
     9
100
AcDbCircle
 10
850.9016934031843
 20
866.2889661634038
 30
0.0
 40
20.00000025774982
100
AcDbArc
 50
180.0
 51
305.0001373291016
  0
ARC
  5
277
330
1F
100
AcDbEntity
  8
D-0
  6
Continuous
 62
     3
370
     9
100
AcDbCircle
 10
1266.805599323264
 20
450.3849365234121
 30
0.0
 40
20.00000025774982
100
AcDbArc
 50
145.0000152587891
 51
270.0
  0
ARC
  5
278
330
1F
100
AcDbEntity
  8
D-0
  6
Continuous
 62
     3
370
     9
100
AcDbCircle
 10
1158.321671364545
 20
480.3847880595183
 30
0.0
 40
50.00000257749815
100
AcDbArc
 50
270.0
 51
310.0000610351562
  0
ARC
  5
279
330
1F
100
AcDbEntity
  8
D-0
  6
Continuous
 62
     3
370
     9
100
AcDbCircle
 10
1093.867680325166
 20
480.3847880595183
 30
0.0
 40
50.00000257749815
100
AcDbArc
 50
270.0
 51
310.0000610351562
  0
ARC
  5
27A
330
1F
100
AcDbEntity
  8
D-0
  6
Continuous
 62
     3
370
     9
100
AcDbCircle
 10
1194.895627828332
 20
465.3847385715537
 30
0.0
 40
15.00000019331236
100
AcDbArc
 50
270.0
 51
310.0000305175782
  0
ARC
  5
27B
330
1F
100
AcDbEntity
  8
D-0
  6
Continuous
 62
     3
370
     9
100
AcDbCircle
 10
785.9016026752499
 20
866.0469700168662
 30
0.0
 40
25.00000128874908
100
AcDbArc
 50
0.0
 51
42.99986267089844
  0
ARC
  5
27C
330
1F
100
AcDbEntity
  8
D-0
  6
Continuous
 62
     3
370
     9
100
AcDbCircle
 10
1013.851456520795
 20
437.7162650443156
 30
0.0
 40
7.331498893531593
100
AcDbArc
 50
180.0
 51
309.9999084472656
  0
ARC
  5
27D
330
1F
100
AcDbEntity
  8
D-0
  6
Continuous
 62
     3
370
     9
100
AcDbCircle
 10
865.9016191712379
 20
738.1146431587586
 30
0.0
 40
7.500000096656181
100
AcDbArc
 50
319.9999694824218
 51
0.0
  0
ARC
  5
27E
330
1F
100
AcDbEntity
  8
D-0
  6
Continuous
 62
     3
370
     9
100
AcDbCircle
 10
1058.730854351242
 20
410.3848045555068
 30
0.0
 40
15.00000019331236
100
AcDbArc
 50
270.0
 51
310.0000305175782
  0
ARC
  5
27F
330
1F
100
AcDbEntity
  8
D-2
  6
Continuous
 62
     6
370
     9
100
AcDbCircle
 10
930.9015861792614
 20
530.3847055795776
 30
0.0
 40
52.49999922675055
100
AcDbArc
 50
180.0
 51
270.0
  0
ARC
  5
280
330
1F
100
AcDbEntity
  8
D-2
  6
Continuous
 62
     6
370
     9
100
AcDbCircle
 10
915.963644086778
 20
529.0242814347297
 30
0.0
 40
15.00000019331236
100
AcDbArc
 50
136.500015258789
 51
185.2039794921875
  0
ARC
  5
281
330
1F
100
AcDbEntity
  8
D-2
  6
Continuous
 62
     6
370
     9
100
AcDbCircle
 10
929.5414094742364
 20
515.4465160472719
 30
0.0
 40
15.00000019331236
100
AcDbArc
 50
264.7972869873047
 51
313.4999847412109
  0
ARC
  5
282
330
1F
100
AcDbEntity
  8
D-2
  6
Continuous
 62
     6
370
     9
100
AcDbCircle
 10
930.9015861792614
 20
530.3847055795776
 30
0.0
 40
30.00000038662472
100
AcDbArc
 50
185.2039489746094
 51
264.7973175048828
  0
ARC
  5
283
330
1F
100
AcDbEntity
  8
D-0
  6
Continuous
 62
     3
370
     9
100
AcDbCircle
 10
930.9015861792614
 20
530.3847055795776
 30
0.0
 40
25.00000128874908
100
AcDbArc
 50
180.0
 51
270.0
  0
ARC
  5
284
330
1F
100
AcDbEntity
  8
D-2
  6
Continuous
 62
     6
370
     9
100
AcDbCircle
 10
1118.382904472653
 20
462.8846066036485
 30
0.0
 40
15.00000019331236
100
AcDbArc
 50
10.30552673339844
 51
90.0
  0
ARC
  5
285
330
1F
100
AcDbEntity
  8
D-2
  6
Continuous
 62
     6
370
     9
100
AcDbCircle
 10
920.9015531872853
 20
729.6299316405997
 30
0.0
 40
20.00000025774982
100
AcDbArc
 50
180.0
 51
267.7975769042969
  0
ARC
  5
286
330
1F
100
AcDbEntity
  8
D-0
  6
Continuous
 62
     3
370
     9
100
AcDbCircle
 10
1055.900761379853
 20
280.3848705394594
 30
0.0
 40
10.00000012887491
100
AcDbArc
 50
180.0
 51
270.0
  0
ARC
  5
287
330
1F
100
AcDbEntity
  8
D-0
  6
Continuous
 62
     3
370
     9
100
AcDbCircle
 10
1055.900761379853
 20
280.3848705394594
 30
0.0
 40
40.00000051549964
100
AcDbArc
 50
180.0
 51
270.0
  0
ARC
  5
288
330
1F
100
AcDbEntity
  8
D-0
  6
JWW_CENTER1
 62
     3
370
     9
100
AcDbCircle
 10
1055.901751139143
 20
280.3848705394594
 30
0.0
 40
25.00000128874908
100
AcDbArc
 50
180.0
 51
270.0
  0
ARC
  5
289
330
1F
100
AcDbEntity
  8
D-0
  6
Continuous
 62
     3
370
     9
100
AcDbCircle
 10
1012.160452772906
 20
362.8847715635302
 30
0.0
 40
7.500000096656181
100
AcDbArc
 50
190.3050537109375
 51
270.0
  0
ARC
  5
28A
330
1F
100
AcDbEntity
  8
D-0
  6
Continuous
 62
     3
370
     9
100
AcDbCircle
 10
1053.171005256542
 20
362.8847715635302
 30
0.0
 40
7.500000096656181
100
AcDbArc
 50
270.0
 51
310.0003356933594
  0
ARC
  5
28B
330
1F
100
AcDbEntity
  8
D-0
  6
Continuous
 62
     3
370
     9
100
AcDbCircle
 10
758.401635667226
 20
728.6334914748481
 30
0.0
 40
2.500000032218727
100
AcDbArc
 50
109.9845581054688
 51
180.0
  0
ARC
  5
28C
330
1F
100
AcDbEntity
  8
D-0
  6
Continuous
 62
     3
370
     9
100
AcDbCircle
 10
768.401544939291
 20
750.8909509607013
 30
0.0
 40
15.00000019331236
100
AcDbArc
 50
289.9829406738281
 51
0.0000000000000127
  0
ARC
  5
28D
330
1F
100
AcDbEntity
  8
D-0
  6
Continuous
 62
     3
370
     9
100
AcDbCircle
 10
680.9017511391431
 20
730.3841282199912
 30
0.0
 40
10.00000012887491
100
AcDbArc
 50
180.0
 51
270.0
  0
ARC
  5
28E
330
1F
100
AcDbEntity
  8
D-0
  6
Continuous
 62
     3
370
     9
100
AcDbCircle
 10
776.9692725179436
 20
384.9539293443578
 30
0.0
 40
20.00000025774982
100
AcDbArc
 50
198.6923217773438
 51
271.1668395996094
  0
ARC
  5
28F
330
1F
100
AcDbEntity
  8
D-0
  6
Continuous
 62
     3
370
     9
100
AcDbCircle
 10
780.1529569958791
 20
385.0187585778885
 30
0.0
 40
20.00000025774982
100
AcDbArc
 50
271.1668395996094
 51
343.6408538818359
  0
ARC
  5
290
330
1F
100
AcDbEntity
  8
D-0
  6
Continuous
 62
     3
370
     9
100
AcDbCircle
 10
771.4719019784593
 20
654.8981564083361
 30
0.0
 40
20.00000025774982
100
AcDbArc
 50
91.16683959960938
 51
163.641357421875
  0
ARC
  5
291
330
1F
100
AcDbEntity
  8
D-0
  6
Continuous
 62
     3
370
     9
100
AcDbCircle
 10
774.6555864563942
 20
654.9629856418663
 30
0.0
 40
20.00000025774982
100
AcDbArc
 50
18.69215393066407
 51
91.16683959960938
  0
ARC
  5
292
330
1F
100
AcDbEntity
  8
D-0
  6
Continuous
 62
     3
370
     9
100
AcDbCircle
 10
804.0088777359551
 20
661.8118724925846
 30
0.0
 40
10.00000012887491
100
AcDbArc
 50
198.6928253173828
 51
271.1668243408203
  0
ARC
  5
293
330
1F
100
AcDbEntity
  8
D-0
  6
Continuous
 62
     3
370
     9
100
AcDbCircle
 10
1066.060640497251
 20
390.4275456608698
 30
0.0
 40
15.00000019331236
100
AcDbArc
 50
271.3476257324219
 51
309.9998779296876
  0
ARC
  5
294
330
1F
100
AcDbEntity
  8
D-0
  6
JWW_HOJO
 62
     3
370
     9
100
AcDbCircle
 10
1066.009915333611
 20
390.3847385715536
 30
0.0
 40
15.00000019331236
100
AcDbArc
 50
270.0
 51
310.0000305175782
  0
ARC
  5
295
330
1F
100
AcDbEntity
  8
D-0
  6
Continuous
 62
     3
370
     9
100
AcDbCircle
 10
818.4476099862718
 20
383.2983094911062
 30
0.0
 40
50.00000257749815
100
AcDbArc
 50
271.1665496826171
 51
296.9378967285156
  0
ARC
  5
296
330
1F
100
AcDbEntity
  8
D-0
  6
Continuous
 62
     3
370
     9
100
AcDbCircle
 10
924.6941870687249
 20
297.0751814558442
 30
0.0
 40
75.0
100
AcDbArc
 50
91.34837341308594
 51
116.9380493164062
  0
ARC
  5
297
330
1F
100
AcDbEntity
  8
D-0
  6
Continuous
 62
     3
370
     9
100
AcDbCircle
 10
790.9016191712379
 20
727.8087745460049
 30
0.0
 40
20.00000025774982
100
AcDbArc
 50
271.1664733886719
 51
0.0000000000000127
  0
ARC
  5
298
330
1F
100
AcDbEntity
  8
D-0
  6
Continuous
 62
     3
370
     9
100
AcDbCircle
 10
810.405939470541
 20
381.5677153715964
 30
0.0
 40
10.00000012887491
100
AcDbArc
 50
90.86161804199219
 51
163.6404418945312
  0
ARC
  5
299
330
1F
100
AcDbEntity
  8
D-0
  6
Continuous
 62
     3
370
     9
100
AcDbCircle
 10
1058.633610500947
 20
410.3029019742146
 30
0.0
 40
15.00000019331236
100
AcDbArc
 50
270.8616180419921
 51
310.0001831054688
  0
ARC
  5
29A
330
1F
100
AcDbEntity
  8
D-0
  6
Continuous
 62
     3
370
     9
100
AcDbCircle
 10
680.9017511391431
 20
730.3841282199912
 30
0.0
 40
40.00000051549964
100
AcDbArc
 50
180.0
 51
215.0749969482422
  0
ARC
  5
29B
330
1F
100
AcDbEntity
  8
D-0
  6
JWW_CENTER1
 62
     3
370
     9
100
AcDbCircle
 10
680.9017511391431
 20
730.3851179792819
 30
0.0
 40
25.00000128874908
100
AcDbArc
 50
180.0
 51
244.3717956542969
  0
ARC
  5
29C
330
1F
100
AcDbEntity
  8
D-0
  6
JWW_DASHED2
 62
     3
370
     9
100
AcDbCircle
 10
880.901668659202
 20
757.8049144847721
 30
0.0
 40
50.00000257749815
100
AcDbArc
 50
139.9999389648438
 51
180.0
  0
LINE
  5
29D
330
1F
100
AcDbEntity
  8
D-0
  6
JWW_DASHED2
 62
     3
370
     9
100
AcDbLine
 10
830.9016274192322
 20
757.8049144847721
 30
0.0
 11
830.9016274192322
 21
684.7351925411486
 31
0.0
  0
LINE
  5
29E
330
1F
100
AcDbEntity
  8
D-0
  6
Continuous
 62
     3
370
     9
100
AcDbLine
 10
873.4015201953088
 20
826.6528651491333
 30
0.0
 11
905.9017511391431
 21
865.3848210514948
 31
0.0
  0
LINE
  5
29F
330
1F
100
AcDbEntity
  8
D-0
  6
JWW_DASHED2
 62
     3
370
     9
100
AcDbLine
 10
842.5993450343083
 20
789.9443781672041
 30
0.0
 11
873.4015201953088
 21
826.6528809515206
 31
0.0
  0
LINE
  5
2A0
330
1F
100
AcDbEntity
  8
D-0
  6
Continuous
 62
     3
370
     9
100
AcDbLine
 10
873.4015201953088
 20
826.6528809515206
 30
0.0
 11
873.4015201953088
 21
771.0345320417819
 31
0.0
  0
LINE
  5
2A1
330
1F
100
AcDbEntity
  8
D-0
  6
Continuous
 62
     3
370
     9
100
AcDbLine
 10
873.4015201953088
 20
738.1146431587586
 30
0.0
 11
873.4015201953088
 21
749.7344172297044
 31
0.0
  0
LINE
  5
2A2
330
1F
100
AcDbEntity
  8
D-0
  6
Continuous
 62
     3
370
     9
100
AcDbLine
 10
833.4024958151804
 20
745.385211652929
 30
0.0
 11
833.4024958151804
 21
775.3850773284544
 31
0.0
  0
LINE
  5
2A3
330
1F
100
AcDbEntity
  8
D-0
  6
Continuous
 62
     3
370
     9
100
AcDbLine
 10
828.4025765276942
 20
749.7350976892167
 30
0.0
 11
828.4025765276942
 21
771.0351912921667
 31
0.0
  0
LINE
  5
2A4
330
1F
100
AcDbEntity
  8
D-0
  6
Continuous
 62
     3
370
     9
100
AcDbLine
 10
828.4025765276942
 20
771.0351912921667
 30
0.0
 11
822.2537693997305
 21
760.3847945400853
 31
0.0
  0
LINE
  5
2A5
330
1F
100
AcDbEntity
  8
D-0
  6
Continuous
 62
     3
370
     9
100
AcDbLine
 10
828.4025765276942
 20
749.7350976892167
 30
0.0
 11
822.2537693997305
 21
760.3847945400853
 31
0.0
  0
LINE
  5
2A6
330
1F
100
AcDbEntity
  8
D-0
  6
Continuous
 62
     3
370
     9
100
AcDbLine
 10
840.9020315709421
 20
775.3850773284544
 30
0.0
 11
833.4024958151804
 21
775.3850773284544
 31
0.0
  0
LINE
  5
2A7
330
1F
100
AcDbEntity
  8
D-0
  6
Continuous
 62
     3
370
     9
100
AcDbLine
 10
840.9020315709421
 20
771.0351912921667
 30
0.0
 11
828.4025765276942
 21
771.0351912921667
 31
0.0
  0
LINE
  5
2A8
330
1F
100
AcDbEntity
  8
D-0
  6
Continuous
 62
     3
370
     9
100
AcDbLine
 10
840.9020315709421
 20
745.385211652929
 30
0.0
 11
833.4024958151804
 21
745.385211652929
 31
0.0
  0
LINE
  5
2A9
330
1F
100
AcDbEntity
  8
D-0
  6
Continuous
 62
     3
370
     9
100
AcDbLine
 10
840.9020315709421
 20
749.7350976892167
 30
0.0
 11
828.4025765276942
 21
749.7350976892167
 31
0.0
  0
LINE
  5
2AA
330
1F
100
AcDbEntity
  8
D-0
  6
JWW_CENTER1
 62
     3
370
     9
100
AcDbLine
 10
926.3892735736874
 20
760.3849695153888
 30
0.0
 11
819.025910497831
 21
760.3849695153888
 31
0.0
  0
CIRCLE
  5
2AB
330
1F
100
AcDbEntity
  8
D-6
  6
Continuous
 62
     4
370
     9
100
AcDbCircle
 10
913.4017511391431
 20
872.8849942593711
 30
0.0
 40
7.5
  0
CIRCLE
  5
2AC
330
1F
100
AcDbEntity
  8
D-6
  6
Continuous
 62
     4
370
     9
100
AcDbCircle
 10
1273.401850211728
 20
512.8848705394596
 30
0.0
 40
7.5
  0
LINE
  5
2AD
330
1F
100
AcDbEntity
  8
D-6
  6
JWW_HOJO
 62
     4
370
     9
100
AcDbLine
 10
913.4017511391431
 20
872.8849942593711
 30
0.0
 11
913.4017511391431
 21
897.7514977235312
 31
0.0
  0
LINE
  5
2AE
330
1F
100
AcDbEntity
  8
D-6
  6
JWW_HOJO
 62
     4
370
     9
100
AcDbLine
 10
1273.401850211728
 20
512.8848705394596
 30
0.0
 11
1295.783807752916
 21
512.8848705394596
 31
0.0
  0
LINE
  5
2AF
330
1F
100
AcDbEntity
  8
D-6
  6
Continuous
 62
     4
370
     9
100
AcDbLine
 10
1215.901331353075
 20
520.3848705394596
 30
0.0
 11
1261.535959060421
 21
520.3848705394596
 31
0.0
  0
LINE
  5
2B0
330
1F
100
AcDbEntity
  8
D-6
  6
Continuous
 62
     4
370
     9
100
AcDbLine
 10
1230.901336892775
 20
505.3848705394596
 30
0.0
 11
1273.401850211728
 21
505.3848705394596
 31
0.0
  0
LINE
  5
2B1
330
1F
100
AcDbEntity
  8
D-6
  6
Continuous
 62
     4
370
     9
100
AcDbLine
 10
920.9017511391431
 20
861.0191022006195
 30
0.0
 11
920.9017511391431
 21
815.3843418061592
 31
0.0
  0
LINE
  5
2B2
330
1F
100
AcDbEntity
  8
D-6
  6
Continuous
 62
     4
370
     9
100
AcDbLine
 10
905.9017511391431
 20
872.8849942593711
 30
0.0
 11
905.9017511391431
 21
830.3843362664616
 31
0.0
  0
LINE
  5
2B3
330
1F
100
AcDbEntity
  8
D-A
  6
Continuous
 62
     2
370
     9
100
AcDbLine
 10
1170.265556114248
 20
749.8792106434672
 30
0.0
 11
1166.917487016332
 21
753.2272797413829
 31
0.0
  0
LINE
  5
2B4
330
1F
100
AcDbEntity
  8
D-A
  6
Continuous
 62
     2
370
     9
100
AcDbLine
 10
1175.627531947514
 20
731.3118225086636
 30
0.0
 11
1168.684953610353
 21
709.0337912021985
 31
0.0
  0
LINE
  5
2B5
330
1F
100
AcDbEntity
  8
D-A
  6
Continuous
 62
     2
370
     9
100
AcDbLine
 10
1162.199693639823
 20
704.9126769112197
 30
0.0
 11
1162.674727352077
 21
704.4368558502708
 31
0.0
  0
LINE
  5
2B6
330
1F
100
AcDbEntity
  8
D-A
  6
Continuous
 62
     2
370
     9
100
AcDbLine
 10
1230.744171372898
 20
689.4011202839475
 30
0.0
 11
1234.092765369944
 21
686.0527887364669
 31
0.0
  0
LINE
  5
2B7
330
1F
100
AcDbEntity
  8
D-A
  6
Continuous
 62
     2
370
     9
100
AcDbLine
 10
1212.177176912441
 20
694.7627024428655
 30
0.0
 11
1189.898751931629
 21
687.8199928809221
 31
0.0
  0
LINE
  5
2B8
330
1F
100
AcDbEntity
  8
D-A
  6
Continuous
 62
     2
370
     9
100
AcDbLine
 10
1185.77763764065
 20
681.3344704608276
 30
0.0
 11
1185.302472703614
 21
681.8098978474293
 31
0.0
  0
LINE
  5
2B9
330
1F
100
AcDbEntity
  8
D-A
  6
Continuous
 62
     2
370
     9
100
AcDbLine
 10
1164.088411932772
 20
704.4369870750531
 30
0.0
 11
1173.988796865019
 21
714.336584658606
 31
0.0
  0
LINE
  5
2BA
330
1F
100
AcDbEntity
  8
D-A
  6
Continuous
 62
     2
370
     9
100
AcDbLine
 10
1167.624657368636
 20
700.9015289878837
 30
0.0
 11
1177.524648626536
 21
710.8007328970891
 31
0.0
  0
LINE
  5
2BB
330
1F
100
AcDbEntity
  8
D-A
  6
Continuous
 62
     2
370
     9
100
AcDbLine
 10
1181.766358492532
 20
686.7600903135524
 30
0.0
 11
1191.66621852565
 21
696.6589005484111
 31
0.0
  0
LINE
  5
2BC
330
1F
100
AcDbEntity
  8
D-A
  6
Continuous
 62
     2
370
     9
100
AcDbLine
 10
1185.301291680572
 20
683.2248946759478
 30
0.0
 11
1195.201020488907
 21
693.1240985851534
 31
0.0
  0
LINE
  5
2BD
330
1F
100
AcDbEntity
  8
D-A
  6
Continuous
 62
     2
370
     9
100
AcDbLine
 10
1158.149440731335
 20
701.8914887462391
 30
0.0
 11
1163.381372805251
 21
696.6600815714526
 31
0.0
  0
LINE
  5
2BE
330
1F
100
AcDbEntity
  8
D-A
  6
Continuous
 62
     2
370
     9
100
AcDbLine
 10
1177.523730053059
 20
682.5179867732093
 30
0.0
 11
1182.757236824364
 21
677.2839551027743
 31
0.0
  0
LINE
  5
2BF
330
1F
100
AcDbEntity
  8
D-A
  6
Continuous
 62
     2
370
     9
100
AcDbLine
 10
1195.202332736731
 20
693.1235736860235
 30
0.0
 11
1190.250959247566
 21
698.0749471751883
 31
0.0
  0
LINE
  5
2C0
330
1F
100
AcDbEntity
  8
D-A
  6
Continuous
 62
     2
370
     9
100
AcDbLine
 10
1178.937677083318
 20
709.3877044403064
 30
0.0
 11
1173.988796865019
 21
714.336584658606
 31
0.0
  0
ARC
  5
2C1
330
1F
100
AcDbEntity
  8
D-A
  6
Continuous
 62
     2
370
     9
100
AcDbCircle
 10
1156.123592540787
 20
735.7375095195712
 30
0.0
 40
20.00000025774982
100
AcDbArc
 50
347.2168426513672
 51
45.00035095214843
  0
ARC
  5
2C2
330
1F
100
AcDbEntity
  8
D-A
  6
Continuous
 62
     2
370
     9
100
AcDbCircle
 10
1163.381766479599
 20
705.1436325282269
 30
0.0
 40
6.000000439785622
100
AcDbArc
 50
225.0003509521484
 51
315.0003509521484
  0
ARC
  5
2C3
330
1F
100
AcDbEntity
  8
D-A
  6
Continuous
 62
     2
370
     9
100
AcDbCircle
 10
1163.381766479599
 20
705.1436325282269
 30
0.0
 40
1.000000012887491
100
AcDbArc
 50
225.0003509521484
 51
315.0003509521484
  0
ARC
  5
2C4
330
1F
100
AcDbEntity
  8
D-A
  6
Continuous
 62
     2
370
     9
100
AcDbCircle
 10
1194.643183938964
 20
722.0750413009665
 30
0.0
 40
36.70393969561603
100
AcDbArc
 50
131.6701507568359
 51
207.8788452148438
  0
ARC
  5
2C5
330
1F
100
AcDbEntity
  8
D-A
  6
Continuous
 62
     2
370
     9
100
AcDbCircle
 10
1194.643183938964
 20
722.0750413009665
 30
0.0
 40
41.70394555942433
100
AcDbArc
 50
131.6701507568359
 51
208.9452667236328
  0
ARC
  5
2C6
330
1F
100
AcDbEntity
  8
D-A
  6
Continuous
 62
     2
370
     9
100
AcDbCircle
 10
1216.60286392335
 20
675.259287935269
 30
0.0
 40
20.00000025774982
100
AcDbArc
 50
45.00035095214844
 51
102.7838592529297
  0
ARC
  5
2C7
330
1F
100
AcDbEntity
  8
D-A
  6
Continuous
 62
     2
370
     9
100
AcDbCircle
 10
1186.009118156787
 20
682.5165433006031
 30
0.0
 40
6.000000439785622
100
AcDbArc
 50
135.0003509521484
 51
225.0003509521484
  0
ARC
  5
2C8
330
1F
100
AcDbEntity
  8
D-A
  6
Continuous
 62
     2
370
     9
100
AcDbCircle
 10
1186.009118156787
 20
682.5165433006031
 30
0.0
 40
1.000000012887491
100
AcDbArc
 50
135.0003509521484
 51
225.0003509521484
  0
ARC
  5
2C9
330
1F
100
AcDbEntity
  8
D-A
  6
Continuous
 62
     2
370
     9
100
AcDbCircle
 10
1202.939739580833
 20
713.7792730077928
 30
0.0
 40
36.70393969561603
100
AcDbArc
 50
242.1218566894531
 51
318.3305511474609
  0
ARC
  5
2CA
330
1F
100
AcDbEntity
  8
D-A
  6
Continuous
 62
     2
370
     9
100
AcDbCircle
 10
1202.939739580833
 20
713.7792730077928
 30
0.0
 40
41.70394555942433
100
AcDbArc
 50
241.0554351806641
 51
318.3305511474609
  0
ARC
  5
2CB
330
1F
100
AcDbEntity
  8
D-6
  6
Continuous
 62
     4
370
     9
100
AcDbCircle
 10
600.1948242416665
 20
199.6779897329488
 30
0.0
 40
750.0
100
AcDbArc
 50
24.95001584403451
 51
39.88903969233996
  0
ARC
  5
2CC
330
1F
100
AcDbEntity
  8
D-6
  6
Continuous
 62
     4
370
     9
100
AcDbCircle
 10
600.1948242416665
 20
199.6779897329488
 30
0.0
 40
750.0
100
AcDbArc
 50
41.42136930300786
 51
65.04998023322293
  0
ARC
  5
2CD
330
1F
100
AcDbEntity
  8
D-6
  6
Continuous
 62
     4
370
     9
100
AcDbCircle
 10
600.1948242416665
 20
199.6779897329488
 30
0.0
 40
735.0
100
AcDbArc
 50
24.95001584403446
 51
39.78443937122506
  0
ARC
  5
2CE
330
1F
100
AcDbEntity
  8
D-6
  6
Continuous
 62
     4
370
     9
100
AcDbCircle
 10
600.1948242416665
 20
199.6779897329488
 30
0.0
 40
735.0
100
AcDbArc
 50
41.34823060535577
 51
65.0499802332229
  0
LINE
  5
2CF
330
1F
100
AcDbEntity
  8
D-3
  6
Continuous
 62
     4
370
     9
100
AcDbLine
 10
471.1460055223915
 20
703.7935202016295
 30
0.0
 11
695.5911399297895
 21
708.3639635240454
 31
0.0
  0
LINE
  5
2D0
330
1F
100
AcDbEntity
  8
D-3
  6
Continuous
 62
     4
370
     9
100
AcDbLine
 10
478.8831429819112
 20
323.8722252302649
 30
0.0
 11
703.3280883039447
 21
328.4428803314776
 31
0.0
  0
LINE
  5
2D1
330
1F
100
AcDbEntity
  8
D-D
  6
Continuous
 62
     7
370
     9
100
AcDbLine
 10
470.9933121215124
 20
711.2916089021535
 30
0.0
 11
430.9016274192322
 21
715.3877277260556
 31
0.0
  0
LINE
  5
2D2
330
1F
100
AcDbEntity
  8
D-D
  6
Continuous
 62
     7
370
     9
100
AcDbLine
 10
479.0358486766223
 20
316.3734454994929
 30
0.0
 11
430.9016274192322
 21
309.4659154108106
 31
0.0
  0
LINE
  5
2D3
330
1F
100
AcDbEntity
  8
D-3
  6
Continuous
 62
     4
370
     9
100
AcDbLine
 10
478.6286386437843
 20
336.3699384017026
 30
0.0
 11
703.0735964463645
 21
340.940076013488
 31
0.0
  0
LINE
  5
2D4
330
1F
100
AcDbEntity
  8
D-3
  6
Continuous
 62
     4
370
     9
100
AcDbLine
 10
471.4005247044503
 20
691.295223667011
 30
0.0
 11
695.8455080674582
 21
695.8667678420354
 31
0.0
  0
LINE
  5
2D5
330
1F
100
AcDbEntity
  8
D-0
  6
Continuous
 62
     3
370
     9
100
AcDbLine
 10
640.5419088437213
 20
667.2347907982883
 30
0.0
 11
754.8302129872218
 21
665.9913785367148
 31
0.0
  0
LINE
  5
2D6
330
1F
100
AcDbEntity
  8
D-0
  6
Continuous
 62
     3
370
     9
100
AcDbLine
 10
640.4614667591329
 20
659.8440108787837
 30
0.0
 11
751.7243483335056
 21
658.6330130911908
 31
0.0
  0
LINE
  5
2D7
330
1F
100
AcDbEntity
  8
D-E
  6
Continuous
 62
     7
370
     9
100
AcDbLine
 10
640.5419088437208
 20
667.2347907982883
 30
0.0
 11
640.4614667591329
 21
659.8440108787837
 31
0.0
  0
LINE
  5
2D8
330
1F
100
AcDbEntity
  8
D-E
  6
Continuous
 62
     7
370
     9
100
AcDbLine
 10
646.6502125426598
 20
367.296982868175
 30
0.0
 11
646.2689320264627
 21
374.6783596987868
 31
0.0
  0
LINE
  5
2D9
330
1F
100
AcDbEntity
  8
D-0
  6
Continuous
 62
     3
370
     9
100
AcDbLine
 10
646.2688982573809
 20
374.6790134492624
 30
0.0
 11
757.3903491121166
 21
380.417615075988
 31
0.0
  0
LINE
  5
2DA
330
1F
100
AcDbEntity
  8
D-0
  6
Continuous
 62
     3
370
     9
100
AcDbLine
 10
646.6501905808235
 20
367.2974080370068
 30
0.0
 11
760.7927703932603
 21
373.1923722550422
 31
0.0
  0
LINE
  5
2DB
330
1F
100
AcDbEntity
  8
D-0
  6
Continuous
 62
     3
370
     9
100
AcDbLine
 10
670.9015944272556
 20
692.8583944784377
 30
0.0
 11
671.5808291565196
 21
659.5053042186532
 31
0.0
  0
LINE
  5
2DC
330
1F
100
AcDbEntity
  8
D-0
  6
Continuous
 62
     3
370
     9
100
AcDbLine
 10
677.3486218689976
 20
376.2840514604108
 30
0.0
 11
678.0278613191479
 21
342.9307293865875
 31
0.0
  0
LINE
  5
2DD
330
1F
100
AcDbEntity
  8
D-D
  6
Continuous
 62
     7
370
     9
100
AcDbLine
 10
470.9933121215124
 20
711.2916089021535
 30
0.0
 11
471.9604135937084
 21
663.8015891685415
 31
0.0
  0
LINE
  5
2DE
330
1F
100
AcDbEntity
  8
D-D
  6
Continuous
 62
     7
370
     9
100
AcDbLine
 10
479.0358486766223
 20
316.3734454994929
 30
0.0
 11
478.0687520183091
 21
363.8637819456245
 31
0.0
  0
LINE
  5
2DF
330
1F
100
AcDbEntity
  8
D-D
  6
Continuous
 62
     7
370
     9
100
AcDbLine
 10
460.9716440297467
 20
663.5778003029823
 30
0.0
 11
471.7501996869106
 21
674.1242521662998
 31
0.0
  0
LINE
  5
2E0
330
1F
100
AcDbEntity
  8
D-D
  6
Continuous
 62
     7
370
     9
100
AcDbLine
 10
446.369114487062
 20
663.280416369177
 30
0.0
 11
471.4708549644251
 21
687.8416197484112
 31
0.0
  0
LINE
  5
2E1
330
1F
100
AcDbEntity
  8
D-D
  6
Continuous
 62
     7
370
     9
100
AcDbLine
 10
431.7665849443875
 20
662.9830324353726
 30
0.0
 11
471.1915102419391
 21
701.5589873305129
 31
0.0
  0
LINE
  5
2E2
330
1F
100
AcDbEntity
  8
D-D
  6
Continuous
 62
     7
370
     9
100
AcDbLine
 10
430.9016274192356
 20
676.127397712694
 30
0.0
 11
467.232425748565
 21
711.6758541036482
 31
0.0
  0
LINE
  5
2E3
330
1F
100
AcDbEntity
  8
D-D
  6
Continuous
 62
     7
370
     9
100
AcDbLine
 10
430.9016274192345
 20
690.118094650116
 30
0.0
 11
454.2856881957397
 21
712.9986065844201
 31
0.0
  0
LINE
  5
2E4
330
1F
100
AcDbEntity
  8
D-D
  6
Continuous
 62
     7
370
     9
100
AcDbLine
 10
430.9016274192339
 20
704.1087915875295
 30
0.0
 11
441.3389506429235
 21
714.3213590651919
 31
0.0
  0
LINE
  5
2E5
330
1F
100
AcDbEntity
  8
D-D
  6
Continuous
 62
     7
370
     9
100
AcDbLine
 10
430.9016274192385
 20
663.3256429582755
 30
0.0
 11
431.2472096504166
 21
662.972455235888
 31
0.0
  0
LINE
  5
2E6
330
1F
100
AcDbEntity
  8
D-D
  6
Continuous
 62
     7
370
     9
100
AcDbLine
 10
430.9016274192362
 20
677.6242438125558
 30
0.0
 11
444.9645650672954
 21
663.2518123913263
 31
0.0
  0
LINE
  5
2E7
330
1F
100
AcDbEntity
  8
D-D
  6
Continuous
 62
     7
370
     9
100
AcDbLine
 10
430.9016274192334
 20
691.9228446668461
 30
0.0
 11
458.6819204841834
 21
663.531169546764
 31
0.0
  0
LINE
  5
2E8
330
1F
100
AcDbEntity
  8
D-D
  6
Continuous
 62
     7
370
     9
100
AcDbLine
 10
430.9016274192362
 20
706.221445521121
 30
0.0
 11
471.950899766498
 21
664.2687705916528
 31
0.0
  0
LINE
  5
2E9
330
1F
100
AcDbEntity
  8
D-D
  6
Continuous
 62
     7
370
     9
100
AcDbLine
 10
436.4812112349858
 20
714.817668411588
 30
0.0
 11
471.6535296185776
 21
678.871286045056
 31
0.0
  0
LINE
  5
2EA
330
1F
100
AcDbEntity
  8
D-D
  6
Continuous
 62
     7
370
     9
100
AcDbLine
 10
452.0258894525949
 20
713.2294874825093
 30
0.0
 11
471.3561594706584
 21
693.4738014984491
 31
0.0
  0
LINE
  5
2EB
330
1F
100
AcDbEntity
  8
D-D
  6
Continuous
 62
     7
370
     9
100
AcDbLine
 10
467.5705676702023
 20
711.6413065534407
 30
0.0
 11
471.0587893227489
 21
708.0763169518414
 31
0.0
  0
LINE
  5
2EC
330
1F
100
AcDbEntity
  8
D-D
  6
Continuous
 62
     7
370
     9
100
AcDbLine
 10
430.90162741923
 20
320.1592224554958
 30
0.0
 11
440.0763888947955
 21
310.7825450205428
 31
0.0
  0
LINE
  5
2ED
330
1F
100
AcDbEntity
  8
D-D
  6
Continuous
 62
     7
370
     9
100
AcDbLine
 10
430.9016274192322
 20
334.4578233097806
 30
0.0
 11
452.3444601027171
 21
312.5430818856926
 31
0.0
  0
LINE
  5
2EE
330
1F
100
AcDbEntity
  8
D-D
  6
Continuous
 62
     7
370
     9
100
AcDbLine
 10
430.90162741923
 20
348.7564241640609
 30
0.0
 11
464.6125313106336
 21
314.3036187508381
 31
0.0
  0
LINE
  5
2EF
330
1F
100
AcDbEntity
  8
D-D
  6
Continuous
 62
     7
370
     9
100
AcDbLine
 10
431.0472687698933
 20
362.9061784276222
 30
0.0
 11
476.8806025185552
 21
316.0641556159879
 31
0.0
  0
LINE
  5
2F0
330
1F
100
AcDbEntity
  8
D-D
  6
Continuous
 62
     7
370
     9
100
AcDbLine
 10
444.7646241867716
 20
363.1855355830611
 30
0.0
 11
478.7907232236233
 21
328.4105982849057
 31
0.0
  0
LINE
  5
2F1
330
1F
100
AcDbEntity
  8
D-D
  6
Continuous
 62
     7
370
     9
100
AcDbLine
 10
458.4819796036527
 20
363.4648927385065
 30
0.0
 11
478.4933566126682
 21
343.0131101235028
 31
0.0
  0
LINE
  5
2F2
330
1F
100
AcDbEntity
  8
D-D
  6
Continuous
 62
     7
370
     9
100
AcDbLine
 10
472.1993350205281
 20
363.7442498939484
 30
0.0
 11
478.1959900017182
 21
357.6156219620857
 31
0.0
  0
LINE
  5
2F3
330
1F
100
AcDbEntity
  8
D-D
  6
Continuous
 62
     7
370
     9
100
AcDbLine
 10
477.6927346708391
 20
316.1807011241796
 30
0.0
 11
479.0134575987918
 21
317.4729838035541
 31
0.0
  0
LINE
  5
2F4
330
1F
100
AcDbEntity
  8
D-D
  6
Continuous
 62
     7
370
     9
100
AcDbLine
 10
460.9366174477918
 20
313.7761045426965
 30
0.0
 11
478.734116066164
 21
331.1903545068243
 31
0.0
  0
LINE
  5
2F5
330
1F
100
AcDbEntity
  8
D-D
  6
Continuous
 62
     7
370
     9
100
AcDbLine
 10
444.1805002247384
 20
311.3715079612163
 30
0.0
 11
478.4547745335334
 21
344.907725210101
 31
0.0
  0
LINE
  5
2F6
330
1F
100
AcDbEntity
  8
D-D
  6
Continuous
 62
     7
370
     9
100
AcDbLine
 10
430.9016274192362
 20
312.369277339801
 30
0.0
 11
478.1754330008994
 21
358.6250959133649
 31
0.0
  0
LINE
  5
2F7
330
1F
100
AcDbEntity
  8
D-D
  6
Continuous
 62
     7
370
     9
100
AcDbLine
 10
430.9016274192345
 20
326.3599742772221
 30
0.0
 11
469.0429520986419
 21
363.6799694165684
 31
0.0
  0
LINE
  5
2F8
330
1F
100
AcDbEntity
  8
D-D
  6
Continuous
 62
     7
370
     9
100
AcDbLine
 10
430.9016274192368
 20
340.3506712146387
 30
0.0
 11
454.4404225559646
 21
363.3825854827617
 31
0.0
  0
LINE
  5
2F9
330
1F
100
AcDbEntity
  8
D-D
  6
Continuous
 62
     7
370
     9
100
AcDbLine
 10
430.9016274192339
 20
354.3413681520501
 30
0.0
 11
439.8378930132878
 21
363.0852015489547
 31
0.0
  0
LINE
  5
2FA
330
1F
100
AcDbEntity
  8
D-B
  6
Continuous
 62
     7
370
     9
100
AcDbLine
 10
958.3819232903812
 20
831.741612160811
 30
0.0
 11
958.3819232903812
 21
785.2412360522803
 31
0.0
  0
LINE
  5
2FB
330
1F
100
AcDbEntity
  8
D-B
  6
Continuous
 62
     7
370
     9
100
AcDbLine
 10
961.8824544612011
 20
831.741612160811
 30
0.0
 11
961.8824544612011
 21
785.2412360522803
 31
0.0
  0
LINE
  5
2FC
330
1F
100
AcDbEntity
  8
D-B
  6
Continuous
 62
     7
370
     9
100
AcDbLine
 10
986.8822895013187
 20
806.7417771206929
 30
0.0
 11
986.8822895013187
 21
760.241401012162
 31
0.0
  0
LINE
  5
2FD
330
1F
100
AcDbEntity
  8
D-B
  6
Continuous
 62
     7
370
     9
100
AcDbLine
 10
983.3822532101448
 20
806.7417771206929
 30
0.0
 11
983.3822532101448
 21
760.241401012162
 31
0.0
  0
LINE
  5
2FE
330
1F
100
AcDbEntity
  8
D-B
  6
Continuous
 62
     7
370
     9
100
AcDbLine
 10
961.8824544612011
 20
806.7417771206929
 30
0.0
 11
1008.382088250264
 21
806.7417771206929
 31
0.0
  0
LINE
  5
2FF
330
1F
100
AcDbEntity
  8
D-B
  6
Continuous
 62
     7
370
     9
100
AcDbLine
 10
961.8824544612011
 20
810.2415659720443
 30
0.0
 11
1008.382088250264
 21
810.2415659720443
 31
0.0
  0
LINE
  5
300
330
1F
100
AcDbEntity
  8
D-B
  6
Continuous
 62
     7
370
     9
100
AcDbLine
 10
1008.382088250264
 20
781.7414472009293
 30
0.0
 11
1008.382088250264
 21
759.2528789207349
 31
0.0
  0
LINE
  5
301
330
1F
100
AcDbEntity
  8
D-B
  6
Continuous
 62
     7
370
     9
100
AcDbLine
 10
1011.88237198126
 20
781.7414472009293
 30
0.0
 11
1011.88237198126
 21
762.390663311571
 31
0.0
  0
LINE
  5
302
330
1F
100
AcDbEntity
  8
D-B
  6
Continuous
 62
     7
370
     9
100
AcDbLine
 10
986.8822895013187
 20
781.7414472009293
 30
0.0
 11
1033.270080490551
 21
781.7414472009293
 31
0.0
  0
LINE
  5
303
330
1F
100
AcDbEntity
  8
D-B
  6
Continuous
 62
     7
370
     9
100
AcDbLine
 10
986.8822895013187
 20
785.2412360522803
 30
0.0
 11
1033.382418170027
 21
785.2412360522803
 31
0.0
  0
LINE
  5
304
330
1F
100
AcDbEntity
  8
D-B
  6
Continuous
 62
     7
370
     9
100
AcDbLine
 10
920.9017511391431
 20
831.741612160811
 30
0.0
 11
933.3823356900865
 21
831.741612160811
 31
0.0
  0
LINE
  5
305
330
1F
100
AcDbEntity
  8
D-B
  6
Continuous
 62
     7
370
     9
100
AcDbLine
 10
920.9017511391431
 20
835.241401012162
 30
0.0
 11
933.3823356900865
 21
835.241401012162
 31
0.0
  0
LINE
  5
306
330
1F
100
AcDbEntity
  8
D-B
  6
Continuous
 62
     7
370
     9
100
AcDbLine
 10
926.0445288725532
 20
810.2415659720443
 30
0.0
 11
958.3819232903812
 21
810.2415659720443
 31
0.0
  0
LINE
  5
307
330
1F
100
AcDbEntity
  8
D-B
  6
Continuous
 62
     7
370
     9
100
AcDbLine
 10
929.5443190164235
 20
806.7417771206929
 30
0.0
 11
958.3819232903812
 21
806.7417771206929
 31
0.0
  0
LINE
  5
308
330
1F
100
AcDbEntity
  8
D-B
  6
Continuous
 62
     7
370
     9
100
AcDbLine
 10
933.3823356900865
 20
806.7417771206929
 30
0.0
 11
933.3823356900865
 21
802.9037618644601
 31
0.0
  0
LINE
  5
309
330
1F
100
AcDbEntity
  8
D-B
  6
Continuous
 62
     7
370
     9
100
AcDbLine
 10
936.8821245414375
 20
806.7417771206929
 30
0.0
 11
936.8821245414375
 21
799.4039743056272
 31
0.0
  0
LINE
  5
30A
330
1F
100
AcDbEntity
  8
D-B
  6
Continuous
 62
     7
370
     9
100
AcDbLine
 10
951.0448680252722
 20
785.2412360522803
 30
0.0
 11
983.3822532101448
 21
785.2412360522803
 31
0.0
  0
LINE
  5
30B
330
1F
100
AcDbEntity
  8
D-B
  6
Continuous
 62
     7
370
     9
100
AcDbLine
 10
954.5446581691419
 20
781.7414472009293
 30
0.0
 11
983.3822532101448
 21
781.7414472009293
 31
0.0
  0
LINE
  5
30C
330
1F
100
AcDbEntity
  8
D-B
  6
Continuous
 62
     7
370
     9
100
AcDbLine
 10
958.3819232903812
 20
781.7414472009293
 30
0.0
 11
958.3819232903812
 21
777.9041834968423
 31
0.0
  0
LINE
  5
30D
330
1F
100
AcDbEntity
  8
D-B
  6
Continuous
 62
     7
370
     9
100
AcDbLine
 10
961.8824544612011
 20
781.7414472009293
 30
0.0
 11
961.8824544612011
 21
774.4036536188148
 31
0.0
  0
LINE
  5
30E
330
1F
100
AcDbEntity
  8
D-B
  6
Continuous
 62
     7
370
     9
100
AcDbLine
 10
976.0447122981623
 20
760.241401012162
 30
0.0
 11
1008.382088250264
 21
760.241401012162
 31
0.0
  0
LINE
  5
30F
330
1F
100
AcDbEntity
  8
D-B
  6
Continuous
 62
     7
370
     9
100
AcDbLine
 10
979.544502442032
 20
756.741612160811
 30
0.0
 11
1005.575625781935
 21
756.741612160811
 31
0.0
  0
LINE
  5
310
330
1F
100
AcDbEntity
  8
D-B
  6
Continuous
 62
     7
370
     9
100
AcDbLine
 10
983.3822532101448
 20
756.741612160811
 30
0.0
 11
983.3822532101448
 21
752.9038628100301
 31
0.0
  0
LINE
  5
311
330
1F
100
AcDbEntity
  8
D-B
  6
Continuous
 62
     7
370
     9
100
AcDbLine
 10
986.8822895013187
 20
756.741612160811
 30
0.0
 11
986.8822895013187
 21
749.4038278114657
 31
0.0
  0
LINE
  5
312
330
1F
100
AcDbEntity
  8
D-B
  6
Continuous
 62
     7
370
     9
100
AcDbLine
 10
1011.275154656514
 20
761.841346905321
 30
0.0
 11
991.8368729057931
 21
744.449246236784
 31
0.0
  0
LINE
  5
313
330
1F
100
AcDbEntity
  8
D-B
  6
Continuous
 62
     7
370
     9
100
AcDbLine
 10
920.9017511391431
 20
856.7419420805745
 30
0.0
 11
929.5760054365195
 21
856.7419420805745
 31
0.0
  0
LINE
  5
314
330
1F
100
AcDbEntity
  8
D-B
  6
Continuous
 62
     7
370
     9
100
AcDbLine
 10
933.3823356900865
 20
854.8200218258445
 30
0.0
 11
933.3823356900865
 21
810.2415659720443
 31
0.0
  0
LINE
  5
315
330
1F
100
AcDbEntity
  8
D-B
  6
Continuous
 62
     7
370
     9
100
AcDbLine
 10
936.8821245414375
 20
853.0283259361619
 30
0.0
 11
936.8821245414375
 21
810.2415659720443
 31
0.0
  0
LINE
  5
316
330
1F
100
AcDbEntity
  8
D-B
  6
Continuous
 62
     7
370
     9
100
AcDbLine
 10
958.3819232903812
 20
841.4933853686922
 30
0.0
 11
958.3819232903812
 21
835.241401012162
 31
0.0
  0
LINE
  5
317
330
1F
100
AcDbEntity
  8
D-B
  6
Continuous
 62
     7
370
     9
100
AcDbLine
 10
961.8824544612011
 20
839.5272361544609
 30
0.0
 11
961.8824544612011
 21
835.241401012162
 31
0.0
  0
LINE
  5
318
330
1F
100
AcDbEntity
  8
D-B
  6
Continuous
 62
     7
370
     9
100
AcDbLine
 10
936.8821245414375
 20
835.241401012162
 30
0.0
 11
969.361656775589
 21
835.241401012162
 31
0.0
  0
LINE
  5
319
330
1F
100
AcDbEntity
  8
D-B
  6
Continuous
 62
     7
370
     9
100
AcDbLine
 10
936.8821245414375
 20
831.741612160811
 30
0.0
 11
975.3222388668422
 21
831.741612160811
 31
0.0
  0
LINE
  5
31A
330
1F
100
AcDbEntity
  8
D-B
  6
Continuous
 62
     7
370
     9
100
AcDbLine
 10
983.3822532101448
 20
826.8879978486732
 30
0.0
 11
983.3822532101448
 21
810.2415659720443
 31
0.0
  0
LINE
  5
31B
330
1F
100
AcDbEntity
  8
D-B
  6
Continuous
 62
     7
370
     9
100
AcDbLine
 10
986.8822895013187
 20
824.7362303882215
 30
0.0
 11
986.8822895013187
 21
810.2415659720443
 31
0.0
  0
LINE
  5
31C
330
1F
100
AcDbEntity
  8
D-B
  6
Continuous
 62
     7
370
     9
100
AcDbLine
 10
1008.382088250264
 20
810.9129343337753
 30
0.0
 11
1008.382088250264
 21
785.2412360522803
 31
0.0
  0
LINE
  5
31D
330
1F
100
AcDbEntity
  8
D-B
  6
Continuous
 62
     7
370
     9
100
AcDbLine
 10
1011.88237198126
 20
808.5608709475213
 30
0.0
 11
1011.88237198126
 21
785.2412360522803
 31
0.0
  0
LINE
  5
31E
330
1F
100
AcDbEntity
  8
D-B
  6
Continuous
 62
     7
370
     9
100
AcDbLine
 10
1011.88237198126
 20
806.7417771206929
 30
0.0
 11
1014.560071387765
 21
806.7417771206929
 31
0.0
  0
LINE
  5
31F
330
1F
100
AcDbEntity
  8
D-B
  6
Continuous
 62
     7
370
     9
100
AcDbLine
 10
1033.382418170027
 20
793.4569961541571
 30
0.0
 11
1033.382418170027
 21
781.7414472009293
 31
0.0
  0
LINE
  5
320
330
1F
100
AcDbEntity
  8
D-B
  6
Continuous
 62
     7
370
     9
100
AcDbLine
 10
1036.882207021378
 20
790.8878760855073
 30
0.0
 11
1036.882207021378
 21
785.0096672237944
 31
0.0
  0
LINE
  5
321
330
1F
100
AcDbEntity
  8
D-B
  6
Continuous
 62
     7
370
     9
100
AcDbLine
 10
1040.448908674888
 20
788.2366878590284
 30
0.0
 11
1011.275154656514
 21
761.841346905321
 31
0.0
  0
LINE
  5
322
330
1F
100
AcDbEntity
  8
D-9
  6
Continuous
 62
     7
370
     9
100
AcDbLine
 10
1137.382858082777
 20
670.6611169376818
 30
0.0
 11
1242.033834690646
 21
775.313405793375
 31
0.0
  0
LINE
  5
323
330
1F
100
AcDbEntity
  8
D-9
  6
Continuous
 62
     7
370
     9
100
AcDbLine
 10
1242.033834690646
 20
775.313405793375
 30
0.0
 11
1244.863172223771
 21
775.3130121190277
 31
0.0
  0
LINE
  5
324
330
1F
100
AcDbEntity
  8
D-9
  6
Continuous
 62
     7
370
     9
100
AcDbLine
 10
1244.863172223771
 20
775.3130121190279
 30
0.0
 11
1256.176060713672
 21
764.000123629128
 31
0.0
  0
LINE
  5
325
330
1F
100
AcDbEntity
  8
D-9
  6
Continuous
 62
     7
370
     9
100
AcDbLine
 10
1256.176060713672
 20
764.0001236291279
 30
0.0
 11
1256.176454388019
 21
761.171310995132
 31
0.0
  0
LINE
  5
326
330
1F
100
AcDbEntity
  8
D-9
  6
Continuous
 62
     7
370
     9
100
AcDbLine
 10
1242.033834690646
 20
775.313405793375
 30
0.0
 11
1256.176060713672
 21
761.1717046694793
 31
0.0
  0
LINE
  5
327
330
1F
100
AcDbEntity
  8
D-9
  6
JWW_CENTER1
 62
     7
370
     9
100
AcDbLine
 10
1138.079661677272
 20
657.2158257339333
 30
0.0
 11
1254.631545024934
 21
773.7690213294189
 31
0.0
  0
LINE
  5
328
330
1F
100
AcDbEntity
  8
D-9
  6
Continuous
 62
     7
370
     9
100
AcDbLine
 10
1138.796936337819
 20
669.2470386826398
 30
0.0
 11
1244.863172223771
 21
775.3130121190277
 31
0.0
  0
LINE
  5
329
330
1F
100
AcDbEntity
  8
D-9
  6
Continuous
 62
     7
370
     9
100
AcDbLine
 10
1150.110874625977
 20
657.9338877431752
 30
0.0
 11
1256.176454388019
 21
764.0007797530394
 31
0.0
  0
LINE
  5
32A
330
1F
100
AcDbEntity
  8
D-9
  6
Continuous
 62
     7
370
     9
100
AcDbLine
 10
1151.524690431455
 20
656.5187596898738
 30
0.0
 11
1256.176060713672
 21
761.1717046694793
 31
0.0
  0
LINE
  5
32B
330
1F
100
AcDbEntity
  8
D-9
  6
Continuous
 62
     7
370
     9
100
AcDbLine
 10
1126.775988653483
 20
681.2668053477714
 30
0.0
 11
1162.131356873873
 21
645.911962026511
 31
0.0
  0
LINE
  5
32C
330
1F
100
AcDbEntity
  8
D-9
  6
Continuous
 62
     7
370
     9
100
AcDbLine
 10
1091.420620433093
 20
645.9114371273813
 30
0.0
 11
1126.775988653483
 21
610.5565938061204
 31
0.0
  0
LINE
  5
32D
330
1F
100
AcDbEntity
  8
D-9
  6
Continuous
 62
     7
370
     9
100
AcDbLine
 10
1038.388224226419
 20
592.8779911224485
 30
0.0
 11
1073.743461222027
 21
557.5230165764058
 31
0.0
  0
LINE
  5
32E
330
1F
100
AcDbEntity
  8
D-9
  6
Continuous
 62
     7
370
     9
100
AcDbLine
 10
1126.775988653483
 20
681.2668053477714
 30
0.0
 11
1038.388224226419
 21
592.8779911224485
 31
0.0
  0
LINE
  5
32F
330
1F
100
AcDbEntity
  8
D-9
  6
Continuous
 62
     7
370
     9
100
AcDbLine
 10
1162.131356873873
 20
645.911962026511
 30
0.0
 11
1073.743461222027
 21
557.5230165764058
 31
0.0
  0
LINE
  5
330
330
1F
100
AcDbEntity
  8
D-9
  6
JWW_DASHED2
 62
     7
370
     9
100
AcDbLine
 10
1125.008259609898
 20
679.4990763041867
 30
0.0
 11
1160.363496605506
 21
644.1441017581438
 31
0.0
  0
LINE
  5
331
330
1F
100
AcDbEntity
  8
D-9
  6
JWW_DASHED2
 62
     7
370
     9
100
AcDbLine
 10
1093.188218251895
 20
647.6790349461834
 30
0.0
 11
1128.54384892185
 21
612.3244540744877
 31
0.0
  0
LINE
  5
332
330
1F
100
AcDbEntity
  8
D-9
  6
JWW_DASHED2
 62
     7
370
     9
100
AcDbLine
 10
1040.15569082044
 20
594.6454577164686
 30
0.0
 11
1075.512108839089
 21
559.2906143952084
 31
0.0
  0
LINE
  5
333
330
1F
100
AcDbEntity
  8
D-9
  6
Continuous
 62
     7
370
     9
100
AcDbLine
 10
1074.507845687081
 20
628.9986294735264
 30
0.0
 11
1109.8637388066
 21
593.643261253136
 31
0.0
  0
LINE
  5
334
330
1F
100
AcDbEntity
  8
D-9
  6
Continuous
 62
     7
370
     9
100
AcDbLine
 10
1074.063781023472
 20
628.5545648099167
 30
0.0
 11
1109.419411693426
 21
593.1989341399617
 31
0.0
  0
LINE
  5
335
330
1F
100
AcDbEntity
  8
D-2
  6
Continuous
 62
     6
370
     9
100
AcDbLine
 10
1073.288357716424
 20
631.1780801308864
 30
0.0
 11
939.8667021130666
 21
504.565844726537
 31
0.0
  0
LINE
  5
336
330
1F
100
AcDbEntity
  8
D-2
  6
Continuous
 62
     6
370
     9
100
AcDbLine
 10
1028.153725708928
 20
676.3125884184716
 30
0.0
 11
1074.988071262461
 21
629.4782728618223
 31
0.0
  0
LINE
  5
337
330
1F
100
AcDbEntity
  8
D-2
  6
Continuous
 62
     6
370
     9
100
AcDbLine
 10
1110.343188356604
 20
594.1231784122446
 30
0.0
 11
1221.318489288426
 21
483.147948558885
 31
0.0
  0
LINE
  5
338
330
1F
100
AcDbEntity
  8
D-2
  6
Continuous
 62
     6
370
     9
100
AcDbLine
 10
1016.170586258442
 20
525.7100724503547
 30
0.0
 11
1059.693087534586
 21
571.5732859648863
 31
0.0
  0
LINE
  5
339
330
1F
100
AcDbEntity
  8
D-2
  6
Continuous
 62
     6
370
     9
100
AcDbLine
 10
1126.252994882534
 20
610.0331739016879
 30
0.0
 11
1235.90160267525
 21
500.3846066036485
 31
0.0
  0
LINE
  5
33A
330
1F
100
AcDbEntity
  8
D-2
  6
Continuous
 62
     6
370
     9
100
AcDbLine
 10
900.9016109232437
 20
835.3844746357433
 30
0.0
 11
1090.897882581951
 21
645.3882731451622
 31
0.0
  0
LINE
  5
33B
330
1F
100
AcDbEntity
  8
D-6
  6
Continuous
 62
     6
370
     9
100
AcDbLine
 10
430.9016274192322
 20
1152.953298080743
 30
0.0
 11
430.9016274192322
 21
662.9654173728138
 31
0.0
  0
LINE
  5
33C
330
1F
100
AcDbEntity
  8
D-D
  6
Continuous
 62
     7
370
     9
100
AcDbLine
 10
830.9016274192322
 20
920.3845076277194
 30
0.0
 11
830.9016274192322
 21
1152.953298080743
 31
0.0
  0
LINE
  5
33D
330
1F
100
AcDbEntity
  8
D-D
  6
Continuous
 62
     7
370
     9
100
AcDbLine
 10
840.9016274192322
 20
848.9684958861108
 30
0.0
 11
840.9016274192322
 21
1152.953298080743
 31
0.0
  0
LINE
  5
33E
330
1F
100
AcDbEntity
  8
D-6
  6
Continuous
 62
     6
370
     9
100
AcDbLine
 10
744.0762268080294
 20
1152.953298080743
 30
0.0
 11
430.9016274192322
 21
839.7786986919459
 31
0.0
  0
LINE
  5
33F
330
1F
100
AcDbEntity
  8
D-6
  6
Continuous
 62
     6
370
     9
100
AcDbLine
 10
765.289430243626
 20
1152.953298080743
 30
0.0
 11
430.9016274192322
 21
818.5654952563492
 31
0.0
  0
LINE
  5
340
330
1F
100
AcDbEntity
  8
D-6
  6
Continuous
 62
     6
370
     9
100
AcDbLine
 10
786.5026336792221
 20
1152.953298080743
 30
0.0
 11
430.9016274192322
 21
797.3522918207532
 31
0.0
  0
LINE
  5
341
330
1F
100
AcDbEntity
  8
D-D
  6
Continuous
 62
     7
370
     9
100
AcDbLine
 10
1249.485148019701
 20
440.3848376763578
 30
0.0
 11
1556.036278781449
 21
440.3848376763578
 31
0.0
  0
LINE
  5
342
330
1F
100
AcDbEntity
  8
D-D
  6
Continuous
 62
     7
370
     9
100
AcDbLine
 10
1320.901388227403
 20
430.3848376763578
 30
0.0
 11
1556.036278781449
 21
430.3848376763578
 31
0.0
  0
LINE
  5
343
330
1F
100
AcDbEntity
  8
D-3
  6
Continuous
 62
     4
370
     9
100
AcDbLine
 10
335.6575978411672
 20
539.351545871069
 30
0.0
 11
255.6582081927297
 21
479.3493486054431
 31
0.0
  0
LINE
  5
344
330
1F
100
AcDbEntity
  8
D-3
  6
Continuous
 62
     4
370
     9
100
AcDbLine
 10
335.6575978411672
 20
539.3515458710691
 30
0.0
 11
296.5298079756184
 21
539.3515458710691
 31
0.0
  0
LINE
  5
345
330
1F
100
AcDbEntity
  8
D-3
  6
Continuous
 62
     4
370
     9
100
AcDbLine
 10
297.8904141758505
 20
382.6990732731003
 30
0.0
 11
754.6635730327455
 21
392.0013656218922
 31
0.0
  0
LINE
  5
346
330
1F
100
AcDbEntity
  8
D-3
  6
Continuous
 62
     4
370
     9
100
AcDbLine
 10
298.0858440439749
 20
360.1983878757258
 30
0.0
 11
646.6502125426598
 21
367.2969828681751
 31
0.0
  0
LINE
  5
347
330
1F
100
AcDbEntity
  8
D-3
  6
Continuous
 62
     4
370
     9
100
AcDbLine
 10
295.4801124689857
 20
660.2075265073875
 30
0.0
 11
640.5419088437208
 21
667.2347907982883
 31
0.0
  0
LINE
  5
348
330
1F
100
AcDbEntity
  8
D-3
  6
Continuous
 62
     4
370
     9
100
AcDbLine
 10
295.6755423371101
 20
637.7068411100128
 30
0.0
 11
749.4715126873808
 21
646.9485023176592
 31
0.0
  0
LINE
  5
349
330
1F
100
AcDbEntity
  8
D-6
  6
Continuous
 62
     6
370
     9
100
AcDbLine
 10
1030.901627419232
 20
-169.6151623236422
 30
0.0
 11
1556.036278781449
 21
-169.6151623236422
 31
0.0
  0
LINE
  5
34A
330
1F
100
AcDbEntity
  8
D-6
  6
Continuous
 62
     6
370
     9
100
AcDbLine
 10
730.1220792526135
 20
331.4891784957086
 30
0.0
 11
430.9016274192322
 21
32.26872666232737
 31
0.0
  0
LINE
  5
34B
330
1F
100
AcDbEntity
  8
D-6
  6
Continuous
 62
     6
370
     9
100
AcDbLine
 10
751.7762401464108
 20
331.9301359539096
 30
0.0
 11
430.9016274192322
 21
11.0555232267297
 31
0.0
  0
LINE
  5
34C
330
1F
100
AcDbEntity
  8
D-6
  6
Continuous
 62
     6
370
     9
100
AcDbLine
 10
773.4304010402082
 20
332.3710934121106
 30
0.0
 11
430.9016274192322
 21
-10.15768020886512
 31
0.0
  0
LINE
  5
34D
330
1F
100
AcDbEntity
  8
D-6
  6
Continuous
 62
     6
370
     9
100
AcDbLine
 10
1556.036278781449
 20
281.6238297286049
 30
0.0
 11
1104.797286729202
 21
-169.6151623236422
 31
0.0
  0
LINE
  5
34E
330
1F
100
AcDbEntity
  8
D-6
  6
Continuous
 62
     6
370
     9
100
AcDbLine
 10
1556.036278781449
 20
260.4106262930083
 30
0.0
 11
1126.010490164799
 21
-169.6151623236422
 31
0.0
  0
LINE
  5
34F
330
1F
100
AcDbEntity
  8
D-6
  6
Continuous
 62
     6
370
     9
100
AcDbLine
 10
1556.036278781449
 20
239.1974228574128
 30
0.0
 11
1147.223693600394
 21
-169.6151623236422
 31
0.0
  0
TEXT
  5
350
330
1F
100
AcDbEntity
  8
D-5
  6
Continuous
 62
     2
370
     9
100
AcDbText
 10
1155.263172772772
 20
-393.4182172564106
 30
0.0
 40
30.48
  1
スラブコンクリート
 41
1.111111111111111
  7
ＭＳ ゴシック
100
AcDbText
  0
LINE
  5
351
330
1F
100
AcDbEntity
  8
D-5
  6
Continuous
 62
     7
370
     9
100
AcDbLine
 10
1358.393684236617
 20
-95.8615682264282
 30
0.0
 11
1358.393684236617
 21
-338.1896105544705
 31
0.0
  0
LWPOLYLINE
  5
352
330
1F
100
AcDbEntity
  8
D-5
  6
Continuous
 62
     7
370
     9
100
AcDbPolyline
 90
        4
 70
     1
 43
2.0
 10
1359.393684236617
 20
-95.8615682264282
 42
0.4142135623731
 10
1358.393684236617
 20
-94.8615682264282
 42
0.4142135623731
 10
1357.393684236617
 20
-95.8615682264282
 42
0.4142135623731
 10
1358.393684236617
 20
-96.8615682264282
 42
0.4142135623731
  0
LINE
  5
353
330
1F
100
AcDbEntity
  8
D-6
  6
Continuous
 62
     6
370
     9
100
AcDbLine
 10
1030.901627419232
 20
-169.6151623236422
 30
0.0
 11
1030.901627419232
 21
-422.978901104227
 31
0.0
  0
LINE
  5
354
330
1F
100
AcDbEntity
  8
D-6
  6
Continuous
 62
     6
370
     9
100
AcDbLine
 10
430.9016274192322
 20
362.9032124074088
 30
0.0
 11
430.9016274192322
 21
-422.978901104227
 31
0.0
  0
LINE
  5
355
330
1F
100
AcDbEntity
  8
D-5
  6
Continuous
 62
     7
370
     9
100
AcDbLine
 10
1569.447526662003
 20
588.5596416642381
 30
0.0
 11
1746.299622114932
 21
588.5596416642381
 31
0.0
  0
TEXT
  5
356
330
1F
100
AcDbEntity
  8
D-5
  6
Continuous
 62
     2
370
     9
100
AcDbText
 10
1573.71584786449
 20
607.3433344274013
 30
0.0
 40
30.48
  1
塗膜防水
 41
1.09375
  7
ＭＳ ゴシック
100
AcDbText
  0
LINE
  5
357
330
1F
100
AcDbEntity
  8
D-5
  6
Continuous
 62
     7
370
     9
100
AcDbLine
 10
1483.865759681069
 20
440.32767305174
 30
0.0
 11
1569.447526662003
 21
588.5596416642381
 31
0.0
  0
LINE
  5
358
330
1F
100
AcDbEntity
  8
D-5
  6
Continuous
 62
     7
370
     9
100
AcDbLine
 10
1483.865759681069
 20
440.32767305174
 30
0.0
 11
1499.084795406287
 21
460.161506559021
 31
0.0
  0
LINE
  5
359
330
1F
100
AcDbEntity
  8
D-5
  6
Continuous
 62
     7
370
     9
100
AcDbLine
 10
1483.865759681069
 20
440.32767305174
 30
0.0
 11
1493.432845490196
 21
463.4246613645224
 31
0.0
  0
LINE
  5
35A
330
1F
100
AcDbEntity
  8
D-0
  6
JWW_CENTER1
 62
     3
370
     9
100
AcDbLine
 10
278.5454914044863
 20
509.8315465008999
 30
0.0
 11
850.6244370819218
 21
521.482068200988
 31
0.0
  0
LINE
  5
35B
330
1F
100
AcDbEntity
  8
D-5
  6
Continuous
 62
     7
370
     9
100
AcDbLine
 10
1115.446286339808
 20
748.1290517237674
 30
0.0
 11
1201.028053320742
 21
896.3610203362655
 31
0.0
  0
LINE
  5
35C
330
1F
100
AcDbEntity
  8
D-5
  6
Continuous
 62
     7
370
     9
100
AcDbLine
 10
1115.446286339808
 20
748.1290517237674
 30
0.0
 11
1130.665322065026
 21
767.9628852310484
 31
0.0
  0
LINE
  5
35D
330
1F
100
AcDbEntity
  8
D-5
  6
Continuous
 62
     7
370
     9
100
AcDbLine
 10
1115.446286339808
 20
748.1290517237674
 30
0.0
 11
1125.013372148935
 21
771.2260400365496
 31
0.0
  0
LINE
  5
35E
330
1F
100
AcDbEntity
  8
D-5
  6
Continuous
 62
     7
370
     9
100
AcDbLine
 10
1201.028053320742
 20
896.3610203362655
 30
0.0
 11
1422.059745605941
 21
896.3610203362655
 31
0.0
  0
TEXT
  5
35F
330
1F
100
AcDbEntity
  8
D-5
  6
Continuous
 62
     2
370
     9
100
AcDbText
 10
1203.329272980204
 20
957.0638409293931
 30
0.0
 40
30.48
  1
防塵網
 41
1.083333333333333
  7
ＭＳ ゴシック
100
AcDbText
  0
TEXT
  5
360
330
1F
100
AcDbEntity
  8
D-5
  6
Continuous
 62
     2
370
     9
100
AcDbText
 10
1203.329272980204
 20
906.9825901949781
 30
0.0
 40
30.48
  1
ＣＣ－５０
 41
1.1
  7
ＭＳ ゴシック
100
AcDbText
  0
LINE
  5
361
330
1F
100
AcDbEntity
  8
D-5
  6
Continuous
 62
     7
370
     9
100
AcDbLine
 10
916.5917033685162
 20
1035.708695994533
 30
0.0
 11
1196.425054757185
 21
1035.708695994533
 31
0.0
  0
TEXT
  5
362
330
1F
100
AcDbEntity
  8
D-5
  6
Continuous
 62
     2
370
     9
100
AcDbText
 10
919.3537847955798
 20
1049.758879719756
 30
0.0
 40
30.48
  1
ルーフドレン
 41
1.104166666666667
  7
ＭＳ ゴシック
100
AcDbText
  0
LINE
  5
363
330
1F
100
AcDbEntity
  8
D-5
  6
Continuous
 62
     7
370
     9
100
AcDbLine
 10
831.0099363875815
 20
887.4767273820345
 30
0.0
 11
916.5917033685162
 21
1035.708695994533
 31
0.0
  0
LINE
  5
364
330
1F
100
AcDbEntity
  8
D-5
  6
Continuous
 62
     7
370
     9
100
AcDbLine
 10
831.0099363875815
 20
887.4767273820345
 30
0.0
 11
846.2289721128002
 21
907.3105608893155
 31
0.0
  0
LINE
  5
365
330
1F
100
AcDbEntity
  8
D-5
  6
Continuous
 62
     7
370
     9
100
AcDbLine
 10
831.0099363875815
 20
887.4767273820345
 30
0.0
 11
840.5770221967089
 21
910.5737156948169
 31
0.0
  0
LINE
  5
366
330
1F
100
AcDbEntity
  8
D-6
  6
Continuous
 62
     6
370
     9
100
AcDbLine
 10
760.902726052045
 20
-462.9785959284458
 30
0.0
 11
760.902726052045
 21
-422.9803049128212
 31
0.0
  0
LINE
  5
367
330
1F
100
AcDbEntity
  8
D-6
  6
Continuous
 62
     6
370
     9
100
AcDbLine
 10
760.902726052045
 20
-462.9785959284458
 30
0.0
 11
700.9005287864195
 21
-382.9792062800083
 31
0.0
  0
LINE
  5
368
330
1F
100
AcDbEntity
  8
D-6
  6
Continuous
 62
     6
370
     9
100
AcDbLine
 10
700.9005287864195
 20
-422.9803049128212
 30
0.0
 11
700.9005287864195
 21
-382.9792062800083
 31
0.0
  0
LINE
  5
369
330
1F
100
AcDbEntity
  8
D-6
  6
Continuous
 62
     6
370
     9
100
AcDbLine
 10
383.7120833500968
 20
-422.978901104227
 30
0.0
 11
700.9005287864195
 21
-422.978901104227
 31
0.0
  0
LINE
  5
36A
330
1F
100
AcDbEntity
  8
D-6
  6
Continuous
 62
     6
370
     9
100
AcDbLine
 10
760.902726052045
 20
-422.978901104227
 30
0.0
 11
1062.46828830193
 21
-422.978901104227
 31
0.0
  0
LINE
  5
36B
330
1F
100
AcDbEntity
  8
D-6
  6
Continuous
 62
     6
370
     9
100
AcDbLine
 10
1596.03550566947
 20
165.3859363091705
 30
0.0
 11
1556.037214653846
 21
165.3859363091705
 31
0.0
  0
LINE
  5
36C
330
1F
100
AcDbEntity
  8
D-6
  6
Continuous
 62
     6
370
     9
100
AcDbLine
 10
1596.03550566947
 20
165.3859363091705
 30
0.0
 11
1516.036116021033
 21
105.3837390435451
 31
0.0
  0
LINE
  5
36D
330
1F
100
AcDbEntity
  8
D-6
  6
Continuous
 62
     6
370
     9
100
AcDbLine
 10
1556.037214653845
 20
105.3837390435451
 30
0.0
 11
1516.036116021033
 21
105.3837390435451
 31
0.0
  0
LINE
  5
36E
330
1F
100
AcDbEntity
  8
D-6
  6
Continuous
 62
     6
370
     9
100
AcDbLine
 10
1556.036278781449
 20
-207.9450095762144
 30
0.0
 11
1556.036278781449
 21
105.3837390435451
 31
0.0
  0
LINE
  5
36F
330
1F
100
AcDbEntity
  8
D-6
  6
Continuous
 62
     6
370
     9
100
AcDbLine
 10
1556.036278781449
 20
165.3859363091705
 30
0.0
 11
1556.036278781449
 21
469.5033799518197
 31
0.0
  0
LINE
  5
370
330
1F
100
AcDbEntity
  8
D-6
  6
Continuous
 62
     6
370
     9
100
AcDbLine
 10
665.902726052045
 20
1112.954071192723
 30
0.0
 11
665.902726052045
 21
1152.952362208347
 31
0.0
  0
LINE
  5
371
330
1F
100
AcDbEntity
  8
D-6
  6
Continuous
 62
     6
370
     9
100
AcDbLine
 10
665.902726052045
 20
1112.954071192723
 30
0.0
 11
605.9005287864195
 21
1192.95346084116
 31
0.0
  0
LINE
  5
372
330
1F
100
AcDbEntity
  8
D-6
  6
Continuous
 62
     6
370
     9
100
AcDbLine
 10
605.9005287864195
 20
1152.952362208347
 30
0.0
 11
605.9005287864195
 21
1192.95346084116
 31
0.0
  0
LINE
  5
373
330
1F
100
AcDbEntity
  8
D-6
  6
Continuous
 62
     6
370
     9
100
AcDbLine
 10
391.2037667654402
 20
1152.953298080743
 30
0.0
 11
605.9005287864195
 21
1152.953298080743
 31
0.0
  0
LINE
  5
374
330
1F
100
AcDbEntity
  8
D-6
  6
Continuous
 62
     6
370
     9
100
AcDbLine
 10
665.902726052045
 20
1152.953298080743
 30
0.0
 11
867.248581028383
 21
1152.953298080743
 31
0.0
  0
LINE
  5
375
330
1F
100
AcDbEntity
  8
F-4ﾚｲﾔ
  6
Continuous
 62
     7
370
     9
100
AcDbLine
 10
595.0616881014956
 20
-790.0687206151218
 30
0.0
 11
1569.711618497391
 21
-790.0687206151218
 31
0.0
  0
LINE
  5
376
330
1F
100
AcDbEntity
  8
F-4ﾚｲﾔ
  6
Continuous
 62
     7
370
     9
100
AcDbLine
 10
595.0616881014956
 20
-860.0687041191337
 30
0.0
 11
1569.711618497391
 21
-860.0687041191337
 31
0.0
  0
LINE
  5
377
330
1F
100
AcDbEntity
  8
F-4ﾚｲﾔ
  6
Continuous
 62
     7
370
     9
100
AcDbLine
 10
595.0616881014956
 20
-870.06873711111
 30
0.0
 11
1569.711618497391
 21
-870.06873711111
 31
0.0
  0
TEXT
  5
378
330
1F
100
AcDbEntity
  8
F-4ﾚｲﾔ
  6
Continuous
 62
     2
370
     9
100
AcDbText
 10
994.8866532994432
 20
-839.4287123671278
 30
0.0
 40
30.48
  1
適用機種
 41
1.09375
  7
ＭＳ ゴシック
100
AcDbText
  0
LINE
  5
379
330
1F
100
AcDbEntity
  8
F-4ﾚｲﾔ
  6
Continuous
 62
     7
370
     9
100
AcDbLine
 10
1569.711618497391
 20
-1054.287078641606
 30
0.0
 11
1569.711618497391
 21
-790.0687206151218
 31
0.0
  0
LINE
  5
37A
330
1F
100
AcDbEntity
  8
F-4ﾚｲﾔ
  6
Continuous
 62
     7
370
     9
100
AcDbLine
 10
595.0616881014956
 20
-1054.287078641606
 30
0.0
 11
1569.711618497391
 21
-1054.287078641606
 31
0.0
  0
LINE
  5
37B
330
1F
100
AcDbEntity
  8
F-4ﾚｲﾔ
  6
Continuous
 62
     7
370
     9
100
AcDbLine
 10
595.0616881014956
 20
-790.0687206151218
 30
0.0
 11
595.0616881014956
 21
-1054.287078641606
 31
0.0
  0
TEXT
  5
37C
330
1F
100
AcDbEntity
  8
F-4ﾚｲﾔ
  6
Continuous
 62
     2
370
     9
100
AcDbText
 10
617.0977080129484
 20
-924.2809660490324
 30
0.0
 40
30.48
  1
ＥＸＣ、ＥＸＧ、ＥＤＸＣ、ＥＤＵＸＣ、
 41
1.118421052631579
  7
ＭＳ ゴシック
100
AcDbText
  0
TEXT
  5
37D
330
1F
100
AcDbEntity
  8
F-4ﾚｲﾔ
  6
Continuous
 62
     2
370
     9
100
AcDbText
 10
617.0977080129485
 20
-972.7883384529549
 30
0.0
 40
30.48
  1
ＥＤＸＧ、ＥＤＵＸＧ、ＥＺＣ、ＥＺＧ、
 41
1.118421052631579
  7
ＭＳ ゴシック
100
AcDbText
  0
TEXT
  5
37E
330
1F
100
AcDbEntity
  8
F-4ﾚｲﾔ
  6
Continuous
 62
     2
370
     9
100
AcDbText
 10
617.1922521983073
 20
-1021.709998917856
 30
0.0
 40
30.48
  1
ＥＳＸＣ、ＥＳＸＧ、ＥＨＸＣ
 41
1.116071428571428
  7
ＭＳ ゴシック
100
AcDbText
  0
LINE
  5
37F
330
1F
100
AcDbEntity
  8
D-3
  6
Continuous
 62
     4
370
     9
100
AcDbLine
 10
295.3921079276895
 20
670.3398697170315
 30
0.0
 11
296.5298079756184
 21
539.3515458710691
 31
0.0
  0
LINE
  5
380
330
1F
100
AcDbEntity
  8
D-D
  6
Continuous
 62
     7
370
     9
100
AcDbLine
 10
749.4715126873808
 20
646.9485023176592
 30
0.0
 11
796.8200085689364
 21
654.8605455552955
 31
0.0
  0
LINE
  5
381
330
1F
100
AcDbEntity
  8
D-D
  6
Continuous
 62
     7
370
     9
100
AcDbLine
 10
749.3956049204597
 20
650.6758218289043
 30
0.0
 11
752.6001259201474
 21
647.4713008292166
 31
0.0
  0
LINE
  5
382
330
1F
100
AcDbEntity
  8
D-D
  6
Continuous
 62
     7
370
     9
100
AcDbLine
 10
767.9179704515776
 20
674.5798631689864
 30
0.0
 11
788.9520432743616
 21
653.5457903462025
 31
0.0
  0
LINE
  5
383
330
1F
100
AcDbEntity
  8
D-D
  6
Continuous
 62
     7
370
     9
100
AcDbLine
 10
758.3574784670186
 20
669.9982195298122
 30
0.0
 11
776.8347374896248
 21
651.520960507206
 31
0.0
  0
LINE
  5
384
330
1F
100
AcDbEntity
  8
D-D
  6
Continuous
 62
     7
370
     9
100
AcDbLine
 10
752.6243585203242
 20
661.5892038527732
 30
0.0
 11
764.717431704888
 21
649.4961306682094
 31
0.0
  0
LINE
  5
385
330
1F
100
AcDbEntity
  8
D-D
  6
Continuous
 62
     7
370
     9
100
AcDbLine
 10
762.2150642683367
 20
649.0779792784881
 30
0.0
 11
785.1348743106097
 21
671.9977893207611
 31
0.0
  0
LINE
  5
386
330
1F
100
AcDbEntity
  8
D-D
  6
Continuous
 62
     7
370
     9
100
AcDbLine
 10
779.1945034786227
 20
651.9152828650407
 30
0.0
 11
792.0728020059596
 21
664.7935813923776
 31
0.0
  0
LINE
  5
387
330
1F
100
AcDbEntity
  8
D-D
  6
Continuous
 62
     7
370
     9
100
AcDbLine
 10
749.401096902903
 20
650.4061475367878
 30
0.0
 11
773.9453193010302
 21
674.9503699349148
 31
0.0
  0
LINE
  5
388
330
1F
100
AcDbEntity
  8
D-D
  6
Continuous
 62
     7
370
     9
100
AcDbLine
 10
796.1739426889068
 20
654.7525864515915
 30
0.0
 11
796.5606287808424
 21
655.1392725435271
 31
0.0
  0
LINE
  5
389
330
1F
100
AcDbEntity
  8
D-D
  6
Continuous
 62
     7
370
     9
100
AcDbLine
 10
754.6635730327453
 20
392.0013656218922
 30
0.0
 11
802.2673950655162
 21
387.3784035877147
 31
0.0
  0
LINE
  5
38A
330
1F
100
AcDbEntity
  8
D-D
  6
Continuous
 62
     7
370
     9
100
AcDbLine
 10
754.7640319227432
 20
387.068505705731
 30
0.0
 11
759.2513571929811
 21
391.5558309759688
 31
0.0
  0
LINE
  5
38B
330
1F
100
AcDbEntity
  8
D-D
  6
Continuous
 62
     7
370
     9
100
AcDbLine
 10
769.050961640349
 20
390.6041595055847
 30
0.0
 11
791.2651969609864
 21
368.3899241849473
 31
0.0
  0
LINE
  5
38C
330
1F
100
AcDbEntity
  8
D-D
  6
Continuous
 62
     7
370
     9
100
AcDbLine
 10
784.7142058708648
 20
389.0830508988022
 30
0.0
 11
797.9342098737465
 21
375.8630468959205
 31
0.0
  0
LINE
  5
38D
330
1F
100
AcDbEntity
  8
D-D
  6
Continuous
 62
     7
370
     9
100
AcDbLine
 10
754.6875205346993
 20
390.8254649875011
 30
0.0
 11
780.4913640143978
 21
365.0216215078025
 31
0.0
  0
LINE
  5
38E
330
1F
100
AcDbEntity
  8
D-D
  6
Continuous
 62
     7
370
     9
100
AcDbLine
 10
758.685595519574
 20
376.8479336788466
 30
0.0
 11
772.1416723717192
 21
390.3040105309917
 31
0.0
  0
LINE
  5
38F
330
1F
100
AcDbEntity
  8
D-D
  6
Continuous
 62
     7
370
     9
100
AcDbLine
 10
764.9489720094579
 20
368.969174544997
 30
0.0
 11
785.0319875504701
 21
389.0521900860094
 31
0.0
  0
LINE
  5
390
330
1F
100
AcDbEntity
  8
D-D
  6
Continuous
 62
     7
370
     9
100
AcDbLine
 10
775.1580446798807
 20
365.0361115916867
 30
0.0
 11
797.9223027292215
 21
387.8003696410275
 31
0.0
  0
LINE
  5
391
330
1F
100
AcDbEntity
  8
D-D
  6
Continuous
 62
     7
370
     9
100
AcDbLine
 10
800.3774501013763
 20
387.5619422920241
 30
0.0
 11
801.6115534249026
 21
386.3278389684978
 31
0.0
  0
LINE
  5
392
330
1F
100
AcDbEntity
  8
D-0
  6
Continuous
 62
     3
370
     9
100
AcDbLine
 10
762.1797502829749
 20
391.2714451956281
 30
0.0
 11
756.9474442949985
 21
648.1977477903991
 31
0.0
  0
LINE
  5
393
330
1F
100
AcDbEntity
  8
D-0
  6
Continuous
 62
     3
370
     9
100
AcDbLine
 10
794.7509487163057
 20
388.1083501470563
 30
0.0
 11
789.3439750882322
 21
653.611283059327
 31
0.0
  0
ENDSEC
  0
SECTION
  2
OBJECTS
  0
DICTIONARY
  5
C
330
0
100
AcDbDictionary
281
     1
  3
ACAD_DETAILVIEWSTYLE
350
3D9
  3
ACAD_GROUP
350
D
  3
ACAD_LAYOUT
350
1A
  3
ACAD_MATERIAL
350
43
  3
ACAD_MLEADERSTYLE
350
6B
  3
ACAD_MLINESTYLE
350
17
  3
ACAD_PLOTSETTINGS
350
19
  3
ACAD_PLOTSTYLENAME
350
E
  3
ACAD_SCALELIST
350
47
  3
ACAD_SECTIONVIEWSTYLE
350
3DA
  3
ACAD_TABLESTYLE
350
69
  3
ACAD_VISUALSTYLE
350
2A
  3
ACDB_RECOMPOSE_DATA
350
3D6
  3
AcDbVariableDictionary
350
396
  0
DICTIONARY
  5
394
330
8
100
AcDbDictionary
280
     1
281
     1
  3
ACAD_XREC_ROUNDTRIP
360
395
  0
DICTIONARY
  5
3D9
102
{ACAD_REACTORS
330
C
102
}
330
C
100
AcDbDictionary
281
     1
  0
DICTIONARY
  5
D
102
{ACAD_REACTORS
330
C
102
}
330
C
100
AcDbDictionary
281
     1
  0
DICTIONARY
  5
1A
102
{ACAD_REACTORS
330
C
102
}
330
C
100
AcDbDictionary
281
     1
  3
Layout1
350
1E
  3
Layout2
350
26
  3
Model
350
22
  0
DICTIONARY
  5
43
102
{ACAD_REACTORS
330
C
102
}
330
C
100
AcDbDictionary
281
     1
  3
ByBlock
350
45
  3
ByLayer
350
44
  3
Global
350
46
  0
DICTIONARY
  5
6B
102
{ACAD_REACTORS
330
C
102
}
330
C
100
AcDbDictionary
281
     1
  3
Standard
350
6C
  0
DICTIONARY
  5
17
102
{ACAD_REACTORS
330
C
102
}
330
C
100
AcDbDictionary
281
     1
  3
Standard
350
18
  0
DICTIONARY
  5
19
102
{ACAD_REACTORS
330
C
102
}
330
C
100
AcDbDictionary
281
     1
  0
ACDBDICTIONARYWDFLT
  5
E
102
{ACAD_REACTORS
330
C
102
}
330
C
100
AcDbDictionary
281
     1
  3
Normal
350
F
100
AcDbDictionaryWithDefault
340
F
  0
DICTIONARY
  5
47
102
{ACAD_REACTORS
330
C
102
}
330
C
100
AcDbDictionary
281
     1
  3
A0
350
48
  3
A1
350
49
  3
A2
350
4A
  3
A3
350
4B
  3
A4
350
4C
  3
A5
350
4D
  3
A6
350
4E
  3
A7
350
4F
  3
A8
350
50
  3
A9
350
51
  3
B0
350
52
  3
B1
350
53
  3
B2
350
54
  3
B3
350
55
  3
B4
350
56
  3
B5
350
57
  3
B6
350
58
  3
B7
350
59
  3
B8
350
5A
  3
B9
350
5B
  3
C0
350
5C
  3
C1
350
5D
  3
C2
350
5E
  3
C3
350
5F
  3
C4
350
60
  3
C5
350
61
  3
C6
350
62
  3
C7
350
63
  3
C8
350
64
  3
C9
350
65
  3
D0
350
66
  3
D1
350
67
  3
D2
350
68
  0
DICTIONARY
  5
3DA
102
{ACAD_REACTORS
330
C
102
}
330
C
100
AcDbDictionary
281
     1
  0
DICTIONARY
  5
69
102
{ACAD_REACTORS
330
C
102
}
330
C
100
AcDbDictionary
281
     1
  3
Standard
350
6A
  0
DICTIONARY
  5
2A
102
{ACAD_REACTORS
330
C
102
}
330
C
100
AcDbDictionary
281
     1
  3
2dWireframe
350
2F
  3
Basic
350
32
  3
Brighten
350
36
  3
ColorChange
350
3A
  3
Conceptual
350
34
  3
Dim
350
35
  3
EdgeColorOff
350
3D
  3
Facepattern
350
39
  3
Flat
350
2B
  3
FlatWithEdges
350
2C
  3
Gouraud
350
2D
  3
GouraudWithEdges
350
2E
  3
Hidden
350
31
  3
JitterOff
350
3B
  3
Linepattern
350
38
  3
OverhangOff
350
3C
  3
Realistic
350
33
  3
Shaded
350
42
  3
Shaded with edges
350
41
  3
Shades of Gray
350
3E
  3
Sketchy
350
3F
  3
Thicken
350
37
  3
Wireframe
350
30
  3
X-Ray
350
40
  0
XRECORD
  5
3D6
102
{ACAD_REACTORS
330
C
102
}
330
C
100
AcDbXrecord
280
     1
 90
        1
330
6A
  0
DICTIONARY
  5
396
102
{ACAD_REACTORS
330
C
102
}
330
C
100
AcDbDictionary
281
     1
  3
CANNOSCALE
350
397
  3
CENTEREXE
350
3DB
  3
CENTERLTYPEFILE
350
3DC
  3
CMLEADERSTYLE
350
3D8
  3
CTABLESTYLE
350
3D7
  3
MSLTSCALE
350
398
  3
XCLIPFRAME
350
399
  0
XRECORD
  5
395
102
{ACAD_REACTORS
330
394
102
}
330
394
100
AcDbXrecord
280
     1
102
VTR_0.000_0.000_1.000_1.000_VISUALSTYLE
340
2F
102
VTR_0.000_0.000_1.000_1.000_GRIDDISPLAY
 70
     3
102
VTR_0.000_0.000_1.000_1.000_GRIDMAJOR
 70
     5
102
VTR_0.000_0.000_1.000_1.000_DEFAULTLIGHTING
280
     1
102
VTR_0.000_0.000_1.000_1.000_DEFAULTLIGHTINGTYPE
 70
     1
102
VTR_0.000_0.000_1.000_1.000_BRIGHTNESS
141
0.0
102
VTR_0.000_0.000_1.000_1.000_CONTRAST
142
0.0
  0
LAYOUT
  5
1E
102
{ACAD_REACTORS
330
1A
102
}
330
1A
100
AcDbPlotSettings
  1

  2
none_device
  4

  6

 40
0.0
 41
0.0
 42
0.0
 43
0.0
 44
0.0
 45
0.0
 46
0.0
 47
0.0
 48
0.0
 49
0.0
140
0.0
141
0.0
142
1.0
143
1.0
 70
   688
 72
     1
 73
     0
 74
     5
  7

 75
    16
 76
     0
 77
     5
 78
   300
147
1.0
148
0.0
149
0.0
100
AcDbLayout
  1
Layout1
 70
     1
 71
     1
 10
0.0
 20
0.0
 11
420.0
 21
297.0
 12
0.0
 22
0.0
 32
0.0
 14
1.000000000000000E+20
 24
1.000000000000000E+20
 34
1.000000000000000E+20
 15
-1.000000000000000E+20
 25
-1.000000000000000E+20
 35
-1.000000000000000E+20
146
0.0
 13
0.0
 23
0.0
 33
0.0
 16
1.0
 26
0.0
 36
0.0
 17
0.0
 27
1.0
 37
0.0
 76
     0
330
1B
  0
LAYOUT
  5
26
102
{ACAD_REACTORS
330
1A
102
}
330
1A
100
AcDbPlotSettings
  1

  2
none_device
  4

  6

 40
0.0
 41
0.0
 42
0.0
 43
0.0
 44
0.0
 45
0.0
 46
0.0
 47
0.0
 48
0.0
 49
0.0
140
0.0
141
0.0
142
1.0
143
1.0
 70
   688
 72
     1
 73
     0
 74
     5
  7

 75
    16
 76
     0
 77
     5
 78
   300
147
1.0
148
0.0
149
0.0
100
AcDbLayout
  1
Layout2
 70
     1
 71
     2
 10
0.0
 20
0.0
 11
0.0
 21
0.0
 12
0.0
 22
0.0
 32
0.0
 14
0.0
 24
0.0
 34
0.0
 15
0.0
 25
0.0
 35
0.0
146
0.0
 13
0.0
 23
0.0
 33
0.0
 16
1.0
 26
0.0
 36
0.0
 17
0.0
 27
1.0
 37
0.0
 76
     0
330
23
  0
LAYOUT
  5
22
102
{ACAD_REACTORS
330
1A
102
}
330
1A
100
AcDbPlotSettings
  1

  2
none_device
  4
Letter_(8.50_x_11.00_Inches)
  6

 40
6.35
 41
6.35
 42
6.35000508
 43
6.35000508
 44
215.9
 45
279.4
 46
0.0
 47
0.0
 48
0.0
 49
0.0
140
0.0
141
0.0
142
1.0
143
1.0
 70
  1712
 72
     1
 73
     0
 74
     0
  7

 75
     0
 76
     0
 77
     5
 78
   300
147
1.0
148
0.0
149
0.0
100
AcDbLayout
  1
Model
 70
     1
 71
     0
 10
-2100.0
 20
-1485.0
 11
2100.0
 21
1485.0
 12
0.0
 22
0.0
 32
0.0
 14
-2100.0
 24
-1485.0
 34
0.0
 15
2100.0
 25
1485.0
 35
0.0
146
0.0
 13
0.0
 23
0.0
 33
0.0
 16
1.0
 26
0.0
 36
0.0
 17
0.0
 27
1.0
 37
0.0
 76
     0
330
1F
331
29
  0
MATERIAL
  5
45
102
{ACAD_REACTORS
330
43
102
}
102
{ACAD_XDICTIONARY
360
3CC
102
}
330
43
100
AcDbMaterial
  1
ByBlock
  0
MATERIAL
  5
44
102
{ACAD_REACTORS
330
43
102
}
102
{ACAD_XDICTIONARY
360
3CA
102
}
330
43
100
AcDbMaterial
  1
ByLayer
  0
MATERIAL
  5
46
102
{ACAD_REACTORS
330
43
102
}
102
{ACAD_XDICTIONARY
360
3CE
102
}
330
43
100
AcDbMaterial
  1
Global
  0
MLEADERSTYLE
  5
6C
102
{ACAD_REACTORS
330
6B
102
}
102
{ACAD_XDICTIONARY
360
3D4
102
}
330
6B
100
AcDbMLeaderStyle
170
     2
171
     1
172
     0
 90
        2
 40
0.0
 41
0.0
173
     1
 91
-1056964608
340
14
 92
       -2
290
     1
 42
2.0
291
     1
 43
8.0
  3
Standard
341
0
 44
4.0
300

342
11
174
     1
178
     6
175
     1
176
     0
 93
-1056964608
 45
4.0
292
     0
297
     0
 46
4.0
343
0
 94
-1056964608
 47
1.0
 49
1.0
140
1.0
293
     1
141
0.0
294
     1
177
     0
142
1.0
295
     0
296
     0
143
3.75
1001
ACAD_MLEADERVER
1070
     2
  0
MLINESTYLE
  5
18
102
{ACAD_REACTORS
330
17
102
}
330
17
100
AcDbMlineStyle
  2
Standard
 70
     0
  3

 62
   256
 51
90.0
 52
90.0
 71
     2
 49
0.5
 62
   256
  6
BYLAYER
 49
-0.5
 62
   256
  6
BYLAYER
  0
ACDBPLACEHOLDER
  5
F
102
{ACAD_REACTORS
330
E
102
}
330
E
  0
SCALE
  5
48
102
{ACAD_REACTORS
330
47
102
}
330
47
100
AcDbScale
 70
     0
300
1:1
140
1.0
141
1.0
290
     1
  0
SCALE
  5
49
102
{ACAD_REACTORS
330
47
102
}
330
47
100
AcDbScale
 70
     0
300
1:2
140
1.0
141
2.0
290
     0
  0
SCALE
  5
4A
102
{ACAD_REACTORS
330
47
102
}
330
47
100
AcDbScale
 70
     0
300
1:4
140
1.0
141
4.0
290
     0
  0
SCALE
  5
4B
102
{ACAD_REACTORS
330
47
102
}
330
47
100
AcDbScale
 70
     0
300
1:5
140
1.0
141
5.0
290
     0
  0
SCALE
  5
4C
102
{ACAD_REACTORS
330
47
102
}
330
47
100
AcDbScale
 70
     0
300
1:8
140
1.0
141
8.0
290
     0
  0
SCALE
  5
4D
102
{ACAD_REACTORS
330
47
102
}
330
47
100
AcDbScale
 70
     0
300
1:10
140
1.0
141
10.0
290
     0
  0
SCALE
  5
4E
102
{ACAD_REACTORS
330
47
102
}
330
47
100
AcDbScale
 70
     0
300
1:16
140
1.0
141
16.0
290
     0
  0
SCALE
  5
4F
102
{ACAD_REACTORS
330
47
102
}
330
47
100
AcDbScale
 70
     0
300
1:20
140
1.0
141
20.0
290
     0
  0
SCALE
  5
50
102
{ACAD_REACTORS
330
47
102
}
330
47
100
AcDbScale
 70
     0
300
1:30
140
1.0
141
30.0
290
     0
  0
SCALE
  5
51
102
{ACAD_REACTORS
330
47
102
}
330
47
100
AcDbScale
 70
     0
300
1:40
140
1.0
141
40.0
290
     0
  0
SCALE
  5
52
102
{ACAD_REACTORS
330
47
102
}
330
47
100
AcDbScale
 70
     0
300
1:50
140
1.0
141
50.0
290
     0
  0
SCALE
  5
53
102
{ACAD_REACTORS
330
47
102
}
330
47
100
AcDbScale
 70
     0
300
1:100
140
1.0
141
100.0
290
     0
  0
SCALE
  5
54
102
{ACAD_REACTORS
330
47
102
}
330
47
100
AcDbScale
 70
     0
300
2:1
140
2.0
141
1.0
290
     0
  0
SCALE
  5
55
102
{ACAD_REACTORS
330
47
102
}
330
47
100
AcDbScale
 70
     0
300
4:1
140
4.0
141
1.0
290
     0
  0
SCALE
  5
56
102
{ACAD_REACTORS
330
47
102
}
330
47
100
AcDbScale
 70
     0
300
8:1
140
8.0
141
1.0
290
     0
  0
SCALE
  5
57
102
{ACAD_REACTORS
330
47
102
}
330
47
100
AcDbScale
 70
     0
300
10:1
140
10.0
141
1.0
290
     0
  0
SCALE
  5
58
102
{ACAD_REACTORS
330
47
102
}
330
47
100
AcDbScale
 70
     0
300
100:1
140
100.0
141
1.0
290
     0
  0
SCALE
  5
59
102
{ACAD_REACTORS
330
47
102
}
330
47
100
AcDbScale
 70
     0
300
1/128" = 1'-0"
140
0.0078125
141
12.0
290
     0
  0
SCALE
  5
5A
102
{ACAD_REACTORS
330
47
102
}
330
47
100
AcDbScale
 70
     0
300
1/64" = 1'-0"
140
0.015625
141
12.0
290
     0
  0
SCALE
  5
5B
102
{ACAD_REACTORS
330
47
102
}
330
47
100
AcDbScale
 70
     0
300
1/32" = 1'-0"
140
0.03125
141
12.0
290
     0
  0
SCALE
  5
5C
102
{ACAD_REACTORS
330
47
102
}
330
47
100
AcDbScale
 70
     0
300
1/16" = 1'-0"
140
0.0625
141
12.0
290
     0
  0
SCALE
  5
5D
102
{ACAD_REACTORS
330
47
102
}
330
47
100
AcDbScale
 70
     0
300
3/32" = 1'-0"
140
0.09375
141
12.0
290
     0
  0
SCALE
  5
5E
102
{ACAD_REACTORS
330
47
102
}
330
47
100
AcDbScale
 70
     0
300
1/8" = 1'-0"
140
0.125
141
12.0
290
     0
  0
SCALE
  5
5F
102
{ACAD_REACTORS
330
47
102
}
330
47
100
AcDbScale
 70
     0
300
3/16" = 1'-0"
140
0.1875
141
12.0
290
     0
  0
SCALE
  5
60
102
{ACAD_REACTORS
330
47
102
}
330
47
100
AcDbScale
 70
     0
300
1/4" = 1'-0"
140
0.25
141
12.0
290
     0
  0
SCALE
  5
61
102
{ACAD_REACTORS
330
47
102
}
330
47
100
AcDbScale
 70
     0
300
3/8" = 1'-0"
140
0.375
141
12.0
290
     0
  0
SCALE
  5
62
102
{ACAD_REACTORS
330
47
102
}
330
47
100
AcDbScale
 70
     0
300
1/2" = 1'-0"
140
0.5
141
12.0
290
     0
  0
SCALE
  5
63
102
{ACAD_REACTORS
330
47
102
}
330
47
100
AcDbScale
 70
     0
300
3/4" = 1'-0"
140
0.75
141
12.0
290
     0
  0
SCALE
  5
64
102
{ACAD_REACTORS
330
47
102
}
330
47
100
AcDbScale
 70
     0
300
1" = 1'-0"
140
1.0
141
12.0
290
     0
  0
SCALE
  5
65
102
{ACAD_REACTORS
330
47
102
}
330
47
100
AcDbScale
 70
     0
300
1-1/2" = 1'-0"
140
1.5
141
12.0
290
     0
  0
SCALE
  5
66
102
{ACAD_REACTORS
330
47
102
}
330
47
100
AcDbScale
 70
     0
300
3" = 1'-0"
140
3.0
141
12.0
290
     0
  0
SCALE
  5
67
102
{ACAD_REACTORS
330
47
102
}
330
47
100
AcDbScale
 70
     0
300
6" = 1'-0"
140
6.0
141
12.0
290
     0
  0
SCALE
  5
68
102
{ACAD_REACTORS
330
47
102
}
330
47
100
AcDbScale
 70
     0
300
1'-0" = 1'-0"
140
12.0
141
12.0
290
     0
  0
TABLESTYLE
  5
6A
102
{ACAD_REACTORS
330
69
102
}
102
{ACAD_XDICTIONARY
360
3D0
102
}
330
69
100
AcDbTableStyle
  3
Standard
 70
     0
 71
     0
 40
0.06
 41
0.06
280
     0
281
     0
  7
Standard
140
4.5
170
     2
 62
     0
 63
   257
283
     0
274
    -2
284
     1
 64
     0
275
    -2
285
     1
 65
     0
276
    -2
286
     1
 66
     0
277
    -2
287
     1
 67
     0
278
    -2
288
     1
 68
     0
279
    -2
289
     1
 69
     0
  7
Standard
140
6.0
170
     5
 62
     0
 63
   257
283
     0
274
    -2
284
     1
 64
     0
275
    -2
285
     1
 65
     0
276
    -2
286
     1
 66
     0
277
    -2
287
     1
 67
     0
278
    -2
288
     1
 68
     0
279
    -2
289
     1
 69
     0
  7
Standard
140
4.5
170
     5
 62
     0
 63
   257
283
     0
274
    -2
284
     1
 64
     0
275
    -2
285
     1
 65
     0
276
    -2
286
     1
 66
     0
277
    -2
287
     1
 67
     0
278
    -2
288
     1
 68
     0
279
    -2
289
     1
 69
     0
  0
VISUALSTYLE
  5
2F
102
{ACAD_REACTORS
330
2A
102
}
102
{ACAD_XDICTIONARY
360
3A2
102
}
330
2A
100
AcDbVisualStyle
  2
2dWireframe
 70
     4
 71
     0
 72
     2
 73
     0
 90
        0
 40
0.6
 41
30.0
 62
     5
 63
     7
421
 16777215
 74
     1
 91
        4
 64
     7
 65
   257
 75
     1
175
     1
 42
1.0
 92
        0
 66
   257
 43
1.0
 76
     1
 77
     6
 78
     2
 67
     7
 79
     5
170
     0
171
     0
290
     0
174
     0
 93
        1
 44
0.0
173
     0
291
     0
 45
0.0
1001
ACAD
1000
AcDbSavedByObjectVersion
1070
     0
  0
VISUALSTYLE
  5
32
102
{ACAD_REACTORS
330
2A
102
}
102
{ACAD_XDICTIONARY
360
3A8
102
}
330
2A
100
AcDbVisualStyle
  2
Basic
 70
     7
 71
     1
 72
     0
 73
     1
 90
        0
 40
0.6
 41
30.0
 62
     5
 63
     7
421
 16777215
 74
     0
 91
        4
 64
     7
 65
   257
 75
     1
175
     1
 42
1.0
 92
        8
 66
     7
 43
1.0
 76
     1
 77
     6
 78
     2
 67
     7
 79
     5
170
     0
171
     0
290
     0
174
     0
 93
        1
 44
0.0
173
     0
291
     1
 45
0.0
1001
ACAD
1000
AcDbSavedByObjectVersion
1070
     0
  0
VISUALSTYLE
  5
36
102
{ACAD_REACTORS
330
2A
102
}
102
{ACAD_XDICTIONARY
360
3B0
102
}
330
2A
100
AcDbVisualStyle
  2
Brighten
 70
    12
 71
     2
 72
     2
 73
     0
 90
        0
 40
0.6
 41
30.0
 62
     5
 63
     7
421
 16777215
 74
     1
 91
        4
 64
     7
 65
   257
 75
     1
175
     1
 42
1.0
 92
        8
 66
     7
 43
1.0
 76
     1
 77
     6
 78
     2
 67
     7
 79
     5
170
     0
171
     0
290
     0
174
     0
 93
        1
 44
50.0
173
     0
291
     1
 45
0.0
1001
ACAD
1000
AcDbSavedByObjectVersion
1070
     0
  0
VISUALSTYLE
  5
3A
102
{ACAD_REACTORS
330
2A
102
}
102
{ACAD_XDICTIONARY
360
3B8
102
}
330
2A
100
AcDbVisualStyle
  2
ColorChange
 70
    16
 71
     2
 72
     2
 73
     3
 90
        0
 40
0.6
 41
30.0
 62
     5
 63
     8
421
  8421504
 74
     1
 91
        4
 64
     7
 65
   257
 75
     1
175
     1
 42
1.0
 92
        8
 66
     8
424
  8421504
 43
1.0
 76
     1
 77
     6
 78
     2
 67
     7
 79
     5
170
     0
171
     0
290
     0
174
     0
 93
        1
 44
0.0
173
     0
291
     1
 45
0.0
1001
ACAD
1000
AcDbSavedByObjectVersion
1070
     0
  0
VISUALSTYLE
  5
34
102
{ACAD_REACTORS
330
2A
102
}
102
{ACAD_XDICTIONARY
360
3AC
102
}
330
2A
100
AcDbVisualStyle
  2
Conceptual
 70
     9
 71
     3
 72
     2
 73
     0
 90
        0
 40
0.6
 41
30.0
 62
     5
 63
     7
421
 16777215
 74
     2
 91
        2
 64
     7
 65
   257
 75
     1
175
     1
 42
179.0
 92
        8
 66
     7
 43
1.0
 76
     1
 77
     6
 78
     2
 67
     7
 79
     3
170
     0
171
     0
290
     0
174
     0
 93
        1
 44
0.0
173
     0
291
     0
 45
0.0
1001
ACAD
1000
AcDbSavedByObjectVersion
1070
     0
  0
VISUALSTYLE
  5
35
102
{ACAD_REACTORS
330
2A
102
}
102
{ACAD_XDICTIONARY
360
3AE
102
}
330
2A
100
AcDbVisualStyle
  2
Dim
 70
    11
 71
     2
 72
     2
 73
     0
 90
        0
 40
0.6
 41
30.0
 62
     5
 63
     7
421
 16777215
 74
     1
 91
        4
 64
     7
 65
   257
 75
     1
175
     1
 42
1.0
 92
        8
 66
     7
 43
1.0
 76
     1
 77
     6
 78
     2
 67
     7
 79
     5
170
     0
171
     0
290
     0
174
     0
 93
        1
 44
-50.0
173
     0
291
     1
 45
0.0
1001
ACAD
1000
AcDbSavedByObjectVersion
1070
     0
  0
VISUALSTYLE
  5
3D
102
{ACAD_REACTORS
330
2A
102
}
102
{ACAD_XDICTIONARY
360
3BE
102
}
330
2A
100
AcDbVisualStyle
  2
EdgeColorOff
 70
    22
 71
     2
 72
     2
 73
     0
 90
        0
 40
0.6
 41
30.0
 62
     5
 63
     7
421
 16777215
 74
     1
 91
        4
 64
     7
 65
   257
 75
     1
175
     1
 42
1.0
 92
        8
 66
     7
 43
1.0
 76
     1
 77
     6
 78
     2
 67
     7
 79
     5
170
     0
171
     0
290
     0
174
     0
 93
        1
 44
0.0
173
     0
291
     1
 45
0.0
1001
ACAD
1000
AcDbSavedByObjectVersion
1070
     0
  0
VISUALSTYLE
  5
39
102
{ACAD_REACTORS
330
2A
102
}
102
{ACAD_XDICTIONARY
360
3B6
102
}
330
2A
100
AcDbVisualStyle
  2
Facepattern
 70
    15
 71
     2
 72
     2
 73
     0
 90
        0
 40
0.6
 41
30.0
 62
     5
 63
     7
421
 16777215
 74
     1
 91
        4
 64
     7
 65
   257
 75
     1
175
     1
 42
1.0
 92
        8
 66
     7
 43
1.0
 76
     1
 77
     6
 78
     2
 67
     7
 79
     5
170
     0
171
     0
290
     0
174
     0
 93
        1
 44
0.0
173
     0
291
     1
 45
0.0
1001
ACAD
1000
AcDbSavedByObjectVersion
1070
     0
  0
VISUALSTYLE
  5
2B
102
{ACAD_REACTORS
330
2A
102
}
102
{ACAD_XDICTIONARY
360
39A
102
}
330
2A
100
AcDbVisualStyle
  2
Flat
 70
     0
 71
     2
 72
     1
 73
     1
 90
        2
 40
0.6
 41
30.0
 62
     5
 63
     7
421
 16777215
 74
     0
 91
        0
 64
     7
 65
   257
 75
     1
175
     1
 42
1.0
 92
        8
 66
     7
 43
1.0
 76
     1
 77
     6
 78
     2
 67
     7
 79
     5
170
     0
171
     0
290
     0
174
     0
 93
       13
 44
0.0
173
     0
291
     1
 45
0.0
1001
ACAD
1000
AcDbSavedByObjectVersion
1070
     0
  0
VISUALSTYLE
  5
2C
102
{ACAD_REACTORS
330
2A
102
}
102
{ACAD_XDICTIONARY
360
39C
102
}
330
2A
100
AcDbVisualStyle
  2
FlatWithEdges
 70
     1
 71
     2
 72
     1
 73
     1
 90
        2
 40
0.6
 41
30.0
 62
     5
 63
     7
421
 16777215
 74
     1
 91
        0
 64
     7
 65
   257
 75
     1
175
     1
 42
1.0
 92
        0
 66
   257
 43
1.0
 76
     1
 77
     6
 78
     2
 67
     7
 79
     5
170
     0
171
     0
290
     0
174
     0
 93
       13
 44
0.0
173
     0
291
     1
 45
0.0
1001
ACAD
1000
AcDbSavedByObjectVersion
1070
     0
  0
VISUALSTYLE
  5
2D
102
{ACAD_REACTORS
330
2A
102
}
102
{ACAD_XDICTIONARY
360
39E
102
}
330
2A
100
AcDbVisualStyle
  2
Gouraud
 70
     2
 71
     2
 72
     2
 73
     1
 90
        2
 40
0.6
 41
30.0
 62
     5
 63
     7
421
 16777215
 74
     0
 91
        0
 64
     7
 65
   257
 75
     1
175
     1
 42
1.0
 92
        0
 66
     7
 43
1.0
 76
     1
 77
     6
 78
     2
 67
     7
 79
     5
170
     0
171
     0
290
     0
174
     0
 93
       13
 44
0.0
173
     0
291
     1
 45
0.0
1001
ACAD
1000
AcDbSavedByObjectVersion
1070
     0
  0
VISUALSTYLE
  5
2E
102
{ACAD_REACTORS
330
2A
102
}
102
{ACAD_XDICTIONARY
360
3A0
102
}
330
2A
100
AcDbVisualStyle
  2
GouraudWithEdges
 70
     3
 71
     2
 72
     2
 73
     1
 90
        2
 40
0.6
 41
30.0
 62
     5
 63
     7
421
 16777215
 74
     1
 91
        0
 64
     7
 65
   257
 75
     1
175
     1
 42
1.0
 92
        0
 66
   257
 43
1.0
 76
     1
 77
     6
 78
     2
 67
     7
 79
     5
170
     0
171
     0
290
     0
174
     0
 93
       13
 44
0.0
173
     0
291
     1
 45
0.0
1001
ACAD
1000
AcDbSavedByObjectVersion
1070
     0
  0
VISUALSTYLE
  5
31
102
{ACAD_REACTORS
330
2A
102
}
102
{ACAD_XDICTIONARY
360
3A6
102
}
330
2A
100
AcDbVisualStyle
  2
Hidden
 70
     6
 71
     1
 72
     2
 73
     2
 90
        0
 40
0.6
 41
30.0
 62
     5
 63
     7
421
 16777215
 74
     2
 91
        2
 64
     7
 65
   257
 75
     2
175
     1
 42
40.0
 92
        0
 66
   257
 43
1.0
 76
     1
 77
     6
 78
     2
 67
     7
 79
     3
170
     0
171
     0
290
     0
174
     0
 93
        1
 44
0.0
173
     0
291
     0
 45
0.0
1001
ACAD
1000
AcDbSavedByObjectVersion
1070
     0
  0
VISUALSTYLE
  5
3B
102
{ACAD_REACTORS
330
2A
102
}
102
{ACAD_XDICTIONARY
360
3BA
102
}
330
2A
100
AcDbVisualStyle
  2
JitterOff
 70
    20
 71
     2
 72
     2
 73
     0
 90
        0
 40
0.6
 41
30.0
 62
     5
 63
     7
421
 16777215
 74
     1
 91
        4
 64
     7
 65
   257
 75
     1
175
     1
 42
1.0
 92
       10
 66
     7
 43
1.0
 76
     1
 77
     6
 78
     2
 67
     7
 79
     5
170
     0
171
     0
290
     0
174
     0
 93
        1
 44
0.0
173
     0
291
     1
 45
0.0
1001
ACAD
1000
AcDbSavedByObjectVersion
1070
     0
  0
VISUALSTYLE
  5
38
102
{ACAD_REACTORS
330
2A
102
}
102
{ACAD_XDICTIONARY
360
3B4
102
}
330
2A
100
AcDbVisualStyle
  2
Linepattern
 70
    14
 71
     2
 72
     2
 73
     0
 90
        0
 40
0.6
 41
30.0
 62
     5
 63
     7
421
 16777215
 74
     1
 91
        4
 64
     7
 65
   257
 75
     7
175
     7
 42
1.0
 92
        8
 66
     7
 43
1.0
 76
     1
 77
     6
 78
     2
 67
     7
 79
     5
170
     0
171
     0
290
     0
174
     0
 93
        1
 44
0.0
173
     0
291
     1
 45
0.0
1001
ACAD
1000
AcDbSavedByObjectVersion
1070
     0
  0
VISUALSTYLE
  5
3C
102
{ACAD_REACTORS
330
2A
102
}
102
{ACAD_XDICTIONARY
360
3BC
102
}
330
2A
100
AcDbVisualStyle
  2
OverhangOff
 70
    21
 71
     2
 72
     2
 73
     0
 90
        0
 40
0.6
 41
30.0
 62
     5
 63
     7
421
 16777215
 74
     1
 91
        4
 64
     7
 65
   257
 75
     1
175
     1
 42
1.0
 92
        9
 66
     7
 43
1.0
 76
     1
 77
     6
 78
     2
 67
     7
 79
     5
170
     0
171
     0
290
     0
174
     0
 93
        1
 44
0.0
173
     0
291
     1
 45
0.0
1001
ACAD
1000
AcDbSavedByObjectVersion
1070
     0
  0
VISUALSTYLE
  5
33
102
{ACAD_REACTORS
330
2A
102
}
102
{ACAD_XDICTIONARY
360
3AA
102
}
330
2A
100
AcDbVisualStyle
  2
Realistic
 70
     8
 71
     2
 72
     3
 73
     0
 90
        2
 40
0.6
 41
30.0
 62
     5
 63
     7
421
 16777215
 74
     0
 91
        0
 64
     7
 65
   257
 75
     1
175
     1
 42
1.0
 92
        8
 66
   257
 43
1.0
 76
     1
 77
     6
 78
     2
 67
     7
 79
     3
170
     0
171
     0
290
     0
174
     0
 93
       13
 44
0.0
173
     0
291
     0
 45
0.0
1001
ACAD
1000
AcDbSavedByObjectVersion
1070
     0
  0
VISUALSTYLE
  5
42
102
{ACAD_REACTORS
330
2A
102
}
102
{ACAD_XDICTIONARY
360
3C8
102
}
330
2A
100
AcDbVisualStyle
  2
Shaded
 70
    27
 71
     2
 72
     2
 73
     1
 90
        2
 40
0.6
 41
30.0
 62
     5
 63
     7
421
 16777215
 74
     0
 91
        4
 64
     7
 65
   257
 75
     1
175
     1
 42
1.0
 92
        8
 66
   257
 43
1.0
 76
     1
 77
     6
 78
     2
 67
     8
425
  7895160
 79
     3
170
     0
171
     0
290
     0
174
     0
 93
        5
 44
0.0
173
     0
291
     0
 45
0.0
1001
ACAD
1000
AcDbSavedByObjectVersion
1070
     0
  0
VISUALSTYLE
  5
41
102
{ACAD_REACTORS
330
2A
102
}
102
{ACAD_XDICTIONARY
360
3C6
102
}
330
2A
100
AcDbVisualStyle
  2
Shaded with edges
 70
    26
 71
     2
 72
     2
 73
     1
 90
        2
 40
0.6
 41
30.0
 62
     5
 63
     7
421
 16777215
 74
     1
 91
       10
 64
     7
 65
   257
 75
     2
175
     1
 42
1.0
 92
        8
 66
   257
 43
1.0
 76
     1
 77
     6
 78
     2
 67
     7
 79
     3
170
     0
171
     0
290
     0
174
     0
 93
        5
 44
0.0
173
     0
291
     0
 45
0.0
1001
ACAD
1000
AcDbSavedByObjectVersion
1070
     0
  0
VISUALSTYLE
  5
3E
102
{ACAD_REACTORS
330
2A
102
}
102
{ACAD_XDICTIONARY
360
3C0
102
}
330
2A
100
AcDbVisualStyle
  2
Shades of Gray
 70
    23
 71
     2
 72
     2
 73
     3
 90
        0
 40
0.6
 41
30.0
 62
     5
 63
     7
421
 16777215
 74
     2
 91
        2
 64
     7
 65
     7
 75
     1
175
     1
 42
40.0
 92
        8
 66
     7
 43
1.0
 76
     1
 77
     6
 78
     2
 67
     7
 79
     3
170
     0
171
     0
290
     0
174
     0
 93
        1
 44
0.0
173
     0
291
     0
 45
0.0
1001
ACAD
1000
AcDbSavedByObjectVersion
1070
     0
  0
VISUALSTYLE
  5
3F
102
{ACAD_REACTORS
330
2A
102
}
102
{ACAD_XDICTIONARY
360
3C2
102
}
330
2A
100
AcDbVisualStyle
  2
Sketchy
 70
    24
 71
     1
 72
     2
 73
     2
 90
        0
 40
0.6
 41
30.0
 62
     5
 63
     7
421
 16777215
 74
     2
 91
        2
 64
     7
 65
     7
 75
     1
175
     1
 42
40.0
 92
       11
 66
     7
 43
1.0
 76
     1
 77
     6
 78
     2
 67
     7
 79
     6
170
     0
171
     0
290
     0
174
     0
 93
        1
 44
0.0
173
     0
291
     0
 45
0.0
1001
ACAD
1000
AcDbSavedByObjectVersion
1070
     0
  0
VISUALSTYLE
  5
37
102
{ACAD_REACTORS
330
2A
102
}
102
{ACAD_XDICTIONARY
360
3B2
102
}
330
2A
100
AcDbVisualStyle
  2
Thicken
 70
    13
 71
     2
 72
     2
 73
     0
 90
        0
 40
0.6
 41
30.0
 62
     5
 63
     7
421
 16777215
 74
     1
 91
        4
 64
     7
 65
   257
 75
     1
175
     1
 42
1.0
 92
       12
 66
     7
 43
1.0
 76
     1
 77
     6
 78
     2
 67
     7
 79
     5
170
     0
171
     0
290
     0
174
     0
 93
        1
 44
0.0
173
     0
291
     1
 45
0.0
1001
ACAD
1000
AcDbSavedByObjectVersion
1070
     0
  0
VISUALSTYLE
  5
30
102
{ACAD_REACTORS
330
2A
102
}
102
{ACAD_XDICTIONARY
360
3A4
102
}
330
2A
100
AcDbVisualStyle
  2
Wireframe
 70
     5
 71
     0
 72
     2
 73
     0
 90
        0
 40
0.6
 41
30.0
 62
     5
 63
     7
421
 16777215
 74
     1
 91
        4
 64
     7
 65
   257
 75
     1
175
     1
 42
1.0
 92
        0
 66
   257
 43
1.0
 76
     1
 77
     6
 78
     2
 67
     7
 79
     3
170
     0
171
     0
290
     0
174
     0
 93
        1
 44
0.0
173
     0
291
     0
 45
0.0
1001
ACAD
1000
AcDbSavedByObjectVersion
1070
     0
  0
VISUALSTYLE
  5
40
102
{ACAD_REACTORS
330
2A
102
}
102
{ACAD_XDICTIONARY
360
3C4
102
}
330
2A
100
AcDbVisualStyle
  2
X-Ray
 70
    25
 71
     2
 72
     2
 73
     1
 90
        1
 40
0.5
 41
30.0
 62
     5
 63
     7
421
 16777215
 74
     1
 91
        0
 64
     7
 65
   257
 75
     1
175
     1
 42
1.0
 92
        8
 66
     7
 43
1.0
 76
     1
 77
     6
 78
     2
 67
     7
 79
     3
170
     0
171
     0
290
     0
174
     0
 93
       13
 44
0.0
173
     0
291
     0
 45
0.0
1001
ACAD
1000
AcDbSavedByObjectVersion
1070
     0
  0
DICTIONARYVAR
  5
397
102
{ACAD_REACTORS
330
396
102
}
330
396
100
DictionaryVariables
280
     0
  1
1:1
  0
DICTIONARYVAR
  5
3DB
102
{ACAD_REACTORS
330
396
102
}
330
396
100
DictionaryVariables
280
     0
  1
3.500000
  0
DICTIONARYVAR
  5
3DC
102
{ACAD_REACTORS
330
396
102
}
330
396
100
DictionaryVariables
280
     0
  1
acadiso.lin
  0
DICTIONARYVAR
  5
3D8
102
{ACAD_REACTORS
330
396
102
}
330
396
100
DictionaryVariables
280
     0
  1
Standard
  0
DICTIONARYVAR
  5
3D7
102
{ACAD_REACTORS
330
396
102
}
330
396
100
DictionaryVariables
280
     0
  1
Standard
  0
DICTIONARYVAR
  5
398
102
{ACAD_REACTORS
330
396
102
}
330
396
100
DictionaryVariables
280
     0
  1
1
  0
DICTIONARYVAR
  5
399
102
{ACAD_REACTORS
330
396
102
}
330
396
100
DictionaryVariables
280
     0
  1
2
  0
DICTIONARY
  5
3CC
330
45
100
AcDbDictionary
280
     1
281
     1
  3
ACAD_XREC_ROUNDTRIP
360
3CD
  0
DICTIONARY
  5
3CA
330
44
100
AcDbDictionary
280
     1
281
     1
  3
ACAD_XREC_ROUNDTRIP
360
3CB
  0
DICTIONARY
  5
3CE
330
46
100
AcDbDictionary
280
     1
281
     1
  3
ACAD_XREC_ROUNDTRIP
360
3CF
  0
DICTIONARY
  5
3D4
330
6C
100
AcDbDictionary
280
     1
281
     1
  3
ACAD_XREC_ROUNDTRIP
360
3D5
  0
DICTIONARY
  5
3D0
330
6A
100
AcDbDictionary
280
     1
281
     1
  3
ACAD_ROUNDTRIP_2008_TABLESTYLE_CELLSTYLEMAP
360
3D2
  3
ACAD_XREC_ROUNDTRIP
360
3D1
  0
DICTIONARY
  5
3A2
330
2F
100
AcDbDictionary
280
     1
281
     1
  3
ACAD_XREC_ROUNDTRIP
360
3A3
  0
DICTIONARY
  5
3A8
330
32
100
AcDbDictionary
280
     1
281
     1
  3
ACAD_XREC_ROUNDTRIP
360
3A9
  0
DICTIONARY
  5
3B0
330
36
100
AcDbDictionary
280
     1
281
     1
  3
ACAD_XREC_ROUNDTRIP
360
3B1
  0
DICTIONARY
  5
3B8
330
3A
100
AcDbDictionary
280
     1
281
     1
  3
ACAD_XREC_ROUNDTRIP
360
3B9
  0
DICTIONARY
  5
3AC
330
34
100
AcDbDictionary
280
     1
281
     1
  3
ACAD_XREC_ROUNDTRIP
360
3AD
  0
DICTIONARY
  5
3AE
330
35
100
AcDbDictionary
280
     1
281
     1
  3
ACAD_XREC_ROUNDTRIP
360
3AF
  0
DICTIONARY
  5
3BE
330
3D
100
AcDbDictionary
280
     1
281
     1
  3
ACAD_XREC_ROUNDTRIP
360
3BF
  0
DICTIONARY
  5
3B6
330
39
100
AcDbDictionary
280
     1
281
     1
  3
ACAD_XREC_ROUNDTRIP
360
3B7
  0
DICTIONARY
  5
39A
330
2B
100
AcDbDictionary
280
     1
281
     1
  3
ACAD_XREC_ROUNDTRIP
360
39B
  0
DICTIONARY
  5
39C
330
2C
100
AcDbDictionary
280
     1
281
     1
  3
ACAD_XREC_ROUNDTRIP
360
39D
  0
DICTIONARY
  5
39E
330
2D
100
AcDbDictionary
280
     1
281
     1
  3
ACAD_XREC_ROUNDTRIP
360
39F
  0
DICTIONARY
  5
3A0
330
2E
100
AcDbDictionary
280
     1
281
     1
  3
ACAD_XREC_ROUNDTRIP
360
3A1
  0
DICTIONARY
  5
3A6
330
31
100
AcDbDictionary
280
     1
281
     1
  3
ACAD_XREC_ROUNDTRIP
360
3A7
  0
DICTIONARY
  5
3BA
330
3B
100
AcDbDictionary
280
     1
281
     1
  3
ACAD_XREC_ROUNDTRIP
360
3BB
  0
DICTIONARY
  5
3B4
330
38
100
AcDbDictionary
280
     1
281
     1
  3
ACAD_XREC_ROUNDTRIP
360
3B5
  0
DICTIONARY
  5
3BC
330
3C
100
AcDbDictionary
280
     1
281
     1
  3
ACAD_XREC_ROUNDTRIP
360
3BD
  0
DICTIONARY
  5
3AA
330
33
100
AcDbDictionary
280
     1
281
     1
  3
ACAD_XREC_ROUNDTRIP
360
3AB
  0
DICTIONARY
  5
3C8
330
42
100
AcDbDictionary
280
     1
281
     1
  3
ACAD_XREC_ROUNDTRIP
360
3C9
  0
DICTIONARY
  5
3C6
330
41
100
AcDbDictionary
280
     1
281
     1
  3
ACAD_XREC_ROUNDTRIP
360
3C7
  0
DICTIONARY
  5
3C0
330
3E
100
AcDbDictionary
280
     1
281
     1
  3
ACAD_XREC_ROUNDTRIP
360
3C1
  0
DICTIONARY
  5
3C2
330
3F
100
AcDbDictionary
280
     1
281
     1
  3
ACAD_XREC_ROUNDTRIP
360
3C3
  0
DICTIONARY
  5
3B2
330
37
100
AcDbDictionary
280
     1
281
     1
  3
ACAD_XREC_ROUNDTRIP
360
3B3
  0
DICTIONARY
  5
3A4
330
30
100
AcDbDictionary
280
     1
281
     1
  3
ACAD_XREC_ROUNDTRIP
360
3A5
  0
DICTIONARY
  5
3C4
330
40
100
AcDbDictionary
280
     1
281
     1
  3
ACAD_XREC_ROUNDTRIP
360
3C5
  0
XRECORD
  5
3CD
102
{ACAD_REACTORS
330
3CC
102
}
330
3CC
100
AcDbXrecord
280
     1
102
MATERIAL
148
0.0
149
0.0
149
0.0
 93
        0
 94
      127
282
     0
 72
     1
 77
     1
171
     1
175
     1
179
     1
273
     0
  0
XRECORD
  5
3CB
102
{ACAD_REACTORS
330
3CA
102
}
330
3CA
100
AcDbXrecord
280
     1
102
MATERIAL
148
0.0
149
0.0
149
0.0
 93
        0
 94
      127
282
     0
 72
     1
 77
     1
171
     1
175
     1
179
     1
273
     0
  0
XRECORD
  5
3CF
102
{ACAD_REACTORS
330
3CE
102
}
330
3CE
100
AcDbXrecord
280
     1
102
MATERIAL
148
0.0
149
0.0
149
0.0
 93
        0
 94
      127
282
     0
 72
     1
 77
     1
171
     1
175
     1
179
     1
273
     0
  0
XRECORD
  5
3D5
102
{ACAD_REACTORS
330
3D4
102
}
330
3D4
100
AcDbXrecord
280
     1
102
ACAD_ROUNDTRIP_2010_MLEADER_STYLE
  0
CELLSTYLEMAP
  5
3D2
102
{ACAD_REACTORS
330
3D0
102
}
330
3D0
100
AcDbCellStyleMap
 90
        3
300
CELLSTYLE
  1
TABLEFORMAT_BEGIN
 90
        5
170
     1
 91
        0
 92
    32768
 62
   257
 93
        1
300
CONTENTFORMAT
  1
CONTENTFORMAT_BEGIN
 90
        0
 91
        0
 92
        4
 93
        0
300

 40
0.0
140
1.0
 94
        5
 62
     0
340
11
144
6.0
309
CONTENTFORMAT_END
171
     1
301
MARGIN
  1
CELLMARGIN_BEGIN
 40
1.5
 40
1.5
 40
1.5
 40
1.5
 40
1.5
 40
1.5
309
CELLMARGIN_END
 94
        6
 95
        1
302
GRIDFORMAT
  1
GRIDFORMAT_BEGIN
 90
        0
 91
        1
 62
     0
 92
       -2
340
14
 93
        0
 40
0.045
309
GRIDFORMAT_END
 95
        2
302
GRIDFORMAT
  1
GRIDFORMAT_BEGIN
 90
        0
 91
        1
 62
     0
 92
       -2
340
14
 93
        0
 40
0.045
309
GRIDFORMAT_END
 95
        4
302
GRIDFORMAT
  1
GRIDFORMAT_BEGIN
 90
        0
 91
        1
 62
     0
 92
       -2
340
14
 93
        0
 40
0.045
309
GRIDFORMAT_END
 95
        8
302
GRIDFORMAT
  1
GRIDFORMAT_BEGIN
 90
        0
 91
        1
 62
     0
 92
       -2
340
14
 93
        0
 40
0.045
309
GRIDFORMAT_END
 95
       16
302
GRIDFORMAT
  1
GRIDFORMAT_BEGIN
 90
        0
 91
        1
 62
     0
 92
       -2
340
14
 93
        0
 40
0.045
309
GRIDFORMAT_END
 95
       32
302
GRIDFORMAT
  1
GRIDFORMAT_BEGIN
 90
        0
 91
        1
 62
     0
 92
       -2
340
14
 93
        0
 40
0.045
309
GRIDFORMAT_END
309
TABLEFORMAT_END
  1
CELLSTYLE_BEGIN
 90
        1
 91
        1
300
_TITLE
309
CELLSTYLE_END
300
CELLSTYLE
  1
TABLEFORMAT_BEGIN
 90
        5
170
     1
 91
        0
 92
        0
 62
   257
 93
        1
300
CONTENTFORMAT
  1
CONTENTFORMAT_BEGIN
 90
        0
 91
        0
 92
        4
 93
        0
300

 40
0.0
140
1.0
 94
        5
 62
     0
340
11
144
4.5
309
CONTENTFORMAT_END
171
     1
301
MARGIN
  1
CELLMARGIN_BEGIN
 40
1.5
 40
1.5
 40
1.5
 40
1.5
 40
1.5
 40
1.5
309
CELLMARGIN_END
 94
        6
 95
        1
302
GRIDFORMAT
  1
GRIDFORMAT_BEGIN
 90
        0
 91
        1
 62
     0
 92
       -2
340
14
 93
        0
 40
0.045
309
GRIDFORMAT_END
 95
        2
302
GRIDFORMAT
  1
GRIDFORMAT_BEGIN
 90
        0
 91
        1
 62
     0
 92
       -2
340
14
 93
        0
 40
0.045
309
GRIDFORMAT_END
 95
        4
302
GRIDFORMAT
  1
GRIDFORMAT_BEGIN
 90
        0
 91
        1
 62
     0
 92
       -2
340
14
 93
        0
 40
0.045
309
GRIDFORMAT_END
 95
        8
302
GRIDFORMAT
  1
GRIDFORMAT_BEGIN
 90
        0
 91
        1
 62
     0
 92
       -2
340
14
 93
        0
 40
0.045
309
GRIDFORMAT_END
 95
       16
302
GRIDFORMAT
  1
GRIDFORMAT_BEGIN
 90
        0
 91
        1
 62
     0
 92
       -2
340
14
 93
        0
 40
0.045
309
GRIDFORMAT_END
 95
       32
302
GRIDFORMAT
  1
GRIDFORMAT_BEGIN
 90
        0
 91
        1
 62
     0
 92
       -2
340
14
 93
        0
 40
0.045
309
GRIDFORMAT_END
309
TABLEFORMAT_END
  1
CELLSTYLE_BEGIN
 90
        2
 91
        1
300
_HEADER
309
CELLSTYLE_END
300
CELLSTYLE
  1
TABLEFORMAT_BEGIN
 90
        5
170
     1
 91
        0
 92
        0
 62
   257
 93
        1
300
CONTENTFORMAT
  1
CONTENTFORMAT_BEGIN
 90
        0
 91
        0
 92
        4
 93
        0
300

 40
0.0
140
1.0
 94
        2
 62
     0
340
11
144
4.5
309
CONTENTFORMAT_END
171
     1
301
MARGIN
  1
CELLMARGIN_BEGIN
 40
1.5
 40
1.5
 40
1.5
 40
1.5
 40
1.5
 40
1.5
309
CELLMARGIN_END
 94
        6
 95
        1
302
GRIDFORMAT
  1
GRIDFORMAT_BEGIN
 90
        0
 91
        1
 62
     0
 92
       -2
340
14
 93
        0
 40
0.045
309
GRIDFORMAT_END
 95
        2
302
GRIDFORMAT
  1
GRIDFORMAT_BEGIN
 90
        0
 91
        1
 62
     0
 92
       -2
340
14
 93
        0
 40
0.045
309
GRIDFORMAT_END
 95
        4
302
GRIDFORMAT
  1
GRIDFORMAT_BEGIN
 90
        0
 91
        1
 62
     0
 92
       -2
340
14
 93
        0
 40
0.045
309
GRIDFORMAT_END
 95
        8
302
GRIDFORMAT
  1
GRIDFORMAT_BEGIN
 90
        0
 91
        1
 62
     0
 92
       -2
340
14
 93
        0
 40
0.045
309
GRIDFORMAT_END
 95
       16
302
GRIDFORMAT
  1
GRIDFORMAT_BEGIN
 90
        0
 91
        1
 62
     0
 92
       -2
340
14
 93
        0
 40
0.045
309
GRIDFORMAT_END
 95
       32
302
GRIDFORMAT
  1
GRIDFORMAT_BEGIN
 90
        0
 91
        1
 62
     0
 92
       -2
340
14
 93
        0
 40
0.045
309
GRIDFORMAT_END
309
TABLEFORMAT_END
  1
CELLSTYLE_BEGIN
 90
        3
 91
        2
300
_DATA
309
CELLSTYLE_END
  0
XRECORD
  5
3D1
102
{ACAD_REACTORS
330
3D0
102
}
330
3D0
100
AcDbXrecord
280
     1
102
ACAD_ROUNDTRIP_PRE2007_TABLESTYLE
 90
        4
 91
        0
  1

 92
        4
 93
        0
  2

 94
        4
 95
        0
  3

  0
XRECORD
  5
3A3
102
{ACAD_REACTORS
330
3A2
102
}
330
3A2
100
AcDbXrecord
280
     1
102
RTVSPropertyOp0
 70
     1
102
RTVSPropertyOp1
 70
     1
102
RTVSPropertyOp2
 70
     1
102
RTVSPropertyOp3
 70
     1
102
RTVSPropertyOp4
 70
     1
102
RTVSPropertyOp5
 70
     1
102
RTVSPropertyOp6
 70
     1
102
RTVSPropertyOp7
 70
     1
102
RTVSPropertyOp8
 70
     1
102
RTVSPropertyOp9
 70
     1
102
RTVSPropertyOp10
 70
     1
102
RTVSPropertyOp11
 70
     1
102
RTVSPropertyOp12
 70
     1
102
RTVSPropertyOp13
 70
     1
102
RTVSPropertyOp14
 70
     1
102
RTVSPropertyOp15
 70
     1
102
RTVSPropertyOp16
 70
     1
102
RTVSPropertyOp17
 70
     1
102
RTVSPropertyOp18
 70
     1
102
RTVSPropertyOp19
 70
     1
102
RTVSPropertyOp20
 70
     1
102
RTVSPropertyOp21
 70
     1
102
RTVSPropertyOp22
 70
     1
102
RTVSPropertyOp23
 70
     1
102
RTVSPropertyOp24
 70
     1
102
RTVSPropertyOp25
 70
     1
102
RTVSPropertyOp26
 70
     1
102
RTVSPropertyOp27
 70
     1
102
RTVSPropertyOp28
 70
     1
102
RTVSPropertyOp29
 70
     1
102
RTVSPropertyOp30
 70
     1
102
RTVSPropertyOp31
 70
     1
102
RTVSPropertyOp32
 70
     1
102
RTVSPropertyOp33
 70
     1
102
RTVSPropertyOp34
 70
     1
102
RTVSPropertyOp35
 70
     1
102
RTVSPropertyOp36
 70
     1
102
RTVSPropertyOp37
 70
     1
102
RTVSPropertyOp38
 70
     1
102
RTVSPropertyOp39
 70
     1
102
RTVSPropertyOp40
 70
     1
102
RTVSPropertyOp41
 70
     1
102
RTVSPropertyOp42
 70
     1
102
RTVSPropertyOp43
 70
     1
102
RTVSPropertyOp44
 70
     1
102
RTVSPropertyOp45
 70
     1
102
RTVSPropertyOp46
 70
     1
102
RTVSPropertyOp47
 70
     1
102
RTVSPropertyOp48
 70
     1
102
RTVSPropertyOp49
 70
     1
102
RTVSPropertyOp50
 70
     1
102
RTVSPropertyOp51
 70
     0
102
RTVSPropertyOp52
 70
     0
102
RTVSPropertyOp53
 70
     1
102
RTVSPropertyOp54
 70
     1
102
RTVSPropertyOp55
 70
     1
102
RTVSPropertyOp56
 70
     1
102
RTVSPropertyOp57
 70
     1
102
RTVSPost2010Prop28
280
     1
102
RTVSPost2010PropOp28
 70
     1
102
RTVSPost2010Prop29
280
     1
102
RTVSPost2010PropOp29
 70
     1
102
RTVSPost2010Prop30
280
     0
102
RTVSPost2010PropOp30
 70
     1
102
RTVSPost2010Prop31
280
     0
102
RTVSPost2010PropOp31
 70
     1
102
RTVSPost2010Prop32
280
     0
102
RTVSPost2010PropOp32
 70
     1
102
RTVSPost2010Prop33
280
     0
102
RTVSPost2010PropOp33
 70
     1
102
RTVSPost2010Prop34
280
     0
102
RTVSPost2010PropOp34
 70
     1
102
RTVSPost2010Prop35
280
     0
102
RTVSPost2010PropOp35
 70
     1
102
RTVSPost2010Prop36
280
     0
102
RTVSPost2010PropOp36
 70
     1
102
RTVSPost2010Prop37
 90
       50
102
RTVSPost2010PropOp37
 70
     1
102
RTVSPost2010Prop38
140
0.0
102
RTVSPost2010PropOp38
 70
     1
102
RTVSPost2010Prop39
140
1.0
102
RTVSPost2010PropOp39
 70
     1
102
RTVSPost2010Prop40
 90
        0
102
RTVSPost2010PropOp40
 70
     1
102
RTVSPost2010Prop41ColorIndex
 90
       18
102
RTVSPost2010Prop41ColorRGB
 90
        0
102
RTVSPost2010PropOp41
 70
     1
102
RTVSPost2010Prop42
 90
       50
102
RTVSPost2010PropOp42
 70
     1
102
RTVSPost2010Prop43
 90
        3
102
RTVSPost2010PropOp43
 70
     1
102
RTVSPost2010Prop44ColorIndex
 90
        5
102
RTVSPost2010Prop44ColorRGB
 90
      255
102
RTVSPost2010PropOp44
 70
     1
102
RTVSPost2010Prop45
280
     0
102
RTVSPost2010PropOp45
 70
     1
102
RTVSPost2010Prop46
 90
       50
102
RTVSPost2010PropOp46
 70
     1
102
RTVSPost2010Prop47
 90
       50
102
RTVSPost2010PropOp47
 70
     1
102
RTVSPost2010Prop48
 90
       50
102
RTVSPost2010PropOp48
 70
     1
102
RTVSPost2010Prop49
280
     0
102
RTVSPost2010PropOp49
 70
     1
102
RTVSPost2010Prop50
 90
       50
102
RTVSPost2010PropOp50
 70
     1
102
RTVSPost2010Prop51ColorIndex
 90
      256
102
RTVSPost2010Prop51ColorRGB
 90
-16777216
102
RTVSPost2010PropOp51
 70
     0
102
RTVSPost2010Prop52
140
1.0
102
RTVSPost2010PropOp52
 70
     0
102
RTVSPost2010Prop53
 90
        2
102
RTVSPost2010PropOp53
 70
     1
102
RTVSPost2010Prop54
  1
strokes_ogs.tif
102
RTVSPost2010PropOp54
 70
     1
102
RTVSPost2010Prop55
280
     0
102
RTVSPost2010PropOp55
 70
     1
102
RTVSPost2010Prop56
140
1.0
102
RTVSPost2010PropOp56
 70
     1
102
RTVSPost2010Prop57
140
1.0
102
RTVSPost2010PropOp57
 70
     1
  0
XRECORD
  5
3A9
102
{ACAD_REACTORS
330
3A8
102
}
330
3A8
100
AcDbXrecord
280
     1
102
RTVSPropertyOp0
 70
     1
102
RTVSPropertyOp1
 70
     1
102
RTVSPropertyOp2
 70
     1
102
RTVSPropertyOp3
 70
     1
102
RTVSPropertyOp4
 70
     1
102
RTVSPropertyOp5
 70
     1
102
RTVSPropertyOp6
 70
     1
102
RTVSPropertyOp7
 70
     1
102
RTVSPropertyOp8
 70
     1
102
RTVSPropertyOp9
 70
     1
102
RTVSPropertyOp10
 70
     1
102
RTVSPropertyOp11
 70
     1
102
RTVSPropertyOp12
 70
     1
102
RTVSPropertyOp13
 70
     1
102
RTVSPropertyOp14
 70
     1
102
RTVSPropertyOp15
 70
     1
102
RTVSPropertyOp16
 70
     1
102
RTVSPropertyOp17
 70
     1
102
RTVSPropertyOp18
 70
     1
102
RTVSPropertyOp19
 70
     1
102
RTVSPropertyOp20
 70
     1
102
RTVSPropertyOp21
 70
     1
102
RTVSPropertyOp22
 70
     1
102
RTVSPropertyOp23
 70
     1
102
RTVSPropertyOp24
 70
     1
102
RTVSPropertyOp25
 70
     1
102
RTVSPropertyOp26
 70
     1
102
RTVSPropertyOp27
 70
     1
102
RTVSPropertyOp28
 70
     1
102
RTVSPropertyOp29
 70
     1
102
RTVSPropertyOp30
 70
     1
102
RTVSPropertyOp31
 70
     1
102
RTVSPropertyOp32
 70
     1
102
RTVSPropertyOp33
 70
     1
102
RTVSPropertyOp34
 70
     1
102
RTVSPropertyOp35
 70
     1
102
RTVSPropertyOp36
 70
     1
102
RTVSPropertyOp37
 70
     1
102
RTVSPropertyOp38
 70
     1
102
RTVSPropertyOp39
 70
     1
102
RTVSPropertyOp40
 70
     1
102
RTVSPropertyOp41
 70
     1
102
RTVSPropertyOp42
 70
     1
102
RTVSPropertyOp43
 70
     1
102
RTVSPropertyOp44
 70
     1
102
RTVSPropertyOp45
 70
     1
102
RTVSPropertyOp46
 70
     1
102
RTVSPropertyOp47
 70
     1
102
RTVSPropertyOp48
 70
     1
102
RTVSPropertyOp49
 70
     1
102
RTVSPropertyOp50
 70
     1
102
RTVSPropertyOp51
 70
     0
102
RTVSPropertyOp52
 70
     0
102
RTVSPropertyOp53
 70
     1
102
RTVSPropertyOp54
 70
     1
102
RTVSPropertyOp55
 70
     1
102
RTVSPropertyOp56
 70
     1
102
RTVSPropertyOp57
 70
     1
102
RTVSPost2010Prop28
280
     0
102
RTVSPost2010PropOp28
 70
     1
102
RTVSPost2010Prop29
280
     1
102
RTVSPost2010PropOp29
 70
     1
102
RTVSPost2010Prop30
280
     1
102
RTVSPost2010PropOp30
 70
     1
102
RTVSPost2010Prop31
280
     0
102
RTVSPost2010PropOp31
 70
     1
102
RTVSPost2010Prop32
280
     0
102
RTVSPost2010PropOp32
 70
     1
102
RTVSPost2010Prop33
280
     0
102
RTVSPost2010PropOp33
 70
     1
102
RTVSPost2010Prop34
280
     0
102
RTVSPost2010PropOp34
 70
     1
102
RTVSPost2010Prop35
280
     0
102
RTVSPost2010PropOp35
 70
     1
102
RTVSPost2010Prop36
280
     0
102
RTVSPost2010PropOp36
 70
     1
102
RTVSPost2010Prop37
 90
       50
102
RTVSPost2010PropOp37
 70
     1
102
RTVSPost2010Prop38
140
0.0
102
RTVSPost2010PropOp38
 70
     1
102
RTVSPost2010Prop39
140
1.0
102
RTVSPost2010PropOp39
 70
     1
102
RTVSPost2010Prop40
 90
        0
102
RTVSPost2010PropOp40
 70
     1
102
RTVSPost2010Prop41ColorIndex
 90
       18
102
RTVSPost2010Prop41ColorRGB
 90
        0
102
RTVSPost2010PropOp41
 70
     1
102
RTVSPost2010Prop42
 90
       50
102
RTVSPost2010PropOp42
 70
     1
102
RTVSPost2010Prop43
 90
        3
102
RTVSPost2010PropOp43
 70
     1
102
RTVSPost2010Prop44ColorIndex
 90
        5
102
RTVSPost2010Prop44ColorRGB
 90
      255
102
RTVSPost2010PropOp44
 70
     1
102
RTVSPost2010Prop45
280
     0
102
RTVSPost2010PropOp45
 70
     1
102
RTVSPost2010Prop46
 90
       50
102
RTVSPost2010PropOp46
 70
     1
102
RTVSPost2010Prop47
 90
       50
102
RTVSPost2010PropOp47
 70
     1
102
RTVSPost2010Prop48
 90
       50
102
RTVSPost2010PropOp48
 70
     1
102
RTVSPost2010Prop49
280
     0
102
RTVSPost2010PropOp49
 70
     1
102
RTVSPost2010Prop50
 90
       50
102
RTVSPost2010PropOp50
 70
     1
102
RTVSPost2010Prop51ColorIndex
 90
      256
102
RTVSPost2010Prop51ColorRGB
 90
-16777216
102
RTVSPost2010PropOp51
 70
     0
102
RTVSPost2010Prop52
140
1.0
102
RTVSPost2010PropOp52
 70
     0
102
RTVSPost2010Prop53
 90
        2
102
RTVSPost2010PropOp53
 70
     1
102
RTVSPost2010Prop54
  1
strokes_ogs.tif
102
RTVSPost2010PropOp54
 70
     1
102
RTVSPost2010Prop55
280
     0
102
RTVSPost2010PropOp55
 70
     1
102
RTVSPost2010Prop56
140
1.0
102
RTVSPost2010PropOp56
 70
     1
102
RTVSPost2010Prop57
140
1.0
102
RTVSPost2010PropOp57
 70
     1
  0
XRECORD
  5
3B1
102
{ACAD_REACTORS
330
3B0
102
}
330
3B0
100
AcDbXrecord
280
     1
102
RTVSPropertyOp0
 70
     1
102
RTVSPropertyOp1
 70
     1
102
RTVSPropertyOp2
 70
     1
102
RTVSPropertyOp3
 70
     1
102
RTVSPropertyOp4
 70
     1
102
RTVSPropertyOp5
 70
     1
102
RTVSPropertyOp6
 70
     1
102
RTVSPropertyOp7
 70
     1
102
RTVSPropertyOp8
 70
     1
102
RTVSPropertyOp9
 70
     1
102
RTVSPropertyOp10
 70
     1
102
RTVSPropertyOp11
 70
     1
102
RTVSPropertyOp12
 70
     1
102
RTVSPropertyOp13
 70
     1
102
RTVSPropertyOp14
 70
     1
102
RTVSPropertyOp15
 70
     1
102
RTVSPropertyOp16
 70
     1
102
RTVSPropertyOp17
 70
     1
102
RTVSPropertyOp18
 70
     1
102
RTVSPropertyOp19
 70
     1
102
RTVSPropertyOp20
 70
     1
102
RTVSPropertyOp21
 70
     1
102
RTVSPropertyOp22
 70
     1
102
RTVSPropertyOp23
 70
     1
102
RTVSPropertyOp24
 70
     1
102
RTVSPropertyOp25
 70
     1
102
RTVSPropertyOp26
 70
     1
102
RTVSPropertyOp27
 70
     1
102
RTVSPropertyOp28
 70
     1
102
RTVSPropertyOp29
 70
     1
102
RTVSPropertyOp30
 70
     1
102
RTVSPropertyOp31
 70
     1
102
RTVSPropertyOp32
 70
     1
102
RTVSPropertyOp33
 70
     1
102
RTVSPropertyOp34
 70
     1
102
RTVSPropertyOp35
 70
     1
102
RTVSPropertyOp36
 70
     1
102
RTVSPropertyOp37
 70
     1
102
RTVSPropertyOp38
 70
     1
102
RTVSPropertyOp39
 70
     1
102
RTVSPropertyOp40
 70
     1
102
RTVSPropertyOp41
 70
     1
102
RTVSPropertyOp42
 70
     1
102
RTVSPropertyOp43
 70
     1
102
RTVSPropertyOp44
 70
     1
102
RTVSPropertyOp45
 70
     1
102
RTVSPropertyOp46
 70
     1
102
RTVSPropertyOp47
 70
     1
102
RTVSPropertyOp48
 70
     1
102
RTVSPropertyOp49
 70
     1
102
RTVSPropertyOp50
 70
     1
102
RTVSPropertyOp51
 70
     0
102
RTVSPropertyOp52
 70
     0
102
RTVSPropertyOp53
 70
     1
102
RTVSPropertyOp54
 70
     1
102
RTVSPropertyOp55
 70
     1
102
RTVSPropertyOp56
 70
     1
102
RTVSPropertyOp57
 70
     1
102
RTVSPost2010Prop28
280
     0
102
RTVSPost2010PropOp28
 70
     1
102
RTVSPost2010Prop29
280
     1
102
RTVSPost2010PropOp29
 70
     1
102
RTVSPost2010Prop30
280
     1
102
RTVSPost2010PropOp30
 70
     1
102
RTVSPost2010Prop31
280
     0
102
RTVSPost2010PropOp31
 70
     1
102
RTVSPost2010Prop32
280
     0
102
RTVSPost2010PropOp32
 70
     1
102
RTVSPost2010Prop33
280
     0
102
RTVSPost2010PropOp33
 70
     1
102
RTVSPost2010Prop34
280
     0
102
RTVSPost2010PropOp34
 70
     1
102
RTVSPost2010Prop35
280
     0
102
RTVSPost2010PropOp35
 70
     1
102
RTVSPost2010Prop36
280
     0
102
RTVSPost2010PropOp36
 70
     1
102
RTVSPost2010Prop37
 90
       50
102
RTVSPost2010PropOp37
 70
     1
102
RTVSPost2010Prop38
140
0.0
102
RTVSPost2010PropOp38
 70
     1
102
RTVSPost2010Prop39
140
1.0
102
RTVSPost2010PropOp39
 70
     1
102
RTVSPost2010Prop40
 90
        0
102
RTVSPost2010PropOp40
 70
     1
102
RTVSPost2010Prop41ColorIndex
 90
       18
102
RTVSPost2010Prop41ColorRGB
 90
        0
102
RTVSPost2010PropOp41
 70
     1
102
RTVSPost2010Prop42
 90
       50
102
RTVSPost2010PropOp42
 70
     1
102
RTVSPost2010Prop43
 90
        3
102
RTVSPost2010PropOp43
 70
     1
102
RTVSPost2010Prop44ColorIndex
 90
        5
102
RTVSPost2010Prop44ColorRGB
 90
      255
102
RTVSPost2010PropOp44
 70
     1
102
RTVSPost2010Prop45
280
     0
102
RTVSPost2010PropOp45
 70
     1
102
RTVSPost2010Prop46
 90
       50
102
RTVSPost2010PropOp46
 70
     1
102
RTVSPost2010Prop47
 90
       50
102
RTVSPost2010PropOp47
 70
     1
102
RTVSPost2010Prop48
 90
       50
102
RTVSPost2010PropOp48
 70
     1
102
RTVSPost2010Prop49
280
     0
102
RTVSPost2010PropOp49
 70
     1
102
RTVSPost2010Prop50
 90
       50
102
RTVSPost2010PropOp50
 70
     1
102
RTVSPost2010Prop51ColorIndex
 90
      256
102
RTVSPost2010Prop51ColorRGB
 90
-16777216
102
RTVSPost2010PropOp51
 70
     0
102
RTVSPost2010Prop52
140
1.0
102
RTVSPost2010PropOp52
 70
     0
102
RTVSPost2010Prop53
 90
        2
102
RTVSPost2010PropOp53
 70
     1
102
RTVSPost2010Prop54
  1
strokes_ogs.tif
102
RTVSPost2010PropOp54
 70
     1
102
RTVSPost2010Prop55
280
     0
102
RTVSPost2010PropOp55
 70
     1
102
RTVSPost2010Prop56
140
1.0
102
RTVSPost2010PropOp56
 70
     1
102
RTVSPost2010Prop57
140
1.0
102
RTVSPost2010PropOp57
 70
     1
  0
XRECORD
  5
3B9
102
{ACAD_REACTORS
330
3B8
102
}
330
3B8
100
AcDbXrecord
280
     1
102
RTVSPropertyOp0
 70
     1
102
RTVSPropertyOp1
 70
     1
102
RTVSPropertyOp2
 70
     1
102
RTVSPropertyOp3
 70
     1
102
RTVSPropertyOp4
 70
     1
102
RTVSPropertyOp5
 70
     1
102
RTVSPropertyOp6
 70
     1
102
RTVSPropertyOp7
 70
     1
102
RTVSPropertyOp8
 70
     1
102
RTVSPropertyOp9
 70
     1
102
RTVSPropertyOp10
 70
     1
102
RTVSPropertyOp11
 70
     1
102
RTVSPropertyOp12
 70
     1
102
RTVSPropertyOp13
 70
     1
102
RTVSPropertyOp14
 70
     1
102
RTVSPropertyOp15
 70
     1
102
RTVSPropertyOp16
 70
     1
102
RTVSPropertyOp17
 70
     1
102
RTVSPropertyOp18
 70
     1
102
RTVSPropertyOp19
 70
     1
102
RTVSPropertyOp20
 70
     1
102
RTVSPropertyOp21
 70
     1
102
RTVSPropertyOp22
 70
     1
102
RTVSPropertyOp23
 70
     1
102
RTVSPropertyOp24
 70
     1
102
RTVSPropertyOp25
 70
     1
102
RTVSPropertyOp26
 70
     1
102
RTVSPropertyOp27
 70
     1
102
RTVSPropertyOp28
 70
     1
102
RTVSPropertyOp29
 70
     1
102
RTVSPropertyOp30
 70
     1
102
RTVSPropertyOp31
 70
     1
102
RTVSPropertyOp32
 70
     1
102
RTVSPropertyOp33
 70
     1
102
RTVSPropertyOp34
 70
     1
102
RTVSPropertyOp35
 70
     1
102
RTVSPropertyOp36
 70
     1
102
RTVSPropertyOp37
 70
     1
102
RTVSPropertyOp38
 70
     1
102
RTVSPropertyOp39
 70
     1
102
RTVSPropertyOp40
 70
     1
102
RTVSPropertyOp41
 70
     1
102
RTVSPropertyOp42
 70
     1
102
RTVSPropertyOp43
 70
     1
102
RTVSPropertyOp44
 70
     1
102
RTVSPropertyOp45
 70
     1
102
RTVSPropertyOp46
 70
     1
102
RTVSPropertyOp47
 70
     1
102
RTVSPropertyOp48
 70
     1
102
RTVSPropertyOp49
 70
     1
102
RTVSPropertyOp50
 70
     1
102
RTVSPropertyOp51
 70
     0
102
RTVSPropertyOp52
 70
     0
102
RTVSPropertyOp53
 70
     1
102
RTVSPropertyOp54
 70
     1
102
RTVSPropertyOp55
 70
     1
102
RTVSPropertyOp56
 70
     1
102
RTVSPropertyOp57
 70
     1
102
RTVSPost2010Prop28
280
     0
102
RTVSPost2010PropOp28
 70
     1
102
RTVSPost2010Prop29
280
     1
102
RTVSPost2010PropOp29
 70
     1
102
RTVSPost2010Prop30
280
     1
102
RTVSPost2010PropOp30
 70
     1
102
RTVSPost2010Prop31
280
     0
102
RTVSPost2010PropOp31
 70
     1
102
RTVSPost2010Prop32
280
     0
102
RTVSPost2010PropOp32
 70
     1
102
RTVSPost2010Prop33
280
     0
102
RTVSPost2010PropOp33
 70
     1
102
RTVSPost2010Prop34
280
     0
102
RTVSPost2010PropOp34
 70
     1
102
RTVSPost2010Prop35
280
     0
102
RTVSPost2010PropOp35
 70
     1
102
RTVSPost2010Prop36
280
     0
102
RTVSPost2010PropOp36
 70
     1
102
RTVSPost2010Prop37
 90
       50
102
RTVSPost2010PropOp37
 70
     1
102
RTVSPost2010Prop38
140
0.0
102
RTVSPost2010PropOp38
 70
     1
102
RTVSPost2010Prop39
140
1.0
102
RTVSPost2010PropOp39
 70
     1
102
RTVSPost2010Prop40
 90
        0
102
RTVSPost2010PropOp40
 70
     1
102
RTVSPost2010Prop41ColorIndex
 90
       18
102
RTVSPost2010Prop41ColorRGB
 90
        0
102
RTVSPost2010PropOp41
 70
     1
102
RTVSPost2010Prop42
 90
       50
102
RTVSPost2010PropOp42
 70
     1
102
RTVSPost2010Prop43
 90
        3
102
RTVSPost2010PropOp43
 70
     1
102
RTVSPost2010Prop44ColorIndex
 90
        5
102
RTVSPost2010Prop44ColorRGB
 90
      255
102
RTVSPost2010PropOp44
 70
     1
102
RTVSPost2010Prop45
280
     0
102
RTVSPost2010PropOp45
 70
     1
102
RTVSPost2010Prop46
 90
       50
102
RTVSPost2010PropOp46
 70
     1
102
RTVSPost2010Prop47
 90
       50
102
RTVSPost2010PropOp47
 70
     1
102
RTVSPost2010Prop48
 90
       50
102
RTVSPost2010PropOp48
 70
     1
102
RTVSPost2010Prop49
280
     0
102
RTVSPost2010PropOp49
 70
     1
102
RTVSPost2010Prop50
 90
       50
102
RTVSPost2010PropOp50
 70
     1
102
RTVSPost2010Prop51ColorIndex
 90
      256
102
RTVSPost2010Prop51ColorRGB
 90
-16777216
102
RTVSPost2010PropOp51
 70
     0
102
RTVSPost2010Prop52
140
1.0
102
RTVSPost2010PropOp52
 70
     0
102
RTVSPost2010Prop53
 90
        2
102
RTVSPost2010PropOp53
 70
     1
102
RTVSPost2010Prop54
  1
strokes_ogs.tif
102
RTVSPost2010PropOp54
 70
     1
102
RTVSPost2010Prop55
280
     0
102
RTVSPost2010PropOp55
 70
     1
102
RTVSPost2010Prop56
140
1.0
102
RTVSPost2010PropOp56
 70
     1
102
RTVSPost2010Prop57
140
1.0
102
RTVSPost2010PropOp57
 70
     1
  0
XRECORD
  5
3AD
102
{ACAD_REACTORS
330
3AC
102
}
330
3AC
100
AcDbXrecord
280
     1
102
RTVSPropertyOp0
 70
     1
102
RTVSPropertyOp1
 70
     1
102
RTVSPropertyOp2
 70
     1
102
RTVSPropertyOp3
 70
     1
102
RTVSPropertyOp4
 70
     1
102
RTVSPropertyOp5
 70
     1
102
RTVSPropertyOp6
 70
     1
102
RTVSPropertyOp7
 70
     1
102
RTVSPropertyOp8
 70
     1
102
RTVSPropertyOp9
 70
     1
102
RTVSPropertyOp10
 70
     1
102
RTVSPropertyOp11
 70
     1
102
RTVSPropertyOp12
 70
     1
102
RTVSPropertyOp13
 70
     1
102
RTVSPropertyOp14
 70
     1
102
RTVSPropertyOp15
 70
     1
102
RTVSPropertyOp16
 70
     1
102
RTVSPropertyOp17
 70
     1
102
RTVSPropertyOp18
 70
     1
102
RTVSPropertyOp19
 70
     1
102
RTVSPropertyOp20
 70
     1
102
RTVSPropertyOp21
 70
     1
102
RTVSPropertyOp22
 70
     1
102
RTVSPropertyOp23
 70
     1
102
RTVSPropertyOp24
 70
     1
102
RTVSPropertyOp25
 70
     1
102
RTVSPropertyOp26
 70
     1
102
RTVSPropertyOp27
 70
     1
102
RTVSPropertyOp28
 70
     1
102
RTVSPropertyOp29
 70
     1
102
RTVSPropertyOp30
 70
     1
102
RTVSPropertyOp31
 70
     1
102
RTVSPropertyOp32
 70
     1
102
RTVSPropertyOp33
 70
     1
102
RTVSPropertyOp34
 70
     1
102
RTVSPropertyOp35
 70
     1
102
RTVSPropertyOp36
 70
     1
102
RTVSPropertyOp37
 70
     1
102
RTVSPropertyOp38
 70
     1
102
RTVSPropertyOp39
 70
     1
102
RTVSPropertyOp40
 70
     1
102
RTVSPropertyOp41
 70
     1
102
RTVSPropertyOp42
 70
     1
102
RTVSPropertyOp43
 70
     1
102
RTVSPropertyOp44
 70
     1
102
RTVSPropertyOp45
 70
     1
102
RTVSPropertyOp46
 70
     1
102
RTVSPropertyOp47
 70
     1
102
RTVSPropertyOp48
 70
     1
102
RTVSPropertyOp49
 70
     1
102
RTVSPropertyOp50
 70
     1
102
RTVSPropertyOp51
 70
     0
102
RTVSPropertyOp52
 70
     0
102
RTVSPropertyOp53
 70
     1
102
RTVSPropertyOp54
 70
     1
102
RTVSPropertyOp55
 70
     1
102
RTVSPropertyOp56
 70
     1
102
RTVSPropertyOp57
 70
     1
102
RTVSPost2010Prop28
280
     0
102
RTVSPost2010PropOp28
 70
     1
102
RTVSPost2010Prop29
280
     1
102
RTVSPost2010PropOp29
 70
     1
102
RTVSPost2010Prop30
280
     1
102
RTVSPost2010PropOp30
 70
     1
102
RTVSPost2010Prop31
280
     0
102
RTVSPost2010PropOp31
 70
     1
102
RTVSPost2010Prop32
280
     0
102
RTVSPost2010PropOp32
 70
     1
102
RTVSPost2010Prop33
280
     0
102
RTVSPost2010PropOp33
 70
     1
102
RTVSPost2010Prop34
280
     0
102
RTVSPost2010PropOp34
 70
     1
102
RTVSPost2010Prop35
280
     0
102
RTVSPost2010PropOp35
 70
     1
102
RTVSPost2010Prop36
280
     0
102
RTVSPost2010PropOp36
 70
     1
102
RTVSPost2010Prop37
 90
       50
102
RTVSPost2010PropOp37
 70
     1
102
RTVSPost2010Prop38
140
0.0
102
RTVSPost2010PropOp38
 70
     1
102
RTVSPost2010Prop39
140
1.0
102
RTVSPost2010PropOp39
 70
     1
102
RTVSPost2010Prop40
 90
        0
102
RTVSPost2010PropOp40
 70
     1
102
RTVSPost2010Prop41ColorIndex
 90
       18
102
RTVSPost2010Prop41ColorRGB
 90
        0
102
RTVSPost2010PropOp41
 70
     1
102
RTVSPost2010Prop42
 90
       50
102
RTVSPost2010PropOp42
 70
     1
102
RTVSPost2010Prop43
 90
        3
102
RTVSPost2010PropOp43
 70
     1
102
RTVSPost2010Prop44ColorIndex
 90
        5
102
RTVSPost2010Prop44ColorRGB
 90
      255
102
RTVSPost2010PropOp44
 70
     1
102
RTVSPost2010Prop45
280
     0
102
RTVSPost2010PropOp45
 70
     1
102
RTVSPost2010Prop46
 90
       50
102
RTVSPost2010PropOp46
 70
     1
102
RTVSPost2010Prop47
 90
       50
102
RTVSPost2010PropOp47
 70
     1
102
RTVSPost2010Prop48
 90
       50
102
RTVSPost2010PropOp48
 70
     1
102
RTVSPost2010Prop49
280
     0
102
RTVSPost2010PropOp49
 70
     1
102
RTVSPost2010Prop50
 90
       50
102
RTVSPost2010PropOp50
 70
     1
102
RTVSPost2010Prop51ColorIndex
 90
      256
102
RTVSPost2010Prop51ColorRGB
 90
-16777216
102
RTVSPost2010PropOp51
 70
     0
102
RTVSPost2010Prop52
140
1.0
102
RTVSPost2010PropOp52
 70
     0
102
RTVSPost2010Prop53
 90
        2
102
RTVSPost2010PropOp53
 70
     1
102
RTVSPost2010Prop54
  1
strokes_ogs.tif
102
RTVSPost2010PropOp54
 70
     1
102
RTVSPost2010Prop55
280
     0
102
RTVSPost2010PropOp55
 70
     1
102
RTVSPost2010Prop56
140
1.0
102
RTVSPost2010PropOp56
 70
     1
102
RTVSPost2010Prop57
140
1.0
102
RTVSPost2010PropOp57
 70
     1
  0
XRECORD
  5
3AF
102
{ACAD_REACTORS
330
3AE
102
}
330
3AE
100
AcDbXrecord
280
     1
102
RTVSPropertyOp0
 70
     1
102
RTVSPropertyOp1
 70
     1
102
RTVSPropertyOp2
 70
     1
102
RTVSPropertyOp3
 70
     1
102
RTVSPropertyOp4
 70
     1
102
RTVSPropertyOp5
 70
     1
102
RTVSPropertyOp6
 70
     1
102
RTVSPropertyOp7
 70
     1
102
RTVSPropertyOp8
 70
     1
102
RTVSPropertyOp9
 70
     1
102
RTVSPropertyOp10
 70
     1
102
RTVSPropertyOp11
 70
     1
102
RTVSPropertyOp12
 70
     1
102
RTVSPropertyOp13
 70
     1
102
RTVSPropertyOp14
 70
     1
102
RTVSPropertyOp15
 70
     1
102
RTVSPropertyOp16
 70
     1
102
RTVSPropertyOp17
 70
     1
102
RTVSPropertyOp18
 70
     1
102
RTVSPropertyOp19
 70
     1
102
RTVSPropertyOp20
 70
     1
102
RTVSPropertyOp21
 70
     1
102
RTVSPropertyOp22
 70
     1
102
RTVSPropertyOp23
 70
     1
102
RTVSPropertyOp24
 70
     1
102
RTVSPropertyOp25
 70
     1
102
RTVSPropertyOp26
 70
     1
102
RTVSPropertyOp27
 70
     1
102
RTVSPropertyOp28
 70
     1
102
RTVSPropertyOp29
 70
     1
102
RTVSPropertyOp30
 70
     1
102
RTVSPropertyOp31
 70
     1
102
RTVSPropertyOp32
 70
     1
102
RTVSPropertyOp33
 70
     1
102
RTVSPropertyOp34
 70
     1
102
RTVSPropertyOp35
 70
     1
102
RTVSPropertyOp36
 70
     1
102
RTVSPropertyOp37
 70
     1
102
RTVSPropertyOp38
 70
     1
102
RTVSPropertyOp39
 70
     1
102
RTVSPropertyOp40
 70
     1
102
RTVSPropertyOp41
 70
     1
102
RTVSPropertyOp42
 70
     1
102
RTVSPropertyOp43
 70
     1
102
RTVSPropertyOp44
 70
     1
102
RTVSPropertyOp45
 70
     1
102
RTVSPropertyOp46
 70
     1
102
RTVSPropertyOp47
 70
     1
102
RTVSPropertyOp48
 70
     1
102
RTVSPropertyOp49
 70
     1
102
RTVSPropertyOp50
 70
     1
102
RTVSPropertyOp51
 70
     0
102
RTVSPropertyOp52
 70
     0
102
RTVSPropertyOp53
 70
     1
102
RTVSPropertyOp54
 70
     1
102
RTVSPropertyOp55
 70
     1
102
RTVSPropertyOp56
 70
     1
102
RTVSPropertyOp57
 70
     1
102
RTVSPost2010Prop28
280
     0
102
RTVSPost2010PropOp28
 70
     1
102
RTVSPost2010Prop29
280
     1
102
RTVSPost2010PropOp29
 70
     1
102
RTVSPost2010Prop30
280
     1
102
RTVSPost2010PropOp30
 70
     1
102
RTVSPost2010Prop31
280
     0
102
RTVSPost2010PropOp31
 70
     1
102
RTVSPost2010Prop32
280
     0
102
RTVSPost2010PropOp32
 70
     1
102
RTVSPost2010Prop33
280
     0
102
RTVSPost2010PropOp33
 70
     1
102
RTVSPost2010Prop34
280
     0
102
RTVSPost2010PropOp34
 70
     1
102
RTVSPost2010Prop35
280
     0
102
RTVSPost2010PropOp35
 70
     1
102
RTVSPost2010Prop36
280
     0
102
RTVSPost2010PropOp36
 70
     1
102
RTVSPost2010Prop37
 90
       50
102
RTVSPost2010PropOp37
 70
     1
102
RTVSPost2010Prop38
140
0.0
102
RTVSPost2010PropOp38
 70
     1
102
RTVSPost2010Prop39
140
1.0
102
RTVSPost2010PropOp39
 70
     1
102
RTVSPost2010Prop40
 90
        0
102
RTVSPost2010PropOp40
 70
     1
102
RTVSPost2010Prop41ColorIndex
 90
       18
102
RTVSPost2010Prop41ColorRGB
 90
        0
102
RTVSPost2010PropOp41
 70
     1
102
RTVSPost2010Prop42
 90
       50
102
RTVSPost2010PropOp42
 70
     1
102
RTVSPost2010Prop43
 90
        3
102
RTVSPost2010PropOp43
 70
     1
102
RTVSPost2010Prop44ColorIndex
 90
        5
102
RTVSPost2010Prop44ColorRGB
 90
      255
102
RTVSPost2010PropOp44
 70
     1
102
RTVSPost2010Prop45
280
     0
102
RTVSPost2010PropOp45
 70
     1
102
RTVSPost2010Prop46
 90
       50
102
RTVSPost2010PropOp46
 70
     1
102
RTVSPost2010Prop47
 90
       50
102
RTVSPost2010PropOp47
 70
     1
102
RTVSPost2010Prop48
 90
       50
102
RTVSPost2010PropOp48
 70
     1
102
RTVSPost2010Prop49
280
     0
102
RTVSPost2010PropOp49
 70
     1
102
RTVSPost2010Prop50
 90
       50
102
RTVSPost2010PropOp50
 70
     1
102
RTVSPost2010Prop51ColorIndex
 90
      256
102
RTVSPost2010Prop51ColorRGB
 90
-16777216
102
RTVSPost2010PropOp51
 70
     0
102
RTVSPost2010Prop52
140
1.0
102
RTVSPost2010PropOp52
 70
     0
102
RTVSPost2010Prop53
 90
        2
102
RTVSPost2010PropOp53
 70
     1
102
RTVSPost2010Prop54
  1
strokes_ogs.tif
102
RTVSPost2010PropOp54
 70
     1
102
RTVSPost2010Prop55
280
     0
102
RTVSPost2010PropOp55
 70
     1
102
RTVSPost2010Prop56
140
1.0
102
RTVSPost2010PropOp56
 70
     1
102
RTVSPost2010Prop57
140
1.0
102
RTVSPost2010PropOp57
 70
     1
  0
XRECORD
  5
3BF
102
{ACAD_REACTORS
330
3BE
102
}
330
3BE
100
AcDbXrecord
280
     1
102
RTVSPropertyOp0
 70
     0
102
RTVSPropertyOp1
 70
     0
102
RTVSPropertyOp2
 70
     0
102
RTVSPropertyOp3
 70
     0
102
RTVSPropertyOp4
 70
     0
102
RTVSPropertyOp5
 70
     0
102
RTVSPropertyOp6
 70
     0
102
RTVSPropertyOp7
 70
     0
102
RTVSPropertyOp8
 70
     0
102
RTVSPropertyOp9
 70
     0
102
RTVSPropertyOp10
 70
     0
102
RTVSPropertyOp11
 70
     0
102
RTVSPropertyOp12
 70
     0
102
RTVSPropertyOp13
 70
     0
102
RTVSPropertyOp14
 70
     2
102
RTVSPropertyOp15
 70
     0
102
RTVSPropertyOp16
 70
     0
102
RTVSPropertyOp17
 70
     0
102
RTVSPropertyOp18
 70
     0
102
RTVSPropertyOp19
 70
     0
102
RTVSPropertyOp20
 70
     0
102
RTVSPropertyOp21
 70
     0
102
RTVSPropertyOp22
 70
     0
102
RTVSPropertyOp23
 70
     0
102
RTVSPropertyOp24
 70
     0
102
RTVSPropertyOp25
 70
     0
102
RTVSPropertyOp26
 70
     0
102
RTVSPropertyOp27
 70
     0
102
RTVSPropertyOp28
 70
     0
102
RTVSPropertyOp29
 70
     0
102
RTVSPropertyOp30
 70
     0
102
RTVSPropertyOp31
 70
     0
102
RTVSPropertyOp32
 70
     0
102
RTVSPropertyOp33
 70
     0
102
RTVSPropertyOp34
 70
     0
102
RTVSPropertyOp35
 70
     0
102
RTVSPropertyOp36
 70
     0
102
RTVSPropertyOp37
 70
     0
102
RTVSPropertyOp38
 70
     0
102
RTVSPropertyOp39
 70
     0
102
RTVSPropertyOp40
 70
     0
102
RTVSPropertyOp41
 70
     0
102
RTVSPropertyOp42
 70
     0
102
RTVSPropertyOp43
 70
     0
102
RTVSPropertyOp44
 70
     0
102
RTVSPropertyOp45
 70
     0
102
RTVSPropertyOp46
 70
     0
102
RTVSPropertyOp47
 70
     0
102
RTVSPropertyOp48
 70
     0
102
RTVSPropertyOp49
 70
     0
102
RTVSPropertyOp50
 70
     0
102
RTVSPropertyOp51
 70
     0
102
RTVSPropertyOp52
 70
     0
102
RTVSPropertyOp53
 70
     0
102
RTVSPropertyOp54
 70
     0
102
RTVSPropertyOp55
 70
     0
102
RTVSPropertyOp56
 70
     0
102
RTVSPropertyOp57
 70
     0
102
RTVSPost2010Prop28
280
     0
102
RTVSPost2010PropOp28
 70
     0
102
RTVSPost2010Prop29
280
     1
102
RTVSPost2010PropOp29
 70
     0
102
RTVSPost2010Prop30
280
     1
102
RTVSPost2010PropOp30
 70
     0
102
RTVSPost2010Prop31
280
     0
102
RTVSPost2010PropOp31
 70
     0
102
RTVSPost2010Prop32
280
     0
102
RTVSPost2010PropOp32
 70
     0
102
RTVSPost2010Prop33
280
     0
102
RTVSPost2010PropOp33
 70
     0
102
RTVSPost2010Prop34
280
     0
102
RTVSPost2010PropOp34
 70
     0
102
RTVSPost2010Prop35
280
     0
102
RTVSPost2010PropOp35
 70
     0
102
RTVSPost2010Prop36
280
     0
102
RTVSPost2010PropOp36
 70
     0
102
RTVSPost2010Prop37
 90
       50
102
RTVSPost2010PropOp37
 70
     0
102
RTVSPost2010Prop38
140
0.0
102
RTVSPost2010PropOp38
 70
     0
102
RTVSPost2010Prop39
140
1.0
102
RTVSPost2010PropOp39
 70
     0
102
RTVSPost2010Prop40
 90
        0
102
RTVSPost2010PropOp40
 70
     0
102
RTVSPost2010Prop41ColorIndex
 90
       18
102
RTVSPost2010Prop41ColorRGB
 90
        0
102
RTVSPost2010PropOp41
 70
     0
102
RTVSPost2010Prop42
 90
       50
102
RTVSPost2010PropOp42
 70
     0
102
RTVSPost2010Prop43
 90
        3
102
RTVSPost2010PropOp43
 70
     0
102
RTVSPost2010Prop44ColorIndex
 90
        5
102
RTVSPost2010Prop44ColorRGB
 90
      255
102
RTVSPost2010PropOp44
 70
     0
102
RTVSPost2010Prop45
280
     0
102
RTVSPost2010PropOp45
 70
     0
102
RTVSPost2010Prop46
 90
       50
102
RTVSPost2010PropOp46
 70
     0
102
RTVSPost2010Prop47
 90
       50
102
RTVSPost2010PropOp47
 70
     0
102
RTVSPost2010Prop48
 90
       50
102
RTVSPost2010PropOp48
 70
     0
102
RTVSPost2010Prop49
280
     0
102
RTVSPost2010PropOp49
 70
     0
102
RTVSPost2010Prop50
 90
       50
102
RTVSPost2010PropOp50
 70
     0
102
RTVSPost2010Prop51ColorIndex
 90
      256
102
RTVSPost2010Prop51ColorRGB
 90
-16777216
102
RTVSPost2010PropOp51
 70
     0
102
RTVSPost2010Prop52
140
1.0
102
RTVSPost2010PropOp52
 70
     0
102
RTVSPost2010Prop53
 90
        2
102
RTVSPost2010PropOp53
 70
     0
102
RTVSPost2010Prop54
  1
strokes_ogs.tif
102
RTVSPost2010PropOp54
 70
     0
102
RTVSPost2010Prop55
280
     0
102
RTVSPost2010PropOp55
 70
     0
102
RTVSPost2010Prop56
140
1.0
102
RTVSPost2010PropOp56
 70
     0
102
RTVSPost2010Prop57
140
1.0
102
RTVSPost2010PropOp57
 70
     0
  0
XRECORD
  5
3B7
102
{ACAD_REACTORS
330
3B6
102
}
330
3B6
100
AcDbXrecord
280
     1
102
RTVSPropertyOp0
 70
     1
102
RTVSPropertyOp1
 70
     1
102
RTVSPropertyOp2
 70
     1
102
RTVSPropertyOp3
 70
     1
102
RTVSPropertyOp4
 70
     1
102
RTVSPropertyOp5
 70
     1
102
RTVSPropertyOp6
 70
     1
102
RTVSPropertyOp7
 70
     1
102
RTVSPropertyOp8
 70
     1
102
RTVSPropertyOp9
 70
     1
102
RTVSPropertyOp10
 70
     1
102
RTVSPropertyOp11
 70
     1
102
RTVSPropertyOp12
 70
     1
102
RTVSPropertyOp13
 70
     1
102
RTVSPropertyOp14
 70
     1
102
RTVSPropertyOp15
 70
     1
102
RTVSPropertyOp16
 70
     1
102
RTVSPropertyOp17
 70
     1
102
RTVSPropertyOp18
 70
     1
102
RTVSPropertyOp19
 70
     1
102
RTVSPropertyOp20
 70
     1
102
RTVSPropertyOp21
 70
     1
102
RTVSPropertyOp22
 70
     1
102
RTVSPropertyOp23
 70
     1
102
RTVSPropertyOp24
 70
     1
102
RTVSPropertyOp25
 70
     1
102
RTVSPropertyOp26
 70
     1
102
RTVSPropertyOp27
 70
     1
102
RTVSPropertyOp28
 70
     1
102
RTVSPropertyOp29
 70
     1
102
RTVSPropertyOp30
 70
     1
102
RTVSPropertyOp31
 70
     1
102
RTVSPropertyOp32
 70
     1
102
RTVSPropertyOp33
 70
     1
102
RTVSPropertyOp34
 70
     1
102
RTVSPropertyOp35
 70
     1
102
RTVSPropertyOp36
 70
     1
102
RTVSPropertyOp37
 70
     1
102
RTVSPropertyOp38
 70
     1
102
RTVSPropertyOp39
 70
     1
102
RTVSPropertyOp40
 70
     1
102
RTVSPropertyOp41
 70
     1
102
RTVSPropertyOp42
 70
     1
102
RTVSPropertyOp43
 70
     1
102
RTVSPropertyOp44
 70
     1
102
RTVSPropertyOp45
 70
     1
102
RTVSPropertyOp46
 70
     1
102
RTVSPropertyOp47
 70
     1
102
RTVSPropertyOp48
 70
     1
102
RTVSPropertyOp49
 70
     1
102
RTVSPropertyOp50
 70
     1
102
RTVSPropertyOp51
 70
     0
102
RTVSPropertyOp52
 70
     0
102
RTVSPropertyOp53
 70
     1
102
RTVSPropertyOp54
 70
     1
102
RTVSPropertyOp55
 70
     1
102
RTVSPropertyOp56
 70
     1
102
RTVSPropertyOp57
 70
     1
102
RTVSPost2010Prop28
280
     0
102
RTVSPost2010PropOp28
 70
     1
102
RTVSPost2010Prop29
280
     1
102
RTVSPost2010PropOp29
 70
     1
102
RTVSPost2010Prop30
280
     1
102
RTVSPost2010PropOp30
 70
     1
102
RTVSPost2010Prop31
280
     0
102
RTVSPost2010PropOp31
 70
     1
102
RTVSPost2010Prop32
280
     0
102
RTVSPost2010PropOp32
 70
     1
102
RTVSPost2010Prop33
280
     0
102
RTVSPost2010PropOp33
 70
     1
102
RTVSPost2010Prop34
280
     0
102
RTVSPost2010PropOp34
 70
     1
102
RTVSPost2010Prop35
280
     0
102
RTVSPost2010PropOp35
 70
     1
102
RTVSPost2010Prop36
280
     0
102
RTVSPost2010PropOp36
 70
     1
102
RTVSPost2010Prop37
 90
       50
102
RTVSPost2010PropOp37
 70
     1
102
RTVSPost2010Prop38
140
0.0
102
RTVSPost2010PropOp38
 70
     1
102
RTVSPost2010Prop39
140
1.0
102
RTVSPost2010PropOp39
 70
     1
102
RTVSPost2010Prop40
 90
        0
102
RTVSPost2010PropOp40
 70
     1
102
RTVSPost2010Prop41ColorIndex
 90
       18
102
RTVSPost2010Prop41ColorRGB
 90
        0
102
RTVSPost2010PropOp41
 70
     1
102
RTVSPost2010Prop42
 90
       50
102
RTVSPost2010PropOp42
 70
     1
102
RTVSPost2010Prop43
 90
        3
102
RTVSPost2010PropOp43
 70
     1
102
RTVSPost2010Prop44ColorIndex
 90
        5
102
RTVSPost2010Prop44ColorRGB
 90
      255
102
RTVSPost2010PropOp44
 70
     1
102
RTVSPost2010Prop45
280
     0
102
RTVSPost2010PropOp45
 70
     1
102
RTVSPost2010Prop46
 90
       50
102
RTVSPost2010PropOp46
 70
     1
102
RTVSPost2010Prop47
 90
       50
102
RTVSPost2010PropOp47
 70
     1
102
RTVSPost2010Prop48
 90
       50
102
RTVSPost2010PropOp48
 70
     1
102
RTVSPost2010Prop49
280
     0
102
RTVSPost2010PropOp49
 70
     1
102
RTVSPost2010Prop50
 90
       50
102
RTVSPost2010PropOp50
 70
     1
102
RTVSPost2010Prop51ColorIndex
 90
      256
102
RTVSPost2010Prop51ColorRGB
 90
-16777216
102
RTVSPost2010PropOp51
 70
     0
102
RTVSPost2010Prop52
140
1.0
102
RTVSPost2010PropOp52
 70
     0
102
RTVSPost2010Prop53
 90
        2
102
RTVSPost2010PropOp53
 70
     1
102
RTVSPost2010Prop54
  1
strokes_ogs.tif
102
RTVSPost2010PropOp54
 70
     1
102
RTVSPost2010Prop55
280
     0
102
RTVSPost2010PropOp55
 70
     1
102
RTVSPost2010Prop56
140
1.0
102
RTVSPost2010PropOp56
 70
     1
102
RTVSPost2010Prop57
140
1.0
102
RTVSPost2010PropOp57
 70
     1
  0
XRECORD
  5
39B
102
{ACAD_REACTORS
330
39A
102
}
330
39A
100
AcDbXrecord
280
     1
102
RTVSPropertyOp0
 70
     1
102
RTVSPropertyOp1
 70
     1
102
RTVSPropertyOp2
 70
     1
102
RTVSPropertyOp3
 70
     1
102
RTVSPropertyOp4
 70
     1
102
RTVSPropertyOp5
 70
     1
102
RTVSPropertyOp6
 70
     1
102
RTVSPropertyOp7
 70
     1
102
RTVSPropertyOp8
 70
     1
102
RTVSPropertyOp9
 70
     1
102
RTVSPropertyOp10
 70
     1
102
RTVSPropertyOp11
 70
     1
102
RTVSPropertyOp12
 70
     1
102
RTVSPropertyOp13
 70
     1
102
RTVSPropertyOp14
 70
     1
102
RTVSPropertyOp15
 70
     1
102
RTVSPropertyOp16
 70
     1
102
RTVSPropertyOp17
 70
     1
102
RTVSPropertyOp18
 70
     1
102
RTVSPropertyOp19
 70
     1
102
RTVSPropertyOp20
 70
     1
102
RTVSPropertyOp21
 70
     1
102
RTVSPropertyOp22
 70
     1
102
RTVSPropertyOp23
 70
     1
102
RTVSPropertyOp24
 70
     1
102
RTVSPropertyOp25
 70
     1
102
RTVSPropertyOp26
 70
     1
102
RTVSPropertyOp27
 70
     1
102
RTVSPropertyOp28
 70
     1
102
RTVSPropertyOp29
 70
     1
102
RTVSPropertyOp30
 70
     1
102
RTVSPropertyOp31
 70
     1
102
RTVSPropertyOp32
 70
     1
102
RTVSPropertyOp33
 70
     1
102
RTVSPropertyOp34
 70
     1
102
RTVSPropertyOp35
 70
     1
102
RTVSPropertyOp36
 70
     1
102
RTVSPropertyOp37
 70
     1
102
RTVSPropertyOp38
 70
     1
102
RTVSPropertyOp39
 70
     1
102
RTVSPropertyOp40
 70
     1
102
RTVSPropertyOp41
 70
     1
102
RTVSPropertyOp42
 70
     1
102
RTVSPropertyOp43
 70
     1
102
RTVSPropertyOp44
 70
     1
102
RTVSPropertyOp45
 70
     1
102
RTVSPropertyOp46
 70
     1
102
RTVSPropertyOp47
 70
     1
102
RTVSPropertyOp48
 70
     1
102
RTVSPropertyOp49
 70
     1
102
RTVSPropertyOp50
 70
     1
102
RTVSPropertyOp51
 70
     0
102
RTVSPropertyOp52
 70
     0
102
RTVSPropertyOp53
 70
     1
102
RTVSPropertyOp54
 70
     1
102
RTVSPropertyOp55
 70
     1
102
RTVSPropertyOp56
 70
     1
102
RTVSPropertyOp57
 70
     1
102
RTVSPost2010Prop28
280
     0
102
RTVSPost2010PropOp28
 70
     1
102
RTVSPost2010Prop29
280
     1
102
RTVSPost2010PropOp29
 70
     1
102
RTVSPost2010Prop30
280
     1
102
RTVSPost2010PropOp30
 70
     1
102
RTVSPost2010Prop31
280
     0
102
RTVSPost2010PropOp31
 70
     1
102
RTVSPost2010Prop32
280
     0
102
RTVSPost2010PropOp32
 70
     1
102
RTVSPost2010Prop33
280
     0
102
RTVSPost2010PropOp33
 70
     1
102
RTVSPost2010Prop34
280
     0
102
RTVSPost2010PropOp34
 70
     1
102
RTVSPost2010Prop35
280
     0
102
RTVSPost2010PropOp35
 70
     1
102
RTVSPost2010Prop36
280
     0
102
RTVSPost2010PropOp36
 70
     1
102
RTVSPost2010Prop37
 90
       50
102
RTVSPost2010PropOp37
 70
     1
102
RTVSPost2010Prop38
140
0.0
102
RTVSPost2010PropOp38
 70
     1
102
RTVSPost2010Prop39
140
1.0
102
RTVSPost2010PropOp39
 70
     1
102
RTVSPost2010Prop40
 90
        0
102
RTVSPost2010PropOp40
 70
     1
102
RTVSPost2010Prop41ColorIndex
 90
       18
102
RTVSPost2010Prop41ColorRGB
 90
        0
102
RTVSPost2010PropOp41
 70
     1
102
RTVSPost2010Prop42
 90
       50
102
RTVSPost2010PropOp42
 70
     1
102
RTVSPost2010Prop43
 90
        3
102
RTVSPost2010PropOp43
 70
     1
102
RTVSPost2010Prop44ColorIndex
 90
        5
102
RTVSPost2010Prop44ColorRGB
 90
      255
102
RTVSPost2010PropOp44
 70
     1
102
RTVSPost2010Prop45
280
     0
102
RTVSPost2010PropOp45
 70
     1
102
RTVSPost2010Prop46
 90
       50
102
RTVSPost2010PropOp46
 70
     1
102
RTVSPost2010Prop47
 90
       50
102
RTVSPost2010PropOp47
 70
     1
102
RTVSPost2010Prop48
 90
       50
102
RTVSPost2010PropOp48
 70
     1
102
RTVSPost2010Prop49
280
     0
102
RTVSPost2010PropOp49
 70
     1
102
RTVSPost2010Prop50
 90
       50
102
RTVSPost2010PropOp50
 70
     1
102
RTVSPost2010Prop51ColorIndex
 90
      256
102
RTVSPost2010Prop51ColorRGB
 90
-16777216
102
RTVSPost2010PropOp51
 70
     0
102
RTVSPost2010Prop52
140
1.0
102
RTVSPost2010PropOp52
 70
     0
102
RTVSPost2010Prop53
 90
        2
102
RTVSPost2010PropOp53
 70
     1
102
RTVSPost2010Prop54
  1
strokes_ogs.tif
102
RTVSPost2010PropOp54
 70
     1
102
RTVSPost2010Prop55
280
     0
102
RTVSPost2010PropOp55
 70
     1
102
RTVSPost2010Prop56
140
1.0
102
RTVSPost2010PropOp56
 70
     1
102
RTVSPost2010Prop57
140
1.0
102
RTVSPost2010PropOp57
 70
     1
  0
XRECORD
  5
39D
102
{ACAD_REACTORS
330
39C
102
}
330
39C
100
AcDbXrecord
280
     1
102
RTVSPropertyOp0
 70
     1
102
RTVSPropertyOp1
 70
     1
102
RTVSPropertyOp2
 70
     1
102
RTVSPropertyOp3
 70
     1
102
RTVSPropertyOp4
 70
     1
102
RTVSPropertyOp5
 70
     1
102
RTVSPropertyOp6
 70
     1
102
RTVSPropertyOp7
 70
     1
102
RTVSPropertyOp8
 70
     1
102
RTVSPropertyOp9
 70
     1
102
RTVSPropertyOp10
 70
     1
102
RTVSPropertyOp11
 70
     1
102
RTVSPropertyOp12
 70
     1
102
RTVSPropertyOp13
 70
     1
102
RTVSPropertyOp14
 70
     1
102
RTVSPropertyOp15
 70
     1
102
RTVSPropertyOp16
 70
     1
102
RTVSPropertyOp17
 70
     1
102
RTVSPropertyOp18
 70
     1
102
RTVSPropertyOp19
 70
     1
102
RTVSPropertyOp20
 70
     1
102
RTVSPropertyOp21
 70
     1
102
RTVSPropertyOp22
 70
     1
102
RTVSPropertyOp23
 70
     1
102
RTVSPropertyOp24
 70
     1
102
RTVSPropertyOp25
 70
     1
102
RTVSPropertyOp26
 70
     1
102
RTVSPropertyOp27
 70
     1
102
RTVSPropertyOp28
 70
     1
102
RTVSPropertyOp29
 70
     1
102
RTVSPropertyOp30
 70
     1
102
RTVSPropertyOp31
 70
     1
102
RTVSPropertyOp32
 70
     1
102
RTVSPropertyOp33
 70
     1
102
RTVSPropertyOp34
 70
     1
102
RTVSPropertyOp35
 70
     1
102
RTVSPropertyOp36
 70
     1
102
RTVSPropertyOp37
 70
     1
102
RTVSPropertyOp38
 70
     1
102
RTVSPropertyOp39
 70
     1
102
RTVSPropertyOp40
 70
     1
102
RTVSPropertyOp41
 70
     1
102
RTVSPropertyOp42
 70
     1
102
RTVSPropertyOp43
 70
     1
102
RTVSPropertyOp44
 70
     1
102
RTVSPropertyOp45
 70
     1
102
RTVSPropertyOp46
 70
     1
102
RTVSPropertyOp47
 70
     1
102
RTVSPropertyOp48
 70
     1
102
RTVSPropertyOp49
 70
     1
102
RTVSPropertyOp50
 70
     1
102
RTVSPropertyOp51
 70
     0
102
RTVSPropertyOp52
 70
     0
102
RTVSPropertyOp53
 70
     1
102
RTVSPropertyOp54
 70
     1
102
RTVSPropertyOp55
 70
     1
102
RTVSPropertyOp56
 70
     1
102
RTVSPropertyOp57
 70
     1
102
RTVSPost2010Prop28
280
     0
102
RTVSPost2010PropOp28
 70
     1
102
RTVSPost2010Prop29
280
     1
102
RTVSPost2010PropOp29
 70
     1
102
RTVSPost2010Prop30
280
     1
102
RTVSPost2010PropOp30
 70
     1
102
RTVSPost2010Prop31
280
     0
102
RTVSPost2010PropOp31
 70
     1
102
RTVSPost2010Prop32
280
     0
102
RTVSPost2010PropOp32
 70
     1
102
RTVSPost2010Prop33
280
     0
102
RTVSPost2010PropOp33
 70
     1
102
RTVSPost2010Prop34
280
     0
102
RTVSPost2010PropOp34
 70
     1
102
RTVSPost2010Prop35
280
     0
102
RTVSPost2010PropOp35
 70
     1
102
RTVSPost2010Prop36
280
     0
102
RTVSPost2010PropOp36
 70
     1
102
RTVSPost2010Prop37
 90
       50
102
RTVSPost2010PropOp37
 70
     1
102
RTVSPost2010Prop38
140
0.0
102
RTVSPost2010PropOp38
 70
     1
102
RTVSPost2010Prop39
140
1.0
102
RTVSPost2010PropOp39
 70
     1
102
RTVSPost2010Prop40
 90
        0
102
RTVSPost2010PropOp40
 70
     1
102
RTVSPost2010Prop41ColorIndex
 90
       18
102
RTVSPost2010Prop41ColorRGB
 90
        0
102
RTVSPost2010PropOp41
 70
     1
102
RTVSPost2010Prop42
 90
       50
102
RTVSPost2010PropOp42
 70
     1
102
RTVSPost2010Prop43
 90
        3
102
RTVSPost2010PropOp43
 70
     1
102
RTVSPost2010Prop44ColorIndex
 90
        5
102
RTVSPost2010Prop44ColorRGB
 90
      255
102
RTVSPost2010PropOp44
 70
     1
102
RTVSPost2010Prop45
280
     0
102
RTVSPost2010PropOp45
 70
     1
102
RTVSPost2010Prop46
 90
       50
102
RTVSPost2010PropOp46
 70
     1
102
RTVSPost2010Prop47
 90
       50
102
RTVSPost2010PropOp47
 70
     1
102
RTVSPost2010Prop48
 90
       50
102
RTVSPost2010PropOp48
 70
     1
102
RTVSPost2010Prop49
280
     0
102
RTVSPost2010PropOp49
 70
     1
102
RTVSPost2010Prop50
 90
       50
102
RTVSPost2010PropOp50
 70
     1
102
RTVSPost2010Prop51ColorIndex
 90
      256
102
RTVSPost2010Prop51ColorRGB
 90
-16777216
102
RTVSPost2010PropOp51
 70
     0
102
RTVSPost2010Prop52
140
1.0
102
RTVSPost2010PropOp52
 70
     0
102
RTVSPost2010Prop53
 90
        2
102
RTVSPost2010PropOp53
 70
     1
102
RTVSPost2010Prop54
  1
strokes_ogs.tif
102
RTVSPost2010PropOp54
 70
     1
102
RTVSPost2010Prop55
280
     0
102
RTVSPost2010PropOp55
 70
     1
102
RTVSPost2010Prop56
140
1.0
102
RTVSPost2010PropOp56
 70
     1
102
RTVSPost2010Prop57
140
1.0
102
RTVSPost2010PropOp57
 70
     1
  0
XRECORD
  5
39F
102
{ACAD_REACTORS
330
39E
102
}
330
39E
100
AcDbXrecord
280
     1
102
RTVSPropertyOp0
 70
     1
102
RTVSPropertyOp1
 70
     1
102
RTVSPropertyOp2
 70
     1
102
RTVSPropertyOp3
 70
     1
102
RTVSPropertyOp4
 70
     1
102
RTVSPropertyOp5
 70
     1
102
RTVSPropertyOp6
 70
     1
102
RTVSPropertyOp7
 70
     1
102
RTVSPropertyOp8
 70
     1
102
RTVSPropertyOp9
 70
     1
102
RTVSPropertyOp10
 70
     1
102
RTVSPropertyOp11
 70
     1
102
RTVSPropertyOp12
 70
     1
102
RTVSPropertyOp13
 70
     1
102
RTVSPropertyOp14
 70
     1
102
RTVSPropertyOp15
 70
     1
102
RTVSPropertyOp16
 70
     1
102
RTVSPropertyOp17
 70
     1
102
RTVSPropertyOp18
 70
     1
102
RTVSPropertyOp19
 70
     1
102
RTVSPropertyOp20
 70
     1
102
RTVSPropertyOp21
 70
     1
102
RTVSPropertyOp22
 70
     1
102
RTVSPropertyOp23
 70
     1
102
RTVSPropertyOp24
 70
     1
102
RTVSPropertyOp25
 70
     1
102
RTVSPropertyOp26
 70
     1
102
RTVSPropertyOp27
 70
     1
102
RTVSPropertyOp28
 70
     1
102
RTVSPropertyOp29
 70
     1
102
RTVSPropertyOp30
 70
     1
102
RTVSPropertyOp31
 70
     1
102
RTVSPropertyOp32
 70
     1
102
RTVSPropertyOp33
 70
     1
102
RTVSPropertyOp34
 70
     1
102
RTVSPropertyOp35
 70
     1
102
RTVSPropertyOp36
 70
     1
102
RTVSPropertyOp37
 70
     1
102
RTVSPropertyOp38
 70
     1
102
RTVSPropertyOp39
 70
     1
102
RTVSPropertyOp40
 70
     1
102
RTVSPropertyOp41
 70
     1
102
RTVSPropertyOp42
 70
     1
102
RTVSPropertyOp43
 70
     1
102
RTVSPropertyOp44
 70
     1
102
RTVSPropertyOp45
 70
     1
102
RTVSPropertyOp46
 70
     1
102
RTVSPropertyOp47
 70
     1
102
RTVSPropertyOp48
 70
     1
102
RTVSPropertyOp49
 70
     1
102
RTVSPropertyOp50
 70
     1
102
RTVSPropertyOp51
 70
     0
102
RTVSPropertyOp52
 70
     0
102
RTVSPropertyOp53
 70
     1
102
RTVSPropertyOp54
 70
     1
102
RTVSPropertyOp55
 70
     1
102
RTVSPropertyOp56
 70
     1
102
RTVSPropertyOp57
 70
     1
102
RTVSPost2010Prop28
280
     0
102
RTVSPost2010PropOp28
 70
     1
102
RTVSPost2010Prop29
280
     1
102
RTVSPost2010PropOp29
 70
     1
102
RTVSPost2010Prop30
280
     1
102
RTVSPost2010PropOp30
 70
     1
102
RTVSPost2010Prop31
280
     0
102
RTVSPost2010PropOp31
 70
     1
102
RTVSPost2010Prop32
280
     0
102
RTVSPost2010PropOp32
 70
     1
102
RTVSPost2010Prop33
280
     0
102
RTVSPost2010PropOp33
 70
     1
102
RTVSPost2010Prop34
280
     0
102
RTVSPost2010PropOp34
 70
     1
102
RTVSPost2010Prop35
280
     0
102
RTVSPost2010PropOp35
 70
     1
102
RTVSPost2010Prop36
280
     0
102
RTVSPost2010PropOp36
 70
     1
102
RTVSPost2010Prop37
 90
       50
102
RTVSPost2010PropOp37
 70
     1
102
RTVSPost2010Prop38
140
0.0
102
RTVSPost2010PropOp38
 70
     1
102
RTVSPost2010Prop39
140
1.0
102
RTVSPost2010PropOp39
 70
     1
102
RTVSPost2010Prop40
 90
        0
102
RTVSPost2010PropOp40
 70
     1
102
RTVSPost2010Prop41ColorIndex
 90
       18
102
RTVSPost2010Prop41ColorRGB
 90
        0
102
RTVSPost2010PropOp41
 70
     1
102
RTVSPost2010Prop42
 90
       50
102
RTVSPost2010PropOp42
 70
     1
102
RTVSPost2010Prop43
 90
        3
102
RTVSPost2010PropOp43
 70
     1
102
RTVSPost2010Prop44ColorIndex
 90
        5
102
RTVSPost2010Prop44ColorRGB
 90
      255
102
RTVSPost2010PropOp44
 70
     1
102
RTVSPost2010Prop45
280
     0
102
RTVSPost2010PropOp45
 70
     1
102
RTVSPost2010Prop46
 90
       50
102
RTVSPost2010PropOp46
 70
     1
102
RTVSPost2010Prop47
 90
       50
102
RTVSPost2010PropOp47
 70
     1
102
RTVSPost2010Prop48
 90
       50
102
RTVSPost2010PropOp48
 70
     1
102
RTVSPost2010Prop49
280
     0
102
RTVSPost2010PropOp49
 70
     1
102
RTVSPost2010Prop50
 90
       50
102
RTVSPost2010PropOp50
 70
     1
102
RTVSPost2010Prop51ColorIndex
 90
      256
102
RTVSPost2010Prop51ColorRGB
 90
-16777216
102
RTVSPost2010PropOp51
 70
     0
102
RTVSPost2010Prop52
140
1.0
102
RTVSPost2010PropOp52
 70
     0
102
RTVSPost2010Prop53
 90
        2
102
RTVSPost2010PropOp53
 70
     1
102
RTVSPost2010Prop54
  1
strokes_ogs.tif
102
RTVSPost2010PropOp54
 70
     1
102
RTVSPost2010Prop55
280
     0
102
RTVSPost2010PropOp55
 70
     1
102
RTVSPost2010Prop56
140
1.0
102
RTVSPost2010PropOp56
 70
     1
102
RTVSPost2010Prop57
140
1.0
102
RTVSPost2010PropOp57
 70
     1
  0
XRECORD
  5
3A1
102
{ACAD_REACTORS
330
3A0
102
}
330
3A0
100
AcDbXrecord
280
     1
102
RTVSPropertyOp0
 70
     1
102
RTVSPropertyOp1
 70
     1
102
RTVSPropertyOp2
 70
     1
102
RTVSPropertyOp3
 70
     1
102
RTVSPropertyOp4
 70
     1
102
RTVSPropertyOp5
 70
     1
102
RTVSPropertyOp6
 70
     1
102
RTVSPropertyOp7
 70
     1
102
RTVSPropertyOp8
 70
     1
102
RTVSPropertyOp9
 70
     1
102
RTVSPropertyOp10
 70
     1
102
RTVSPropertyOp11
 70
     1
102
RTVSPropertyOp12
 70
     1
102
RTVSPropertyOp13
 70
     1
102
RTVSPropertyOp14
 70
     1
102
RTVSPropertyOp15
 70
     1
102
RTVSPropertyOp16
 70
     1
102
RTVSPropertyOp17
 70
     1
102
RTVSPropertyOp18
 70
     1
102
RTVSPropertyOp19
 70
     1
102
RTVSPropertyOp20
 70
     1
102
RTVSPropertyOp21
 70
     1
102
RTVSPropertyOp22
 70
     1
102
RTVSPropertyOp23
 70
     1
102
RTVSPropertyOp24
 70
     1
102
RTVSPropertyOp25
 70
     1
102
RTVSPropertyOp26
 70
     1
102
RTVSPropertyOp27
 70
     1
102
RTVSPropertyOp28
 70
     1
102
RTVSPropertyOp29
 70
     1
102
RTVSPropertyOp30
 70
     1
102
RTVSPropertyOp31
 70
     1
102
RTVSPropertyOp32
 70
     1
102
RTVSPropertyOp33
 70
     1
102
RTVSPropertyOp34
 70
     1
102
RTVSPropertyOp35
 70
     1
102
RTVSPropertyOp36
 70
     1
102
RTVSPropertyOp37
 70
     1
102
RTVSPropertyOp38
 70
     1
102
RTVSPropertyOp39
 70
     1
102
RTVSPropertyOp40
 70
     1
102
RTVSPropertyOp41
 70
     1
102
RTVSPropertyOp42
 70
     1
102
RTVSPropertyOp43
 70
     1
102
RTVSPropertyOp44
 70
     1
102
RTVSPropertyOp45
 70
     1
102
RTVSPropertyOp46
 70
     1
102
RTVSPropertyOp47
 70
     1
102
RTVSPropertyOp48
 70
     1
102
RTVSPropertyOp49
 70
     1
102
RTVSPropertyOp50
 70
     1
102
RTVSPropertyOp51
 70
     0
102
RTVSPropertyOp52
 70
     0
102
RTVSPropertyOp53
 70
     1
102
RTVSPropertyOp54
 70
     1
102
RTVSPropertyOp55
 70
     1
102
RTVSPropertyOp56
 70
     1
102
RTVSPropertyOp57
 70
     1
102
RTVSPost2010Prop28
280
     0
102
RTVSPost2010PropOp28
 70
     1
102
RTVSPost2010Prop29
280
     1
102
RTVSPost2010PropOp29
 70
     1
102
RTVSPost2010Prop30
280
     1
102
RTVSPost2010PropOp30
 70
     1
102
RTVSPost2010Prop31
280
     0
102
RTVSPost2010PropOp31
 70
     1
102
RTVSPost2010Prop32
280
     0
102
RTVSPost2010PropOp32
 70
     1
102
RTVSPost2010Prop33
280
     0
102
RTVSPost2010PropOp33
 70
     1
102
RTVSPost2010Prop34
280
     0
102
RTVSPost2010PropOp34
 70
     1
102
RTVSPost2010Prop35
280
     0
102
RTVSPost2010PropOp35
 70
     1
102
RTVSPost2010Prop36
280
     0
102
RTVSPost2010PropOp36
 70
     1
102
RTVSPost2010Prop37
 90
       50
102
RTVSPost2010PropOp37
 70
     1
102
RTVSPost2010Prop38
140
0.0
102
RTVSPost2010PropOp38
 70
     1
102
RTVSPost2010Prop39
140
1.0
102
RTVSPost2010PropOp39
 70
     1
102
RTVSPost2010Prop40
 90
        0
102
RTVSPost2010PropOp40
 70
     1
102
RTVSPost2010Prop41ColorIndex
 90
       18
102
RTVSPost2010Prop41ColorRGB
 90
        0
102
RTVSPost2010PropOp41
 70
     1
102
RTVSPost2010Prop42
 90
       50
102
RTVSPost2010PropOp42
 70
     1
102
RTVSPost2010Prop43
 90
        3
102
RTVSPost2010PropOp43
 70
     1
102
RTVSPost2010Prop44ColorIndex
 90
        5
102
RTVSPost2010Prop44ColorRGB
 90
      255
102
RTVSPost2010PropOp44
 70
     1
102
RTVSPost2010Prop45
280
     0
102
RTVSPost2010PropOp45
 70
     1
102
RTVSPost2010Prop46
 90
       50
102
RTVSPost2010PropOp46
 70
     1
102
RTVSPost2010Prop47
 90
       50
102
RTVSPost2010PropOp47
 70
     1
102
RTVSPost2010Prop48
 90
       50
102
RTVSPost2010PropOp48
 70
     1
102
RTVSPost2010Prop49
280
     0
102
RTVSPost2010PropOp49
 70
     1
102
RTVSPost2010Prop50
 90
       50
102
RTVSPost2010PropOp50
 70
     1
102
RTVSPost2010Prop51ColorIndex
 90
      256
102
RTVSPost2010Prop51ColorRGB
 90
-16777216
102
RTVSPost2010PropOp51
 70
     0
102
RTVSPost2010Prop52
140
1.0
102
RTVSPost2010PropOp52
 70
     0
102
RTVSPost2010Prop53
 90
        2
102
RTVSPost2010PropOp53
 70
     1
102
RTVSPost2010Prop54
  1
strokes_ogs.tif
102
RTVSPost2010PropOp54
 70
     1
102
RTVSPost2010Prop55
280
     0
102
RTVSPost2010PropOp55
 70
     1
102
RTVSPost2010Prop56
140
1.0
102
RTVSPost2010PropOp56
 70
     1
102
RTVSPost2010Prop57
140
1.0
102
RTVSPost2010PropOp57
 70
     1
  0
XRECORD
  5
3A7
102
{ACAD_REACTORS
330
3A6
102
}
330
3A6
100
AcDbXrecord
280
     1
102
RTVSPropertyOp0
 70
     1
102
RTVSPropertyOp1
 70
     1
102
RTVSPropertyOp2
 70
     1
102
RTVSPropertyOp3
 70
     1
102
RTVSPropertyOp4
 70
     1
102
RTVSPropertyOp5
 70
     1
102
RTVSPropertyOp6
 70
     1
102
RTVSPropertyOp7
 70
     1
102
RTVSPropertyOp8
 70
     1
102
RTVSPropertyOp9
 70
     1
102
RTVSPropertyOp10
 70
     1
102
RTVSPropertyOp11
 70
     1
102
RTVSPropertyOp12
 70
     1
102
RTVSPropertyOp13
 70
     1
102
RTVSPropertyOp14
 70
     1
102
RTVSPropertyOp15
 70
     1
102
RTVSPropertyOp16
 70
     1
102
RTVSPropertyOp17
 70
     1
102
RTVSPropertyOp18
 70
     1
102
RTVSPropertyOp19
 70
     1
102
RTVSPropertyOp20
 70
     1
102
RTVSPropertyOp21
 70
     1
102
RTVSPropertyOp22
 70
     1
102
RTVSPropertyOp23
 70
     1
102
RTVSPropertyOp24
 70
     1
102
RTVSPropertyOp25
 70
     1
102
RTVSPropertyOp26
 70
     1
102
RTVSPropertyOp27
 70
     1
102
RTVSPropertyOp28
 70
     1
102
RTVSPropertyOp29
 70
     1
102
RTVSPropertyOp30
 70
     1
102
RTVSPropertyOp31
 70
     1
102
RTVSPropertyOp32
 70
     1
102
RTVSPropertyOp33
 70
     1
102
RTVSPropertyOp34
 70
     1
102
RTVSPropertyOp35
 70
     1
102
RTVSPropertyOp36
 70
     1
102
RTVSPropertyOp37
 70
     1
102
RTVSPropertyOp38
 70
     1
102
RTVSPropertyOp39
 70
     1
102
RTVSPropertyOp40
 70
     1
102
RTVSPropertyOp41
 70
     1
102
RTVSPropertyOp42
 70
     1
102
RTVSPropertyOp43
 70
     1
102
RTVSPropertyOp44
 70
     1
102
RTVSPropertyOp45
 70
     1
102
RTVSPropertyOp46
 70
     1
102
RTVSPropertyOp47
 70
     1
102
RTVSPropertyOp48
 70
     1
102
RTVSPropertyOp49
 70
     1
102
RTVSPropertyOp50
 70
     1
102
RTVSPropertyOp51
 70
     0
102
RTVSPropertyOp52
 70
     0
102
RTVSPropertyOp53
 70
     1
102
RTVSPropertyOp54
 70
     1
102
RTVSPropertyOp55
 70
     1
102
RTVSPropertyOp56
 70
     1
102
RTVSPropertyOp57
 70
     1
102
RTVSPost2010Prop28
280
     0
102
RTVSPost2010PropOp28
 70
     1
102
RTVSPost2010Prop29
280
     1
102
RTVSPost2010PropOp29
 70
     1
102
RTVSPost2010Prop30
280
     1
102
RTVSPost2010PropOp30
 70
     1
102
RTVSPost2010Prop31
280
     0
102
RTVSPost2010PropOp31
 70
     1
102
RTVSPost2010Prop32
280
     0
102
RTVSPost2010PropOp32
 70
     1
102
RTVSPost2010Prop33
280
     0
102
RTVSPost2010PropOp33
 70
     1
102
RTVSPost2010Prop34
280
     0
102
RTVSPost2010PropOp34
 70
     1
102
RTVSPost2010Prop35
280
     0
102
RTVSPost2010PropOp35
 70
     1
102
RTVSPost2010Prop36
280
     0
102
RTVSPost2010PropOp36
 70
     1
102
RTVSPost2010Prop37
 90
       50
102
RTVSPost2010PropOp37
 70
     1
102
RTVSPost2010Prop38
140
0.0
102
RTVSPost2010PropOp38
 70
     1
102
RTVSPost2010Prop39
140
1.0
102
RTVSPost2010PropOp39
 70
     1
102
RTVSPost2010Prop40
 90
        0
102
RTVSPost2010PropOp40
 70
     1
102
RTVSPost2010Prop41ColorIndex
 90
       18
102
RTVSPost2010Prop41ColorRGB
 90
        0
102
RTVSPost2010PropOp41
 70
     1
102
RTVSPost2010Prop42
 90
       50
102
RTVSPost2010PropOp42
 70
     1
102
RTVSPost2010Prop43
 90
        3
102
RTVSPost2010PropOp43
 70
     1
102
RTVSPost2010Prop44ColorIndex
 90
        5
102
RTVSPost2010Prop44ColorRGB
 90
      255
102
RTVSPost2010PropOp44
 70
     1
102
RTVSPost2010Prop45
280
     0
102
RTVSPost2010PropOp45
 70
     1
102
RTVSPost2010Prop46
 90
       50
102
RTVSPost2010PropOp46
 70
     1
102
RTVSPost2010Prop47
 90
       50
102
RTVSPost2010PropOp47
 70
     1
102
RTVSPost2010Prop48
 90
       50
102
RTVSPost2010PropOp48
 70
     1
102
RTVSPost2010Prop49
280
     0
102
RTVSPost2010PropOp49
 70
     1
102
RTVSPost2010Prop50
 90
       50
102
RTVSPost2010PropOp50
 70
     1
102
RTVSPost2010Prop51ColorIndex
 90
      256
102
RTVSPost2010Prop51ColorRGB
 90
-16777216
102
RTVSPost2010PropOp51
 70
     0
102
RTVSPost2010Prop52
140
1.0
102
RTVSPost2010PropOp52
 70
     0
102
RTVSPost2010Prop53
 90
        2
102
RTVSPost2010PropOp53
 70
     1
102
RTVSPost2010Prop54
  1
strokes_ogs.tif
102
RTVSPost2010PropOp54
 70
     1
102
RTVSPost2010Prop55
280
     0
102
RTVSPost2010PropOp55
 70
     1
102
RTVSPost2010Prop56
140
1.0
102
RTVSPost2010PropOp56
 70
     1
102
RTVSPost2010Prop57
140
1.0
102
RTVSPost2010PropOp57
 70
     1
  0
XRECORD
  5
3BB
102
{ACAD_REACTORS
330
3BA
102
}
330
3BA
100
AcDbXrecord
280
     1
102
RTVSPropertyOp0
 70
     0
102
RTVSPropertyOp1
 70
     0
102
RTVSPropertyOp2
 70
     0
102
RTVSPropertyOp3
 70
     0
102
RTVSPropertyOp4
 70
     0
102
RTVSPropertyOp5
 70
     0
102
RTVSPropertyOp6
 70
     0
102
RTVSPropertyOp7
 70
     0
102
RTVSPropertyOp8
 70
     0
102
RTVSPropertyOp9
 70
     0
102
RTVSPropertyOp10
 70
     0
102
RTVSPropertyOp11
 70
     0
102
RTVSPropertyOp12
 70
     0
102
RTVSPropertyOp13
 70
     0
102
RTVSPropertyOp14
 70
     2
102
RTVSPropertyOp15
 70
     0
102
RTVSPropertyOp16
 70
     0
102
RTVSPropertyOp17
 70
     0
102
RTVSPropertyOp18
 70
     0
102
RTVSPropertyOp19
 70
     0
102
RTVSPropertyOp20
 70
     0
102
RTVSPropertyOp21
 70
     0
102
RTVSPropertyOp22
 70
     0
102
RTVSPropertyOp23
 70
     0
102
RTVSPropertyOp24
 70
     0
102
RTVSPropertyOp25
 70
     0
102
RTVSPropertyOp26
 70
     0
102
RTVSPropertyOp27
 70
     0
102
RTVSPropertyOp28
 70
     0
102
RTVSPropertyOp29
 70
     0
102
RTVSPropertyOp30
 70
     0
102
RTVSPropertyOp31
 70
     0
102
RTVSPropertyOp32
 70
     0
102
RTVSPropertyOp33
 70
     0
102
RTVSPropertyOp34
 70
     0
102
RTVSPropertyOp35
 70
     0
102
RTVSPropertyOp36
 70
     0
102
RTVSPropertyOp37
 70
     0
102
RTVSPropertyOp38
 70
     0
102
RTVSPropertyOp39
 70
     0
102
RTVSPropertyOp40
 70
     0
102
RTVSPropertyOp41
 70
     0
102
RTVSPropertyOp42
 70
     0
102
RTVSPropertyOp43
 70
     0
102
RTVSPropertyOp44
 70
     0
102
RTVSPropertyOp45
 70
     0
102
RTVSPropertyOp46
 70
     0
102
RTVSPropertyOp47
 70
     0
102
RTVSPropertyOp48
 70
     0
102
RTVSPropertyOp49
 70
     0
102
RTVSPropertyOp50
 70
     0
102
RTVSPropertyOp51
 70
     0
102
RTVSPropertyOp52
 70
     0
102
RTVSPropertyOp53
 70
     0
102
RTVSPropertyOp54
 70
     0
102
RTVSPropertyOp55
 70
     0
102
RTVSPropertyOp56
 70
     0
102
RTVSPropertyOp57
 70
     0
102
RTVSPost2010Prop28
280
     0
102
RTVSPost2010PropOp28
 70
     0
102
RTVSPost2010Prop29
280
     1
102
RTVSPost2010PropOp29
 70
     0
102
RTVSPost2010Prop30
280
     1
102
RTVSPost2010PropOp30
 70
     0
102
RTVSPost2010Prop31
280
     0
102
RTVSPost2010PropOp31
 70
     0
102
RTVSPost2010Prop32
280
     0
102
RTVSPost2010PropOp32
 70
     0
102
RTVSPost2010Prop33
280
     0
102
RTVSPost2010PropOp33
 70
     0
102
RTVSPost2010Prop34
280
     0
102
RTVSPost2010PropOp34
 70
     0
102
RTVSPost2010Prop35
280
     0
102
RTVSPost2010PropOp35
 70
     0
102
RTVSPost2010Prop36
280
     0
102
RTVSPost2010PropOp36
 70
     0
102
RTVSPost2010Prop37
 90
       50
102
RTVSPost2010PropOp37
 70
     0
102
RTVSPost2010Prop38
140
0.0
102
RTVSPost2010PropOp38
 70
     0
102
RTVSPost2010Prop39
140
1.0
102
RTVSPost2010PropOp39
 70
     0
102
RTVSPost2010Prop40
 90
        0
102
RTVSPost2010PropOp40
 70
     0
102
RTVSPost2010Prop41ColorIndex
 90
       18
102
RTVSPost2010Prop41ColorRGB
 90
        0
102
RTVSPost2010PropOp41
 70
     0
102
RTVSPost2010Prop42
 90
       50
102
RTVSPost2010PropOp42
 70
     0
102
RTVSPost2010Prop43
 90
        3
102
RTVSPost2010PropOp43
 70
     0
102
RTVSPost2010Prop44ColorIndex
 90
        5
102
RTVSPost2010Prop44ColorRGB
 90
      255
102
RTVSPost2010PropOp44
 70
     0
102
RTVSPost2010Prop45
280
     0
102
RTVSPost2010PropOp45
 70
     0
102
RTVSPost2010Prop46
 90
       50
102
RTVSPost2010PropOp46
 70
     0
102
RTVSPost2010Prop47
 90
       50
102
RTVSPost2010PropOp47
 70
     0
102
RTVSPost2010Prop48
 90
       50
102
RTVSPost2010PropOp48
 70
     0
102
RTVSPost2010Prop49
280
     0
102
RTVSPost2010PropOp49
 70
     0
102
RTVSPost2010Prop50
 90
       50
102
RTVSPost2010PropOp50
 70
     0
102
RTVSPost2010Prop51ColorIndex
 90
      256
102
RTVSPost2010Prop51ColorRGB
 90
-16777216
102
RTVSPost2010PropOp51
 70
     0
102
RTVSPost2010Prop52
140
1.0
102
RTVSPost2010PropOp52
 70
     0
102
RTVSPost2010Prop53
 90
        2
102
RTVSPost2010PropOp53
 70
     0
102
RTVSPost2010Prop54
  1
strokes_ogs.tif
102
RTVSPost2010PropOp54
 70
     0
102
RTVSPost2010Prop55
280
     0
102
RTVSPost2010PropOp55
 70
     0
102
RTVSPost2010Prop56
140
1.0
102
RTVSPost2010PropOp56
 70
     0
102
RTVSPost2010Prop57
140
1.0
102
RTVSPost2010PropOp57
 70
     0
  0
XRECORD
  5
3B5
102
{ACAD_REACTORS
330
3B4
102
}
330
3B4
100
AcDbXrecord
280
     1
102
RTVSPropertyOp0
 70
     1
102
RTVSPropertyOp1
 70
     1
102
RTVSPropertyOp2
 70
     1
102
RTVSPropertyOp3
 70
     1
102
RTVSPropertyOp4
 70
     1
102
RTVSPropertyOp5
 70
     1
102
RTVSPropertyOp6
 70
     1
102
RTVSPropertyOp7
 70
     1
102
RTVSPropertyOp8
 70
     1
102
RTVSPropertyOp9
 70
     1
102
RTVSPropertyOp10
 70
     1
102
RTVSPropertyOp11
 70
     1
102
RTVSPropertyOp12
 70
     1
102
RTVSPropertyOp13
 70
     1
102
RTVSPropertyOp14
 70
     1
102
RTVSPropertyOp15
 70
     1
102
RTVSPropertyOp16
 70
     1
102
RTVSPropertyOp17
 70
     1
102
RTVSPropertyOp18
 70
     1
102
RTVSPropertyOp19
 70
     1
102
RTVSPropertyOp20
 70
     1
102
RTVSPropertyOp21
 70
     1
102
RTVSPropertyOp22
 70
     1
102
RTVSPropertyOp23
 70
     1
102
RTVSPropertyOp24
 70
     1
102
RTVSPropertyOp25
 70
     1
102
RTVSPropertyOp26
 70
     1
102
RTVSPropertyOp27
 70
     1
102
RTVSPropertyOp28
 70
     1
102
RTVSPropertyOp29
 70
     1
102
RTVSPropertyOp30
 70
     1
102
RTVSPropertyOp31
 70
     1
102
RTVSPropertyOp32
 70
     1
102
RTVSPropertyOp33
 70
     1
102
RTVSPropertyOp34
 70
     1
102
RTVSPropertyOp35
 70
     1
102
RTVSPropertyOp36
 70
     1
102
RTVSPropertyOp37
 70
     1
102
RTVSPropertyOp38
 70
     1
102
RTVSPropertyOp39
 70
     1
102
RTVSPropertyOp40
 70
     1
102
RTVSPropertyOp41
 70
     1
102
RTVSPropertyOp42
 70
     1
102
RTVSPropertyOp43
 70
     1
102
RTVSPropertyOp44
 70
     1
102
RTVSPropertyOp45
 70
     1
102
RTVSPropertyOp46
 70
     1
102
RTVSPropertyOp47
 70
     1
102
RTVSPropertyOp48
 70
     1
102
RTVSPropertyOp49
 70
     1
102
RTVSPropertyOp50
 70
     1
102
RTVSPropertyOp51
 70
     0
102
RTVSPropertyOp52
 70
     0
102
RTVSPropertyOp53
 70
     1
102
RTVSPropertyOp54
 70
     1
102
RTVSPropertyOp55
 70
     1
102
RTVSPropertyOp56
 70
     1
102
RTVSPropertyOp57
 70
     1
102
RTVSPost2010Prop28
280
     0
102
RTVSPost2010PropOp28
 70
     1
102
RTVSPost2010Prop29
280
     1
102
RTVSPost2010PropOp29
 70
     1
102
RTVSPost2010Prop30
280
     1
102
RTVSPost2010PropOp30
 70
     1
102
RTVSPost2010Prop31
280
     0
102
RTVSPost2010PropOp31
 70
     1
102
RTVSPost2010Prop32
280
     0
102
RTVSPost2010PropOp32
 70
     1
102
RTVSPost2010Prop33
280
     0
102
RTVSPost2010PropOp33
 70
     1
102
RTVSPost2010Prop34
280
     0
102
RTVSPost2010PropOp34
 70
     1
102
RTVSPost2010Prop35
280
     0
102
RTVSPost2010PropOp35
 70
     1
102
RTVSPost2010Prop36
280
     0
102
RTVSPost2010PropOp36
 70
     1
102
RTVSPost2010Prop37
 90
       50
102
RTVSPost2010PropOp37
 70
     1
102
RTVSPost2010Prop38
140
0.0
102
RTVSPost2010PropOp38
 70
     1
102
RTVSPost2010Prop39
140
1.0
102
RTVSPost2010PropOp39
 70
     1
102
RTVSPost2010Prop40
 90
        0
102
RTVSPost2010PropOp40
 70
     1
102
RTVSPost2010Prop41ColorIndex
 90
       18
102
RTVSPost2010Prop41ColorRGB
 90
        0
102
RTVSPost2010PropOp41
 70
     1
102
RTVSPost2010Prop42
 90
       50
102
RTVSPost2010PropOp42
 70
     1
102
RTVSPost2010Prop43
 90
        3
102
RTVSPost2010PropOp43
 70
     1
102
RTVSPost2010Prop44ColorIndex
 90
        5
102
RTVSPost2010Prop44ColorRGB
 90
      255
102
RTVSPost2010PropOp44
 70
     1
102
RTVSPost2010Prop45
280
     0
102
RTVSPost2010PropOp45
 70
     1
102
RTVSPost2010Prop46
 90
       50
102
RTVSPost2010PropOp46
 70
     1
102
RTVSPost2010Prop47
 90
       50
102
RTVSPost2010PropOp47
 70
     1
102
RTVSPost2010Prop48
 90
       50
102
RTVSPost2010PropOp48
 70
     1
102
RTVSPost2010Prop49
280
     0
102
RTVSPost2010PropOp49
 70
     1
102
RTVSPost2010Prop50
 90
       50
102
RTVSPost2010PropOp50
 70
     1
102
RTVSPost2010Prop51ColorIndex
 90
      256
102
RTVSPost2010Prop51ColorRGB
 90
-16777216
102
RTVSPost2010PropOp51
 70
     0
102
RTVSPost2010Prop52
140
1.0
102
RTVSPost2010PropOp52
 70
     0
102
RTVSPost2010Prop53
 90
        2
102
RTVSPost2010PropOp53
 70
     1
102
RTVSPost2010Prop54
  1
strokes_ogs.tif
102
RTVSPost2010PropOp54
 70
     1
102
RTVSPost2010Prop55
280
     0
102
RTVSPost2010PropOp55
 70
     1
102
RTVSPost2010Prop56
140
1.0
102
RTVSPost2010PropOp56
 70
     1
102
RTVSPost2010Prop57
140
1.0
102
RTVSPost2010PropOp57
 70
     1
  0
XRECORD
  5
3BD
102
{ACAD_REACTORS
330
3BC
102
}
330
3BC
100
AcDbXrecord
280
     1
102
RTVSPropertyOp0
 70
     0
102
RTVSPropertyOp1
 70
     0
102
RTVSPropertyOp2
 70
     0
102
RTVSPropertyOp3
 70
     0
102
RTVSPropertyOp4
 70
     0
102
RTVSPropertyOp5
 70
     0
102
RTVSPropertyOp6
 70
     0
102
RTVSPropertyOp7
 70
     0
102
RTVSPropertyOp8
 70
     0
102
RTVSPropertyOp9
 70
     0
102
RTVSPropertyOp10
 70
     0
102
RTVSPropertyOp11
 70
     0
102
RTVSPropertyOp12
 70
     0
102
RTVSPropertyOp13
 70
     0
102
RTVSPropertyOp14
 70
     2
102
RTVSPropertyOp15
 70
     0
102
RTVSPropertyOp16
 70
     0
102
RTVSPropertyOp17
 70
     0
102
RTVSPropertyOp18
 70
     0
102
RTVSPropertyOp19
 70
     0
102
RTVSPropertyOp20
 70
     0
102
RTVSPropertyOp21
 70
     0
102
RTVSPropertyOp22
 70
     0
102
RTVSPropertyOp23
 70
     0
102
RTVSPropertyOp24
 70
     0
102
RTVSPropertyOp25
 70
     0
102
RTVSPropertyOp26
 70
     0
102
RTVSPropertyOp27
 70
     0
102
RTVSPropertyOp28
 70
     0
102
RTVSPropertyOp29
 70
     0
102
RTVSPropertyOp30
 70
     0
102
RTVSPropertyOp31
 70
     0
102
RTVSPropertyOp32
 70
     0
102
RTVSPropertyOp33
 70
     0
102
RTVSPropertyOp34
 70
     0
102
RTVSPropertyOp35
 70
     0
102
RTVSPropertyOp36
 70
     0
102
RTVSPropertyOp37
 70
     0
102
RTVSPropertyOp38
 70
     0
102
RTVSPropertyOp39
 70
     0
102
RTVSPropertyOp40
 70
     0
102
RTVSPropertyOp41
 70
     0
102
RTVSPropertyOp42
 70
     0
102
RTVSPropertyOp43
 70
     0
102
RTVSPropertyOp44
 70
     0
102
RTVSPropertyOp45
 70
     0
102
RTVSPropertyOp46
 70
     0
102
RTVSPropertyOp47
 70
     0
102
RTVSPropertyOp48
 70
     0
102
RTVSPropertyOp49
 70
     0
102
RTVSPropertyOp50
 70
     0
102
RTVSPropertyOp51
 70
     0
102
RTVSPropertyOp52
 70
     0
102
RTVSPropertyOp53
 70
     0
102
RTVSPropertyOp54
 70
     0
102
RTVSPropertyOp55
 70
     0
102
RTVSPropertyOp56
 70
     0
102
RTVSPropertyOp57
 70
     0
102
RTVSPost2010Prop28
280
     0
102
RTVSPost2010PropOp28
 70
     0
102
RTVSPost2010Prop29
280
     1
102
RTVSPost2010PropOp29
 70
     0
102
RTVSPost2010Prop30
280
     1
102
RTVSPost2010PropOp30
 70
     0
102
RTVSPost2010Prop31
280
     0
102
RTVSPost2010PropOp31
 70
     0
102
RTVSPost2010Prop32
280
     0
102
RTVSPost2010PropOp32
 70
     0
102
RTVSPost2010Prop33
280
     0
102
RTVSPost2010PropOp33
 70
     0
102
RTVSPost2010Prop34
280
     0
102
RTVSPost2010PropOp34
 70
     0
102
RTVSPost2010Prop35
280
     0
102
RTVSPost2010PropOp35
 70
     0
102
RTVSPost2010Prop36
280
     0
102
RTVSPost2010PropOp36
 70
     0
102
RTVSPost2010Prop37
 90
       50
102
RTVSPost2010PropOp37
 70
     0
102
RTVSPost2010Prop38
140
0.0
102
RTVSPost2010PropOp38
 70
     0
102
RTVSPost2010Prop39
140
1.0
102
RTVSPost2010PropOp39
 70
     0
102
RTVSPost2010Prop40
 90
        0
102
RTVSPost2010PropOp40
 70
     0
102
RTVSPost2010Prop41ColorIndex
 90
       18
102
RTVSPost2010Prop41ColorRGB
 90
        0
102
RTVSPost2010PropOp41
 70
     0
102
RTVSPost2010Prop42
 90
       50
102
RTVSPost2010PropOp42
 70
     0
102
RTVSPost2010Prop43
 90
        3
102
RTVSPost2010PropOp43
 70
     0
102
RTVSPost2010Prop44ColorIndex
 90
        5
102
RTVSPost2010Prop44ColorRGB
 90
      255
102
RTVSPost2010PropOp44
 70
     0
102
RTVSPost2010Prop45
280
     0
102
RTVSPost2010PropOp45
 70
     0
102
RTVSPost2010Prop46
 90
       50
102
RTVSPost2010PropOp46
 70
     0
102
RTVSPost2010Prop47
 90
       50
102
RTVSPost2010PropOp47
 70
     0
102
RTVSPost2010Prop48
 90
       50
102
RTVSPost2010PropOp48
 70
     0
102
RTVSPost2010Prop49
280
     0
102
RTVSPost2010PropOp49
 70
     0
102
RTVSPost2010Prop50
 90
       50
102
RTVSPost2010PropOp50
 70
     0
102
RTVSPost2010Prop51ColorIndex
 90
      256
102
RTVSPost2010Prop51ColorRGB
 90
-16777216
102
RTVSPost2010PropOp51
 70
     0
102
RTVSPost2010Prop52
140
1.0
102
RTVSPost2010PropOp52
 70
     0
102
RTVSPost2010Prop53
 90
        2
102
RTVSPost2010PropOp53
 70
     0
102
RTVSPost2010Prop54
  1
strokes_ogs.tif
102
RTVSPost2010PropOp54
 70
     0
102
RTVSPost2010Prop55
280
     0
102
RTVSPost2010PropOp55
 70
     0
102
RTVSPost2010Prop56
140
1.0
102
RTVSPost2010PropOp56
 70
     0
102
RTVSPost2010Prop57
140
1.0
102
RTVSPost2010PropOp57
 70
     0
  0
XRECORD
  5
3AB
102
{ACAD_REACTORS
330
3AA
102
}
330
3AA
100
AcDbXrecord
280
     1
102
RTVSPropertyOp0
 70
     1
102
RTVSPropertyOp1
 70
     1
102
RTVSPropertyOp2
 70
     1
102
RTVSPropertyOp3
 70
     1
102
RTVSPropertyOp4
 70
     1
102
RTVSPropertyOp5
 70
     1
102
RTVSPropertyOp6
 70
     1
102
RTVSPropertyOp7
 70
     1
102
RTVSPropertyOp8
 70
     1
102
RTVSPropertyOp9
 70
     1
102
RTVSPropertyOp10
 70
     1
102
RTVSPropertyOp11
 70
     1
102
RTVSPropertyOp12
 70
     1
102
RTVSPropertyOp13
 70
     1
102
RTVSPropertyOp14
 70
     1
102
RTVSPropertyOp15
 70
     1
102
RTVSPropertyOp16
 70
     1
102
RTVSPropertyOp17
 70
     1
102
RTVSPropertyOp18
 70
     1
102
RTVSPropertyOp19
 70
     1
102
RTVSPropertyOp20
 70
     1
102
RTVSPropertyOp21
 70
     1
102
RTVSPropertyOp22
 70
     1
102
RTVSPropertyOp23
 70
     1
102
RTVSPropertyOp24
 70
     1
102
RTVSPropertyOp25
 70
     1
102
RTVSPropertyOp26
 70
     1
102
RTVSPropertyOp27
 70
     1
102
RTVSPropertyOp28
 70
     1
102
RTVSPropertyOp29
 70
     1
102
RTVSPropertyOp30
 70
     1
102
RTVSPropertyOp31
 70
     1
102
RTVSPropertyOp32
 70
     1
102
RTVSPropertyOp33
 70
     1
102
RTVSPropertyOp34
 70
     1
102
RTVSPropertyOp35
 70
     1
102
RTVSPropertyOp36
 70
     1
102
RTVSPropertyOp37
 70
     1
102
RTVSPropertyOp38
 70
     1
102
RTVSPropertyOp39
 70
     1
102
RTVSPropertyOp40
 70
     1
102
RTVSPropertyOp41
 70
     1
102
RTVSPropertyOp42
 70
     1
102
RTVSPropertyOp43
 70
     1
102
RTVSPropertyOp44
 70
     1
102
RTVSPropertyOp45
 70
     1
102
RTVSPropertyOp46
 70
     1
102
RTVSPropertyOp47
 70
     1
102
RTVSPropertyOp48
 70
     1
102
RTVSPropertyOp49
 70
     1
102
RTVSPropertyOp50
 70
     1
102
RTVSPropertyOp51
 70
     0
102
RTVSPropertyOp52
 70
     0
102
RTVSPropertyOp53
 70
     1
102
RTVSPropertyOp54
 70
     1
102
RTVSPropertyOp55
 70
     1
102
RTVSPropertyOp56
 70
     1
102
RTVSPropertyOp57
 70
     1
102
RTVSPost2010Prop28
280
     0
102
RTVSPost2010PropOp28
 70
     1
102
RTVSPost2010Prop29
280
     1
102
RTVSPost2010PropOp29
 70
     1
102
RTVSPost2010Prop30
280
     1
102
RTVSPost2010PropOp30
 70
     1
102
RTVSPost2010Prop31
280
     0
102
RTVSPost2010PropOp31
 70
     1
102
RTVSPost2010Prop32
280
     0
102
RTVSPost2010PropOp32
 70
     1
102
RTVSPost2010Prop33
280
     0
102
RTVSPost2010PropOp33
 70
     1
102
RTVSPost2010Prop34
280
     0
102
RTVSPost2010PropOp34
 70
     1
102
RTVSPost2010Prop35
280
     0
102
RTVSPost2010PropOp35
 70
     1
102
RTVSPost2010Prop36
280
     0
102
RTVSPost2010PropOp36
 70
     1
102
RTVSPost2010Prop37
 90
       50
102
RTVSPost2010PropOp37
 70
     1
102
RTVSPost2010Prop38
140
0.0
102
RTVSPost2010PropOp38
 70
     1
102
RTVSPost2010Prop39
140
1.0
102
RTVSPost2010PropOp39
 70
     1
102
RTVSPost2010Prop40
 90
        0
102
RTVSPost2010PropOp40
 70
     1
102
RTVSPost2010Prop41ColorIndex
 90
       18
102
RTVSPost2010Prop41ColorRGB
 90
        0
102
RTVSPost2010PropOp41
 70
     1
102
RTVSPost2010Prop42
 90
       50
102
RTVSPost2010PropOp42
 70
     1
102
RTVSPost2010Prop43
 90
        3
102
RTVSPost2010PropOp43
 70
     1
102
RTVSPost2010Prop44ColorIndex
 90
        5
102
RTVSPost2010Prop44ColorRGB
 90
      255
102
RTVSPost2010PropOp44
 70
     1
102
RTVSPost2010Prop45
280
     0
102
RTVSPost2010PropOp45
 70
     1
102
RTVSPost2010Prop46
 90
       50
102
RTVSPost2010PropOp46
 70
     1
102
RTVSPost2010Prop47
 90
       50
102
RTVSPost2010PropOp47
 70
     1
102
RTVSPost2010Prop48
 90
       50
102
RTVSPost2010PropOp48
 70
     1
102
RTVSPost2010Prop49
280
     0
102
RTVSPost2010PropOp49
 70
     1
102
RTVSPost2010Prop50
 90
       50
102
RTVSPost2010PropOp50
 70
     1
102
RTVSPost2010Prop51ColorIndex
 90
      256
102
RTVSPost2010Prop51ColorRGB
 90
-16777216
102
RTVSPost2010PropOp51
 70
     0
102
RTVSPost2010Prop52
140
1.0
102
RTVSPost2010PropOp52
 70
     0
102
RTVSPost2010Prop53
 90
        2
102
RTVSPost2010PropOp53
 70
     1
102
RTVSPost2010Prop54
  1
strokes_ogs.tif
102
RTVSPost2010PropOp54
 70
     1
102
RTVSPost2010Prop55
280
     0
102
RTVSPost2010PropOp55
 70
     1
102
RTVSPost2010Prop56
140
1.0
102
RTVSPost2010PropOp56
 70
     1
102
RTVSPost2010Prop57
140
1.0
102
RTVSPost2010PropOp57
 70
     1
  0
XRECORD
  5
3C9
102
{ACAD_REACTORS
330
3C8
102
}
330
3C8
100
AcDbXrecord
280
     1
102
RTVSPropertyOp0
 70
     1
102
RTVSPropertyOp1
 70
     1
102
RTVSPropertyOp2
 70
     1
102
RTVSPropertyOp3
 70
     1
102
RTVSPropertyOp4
 70
     1
102
RTVSPropertyOp5
 70
     1
102
RTVSPropertyOp6
 70
     1
102
RTVSPropertyOp7
 70
     1
102
RTVSPropertyOp8
 70
     1
102
RTVSPropertyOp9
 70
     1
102
RTVSPropertyOp10
 70
     1
102
RTVSPropertyOp11
 70
     1
102
RTVSPropertyOp12
 70
     1
102
RTVSPropertyOp13
 70
     1
102
RTVSPropertyOp14
 70
     1
102
RTVSPropertyOp15
 70
     1
102
RTVSPropertyOp16
 70
     1
102
RTVSPropertyOp17
 70
     1
102
RTVSPropertyOp18
 70
     1
102
RTVSPropertyOp19
 70
     1
102
RTVSPropertyOp20
 70
     1
102
RTVSPropertyOp21
 70
     1
102
RTVSPropertyOp22
 70
     1
102
RTVSPropertyOp23
 70
     1
102
RTVSPropertyOp24
 70
     1
102
RTVSPropertyOp25
 70
     1
102
RTVSPropertyOp26
 70
     1
102
RTVSPropertyOp27
 70
     1
102
RTVSPropertyOp28
 70
     1
102
RTVSPropertyOp29
 70
     1
102
RTVSPropertyOp30
 70
     1
102
RTVSPropertyOp31
 70
     1
102
RTVSPropertyOp32
 70
     1
102
RTVSPropertyOp33
 70
     1
102
RTVSPropertyOp34
 70
     1
102
RTVSPropertyOp35
 70
     1
102
RTVSPropertyOp36
 70
     1
102
RTVSPropertyOp37
 70
     1
102
RTVSPropertyOp38
 70
     1
102
RTVSPropertyOp39
 70
     1
102
RTVSPropertyOp40
 70
     1
102
RTVSPropertyOp41
 70
     1
102
RTVSPropertyOp42
 70
     1
102
RTVSPropertyOp43
 70
     1
102
RTVSPropertyOp44
 70
     1
102
RTVSPropertyOp45
 70
     1
102
RTVSPropertyOp46
 70
     1
102
RTVSPropertyOp47
 70
     1
102
RTVSPropertyOp48
 70
     1
102
RTVSPropertyOp49
 70
     1
102
RTVSPropertyOp50
 70
     1
102
RTVSPropertyOp51
 70
     0
102
RTVSPropertyOp52
 70
     0
102
RTVSPropertyOp53
 70
     1
102
RTVSPropertyOp54
 70
     1
102
RTVSPropertyOp55
 70
     1
102
RTVSPropertyOp56
 70
     1
102
RTVSPropertyOp57
 70
     1
102
RTVSPost2010Prop28
280
     0
102
RTVSPost2010PropOp28
 70
     1
102
RTVSPost2010Prop29
280
     1
102
RTVSPost2010PropOp29
 70
     1
102
RTVSPost2010Prop30
280
     1
102
RTVSPost2010PropOp30
 70
     1
102
RTVSPost2010Prop31
280
     0
102
RTVSPost2010PropOp31
 70
     1
102
RTVSPost2010Prop32
280
     0
102
RTVSPost2010PropOp32
 70
     1
102
RTVSPost2010Prop33
280
     0
102
RTVSPost2010PropOp33
 70
     1
102
RTVSPost2010Prop34
280
     0
102
RTVSPost2010PropOp34
 70
     1
102
RTVSPost2010Prop35
280
     0
102
RTVSPost2010PropOp35
 70
     1
102
RTVSPost2010Prop36
280
     0
102
RTVSPost2010PropOp36
 70
     1
102
RTVSPost2010Prop37
 90
       50
102
RTVSPost2010PropOp37
 70
     1
102
RTVSPost2010Prop38
140
0.0
102
RTVSPost2010PropOp38
 70
     1
102
RTVSPost2010Prop39
140
1.0
102
RTVSPost2010PropOp39
 70
     1
102
RTVSPost2010Prop40
 90
        0
102
RTVSPost2010PropOp40
 70
     1
102
RTVSPost2010Prop41ColorIndex
 90
       18
102
RTVSPost2010Prop41ColorRGB
 90
        0
102
RTVSPost2010PropOp41
 70
     1
102
RTVSPost2010Prop42
 90
       50
102
RTVSPost2010PropOp42
 70
     1
102
RTVSPost2010Prop43
 90
        3
102
RTVSPost2010PropOp43
 70
     1
102
RTVSPost2010Prop44ColorIndex
 90
        5
102
RTVSPost2010Prop44ColorRGB
 90
      255
102
RTVSPost2010PropOp44
 70
     1
102
RTVSPost2010Prop45
280
     0
102
RTVSPost2010PropOp45
 70
     1
102
RTVSPost2010Prop46
 90
       50
102
RTVSPost2010PropOp46
 70
     1
102
RTVSPost2010Prop47
 90
       50
102
RTVSPost2010PropOp47
 70
     1
102
RTVSPost2010Prop48
 90
       50
102
RTVSPost2010PropOp48
 70
     1
102
RTVSPost2010Prop49
280
     0
102
RTVSPost2010PropOp49
 70
     1
102
RTVSPost2010Prop50
 90
       50
102
RTVSPost2010PropOp50
 70
     1
102
RTVSPost2010Prop51ColorIndex
 90
      256
102
RTVSPost2010Prop51ColorRGB
 90
-16777216
102
RTVSPost2010PropOp51
 70
     0
102
RTVSPost2010Prop52
140
1.0
102
RTVSPost2010PropOp52
 70
     0
102
RTVSPost2010Prop53
 90
        2
102
RTVSPost2010PropOp53
 70
     1
102
RTVSPost2010Prop54
  1
strokes_ogs.tif
102
RTVSPost2010PropOp54
 70
     1
102
RTVSPost2010Prop55
280
     0
102
RTVSPost2010PropOp55
 70
     1
102
RTVSPost2010Prop56
140
1.0
102
RTVSPost2010PropOp56
 70
     1
102
RTVSPost2010Prop57
140
1.0
102
RTVSPost2010PropOp57
 70
     1
  0
XRECORD
  5
3C7
102
{ACAD_REACTORS
330
3C6
102
}
330
3C6
100
AcDbXrecord
280
     1
102
RTVSPropertyOp0
 70
     1
102
RTVSPropertyOp1
 70
     1
102
RTVSPropertyOp2
 70
     1
102
RTVSPropertyOp3
 70
     1
102
RTVSPropertyOp4
 70
     1
102
RTVSPropertyOp5
 70
     1
102
RTVSPropertyOp6
 70
     1
102
RTVSPropertyOp7
 70
     1
102
RTVSPropertyOp8
 70
     1
102
RTVSPropertyOp9
 70
     1
102
RTVSPropertyOp10
 70
     1
102
RTVSPropertyOp11
 70
     1
102
RTVSPropertyOp12
 70
     1
102
RTVSPropertyOp13
 70
     1
102
RTVSPropertyOp14
 70
     1
102
RTVSPropertyOp15
 70
     1
102
RTVSPropertyOp16
 70
     1
102
RTVSPropertyOp17
 70
     1
102
RTVSPropertyOp18
 70
     1
102
RTVSPropertyOp19
 70
     1
102
RTVSPropertyOp20
 70
     1
102
RTVSPropertyOp21
 70
     1
102
RTVSPropertyOp22
 70
     1
102
RTVSPropertyOp23
 70
     1
102
RTVSPropertyOp24
 70
     1
102
RTVSPropertyOp25
 70
     1
102
RTVSPropertyOp26
 70
     1
102
RTVSPropertyOp27
 70
     1
102
RTVSPropertyOp28
 70
     1
102
RTVSPropertyOp29
 70
     1
102
RTVSPropertyOp30
 70
     1
102
RTVSPropertyOp31
 70
     1
102
RTVSPropertyOp32
 70
     1
102
RTVSPropertyOp33
 70
     1
102
RTVSPropertyOp34
 70
     1
102
RTVSPropertyOp35
 70
     1
102
RTVSPropertyOp36
 70
     1
102
RTVSPropertyOp37
 70
     1
102
RTVSPropertyOp38
 70
     1
102
RTVSPropertyOp39
 70
     1
102
RTVSPropertyOp40
 70
     1
102
RTVSPropertyOp41
 70
     1
102
RTVSPropertyOp42
 70
     1
102
RTVSPropertyOp43
 70
     1
102
RTVSPropertyOp44
 70
     1
102
RTVSPropertyOp45
 70
     1
102
RTVSPropertyOp46
 70
     1
102
RTVSPropertyOp47
 70
     1
102
RTVSPropertyOp48
 70
     1
102
RTVSPropertyOp49
 70
     1
102
RTVSPropertyOp50
 70
     1
102
RTVSPropertyOp51
 70
     0
102
RTVSPropertyOp52
 70
     0
102
RTVSPropertyOp53
 70
     1
102
RTVSPropertyOp54
 70
     1
102
RTVSPropertyOp55
 70
     1
102
RTVSPropertyOp56
 70
     1
102
RTVSPropertyOp57
 70
     1
102
RTVSPost2010Prop28
280
     0
102
RTVSPost2010PropOp28
 70
     1
102
RTVSPost2010Prop29
280
     1
102
RTVSPost2010PropOp29
 70
     1
102
RTVSPost2010Prop30
280
     1
102
RTVSPost2010PropOp30
 70
     1
102
RTVSPost2010Prop31
280
     0
102
RTVSPost2010PropOp31
 70
     1
102
RTVSPost2010Prop32
280
     0
102
RTVSPost2010PropOp32
 70
     1
102
RTVSPost2010Prop33
280
     0
102
RTVSPost2010PropOp33
 70
     1
102
RTVSPost2010Prop34
280
     0
102
RTVSPost2010PropOp34
 70
     1
102
RTVSPost2010Prop35
280
     0
102
RTVSPost2010PropOp35
 70
     1
102
RTVSPost2010Prop36
280
     0
102
RTVSPost2010PropOp36
 70
     1
102
RTVSPost2010Prop37
 90
       50
102
RTVSPost2010PropOp37
 70
     1
102
RTVSPost2010Prop38
140
0.0
102
RTVSPost2010PropOp38
 70
     1
102
RTVSPost2010Prop39
140
1.0
102
RTVSPost2010PropOp39
 70
     1
102
RTVSPost2010Prop40
 90
        0
102
RTVSPost2010PropOp40
 70
     1
102
RTVSPost2010Prop41ColorIndex
 90
       18
102
RTVSPost2010Prop41ColorRGB
 90
        0
102
RTVSPost2010PropOp41
 70
     1
102
RTVSPost2010Prop42
 90
       50
102
RTVSPost2010PropOp42
 70
     1
102
RTVSPost2010Prop43
 90
        3
102
RTVSPost2010PropOp43
 70
     1
102
RTVSPost2010Prop44ColorIndex
 90
        5
102
RTVSPost2010Prop44ColorRGB
 90
      255
102
RTVSPost2010PropOp44
 70
     1
102
RTVSPost2010Prop45
280
     0
102
RTVSPost2010PropOp45
 70
     1
102
RTVSPost2010Prop46
 90
       50
102
RTVSPost2010PropOp46
 70
     1
102
RTVSPost2010Prop47
 90
       50
102
RTVSPost2010PropOp47
 70
     1
102
RTVSPost2010Prop48
 90
       50
102
RTVSPost2010PropOp48
 70
     1
102
RTVSPost2010Prop49
280
     0
102
RTVSPost2010PropOp49
 70
     1
102
RTVSPost2010Prop50
 90
       50
102
RTVSPost2010PropOp50
 70
     1
102
RTVSPost2010Prop51ColorIndex
 90
      256
102
RTVSPost2010Prop51ColorRGB
 90
-16777216
102
RTVSPost2010PropOp51
 70
     0
102
RTVSPost2010Prop52
140
1.0
102
RTVSPost2010PropOp52
 70
     0
102
RTVSPost2010Prop53
 90
        2
102
RTVSPost2010PropOp53
 70
     1
102
RTVSPost2010Prop54
  1
strokes_ogs.tif
102
RTVSPost2010PropOp54
 70
     1
102
RTVSPost2010Prop55
280
     0
102
RTVSPost2010PropOp55
 70
     1
102
RTVSPost2010Prop56
140
1.0
102
RTVSPost2010PropOp56
 70
     1
102
RTVSPost2010Prop57
140
1.0
102
RTVSPost2010PropOp57
 70
     1
  0
XRECORD
  5
3C1
102
{ACAD_REACTORS
330
3C0
102
}
330
3C0
100
AcDbXrecord
280
     1
102
RTVSPropertyOp0
 70
     1
102
RTVSPropertyOp1
 70
     1
102
RTVSPropertyOp2
 70
     1
102
RTVSPropertyOp3
 70
     1
102
RTVSPropertyOp4
 70
     1
102
RTVSPropertyOp5
 70
     1
102
RTVSPropertyOp6
 70
     1
102
RTVSPropertyOp7
 70
     1
102
RTVSPropertyOp8
 70
     1
102
RTVSPropertyOp9
 70
     1
102
RTVSPropertyOp10
 70
     1
102
RTVSPropertyOp11
 70
     1
102
RTVSPropertyOp12
 70
     1
102
RTVSPropertyOp13
 70
     1
102
RTVSPropertyOp14
 70
     1
102
RTVSPropertyOp15
 70
     1
102
RTVSPropertyOp16
 70
     1
102
RTVSPropertyOp17
 70
     1
102
RTVSPropertyOp18
 70
     1
102
RTVSPropertyOp19
 70
     1
102
RTVSPropertyOp20
 70
     1
102
RTVSPropertyOp21
 70
     1
102
RTVSPropertyOp22
 70
     1
102
RTVSPropertyOp23
 70
     1
102
RTVSPropertyOp24
 70
     1
102
RTVSPropertyOp25
 70
     1
102
RTVSPropertyOp26
 70
     1
102
RTVSPropertyOp27
 70
     1
102
RTVSPropertyOp28
 70
     1
102
RTVSPropertyOp29
 70
     1
102
RTVSPropertyOp30
 70
     1
102
RTVSPropertyOp31
 70
     1
102
RTVSPropertyOp32
 70
     1
102
RTVSPropertyOp33
 70
     1
102
RTVSPropertyOp34
 70
     1
102
RTVSPropertyOp35
 70
     1
102
RTVSPropertyOp36
 70
     1
102
RTVSPropertyOp37
 70
     1
102
RTVSPropertyOp38
 70
     1
102
RTVSPropertyOp39
 70
     1
102
RTVSPropertyOp40
 70
     1
102
RTVSPropertyOp41
 70
     1
102
RTVSPropertyOp42
 70
     1
102
RTVSPropertyOp43
 70
     1
102
RTVSPropertyOp44
 70
     1
102
RTVSPropertyOp45
 70
     1
102
RTVSPropertyOp46
 70
     1
102
RTVSPropertyOp47
 70
     1
102
RTVSPropertyOp48
 70
     1
102
RTVSPropertyOp49
 70
     1
102
RTVSPropertyOp50
 70
     1
102
RTVSPropertyOp51
 70
     0
102
RTVSPropertyOp52
 70
     0
102
RTVSPropertyOp53
 70
     1
102
RTVSPropertyOp54
 70
     1
102
RTVSPropertyOp55
 70
     1
102
RTVSPropertyOp56
 70
     1
102
RTVSPropertyOp57
 70
     1
102
RTVSPost2010Prop28
280
     0
102
RTVSPost2010PropOp28
 70
     1
102
RTVSPost2010Prop29
280
     1
102
RTVSPost2010PropOp29
 70
     1
102
RTVSPost2010Prop30
280
     1
102
RTVSPost2010PropOp30
 70
     1
102
RTVSPost2010Prop31
280
     0
102
RTVSPost2010PropOp31
 70
     1
102
RTVSPost2010Prop32
280
     0
102
RTVSPost2010PropOp32
 70
     1
102
RTVSPost2010Prop33
280
     0
102
RTVSPost2010PropOp33
 70
     1
102
RTVSPost2010Prop34
280
     0
102
RTVSPost2010PropOp34
 70
     1
102
RTVSPost2010Prop35
280
     0
102
RTVSPost2010PropOp35
 70
     1
102
RTVSPost2010Prop36
280
     0
102
RTVSPost2010PropOp36
 70
     1
102
RTVSPost2010Prop37
 90
       50
102
RTVSPost2010PropOp37
 70
     1
102
RTVSPost2010Prop38
140
0.0
102
RTVSPost2010PropOp38
 70
     1
102
RTVSPost2010Prop39
140
1.0
102
RTVSPost2010PropOp39
 70
     1
102
RTVSPost2010Prop40
 90
        0
102
RTVSPost2010PropOp40
 70
     1
102
RTVSPost2010Prop41ColorIndex
 90
       18
102
RTVSPost2010Prop41ColorRGB
 90
        0
102
RTVSPost2010PropOp41
 70
     1
102
RTVSPost2010Prop42
 90
       50
102
RTVSPost2010PropOp42
 70
     1
102
RTVSPost2010Prop43
 90
        3
102
RTVSPost2010PropOp43
 70
     1
102
RTVSPost2010Prop44ColorIndex
 90
        5
102
RTVSPost2010Prop44ColorRGB
 90
      255
102
RTVSPost2010PropOp44
 70
     1
102
RTVSPost2010Prop45
280
     0
102
RTVSPost2010PropOp45
 70
     1
102
RTVSPost2010Prop46
 90
       50
102
RTVSPost2010PropOp46
 70
     1
102
RTVSPost2010Prop47
 90
       50
102
RTVSPost2010PropOp47
 70
     1
102
RTVSPost2010Prop48
 90
       50
102
RTVSPost2010PropOp48
 70
     1
102
RTVSPost2010Prop49
280
     0
102
RTVSPost2010PropOp49
 70
     1
102
RTVSPost2010Prop50
 90
       50
102
RTVSPost2010PropOp50
 70
     1
102
RTVSPost2010Prop51ColorIndex
 90
      256
102
RTVSPost2010Prop51ColorRGB
 90
-16777216
102
RTVSPost2010PropOp51
 70
     0
102
RTVSPost2010Prop52
140
1.0
102
RTVSPost2010PropOp52
 70
     0
102
RTVSPost2010Prop53
 90
        2
102
RTVSPost2010PropOp53
 70
     1
102
RTVSPost2010Prop54
  1
strokes_ogs.tif
102
RTVSPost2010PropOp54
 70
     1
102
RTVSPost2010Prop55
280
     0
102
RTVSPost2010PropOp55
 70
     1
102
RTVSPost2010Prop56
140
1.0
102
RTVSPost2010PropOp56
 70
     1
102
RTVSPost2010Prop57
140
1.0
102
RTVSPost2010PropOp57
 70
     1
  0
XRECORD
  5
3C3
102
{ACAD_REACTORS
330
3C2
102
}
330
3C2
100
AcDbXrecord
280
     1
102
RTVSPropertyOp0
 70
     1
102
RTVSPropertyOp1
 70
     1
102
RTVSPropertyOp2
 70
     1
102
RTVSPropertyOp3
 70
     1
102
RTVSPropertyOp4
 70
     1
102
RTVSPropertyOp5
 70
     1
102
RTVSPropertyOp6
 70
     1
102
RTVSPropertyOp7
 70
     1
102
RTVSPropertyOp8
 70
     1
102
RTVSPropertyOp9
 70
     1
102
RTVSPropertyOp10
 70
     1
102
RTVSPropertyOp11
 70
     1
102
RTVSPropertyOp12
 70
     1
102
RTVSPropertyOp13
 70
     1
102
RTVSPropertyOp14
 70
     1
102
RTVSPropertyOp15
 70
     1
102
RTVSPropertyOp16
 70
     1
102
RTVSPropertyOp17
 70
     1
102
RTVSPropertyOp18
 70
     1
102
RTVSPropertyOp19
 70
     1
102
RTVSPropertyOp20
 70
     1
102
RTVSPropertyOp21
 70
     1
102
RTVSPropertyOp22
 70
     1
102
RTVSPropertyOp23
 70
     1
102
RTVSPropertyOp24
 70
     1
102
RTVSPropertyOp25
 70
     1
102
RTVSPropertyOp26
 70
     1
102
RTVSPropertyOp27
 70
     1
102
RTVSPropertyOp28
 70
     1
102
RTVSPropertyOp29
 70
     1
102
RTVSPropertyOp30
 70
     1
102
RTVSPropertyOp31
 70
     1
102
RTVSPropertyOp32
 70
     1
102
RTVSPropertyOp33
 70
     1
102
RTVSPropertyOp34
 70
     1
102
RTVSPropertyOp35
 70
     1
102
RTVSPropertyOp36
 70
     1
102
RTVSPropertyOp37
 70
     1
102
RTVSPropertyOp38
 70
     1
102
RTVSPropertyOp39
 70
     1
102
RTVSPropertyOp40
 70
     1
102
RTVSPropertyOp41
 70
     1
102
RTVSPropertyOp42
 70
     1
102
RTVSPropertyOp43
 70
     1
102
RTVSPropertyOp44
 70
     1
102
RTVSPropertyOp45
 70
     1
102
RTVSPropertyOp46
 70
     1
102
RTVSPropertyOp47
 70
     1
102
RTVSPropertyOp48
 70
     1
102
RTVSPropertyOp49
 70
     1
102
RTVSPropertyOp50
 70
     1
102
RTVSPropertyOp51
 70
     0
102
RTVSPropertyOp52
 70
     0
102
RTVSPropertyOp53
 70
     1
102
RTVSPropertyOp54
 70
     1
102
RTVSPropertyOp55
 70
     1
102
RTVSPropertyOp56
 70
     1
102
RTVSPropertyOp57
 70
     1
102
RTVSPost2010Prop28
280
     0
102
RTVSPost2010PropOp28
 70
     1
102
RTVSPost2010Prop29
280
     1
102
RTVSPost2010PropOp29
 70
     1
102
RTVSPost2010Prop30
280
     1
102
RTVSPost2010PropOp30
 70
     1
102
RTVSPost2010Prop31
280
     0
102
RTVSPost2010PropOp31
 70
     1
102
RTVSPost2010Prop32
280
     0
102
RTVSPost2010PropOp32
 70
     1
102
RTVSPost2010Prop33
280
     0
102
RTVSPost2010PropOp33
 70
     1
102
RTVSPost2010Prop34
280
     0
102
RTVSPost2010PropOp34
 70
     1
102
RTVSPost2010Prop35
280
     0
102
RTVSPost2010PropOp35
 70
     1
102
RTVSPost2010Prop36
280
     0
102
RTVSPost2010PropOp36
 70
     1
102
RTVSPost2010Prop37
 90
       50
102
RTVSPost2010PropOp37
 70
     1
102
RTVSPost2010Prop38
140
0.0
102
RTVSPost2010PropOp38
 70
     1
102
RTVSPost2010Prop39
140
1.0
102
RTVSPost2010PropOp39
 70
     1
102
RTVSPost2010Prop40
 90
        0
102
RTVSPost2010PropOp40
 70
     1
102
RTVSPost2010Prop41ColorIndex
 90
       18
102
RTVSPost2010Prop41ColorRGB
 90
        0
102
RTVSPost2010PropOp41
 70
     1
102
RTVSPost2010Prop42
 90
       50
102
RTVSPost2010PropOp42
 70
     1
102
RTVSPost2010Prop43
 90
        3
102
RTVSPost2010PropOp43
 70
     1
102
RTVSPost2010Prop44ColorIndex
 90
        5
102
RTVSPost2010Prop44ColorRGB
 90
      255
102
RTVSPost2010PropOp44
 70
     1
102
RTVSPost2010Prop45
280
     0
102
RTVSPost2010PropOp45
 70
     1
102
RTVSPost2010Prop46
 90
       50
102
RTVSPost2010PropOp46
 70
     1
102
RTVSPost2010Prop47
 90
       50
102
RTVSPost2010PropOp47
 70
     1
102
RTVSPost2010Prop48
 90
       50
102
RTVSPost2010PropOp48
 70
     1
102
RTVSPost2010Prop49
280
     0
102
RTVSPost2010PropOp49
 70
     1
102
RTVSPost2010Prop50
 90
       50
102
RTVSPost2010PropOp50
 70
     1
102
RTVSPost2010Prop51ColorIndex
 90
      256
102
RTVSPost2010Prop51ColorRGB
 90
-16777216
102
RTVSPost2010PropOp51
 70
     0
102
RTVSPost2010Prop52
140
1.0
102
RTVSPost2010PropOp52
 70
     0
102
RTVSPost2010Prop53
 90
        2
102
RTVSPost2010PropOp53
 70
     1
102
RTVSPost2010Prop54
  1
strokes_ogs.tif
102
RTVSPost2010PropOp54
 70
     1
102
RTVSPost2010Prop55
280
     0
102
RTVSPost2010PropOp55
 70
     1
102
RTVSPost2010Prop56
140
1.0
102
RTVSPost2010PropOp56
 70
     1
102
RTVSPost2010Prop57
140
1.0
102
RTVSPost2010PropOp57
 70
     1
  0
XRECORD
  5
3B3
102
{ACAD_REACTORS
330
3B2
102
}
330
3B2
100
AcDbXrecord
280
     1
102
RTVSPropertyOp0
 70
     1
102
RTVSPropertyOp1
 70
     1
102
RTVSPropertyOp2
 70
     1
102
RTVSPropertyOp3
 70
     1
102
RTVSPropertyOp4
 70
     1
102
RTVSPropertyOp5
 70
     1
102
RTVSPropertyOp6
 70
     1
102
RTVSPropertyOp7
 70
     1
102
RTVSPropertyOp8
 70
     1
102
RTVSPropertyOp9
 70
     1
102
RTVSPropertyOp10
 70
     1
102
RTVSPropertyOp11
 70
     1
102
RTVSPropertyOp12
 70
     1
102
RTVSPropertyOp13
 70
     1
102
RTVSPropertyOp14
 70
     1
102
RTVSPropertyOp15
 70
     1
102
RTVSPropertyOp16
 70
     1
102
RTVSPropertyOp17
 70
     1
102
RTVSPropertyOp18
 70
     1
102
RTVSPropertyOp19
 70
     1
102
RTVSPropertyOp20
 70
     1
102
RTVSPropertyOp21
 70
     1
102
RTVSPropertyOp22
 70
     1
102
RTVSPropertyOp23
 70
     1
102
RTVSPropertyOp24
 70
     1
102
RTVSPropertyOp25
 70
     1
102
RTVSPropertyOp26
 70
     1
102
RTVSPropertyOp27
 70
     1
102
RTVSPropertyOp28
 70
     1
102
RTVSPropertyOp29
 70
     1
102
RTVSPropertyOp30
 70
     1
102
RTVSPropertyOp31
 70
     1
102
RTVSPropertyOp32
 70
     1
102
RTVSPropertyOp33
 70
     1
102
RTVSPropertyOp34
 70
     1
102
RTVSPropertyOp35
 70
     1
102
RTVSPropertyOp36
 70
     1
102
RTVSPropertyOp37
 70
     1
102
RTVSPropertyOp38
 70
     1
102
RTVSPropertyOp39
 70
     1
102
RTVSPropertyOp40
 70
     1
102
RTVSPropertyOp41
 70
     1
102
RTVSPropertyOp42
 70
     1
102
RTVSPropertyOp43
 70
     1
102
RTVSPropertyOp44
 70
     1
102
RTVSPropertyOp45
 70
     1
102
RTVSPropertyOp46
 70
     1
102
RTVSPropertyOp47
 70
     1
102
RTVSPropertyOp48
 70
     1
102
RTVSPropertyOp49
 70
     1
102
RTVSPropertyOp50
 70
     1
102
RTVSPropertyOp51
 70
     0
102
RTVSPropertyOp52
 70
     0
102
RTVSPropertyOp53
 70
     1
102
RTVSPropertyOp54
 70
     1
102
RTVSPropertyOp55
 70
     1
102
RTVSPropertyOp56
 70
     1
102
RTVSPropertyOp57
 70
     1
102
RTVSPost2010Prop28
280
     0
102
RTVSPost2010PropOp28
 70
     1
102
RTVSPost2010Prop29
280
     1
102
RTVSPost2010PropOp29
 70
     1
102
RTVSPost2010Prop30
280
     1
102
RTVSPost2010PropOp30
 70
     1
102
RTVSPost2010Prop31
280
     0
102
RTVSPost2010PropOp31
 70
     1
102
RTVSPost2010Prop32
280
     0
102
RTVSPost2010PropOp32
 70
     1
102
RTVSPost2010Prop33
280
     0
102
RTVSPost2010PropOp33
 70
     1
102
RTVSPost2010Prop34
280
     0
102
RTVSPost2010PropOp34
 70
     1
102
RTVSPost2010Prop35
280
     0
102
RTVSPost2010PropOp35
 70
     1
102
RTVSPost2010Prop36
280
     0
102
RTVSPost2010PropOp36
 70
     1
102
RTVSPost2010Prop37
 90
       50
102
RTVSPost2010PropOp37
 70
     1
102
RTVSPost2010Prop38
140
0.0
102
RTVSPost2010PropOp38
 70
     1
102
RTVSPost2010Prop39
140
1.0
102
RTVSPost2010PropOp39
 70
     1
102
RTVSPost2010Prop40
 90
        0
102
RTVSPost2010PropOp40
 70
     1
102
RTVSPost2010Prop41ColorIndex
 90
       18
102
RTVSPost2010Prop41ColorRGB
 90
        0
102
RTVSPost2010PropOp41
 70
     1
102
RTVSPost2010Prop42
 90
       50
102
RTVSPost2010PropOp42
 70
     1
102
RTVSPost2010Prop43
 90
        3
102
RTVSPost2010PropOp43
 70
     1
102
RTVSPost2010Prop44ColorIndex
 90
        5
102
RTVSPost2010Prop44ColorRGB
 90
      255
102
RTVSPost2010PropOp44
 70
     1
102
RTVSPost2010Prop45
280
     0
102
RTVSPost2010PropOp45
 70
     1
102
RTVSPost2010Prop46
 90
       50
102
RTVSPost2010PropOp46
 70
     1
102
RTVSPost2010Prop47
 90
       50
102
RTVSPost2010PropOp47
 70
     1
102
RTVSPost2010Prop48
 90
       50
102
RTVSPost2010PropOp48
 70
     1
102
RTVSPost2010Prop49
280
     0
102
RTVSPost2010PropOp49
 70
     1
102
RTVSPost2010Prop50
 90
       50
102
RTVSPost2010PropOp50
 70
     1
102
RTVSPost2010Prop51ColorIndex
 90
      256
102
RTVSPost2010Prop51ColorRGB
 90
-16777216
102
RTVSPost2010PropOp51
 70
     0
102
RTVSPost2010Prop52
140
1.0
102
RTVSPost2010PropOp52
 70
     0
102
RTVSPost2010Prop53
 90
        2
102
RTVSPost2010PropOp53
 70
     1
102
RTVSPost2010Prop54
  1
strokes_ogs.tif
102
RTVSPost2010PropOp54
 70
     1
102
RTVSPost2010Prop55
280
     0
102
RTVSPost2010PropOp55
 70
     1
102
RTVSPost2010Prop56
140
1.0
102
RTVSPost2010PropOp56
 70
     1
102
RTVSPost2010Prop57
140
1.0
102
RTVSPost2010PropOp57
 70
     1
  0
XRECORD
  5
3A5
102
{ACAD_REACTORS
330
3A4
102
}
330
3A4
100
AcDbXrecord
280
     1
102
RTVSPropertyOp0
 70
     1
102
RTVSPropertyOp1
 70
     1
102
RTVSPropertyOp2
 70
     1
102
RTVSPropertyOp3
 70
     1
102
RTVSPropertyOp4
 70
     1
102
RTVSPropertyOp5
 70
     1
102
RTVSPropertyOp6
 70
     1
102
RTVSPropertyOp7
 70
     1
102
RTVSPropertyOp8
 70
     1
102
RTVSPropertyOp9
 70
     1
102
RTVSPropertyOp10
 70
     1
102
RTVSPropertyOp11
 70
     1
102
RTVSPropertyOp12
 70
     1
102
RTVSPropertyOp13
 70
     1
102
RTVSPropertyOp14
 70
     1
102
RTVSPropertyOp15
 70
     1
102
RTVSPropertyOp16
 70
     1
102
RTVSPropertyOp17
 70
     1
102
RTVSPropertyOp18
 70
     1
102
RTVSPropertyOp19
 70
     1
102
RTVSPropertyOp20
 70
     1
102
RTVSPropertyOp21
 70
     1
102
RTVSPropertyOp22
 70
     1
102
RTVSPropertyOp23
 70
     1
102
RTVSPropertyOp24
 70
     1
102
RTVSPropertyOp25
 70
     1
102
RTVSPropertyOp26
 70
     1
102
RTVSPropertyOp27
 70
     1
102
RTVSPropertyOp28
 70
     1
102
RTVSPropertyOp29
 70
     1
102
RTVSPropertyOp30
 70
     1
102
RTVSPropertyOp31
 70
     1
102
RTVSPropertyOp32
 70
     1
102
RTVSPropertyOp33
 70
     1
102
RTVSPropertyOp34
 70
     1
102
RTVSPropertyOp35
 70
     1
102
RTVSPropertyOp36
 70
     1
102
RTVSPropertyOp37
 70
     1
102
RTVSPropertyOp38
 70
     1
102
RTVSPropertyOp39
 70
     1
102
RTVSPropertyOp40
 70
     1
102
RTVSPropertyOp41
 70
     1
102
RTVSPropertyOp42
 70
     1
102
RTVSPropertyOp43
 70
     1
102
RTVSPropertyOp44
 70
     1
102
RTVSPropertyOp45
 70
     1
102
RTVSPropertyOp46
 70
     1
102
RTVSPropertyOp47
 70
     1
102
RTVSPropertyOp48
 70
     1
102
RTVSPropertyOp49
 70
     1
102
RTVSPropertyOp50
 70
     1
102
RTVSPropertyOp51
 70
     0
102
RTVSPropertyOp52
 70
     0
102
RTVSPropertyOp53
 70
     1
102
RTVSPropertyOp54
 70
     1
102
RTVSPropertyOp55
 70
     1
102
RTVSPropertyOp56
 70
     1
102
RTVSPropertyOp57
 70
     1
102
RTVSPost2010Prop28
280
     0
102
RTVSPost2010PropOp28
 70
     1
102
RTVSPost2010Prop29
280
     1
102
RTVSPost2010PropOp29
 70
     1
102
RTVSPost2010Prop30
280
     1
102
RTVSPost2010PropOp30
 70
     1
102
RTVSPost2010Prop31
280
     0
102
RTVSPost2010PropOp31
 70
     1
102
RTVSPost2010Prop32
280
     0
102
RTVSPost2010PropOp32
 70
     1
102
RTVSPost2010Prop33
280
     0
102
RTVSPost2010PropOp33
 70
     1
102
RTVSPost2010Prop34
280
     0
102
RTVSPost2010PropOp34
 70
     1
102
RTVSPost2010Prop35
280
     0
102
RTVSPost2010PropOp35
 70
     1
102
RTVSPost2010Prop36
280
     0
102
RTVSPost2010PropOp36
 70
     1
102
RTVSPost2010Prop37
 90
       50
102
RTVSPost2010PropOp37
 70
     1
102
RTVSPost2010Prop38
140
0.0
102
RTVSPost2010PropOp38
 70
     1
102
RTVSPost2010Prop39
140
1.0
102
RTVSPost2010PropOp39
 70
     1
102
RTVSPost2010Prop40
 90
        0
102
RTVSPost2010PropOp40
 70
     1
102
RTVSPost2010Prop41ColorIndex
 90
       18
102
RTVSPost2010Prop41ColorRGB
 90
        0
102
RTVSPost2010PropOp41
 70
     1
102
RTVSPost2010Prop42
 90
       50
102
RTVSPost2010PropOp42
 70
     1
102
RTVSPost2010Prop43
 90
        3
102
RTVSPost2010PropOp43
 70
     1
102
RTVSPost2010Prop44ColorIndex
 90
        5
102
RTVSPost2010Prop44ColorRGB
 90
      255
102
RTVSPost2010PropOp44
 70
     1
102
RTVSPost2010Prop45
280
     0
102
RTVSPost2010PropOp45
 70
     1
102
RTVSPost2010Prop46
 90
       50
102
RTVSPost2010PropOp46
 70
     1
102
RTVSPost2010Prop47
 90
       50
102
RTVSPost2010PropOp47
 70
     1
102
RTVSPost2010Prop48
 90
       50
102
RTVSPost2010PropOp48
 70
     1
102
RTVSPost2010Prop49
280
     0
102
RTVSPost2010PropOp49
 70
     1
102
RTVSPost2010Prop50
 90
       50
102
RTVSPost2010PropOp50
 70
     1
102
RTVSPost2010Prop51ColorIndex
 90
      256
102
RTVSPost2010Prop51ColorRGB
 90
-16777216
102
RTVSPost2010PropOp51
 70
     0
102
RTVSPost2010Prop52
140
1.0
102
RTVSPost2010PropOp52
 70
     0
102
RTVSPost2010Prop53
 90
        2
102
RTVSPost2010PropOp53
 70
     1
102
RTVSPost2010Prop54
  1
strokes_ogs.tif
102
RTVSPost2010PropOp54
 70
     1
102
RTVSPost2010Prop55
280
     0
102
RTVSPost2010PropOp55
 70
     1
102
RTVSPost2010Prop56
140
1.0
102
RTVSPost2010PropOp56
 70
     1
102
RTVSPost2010Prop57
140
1.0
102
RTVSPost2010PropOp57
 70
     1
  0
XRECORD
  5
3C5
102
{ACAD_REACTORS
330
3C4
102
}
330
3C4
100
AcDbXrecord
280
     1
102
RTVSPropertyOp0
 70
     1
102
RTVSPropertyOp1
 70
     1
102
RTVSPropertyOp2
 70
     1
102
RTVSPropertyOp3
 70
     1
102
RTVSPropertyOp4
 70
     1
102
RTVSPropertyOp5
 70
     1
102
RTVSPropertyOp6
 70
     1
102
RTVSPropertyOp7
 70
     1
102
RTVSPropertyOp8
 70
     1
102
RTVSPropertyOp9
 70
     1
102
RTVSPropertyOp10
 70
     1
102
RTVSPropertyOp11
 70
     1
102
RTVSPropertyOp12
 70
     1
102
RTVSPropertyOp13
 70
     1
102
RTVSPropertyOp14
 70
     1
102
RTVSPropertyOp15
 70
     1
102
RTVSPropertyOp16
 70
     1
102
RTVSPropertyOp17
 70
     1
102
RTVSPropertyOp18
 70
     1
102
RTVSPropertyOp19
 70
     1
102
RTVSPropertyOp20
 70
     1
102
RTVSPropertyOp21
 70
     1
102
RTVSPropertyOp22
 70
     1
102
RTVSPropertyOp23
 70
     1
102
RTVSPropertyOp24
 70
     1
102
RTVSPropertyOp25
 70
     1
102
RTVSPropertyOp26
 70
     1
102
RTVSPropertyOp27
 70
     1
102
RTVSPropertyOp28
 70
     1
102
RTVSPropertyOp29
 70
     1
102
RTVSPropertyOp30
 70
     1
102
RTVSPropertyOp31
 70
     1
102
RTVSPropertyOp32
 70
     1
102
RTVSPropertyOp33
 70
     1
102
RTVSPropertyOp34
 70
     1
102
RTVSPropertyOp35
 70
     1
102
RTVSPropertyOp36
 70
     1
102
RTVSPropertyOp37
 70
     1
102
RTVSPropertyOp38
 70
     1
102
RTVSPropertyOp39
 70
     1
102
RTVSPropertyOp40
 70
     1
102
RTVSPropertyOp41
 70
     1
102
RTVSPropertyOp42
 70
     1
102
RTVSPropertyOp43
 70
     1
102
RTVSPropertyOp44
 70
     1
102
RTVSPropertyOp45
 70
     1
102
RTVSPropertyOp46
 70
     1
102
RTVSPropertyOp47
 70
     1
102
RTVSPropertyOp48
 70
     1
102
RTVSPropertyOp49
 70
     1
102
RTVSPropertyOp50
 70
     1
102
RTVSPropertyOp51
 70
     0
102
RTVSPropertyOp52
 70
     0
102
RTVSPropertyOp53
 70
     1
102
RTVSPropertyOp54
 70
     1
102
RTVSPropertyOp55
 70
     1
102
RTVSPropertyOp56
 70
     1
102
RTVSPropertyOp57
 70
     1
102
RTVSPost2010Prop28
280
     0
102
RTVSPost2010PropOp28
 70
     1
102
RTVSPost2010Prop29
280
     1
102
RTVSPost2010PropOp29
 70
     1
102
RTVSPost2010Prop30
280
     1
102
RTVSPost2010PropOp30
 70
     1
102
RTVSPost2010Prop31
280
     0
102
RTVSPost2010PropOp31
 70
     1
102
RTVSPost2010Prop32
280
     0
102
RTVSPost2010PropOp32
 70
     1
102
RTVSPost2010Prop33
280
     0
102
RTVSPost2010PropOp33
 70
     1
102
RTVSPost2010Prop34
280
     0
102
RTVSPost2010PropOp34
 70
     1
102
RTVSPost2010Prop35
280
     0
102
RTVSPost2010PropOp35
 70
     1
102
RTVSPost2010Prop36
280
     0
102
RTVSPost2010PropOp36
 70
     1
102
RTVSPost2010Prop37
 90
       50
102
RTVSPost2010PropOp37
 70
     1
102
RTVSPost2010Prop38
140
0.0
102
RTVSPost2010PropOp38
 70
     1
102
RTVSPost2010Prop39
140
1.0
102
RTVSPost2010PropOp39
 70
     1
102
RTVSPost2010Prop40
 90
        0
102
RTVSPost2010PropOp40
 70
     1
102
RTVSPost2010Prop41ColorIndex
 90
       18
102
RTVSPost2010Prop41ColorRGB
 90
        0
102
RTVSPost2010PropOp41
 70
     1
102
RTVSPost2010Prop42
 90
       50
102
RTVSPost2010PropOp42
 70
     1
102
RTVSPost2010Prop43
 90
        3
102
RTVSPost2010PropOp43
 70
     1
102
RTVSPost2010Prop44ColorIndex
 90
        5
102
RTVSPost2010Prop44ColorRGB
 90
      255
102
RTVSPost2010PropOp44
 70
     1
102
RTVSPost2010Prop45
280
     0
102
RTVSPost2010PropOp45
 70
     1
102
RTVSPost2010Prop46
 90
       50
102
RTVSPost2010PropOp46
 70
     1
102
RTVSPost2010Prop47
 90
       50
102
RTVSPost2010PropOp47
 70
     1
102
RTVSPost2010Prop48
 90
       50
102
RTVSPost2010PropOp48
 70
     1
102
RTVSPost2010Prop49
280
     0
102
RTVSPost2010PropOp49
 70
     1
102
RTVSPost2010Prop50
 90
       50
102
RTVSPost2010PropOp50
 70
     1
102
RTVSPost2010Prop51ColorIndex
 90
      256
102
RTVSPost2010Prop51ColorRGB
 90
-16777216
102
RTVSPost2010PropOp51
 70
     0
102
RTVSPost2010Prop52
140
1.0
102
RTVSPost2010PropOp52
 70
     0
102
RTVSPost2010Prop53
 90
        2
102
RTVSPost2010PropOp53
 70
     1
102
RTVSPost2010Prop54
  1
strokes_ogs.tif
102
RTVSPost2010PropOp54
 70
     1
102
RTVSPost2010Prop55
280
     0
102
RTVSPost2010PropOp55
 70
     1
102
RTVSPost2010Prop56
140
1.0
102
RTVSPost2010PropOp56
 70
     1
102
RTVSPost2010Prop57
140
1.0
102
RTVSPost2010PropOp57
 70
     1
  0
ENDSEC
  0
EOF
