  0
SECTION
  2
HEADER
  9
$ACADVER
  1
AC1021
  9
$ACADMAINTVER
 70
    25
  9
$DWGCODEPAGE
  3
ANSI_932
  9
$INSBASE
 10
0.0
 20
0.0
 30
0.0
  9
$EXTMIN
 10
-630.0
 20
-445.5
 30
0.0
  9
$EXTMAX
 10
630.0
 20
445.5
 30
0.0
  9
$LIMMIN
 10
-630.0
 20
-445.5
  9
$LIMMAX
 10
630.0
 20
445.5
  9
$ORTHOMODE
 70
     0
  9
$REGENMODE
 70
     1
  9
$FILLMODE
 70
     1
  9
$QTEXTMODE
 70
     0
  9
$MIRRTEXT
 70
     1
  9
$LTSCALE
 40
3.0
  9
$ATTMODE
 70
     1
  9
$TEXTSIZE
 40
2.5
  9
$TRACEWID
 40
1.0
  9
$TEXTSTYLE
  7
Standard
  9
$CLAYER
  8
0
  9
$CELTYPE
  6
ByLayer
  9
$CECOLOR
 62
   256
  9
$CELTSCALE
 40
1.0
  9
$DISPSILH
 70
     0
  9
$DIMSCALE
 40
1.0
  9
$DIMASZ
 40
2.5
  9
$DIMEXO
 40
0.625
  9
$DIMDLI
 40
3.75
  9
$DIMRND
 40
0.0
  9
$DIMDLE
 40
0.0
  9
$DIMEXE
 40
1.25
  9
$DIMTP
 40
0.0
  9
$DIMTM
 40
0.0
  9
$DIMTXT
 40
2.5
  9
$DIMCEN
 40
2.5
  9
$DIMTSZ
 40
0.0
  9
$DIMTOL
 70
     0
  9
$DIMLIM
 70
     0
  9
$DIMTIH
 70
     0
  9
$DIMTOH
 70
     0
  9
$DIMSE1
 70
     0
  9
$DIMSE2
 70
     0
  9
$DIMTAD
 70
     1
  9
$DIMZIN
 70
     8
  9
$DIMBLK
  1

  9
$DIMASO
 70
     1
  9
$DIMSHO
 70
     1
  9
$DIMPOST
  1

  9
$DIMAPOST
  1

  9
$DIMALT
 70
     0
  9
$DIMALTD
 70
     3
  9
$DIMALTF
 40
0.03937007874016
  9
$DIMLFAC
 40
1.0
  9
$DIMTOFL
 70
     1
  9
$DIMTVP
 40
0.0
  9
$DIMTIX
 70
     0
  9
$DIMSOXD
 70
     0
  9
$DIMSAH
 70
     0
  9
$DIMBLK1
  1

  9
$DIMBLK2
  1

  9
$DIMSTYLE
  2
ISO-25
  9
$DIMCLRD
 70
     0
  9
$DIMCLRE
 70
     0
  9
$DIMCLRT
 70
     0
  9
$DIMTFAC
 40
1.0
  9
$DIMGAP
 40
0.625
  9
$DIMJUST
 70
     0
  9
$DIMSD1
 70
     0
  9
$DIMSD2
 70
     0
  9
$DIMTOLJ
 70
     0
  9
$DIMTZIN
 70
     8
  9
$DIMALTZ
 70
     0
  9
$DIMALTTZ
 70
     0
  9
$DIMUPT
 70
     0
  9
$DIMDEC
 70
     2
  9
$DIMTDEC
 70
     2
  9
$DIMALTU
 70
     2
  9
$DIMALTTD
 70
     3
  9
$DIMTXSTY
  7
Standard
  9
$DIMAUNIT
 70
     0
  9
$DIMADEC
 70
     0
  9
$DIMALTRND
 40
0.0
  9
$DIMAZIN
 70
     0
  9
$DIMDSEP
 70
    44
  9
$DIMATFIT
 70
     3
  9
$DIMFRAC
 70
     0
  9
$DIMLDRBLK
  1

  9
$DIMLUNIT
 70
     2
  9
$DIMLWD
 70
    -2
  9
$DIMLWE
 70
    -2
  9
$DIMTMOVE
 70
     0
  9
$DIMFXL
 40
1.0
  9
$DIMFXLON
 70
     0
  9
$DIMJOGANG
 40
0.7853981633974483
  9
$DIMTFILL
 70
     0
  9
$DIMTFILLCLR
 70
     0
  9
$DIMARCSYM
 70
     0
  9
$DIMLTYPE
  6

  9
$DIMLTEX1
  6

  9
$DIMLTEX2
  6

  9
$LUNITS
 70
     2
  9
$LUPREC
 70
     4
  9
$SKETCHINC
 40
1.0
  9
$FILLETRAD
 40
10.0
  9
$AUNITS
 70
     0
  9
$AUPREC
 70
     0
  9
$MENU
  1
.
  9
$ELEVATION
 40
0.0
  9
$PELEVATION
 40
0.0
  9
$THICKNESS
 40
0.0
  9
$LIMCHECK
 70
     0
  9
$CHAMFERA
 40
10.0
  9
$CHAMFERB
 40
10.0
  9
$CHAMFERC
 40
20.0
  9
$CHAMFERD
 40
0.0
  9
$SKPOLY
 70
     0
  9
$TDCREATE
 40
2458815.650409224
  9
$TDUCREATE
 40
2458815.275409224
  9
$TDUPDATE
 40
2458815.650409236
  9
$TDUUPDATE
 40
2458815.275409236
  9
$TDINDWG
 40
0.0000000116
  9
$TDUSRTIMER
 40
0.0000000116
  9
$USRTIMER
 70
     1
  9
$ANGBASE
 50
0.0
  9
$ANGDIR
 70
     0
  9
$PDMODE
 70
     0
  9
$PDSIZE
 40
0.0
  9
$PLINEWID
 40
0.0
  9
$SPLFRAME
 70
     0
  9
$SPLINETYPE
 70
     6
  9
$SPLINESEGS
 70
     8
  9
$HANDSEED
  5
55A
  9
$SURFTAB1
 70
     6
  9
$SURFTAB2
 70
     6
  9
$SURFTYPE
 70
     6
  9
$SURFU
 70
     6
  9
$SURFV
 70
     6
  9
$UCSBASE
  2

  9
$UCSNAME
  2

  9
$UCSORG
 10
0.0
 20
0.0
 30
0.0
  9
$UCSXDIR
 10
1.0
 20
0.0
 30
0.0
  9
$UCSYDIR
 10
0.0
 20
1.0
 30
0.0
  9
$UCSORTHOREF
  2

  9
$UCSORTHOVIEW
 70
     0
  9
$UCSORGTOP
 10
0.0
 20
0.0
 30
0.0
  9
$UCSORGBOTTOM
 10
0.0
 20
0.0
 30
0.0
  9
$UCSORGLEFT
 10
0.0
 20
0.0
 30
0.0
  9
$UCSORGRIGHT
 10
0.0
 20
0.0
 30
0.0
  9
$UCSORGFRONT
 10
0.0
 20
0.0
 30
0.0
  9
$UCSORGBACK
 10
0.0
 20
0.0
 30
0.0
  9
$PUCSBASE
  2

  9
$PUCSNAME
  2

  9
$PUCSORG
 10
0.0
 20
0.0
 30
0.0
  9
$PUCSXDIR
 10
1.0
 20
0.0
 30
0.0
  9
$PUCSYDIR
 10
0.0
 20
1.0
 30
0.0
  9
$PUCSORTHOREF
  2

  9
$PUCSORTHOVIEW
 70
     0
  9
$PUCSORGTOP
 10
0.0
 20
0.0
 30
0.0
  9
$PUCSORGBOTTOM
 10
0.0
 20
0.0
 30
0.0
  9
$PUCSORGLEFT
 10
0.0
 20
0.0
 30
0.0
  9
$PUCSORGRIGHT
 10
0.0
 20
0.0
 30
0.0
  9
$PUCSORGFRONT
 10
0.0
 20
0.0
 30
0.0
  9
$PUCSORGBACK
 10
0.0
 20
0.0
 30
0.0
  9
$USERI1
 70
     0
  9
$USERI2
 70
     0
  9
$USERI3
 70
     0
  9
$USERI4
 70
     0
  9
$USERI5
 70
     0
  9
$USERR1
 40
0.0
  9
$USERR2
 40
0.0
  9
$USERR3
 40
0.0
  9
$USERR4
 40
0.0
  9
$USERR5
 40
0.0
  9
$WORLDVIEW
 70
     1
  9
$SHADEDGE
 70
     3
  9
$SHADEDIF
 70
    70
  9
$TILEMODE
 70
     1
  9
$MAXACTVP
 70
    64
  9
$PINSBASE
 10
0.0
 20
0.0
 30
0.0
  9
$PLIMCHECK
 70
     0
  9
$PEXTMIN
 10
1.000000000000000E+20
 20
1.000000000000000E+20
 30
1.000000000000000E+20
  9
$PEXTMAX
 10
-1.000000000000000E+20
 20
-1.000000000000000E+20
 30
-1.000000000000000E+20
  9
$PLIMMIN
 10
0.0
 20
0.0
  9
$PLIMMAX
 10
420.0
 20
297.0
  9
$UNITMODE
 70
     0
  9
$VISRETAIN
 70
     1
  9
$PLINEGEN
 70
     0
  9
$PSLTSCALE
 70
     1
  9
$TREEDEPTH
 70
  3020
  9
$CMLSTYLE
  2
Standard
  9
$CMLJUST
 70
     0
  9
$CMLSCALE
 40
20.0
  9
$PROXYGRAPHICS
 70
     1
  9
$MEASUREMENT
 70
     1
  9
$CELWEIGHT
370
    -1
  9
$ENDCAPS
280
     0
  9
$JOINSTYLE
280
     0
  9
$LWDISPLAY
290
     0
  9
$INSUNITS
 70
     4
  9
$HYPERLINKBASE
  1

  9
$STYLESHEET
  1

  9
$XEDIT
290
     1
  9
$CEPSNTYPE
380
     0
  9
$PSTYLEMODE
290
     1
  9
$FINGERPRINTGUID
  2
{01A86EAF-593A-459D-A5C4-CE05A20EB94C}
  9
$VERSIONGUID
  2
{FAEB1C32-E019-11D5-929B-00C0DF256EC4}
  9
$EXTNAMES
290
     1
  9
$PSVPSCALE
 40
0.0
  9
$OLESTARTUP
290
     0
  9
$SORTENTS
280
   127
  9
$INDEXCTL
280
     0
  9
$HIDETEXT
280
     1
  9
$XCLIPFRAME
290
     0
  9
$HALOGAP
280
     0
  9
$OBSCOLOR
 70
   257
  9
$OBSLTYPE
280
     0
  9
$INTERSECTIONDISPLAY
280
     0
  9
$INTERSECTIONCOLOR
 70
   257
  9
$DIMASSOC
280
     2
  9
$PROJECTNAME
  1

  9
$CAMERADISPLAY
290
     0
  9
$LENSLENGTH
 40
50.0
  9
$CAMERAHEIGHT
 40
0.0
  9
$STEPSPERSEC
 40
2.0
  9
$STEPSIZE
 40
6.0
  9
$3DDWFPREC
 40
2.0
  9
$PSOLWIDTH
 40
5.0
  9
$PSOLHEIGHT
 40
80.0
  9
$LOFTANG1
 40
1.570796326794897
  9
$LOFTANG2
 40
1.570796326794897
  9
$LOFTMAG1
 40
0.0
  9
$LOFTMAG2
 40
0.0
  9
$LOFTPARAM
 70
     7
  9
$LOFTNORMALS
280
     1
  9
$LATITUDE
 40
37.795
  9
$LONGITUDE
 40
-122.394
  9
$NORTHDIRECTION
 40
0.0
  9
$TIMEZONE
 70
 -8000
  9
$LIGHTGLYPHDISPLAY
280
     1
  9
$TILEMODELIGHTSYNCH
280
     1
  9
$SOLIDHIST
280
     1
  9
$SHOWHIST
280
     1
  9
$DWFFRAME
280
     2
  9
$DGNFRAME
280
     2
  9
$REALWORLDSCALE
290
     1
  9
$INTERFERECOLOR
 62
   256
  9
$CSHADOW
280
     0
  9
$SHADOWPLANELOCATION
 40
0.0
  0
ENDSEC
  0
SECTION
  2
CLASSES
  0
CLASS
  1
ACDBDICTIONARYWDFLT
  2
AcDbDictionaryWithDefault
  3
ObjectDBX Classes
 90
        0
 91
        4
280
     0
281
     0
  0
CLASS
  1
VISUALSTYLE
  2
AcDbVisualStyle
  3
ObjectDBX Classes
 90
     4095
 91
        4
280
     0
281
     0
  0
ENDSEC
  0
SECTION
  2
TABLES
  0
TABLE
  2
VPORT
  5
8
330
0
100
AcDbSymbolTable
 70
     1
  0
VPORT
  5
29
330
8
100
AcDbSymbolTableRecord
100
AcDbViewportTableRecord
  2
*Active
 70
     0
 10
0.0
 20
0.0
 11
1.0
 21
1.0
 12
0.0
 22
0.0
 13
0.0
 23
0.0
 14
10.0
 24
10.0
 15
10.0
 25
10.0
 16
0.0
 26
0.0
 36
1.0
 17
0.0
 27
0.0
 37
0.0
 40
980.1
 41
1.414141414141414
 42
50.0
 43
0.0
 44
0.0
 50
0.0
 51
0.0
 71
     0
 72
 10000
 73
     1
 74
     3
 75
     0
 76
     0
 77
     0
 78
     0
281
     0
 65
     1
110
0.0
120
0.0
130
0.0
111
1.0
121
0.0
131
0.0
112
0.0
122
1.0
132
0.0
 79
     0
146
0.0
 60
     3
 61
     5
292
     1
282
     1
141
0.0
142
0.0
 63
   256
  0
ENDTAB
  0
TABLE
  2
LTYPE
  5
5
330
0
100
AcDbSymbolTable
 70
     5
  0
LTYPE
  5
14
330
5
100
AcDbSymbolTableRecord
100
AcDbLinetypeTableRecord
  2
ByBlock
 70
     0
  3

 72
    65
 73
     0
 40
0.0
  0
LTYPE
  5
15
330
5
100
AcDbSymbolTableRecord
100
AcDbLinetypeTableRecord
  2
ByLayer
 70
     0
  3

 72
    65
 73
     0
 40
0.0
  0
LTYPE
  5
16
330
5
100
AcDbSymbolTableRecord
100
AcDbLinetypeTableRecord
  2
Continuous
 70
     0
  3
Solid line
 72
    65
 73
     0
 40
0.0
  0
LTYPE
  5
3C
330
5
100
AcDbSymbolTableRecord
100
AcDbLinetypeTableRecord
  2
JWW_DASHED2
 70
     0
  3
--    ----    ----    ----    --
 72
    65
 73
     2
 40
3.386666666666667
 49
1.693333333333333
 74
     0
 49
-1.693333333333333
 74
     0
  0
LTYPE
  5
3D
330
5
100
AcDbSymbolTableRecord
100
AcDbLinetypeTableRecord
  2
JWW_CENTER1
 70
     0
  3
-----  --  ----------  --  -----
 72
    65
 73
     4
 40
6.773333333333333
 49
4.233333333333333
 74
     0
 49
-0.8466666666666667
 74
     0
 49
0.8466666666666667
 74
     0
 49
-0.8466666666666667
 74
     0
  0
LTYPE
  5
3E
330
5
100
AcDbSymbolTableRecord
100
AcDbLinetypeTableRecord
  2
JWW_HOJO
 70
     0
  3
  -   -   -   -   -   -   -   - 
 72
    65
 73
     2
 40
1.693333333333333
 49
-1.27
 74
     0
 49
0.4233333333333333
 74
     0
  0
LTYPE
  5
3F
330
5
100
AcDbSymbolTableRecord
100
AcDbLinetypeTableRecord
  2
JWW_DASHED1
 70
     0
  3
-  --  --  --  --  --  --  --  -
 72
    65
 73
     2
 40
1.693333333333333
 49
0.8466666666666667
 74
     0
 49
-0.8466666666666667
 74
     0
  0
ENDTAB
  0
TABLE
  2
LAYER
  5
2
330
0
100
AcDbSymbolTable
 70
    20
  0
LAYER
  5
10
330
2
100
AcDbSymbolTableRecord
100
AcDbLayerTableRecord
  2
0
 70
     0
 62
     7
  6
Continuous
370
    -3
390
F
347
0
  0
LAYER
  5
40
330
2
100
AcDbSymbolTableRecord
100
AcDbLayerTableRecord
  2
通り芯
 70
     0
 62
     7
  6
Continuous
370
    -1
390
F
347
0
  0
LAYER
  5
41
330
2
100
AcDbSymbolTableRecord
100
AcDbLayerTableRecord
  2
その他
 70
     0
 62
     7
  6
Continuous
370
    -1
390
F
347
0
  0
LAYER
  5
42
330
2
100
AcDbSymbolTableRecord
100
AcDbLayerTableRecord
  2
D-6
 70
     0
 62
     7
  6
Continuous
370
    -1
390
F
347
0
  0
LAYER
  5
43
330
2
100
AcDbSymbolTableRecord
100
AcDbLayerTableRecord
  2
D-4
 70
     0
 62
     7
  6
Continuous
370
    -1
390
F
347
0
  0
LAYER
  5
44
330
2
100
AcDbSymbolTableRecord
100
AcDbLayerTableRecord
  2
D-5
 70
     0
 62
     7
  6
Continuous
370
    -1
390
F
347
0
  0
LAYER
  5
45
330
2
100
AcDbSymbolTableRecord
100
AcDbLayerTableRecord
  2
F-5ﾚｲﾔ
 70
     0
 62
     7
  6
Continuous
370
    -1
390
F
347
0
  0
LAYER
  5
46
330
2
100
AcDbSymbolTableRecord
100
AcDbLayerTableRecord
  2
0-9
 70
     0
 62
     7
  6
Continuous
370
    -1
390
F
347
0
  0
LAYER
  5
47
330
2
100
AcDbSymbolTableRecord
100
AcDbLayerTableRecord
  2
躯体
 70
     0
 62
     7
  6
Continuous
370
    -1
390
F
347
0
  0
LAYER
  5
48
330
2
100
AcDbSymbolTableRecord
100
AcDbLayerTableRecord
  2
仕上
 70
     0
 62
     7
  6
Continuous
370
    -1
390
F
347
0
  0
LAYER
  5
49
330
2
100
AcDbSymbolTableRecord
100
AcDbLayerTableRecord
  2
0-A
 70
     0
 62
     7
  6
Continuous
370
    -1
390
F
347
0
  0
LAYER
  5
4A
330
2
100
AcDbSymbolTableRecord
100
AcDbLayerTableRecord
  2
ハッチ
 70
     0
 62
     7
  6
Continuous
370
    -1
390
F
347
0
  0
LAYER
  5
4B
330
2
100
AcDbSymbolTableRecord
100
AcDbLayerTableRecord
  2
建具
 70
     0
 62
     7
  6
Continuous
370
    -1
390
F
347
0
  0
LAYER
  5
4C
330
2
100
AcDbSymbolTableRecord
100
AcDbLayerTableRecord
  2
0-F
 70
     0
 62
     7
  6
Continuous
370
    -1
390
F
347
0
  0
LAYER
  5
4D
330
2
100
AcDbSymbolTableRecord
100
AcDbLayerTableRecord
  2
0-E
 70
     0
 62
     7
  6
Continuous
370
    -1
390
F
347
0
  0
LAYER
  5
4E
330
2
100
AcDbSymbolTableRecord
100
AcDbLayerTableRecord
  2
F-4ﾚｲﾔ
 70
     0
 62
     7
  6
Continuous
370
    -1
390
F
347
0
  0
LAYER
  5
4F
330
2
100
AcDbSymbolTableRecord
100
AcDbLayerTableRecord
  2
D-9
 70
     0
 62
     7
  6
Continuous
370
    -1
390
F
347
0
  0
LAYER
  5
50
330
2
100
AcDbSymbolTableRecord
100
AcDbLayerTableRecord
  2
D-A
 70
     0
 62
     7
  6
Continuous
370
    -1
390
F
347
0
  0
LAYER
  5
51
330
2
100
AcDbSymbolTableRecord
100
AcDbLayerTableRecord
  2
D-F
 70
     0
 62
     7
  6
Continuous
370
    -1
390
F
347
0
  0
LAYER
  5
52
330
2
100
AcDbSymbolTableRecord
100
AcDbLayerTableRecord
  2
D-E
 70
     0
 62
     7
  6
Continuous
370
    -1
390
F
347
0
  0
ENDTAB
  0
TABLE
  2
STYLE
  5
3
330
0
100
AcDbSymbolTable
 70
     2
  0
STYLE
  5
11
330
3
100
AcDbSymbolTableRecord
100
AcDbTextStyleTableRecord
  2
Standard
 70
     0
 40
0.0
 41
1.0
 50
0.0
 71
     0
 42
2.5
  3
txt
  4

1001
ACAD
1000

1071
        0
  0
STYLE
  5
3B
330
3
100
AcDbSymbolTableRecord
100
AcDbTextStyleTableRecord
  2
ＭＳ ゴシック
 70
     0
 40
1.0
 41
1.0
 50
0.0
 71
     0
 42
10.0
  3

  4

1001
ACAD
1000
MS Gothic
1071
    32817
  0
ENDTAB
  0
TABLE
  2
VIEW
  5
6
330
0
100
AcDbSymbolTable
 70
     0
  0
ENDTAB
  0
TABLE
  2
UCS
  5
7
330
0
100
AcDbSymbolTable
 70
     0
  0
ENDTAB
  0
TABLE
  2
APPID
  5
9
330
0
100
AcDbSymbolTable
 70
     1
  0
APPID
  5
12
330
9
100
AcDbSymbolTableRecord
100
AcDbRegAppTableRecord
  2
ACAD
 70
     0
  0
ENDTAB
  0
TABLE
  2
DIMSTYLE
  5
A
330
0
100
AcDbSymbolTable
 70
     1
100
AcDbDimStyleTable
  0
DIMSTYLE
105
27
330
A
100
AcDbSymbolTableRecord
100
AcDbDimStyleTableRecord
  2
ISO-25
 70
     0
 41
2.5
 42
0.625
 43
3.75
 44
1.25
 73
     0
 74
     0
 77
     1
 78
     8
140
2.5
141
2.5
143
0.03937007874016
147
0.625
171
     3
172
     1
271
     2
272
     2
274
     3
278
    44
283
     0
284
     8
340
11
  0
ENDTAB
  0
TABLE
  2
BLOCK_RECORD
  5
1
330
0
100
AcDbSymbolTable
 70
     1
  0
BLOCK_RECORD
  5
1F
330
1
100
AcDbSymbolTableRecord
100
AcDbBlockTableRecord
  2
*Model_Space
340
22
 70
     0
280
     1
281
     0
  0
BLOCK_RECORD
  5
1B
330
1
100
AcDbSymbolTableRecord
100
AcDbBlockTableRecord
  2
*Paper_Space
340
1E
 70
     0
280
     1
281
     0
  0
BLOCK_RECORD
  5
23
330
1
100
AcDbSymbolTableRecord
100
AcDbBlockTableRecord
  2
*Paper_Space0
340
26
 70
     0
280
     1
281
     0
  0
ENDTAB
  0
ENDSEC
  0
SECTION
  2
BLOCKS
  0
BLOCK
  5
20
330
1F
100
AcDbEntity
  8
0
100
AcDbBlockBegin
  2
*Model_Space
 70
     0
 10
0.0
 20
0.0
 30
0.0
  3
*Model_Space
  1

  0
ENDBLK
  5
21
330
1F
100
AcDbEntity
  8
0
100
AcDbBlockEnd
  0
BLOCK
  5
1C
330
1B
100
AcDbEntity
 67
     1
  8
0
100
AcDbBlockBegin
  2
*Paper_Space
 70
     0
 10
0.0
 20
0.0
 30
0.0
  3
*Paper_Space
  1

  0
ENDBLK
  5
1D
330
1B
100
AcDbEntity
 67
     1
  8
0
100
AcDbBlockEnd
  0
BLOCK
  5
24
330
23
100
AcDbEntity
  8
0
100
AcDbBlockBegin
  2
*Paper_Space0
 70
     0
 10
0.0
 20
0.0
 30
0.0
  3
*Paper_Space0
  1

  0
ENDBLK
  5
25
330
23
100
AcDbEntity
  8
0
100
AcDbBlockEnd
  0
ENDSEC
  0
SECTION
  2
ENTITIES
  0
LINE
  5
53
330
1F
100
AcDbEntity
  8
通り芯
  6
JWW_DASHED2
 62
     3
370
     9
100
AcDbLine
 10
377.6189491399874
 20
71.2167188966925
 30
0.0
 11
386.4527612497395
 21
71.21683037716969
 31
0.0
  0
LINE
  5
54
330
1F
100
AcDbEntity
  8
通り芯
  6
Continuous
 62
     3
370
     9
100
AcDbLine
 10
255.8169404411815
 20
172.7271254497474
 30
0.0
 11
255.8174359099693
 21
253.8855322118299
 31
0.0
  0
TEXT
  5
55
330
1F
100
AcDbEntity
  8
その他
  6
Continuous
 62
     2
370
     9
100
AcDbText
 10
172.6407478275192
 20
-193.1181558996199
 30
0.0
 40
9.144
  1
使用例　Ｓ＝１：３・
 41
1.1125
  7
ＭＳ ゴシック
100
AcDbText
  0
LINE
  5
56
330
1F
100
AcDbEntity
  8
その他
  6
Continuous
 62
     7
370
     9
100
AcDbLine
 10
314.3906612235813
 20
-198.559982691744
 30
0.0
 11
164.3906859675637
 21
-198.559982691744
 31
0.0
  0
ARC
  5
57
330
1F
100
AcDbEntity
  8
D-6
  6
Continuous
 62
     4
370
     9
100
AcDbCircle
 10
-237.3123065029694
 20
287.6313302643222
 30
0.0
 40
4.5
100
AcDbArc
 50
0.0
 51
90.0
  0
LINE
  5
58
330
1F
100
AcDbEntity
  8
D-6
  6
Continuous
 62
     4
370
     9
100
AcDbLine
 10
-232.8123065029694
 20
64.13175303293372
 30
0.0
 11
-232.8123065029694
 21
287.6313302643222
 31
0.0
  0
ARC
  5
59
330
1F
100
AcDbEntity
  8
D-6
  6
Continuous
 62
     4
370
     9
100
AcDbCircle
 10
-237.3123065029694
 20
64.13175303293372
 30
0.0
 40
4.5
100
AcDbArc
 50
270.0
 51
0.0
  0
LINE
  5
5A
330
1F
100
AcDbEntity
  8
D-6
  6
Continuous
 62
     4
370
     9
100
AcDbLine
 10
-351.3123065029694
 20
59.63175303293372
 30
0.0
 11
-237.3123065029694
 21
59.63175303293372
 31
0.0
  0
ARC
  5
5B
330
1F
100
AcDbEntity
  8
D-6
  6
Continuous
 62
     4
370
     9
100
AcDbCircle
 10
-351.3123065029694
 20
64.13175303293372
 30
0.0
 40
4.5
100
AcDbArc
 50
180.0
 51
270.0
  0
ARC
  5
5C
330
1F
100
AcDbEntity
  8
D-6
  6
Continuous
 62
     4
370
     9
100
AcDbCircle
 10
-237.3123065029694
 20
287.6313302643222
 30
0.0
 40
9.0
100
AcDbArc
 50
0.0
 51
90.0
  0
LINE
  5
5D
330
1F
100
AcDbEntity
  8
D-6
  6
Continuous
 62
     4
370
     9
100
AcDbLine
 10
-228.3123065029694
 20
64.13175303293372
 30
0.0
 11
-228.3123065029694
 21
287.6313302643222
 31
0.0
  0
ARC
  5
5E
330
1F
100
AcDbEntity
  8
D-6
  6
Continuous
 62
     4
370
     9
100
AcDbCircle
 10
-237.3123065029694
 20
64.13175303293372
 30
0.0
 40
9.0
100
AcDbArc
 50
270.0
 51
0.0
  0
LINE
  5
5F
330
1F
100
AcDbEntity
  8
D-6
  6
Continuous
 62
     4
370
     9
100
AcDbLine
 10
-360.3123065029694
 20
64.13175303293372
 30
0.0
 11
-360.3123065029694
 21
287.6313302643222
 31
0.0
  0
ARC
  5
60
330
1F
100
AcDbEntity
  8
D-6
  6
Continuous
 62
     4
370
     9
100
AcDbCircle
 10
-351.3123065029694
 20
64.13175303293372
 30
0.0
 40
9.0
100
AcDbArc
 50
180.0
 51
270.0
  0
LINE
  5
61
330
1F
100
AcDbEntity
  8
D-6
  6
Continuous
 62
     4
370
     9
100
AcDbLine
 10
-355.8123065029694
 20
284.4062194112818
 30
0.0
 11
-355.8123065029694
 21
287.6313302643222
 31
0.0
  0
ARC
  5
62
330
1F
100
AcDbEntity
  8
D-6
  6
Continuous
 62
     4
370
     9
100
AcDbCircle
 10
-351.3123065029694
 20
287.6313302643222
 30
0.0
 40
4.5
100
AcDbArc
 50
134.2218152176913
 51
180.0
  0
ARC
  5
63
330
1F
100
AcDbEntity
  8
D-6
  6
Continuous
 62
     4
370
     9
100
AcDbCircle
 10
-351.3123065029694
 20
287.6313302643222
 30
0.0
 40
4.5
100
AcDbArc
 50
90.0
 51
103.5174533053318
  0
LINE
  5
64
330
1F
100
AcDbEntity
  8
D-6
  6
Continuous
 62
     4
370
     9
100
AcDbLine
 10
-345.9139811756887
 20
292.1313302643222
 30
0.0
 11
-351.3123065029694
 21
292.1313302643222
 31
0.0
  0
ARC
  5
65
330
1F
100
AcDbEntity
  8
D-6
  6
Continuous
 62
     4
370
     9
100
AcDbCircle
 10
-351.3123065029694
 20
287.6313302643222
 30
0.0
 40
9.0
100
AcDbArc
 50
90.0
 51
96.71154039265176
  0
ARC
  5
66
330
1F
100
AcDbEntity
  8
D-6
  6
Continuous
 62
     4
370
     9
100
AcDbCircle
 10
-351.3123065029694
 20
287.6313302643222
 30
0.0
 40
9.0
100
AcDbArc
 50
103.5050110281376
 51
180.0
  0
LINE
  5
67
330
1F
100
AcDbEntity
  8
D-6
  6
Continuous
 62
     4
370
     9
100
AcDbLine
 10
-345.9139811756887
 20
296.6313302643222
 30
0.0
 11
-351.3123065029694
 21
296.6313302643222
 31
0.0
  0
LINE
  5
68
330
1F
100
AcDbEntity
  8
D-6
  6
Continuous
 62
     4
370
     9
100
AcDbLine
 10
-338.4137337358662
 20
296.6313302643222
 30
0.0
 11
-344.8637475924962
 21
296.6313302643222
 31
0.0
  0
LINE
  5
69
330
1F
100
AcDbEntity
  8
D-6
  6
Continuous
 62
     4
370
     9
100
AcDbLine
 10
-338.4137337358662
 20
292.1313302643222
 30
0.0
 11
-344.8637475924962
 21
292.1313302643222
 31
0.0
  0
LINE
  5
6A
330
1F
100
AcDbEntity
  8
D-6
  6
Continuous
 62
     4
370
     9
100
AcDbLine
 10
-330.9136347599372
 20
292.1313302643222
 30
0.0
 11
-337.3637970804606
 21
292.1313302643222
 31
0.0
  0
LINE
  5
6B
330
1F
100
AcDbEntity
  8
D-6
  6
Continuous
 62
     4
370
     9
100
AcDbLine
 10
-330.9136347599372
 20
296.6313302643222
 30
0.0
 11
-337.3637970804606
 21
296.6313302643222
 31
0.0
  0
LINE
  5
6C
330
1F
100
AcDbEntity
  8
D-6
  6
Continuous
 62
     4
370
     9
100
AcDbLine
 10
-323.4136842479015
 20
296.6313302643222
 30
0.0
 11
-329.8635496406381
 21
296.6313302643222
 31
0.0
  0
LINE
  5
6D
330
1F
100
AcDbEntity
  8
D-6
  6
Continuous
 62
     4
370
     9
100
AcDbLine
 10
-323.4136842479015
 20
292.1313302643222
 30
0.0
 11
-329.8635496406381
 21
292.1313302643222
 31
0.0
  0
LINE
  5
6E
330
1F
100
AcDbEntity
  8
D-6
  6
Continuous
 62
     4
370
     9
100
AcDbLine
 10
-315.913436808079
 20
296.6313302643222
 30
0.0
 11
-322.3635991286028
 21
296.6313302643222
 31
0.0
  0
LINE
  5
6F
330
1F
100
AcDbEntity
  8
D-6
  6
Continuous
 62
     4
370
     9
100
AcDbLine
 10
-315.913436808079
 20
292.1313302643222
 30
0.0
 11
-322.3635991286028
 21
292.1313302643222
 31
0.0
  0
LINE
  5
70
330
1F
100
AcDbEntity
  8
D-6
  6
Continuous
 62
     4
370
     9
100
AcDbLine
 10
-308.41333783215
 20
292.1313302643222
 30
0.0
 11
-314.8632032248865
 21
292.1313302643222
 31
0.0
  0
LINE
  5
71
330
1F
100
AcDbEntity
  8
D-6
  6
Continuous
 62
     4
370
     9
100
AcDbLine
 10
-308.41333783215
 20
296.6313302643222
 30
0.0
 11
-314.8632032248865
 21
296.6313302643222
 31
0.0
  0
LINE
  5
72
330
1F
100
AcDbEntity
  8
D-6
  6
Continuous
 62
     4
370
     9
100
AcDbLine
 10
-300.9130903923275
 20
296.6313302643222
 30
0.0
 11
-307.3632527128509
 21
296.6313302643222
 31
0.0
  0
LINE
  5
73
330
1F
100
AcDbEntity
  8
D-6
  6
Continuous
 62
     4
370
     9
100
AcDbLine
 10
-300.9130903923275
 20
292.1313302643222
 30
0.0
 11
-307.3632527128509
 21
292.1313302643222
 31
0.0
  0
LINE
  5
74
330
1F
100
AcDbEntity
  8
D-6
  6
Continuous
 62
     4
370
     9
100
AcDbLine
 10
-293.413436808079
 20
292.1313302643222
 30
0.0
 11
-299.8633022008156
 21
292.1313302643222
 31
0.0
  0
LINE
  5
75
330
1F
100
AcDbEntity
  8
D-6
  6
Continuous
 62
     4
370
     9
100
AcDbLine
 10
-293.413436808079
 20
296.6313302643222
 30
0.0
 11
-299.8633022008156
 21
296.6313302643222
 31
0.0
  0
LINE
  5
76
330
1F
100
AcDbEntity
  8
D-6
  6
Continuous
 62
     4
370
     9
100
AcDbLine
 10
-285.9130409043628
 20
296.6313302643222
 30
0.0
 11
-292.3632032248862
 21
296.6313302643222
 31
0.0
  0
LINE
  5
77
330
1F
100
AcDbEntity
  8
D-6
  6
Continuous
 62
     4
370
     9
100
AcDbLine
 10
-237.3123065029694
 20
296.6313302643222
 30
0.0
 11
-284.8629557850637
 21
296.6313302643222
 31
0.0
  0
LINE
  5
78
330
1F
100
AcDbEntity
  8
D-6
  6
Continuous
 62
     4
370
     9
100
AcDbLine
 10
-237.3123065029694
 20
292.1313302643222
 30
0.0
 11
-284.8629557850637
 21
292.1313302643222
 31
0.0
  0
LINE
  5
79
330
1F
100
AcDbEntity
  8
D-6
  6
Continuous
 62
     4
370
     9
100
AcDbLine
 10
-285.9130409043628
 20
292.1313302643222
 30
0.0
 11
-292.3632032248862
 21
292.1313302643222
 31
0.0
  0
LINE
  5
7A
330
1F
100
AcDbEntity
  8
D-6
  6
Continuous
 62
     4
370
     9
100
AcDbLine
 10
-355.8123065029694
 20
276.9062688992461
 30
0.0
 11
-355.8123065029694
 21
283.3562085239295
 31
0.0
  0
LINE
  5
7B
330
1F
100
AcDbEntity
  8
D-6
  6
Continuous
 62
     4
370
     9
100
AcDbLine
 10
-355.8123065029694
 20
269.4063183872107
 30
0.0
 11
-355.8123065029694
 21
275.8564064757874
 31
0.0
  0
LINE
  5
7C
330
1F
100
AcDbEntity
  8
D-6
  6
Continuous
 62
     4
370
     9
100
AcDbLine
 10
-355.8123065029694
 20
254.4062688992462
 30
0.0
 11
-355.8123065029694
 21
260.8563569878229
 31
0.0
  0
LINE
  5
7D
330
1F
100
AcDbEntity
  8
D-6
  6
Continuous
 62
     4
370
     9
100
AcDbLine
 10
-355.8123065029694
 20
261.9062194112818
 30
0.0
 11
-355.8123065029694
 21
268.3563074998584
 31
0.0
  0
LINE
  5
7E
330
1F
100
AcDbEntity
  8
D-6
  6
Continuous
 62
     4
370
     9
100
AcDbLine
 10
-355.8123065029694
 20
246.9062441552639
 30
0.0
 11
-355.8123065029694
 21
253.3561837799472
 31
0.0
  0
LINE
  5
7F
330
1F
100
AcDbEntity
  8
D-6
  6
Continuous
 62
     4
370
     9
100
AcDbLine
 10
-355.8123065029694
 20
231.9063431311929
 30
0.0
 11
-355.8123065029694
 21
245.8563817318052
 31
0.0
  0
LINE
  5
80
330
1F
100
AcDbEntity
  8
D-6
  6
Continuous
 62
     4
370
     9
100
AcDbLine
 10
-355.8123065029694
 20
216.9062194112817
 30
0.0
 11
-355.8123065029694
 21
223.356159035965
 31
0.0
  0
LINE
  5
81
330
1F
100
AcDbEntity
  8
D-6
  6
Continuous
 62
     4
370
     9
100
AcDbLine
 10
-355.8123065029694
 20
224.4063183872107
 30
0.0
 11
-355.8123065029694
 21
230.8563322438408
 31
0.0
  0
LINE
  5
82
330
1F
100
AcDbEntity
  8
D-6
  6
Continuous
 62
     4
370
     9
100
AcDbLine
 10
-355.8123065029694
 20
64.13175303293372
 30
0.0
 11
-355.8123065029694
 21
208.3563322438406
 31
0.0
  0
LINE
  5
83
330
1F
100
AcDbEntity
  8
D-6
  6
Continuous
 62
     4
370
     9
100
AcDbLine
 10
-355.8123065029694
 20
209.4064173631397
 30
0.0
 11
-355.8123065029694
 21
215.8564312197699
 31
0.0
  0
CIRCLE
  5
84
330
1F
100
AcDbEntity
  8
D-6
  6
Continuous
 62
     4
370
     9
100
AcDbCircle
 10
-230.5623065029694
 20
-189.6833837661348
 30
0.0
 40
2.25
  0
LINE
  5
85
330
1F
100
AcDbEntity
  8
D-6
  6
Continuous
 62
     4
370
     9
100
AcDbLine
 10
-232.9810841276139
 20
-187.4333689197452
 30
0.0
 11
-232.9810841276139
 21
-191.9333837661348
 31
0.0
  0
LINE
  5
86
330
1F
100
AcDbEntity
  8
D-6
  6
JWW_CENTER1
 62
     4
370
     9
100
AcDbLine
 10
-230.5623065029694
 20
-189.6833837661348
 30
0.0
 11
-225.4013497830134
 21
-189.6833837661348
 31
0.0
  0
LINE
  5
87
330
1F
100
AcDbEntity
  8
D-6
  6
JWW_CENTER1
 62
     4
370
     9
100
AcDbLine
 10
-230.5623065029694
 20
-189.6833837661348
 30
0.0
 11
-230.5623065029694
 21
-193.0331327396991
 31
0.0
  0
CIRCLE
  5
88
330
1F
100
AcDbEntity
  8
D-6
  6
Continuous
 62
     4
370
     9
100
AcDbCircle
 10
-358.0623065029694
 20
-50.18338376613462
 30
0.0
 40
2.25
  0
LINE
  5
89
330
1F
100
AcDbEntity
  8
D-6
  6
Continuous
 62
     4
370
     9
100
AcDbLine
 10
-355.8123658885265
 20
-52.8389072685014
 30
0.0
 11
-360.3123065029694
 21
-52.8389072685014
 31
0.0
  0
LINE
  5
8A
330
1F
100
AcDbEntity
  8
D-6
  6
JWW_CENTER1
 62
     4
370
     9
100
AcDbLine
 10
-358.0623065029694
 20
-50.18338376613462
 30
0.0
 11
-358.0623065029694
 21
-46.50203720244829
 31
0.0
  0
LINE
  5
8B
330
1F
100
AcDbEntity
  8
D-6
  6
JWW_CENTER1
 62
     4
370
     9
100
AcDbLine
 10
-358.0623065029694
 20
-50.18338376613462
 30
0.0
 11
-361.6581796352176
 21
-50.18338376613462
 31
0.0
  0
LINE
  5
8C
330
1F
100
AcDbEntity
  8
D-6
  6
Continuous
 62
     4
370
     9
100
AcDbLine
 10
-360.3123065029694
 20
-161.9333837661349
 30
0.0
 11
-360.3123065029694
 21
-52.8389072685014
 31
0.0
  0
LINE
  5
8D
330
1F
100
AcDbEntity
  8
D-6
  6
Continuous
 62
     4
370
     9
100
AcDbLine
 10
-330.3123065029694
 20
-191.9333837661348
 30
0.0
 11
-232.9810841276139
 21
-191.9333837661348
 31
0.0
  0
ARC
  5
8E
330
1F
100
AcDbEntity
  8
D-6
  6
Continuous
 62
     4
370
     9
100
AcDbCircle
 10
-330.3123065029694
 20
-161.9333837661349
 30
0.0
 40
30.0
100
AcDbArc
 50
180.0
 51
270.0
  0
LINE
  5
8F
330
1F
100
AcDbEntity
  8
D-6
  6
Continuous
 62
     4
370
     9
100
AcDbLine
 10
-355.8123658885265
 20
-161.9333689197452
 30
0.0
 11
-355.8123658885265
 21
-52.8389072685014
 31
0.0
  0
LINE
  5
90
330
1F
100
AcDbEntity
  8
D-6
  6
Continuous
 62
     4
370
     9
100
AcDbLine
 10
-330.3123658885265
 20
-187.4333689197452
 30
0.0
 11
-232.9810841276139
 21
-187.4333689197452
 31
0.0
  0
LINE
  5
91
330
1F
100
AcDbEntity
  8
D-6
  6
JWW_CENTER1
 62
     4
370
     9
100
AcDbLine
 10
-365.7520316782787
 20
175.881541648628
 30
0.0
 11
-221.6420610525057
 21
175.881541648628
 31
0.0
  0
ARC
  5
92
330
1F
100
AcDbEntity
  8
D-6
  6
Continuous
 62
     4
370
     9
100
AcDbCircle
 10
-330.3123658885265
 20
-161.9333689197452
 30
0.0
 40
25.5
100
AcDbArc
 50
217.5317712710455
 51
270.0
  0
LINE
  5
93
330
1F
100
AcDbEntity
  8
D-6
  6
Continuous
 62
     4
370
     9
100
AcDbLine
 10
-358.0623065029694
 20
55.13175303293391
 30
0.0
 11
-237.3123065029694
 21
55.13175303293391
 31
0.0
  0
ARC
  5
94
330
1F
100
AcDbEntity
  8
D-6
  6
Continuous
 62
     4
370
     9
100
AcDbCircle
 10
-358.0623065029694
 20
57.38175303293391
 30
0.0
 40
2.25
100
AcDbArc
 50
114.2951889453665
 51
335.7048110546318
  0
ARC
  5
95
330
1F
100
AcDbEntity
  8
D-6
  6
Continuous
 62
     4
370
     9
100
AcDbCircle
 10
-358.0623065029694
 20
294.3813302643222
 30
0.0
 40
2.25
100
AcDbArc
 50
24.29518894536825
 51
245.7048110546335
  0
ARC
  5
96
330
1F
100
AcDbEntity
  8
D-6
  6
Continuous
 62
     4
370
     9
100
AcDbCircle
 10
-378.1521378857213
 20
-196.5611866428434
 30
0.0
 40
145.5
100
AcDbArc
 50
43.45186313705005
 51
82.18518269125286
  0
LINE
  5
97
330
1F
100
AcDbEntity
  8
D-4
  6
Continuous
 62
     7
370
     9
100
AcDbLine
 10
-410.1480958560035
 20
296.6313302643222
 30
0.0
 11
-410.1480958560035
 21
55.13175303293391
 31
0.0
  0
LWPOLYLINE
  5
98
330
1F
100
AcDbEntity
  8
D-4
  6
Continuous
 62
     7
370
     9
100
AcDbPolyline
 90
        4
 70
     1
 43
0.3
 10
-409.9980958560034
 20
296.6313302643222
 42
0.4142135623731
 10
-410.1480958560035
 20
296.7813302643222
 42
0.4142135623731
 10
-410.2980958560034
 20
296.6313302643222
 42
0.4142135623731
 10
-410.1480958560035
 20
296.4813302643222
 42
0.4142135623731
  0
LWPOLYLINE
  5
99
330
1F
100
AcDbEntity
  8
D-4
  6
Continuous
 62
     7
370
     9
100
AcDbPolyline
 90
        4
 70
     1
 43
0.3
 10
-409.9980958560034
 20
55.13175303293391
 42
0.4142135623731
 10
-410.1480958560035
 20
55.28175303293392
 42
0.4142135623731
 10
-410.2980958560034
 20
55.13175303293391
 42
0.4142135623731
 10
-410.1480958560035
 20
54.98175303293391
 42
0.4142135623731
  0
LINE
  5
9A
330
1F
100
AcDbEntity
  8
D-4
  6
Continuous
 62
     7
370
     9
100
AcDbLine
 10
-411.0480958560034
 20
296.6313302643222
 30
0.0
 11
-357.3123065029694
 21
296.6313302643222
 31
0.0
  0
LINE
  5
9B
330
1F
100
AcDbEntity
  8
D-4
  6
Continuous
 62
     7
370
     9
100
AcDbLine
 10
-411.0480958560034
 20
55.13175303293391
 30
0.0
 11
-357.3123065029694
 21
55.13175303293391
 31
0.0
  0
TEXT
  5
9C
330
1F
100
AcDbEntity
  8
D-4
  6
Continuous
 62
     2
370
   211
100
AcDbText
 10
-413.6400958560035
 20
166.131541648628
 30
0.0
 40
9.144
  1
161
 50
90.0
 41
1.083333333333333
  7
ＭＳ ゴシック
100
AcDbText
  0
LINE
  5
9D
330
1F
100
AcDbEntity
  8
D-4
  6
Continuous
 62
     7
370
     9
100
AcDbLine
 10
-410.1480958560035
 20
-47.93338376613462
 30
0.0
 11
-410.1480958560035
 21
-191.9333837661349
 31
0.0
  0
LWPOLYLINE
  5
9E
330
1F
100
AcDbEntity
  8
D-4
  6
Continuous
 62
     7
370
     9
100
AcDbPolyline
 90
        4
 70
     1
 43
0.3
 10
-409.9980958560034
 20
-47.93338376613462
 42
0.4142135623731
 10
-410.1480958560035
 20
-47.78338376613462
 42
0.4142135623731
 10
-410.2980958560034
 20
-47.93338376613462
 42
0.4142135623731
 10
-410.1480958560035
 20
-48.08338376613462
 42
0.4142135623731
  0
LWPOLYLINE
  5
9F
330
1F
100
AcDbEntity
  8
D-4
  6
Continuous
 62
     7
370
     9
100
AcDbPolyline
 90
        4
 70
     1
 43
0.3
 10
-409.9980958560034
 20
-191.9333837661349
 42
0.4142135623731
 10
-410.1480958560035
 20
-191.7833837661349
 42
0.4142135623731
 10
-410.2980958560034
 20
-191.9333837661349
 42
0.4142135623731
 10
-410.1480958560035
 20
-192.0833837661348
 42
0.4142135623731
  0
LINE
  5
A0
330
1F
100
AcDbEntity
  8
D-4
  6
Continuous
 62
     7
370
     9
100
AcDbLine
 10
-411.0480958560034
 20
-47.93338376613462
 30
0.0
 11
-364.0623065029694
 21
-47.93338376613463
 31
0.0
  0
LINE
  5
A1
330
1F
100
AcDbEntity
  8
D-4
  6
Continuous
 62
     7
370
     9
100
AcDbLine
 10
-411.0480958560034
 20
-191.9333837661349
 30
0.0
 11
-336.3123065029694
 21
-191.9333837661349
 31
0.0
  0
TEXT
  5
A2
330
1F
100
AcDbEntity
  8
D-4
  6
Continuous
 62
     2
370
   211
100
AcDbText
 10
-413.6400958560035
 20
-126.3083837661347
 30
0.0
 40
9.144
  1
96
 50
90.0
 41
1.0625
  7
ＭＳ ゴシック
100
AcDbText
  0
LINE
  5
A3
330
1F
100
AcDbEntity
  8
D-4
  6
Continuous
 62
     7
370
     9
100
AcDbLine
 10
-360.3123065029694
 20
-17.08688144032349
 30
0.0
 11
-228.3123065029694
 21
-17.08688144032349
 31
0.0
  0
LWPOLYLINE
  5
A4
330
1F
100
AcDbEntity
  8
D-4
  6
Continuous
 62
     7
370
     9
100
AcDbPolyline
 90
        4
 70
     1
 43
0.3
 10
-360.1623065029694
 20
-17.08688144032349
 42
0.4142135623731
 10
-360.3123065029694
 20
-16.93688144032349
 42
0.4142135623731
 10
-360.4623065029694
 20
-17.08688144032349
 42
0.4142135623731
 10
-360.3123065029694
 20
-17.23688144032349
 42
0.4142135623731
  0
LWPOLYLINE
  5
A5
330
1F
100
AcDbEntity
  8
D-4
  6
Continuous
 62
     7
370
     9
100
AcDbPolyline
 90
        4
 70
     1
 43
0.3
 10
-228.1623065029694
 20
-17.08688144032349
 42
0.4142135623731
 10
-228.3123065029694
 20
-16.93688144032349
 42
0.4142135623731
 10
-228.4623065029694
 20
-17.08688144032349
 42
0.4142135623731
 10
-228.3123065029694
 20
-17.23688144032349
 42
0.4142135623731
  0
LINE
  5
A6
330
1F
100
AcDbEntity
  8
D-4
  6
Continuous
 62
     7
370
     9
100
AcDbLine
 10
-360.3123065029694
 20
-16.18688144032349
 30
0.0
 11
-360.3123065029694
 21
-44.18338376613462
 31
0.0
  0
LINE
  5
A7
330
1F
100
AcDbEntity
  8
D-4
  6
Continuous
 62
     7
370
     9
100
AcDbLine
 10
-228.3123065029694
 20
-16.18688144032349
 30
0.0
 11
-228.3123065029694
 21
-183.6833837661348
 31
0.0
  0
TEXT
  5
A8
330
1F
100
AcDbEntity
  8
D-4
  6
Continuous
 62
     2
370
   211
100
AcDbText
 10
-300.6873065029694
 20
-13.59488144032349
 30
0.0
 40
9.144
  1
88
 41
1.0625
  7
ＭＳ ゴシック
100
AcDbText
  0
TEXT
  5
A9
330
1F
100
AcDbEntity
  8
D-5
  6
Continuous
 62
     2
370
     9
100
AcDbText
 10
-508.0666113342501
 20
-26.40905464528213
 30
0.0
 40
9.144
  1
(SUS304/電解研磨)
 41
1.117647058823533
  7
ＭＳ ゴシック
100
AcDbText
  0
TEXT
  5
AA
330
1F
100
AcDbEntity
  8
D-5
  6
Continuous
 62
     2
370
     9
100
AcDbText
 10
-536.0176695353085
 20
-9.322401534904323
 30
0.0
 40
9.144
  1
金網:Φ0.7×5メッシュ
 41
1.113095238095241
  7
ＭＳ ゴシック
100
AcDbText
  0
LINE
  5
AB
330
1F
100
AcDbEntity
  8
D-5
  6
Continuous
 62
     7
370
     9
100
AcDbLine
 10
-538.0966599369509
 20
-13.20818363825226
 30
0.0
 11
-392.6021669114175
 21
-13.20818363825226
 31
0.0
  0
LINE
  5
AC
330
1F
100
AcDbEntity
  8
D-5
  6
Continuous
 62
     7
370
     9
100
AcDbLine
 10
-343.1174249089883
 20
-98.91827098589741
 30
0.0
 11
-392.6021669114175
 21
-13.20818363825226
 31
0.0
  0
LINE
  5
AD
330
1F
100
AcDbEntity
  8
D-5
  6
Continuous
 62
     7
370
     9
100
AcDbLine
 10
-343.1174249089883
 20
-98.91827098589741
 30
0.0
 11
-347.6831356265537
 21
-92.96812093371314
 31
0.0
  0
LINE
  5
AE
330
1F
100
AcDbEntity
  8
D-5
  6
Continuous
 62
     7
370
     9
100
AcDbLine
 10
-343.1174249089883
 20
-98.91827098589741
 30
0.0
 11
-345.9875506517265
 21
-91.98917449206273
 31
0.0
  0
LINE
  5
AF
330
1F
100
AcDbEntity
  8
D-5
  6
Continuous
 62
     7
370
     9
100
AcDbLine
 10
-307.4831459491774
 20
-192.1569234681669
 30
0.0
 11
-310.3532716919156
 21
-199.0860199620015
 31
0.0
  0
LINE
  5
B0
330
1F
100
AcDbEntity
  8
D-5
  6
Continuous
 62
     7
370
     9
100
AcDbLine
 10
-307.4831459491774
 20
-192.1569234681669
 30
0.0
 11
-312.0488566667428
 21
-198.1070735203512
 31
0.0
  0
ARC
  5
B1
330
1F
100
AcDbEntity
  8
D-6
  6
Continuous
 62
     4
370
     9
100
AcDbCircle
 10
-330.3123658885265
 20
-161.9333689197452
 30
0.0
 40
25.5
100
AcDbArc
 50
180.0
 51
217.5317712710454
  0
TEXT
  5
B2
330
1F
100
AcDbEntity
  8
その他
  6
Continuous
 62
     2
370
     9
100
AcDbText
 10
98.39049007770403
 20
-223.8115095864638
 30
0.0
 40
9.144
  1
※上図のルーフドレンは、ＷＨＸＳ－７５です。
 41
1.119318181818182
  7
ＭＳ ゴシック
100
AcDbText
  0
TEXT
  5
B3
330
1F
100
AcDbEntity
  8
F-5ﾚｲﾔ
  6
Continuous
 62
     2
370
     9
100
AcDbText
 10
-277.5001051619246
 20
-408.9717049241236
 30
0.0
 40
9.144
  1
ステンレス製　防塵網　よこ引き用ルーフドレン用　ＣＳ－７５
 41
1.120689655172414
  7
ＭＳ ゴシック
100
AcDbText
  0
LINE
  5
B4
330
1F
100
AcDbEntity
  8
D-5
  6
Continuous
 62
     7
370
     9
100
AcDbLine
 10
-234.0976243032713
 20
-291.3898205767492
 30
0.0
 11
-376.7597679378105
 21
-291.3898205767492
 31
0.0
  0
TEXT
  5
B5
330
1F
100
AcDbEntity
  8
D-5
  6
Continuous
 62
     2
370
     9
100
AcDbText
 10
-365.4286961205408
 20
-286.0409491015341
 30
0.0
 40
9.144
  1
詳細図　Ｓ＝１：２
 41
1.111111111111111
  7
ＭＳ ゴシック
100
AcDbText
  0
ARC
  5
B6
330
1F
100
AcDbEntity
  8
通り芯
  6
Continuous
 62
     3
370
     9
100
AcDbCircle
 10
271.8160487446493
 20
96.21652558433107
 30
0.0
 40
9.999998543713541
100
AcDbArc
 50
179.9993896484375
 51
270.0003051757812
  0
LINE
  5
B7
330
1F
100
AcDbEntity
  8
0-9
  6
JWW_CENTER1
 62
     2
370
     9
100
AcDbLine
 10
386.8169803555814
 20
51.2165886520287
 30
0.0
 11
394.4176201996143
 21
51.2165886520287
 31
0.0
  0
LINE
  5
B8
330
1F
100
AcDbEntity
  8
通り芯
  6
Continuous
 62
     3
370
     9
100
AcDbLine
 10
257.4602369959237
 20
158.0889831990677
 30
0.0
 11
261.8168321126164
 21
158.1776968855063
 31
0.0
  0
LINE
  5
B9
330
1F
100
AcDbEntity
  8
通り芯
  6
Continuous
 62
     3
370
     9
100
AcDbLine
 10
255.233154342068
 20
160.392974995495
 30
0.0
 11
255.5080775856459
 21
159.5001278533306
 31
0.0
  0
LINE
  5
BA
330
1F
100
AcDbEntity
  8
通り芯
  6
Continuous
 62
     3
370
     9
100
AcDbLine
 10
257.2075974610729
 20
76.12155022698079
 30
0.0
 11
256.9678277279827
 21
75.21287285704935
 31
0.0
  0
LINE
  5
BB
330
1F
100
AcDbEntity
  8
通り芯
  6
Continuous
 62
     3
370
     9
100
AcDbLine
 10
259.0936861085102
 20
77.61075598874672
 30
0.0
 11
325.4233933241619
 21
79.19194553095005
 31
0.0
  0
LINE
  5
BC
330
1F
100
AcDbEntity
  8
通り芯
  6
Continuous
 62
     3
370
     9
100
AcDbLine
 10
327.280311246723
 20
79.8928604514771
 30
0.0
 11
333.9802383815867
 21
85.51484569180946
 31
0.0
  0
LINE
  5
BD
330
1F
100
AcDbEntity
  8
通り芯
  6
Continuous
 62
     3
370
     9
100
AcDbLine
 10
253.1816038929766
 20
72.23413927880557
 30
0.0
 11
251.2166613879759
 21
72.19400630700144
 31
0.0
  0
LINE
  5
BE
330
1F
100
AcDbEntity
  8
通り芯
  6
Continuous
 62
     3
370
     9
100
AcDbLine
 10
251.328810748073
 20
163.2151899837027
 30
0.0
 11
249.3634099344437
 21
163.1750817853379
 31
0.0
  0
LINE
  5
BF
330
1F
100
AcDbEntity
  8
通り芯
  6
Continuous
 62
     3
370
     9
100
AcDbLine
 10
271.8160487446493
 20
79.2167065836156
 30
0.0
 11
325.7455966768064
 21
79.21691715785036
 31
0.0
  0
LINE
  5
C0
330
1F
100
AcDbEntity
  8
通り芯
  6
Continuous
 62
     3
370
     9
100
AcDbLine
 10
259.8174669135899
 20
266.2168584939924
 30
0.0
 11
250.8175117326006
 21
266.2168584939924
 31
0.0
  0
LINE
  5
C1
330
1F
100
AcDbEntity
  8
通り芯
  6
Continuous
 62
     3
370
     9
100
AcDbLine
 10
441.816691322303
 20
84.21694042897653
 30
0.0
 11
441.816691322303
 21
75.21693570110853
 31
0.0
  0
LINE
  5
C2
330
1F
100
AcDbEntity
  8
通り芯
  6
JWW_HOJO
 62
     3
370
     9
100
AcDbLine
 10
260.8173724740575
 20
162.9667867069867
 30
0.0
 11
260.8173724740575
 21
162.7848010212626
 31
0.0
  0
LINE
  5
C3
330
1F
100
AcDbEntity
  8
通り芯
  6
JWW_HOJO
 62
     3
370
     9
100
AcDbLine
 10
260.934340268115
 20
163.1062363972863
 30
0.0
 11
260.8173724740575
 21
162.9667867069867
 31
0.0
  0
LINE
  5
C4
330
1F
100
AcDbEntity
  8
通り芯
  6
Continuous
 62
     3
370
     9
100
AcDbLine
 10
260.817397247497
 20
162.7847267009445
 30
0.0
 11
260.8175211146938
 21
161.6738732921899
 31
0.0
  0
LINE
  5
C5
330
1F
100
AcDbEntity
  8
通り芯
  6
JWW_HOJO
 62
     3
370
     9
100
AcDbLine
 10
260.8175211146938
 20
161.4667921123686
 30
0.0
 11
260.9637463406654
 21
161.320529726238
 31
0.0
  0
LINE
  5
C6
330
1F
100
AcDbEntity
  8
通り芯
  6
JWW_HOJO
 62
     3
370
     9
100
AcDbLine
 10
260.8175211146938
 20
161.6739476125081
 30
0.0
 11
260.8175211146938
 21
161.4667921123686
 31
0.0
  0
LINE
  5
C7
330
1F
100
AcDbEntity
  8
通り芯
  6
Continuous
 62
     3
370
     9
100
AcDbLine
 10
261.6999138654376
 20
164.0186173964059
 30
0.0
 11
260.9343898149938
 21
163.1062611707257
 31
0.0
  0
LINE
  5
C8
330
1F
100
AcDbEntity
  8
通り芯
  6
Continuous
 62
     3
370
     9
100
AcDbLine
 10
261.816881659495
 20
164.3399784521114
 30
0.0
 11
261.8174762220403
 21
264.2169235058601
 31
0.0
  0
LINE
  5
C9
330
1F
100
AcDbEntity
  8
通り芯
  6
Continuous
 62
     3
370
     9
100
AcDbLine
 10
261.6703839256904
 20
160.6138302076145
 30
0.0
 11
260.9637835008244
 21
161.3204801793592
 31
0.0
  0
LINE
  5
CA
330
1F
100
AcDbEntity
  8
通り芯
  6
JWW_HOJO
 62
     3
370
     9
100
AcDbLine
 10
337.0665630070806
 20
85.21668496208821
 30
0.0
 11
336.9200033396775
 21
85.36321985605204
 31
0.0
  0
LINE
  5
CB
330
1F
100
AcDbEntity
  8
通り芯
  6
JWW_HOJO
 62
     3
370
     9
100
AcDbLine
 10
337.2735698665838
 20
85.21668496208821
 30
0.0
 11
337.0665630070806
 21
85.21668496208821
 31
0.0
  0
LINE
  5
CC
330
1F
100
AcDbEntity
  8
通り芯
  6
Continuous
 62
     3
370
     9
100
AcDbLine
 10
338.3845595292551
 20
85.21668496208821
 30
0.0
 11
337.2735698665838
 21
85.21668496208821
 31
0.0
  0
LINE
  5
CD
330
1F
100
AcDbEntity
  8
通り芯
  6
JWW_HOJO
 62
     3
370
     9
100
AcDbLine
 10
338.5665947618579
 20
85.21668496208821
 30
0.0
 11
338.3845595292551
 21
85.21668496208821
 31
0.0
  0
LINE
  5
CE
330
1F
100
AcDbEntity
  8
通り芯
  6
JWW_HOJO
 62
     3
370
     9
100
AcDbLine
 10
338.7059701318394
 20
85.33364036942604
 30
0.0
 11
338.5665947618579
 21
85.21668496208821
 31
0.0
  0
LINE
  5
CF
330
1F
100
AcDbEntity
  8
通り芯
  6
Continuous
 62
     3
370
     9
100
AcDbLine
 10
339.6189704669436
 20
86.09979614257415
 30
0.0
 11
338.7059701318394
 21
85.33366514286539
 31
0.0
  0
LINE
  5
D0
330
1F
100
AcDbEntity
  8
通り芯
  6
Continuous
 62
     3
370
     9
100
AcDbLine
 10
339.9403810695278
 20
86.21673916319222
 30
0.0
 11
439.81678110761
 21
86.21691257726795
 31
0.0
  0
LINE
  5
D1
330
1F
100
AcDbEntity
  8
通り芯
  6
Continuous
 62
     3
370
     9
100
AcDbLine
 10
336.2128702858647
 20
86.07032813642539
 30
0.0
 11
336.9200528865563
 21
85.36321985605204
 31
0.0
  0
LINE
  5
D2
330
1F
100
AcDbEntity
  8
通り芯
  6
Continuous
 62
     3
370
     9
100
AcDbLine
 10
271.6807362187271
 20
82.21673293301097
 30
0.0
 11
271.6807362187271
 21
85.27527414623438
 31
0.0
  0
LINE
  5
D3
330
1F
100
AcDbEntity
  8
通り芯
  6
JWW_HOJO
 62
     3
370
     9
100
AcDbLine
 10
271.6807362187271
 20
79.2167065836156
 30
0.0
 11
274.6807501814027
 21
79.2167065836156
 31
0.0
  0
LINE
  5
D4
330
1F
100
AcDbEntity
  8
通り芯
  6
Continuous
 62
     3
370
     9
100
AcDbLine
 10
254.4741333194628
 20
257.2955961432104
 30
0.0
 11
250.8174745724415
 21
261.2168104494268
 31
0.0
  0
LINE
  5
D5
330
1F
100
AcDbEntity
  8
通り芯
  6
Continuous
 62
     3
370
     9
100
AcDbLine
 10
436.6206110518818
 20
76.1975179788557
 30
0.0
 11
436.8167175980556
 21
75.21693570110853
 31
0.0
  0
LINE
  5
D6
330
1F
100
AcDbEntity
  8
通り芯
  6
Continuous
 62
     3
370
     9
100
AcDbLine
 10
338.0924311320242
 20
80.21676078471961
 30
0.0
 11
431.7176996631459
 21
80.21689703863623
 31
0.0
  0
LINE
  5
D7
330
1F
100
AcDbEntity
  8
通り芯
  6
Continuous
 62
     3
370
     9
100
AcDbLine
 10
329.5259739801177
 20
73.94478242851656
 30
0.0
 11
336.1640666102758
 21
79.51486731333685
 31
0.0
  0
LINE
  5
D8
330
1F
100
AcDbEntity
  8
通り芯
  6
Continuous
 62
     3
370
     9
100
AcDbLine
 10
327.6691056044352
 20
73.24375602751226
 30
0.0
 11
282.9835188444924
 21
72.17856006754474
 31
0.0
  0
LINE
  5
D9
330
1F
100
AcDbEntity
  8
通り芯
  6
Continuous
 62
     3
370
     9
100
AcDbLine
 10
262.9623064029117
 20
67.20924347453658
 30
0.0
 11
280.6865255446914
 21
71.8546597343022
 31
0.0
  0
LINE
  5
DA
330
1F
100
AcDbEntity
  8
0-9
  6
JWW_CENTER1
 62
     2
370
     9
100
AcDbLine
 10
226.8169045624073
 20
226.2169448328162
 30
0.0
 11
226.8169045624073
 21
235.2168628536464
 31
0.0
  0
LINE
  5
DB
330
1F
100
AcDbEntity
  8
0-9
  6
JWW_CENTER1
 62
     2
370
     9
100
AcDbLine
 10
247.7476862177373
 20
221.2168720148113
 30
0.0
 11
231.8166800991396
 21
221.2168720148113
 31
0.0
  0
LINE
  5
DC
330
1F
100
AcDbEntity
  8
0-9
  6
JWW_CENTER1
 62
     2
370
     9
100
AcDbLine
 10
381.8169570844554
 20
56.2164137356398
 30
0.0
 11
381.8169570844554
 21
73.06432200604488
 31
0.0
  0
LINE
  5
DD
330
1F
100
AcDbEntity
  8
通り芯
  6
Continuous
 62
     3
370
     9
100
AcDbLine
 10
261.8159898156773
 20
89.2168398329058
 30
0.0
 11
261.8168321126164
 21
160.2602884541475
 31
0.0
  0
LINE
  5
DE
330
1F
100
AcDbEntity
  8
通り芯
  6
Continuous
 62
     3
370
     9
100
AcDbLine
 10
335.8598487746248
 20
86.21673916319222
 30
0.0
 11
271.8174856041337
 21
86.21673916319222
 31
0.0
  0
LINE
  5
DF
330
1F
100
AcDbEntity
  8
通り芯
  6
Continuous
 62
     3
370
     9
100
AcDbLine
 10
234.8458523999717
 20
166.8802964735544
 30
0.0
 11
234.8152448156113
 21
168.380030947059
 31
0.0
  0
LINE
  5
E0
330
1F
100
AcDbEntity
  8
通り芯
  6
Continuous
 62
     3
370
     9
100
AcDbLine
 10
234.8458523999717
 20
166.8802964735544
 30
0.0
 11
226.8474873733283
 21
166.7173863361569
 31
0.0
  0
LINE
  5
E1
330
1F
100
AcDbEntity
  8
通り芯
  6
Continuous
 62
     3
370
     9
100
AcDbLine
 10
251.898389279699
 20
168.7279739032249
 30
0.0
 11
234.8151457218536
 21
168.3800557204983
 31
0.0
  0
LINE
  5
E2
330
1F
100
AcDbEntity
  8
通り芯
  6
Continuous
 62
     3
370
     9
100
AcDbLine
 10
236.8614442017955
 20
67.85470305099975
 30
0.0
 11
228.8631163353113
 21
67.69183007376137
 31
0.0
  0
LINE
  5
E3
330
1F
100
AcDbEntity
  8
通り芯
  6
Continuous
 62
     3
370
     9
100
AcDbLine
 10
236.8919650791181
 20
66.35504289781326
 30
0.0
 11
236.8614442017955
 21
67.85470305099975
 31
0.0
  0
LINE
  5
E4
330
1F
100
AcDbEntity
  8
通り芯
  6
Continuous
 62
     3
370
     9
100
AcDbLine
 10
260.6305931278125
 20
66.88463709827155
 30
0.0
 11
236.8910113017019
 21
66.40119581538801
 31
0.0
  0
LINE
  5
E5
330
1F
100
AcDbEntity
  8
通り芯
  6
Continuous
 62
     3
370
     9
100
AcDbLine
 10
228.6551556983917
 20
74.77134823360558
 30
0.0
 11
228.8631163353113
 21
67.69183007376137
 31
0.0
  0
LINE
  5
E6
330
1F
100
AcDbEntity
  8
通り芯
  6
Continuous
 62
     3
370
     9
100
AcDbLine
 10
244.9206032486904
 20
159.486774969502
 30
0.0
 11
245.388846026511
 21
159.4816840277083
 31
0.0
  0
LINE
  5
E7
330
1F
100
AcDbEntity
  8
通り芯
  6
Continuous
 62
     3
370
     9
100
AcDbLine
 10
246.6267995660317
 20
75.6995594604924
 30
0.0
 11
247.0945097149055
 21
75.723713563893
 31
0.0
  0
LINE
  5
E8
330
1F
100
AcDbEntity
  8
通り芯
  6
JWW_CENTER1
 62
     3
370
     9
100
AcDbLine
 10
301.707432972505
 20
126.1076249176339
 30
0.0
 11
259.6930670877168
 21
84.09351915395919
 31
0.0
  0
ARC
  5
E9
330
1F
100
AcDbEntity
  8
0-9
  6
JWW_CENTER1
 62
     2
370
     9
100
AcDbCircle
 10
386.8169803555814
 20
56.2164137356398
 30
0.0
 40
4.999999658941762
100
AcDbArc
 50
180.0
 51
270.0
  0
ARC
  5
EA
330
1F
100
AcDbEntity
  8
通り芯
  6
Continuous
 62
     3
370
     9
100
AcDbCircle
 10
337.2735698665838
 20
85.71676160951898
 30
0.0
 40
0.5000000046026752
100
AcDbArc
 50
225.0000000000001
 51
269.9989318847657
  0
ARC
  5
EB
330
1F
100
AcDbEntity
  8
通り芯
  6
Continuous
 62
     3
370
     9
100
AcDbCircle
 10
338.3845595292551
 20
85.71676160951898
 30
0.0
 40
0.5000000046026752
100
AcDbArc
 50
270.0031890869142
 51
310.0010833740235
  0
ARC
  5
EC
330
1F
100
AcDbEntity
  8
通り芯
  6
Continuous
 62
     3
370
     9
100
AcDbCircle
 10
261.3172509339732
 20
161.6739476125081
 30
0.0
 40
0.5000000046026752
100
AcDbArc
 50
180.0010528564453
 51
225.0
  0
ARC
  5
ED
330
1F
100
AcDbEntity
  8
通り芯
  6
Continuous
 62
     3
370
     9
100
AcDbCircle
 10
261.3175482152459
 20
162.7848010212626
 30
0.0
 40
0.5000000046026752
100
AcDbArc
 50
139.9989166259766
 51
179.9968109130859
  0
ARC
  5
EE
330
1F
100
AcDbEntity
  8
通り芯
  6
Continuous
 62
     3
370
     9
100
AcDbCircle
 10
259.8174669135899
 20
264.2169235058601
 30
0.0
 40
2.000000018410701
100
AcDbArc
 50
0.0
 51
90.0
  0
ARC
  5
EF
330
1F
100
AcDbEntity
  8
通り芯
  6
Continuous
 62
     3
370
     9
100
AcDbCircle
 10
439.81678110761
 20
84.21694042897653
 30
0.0
 40
2.000000018410701
100
AcDbArc
 50
0.0
 51
90.0
  0
ARC
  5
F0
330
1F
100
AcDbEntity
  8
通り芯
  6
Continuous
 62
     3
370
     9
100
AcDbCircle
 10
325.351897178096
 20
82.19099332948971
 30
0.0
 40
3.000000027616052
100
AcDbArc
 50
271.3656005859376
 51
310.0001678466797
  0
ARC
  5
F1
330
1F
100
AcDbEntity
  8
通り芯
  6
Continuous
 62
     3
370
     9
100
AcDbCircle
 10
257.4195094615743
 20
160.0886085192077
 30
0.0
 40
2.000000018410701
100
AcDbArc
 50
197.1123504638672
 51
271.1670227050781
  0
ARC
  5
F2
330
1F
100
AcDbEntity
  8
通り芯
  6
Continuous
 62
     3
370
     9
100
AcDbCircle
 10
249.4449888703393
 20
159.1759673989746
 30
0.0
 40
4.000000036821402
100
AcDbArc
 50
91.16703796386719
 51
165.2211456298828
  0
ARC
  5
F3
330
1F
100
AcDbEntity
  8
通り芯
  6
Continuous
 62
     3
370
     9
100
AcDbCircle
 10
251.410253430052
 20
159.2160012770211
 30
0.0
 40
4.000000036821402
100
AcDbArc
 50
17.11235046386719
 51
91.16702270507812
  0
ARC
  5
F4
330
1F
100
AcDbEntity
  8
通り芯
  6
Continuous
 62
     3
370
     9
100
AcDbCircle
 10
251.1349833583228
 20
76.19324456056174
 30
0.0
 40
4.000000036821402
100
AcDbArc
 50
197.1123504638672
 51
271.1662750244141
  0
ARC
  5
F5
330
1F
100
AcDbEntity
  8
通り芯
  6
Continuous
 62
     3
370
     9
100
AcDbCircle
 10
253.1001983711566
 20
76.23324127844924
 30
0.0
 40
4.000000036821402
100
AcDbArc
 50
271.1662902832032
 51
345.2211456298829
  0
ARC
  5
F6
330
1F
100
AcDbEntity
  8
通り芯
  6
Continuous
 62
     3
370
     9
100
AcDbCircle
 10
259.1413625926073
 20
75.6113536295612
 30
0.0
 40
2.000000018410701
100
AcDbArc
 50
91.36561584472656
 51
165.2229919433594
  0
ARC
  5
F7
330
1F
100
AcDbEntity
  8
通り芯
  6
Continuous
 62
     3
370
     9
100
AcDbCircle
 10
271.8159991977705
 20
89.21669119226951
 30
0.0
 40
9.999999317883525
100
AcDbArc
 50
179.999282836914
 51
270.0002899169922
  0
ARC
  5
F8
330
1F
100
AcDbEntity
  8
通り芯
  6
Continuous
 62
     3
370
     9
100
AcDbCircle
 10
261.3168917191023
 20
164.3400032255508
 30
0.0
 40
0.5000000046026752
100
AcDbArc
 50
320.0007019042969
 51
359.9985809326172
  0
ARC
  5
F9
330
1F
100
AcDbEntity
  8
通り芯
  6
Continuous
 62
     3
370
     9
100
AcDbCircle
 10
261.3168297855037
 20
160.2602884541475
 30
0.0
 40
0.5000000046026752
100
AcDbArc
 50
0.0
 51
44.99798583984375
  0
ARC
  5
FA
330
1F
100
AcDbEntity
  8
通り芯
  6
Continuous
 62
     3
370
     9
100
AcDbCircle
 10
339.9403810695278
 20
85.71676160951898
 30
0.0
 40
0.5000000046026752
100
AcDbArc
 50
90.0
 51
129.9992980957031
  0
ARC
  5
FB
330
1F
100
AcDbEntity
  8
通り芯
  6
Continuous
 62
     3
370
     9
100
AcDbCircle
 10
335.908602903335
 20
83.21674997395593
 30
0.0
 40
3.000000027616052
100
AcDbArc
 50
90.00047302246094
 51
130.0001678466797
  0
ARC
  5
FC
330
1F
100
AcDbEntity
  8
通り芯
  6
Continuous
 62
     3
370
     9
100
AcDbCircle
 10
335.8598487746248
 20
85.71626614073128
 30
0.0
 40
0.5000000046026752
100
AcDbArc
 50
45.00198364257812
 51
91.11857604980469
  0
ARC
  5
FD
330
1F
100
AcDbEntity
  8
通り芯
  6
Continuous
 62
     3
370
     9
100
AcDbCircle
 10
274.6807501814027
 20
82.21673293301097
 30
0.0
 40
3.000000027616052
100
AcDbArc
 50
180.0
 51
270.0001220703124
  0
ARC
  5
FE
330
1F
100
AcDbEntity
  8
通り芯
  6
Continuous
 62
     3
370
     9
100
AcDbCircle
 10
270.6807315645018
 20
85.27527414623438
 30
0.0
 40
1.00000000920535
100
AcDbArc
 50
0.0
 51
84.07614135742189
  0
ARC
  5
FF
330
1F
100
AcDbEntity
  8
通り芯
  6
Continuous
 62
     3
370
     9
100
AcDbCircle
 10
431.7176996631459
 20
75.21689854094944
 30
0.0
 40
4.999999658941762
100
AcDbArc
 50
11.31005859375
 51
90.00000000000001
  0
ARC
  5
100
330
1F
100
AcDbEntity
  8
通り芯
  6
Continuous
 62
     3
370
     9
100
AcDbCircle
 10
283.2218393313785
 20
62.18141201770046
 30
0.0
 40
9.999999317883525
100
AcDbArc
 50
91.3656005859375
 51
104.6864318847656
  0
ARC
  5
101
330
1F
100
AcDbEntity
  8
通り芯
  6
Continuous
 62
     3
370
     9
100
AcDbCircle
 10
260.4270173896641
 20
76.88252835129742
 30
0.0
 40
9.999999317883525
100
AcDbArc
 50
271.1667022705078
 51
284.6865539550781
  0
ARC
  5
102
330
1F
100
AcDbEntity
  8
通り芯
  6
Continuous
 62
     3
370
     9
100
AcDbCircle
 10
250.8173878654037
 20
253.8856065321481
 30
0.0
 40
4.999999658941762
100
AcDbArc
 50
359.9997100830078
 51
43.00047302246094
  0
ARC
  5
103
330
1F
100
AcDbEntity
  8
通り芯
  6
Continuous
 62
     3
370
     9
100
AcDbCircle
 10
251.8169589844396
 20
172.7271502231867
 30
0.0
 40
4.000000036821402
100
AcDbArc
 50
271.1668395996094
 51
359.9996490478516
  0
ARC
  5
104
330
1F
100
AcDbEntity
  8
通り芯
  6
Continuous
 62
     3
370
     9
100
AcDbCircle
 10
338.0924311320242
 20
77.21673443532421
 30
0.0
 40
3.000000027616052
100
AcDbArc
 50
90.0
 51
130.0000305175781
  0
ARC
  5
105
330
1F
100
AcDbEntity
  8
通り芯
  6
Continuous
 62
     3
370
     9
100
AcDbCircle
 10
327.5976094583693
 20
76.24291530652917
 30
0.0
 40
3.000000027616052
100
AcDbArc
 50
271.3656005859376
 51
310.0005493164062
  0
ARC
  5
106
330
1F
100
AcDbEntity
  8
0-9
  6
JWW_CENTER1
 62
     2
370
     9
100
AcDbCircle
 10
231.8166800991396
 20
226.2169448328162
 30
0.0
 40
4.999999658941762
100
AcDbArc
 50
180.0
 51
270.0
  0
LINE
  5
107
330
1F
100
AcDbEntity
  8
通り芯
  6
Continuous
 62
     3
370
     9
100
AcDbLine
 10
228.5180736594381
 20
159.6652256485409
 30
0.0
 11
226.9605730625913
 21
161.1605506591014
 31
0.0
  0
LINE
  5
108
330
1F
100
AcDbEntity
  8
通り芯
  6
Continuous
 62
     3
370
     9
100
AcDbLine
 10
230.2379780032118
 20
74.8967728768173
 30
0.0
 11
228.6985709706996
 21
73.29338003120361
 31
0.0
  0
ARC
  5
109
330
1F
100
AcDbEntity
  8
躯体
  6
Continuous
 62
     2
370
     9
100
AcDbCircle
 10
365.0201384879536
 20
96.21771178324775
 30
0.0
 40
2.999999834073556
100
AcDbArc
 50
139.9990692138672
 51
270.0
  0
LINE
  5
10A
330
1F
100
AcDbEntity
  8
仕上
  6
Continuous
 62
     6
370
     9
100
AcDbLine
 10
277.8167895549141
 20
188.7177583107715
 30
0.0
 11
278.816843756018
 21
188.7177583107715
 31
0.0
  0
LINE
  5
10B
330
1F
100
AcDbEntity
  8
仕上
  6
Continuous
 62
     6
370
     9
100
AcDbLine
 10
360.8163335586696
 20
106.7176367854157
 30
0.0
 11
360.8163335586696
 21
105.7176692913496
 31
0.0
  0
LINE
  5
10C
330
1F
100
AcDbEntity
  8
仕上
  6
Continuous
 62
     6
370
     9
100
AcDbLine
 10
300.7088348594959
 20
157.8720516509169
 30
0.0
 11
282.4708269715858
 21
158.5735982941483
 31
0.0
  0
LINE
  5
10D
330
1F
100
AcDbEntity
  8
仕上
  6
Continuous
 62
     6
370
     9
100
AcDbLine
 10
340.5751949089463
 20
97.92342501852107
 30
0.0
 11
340.2987233254069
 21
99.30605544405157
 31
0.0
  0
LINE
  5
10E
330
1F
100
AcDbEntity
  8
仕上
  6
Continuous
 62
     6
370
     9
100
AcDbLine
 10
350.5088981805249
 20
97.06861749253281
 30
0.0
 11
360.8163335586696
 21
105.7176692913496
 31
0.0
  0
LINE
  5
10F
330
1F
100
AcDbEntity
  8
仕上
  6
Continuous
 62
     6
370
     9
100
AcDbLine
 10
310.3297982322752
 20
156.9834779270466
 30
0.0
 11
310.4403373188122
 21
157.0940294003033
 31
0.0
  0
LINE
  5
110
330
1F
100
AcDbEntity
  8
仕上
  6
Continuous
 62
     6
370
     9
100
AcDbLine
 10
304.8167665783592
 20
162.7177363946729
 30
0.0
 11
282.6629697674579
 21
163.5698188423288
 31
0.0
  0
LINE
  5
111
330
1F
100
AcDbEntity
  8
仕上
  6
Continuous
 62
     6
370
     9
100
AcDbLine
 10
313.5928070274647
 20
146.2607777712066
 30
0.0
 11
316.2810224820377
 21
151.2531708230021
 31
0.0
  0
LINE
  5
112
330
1F
100
AcDbEntity
  8
仕上
  6
Continuous
 62
     6
370
     9
100
AcDbLine
 10
351.7643665416909
 20
108.0893545108971
 30
0.0
 11
354.4525324493851
 21
113.081648468935
 31
0.0
  0
LINE
  5
113
330
1F
100
AcDbEntity
  8
仕上
  6
Continuous
 62
     6
370
     9
100
AcDbLine
 10
352.0243885614786
 20
106.3175209659045
 30
0.0
 11
356.3620196103217
 21
101.9799146905007
 31
0.0
  0
LINE
  5
114
330
1F
100
AcDbEntity
  8
仕上
  6
Continuous
 62
     6
370
     9
100
AcDbLine
 10
294.8165218485917
 20
101.7177869283653
 30
0.0
 11
355.5035208418651
 21
101.7175763541305
 31
0.0
  0
LINE
  5
115
330
1F
100
AcDbEntity
  8
躯体
  6
Continuous
 62
     2
370
     9
100
AcDbLine
 10
391.4612267188672
 20
89.919808022728
 30
0.0
 11
391.8167751209244
 21
90.21798113916896
 31
0.0
  0
LINE
  5
116
330
1F
100
AcDbEntity
  8
躯体
  6
JWW_HOJO
 62
     2
370
     9
100
AcDbLine
 10
390.5230070224688
 20
89.21785261774676
 30
0.0
 11
392.8947665623344
 21
89.21785261774676
 31
0.0
  0
LINE
  5
117
330
1F
100
AcDbEntity
  8
躯体
  6
Continuous
 62
     2
370
     9
100
AcDbLine
 10
265.5193161776716
 20
215.8626104077415
 30
0.0
 11
265.8173406534762
 21
216.2177624347685
 31
0.0
  0
LINE
  5
118
330
1F
100
AcDbEntity
  8
躯体
  6
JWW_HOJO
 62
     2
370
     9
100
AcDbLine
 10
264.8174598664479
 20
215.2042562560784
 30
0.0
 11
264.8174598664479
 21
216.9458538183012
 31
0.0
  0
LINE
  5
119
330
1F
100
AcDbEntity
  8
躯体
  6
Continuous
 62
     2
370
     9
100
AcDbLine
 10
362.7219560630622
 20
98.14611346515511
 30
0.0
 11
367.8167129663975
 21
104.2175879896936
 31
0.0
  0
LINE
  5
11A
330
1F
100
AcDbEntity
  8
躯体
  6
Continuous
 62
     2
370
     9
100
AcDbLine
 10
304.7075157106701
 20
93.21758634009478
 30
0.0
 11
298.4037158715767
 21
93.21758634009478
 31
0.0
  0
LINE
  5
11B
330
1F
100
AcDbEntity
  8
躯体
  6
Continuous
 62
     2
370
     9
100
AcDbLine
 10
310.1612892975766
 20
93.21758634009478
 30
0.0
 11
304.7075157106701
 21
93.21758634009478
 31
0.0
  0
LINE
  5
11C
330
1F
100
AcDbEntity
  8
躯体
  6
Continuous
 62
     2
370
     9
100
AcDbLine
 10
265.6958145465718
 20
159.3391347313118
 30
0.0
 11
265.8170062120444
 21
159.2177324916043
 31
0.0
  0
LINE
  5
11D
330
1F
100
AcDbEntity
  8
躯体
  6
Continuous
 62
     2
370
     9
100
AcDbLine
 10
268.8164999324931
 20
122.8050252401329
 30
0.0
 11
268.8168839208036
 21
162.7927503691315
 31
0.0
  0
LINE
  5
11E
330
1F
100
AcDbEntity
  8
躯体
  6
Continuous
 62
     2
370
     9
100
AcDbLine
 10
332.9380885621383
 20
90.09659128618117
 30
0.0
 11
332.8167482560294
 21
90.21791920557047
 31
0.0
  0
LINE
  5
11F
330
1F
100
AcDbEntity
  8
仕上
  6
Continuous
 62
     6
370
     9
100
AcDbLine
 10
342.0462417396428
 20
96.71766456348158
 30
0.0
 11
349.5446663727719
 21
96.71766456348158
 31
0.0
  0
LINE
  5
120
330
1F
100
AcDbEntity
  8
仕上
  6
Continuous
 62
     6
370
     9
100
AcDbLine
 10
304.0519609576576
 20
156.4111990905275
 30
0.0
 11
313.8061063405718
 21
146.656979387295
 31
0.0
  0
LINE
  5
121
330
1F
100
AcDbEntity
  8
仕上
  6
Continuous
 62
     6
370
     9
100
AcDbLine
 10
278.816645568503
 20
169.717793747689
 30
0.0
 11
273.8166718442556
 21
169.717793747689
 31
0.0
  0
LINE
  5
122
330
1F
100
AcDbEntity
  8
仕上
  6
Continuous
 62
     6
370
     9
100
AcDbLine
 10
278.8167446622606
 20
177.7178062080515
 30
0.0
 11
273.8167213911344
 21
177.7178062080515
 31
0.0
  0
LINE
  5
123
330
1F
100
AcDbEntity
  8
仕上
  6
Continuous
 62
     6
370
     9
100
AcDbLine
 10
278.816645568503
 20
167.5668894199429
 30
0.0
 11
278.816645568503
 21
169.717793747689
 31
0.0
  0
LINE
  5
124
330
1F
100
AcDbEntity
  8
仕上
  6
Continuous
 62
     6
370
     9
100
AcDbLine
 10
278.8167446622606
 20
177.7178062080515
 30
0.0
 11
278.816843756018
 21
188.7177583107715
 31
0.0
  0
LINE
  5
125
330
1F
100
AcDbEntity
  8
仕上
  6
Continuous
 62
     6
370
     9
100
AcDbLine
 10
310.3322260293349
 20
150.1308968586909
 30
0.0
 11
280.7772155614522
 21
119.5257898421459
 31
0.0
  0
LINE
  5
126
330
1F
100
AcDbEntity
  8
仕上
  6
Continuous
 62
     6
370
     9
100
AcDbLine
 10
306.3200684271352
 20
154.1429925272922
 30
0.0
 11
283.900502158509
 21
132.4927778054947
 31
0.0
  0
LINE
  5
127
330
1F
100
AcDbEntity
  8
仕上
  6
Continuous
 62
     6
370
     9
100
AcDbLine
 10
338.023282917871
 20
106.7175005314992
 30
0.0
 11
351.7384535240939
 21
106.7175005314992
 31
0.0
  0
LINE
  5
128
330
1F
100
AcDbEntity
  8
仕上
  6
Continuous
 62
     6
370
     9
100
AcDbLine
 10
342.1519747789391
 20
118.3111604958066
 30
0.0
 11
335.8653677067791
 21
111.8014314418232
 31
0.0
  0
LINE
  5
129
330
1F
100
AcDbEntity
  8
仕上
  6
Continuous
 62
     6
370
     9
100
AcDbLine
 10
278.816645568503
 20
148.6685207317793
 30
0.0
 11
278.816645568503
 21
134.6508168837837
 31
0.0
  0
LINE
  5
12A
330
1F
100
AcDbEntity
  8
仕上
  6
Continuous
 62
     6
370
     9
100
AcDbLine
 10
279.658645226329
 20
150.752462452867
 30
0.0
 11
287.0415760850443
 21
158.3978555151493
 31
0.0
  0
LINE
  5
12B
330
1F
100
AcDbEntity
  8
仕上
  6
Continuous
 62
     6
370
     9
100
AcDbLine
 10
320.7672446203137
 20
106.7176739455748
 30
0.0
 11
306.7493921316818
 21
106.7176739455748
 31
0.0
  0
LINE
  5
12C
330
1F
100
AcDbEntity
  8
仕上
  6
Continuous
 62
     6
370
     9
100
AcDbLine
 10
322.8511863414013
 20
107.5595621229237
 30
0.0
 11
338.1398171767393
 21
122.3233676448851
 31
0.0
  0
LINE
  5
12D
330
1F
100
AcDbEntity
  8
仕上
  6
Continuous
 62
     6
370
     9
100
AcDbLine
 10
316.5877672085059
 20
141.7540308383999
 30
0.0
 11
313.8529776878887
 21
144.4889937730928
 31
0.0
  0
LINE
  5
12E
330
1F
100
AcDbEntity
  8
仕上
  6
Continuous
 62
     6
370
     9
100
AcDbLine
 10
318.3596626870969
 20
141.4939221115744
 30
0.0
 11
323.3522539264075
 21
144.1820880192685
 31
0.0
  0
LINE
  5
12F
330
1F
100
AcDbEntity
  8
躯体
  6
Continuous
 62
     2
370
     9
100
AcDbLine
 10
359.0286821726294
 20
104.2175879896936
 30
0.0
 11
367.8167129663975
 21
104.2175879896936
 31
0.0
  0
LINE
  5
130
330
1F
100
AcDbEntity
  8
躯体
  6
Continuous
 62
     2
370
     9
100
AcDbLine
 10
311.1254715584509
 20
93.56844017538847
 30
0.0
 11
320.8374525475315
 21
101.7177126080471
 31
0.0
  0
LINE
  5
131
330
1F
100
AcDbEntity
  8
躯体
  6
Continuous
 62
     2
370
     9
100
AcDbLine
 10
302.7074568553409
 20
95.2175461016665
 30
0.0
 11
302.7074568553409
 21
101.7177497682062
 31
0.0
  0
LINE
  5
132
330
1F
100
AcDbEntity
  8
仕上
  6
Continuous
 62
     6
370
     9
100
AcDbLine
 10
272.3170860113873
 20
182.1635980932507
 30
0.0
 11
277.8167895549141
 21
188.7177583107715
 31
0.0
  0
LINE
  5
133
330
1F
100
AcDbEntity
  8
仕上
  6
Continuous
 62
     4
370
     9
100
AcDbLine
 10
281.4165684851069
 20
179.7181623446533
 30
0.0
 11
278.816645568503
 21
179.7181623446533
 31
0.0
  0
LINE
  5
134
330
1F
100
AcDbEntity
  8
仕上
  6
Continuous
 62
     4
370
     9
100
AcDbLine
 10
281.4165684851069
 20
167.7179826267536
 30
0.0
 11
278.816645568503
 21
167.7179826267536
 31
0.0
  0
LINE
  5
135
330
1F
100
AcDbEntity
  8
仕上
  6
Continuous
 62
     4
370
     9
100
AcDbLine
 10
281.4165684851069
 20
173.2389665547123
 30
0.0
 11
281.4165684851069
 21
174.1970050026189
 31
0.0
  0
LINE
  5
136
330
1F
100
AcDbEntity
  8
仕上
  6
Continuous
 62
     4
370
     9
100
AcDbLine
 10
266.8166144912395
 20
176.7180740616595
 30
0.0
 11
266.8166144912395
 21
170.7180213628687
 31
0.0
  0
LINE
  5
137
330
1F
100
AcDbEntity
  8
仕上
  6
Continuous
 62
     4
370
     9
100
AcDbLine
 10
276.8165371662949
 20
176.7180740616595
 30
0.0
 11
266.8166144912395
 21
176.7180740616595
 31
0.0
  0
LINE
  5
138
330
1F
100
AcDbEntity
  8
仕上
  6
Continuous
 62
     4
370
     9
100
AcDbLine
 10
278.816645568503
 20
179.7181623446533
 30
0.0
 11
278.816645568503
 21
167.7179826267536
 31
0.0
  0
LINE
  5
139
330
1F
100
AcDbEntity
  8
仕上
  6
Continuous
 62
     4
370
     9
100
AcDbLine
 10
276.8165371662949
 20
170.7180213628687
 30
0.0
 11
266.8166144912395
 21
170.7180213628687
 31
0.0
  0
LINE
  5
13A
330
1F
100
AcDbEntity
  8
仕上
  6
Continuous
 62
     4
370
     9
100
AcDbLine
 10
276.8165371662949
 20
175.8480060970099
 30
0.0
 11
266.8166144912395
 21
175.8480060970099
 31
0.0
  0
LINE
  5
13B
330
1F
100
AcDbEntity
  8
仕上
  6
Continuous
 62
     4
370
     9
100
AcDbLine
 10
276.8165371662949
 20
171.5881141009577
 30
0.0
 11
266.8166144912395
 21
171.5881141009577
 31
0.0
  0
LINE
  5
13C
330
1F
100
AcDbEntity
  8
仕上
  6
Continuous
 62
     4
370
     9
100
AcDbLine
 10
276.8165371662949
 20
171.5881141009577
 30
0.0
 11
278.6891119025477
 21
170.5358374896295
 31
0.0
  0
LINE
  5
13D
330
1F
100
AcDbEntity
  8
仕上
  6
Continuous
 62
     4
370
     9
100
AcDbLine
 10
276.8165371662949
 20
170.7180213628687
 30
0.0
 11
277.5804013963
 21
171.1589142636081
 31
0.0
  0
LINE
  5
13E
330
1F
100
AcDbEntity
  8
仕上
  6
Continuous
 62
     4
370
     9
100
AcDbLine
 10
276.8165371662949
 20
175.8480060970099
 30
0.0
 11
278.6891119025477
 21
176.9000102005048
 31
0.0
  0
LINE
  5
13F
330
1F
100
AcDbEntity
  8
仕上
  6
Continuous
 62
     4
370
     9
100
AcDbLine
 10
276.8165371662949
 20
176.7180740616595
 30
0.0
 11
277.5804013963
 21
176.2771811609201
 31
0.0
  0
LINE
  5
140
330
1F
100
AcDbEntity
  8
仕上
  6
Continuous
 62
     4
370
     9
100
AcDbLine
 10
283.4051820114402
 20
174.1970050026189
 30
0.0
 11
281.4165684851069
 21
174.1970050026189
 31
0.0
  0
LINE
  5
141
330
1F
100
AcDbEntity
  8
仕上
  6
Continuous
 62
     4
370
     9
100
AcDbLine
 10
276.8165371662949
 20
176.7180740616595
 30
0.0
 11
276.8165371662949
 21
170.7180213628687
 31
0.0
  0
LINE
  5
142
330
1F
100
AcDbEntity
  8
仕上
  6
Continuous
 62
     4
370
     9
100
AcDbLine
 10
283.4051820114402
 20
173.2389665547123
 30
0.0
 11
281.4165684851069
 21
173.2389665547123
 31
0.0
  0
LINE
  5
143
330
1F
100
AcDbEntity
  8
仕上
  6
JWW_CENTER1
 62
     6
370
     9
100
AcDbLine
 10
284.6018382275054
 20
173.7176389505142
 30
0.0
 11
263.0916429851135
 21
173.7179362317868
 31
0.0
  0
LINE
  5
144
330
1F
100
AcDbEntity
  8
躯体
  6
Continuous
 62
     2
370
     9
100
AcDbLine
 10
266.8166144912395
 20
175.8476097219797
 30
0.0
 11
264.8169148507815
 21
175.8476097219797
 31
0.0
  0
LINE
  5
145
330
1F
100
AcDbEntity
  8
躯体
  6
Continuous
 62
     2
370
     9
100
AcDbLine
 10
266.8166144912395
 20
176.7177024600687
 30
0.0
 11
264.8169148507815
 21
176.7177024600687
 31
0.0
  0
LINE
  5
146
330
1F
100
AcDbEntity
  8
躯体
  6
Continuous
 62
     2
370
     9
100
AcDbLine
 10
266.8166144912395
 20
171.5877177259275
 30
0.0
 11
264.8169148507815
 21
171.5877177259275
 31
0.0
  0
LINE
  5
147
330
1F
100
AcDbEntity
  8
躯体
  6
Continuous
 62
     2
370
     9
100
AcDbLine
 10
266.8166144912395
 20
170.7176249878385
 30
0.0
 11
264.8169148507815
 21
170.7176249878385
 31
0.0
  0
LINE
  5
148
330
1F
100
AcDbEntity
  8
躯体
  6
Continuous
 62
     2
370
     9
100
AcDbLine
 10
272.3170860113873
 20
185.1878404796452
 30
0.0
 11
272.3170860113873
 21
175.8480060970099
 31
0.0
  0
LINE
  5
149
330
1F
100
AcDbEntity
  8
躯体
  6
Continuous
 62
     2
370
     9
100
AcDbLine
 10
272.3170860113873
 20
185.1877413858876
 30
0.0
 11
272.316937370751
 21
175.8480060970099
 31
0.0
  0
LINE
  5
14A
330
1F
100
AcDbEntity
  8
0-A
  6
Continuous
 62
     2
370
     9
100
AcDbLine
 10
294.9627842347222
 20
103.7600225642479
 30
0.0
 11
279.4063029727509
 21
119.3165038262193
 31
0.0
  0
LINE
  5
14B
330
1F
100
AcDbEntity
  8
0-A
  6
Continuous
 62
     2
370
     9
100
AcDbLine
 10
278.2749990897838
 20
118.1852247166916
 30
0.0
 11
279.4063029727509
 21
119.3165038262193
 31
0.0
  0
LINE
  5
14C
330
1F
100
AcDbEntity
  8
0-A
  6
Continuous
 62
     2
370
     9
100
AcDbLine
 10
293.8313317111189
 20
102.6286691344021
 30
0.0
 11
294.9627842347222
 21
103.7600225642479
 31
0.0
  0
LINE
  5
14D
330
1F
100
AcDbEntity
  8
0-A
  6
Continuous
 62
     2
370
     9
100
AcDbLine
 10
280.6791127414866
 20
118.0436940574836
 30
0.0
 11
282.4469453760183
 21
119.8113656646595
 31
0.0
  0
LINE
  5
14E
330
1F
100
AcDbEntity
  8
0-A
  6
Continuous
 62
     2
370
     9
100
AcDbLine
 10
293.6900240128654
 20
105.0328447197033
 30
0.0
 11
295.4577575536397
 21
106.8005906471973
 31
0.0
  0
LINE
  5
14F
330
1F
100
AcDbEntity
  8
0-A
  6
Continuous
 62
     2
370
     9
100
AcDbLine
 10
290.5168932557655
 20
121.78961150661
 30
0.0
 11
285.4928892953143
 21
116.7656075461589
 31
0.0
  0
LINE
  5
150
330
1F
100
AcDbEntity
  8
0-A
  6
Continuous
 62
     2
370
     9
100
AcDbLine
 10
297.4358175947948
 20
114.8706500074216
 30
0.0
 11
292.4118136343437
 21
109.8464850196145
 31
0.0
  0
LINE
  5
151
330
1F
100
AcDbEntity
  8
0-A
  6
Continuous
 62
     2
370
     9
100
AcDbLine
 10
289.4145742968792
 20
124.1575930969694
 30
0.0
 11
299.8037124781164
 21
113.7683186618156
 31
0.0
  0
LINE
  5
152
330
1F
100
AcDbEntity
  8
0-A
  6
Continuous
 62
     2
370
     9
100
AcDbLine
 10
287.0467785073152
 20
125.2597014816209
 30
0.0
 11
282.0227745468641
 21
120.2358090016471
 31
0.0
  0
LINE
  5
153
330
1F
100
AcDbEntity
  8
0-A
  6
Continuous
 62
     2
370
     9
100
AcDbLine
 10
295.8819779296728
 20
106.3764322047626
 30
0.0
 11
282.0227745468641
 21
120.2358090016471
 31
0.0
  0
LINE
  5
154
330
1F
100
AcDbEntity
  8
0-A
  6
Continuous
 62
     2
370
     9
100
AcDbLine
 10
300.9059818901239
 20
111.4004113917744
 30
0.0
 11
295.8819779296728
 21
106.3764322047626
 31
0.0
  0
LINE
  5
155
330
1F
100
AcDbEntity
  8
0-A
  6
Continuous
 62
     2
370
     9
100
AcDbLine
 10
285.7175348436598
 20
113.0052719553103
 30
0.0
 11
287.4852683844342
 21
114.7732656171981
 31
0.0
  0
LINE
  5
156
330
1F
100
AcDbEntity
  8
0-A
  6
Continuous
 62
     2
370
     9
100
AcDbLine
 10
285.010401789847
 20
113.7124669427215
 30
0.0
 11
286.7780857837427
 21
115.4803862842912
 31
0.0
  0
LINE
  5
157
330
1F
100
AcDbEntity
  8
躯体
  6
Continuous
 62
     2
370
     9
100
AcDbLine
 10
270.3412555797769
 20
117.8050019690067
 30
0.0
 11
264.8164441554331
 21
117.8050019690067
 31
0.0
  0
LINE
  5
158
330
1F
100
AcDbEntity
  8
躯体
  6
Continuous
 62
     2
370
     9
100
AcDbLine
 10
272.4121664717479
 20
122.8050252401329
 30
0.0
 11
264.8164441554331
 21
122.8050252401329
 31
0.0
  0
LINE
  5
159
330
1F
100
AcDbEntity
  8
躯体
  6
Continuous
 62
     2
370
     9
100
AcDbLine
 10
378.8461950088648
 20
93.21778452760987
 30
0.0
 11
365.0201384879536
 21
93.21778452760987
 31
0.0
  0
LINE
  5
15A
330
1F
100
AcDbEntity
  8
仕上
  6
Continuous
 62
     6
370
     9
100
AcDbLine
 10
273.8165727504981
 20
122.4560294127931
 30
0.0
 11
273.8167213911344
 21
170.7180213628687
 31
0.0
  0
LINE
  5
15B
330
1F
100
AcDbEntity
  8
仕上
  6
Continuous
 62
     6
370
     9
100
AcDbLine
 10
273.8167213911344
 20
176.7180740616595
 30
0.0
 11
273.8167213911344
 21
183.950754010503
 31
0.0
  0
LINE
  5
15C
330
1F
100
AcDbEntity
  8
躯体
  6
Continuous
 62
     2
370
     9
100
AcDbLine
 10
334.6073229079169
 20
93.68555661008227
 30
0.0
 11
337.6632752967245
 21
96.24976861381228
 31
0.0
  0
LINE
  5
15D
330
1F
100
AcDbEntity
  8
躯体
  6
Continuous
 62
     2
370
     9
100
AcDbLine
 10
353.1506882096899
 20
96.71766456348158
 30
0.0
 11
338.948868160183
 21
96.71766456348158
 31
0.0
  0
LINE
  5
15E
330
1F
100
AcDbEntity
  8
躯体
  6
Continuous
 62
     2
370
     9
100
AcDbLine
 10
354.4362810731482
 20
97.18561006002969
 30
0.0
 11
362.8167392421501
 21
104.2175879896936
 31
0.0
  0
LINE
  5
15F
330
1F
100
AcDbEntity
  8
躯体
  6
Continuous
 62
     2
370
     9
100
AcDbLine
 10
350.2651770838528
 20
93.68566809055952
 30
0.0
 11
354.4362810731482
 21
97.18561006002969
 31
0.0
  0
LINE
  5
160
330
1F
100
AcDbEntity
  8
躯体
  6
Continuous
 62
     2
370
     9
100
AcDbLine
 10
365.0201384879536
 20
93.21778452760987
 30
0.0
 11
348.9796337672731
 21
93.217697820572
 31
0.0
  0
LINE
  5
161
330
1F
100
AcDbEntity
  8
躯体
  6
Continuous
 62
     2
370
     9
100
AcDbLine
 10
390.8167704666991
 20
93.21778452760987
 30
0.0
 11
378.8461950088648
 21
93.21778452760987
 31
0.0
  0
LINE
  5
162
330
1F
100
AcDbEntity
  8
躯体
  6
Continuous
 62
     2
370
     9
100
AcDbLine
 10
335.8342027200322
 20
92.7497770974633
 30
0.0
 11
332.8167482560294
 21
90.21791920557047
 31
0.0
  0
LINE
  5
163
330
1F
100
AcDbEntity
  8
躯体
  6
Continuous
 62
     2
370
     9
100
AcDbLine
 10
337.1197955834908
 20
93.21767304713262
 30
0.0
 11
348.9796337672731
 21
93.217697820572
 31
0.0
  0
LINE
  5
164
330
1F
100
AcDbEntity
  8
躯体
  6
Continuous
 62
     2
370
     9
100
AcDbLine
 10
337.1197955834908
 20
93.21767304713262
 30
0.0
 11
310.1612892975766
 21
93.21758634009478
 31
0.0
  0
LINE
  5
165
330
1F
100
AcDbEntity
  8
躯体
  6
Continuous
 62
     2
370
     9
100
AcDbLine
 10
271.8174800593049
 20
216.2177624347685
 30
0.0
 11
265.8173406534762
 21
216.2177624347685
 31
0.0
  0
LINE
  5
166
330
1F
100
AcDbEntity
  8
躯体
  6
Continuous
 62
     2
370
     9
100
AcDbLine
 10
272.8173608463331
 20
201.079308188984
 30
0.0
 11
272.8175094869694
 21
215.2177577805434
 31
0.0
  0
LINE
  5
167
330
1F
100
AcDbEntity
  8
躯体
  6
Continuous
 62
     2
370
     9
100
AcDbLine
 10
277.5382370024662
 20
198.6219811894817
 30
0.0
 11
279.8170961446372
 21
200.2178613812405
 31
0.0
  0
LINE
  5
168
330
1F
100
AcDbEntity
  8
躯体
  6
Continuous
 62
     2
370
     9
100
AcDbLine
 10
279.5830862362041
 20
194.9390378232727
 30
0.0
 11
273.0188680022929
 21
187.1160811341966
 31
0.0
  0
LINE
  5
169
330
1F
100
AcDbEntity
  8
躯体
  6
JWW_HOJO
 62
     2
370
     9
100
AcDbLine
 10
279.8170961446372
 20
195.2178876569931
 30
0.0
 11
279.5830366893252
 21
194.9390378232727
 31
0.0
  0
LINE
  5
16A
330
1F
100
AcDbEntity
  8
躯体
  6
Continuous
 62
     2
370
     9
100
AcDbLine
 10
279.8170961446372
 20
200.2178613812405
 30
0.0
 11
279.8170961446372
 21
187.7175059221524
 31
0.0
  0
LINE
  5
16B
330
1F
100
AcDbEntity
  8
躯体
  6
Continuous
 62
     2
370
     9
100
AcDbLine
 10
272.0829274623179
 20
166.6850540715853
 30
0.0
 11
265.8170062120444
 21
159.2177324916043
 31
0.0
  0
LINE
  5
16C
330
1F
100
AcDbEntity
  8
躯体
  6
Continuous
 62
     2
370
     9
100
AcDbLine
 10
272.3168878238722
 20
167.3278257298752
 30
0.0
 11
272.316937370751
 21
171.5881141009577
 31
0.0
  0
LINE
  5
16D
330
1F
100
AcDbEntity
  8
躯体
  6
Continuous
 62
     2
370
     9
100
AcDbLine
 10
272.3170860113873
 20
171.5877177259275
 30
0.0
 11
272.3170860113873
 21
167.3278257298752
 31
0.0
  0
LINE
  5
16E
330
1F
100
AcDbEntity
  8
躯体
  6
Continuous
 62
     2
370
     9
100
AcDbLine
 10
293.4036430535718
 20
94.74260210849204
 30
0.0
 11
293.4036430535718
 21
89.21755533647413
 31
0.0
  0
LINE
  5
16F
330
1F
100
AcDbEntity
  8
躯体
  6
Continuous
 62
     2
370
     9
100
AcDbLine
 10
297.5250515234604
 20
98.93487500174228
 30
0.0
 11
274.5335160863074
 21
121.9263485052969
 31
0.0
  0
LINE
  5
170
330
1F
100
AcDbEntity
  8
躯体
  6
Continuous
 62
     2
370
     9
100
AcDbLine
 10
298.4037158715767
 20
96.81358732078127
 30
0.0
 11
298.4037158715767
 21
89.21755533647413
 31
0.0
  0
LINE
  5
171
330
1F
100
AcDbEntity
  8
躯体
  6
Continuous
 62
     2
370
     9
100
AcDbLine
 10
279.8170961446372
 20
150.9165617153549
 30
0.0
 11
279.8170961446372
 21
132.4142831628025
 31
0.0
  0
LINE
  5
172
330
1F
100
AcDbEntity
  8
仕上
  6
Continuous
 62
     6
370
     9
100
AcDbLine
 10
306.8599312182188
 20
155.1151642223681
 30
0.0
 11
310.4734841807096
 21
157.0609196985648
 31
0.0
  0
LINE
  5
173
330
1F
100
AcDbEntity
  8
躯体
  6
Continuous
 62
     2
370
     9
100
AcDbLine
 10
292.5249291585768
 20
96.86392694961214
 30
0.0
 11
272.4625061005787
 21
116.9263252341708
 31
0.0
  0
ARC
  5
174
330
1F
100
AcDbEntity
  8
仕上
  6
Continuous
 62
     6
370
     9
100
AcDbCircle
 10
282.8166641854039
 20
167.5670380605792
 30
0.0
 40
9.000000857018133
100
AcDbArc
 50
179.9998931884766
 51
267.79736328125
  0
ARC
  5
175
330
1F
100
AcDbEntity
  8
仕上
  6
Continuous
 62
     6
370
     9
100
AcDbCircle
 10
300.5164938761089
 20
152.875806329297
 30
0.0
 40
4.999998884771782
100
AcDbArc
 50
44.99969482421876
 51
87.79678344726562
  0
ARC
  5
176
330
1F
100
AcDbEntity
  8
仕上
  6
Continuous
 62
     6
370
     9
100
AcDbCircle
 10
306.1487848672255
 20
156.4358734361552
 30
0.0
 40
1.499999917036778
100
AcDbArc
 50
225.0010070800781
 51
298.3021545410156
  0
ARC
  5
177
330
1F
100
AcDbEntity
  8
仕上
  6
Continuous
 62
     6
370
     9
100
AcDbCircle
 10
275.3167531459116
 20
183.4048465002095
 30
0.0
 40
1.499999917036778
100
AcDbArc
 50
140.000244140625
 51
179.9996643066406
  0
ARC
  5
178
330
1F
100
AcDbEntity
  8
仕上
  6
Continuous
 62
     6
370
     9
100
AcDbCircle
 10
337.3570260390439
 20
98.71774819225018
 30
0.0
 40
2.999999834073556
100
AcDbArc
 50
11.30984497070312
 51
90.00000000000001
  0
ARC
  5
179
330
1F
100
AcDbEntity
  8
仕上
  6
Continuous
 62
     6
370
     9
100
AcDbCircle
 10
342.0462417396428
 20
98.21764677138003
 30
0.0
 40
1.499999917036778
100
AcDbArc
 50
191.3101501464844
 51
269.9996643066406
  0
ARC
  5
17A
330
1F
100
AcDbEntity
  8
仕上
  6
Continuous
 62
     6
370
     9
100
AcDbCircle
 10
349.5446663727719
 20
98.21764677138003
 30
0.0
 40
1.499999917036778
100
AcDbArc
 50
269.9996643066406
 51
309.9996948242188
  0
ARC
  5
17B
330
1F
100
AcDbEntity
  8
仕上
  6
Continuous
 62
     6
370
     9
100
AcDbCircle
 10
355.5035208418651
 20
103.2176328823471
 30
0.0
 40
1.499999917036778
100
AcDbArc
 50
269.9996643066406
 51
309.9996948242188
  0
ARC
  5
17C
330
1F
100
AcDbEntity
  8
仕上
  6
Continuous
 62
     6
370
     9
100
AcDbCircle
 10
282.8168128260403
 20
167.5668894199429
 30
0.0
 40
4.000000036821402
100
AcDbArc
 50
180.0
 51
267.7975769042969
  0
ARC
  5
17D
330
1F
100
AcDbEntity
  8
仕上
  6
Continuous
 62
     6
370
     9
100
AcDbCircle
 10
314.9135286279716
 20
145.5497429006907
 30
0.0
 40
1.499999917036778
100
AcDbArc
 50
151.6991729736328
 51
225.0006713867188
  0
ARC
  5
17E
330
1F
100
AcDbEntity
  8
仕上
  6
Continuous
 62
     6
370
     9
100
AcDbCircle
 10
317.648466789225
 20
142.8146560988009
 30
0.0
 40
1.499999917036778
100
AcDbArc
 50
225.0006713867188
 51
298.299545288086
  0
ARC
  5
17F
330
1F
100
AcDbEntity
  8
仕上
  6
Continuous
 62
     6
370
     9
100
AcDbCircle
 10
353.0850881421976
 20
107.3781833864645
 30
0.0
 40
1.499999917036778
100
AcDbArc
 50
151.69921875
 51
224.9996643066406
  0
ARC
  5
180
330
1F
100
AcDbEntity
  8
躯体
  6
Continuous
 62
     2
370
     9
100
AcDbCircle
 10
389.5329117439977
 20
92.21791612730124
 30
0.0
 40
2.999999834073556
100
AcDbArc
 50
270.0000000000001
 51
309.9990844726564
  0
ARC
  5
181
330
1F
100
AcDbEntity
  8
躯体
  6
Continuous
 62
     2
370
     9
100
AcDbCircle
 10
267.8175109892826
 20
213.9341963391145
 30
0.0
 40
2.999999834073556
100
AcDbArc
 50
139.9997100830078
 51
179.9989929199219
  0
ARC
  5
182
330
1F
100
AcDbEntity
  8
躯体
  6
Continuous
 62
     2
370
     9
100
AcDbCircle
 10
272.4121664717479
 20
119.8051103712147
 30
0.0
 40
2.999999834073556
100
AcDbArc
 50
45.0
 51
90.0
  0
ARC
  5
183
330
1F
100
AcDbEntity
  8
躯体
  6
Continuous
 62
     2
370
     9
100
AcDbCircle
 10
270.3412555797769
 20
114.8050623266492
 30
0.0
 40
2.999999834073556
100
AcDbArc
 50
45.0
 51
90.0
  0
ARC
  5
184
330
1F
100
AcDbEntity
  8
躯体
  6
Continuous
 62
     2
370
     9
100
AcDbCircle
 10
290.4035795440173
 20
94.74260210849204
 30
0.0
 40
2.999999834073556
100
AcDbArc
 50
0.0
 51
45.0
  0
ARC
  5
185
330
1F
100
AcDbEntity
  8
躯体
  6
Continuous
 62
     2
370
     9
100
AcDbCircle
 10
295.4037514557798
 20
96.81358732078127
 30
0.0
 40
2.999999834073556
100
AcDbArc
 50
0.0
 51
45.0
  0
ARC
  5
186
330
1F
100
AcDbEntity
  8
躯体
  6
Continuous
 62
     2
370
     9
100
AcDbCircle
 10
304.7075157106701
 20
95.2175461016665
 30
0.0
 40
2.000000018410701
100
AcDbArc
 50
180.0
 51
270.0
  0
ARC
  5
187
330
1F
100
AcDbEntity
  8
躯体
  6
Continuous
 62
     2
370
     9
100
AcDbCircle
 10
310.1612892975766
 20
94.71748184095543
 30
0.0
 40
1.499999917036778
100
AcDbArc
 50
270.0
 51
310.0001678466797
  0
ARC
  5
188
330
1F
100
AcDbEntity
  8
躯体
  6
Continuous
 62
     2
370
     9
100
AcDbCircle
 10
275.3169513334267
 20
185.1877413858876
 30
0.0
 40
2.999999834073556
100
AcDbArc
 50
140.0005950927735
 51
180.0
  0
ARC
  5
189
330
1F
100
AcDbEntity
  8
躯体
  6
Continuous
 62
     2
370
     9
100
AcDbCircle
 10
267.8169907470556
 20
161.4604471857121
 30
0.0
 40
2.999999834073556
100
AcDbArc
 50
180.0
 51
225.0024871826172
  0
ARC
  5
18A
330
1F
100
AcDbEntity
  8
躯体
  6
Continuous
 62
     2
370
     9
100
AcDbCircle
 10
335.0595868173342
 20
92.21773032650586
 30
0.0
 40
2.999999834073556
100
AcDbArc
 50
224.9976959228516
 51
270.0
  0
ARC
  5
18B
330
1F
100
AcDbEntity
  8
仕上
  6
Continuous
 62
     6
370
     9
100
AcDbCircle
 10
281.8165108905424
 20
134.6508168837837
 30
0.0
 40
2.999999834073556
100
AcDbArc
 50
180.0000000000001
 51
313.9999237060547
  0
ARC
  5
18C
330
1F
100
AcDbEntity
  8
仕上
  6
Continuous
 62
     6
370
     9
100
AcDbCircle
 10
306.7493921316818
 20
109.7177126816899
 30
0.0
 40
2.999999834073556
100
AcDbArc
 50
135.9995727539063
 51
269.9994964599609
  0
ARC
  5
18D
330
1F
100
AcDbEntity
  8
仕上
  6
Continuous
 62
     6
370
     9
100
AcDbCircle
 10
338.0233324647498
 20
109.7174525605764
 30
0.0
 40
2.999999834073556
100
AcDbArc
 50
135.9995727539063
 51
269.9994964599609
  0
ARC
  5
18E
330
1F
100
AcDbEntity
  8
仕上
  6
Continuous
 62
     6
370
     9
100
AcDbCircle
 10
281.8167090780574
 20
148.6685207317793
 30
0.0
 40
2.999999834073556
100
AcDbArc
 50
136.0003051757812
 51
180.0
  0
ARC
  5
18F
330
1F
100
AcDbEntity
  8
仕上
  6
Continuous
 62
     6
370
     9
100
AcDbCircle
 10
320.7672446203137
 20
109.7177126816899
 30
0.0
 40
2.999999834073556
100
AcDbArc
 50
270.0
 51
313.9989929199219
  0
ARC
  5
190
330
1F
100
AcDbEntity
  8
仕上
  6
Continuous
 62
     6
370
     9
100
AcDbCircle
 10
294.8165218485917
 20
122.7177979600574
 30
0.0
 40
20.9999986449724
100
AcDbArc
 50
269.7964324951172
 51
269.9998016357422
  0
ARC
  5
191
330
1F
100
AcDbEntity
  8
仕上
  6
Continuous
 62
     6
370
     9
100
AcDbCircle
 10
294.8165218485917
 20
122.7177979600574
 30
0.0
 40
20.9999986449724
100
AcDbArc
 50
179.9997863769531
 51
180.2035980224609
  0
ARC
  5
192
330
1F
100
AcDbEntity
  8
仕上
  6
Continuous
 62
     6
370
     9
100
AcDbCircle
 10
270.8166826550193
 20
165.2584012442672
 30
0.0
 40
2.999999834073556
100
AcDbArc
 50
0.0
 51
59.99166870117188
  0
ARC
  5
193
330
1F
100
AcDbEntity
  8
仕上
  6
Continuous
 62
     4
370
     9
100
AcDbCircle
 10
278.5665824713482
 20
170.317880769918
 30
0.0
 40
0.2500000023013376
100
AcDbArc
 50
0.0
 51
60.67082214355469
  0
ARC
  5
194
330
1F
100
AcDbEntity
  8
仕上
  6
Continuous
 62
     4
370
     9
100
AcDbCircle
 10
278.5665824713482
 20
177.1179669202163
 30
0.0
 40
0.2500000023013376
100
AcDbArc
 50
299.3291778564453
 51
0.0
  0
ARC
  5
195
330
1F
100
AcDbEntity
  8
仕上
  6
Continuous
 62
     4
370
     9
100
AcDbCircle
 10
273.4166303450625
 20
173.7178866849081
 30
0.0
 40
9.999999317883525
100
AcDbArc
 50
2.745620727539063
 51
36.869873046875
  0
ARC
  5
196
330
1F
100
AcDbEntity
  8
仕上
  6
Continuous
 62
     4
370
     9
100
AcDbCircle
 10
273.4166303450625
 20
173.7178866849081
 30
0.0
 40
9.999999317883525
100
AcDbArc
 50
323.130126953125
 51
357.2543792724609
  0
ARC
  5
197
330
1F
100
AcDbEntity
  8
0-A
  6
Continuous
 62
     2
370
     9
100
AcDbCircle
 10
286.7195709199148
 20
121.4623667590505
 30
0.0
 40
3.811438938365479
100
AcDbArc
 50
4.925643920898438
 51
85.07435607910156
  0
ARC
  5
198
330
1F
100
AcDbEntity
  8
0-A
  6
Continuous
 62
     2
370
     9
100
AcDbCircle
 10
284.8358976828174
 20
109.189716368072
 30
0.0
 40
13.82162052692133
100
AcDbArc
 50
24.26925659179688
 51
65.73074340820314
  0
ARC
  5
199
330
1F
100
AcDbEntity
  8
0-A
  6
Continuous
 62
     2
370
     9
100
AcDbCircle
 10
297.1086595542732
 20
111.0731418707755
 30
0.0
 40
3.811438938365479
100
AcDbArc
 50
4.925643920898438
 51
85.07435607910156
  0
ARC
  5
19A
330
1F
100
AcDbEntity
  8
仕上
  6
Continuous
 62
     6
370
     9
100
AcDbCircle
 10
282.9352298663018
 20
117.4418481210582
 30
0.0
 40
2.999999834073556
100
AcDbArc
 50
136.0000762939454
 51
157.9490661621094
  0
ARC
  5
19B
330
1F
100
AcDbEntity
  8
躯体
  6
Continuous
 62
     2
370
     9
100
AcDbCircle
 10
378.8461950088648
 20
98.21780779873606
 30
0.0
 40
4.999999658941762
100
AcDbArc
 50
270.0
 51
309.9999084472656
  0
ARC
  5
19C
330
1F
100
AcDbEntity
  8
躯体
  6
Continuous
 62
     2
370
     9
100
AcDbCircle
 10
338.948868160183
 20
94.71766764175081
 30
0.0
 40
2.000000018410701
100
AcDbArc
 50
90.0
 51
129.9998474121094
  0
ARC
  5
19D
330
1F
100
AcDbEntity
  8
躯体
  6
Continuous
 62
     2
370
     9
100
AcDbCircle
 10
333.3217300444585
 20
95.21766996886345
 30
0.0
 40
2.000000018410701
100
AcDbArc
 50
270.0
 51
309.9998474121094
  0
ARC
  5
19E
330
1F
100
AcDbEntity
  8
躯体
  6
Continuous
 62
     2
370
     9
100
AcDbCircle
 10
353.1506882096899
 20
98.71768625865175
 30
0.0
 40
2.000000018410701
100
AcDbArc
 50
270.0
 51
310.0001678466797
  0
ARC
  5
19F
330
1F
100
AcDbEntity
  8
躯体
  6
Continuous
 62
     2
370
     9
100
AcDbCircle
 10
348.9796337672731
 20
95.21771951574217
 30
0.0
 40
2.000000018410701
100
AcDbArc
 50
270.0
 51
310.0001678466797
  0
ARC
  5
1A0
330
1F
100
AcDbEntity
  8
躯体
  6
Continuous
 62
     2
370
     9
100
AcDbCircle
 10
390.8167704666991
 20
92.21779226010435
 30
0.0
 40
1.00000000920535
100
AcDbArc
 50
0.0
 51
90.0
  0
ARC
  5
1A1
330
1F
100
AcDbEntity
  8
躯体
  6
Continuous
 62
     2
370
     9
100
AcDbCircle
 10
278.8170914904119
 20
195.5818342550019
 30
0.0
 40
1.00000000920535
100
AcDbArc
 50
320.0007019042969
 51
0.0000000000000064
  0
ARC
  5
1A2
330
1F
100
AcDbEntity
  8
躯体
  6
Continuous
 62
     2
370
     9
100
AcDbCircle
 10
337.1197955834908
 20
91.2176513519625
 30
0.0
 40
2.000000018410701
100
AcDbArc
 50
90.0
 51
129.9999389648438
  0
ARC
  5
1A3
330
1F
100
AcDbEntity
  8
躯体
  6
Continuous
 62
     2
370
     9
100
AcDbCircle
 10
271.8174800593049
 20
215.2177577805434
 30
0.0
 40
1.00000000920535
100
AcDbArc
 50
0.0
 51
90.0
  0
ARC
  5
1A4
330
1F
100
AcDbEntity
  8
躯体
  6
Continuous
 62
     2
370
     9
100
AcDbCircle
 10
275.8173252621302
 20
201.079308188984
 30
0.0
 40
2.999999834073556
100
AcDbArc
 50
179.9995269775391
 51
305.0042724609376
  0
ARC
  5
1A5
330
1F
100
AcDbEntity
  8
躯体
  6
Continuous
 62
     2
370
     9
100
AcDbCircle
 10
271.3168831696469
 20
167.3278257298752
 30
0.0
 40
1.00000000920535
100
AcDbArc
 50
320.000244140625
 51
0.0
  0
LINE
  5
1A6
330
1F
100
AcDbEntity
  8
躯体
  6
Continuous
 62
     2
370
     9
100
AcDbLine
 10
391.4612762657461
 20
89.91980802272803
 30
0.0
 11
391.8167751209245
 21
90.21798113916896
 31
0.0
  0
LINE
  5
1A7
330
1F
100
AcDbEntity
  8
躯体
  6
JWW_HOJO
 62
     2
370
     9
100
AcDbLine
 10
390.5230070224688
 20
89.21787739118616
 30
0.0
 11
392.8947665623344
 21
89.21787739118616
 31
0.0
  0
ARC
  5
1A8
330
1F
100
AcDbEntity
  8
躯体
  6
Continuous
 62
     2
370
     9
100
AcDbCircle
 10
389.5329612908765
 20
92.21794090074064
 30
0.0
 40
3.000000027616052
100
AcDbArc
 50
270.0000000000001
 51
309.9990844726564
  0
LINE
  5
1A9
330
1F
100
AcDbEntity
  8
躯体
  6
Continuous
 62
     2
370
     9
100
AcDbLine
 10
385.1544723213139
 20
96.98393006802235
 30
0.0
 11
382.0601523940716
 21
94.38753678850287
 31
0.0
  0
ARC
  5
1AA
330
1F
100
AcDbEntity
  8
躯体
  6
Continuous
 62
     2
370
     9
100
AcDbCircle
 10
385.7972527498512
 20
96.21787959926107
 30
0.0
 40
1.0
100
AcDbArc
 50
90.00034677007702
 51
129.9994628928835
  0
LINE
  5
1AB
330
1F
100
AcDbEntity
  8
躯体
  6
Continuous
 62
     2
370
     9
100
AcDbLine
 10
385.7972466975716
 20
97.21787959924276
 30
0.0
 11
362.1917708767176
 21
97.21787959924276
 31
0.0
  0
LINE
  5
1AC
330
1F
100
AcDbEntity
  8
躯体
  6
Continuous
 62
     2
370
     9
100
AcDbLine
 10
390.8167690686448
 20
97.2179099787956
 30
0.0
 11
385.7972466975716
 21
97.21787959924276
 31
0.0
  0
LINE
  5
1AD
330
1F
100
AcDbEntity
  8
躯体
  6
Continuous
 62
     2
370
     9
100
AcDbLine
 10
391.8167751209245
 20
96.2179099788139
 30
0.0
 11
391.8167751209245
 21
90.21798113916896
 31
0.0
  0
ARC
  5
1AE
330
1F
100
AcDbEntity
  8
躯体
  6
Continuous
 62
     2
370
     9
100
AcDbCircle
 10
390.8167751209244
 20
96.2179099788139
 30
0.0
 40
1.0
100
AcDbArc
 50
0.0
 51
90.00034677007709
  0
LINE
  5
1AF
330
1F
100
AcDbEntity
  8
0-A
  6
Continuous
 62
     2
370
     9
100
AcDbLine
 10
262.1669094168458
 20
93.59086736077904
 30
0.0
 11
278.9823725919339
 21
110.4064667936636
 31
0.0
  0
LINE
  5
1B0
330
1F
100
AcDbEntity
  8
0-A
  6
Continuous
 62
     2
370
     9
100
AcDbLine
 10
262.5203324123319
 20
92.53011422050318
 30
0.0
 11
279.6895044511635
 21
109.699335807613
 31
0.0
  0
LINE
  5
1B1
330
1F
100
AcDbEntity
  8
0-A
  6
Continuous
 62
     2
370
     9
100
AcDbLine
 10
268.1979402724685
 20
86.89401186978999
 30
0.0
 11
285.3464621458507
 21
104.0423850982385
 31
0.0
  0
LINE
  5
1B2
330
1F
100
AcDbEntity
  8
0-A
  6
Continuous
 62
     2
370
     9
100
AcDbLine
 10
269.2654604100405
 20
86.54727173402648
 30
0.0
 11
286.0534688482158
 21
103.3353792688979
 31
0.0
  0
LINE
  5
1B3
330
1F
100
AcDbEntity
  8
0-A
  6
Continuous
 62
     2
370
     9
100
AcDbLine
 10
291.0740465511662
 20
122.4980990786447
 30
0.0
 11
296.4066550924221
 21
127.8307276188602
 31
0.0
  0
LINE
  5
1B4
330
1F
100
AcDbEntity
  8
0-A
  6
Continuous
 62
     2
370
     9
100
AcDbLine
 10
291.7811998915641
 20
121.7909364639055
 30
0.0
 11
297.8209707469263
 21
127.8305913649436
 31
0.0
  0
LINE
  5
1B5
330
1F
100
AcDbEntity
  8
0-A
  6
Continuous
 62
     2
370
     9
100
AcDbLine
 10
298.144948380396
 20
115.427104514286
 30
0.0
 11
303.477638802398
 21
120.7596076549675
 31
0.0
  0
LINE
  5
1B6
330
1F
100
AcDbEntity
  8
0-A
  6
Continuous
 62
     2
370
     9
100
AcDbLine
 10
297.4380546540167
 20
116.1340075116017
 30
0.0
 11
303.4777874430344
 21
122.1738985360324
 31
0.0
  0
LINE
  5
1B7
330
1F
100
AcDbEntity
  8
0-A
  6
Continuous
 62
     2
370
     9
100
AcDbLine
 10
299.7655370980326
 20
123.0580006540937
 30
0.0
 11
301.1797536587792
 21
124.4719075468481
 31
0.0
  0
LINE
  5
1B8
330
1F
100
AcDbEntity
  8
0-A
  6
Continuous
 62
     2
370
     9
100
AcDbLine
 10
299.7655370980326
 20
123.0580006540937
 30
0.0
 11
298.7048375173135
 21
124.1183410199417
 31
0.0
  0
LINE
  5
1B9
330
1F
100
AcDbEntity
  8
0-A
  6
Continuous
 62
     2
370
     9
100
AcDbLine
 10
298.7048375173135
 20
124.1183410199417
 30
0.0
 11
300.1190540780601
 21
125.5326071275672
 31
0.0
  0
LINE
  5
1BA
330
1F
100
AcDbEntity
  8
0-A
  6
Continuous
 62
     2
370
     9
100
AcDbLine
 10
303.477638802398
 20
120.7596076549675
 30
0.0
 11
300.4725710580878
 21
123.7648735867929
 31
0.0
  0
LINE
  5
1BB
330
1F
100
AcDbEntity
  8
0-A
  6
Continuous
 62
     2
370
     9
100
AcDbLine
 10
299.4119705711261
 20
124.8254245268757
 30
0.0
 11
296.4066550924221
 21
127.8307276188602
 31
0.0
  0
LINE
  5
1BC
330
1F
100
AcDbEntity
  8
0-A
  6
Continuous
 62
     2
370
     9
100
AcDbLine
 10
303.4777874430344
 20
122.1738985360324
 30
0.0
 11
301.1797536587792
 21
124.4719075468481
 31
0.0
  0
LINE
  5
1BD
330
1F
100
AcDbEntity
  8
0-A
  6
Continuous
 62
     2
370
     9
100
AcDbLine
 10
300.1190540780601
 20
125.5326071275672
 30
0.0
 11
297.8209707469263
 21
127.8305913649436
 31
0.0
  0
LINE
  5
1BE
330
1F
100
AcDbEntity
  8
0-A
  6
Continuous
 62
     2
370
     9
100
AcDbLine
 10
303.4777874430344
 20
122.1738985360324
 30
0.0
 11
303.477638802398
 21
120.7596076549675
 31
0.0
  0
LINE
  5
1BF
330
1F
100
AcDbEntity
  8
0-A
  6
Continuous
 62
     2
370
     9
100
AcDbLine
 10
296.4066550924221
 20
127.8307276188602
 30
0.0
 11
297.8209707469263
 21
127.8305913649436
 31
0.0
  0
LINE
  5
1C0
330
1F
100
AcDbEntity
  8
躯体
  6
Continuous
 62
     2
370
     9
100
AcDbLine
 10
264.8160725444333
 20
96.24005195486596
 30
0.0
 11
264.8174598664479
 21
213.9342458859932
 31
0.0
  0
LINE
  5
1C1
330
1F
100
AcDbEntity
  8
躯体
  6
Continuous
 62
     2
370
     9
100
AcDbLine
 10
271.9356043866621
 20
89.21743147204393
 30
0.0
 11
389.5329117439977
 21
89.21785261774676
 31
0.0
  0
LINE
  5
1C2
330
1F
100
AcDbEntity
  8
ハッチ
  6
Continuous
 62
     7
370
     9
100
AcDbLine
 10
339.9403810695278
 20
86.21676161412165
 30
0.0
 11
339.9403810695278
 21
89.21767501435043
 31
0.0
  0
LINE
  5
1C3
330
1F
100
AcDbEntity
  8
ハッチ
  6
Continuous
 62
     7
370
     9
100
AcDbLine
 10
335.8500879771011
 20
86.21617086308784
 30
0.0
 11
335.8500879771011
 21
89.21766036597626
 31
0.0
  0
LINE
  5
1C4
330
1F
100
AcDbEntity
  8
建具
  6
Continuous
 62
     4
370
     9
100
AcDbLine
 10
75.08334286763494
 20
160.7026776215835
 30
0.0
 11
75.43574459139188
 21
120.1291440268715
 31
0.0
  0
LINE
  5
1C5
330
1F
100
AcDbEntity
  8
建具
  6
Continuous
 62
     4
370
     9
100
AcDbLine
 10
75.53995350122335
 20
108.1287045737464
 30
0.0
 11
67.26142463481409
 21
108.1287045737464
 31
0.0
  0
LINE
  5
1C6
330
1F
100
AcDbEntity
  8
建具
  6
Continuous
 62
     4
370
     9
100
AcDbLine
 10
83.26130256450165
 20
120.1291440268715
 30
0.0
 11
67.26142463481409
 21
108.1287045737463
 31
0.0
  0
LINE
  5
1C7
330
1F
100
AcDbEntity
  8
建具
  6
Continuous
 62
     4
370
     9
100
AcDbLine
 10
83.26130256450165
 20
120.1291440268715
 30
0.0
 11
75.43574459139188
 21
120.1291440268715
 31
0.0
  0
LINE
  5
1C8
330
1F
100
AcDbEntity
  8
建具
  6
Continuous
 62
     4
370
     9
100
AcDbLine
 10
75.53995350122335
 20
108.1311218298226
 30
0.0
 11
75.90732750601072
 21
65.83376480737644
 31
0.0
  0
LINE
  5
1C9
330
1F
100
AcDbEntity
  8
建具
  6
Continuous
 62
     7
370
     9
100
AcDbLine
 10
122.9080873891229
 20
165.1007051911456
 30
0.0
 11
234.8356829031041
 21
167.3801997069094
 31
0.0
  0
LINE
  5
1CA
330
1F
100
AcDbEntity
  8
建具
  6
Continuous
 62
     7
370
     9
100
AcDbLine
 10
122.8470110042425
 20
168.1000756691647
 30
0.0
 11
234.7746411484587
 21
170.3795695601611
 31
0.0
  0
LINE
  5
1CB
330
1F
100
AcDbEntity
  8
建具
  6
Continuous
 62
     7
370
     9
100
AcDbLine
 10
124.9440230429604
 20
65.12141611293119
 30
0.0
 11
236.871861433057
 21
67.40091557506037
 31
0.0
  0
LINE
  5
1CC
330
1F
100
AcDbEntity
  8
建具
  6
Continuous
 62
     7
370
     9
100
AcDbLine
 10
125.0050989268619
 20
62.12204892675
 30
0.0
 11
236.9330022814598
 21
64.40154572180862
 31
0.0
  0
LINE
  5
1CD
330
1F
100
AcDbEntity
  8
建具
  6
Continuous
 62
     7
370
     9
100
AcDbLine
 10
234.7746411484587
 20
170.3795695601611
 30
0.0
 11
234.8356500540359
 21
167.380199037912
 31
0.0
  0
LINE
  5
1CE
330
1F
100
AcDbEntity
  8
建具
  6
Continuous
 62
     7
370
     9
100
AcDbLine
 10
236.870680111773
 20
67.40089151651273
 30
0.0
 11
236.9330022814598
 21
64.40154572180862
 31
0.0
  0
LINE
  5
1CF
330
1F
100
AcDbEntity
  8
通り芯
  6
Continuous
 62
     3
370
     9
100
AcDbLine
 10
208.9751399243586
 20
161.3562109866453
 30
0.0
 11
245.8621921328452
 21
160.9549233077904
 31
0.0
  0
LINE
  5
1D0
330
1F
100
AcDbEntity
  8
通り芯
  6
Continuous
 62
     3
370
     9
100
AcDbLine
 10
209.0052377808183
 20
159.8775057199417
 30
0.0
 11
245.3888451932942
 21
159.4816808677431
 31
0.0
  0
LINE
  5
1D1
330
1F
100
AcDbEntity
  8
通り芯
  6
Continuous
 62
     3
370
     9
100
AcDbLine
 10
207.7631901096006
 20
73.6923010971848
 30
0.0
 11
247.0945089395306
 21
75.72371608322216
 31
0.0
  0
LINE
  5
1D2
330
1F
100
AcDbEntity
  8
通り芯
  6
Continuous
 62
     3
370
     9
100
AcDbLine
 10
207.7932869206513
 20
72.21365943653645
 30
0.0
 11
247.6269900210523
 21
74.27099907834157
 31
0.0
  0
LINE
  5
1D3
330
1F
100
AcDbEntity
  8
通り芯
  6
Continuous
 62
     3
370
     9
100
AcDbLine
 10
207.7932869206513
 20
72.21365943653645
 30
0.0
 11
207.7631901096006
 21
73.6923010971848
 31
0.0
  0
LINE
  5
1D4
330
1F
100
AcDbEntity
  8
通り芯
  6
Continuous
 62
     3
370
     9
100
AcDbLine
 10
208.9751399243586
 20
161.3562109866453
 30
0.0
 11
209.0052377808183
 21
159.8775057199417
 31
0.0
  0
LINE
  5
1D5
330
1F
100
AcDbEntity
  8
ハッチ
  6
Continuous
 62
     4
370
     9
100
AcDbLine
 10
208.9751399243586
 20
161.3562109866453
 30
0.0
 11
75.10134960493536
 21
158.6294841280872
 31
0.0
  0
LINE
  5
1D6
330
1F
100
AcDbEntity
  8
通り芯
  6
Continuous
 62
     3
370
     9
100
AcDbLine
 10
226.8474873733283
 20
166.7173863361569
 30
0.0
 11
226.9906902396948
 21
159.6818410312215
 31
0.0
  0
LINE
  5
1D7
330
1F
100
AcDbEntity
  8
通り芯
  6
Continuous
 62
     3
370
     9
100
AcDbLine
 10
244.9809778262808
 20
157.9348484388192
 30
0.0
 11
245.5771737127178
 21
160.1959146719049
 31
0.0
  0
LINE
  5
1D8
330
1F
100
AcDbEntity
  8
0-F
  6
Continuous
 62
     7
370
     9
100
AcDbLine
 10
246.5259947878628
 20
158.0108073968133
 30
0.0
 11
251.7192369942134
 21
163.2040496031639
 31
0.0
  0
LINE
  5
1D9
330
1F
100
AcDbEntity
  8
0-F
  6
Continuous
 62
     7
370
     9
100
AcDbLine
 10
245.4677726567677
 20
159.7810123904613
 30
0.0
 11
248.8123879508245
 21
163.125627684518
 31
0.0
  0
LINE
  5
1DA
330
1F
100
AcDbEntity
  8
0-F
  6
Continuous
 62
     7
370
     9
100
AcDbLine
 10
245.1857975217725
 20
158.7116248438284
 30
0.0
 11
245.9328745071839
 21
157.9645478584171
 31
0.0
  0
LINE
  5
1DB
330
1F
100
AcDbEntity
  8
0-F
  6
Continuous
 62
     7
370
     9
100
AcDbLine
 10
252.0459695036545
 20
163.1651613609295
 30
0.0
 11
255.4177931406831
 21
159.7933377239009
 31
0.0
  0
LINE
  5
1DC
330
1F
100
AcDbEntity
  8
0-F
  6
Continuous
 62
     7
370
     9
100
AcDbLine
 10
245.0369623630927
 20
157.9359885344165
 30
0.0
 11
250.29506808706
 21
163.1940942583837
 31
0.0
  0
LINE
  5
1DD
330
1F
100
AcDbEntity
  8
ハッチ
  6
Continuous
 62
     4
370
     9
100
AcDbLine
 10
75.13742407953947
 20
154.4760739470691
 30
0.0
 11
256.8340133852989
 21
158.1762292633306
 31
0.0
  0
LINE
  5
1DE
330
1F
100
AcDbEntity
  8
0-F
  6
Continuous
 62
     7
370
     9
100
AcDbLine
 10
246.3863539120836
 20
161.7537091406373
 30
0.0
 11
250.1009490963893
 21
158.0391139563316
 31
0.0
  0
LINE
  5
1DF
330
1F
100
AcDbEntity
  8
0-F
  6
Continuous
 62
     7
370
     9
100
AcDbLine
 10
249.3677982412148
 20
158.0241837254188
 30
0.0
 11
253.7812007021015
 21
162.4375861863053
 31
0.0
  0
LINE
  5
1E0
330
1F
100
AcDbEntity
  8
0-F
  6
Continuous
 62
     7
370
     9
100
AcDbLine
 10
245.8324509177926
 20
160.893398572555
 30
0.0
 11
248.7149604623546
 21
158.0108890279931
 31
0.0
  0
LINE
  5
1E1
330
1F
100
AcDbEntity
  8
0-F
  6
Continuous
 62
     7
370
     9
100
AcDbLine
 10
247.9241862818408
 20
157.9947853284181
 30
0.0
 11
252.8696635519321
 21
162.9402625985093
 31
0.0
  0
LINE
  5
1E2
330
1F
100
AcDbEntity
  8
0-F
  6
Continuous
 62
     7
370
     9
100
AcDbLine
 10
245.4808871121429
 20
159.8307488158314
 30
0.0
 11
247.3289718283195
 21
157.9826640996546
 31
0.0
  0
LINE
  5
1E3
330
1F
100
AcDbEntity
  8
0-F
  6
Continuous
 62
     7
370
     9
100
AcDbLine
 10
247.1219844701433
 20
162.4322921449509
 30
0.0
 11
251.4869377304242
 21
158.0673388846701
 31
0.0
  0
LINE
  5
1E4
330
1F
100
AcDbEntity
  8
0-F
  6
Continuous
 62
     7
370
     9
100
AcDbLine
 10
250.811410200589
 20
158.0535821224196
 30
0.0
 11
254.5063966813935
 21
161.748568603224
 31
0.0
  0
LINE
  5
1E5
330
1F
100
AcDbEntity
  8
0-F
  6
Continuous
 62
     7
370
     9
100
AcDbLine
 10
248.0453784162607
 20
162.9231117612069
 30
0.0
 11
252.8729263644591
 21
158.0955638130085
 31
0.0
  0
LINE
  5
1E6
330
1F
100
AcDbEntity
  8
0-F
  6
Continuous
 62
     7
370
     9
100
AcDbLine
 10
252.2550221599631
 20
158.0829805194203
 30
0.0
 11
255.0490703109767
 21
160.8770286704338
 31
0.0
  0
LINE
  5
1E7
330
1F
100
AcDbEntity
  8
0-F
  6
Continuous
 62
     7
370
     9
100
AcDbLine
 10
249.2134435801061
 20
163.1692601597349
 30
0.0
 11
254.2589149984939
 21
158.123788741347
 31
0.0
  0
LINE
  5
1E8
330
1F
100
AcDbEntity
  8
0-F
  6
Continuous
 62
     7
370
     9
100
AcDbLine
 10
253.6986341193373
 20
158.1123789164211
 30
0.0
 11
255.4087998258764
 21
159.8225446229603
 31
0.0
  0
LINE
  5
1E9
330
1F
100
AcDbEntity
  8
0-F
  6
Continuous
 62
     7
370
     9
100
AcDbLine
 10
250.5966682488232
 20
163.200249053391
 30
0.0
 11
255.6449036325288
 21
158.1520136696855
 31
0.0
  0
LINE
  5
1EA
330
1F
100
AcDbEntity
  8
ハッチ
  6
Continuous
 62
     6
370
     9
100
AcDbLine
 10
114.8464916047849
 20
-150.7836897914146
 30
0.0
 11
114.8464916047849
 21
70.32052917855259
 31
0.0
  0
LINE
  5
1EB
330
1F
100
AcDbEntity
  8
ハッチ
  6
Continuous
 62
     4
370
     9
100
AcDbLine
 10
207.7932869206513
 20
72.21365943653645
 30
0.0
 11
75.87525190671647
 21
69.52676719017165
 31
0.0
  0
LINE
  5
1EC
330
1F
100
AcDbEntity
  8
通り芯
  6
JWW_CENTER1
 62
     3
370
     9
100
AcDbLine
 10
266.6351174324122
 20
117.9713833140919
 30
0.0
 11
61.89317132167284
 21
113.8012215355873
 31
0.0
  0
LINE
  5
1ED
330
1F
100
AcDbEntity
  8
0-F
  6
Continuous
 62
     7
370
     9
100
AcDbLine
 10
247.6589088263948
 20
74.21413472974959
 30
0.0
 11
249.1558653947225
 21
72.71717816142186
 31
0.0
  0
LINE
  5
1EE
330
1F
100
AcDbEntity
  8
0-F
  6
Continuous
 62
     7
370
     9
100
AcDbLine
 10
254.2576439323564
 20
72.40436955746767
 30
0.0
 11
256.9290779003157
 21
75.07580352542695
 31
0.0
  0
LINE
  5
1EF
330
1F
100
AcDbEntity
  8
0-F
  6
Continuous
 62
     7
370
     9
100
AcDbLine
 10
255.7495153953188
 20
77.43723665980846
 30
0.0
 11
257.1778666869073
 21
76.00888536822012
 31
0.0
  0
LINE
  5
1F0
330
1F
100
AcDbEntity
  8
0-F
  6
Continuous
 62
     7
370
     9
100
AcDbLine
 10
251.2189074047153
 20
72.19406015457318
 30
0.0
 11
256.4768963741246
 21
77.4520491239825
 31
0.0
  0
LINE
  5
1F1
330
1F
100
AcDbEntity
  8
0-F
  6
Continuous
 62
     7
370
     9
100
AcDbLine
 10
254.36352626409
 20
77.40901222866425
 30
0.0
 11
256.8717446820708
 21
74.90079381068333
 31
0.0
  0
LINE
  5
1F2
330
1F
100
AcDbEntity
  8
0-F
  6
Continuous
 62
     7
370
     9
100
AcDbLine
 10
249.9755944336615
 20
72.36496074589283
 30
0.0
 11
255.033284954146
 21
77.42265126637731
 31
0.0
  0
LINE
  5
1F3
330
1F
100
AcDbEntity
  8
0-F
  6
Continuous
 62
     7
370
     9
100
AcDbLine
 10
252.9775371328607
 20
77.38078779752001
 30
0.0
 11
256.3942563815259
 21
73.96406854885478
 31
0.0
  0
LINE
  5
1F4
330
1F
100
AcDbEntity
  8
0-F
  6
Continuous
 62
     7
370
     9
100
AcDbLine
 10
249.0043506353972
 20
72.80793051000168
 30
0.0
 11
253.5896735341677
 21
77.39325340877214
 31
0.0
  0
LINE
  5
1F5
330
1F
100
AcDbEntity
  8
0-F
  6
Continuous
 62
     7
370
     9
100
AcDbLine
 10
251.5915480016317
 20
77.35256336637579
 30
0.0
 11
255.727250295299
 21
73.2168610727085
 31
0.0
  0
LINE
  5
1F6
330
1F
100
AcDbEntity
  8
0-F
  6
Continuous
 62
     7
370
     9
100
AcDbLine
 10
248.2279188685774
 20
73.44571230555525
 30
0.0
 11
252.146062114189
 21
77.36385555116695
 31
0.0
  0
LINE
  5
1F7
330
1F
100
AcDbEntity
  8
0-F
  6
Continuous
 62
     7
370
     9
100
AcDbLine
 10
250.2055588704044
 20
77.3243389352316
 30
0.0
 11
254.8792445835158
 21
72.6506532221201
 31
0.0
  0
LINE
  5
1F8
330
1F
100
AcDbEntity
  8
0-F
  6
Continuous
 62
     7
370
     9
100
AcDbLine
 10
247.6313446665421
 20
74.26335166589328
 30
0.0
 11
250.7024506942105
 21
77.33445769356177
 31
0.0
  0
LINE
  5
1F9
330
1F
100
AcDbEntity
  8
0-F
  6
Continuous
 62
     7
370
     9
100
AcDbLine
 10
248.8195697391771
 20
77.29611450408741
 30
0.0
 11
253.8175797253813
 21
72.29810451788305
 31
0.0
  0
LINE
  5
1FA
330
1F
100
AcDbEntity
  8
0-F
  6
Continuous
 62
     7
370
     9
100
AcDbLine
 10
247.2317106523298
 20
75.27793121405065
 30
0.0
 11
249.2588392742356
 21
77.30505983595665
 31
0.0
  0
LINE
  5
1FB
330
1F
100
AcDbEntity
  8
0-F
  6
Continuous
 62
     7
370
     9
100
AcDbLine
 10
247.4335806079479
 20
77.26789007294317
 30
0.0
 11
252.4816202455793
 21
72.21985043531183
 31
0.0
  0
LINE
  5
1FC
330
1F
100
AcDbEntity
  8
ハッチ
  6
Continuous
 62
     4
370
     9
100
AcDbLine
 10
75.83836681904722
 20
73.77350675698662
 30
0.0
 11
258.4621148656812
 21
77.49247632601366
 31
0.0
  0
LINE
  5
1FD
330
1F
100
AcDbEntity
  8
通り芯
  6
Continuous
 62
     3
370
     9
100
AcDbLine
 10
256.0934369419933
 20
77.44424031502798
 30
0.0
 11
254.4502423768868
 21
158.1276850226092
 31
0.0
  0
LINE
  5
1FE
330
1F
100
AcDbEntity
  8
通り芯
  6
Continuous
 62
     3
370
     9
100
AcDbLine
 10
257.5930408710983
 20
77.4747784100873
 30
0.0
 11
255.9500940275501
 21
158.1582287112937
 31
0.0
  0
LINE
  5
1FF
330
1F
100
AcDbEntity
  8
通り芯
  6
Continuous
 62
     3
370
     9
100
AcDbLine
 10
248.0949856520519
 20
77.28135899611517
 30
0.0
 11
246.4517916077149
 21
157.9648007865952
 31
0.0
  0
LINE
  5
200
330
1F
100
AcDbEntity
  8
通り芯
  6
Continuous
 62
     3
370
     9
100
AcDbLine
 10
246.5952108581195
 20
77.25081742154622
 30
0.0
 11
244.9206032486904
 21
159.486774969502
 31
0.0
  0
LINE
  5
201
330
1F
100
AcDbEntity
  8
通り芯
  6
Continuous
 62
     3
370
     9
100
AcDbLine
 10
246.6243297298486
 20
77.25141040136953
 30
0.0
 11
247.3120948330263
 21
75.01674153743625
 31
0.0
  0
LINE
  5
202
330
1F
100
AcDbEntity
  8
0-F
  6
Continuous
 62
     7
370
     9
100
AcDbLine
 10
246.8859737249156
 20
76.40128339360201
 30
0.0
 11
251.0937925348538
 21
72.19346458366394
 31
0.0
  0
LINE
  5
203
330
1F
100
AcDbEntity
  8
0-F
  6
Continuous
 62
     7
370
     9
100
AcDbLine
 10
246.8988881260665
 20
76.35932225016087
 30
0.0
 11
247.8152278542572
 21
77.27566197835148
 31
0.0
  0
LINE
  5
204
330
1F
100
AcDbEntity
  8
0-F
  6
Continuous
 62
     7
370
     9
100
AcDbLine
 10
252.6626078290584
 20
72.22354701654305
 30
0.0
 11
257.9205077941031
 21
77.48144698158768
 31
0.0
  0
LINE
  5
205
330
1F
100
AcDbEntity
  8
ハッチ
  6
Continuous
 62
     6
370
     9
100
AcDbLine
 10
209.3518628492156
 20
-142.7838444138105
 30
0.0
 11
209.3518628492156
 21
-150.7835026169353
 31
0.0
  0
LINE
  5
206
330
1F
100
AcDbEntity
  8
ハッチ
  6
Continuous
 62
     6
370
     9
100
AcDbLine
 10
209.3518628492156
 20
-142.7838444138105
 30
0.0
 11
221.3523023023407
 21
-158.7837223434979
 31
0.0
  0
LINE
  5
207
330
1F
100
AcDbEntity
  8
ハッチ
  6
Continuous
 62
     6
370
     9
100
AcDbLine
 10
221.3523023023407
 20
-150.7835026169353
 30
0.0
 11
221.3523023023407
 21
-158.7837223434979
 31
0.0
  0
LINE
  5
208
330
1F
100
AcDbEntity
  8
ハッチ
  6
Continuous
 62
     6
370
     9
100
AcDbLine
 10
325.056091983785
 20
-150.7836897914146
 30
0.0
 11
221.3523023023407
 21
-150.7836897914146
 31
0.0
  0
LINE
  5
209
330
1F
100
AcDbEntity
  8
ハッチ
  6
Continuous
 62
     6
370
     9
100
AcDbLine
 10
209.3518628492156
 20
-150.7836897914146
 30
0.0
 11
104.2018366646361
 21
-150.7836897914146
 31
0.0
  0
LINE
  5
20A
330
1F
100
AcDbEntity
  8
ハッチ
  6
Continuous
 62
     6
370
     9
100
AcDbLine
 10
314.8464916047848
 20
-150.7836897914146
 30
0.0
 11
314.8464916047848
 21
-70.78368979141456
 31
0.0
  0
LINE
  5
20B
330
1F
100
AcDbEntity
  8
ハッチ
  6
Continuous
 62
     6
370
     9
100
AcDbLine
 10
114.8464916047849
 20
-102.9908796284228
 30
0.0
 11
290.1879856218853
 21
72.35029707407048
 31
0.0
  0
LINE
  5
20C
330
1F
100
AcDbEntity
  8
ハッチ
  6
Continuous
 62
     6
370
     9
100
AcDbLine
 10
114.8464916047849
 20
-110.061975269279
 30
0.0
 11
297.4317896724205
 21
72.52297178573708
 31
0.0
  0
LINE
  5
20D
330
1F
100
AcDbEntity
  8
ハッチ
  6
Continuous
 62
     6
370
     9
100
AcDbLine
 10
114.8464916047849
 20
-95.92002728850701
 30
0.0
 11
282.9442383938166
 21
72.17762371691359
 31
0.0
  0
LINE
  5
20E
330
1F
100
AcDbEntity
  8
ハッチ
  6
Continuous
 62
     6
370
     9
100
AcDbLine
 10
132.4307297021907
 20
168.2952556099608
 30
0.0
 11
261.8174762220403
 21
297.6819284040761
 31
0.0
  0
LINE
  5
20F
330
1F
100
AcDbEntity
  8
ハッチ
  6
Continuous
 62
     6
370
     9
100
AcDbLine
 10
139.6486147923016
 20
168.4422534955376
 30
0.0
 11
261.8174762220403
 21
290.610893836911
 31
0.0
  0
LINE
  5
210
330
1F
100
AcDbEntity
  8
ハッチ
  6
Continuous
 62
     6
370
     9
100
AcDbLine
 10
146.8667296718734
 20
168.5892560609569
 30
0.0
 11
261.8174762220403
 21
283.5397816231084
 31
0.0
  0
CIRCLE
  5
211
330
1F
100
AcDbEntity
  8
ハッチ
  6
Continuous
 62
     4
370
     9
100
AcDbCircle
 10
366.3170961446372
 20
105.7175879896936
 30
0.0
 40
1.5
  0
LINE
  5
212
330
1F
100
AcDbEntity
  8
ハッチ
  6
Continuous
 62
     4
370
     9
100
AcDbLine
 10
364.7045777282075
 20
107.2175978872866
 30
0.0
 11
364.7045777282075
 21
104.2175879896936
 31
0.0
  0
LINE
  5
213
330
1F
100
AcDbEntity
  8
ハッチ
  6
JWW_CENTER1
 62
     4
370
     9
100
AcDbLine
 10
366.3170961446372
 20
105.7175879896936
 30
0.0
 11
369.7577339579412
 21
105.7175879896936
 31
0.0
  0
LINE
  5
214
330
1F
100
AcDbEntity
  8
ハッチ
  6
JWW_CENTER1
 62
     4
370
     9
100
AcDbLine
 10
366.3170961446372
 20
105.7175879896936
 30
0.0
 11
366.3170961446372
 21
103.4844220073173
 31
0.0
  0
CIRCLE
  5
215
330
1F
100
AcDbEntity
  8
ハッチ
  6
Continuous
 62
     4
370
     9
100
AcDbCircle
 10
281.3170961446372
 20
198.7175879896936
 30
0.0
 40
1.5
  0
LINE
  5
216
330
1F
100
AcDbEntity
  8
ハッチ
  6
Continuous
 62
     4
370
     9
100
AcDbLine
 10
282.8170565542657
 20
196.9472389881158
 30
0.0
 11
279.8170961446372
 21
196.9472389881158
 31
0.0
  0
LINE
  5
217
330
1F
100
AcDbEntity
  8
ハッチ
  6
JWW_CENTER1
 62
     4
370
     9
100
AcDbLine
 10
281.3170961446372
 20
198.7175879896936
 30
0.0
 11
281.3170961446372
 21
201.1718190321512
 31
0.0
  0
LINE
  5
218
330
1F
100
AcDbEntity
  8
ハッチ
  6
JWW_CENTER1
 62
     4
370
     9
100
AcDbLine
 10
281.3170961446372
 20
198.7175879896936
 30
0.0
 11
278.919847389805
 21
198.7175879896936
 31
0.0
  0
ARC
  5
219
330
1F
100
AcDbEntity
  8
ハッチ
  6
Continuous
 62
     4
370
     9
100
AcDbCircle
 10
267.9238752228025
 20
101.1323860718878
 30
0.0
 40
96.99999999999999
100
AcDbArc
 50
43.45186313705005
 51
82.18518269125286
  0
LINE
  5
21A
330
1F
100
AcDbEntity
  8
ハッチ
  6
Continuous
 62
     4
370
     9
100
AcDbLine
 10
360.3163763084611
 20
107.2175978872866
 30
0.0
 11
364.7045777282075
 21
107.2175978872866
 31
0.0
  0
LINE
  5
21B
330
1F
100
AcDbEntity
  8
ハッチ
  6
Continuous
 62
     4
370
     9
100
AcDbLine
 10
305.0912531087869
 20
107.2175978872866
 30
0.0
 11
322.4253836432085
 21
107.2175978872866
 31
0.0
  0
LINE
  5
21C
330
1F
100
AcDbEntity
  8
ハッチ
  6
Continuous
 62
     4
370
     9
100
AcDbLine
 10
336.3648013022833
 20
107.2175978872866
 30
0.0
 11
351.5937088984893
 21
107.2175978872866
 31
0.0
  0
LINE
  5
21D
330
1F
100
AcDbEntity
  8
ハッチ
  6
Continuous
 62
     4
370
     9
100
AcDbLine
 10
282.8170565542657
 20
131.8225829155191
 30
0.0
 11
282.8170565542657
 21
154.0231548806493
 31
0.0
  0
LINE
  5
21E
330
1F
100
AcDbEntity
  8
ハッチ
  6
Continuous
 62
     4
370
     9
100
AcDbLine
 10
279.8170961446372
 20
132.4142257994997
 30
0.0
 11
279.8170961446372
 21
150.9165617153549
 31
0.0
  0
LINE
  5
21F
330
1F
100
AcDbEntity
  8
ハッチ
  6
Continuous
 62
     4
370
     9
100
AcDbLine
 10
279.8170961446372
 20
187.7174982162246
 30
0.0
 11
279.8170961446372
 21
196.9472389881158
 31
0.0
  0
LINE
  5
220
330
1F
100
AcDbEntity
  8
ハッチ
  6
Continuous
 62
     4
370
     9
100
AcDbLine
 10
282.8170565542657
 20
184.7175146949511
 30
0.0
 11
282.8170565542657
 21
196.9472389881158
 31
0.0
  0
LINE
  5
221
330
1F
100
AcDbEntity
  8
0-E
  6
Continuous
 62
     7
370
     9
100
AcDbLine
 10
344.7360040015778
 20
251.8370272154986
 30
0.0
 11
471.9597621835878
 21
251.8370272154986
 31
0.0
  0
LINE
  5
222
330
1F
100
AcDbEntity
  8
0-E
  6
Continuous
 62
     7
370
     9
100
AcDbLine
 10
310.1147551601826
 20
191.8712983759885
 30
0.0
 11
344.7360040015778
 21
251.8370272154986
 31
0.0
  0
LINE
  5
223
330
1F
100
AcDbEntity
  8
0-E
  6
Continuous
 62
     7
370
     9
100
AcDbLine
 10
310.1147551601826
 20
191.8712983759885
 30
0.0
 11
314.6804652794817
 21
197.821434302931
 31
0.0
  0
LINE
  5
224
330
1F
100
AcDbEntity
  8
0-E
  6
Continuous
 62
     7
370
     9
100
AcDbLine
 10
310.1147551601826
 20
191.8712983759885
 30
0.0
 11
312.9848591508921
 21
198.8004052172047
 31
0.0
  0
TEXT
  5
225
330
1F
100
AcDbEntity
  8
0-E
  6
Continuous
 62
     2
370
     9
100
AcDbText
 10
349.0426559519101
 20
258.6957191760212
 30
0.0
 40
9.144
  1
防塵網：ＣＳ－７５
 50
0.00003544313651
 41
1.11111111111111
  7
ＭＳ ゴシック
100
AcDbText
  0
TEXT
  5
226
330
1F
100
AcDbEntity
  8
0-E
  6
Continuous
 62
     2
370
     9
100
AcDbText
 10
307.8577838660515
 20
331.8432190719283
 30
0.0
 40
9.144
  1
ルーフドレン
 41
1.104166666666667
  7
ＭＳ ゴシック
100
AcDbText
  0
LINE
  5
227
330
1F
100
AcDbEntity
  8
0-E
  6
Continuous
 62
     7
370
     9
100
AcDbLine
 10
304.1494626297762
 20
324.5612565508135
 30
0.0
 11
390.6689139920621
 21
324.5612565508135
 31
0.0
  0
LINE
  5
228
330
1F
100
AcDbEntity
  8
0-E
  6
Continuous
 62
     7
370
     9
100
AcDbLine
 10
261.7206062240122
 20
251.0723622057756
 30
0.0
 11
304.1494626297762
 21
324.5612565508135
 31
0.0
  0
LINE
  5
229
330
1F
100
AcDbEntity
  8
0-E
  6
Continuous
 62
     7
370
     9
100
AcDbLine
 10
261.7206062240122
 20
251.0723622057756
 30
0.0
 11
266.2863163433112
 21
257.0224981327182
 31
0.0
  0
LINE
  5
22A
330
1F
100
AcDbEntity
  8
0-E
  6
Continuous
 62
     7
370
     9
100
AcDbLine
 10
261.7206062240122
 20
251.0723622057756
 30
0.0
 11
264.5907102147217
 21
258.0014690469919
 31
0.0
  0
LINE
  5
22B
330
1F
100
AcDbEntity
  8
0-E
  6
Continuous
 62
     7
370
     9
100
AcDbLine
 10
414.0582539781492
 20
89.43249813958164
 30
0.0
 11
448.6795028195444
 21
149.3982269790918
 31
0.0
  0
LINE
  5
22C
330
1F
100
AcDbEntity
  8
0-E
  6
Continuous
 62
     7
370
     9
100
AcDbLine
 10
414.0582539781492
 20
89.43249813958164
 30
0.0
 11
418.6239640974483
 21
95.38263406652422
 31
0.0
  0
LINE
  5
22D
330
1F
100
AcDbEntity
  8
0-E
  6
Continuous
 62
     7
370
     9
100
AcDbLine
 10
414.0582539781492
 20
89.43249813958164
 30
0.0
 11
416.9283579688587
 21
96.36160498079789
 31
0.0
  0
TEXT
  5
22E
330
1F
100
AcDbEntity
  8
0-E
  6
Continuous
 62
     2
370
     9
100
AcDbText
 10
452.9861547698767
 20
156.2569189396144
 30
0.0
 40
9.144
  1
シート防水
 50
0.00003544313651
 41
1.1
  7
ＭＳ ゴシック
100
AcDbText
  0
LINE
  5
22F
330
1F
100
AcDbEntity
  8
0-E
  6
Continuous
 62
     7
370
     9
100
AcDbLine
 10
448.6795028195444
 20
149.3982269790918
 30
0.0
 11
519.9859135526171
 21
149.3982269790918
 31
0.0
  0
LINE
  5
230
330
1F
100
AcDbEntity
  8
0-A
  6
Continuous
 62
     2
370
     9
100
AcDbLine
 10
347.8318412253437
 20
173.6863185967597
 30
0.0
 11
347.1622274057606
 21
174.3559324163429
 31
0.0
  0
LINE
  5
231
330
1F
100
AcDbEntity
  8
0-A
  6
Continuous
 62
     2
370
     9
100
AcDbLine
 10
348.904236391997
 20
169.972840969799
 30
0.0
 11
347.5157207245648
 21
165.517234708506
 31
0.0
  0
LINE
  5
232
330
1F
100
AcDbEntity
  8
0-A
  6
Continuous
 62
     2
370
     9
100
AcDbLine
 10
346.2186687304587
 20
164.6930118503102
 30
0.0
 11
346.3136754729095
 21
164.5978476381205
 31
0.0
  0
LINE
  5
233
330
1F
100
AcDbEntity
  8
0-A
  6
Continuous
 62
     2
370
     9
100
AcDbLine
 10
359.9275642770737
 20
161.5907005248558
 30
0.0
 11
360.5972830764828
 21
160.9210342153597
 31
0.0
  0
LINE
  5
234
330
1F
100
AcDbEntity
  8
0-A
  6
Continuous
 62
     2
370
     9
100
AcDbLine
 10
356.2141653849822
 20
162.6630169566394
 30
0.0
 11
351.7584803888198
 21
161.2744750442507
 31
0.0
  0
LINE
  5
235
330
1F
100
AcDbEntity
  8
0-A
  6
Continuous
 62
     2
370
     9
100
AcDbLine
 10
350.9342575306242
 20
159.9773705602318
 30
0.0
 11
350.8392245432169
 21
160.0724560375521
 31
0.0
  0
LINE
  5
236
330
1F
100
AcDbEntity
  8
0-A
  6
Continuous
 62
     2
370
     9
100
AcDbLine
 10
346.5964123890487
 20
164.5978738830769
 30
0.0
 11
348.5764893754981
 21
166.5777933997875
 31
0.0
  0
LINE
  5
237
330
1F
100
AcDbEntity
  8
0-A
  6
Continuous
 62
     2
370
     9
100
AcDbLine
 10
347.3036614762212
 20
163.8907822656431
 30
0.0
 11
349.2836597278013
 21
165.8706230474841
 31
0.0
  0
LINE
  5
238
330
1F
100
AcDbEntity
  8
0-A
  6
Continuous
 62
     2
370
     9
100
AcDbLine
 10
350.1320017010004
 20
161.0624945307767
 30
0.0
 11
352.1119737076241
 21
163.0422565777485
 31
0.0
  0
LINE
  5
239
330
1F
100
AcDbEntity
  8
0-A
  6
Continuous
 62
     2
370
     9
100
AcDbLine
 10
350.8389883386084
 20
160.3554554032558
 30
0.0
 11
352.8189341002754
 21
162.335296185097
 31
0.0
  0
LINE
  5
23A
330
1F
100
AcDbEntity
  8
0-A
  6
Continuous
 62
     2
370
     9
100
AcDbLine
 10
352.8191965498402
 20
162.335191205271
 30
0.0
 11
351.8289218520071
 21
163.325465903104
 31
0.0
  0
ARC
  5
23B
330
1F
100
AcDbEntity
  8
0-A
  6
Continuous
 62
     2
370
     9
100
AcDbCircle
 10
345.0034485106517
 20
170.8579783719806
 30
0.0
 40
4.000000051549963
100
AcDbArc
 50
347.2168426513672
 51
45.00035095214844
  0
ARC
  5
23C
330
1F
100
AcDbEntity
  8
0-A
  6
Continuous
 62
     2
370
     9
100
AcDbCircle
 10
346.455083298414
 20
164.7392029737117
 30
0.0
 40
1.200000087957124
100
AcDbArc
 50
225.0003509521484
 51
315.0003509521484
  0
ARC
  5
23D
330
1F
100
AcDbEntity
  8
0-A
  6
Continuous
 62
     2
370
     9
100
AcDbCircle
 10
346.455083298414
 20
164.7392029737117
 30
0.0
 40
0.2000000025774982
100
AcDbArc
 50
225.0003509521484
 51
315.0003509521484
  0
ARC
  5
23E
330
1F
100
AcDbEntity
  8
0-A
  6
Continuous
 62
     2
370
     9
100
AcDbCircle
 10
352.707366790287
 20
168.1254847282596
 30
0.0
 40
7.340787939123206
100
AcDbArc
 50
131.6701507568359
 51
207.8788452148438
  0
ARC
  5
23F
330
1F
100
AcDbEntity
  8
0-A
  6
Continuous
 62
     2
370
     9
100
AcDbCircle
 10
352.707366790287
 20
168.1254847282596
 30
0.0
 40
8.340789111884865
100
AcDbArc
 50
131.6701507568359
 51
208.9452667236328
  0
ARC
  5
240
330
1F
100
AcDbEntity
  8
0-A
  6
Continuous
 62
     2
370
     9
100
AcDbCircle
 10
357.099302787164
 20
158.7623340551201
 30
0.0
 40
4.000000051549963
100
AcDbArc
 50
45.00035095214844
 51
102.7838592529297
  0
ARC
  5
241
330
1F
100
AcDbEntity
  8
0-A
  6
Continuous
 62
     2
370
     9
100
AcDbCircle
 10
350.9805536338516
 20
160.2137851281869
 30
0.0
 40
1.200000087957124
100
AcDbArc
 50
135.0003509521484
 51
225.0003509521484
  0
ARC
  5
242
330
1F
100
AcDbEntity
  8
0-A
  6
Continuous
 62
     2
370
     9
100
AcDbCircle
 10
350.9805536338516
 20
160.2137851281869
 30
0.0
 40
0.2000000025774982
100
AcDbArc
 50
135.0003509521484
 51
225.0003509521484
  0
ARC
  5
243
330
1F
100
AcDbEntity
  8
0-A
  6
Continuous
 62
     2
370
     9
100
AcDbCircle
 10
354.3666779186605
 20
166.4663310696249
 30
0.0
 40
7.340787939123206
100
AcDbArc
 50
242.1218566894531
 51
318.3305511474609
  0
ARC
  5
244
330
1F
100
AcDbEntity
  8
0-A
  6
Continuous
 62
     2
370
     9
100
AcDbCircle
 10
354.3666779186605
 20
166.4663310696249
 30
0.0
 40
8.340789111884865
100
AcDbArc
 50
241.0554351806641
 51
318.3305511474609
  0
LINE
  5
245
330
1F
100
AcDbEntity
  8
仕上
  6
Continuous
 62
     6
370
     9
100
AcDbLine
 10
278.816843756018
 20
188.7177583107715
 30
0.0
 11
323.352212436935
 21
144.1820465301157
 31
0.0
  0
LINE
  5
246
330
1F
100
AcDbEntity
  8
仕上
  6
Continuous
 62
     6
370
     9
100
AcDbLine
 10
330.4232642079257
 20
137.1109402838598
 30
0.0
 11
360.8163335586696
 21
106.7176367854157
 31
0.0
  0
LINE
  5
247
330
1F
100
AcDbEntity
  8
仕上
  6
Continuous
 62
     6
370
     9
100
AcDbLine
 10
318.7559386235035
 20
141.7072957449996
 30
0.0
 11
319.8167789875827
 21
140.6464553809205
 31
0.0
  0
LINE
  5
248
330
1F
100
AcDbEntity
  8
仕上
  6
Continuous
 62
     6
370
     9
100
AcDbLine
 10
326.8878001419423
 20
133.5754342265608
 30
0.0
 11
351.977665854798
 21
108.4855685137051
 31
0.0
  0
LINE
  5
249
330
1F
100
AcDbEntity
  8
F-4ﾚｲﾔ
  6
Continuous
 62
     7
370
     9
100
AcDbLine
 10
89.06451084959845
 20
-249.1609121775568
 30
0.0
 11
89.06451084959845
 21
-321.0499714588958
 31
0.0
  0
ARC
  5
24A
330
1F
100
AcDbEntity
  8
D-6
  6
Continuous
 62
     4
370
     9
100
AcDbCircle
 10
-378.1521378857213
 20
-196.5611866428434
 30
0.0
 40
145.5
100
AcDbArc
 50
2.668098382393501
 51
35.65374119033562
  0
ARC
  5
24B
330
1F
100
AcDbEntity
  8
D-6
  6
Continuous
 62
     4
370
     9
100
AcDbCircle
 10
-378.1521378857213
 20
-196.5611866428434
 30
0.0
 40
145.5
100
AcDbArc
 50
38.04073499817511
 51
43.45186313705005
  0
ARC
  5
24C
330
1F
100
AcDbEntity
  8
D-6
  6
Continuous
 62
     4
370
     9
100
AcDbCircle
 10
-378.1521378857213
 20
-196.5611866428434
 30
0.0
 40
150.0
100
AcDbArc
 50
2.668098382393505
 51
35.93654222626519
  0
ARC
  5
24D
330
1F
100
AcDbEntity
  8
D-6
  6
Continuous
 62
     4
370
     9
100
AcDbCircle
 10
-378.1521378857213
 20
-196.5611866428434
 30
0.0
 40
150.0
100
AcDbArc
 50
38.25052023711934
 51
82.18518269125286
  0
LINE
  5
24E
330
1F
100
AcDbEntity
  8
D-5
  6
Continuous
 62
     7
370
     9
100
AcDbLine
 10
-290.3330380755759
 20
-148.4437186423525
 30
0.0
 11
-287.4629123328377
 21
-155.3728151361872
 31
0.0
  0
LINE
  5
24F
330
1F
100
AcDbEntity
  8
D-5
  6
Continuous
 62
     7
370
     9
100
AcDbLine
 10
-290.3330380755759
 20
-148.4437186423525
 30
0.0
 11
-285.7673273580104
 21
-154.3938686945368
 31
0.0
  0
LINE
  5
250
330
1F
100
AcDbEntity
  8
D-5
  6
Continuous
 62
     7
370
     9
100
AcDbLine
 10
-307.4831459491774
 20
-192.1569234681669
 30
0.0
 11
-331.4196365248265
 21
-233.6161413000848
 31
0.0
  0
TEXT
  5
251
330
1F
100
AcDbEntity
  8
D-5
  6
Continuous
 62
     2
370
     9
100
AcDbText
 10
-442.4158152432276
 20
-227.9810334711358
 30
0.0
 40
9.144
  1
補強棒:Φ3
 41
1.112500000000003
  7
ＭＳ ゴシック
100
AcDbText
  0
LINE
  5
252
330
1F
100
AcDbEntity
  8
D-5
  6
Continuous
 62
     7
370
     9
100
AcDbLine
 10
-446.7057272632799
 20
-233.6161413000848
 30
0.0
 11
-331.4196365248265
 21
-233.6161413000848
 31
0.0
  0
TEXT
  5
253
330
1F
100
AcDbEntity
  8
D-5
  6
Continuous
 62
     2
370
     9
100
AcDbText
 10
-445.4252309025338
 20
-246.8170123071146
 30
0.0
 40
9.144
  1
(SUS304/電解研磨)
 41
1.117647058823531
  7
ＭＳ ゴシック
100
AcDbText
  0
TEXT
  5
254
330
1F
100
AcDbEntity
  8
D-5
  6
Continuous
 62
     2
370
     9
100
AcDbText
 10
-184.9135912528242
 20
-27.13050686287481
 30
0.0
 40
9.144
  1
(SUS304)
 41
1.109374999999996
  7
ＭＳ ゴシック
100
AcDbText
  0
LINE
  5
255
330
1F
100
AcDbEntity
  8
D-5
  6
Continuous
 62
     7
370
     9
100
AcDbLine
 10
-186.1940876135707
 20
-13.92963585584492
 30
0.0
 11
-130.6166001401126
 21
-13.92963585584492
 31
0.0
  0
TEXT
  5
256
330
1F
100
AcDbEntity
  8
D-5
  6
Continuous
 62
     2
370
     9
100
AcDbText
 10
-184.9135912528242
 20
-8.294528026895957
 30
0.0
 40
9.144
  1
蝶ナット
 41
1.09375
  7
ＭＳ ゴシック
100
AcDbText
  0
LINE
  5
257
330
1F
100
AcDbEntity
  8
D-5
  6
Continuous
 62
     7
370
     9
100
AcDbLine
 10
-239.5735252638383
 20
-106.3855339455634
 30
0.0
 11
-186.1940876135707
 21
-13.92963585584492
 31
0.0
  0
LINE
  5
258
330
1F
100
AcDbEntity
  8
D-5
  6
Continuous
 62
     7
370
     9
100
AcDbLine
 10
-239.5735252638383
 20
-106.3855339455634
 30
0.0
 11
-235.0078145462727
 21
-100.4353838933792
 31
0.0
  0
LINE
  5
259
330
1F
100
AcDbEntity
  8
D-5
  6
Continuous
 62
     7
370
     9
100
AcDbLine
 10
-239.5735252638383
 20
-106.3855339455634
 30
0.0
 11
-236.7033995211001
 21
-99.45643745172876
 31
0.0
  0
ELLIPSE
  5
25A
330
1F
100
AcDbEntity
  8
D-9
  6
Continuous
 62
     7
370
     9
100
AcDbEllipse
 10
-258.9969804800535
 20
162.3815902970647
 30
0.0
 11
1.836912483959603E-16
 21
3.000004823143418
 31
0.0
210
0.0
220
0.0
230
1.0
 40
0.7071
 41
0.7227475650694432
 42
2.368192030903152
  0
LINE
  5
25B
330
1F
100
AcDbEntity
  8
D-A
  6
Continuous
 62
     2
370
     9
100
AcDbLine
 10
-266.8363194528154
 20
164.5519839573266
 30
0.0
 11
-261.5382183884941
 21
165.9990615280614
 31
0.0
  0
LINE
  5
25C
330
1F
100
AcDbEntity
  8
D-A
  6
Continuous
 62
     2
370
     9
100
AcDbLine
 10
-266.8363194528154
 20
160.2109739409626
 30
0.0
 11
-261.5382183884941
 21
158.7641190660682
 31
0.0
  0
LINE
  5
25D
330
1F
100
AcDbEntity
  8
D-A
  6
Continuous
 62
     2
370
     9
100
AcDbLine
 10
-259.8455073058294
 20
160.1314715259499
 30
0.0
 11
-260.5501726187254
 21
160.1314715259499
 31
0.0
  0
LINE
  5
25E
330
1F
100
AcDbEntity
  8
D-A
  6
Continuous
 62
     2
370
     9
100
AcDbLine
 10
-259.8455073058294
 20
164.6314863723393
 30
0.0
 11
-260.5501726187254
 21
164.6314863723393
 31
0.0
  0
LINE
  5
25F
330
1F
100
AcDbEntity
  8
D-A
  6
Continuous
 62
     2
370
     9
100
AcDbLine
 10
-263.0231542520919
 20
167.2615242471281
 30
0.0
 11
-258.7905971099891
 21
166.8718065264778
 31
0.0
  0
LINE
  5
260
330
1F
100
AcDbEntity
  8
D-A
  6
Continuous
 62
     2
370
     9
100
AcDbLine
 10
-263.0231542520919
 20
157.5014336511611
 30
0.0
 11
-258.7899846964278
 21
157.8911513718114
 31
0.0
  0
LINE
  5
261
330
1F
100
AcDbEntity
  8
D-A
  6
Continuous
 62
     2
370
     9
100
AcDbLine
 10
-259.8455073058294
 20
166.1315655530826
 30
0.0
 11
-260.5501726187254
 21
166.1315655530826
 31
0.0
  0
LINE
  5
262
330
1F
100
AcDbEntity
  8
D-A
  6
Continuous
 62
     2
370
     9
100
AcDbLine
 10
-259.8455073058294
 20
164.6314863723393
 30
0.0
 11
-259.8455073058294
 21
166.1315655530826
 31
0.0
  0
LINE
  5
263
330
1F
100
AcDbEntity
  8
D-A
  6
Continuous
 62
     2
370
     9
100
AcDbLine
 10
-259.8455073058294
 20
158.631615041047
 30
0.0
 11
-259.8455073058294
 21
160.1314715259499
 31
0.0
  0
LINE
  5
264
330
1F
100
AcDbEntity
  8
D-A
  6
Continuous
 62
     2
370
     9
100
AcDbLine
 10
-259.8455073058294
 20
158.631615041047
 30
0.0
 11
-260.5501726187254
 21
158.631615041047
 31
0.0
  0
LINE
  5
265
330
1F
100
AcDbEntity
  8
D-A
  6
Continuous
 62
     2
370
     9
100
AcDbLine
 10
-247.8976527740516
 20
158.6313923452066
 30
0.0
 11
-257.2384071025988
 21
158.6313923452066
 31
0.0
  0
LINE
  5
266
330
1F
100
AcDbEntity
  8
D-A
  6
Continuous
 62
     2
370
     9
100
AcDbLine
 10
-247.8976527740516
 20
166.1315655530826
 30
0.0
 11
-257.2389081682397
 21
166.1315655530826
 31
0.0
  0
ARC
  5
267
330
1F
100
AcDbEntity
  8
D-A
  6
Continuous
 62
     2
370
     9
100
AcDbCircle
 10
-260.5501726187254
 20
162.3815902970647
 30
0.0
 40
2.250000028996854
100
AcDbArc
 50
90.0
 51
270.0
  0
ARC
  5
268
330
1F
100
AcDbEntity
  8
D-A
  6
Continuous
 62
     2
370
     9
100
AcDbCircle
 10
-260.5501726187254
 20
162.3815902970647
 30
0.0
 40
3.750000483280904
100
AcDbArc
 50
90.0
 51
270.0
  0
ARC
  5
269
330
1F
100
AcDbEntity
  8
D-A
  6
Continuous
 62
     2
370
     9
100
AcDbCircle
 10
-266.243503125746
 20
162.3815902970647
 30
0.0
 40
2.250000028996854
100
AcDbArc
 50
105.2762451171875
 51
254.7237548828125
  0
ELLIPSE
  5
26A
330
1F
100
AcDbEntity
  8
D-A
  6
Continuous
 62
     2
370
     9
100
AcDbEllipse
 10
-263.2396146089332
 20
162.3815902970647
 30
0.0
 11
2.994150056502456E-16
 21
4.889979620237609
 31
0.0
210
0.0
220
0.0
230
1.0
 40
0.694
 41
2.069508660954732
 42
3.205408384894708
  0
ELLIPSE
  5
26B
330
1F
100
AcDbEntity
  8
D-A
  6
Continuous
 62
     2
370
     9
100
AcDbEllipse
 10
-263.2396146089332
 20
162.3815902970647
 30
0.0
 11
2.994150056502456E-16
 21
4.889979620237609
 31
0.0
210
0.0
220
0.0
230
1.0
 40
0.694
 41
6.219369309558561
 42
7.355262375595813
  0
ELLIPSE
  5
26C
330
1F
100
AcDbEntity
  8
D-A
  6
Continuous
 62
     2
370
     9
100
AcDbEllipse
 10
-258.9969804800535
 20
162.3815902970647
 30
0.0
 11
-0.000636332209460699
 21
4.499786886122132
 31
0.0
210
0.0
220
0.0
230
1.0
 40
0.7070000000000001
 41
2.555871118191543
 42
3.982512133077104
  0
ELLIPSE
  5
26D
330
1F
100
AcDbEntity
  8
D-A
  6
Continuous
 62
     2
370
     9
100
AcDbEllipse
 10
-258.9969804800535
 20
162.3815902970647
 30
0.0
 11
-0.000636332209460699
 21
4.499786886122132
 31
0.0
210
0.0
220
0.0
230
1.0
 40
0.7070000000000001
 41
5.442070351668264
 42
6.868704176018882
  0
LINE
  5
26E
330
1F
100
AcDbEntity
  8
D-9
  6
Continuous
 62
     7
370
     9
100
AcDbLine
 10
-259.8455073058294
 20
165.381525962711
 30
0.0
 11
-243.6977970015503
 21
165.381525962711
 31
0.0
  0
LINE
  5
26F
330
1F
100
AcDbEntity
  8
D-9
  6
Continuous
 62
     7
370
     9
100
AcDbLine
 10
-259.8455073058294
 20
159.3814319355783
 30
0.0
 11
-243.6977970015503
 21
159.3814319355783
 31
0.0
  0
ELLIPSE
  5
270
330
1F
100
AcDbEntity
  8
D-9
  6
Continuous
 62
     7
370
     9
100
AcDbEllipse
 10
-243.6977970015503
 20
162.3815902970647
 30
0.0
 11
1.836912483959603E-16
 21
3.000004823143418
 31
0.0
210
0.0
220
0.0
230
1.0
 40
0.7071
 41
0.0
 42
6.283185307179586
  0
ELLIPSE
  5
271
330
1F
100
AcDbEntity
  8
D-9
  6
Continuous
 62
     7
370
     9
100
AcDbEllipse
 10
-243.2735614256421
 20
162.3815902970647
 30
0.0
 11
1.469509267239112E-16
 21
2.399970019185865
 31
0.0
210
0.0
220
0.0
230
1.0
 40
0.7071
 41
0.0
 42
6.283185307179586
  0
ARC
  5
272
330
1F
100
AcDbEntity
  8
D-A
  6
Continuous
 62
     2
370
     9
100
AcDbCircle
 10
-247.8976527740516
 20
162.3815902970647
 30
0.0
 40
3.750000483280904
100
AcDbArc
 50
270.0
 51
306.8658746612248
  0
ARC
  5
273
330
1F
100
AcDbEntity
  8
D-A
  6
Continuous
 62
     2
370
     9
100
AcDbCircle
 10
-247.8976527740516
 20
162.3815902970647
 30
0.0
 40
3.750000483280904
100
AcDbArc
 50
53.12845427978647
 51
90.0
  0
LINE
  5
274
330
1F
100
AcDbEntity
  8
D-A
  6
JWW_CENTER1
 62
     2
370
     9
100
AcDbLine
 10
-278.2176497556351
 20
162.3815902970647
 30
0.0
 11
-240.4727456762757
 21
162.3815902970647
 31
0.0
  0
LINE
  5
275
330
1F
100
AcDbEntity
  8
D-9
  6
JWW_DASHED1
 62
     7
370
     9
100
AcDbLine
 10
-280.3966097888461
 20
151.1314418331713
 30
0.0
 11
-280.3966097888461
 21
173.631516065118
 31
0.0
  0
LINE
  5
276
330
1F
100
AcDbEntity
  8
D-9
  6
JWW_DASHED1
 62
     7
370
     9
100
AcDbLine
 10
-291.0032786219858
 20
151.1314418331713
 30
0.0
 11
-269.7901636515468
 21
151.1314418331713
 31
0.0
  0
LINE
  5
277
330
1F
100
AcDbEntity
  8
D-9
  6
JWW_DASHED1
 62
     7
370
     9
100
AcDbLine
 10
-281.1466493792177
 20
151.8814814235428
 30
0.0
 11
-281.1466493792177
 21
172.8814764747464
 31
0.0
  0
LINE
  5
278
330
1F
100
AcDbEntity
  8
D-9
  6
JWW_DASHED1
 62
     7
370
     9
100
AcDbLine
 10
-290.2533503795346
 20
172.8814764747464
 30
0.0
 11
-281.1466493792177
 21
172.8814764747464
 31
0.0
  0
LINE
  5
279
330
1F
100
AcDbEntity
  8
D-9
  6
JWW_DASHED1
 62
     7
370
     9
100
AcDbLine
 10
-290.2533503795346
 20
151.8814814235428
 30
0.0
 11
-281.1466493792177
 21
151.8814814235428
 31
0.0
  0
LINE
  5
27A
330
1F
100
AcDbEntity
  8
D-9
  6
JWW_DASHED1
 62
     7
370
     9
100
AcDbLine
 10
-290.2533503795346
 20
165.381525962711
 30
0.0
 11
-290.2533503795346
 21
172.8814764747464
 31
0.0
  0
LINE
  5
27B
330
1F
100
AcDbEntity
  8
D-9
  6
JWW_DASHED1
 62
     7
370
     9
100
AcDbLine
 10
-290.2533503795346
 20
151.8814814235428
 30
0.0
 11
-290.2533503795346
 21
159.3814319355783
 31
0.0
  0
LINE
  5
27C
330
1F
100
AcDbEntity
  8
D-9
  6
JWW_DASHED1
 62
     7
370
     9
100
AcDbLine
 10
-291.0032786219858
 20
158.631615041047
 30
0.0
 11
-291.0032786219858
 21
151.1314418331713
 31
0.0
  0
LINE
  5
27D
330
1F
100
AcDbEntity
  8
D-9
  6
JWW_DASHED1
 62
     7
370
     9
100
AcDbLine
 10
-291.0032786219858
 20
173.631516065118
 30
0.0
 11
-269.7901636515468
 21
173.631516065118
 31
0.0
  0
LINE
  5
27E
330
1F
100
AcDbEntity
  8
D-9
  6
JWW_DASHED1
 62
     7
370
     9
100
AcDbLine
 10
-269.7901636515468
 20
151.1314418331713
 30
0.0
 11
-269.7901636515468
 21
159.3814319355783
 31
0.0
  0
LINE
  5
27F
330
1F
100
AcDbEntity
  8
D-9
  6
JWW_DASHED1
 62
     7
370
     9
100
AcDbLine
 10
-269.7901636515468
 20
165.381525962711
 30
0.0
 11
-269.7901636515468
 21
173.631516065118
 31
0.0
  0
ELLIPSE
  5
280
330
1F
100
AcDbEntity
  8
D-9
  6
JWW_DASHED1
 62
     7
370
     9
100
AcDbEllipse
 10
-275.0934423941565
 20
162.3815902970647
 30
0.0
 11
1.836912483959603E-16
 21
3.000004823143418
 31
0.0
210
0.0
220
0.0
230
1.0
 40
0.7071
 41
0.0
 42
3.141592653589793
  0
LINE
  5
281
330
1F
100
AcDbEntity
  8
D-9
  6
JWW_DASHED1
 62
     7
370
     9
100
AcDbLine
 10
-291.0032786219858
 20
166.131525962711
 30
0.0
 11
-291.0032786219858
 21
173.631516065118
 31
0.0
  0
LINE
  5
282
330
1F
100
AcDbEntity
  8
D-9
  6
JWW_DASHED1
 62
     7
370
     9
100
AcDbLine
 10
-303.537971334718
 20
165.381525962711
 30
0.0
 11
-281.1466493792177
 21
165.381525962711
 31
0.0
  0
LINE
  5
283
330
1F
100
AcDbEntity
  8
D-9
  6
JWW_DASHED1
 62
     7
370
     9
100
AcDbLine
 10
-296.439716981792
 20
171.3815902970647
 30
0.0
 11
-296.439716981792
 21
172.1315902970647
 31
0.0
  0
LINE
  5
284
330
1F
100
AcDbEntity
  8
D-9
  6
JWW_DASHED1
 62
     7
370
     9
100
AcDbLine
 10
-303.537971334718
 20
166.131525962711
 30
0.0
 11
-291.0032786219858
 21
166.131525962711
 31
0.0
  0
ARC
  5
285
330
1F
100
AcDbEntity
  8
D-9
  6
JWW_DASHED1
 62
     7
370
     9
100
AcDbCircle
 10
-303.537971334718
 20
168.7565581298878
 30
0.0
 40
2.625032167176911
100
AcDbArc
 50
90.0
 51
270.0
  0
ARC
  5
286
330
1F
100
AcDbEntity
  8
D-9
  6
JWW_DASHED1
 62
     7
370
     9
100
AcDbCircle
 10
-303.537971334718
 20
168.7565581298878
 30
0.0
 40
3.375032167176911
100
AcDbArc
 50
90.0
 51
270.0
  0
LINE
  5
287
330
1F
100
AcDbEntity
  8
D-9
  6
JWW_DASHED1
 62
     7
370
     9
100
AcDbLine
 10
-303.537971334718
 20
172.1315902970647
 30
0.0
 11
-291.0032786219858
 21
172.1315902970647
 31
0.0
  0
LINE
  5
288
330
1F
100
AcDbEntity
  8
D-9
  6
JWW_DASHED1
 62
     7
370
     9
100
AcDbLine
 10
-303.537971334718
 20
171.3815902970647
 30
0.0
 11
-291.0032786219858
 21
171.3815902970647
 31
0.0
  0
LINE
  5
289
330
1F
100
AcDbEntity
  8
D-9
  6
JWW_DASHED1
 62
     7
370
     9
100
AcDbLine
 10
-296.439716981792
 20
153.3815902970647
 30
0.0
 11
-296.439716981792
 21
152.6315902970647
 31
0.0
  0
LINE
  5
28A
330
1F
100
AcDbEntity
  8
D-9
  6
JWW_DASHED1
 62
     7
370
     9
100
AcDbLine
 10
-303.537971334718
 20
158.6316546314186
 30
0.0
 11
-291.0032786219858
 21
158.6316546314186
 31
0.0
  0
ARC
  5
28B
330
1F
100
AcDbEntity
  8
D-9
  6
JWW_DASHED1
 62
     7
370
     9
100
AcDbCircle
 10
-303.537971334718
 20
156.0066224642416
 30
0.0
 40
2.625032167176911
100
AcDbArc
 50
90.0
 51
270.0
  0
ARC
  5
28C
330
1F
100
AcDbEntity
  8
D-9
  6
JWW_DASHED1
 62
     7
370
     9
100
AcDbCircle
 10
-303.537971334718
 20
156.0066224642416
 30
0.0
 40
3.375032167176911
100
AcDbArc
 50
90.0
 51
270.0
  0
LINE
  5
28D
330
1F
100
AcDbEntity
  8
D-9
  6
JWW_DASHED1
 62
     7
370
     9
100
AcDbLine
 10
-303.537971334718
 20
152.6315902970647
 30
0.0
 11
-291.0032786219858
 21
152.6315902970647
 31
0.0
  0
LINE
  5
28E
330
1F
100
AcDbEntity
  8
D-9
  6
JWW_DASHED1
 62
     7
370
     9
100
AcDbLine
 10
-303.537971334718
 20
153.3815902970647
 30
0.0
 11
-291.0032786219858
 21
153.3815902970647
 31
0.0
  0
LINE
  5
28F
330
1F
100
AcDbEntity
  8
D-9
  6
JWW_DASHED1
 62
     7
370
     9
100
AcDbLine
 10
-303.537971334718
 20
159.3814319355783
 30
0.0
 11
-281.1466493792177
 21
159.3814319355783
 31
0.0
  0
LINE
  5
290
330
1F
100
AcDbEntity
  8
D-9
  6
JWW_DASHED1
 62
     7
370
     9
100
AcDbLine
 10
-275.0934423941565
 20
159.3814319355783
 30
0.0
 11
-265.9195363519653
 21
159.3814319355783
 31
0.0
  0
LINE
  5
291
330
1F
100
AcDbEntity
  8
D-9
  6
JWW_DASHED1
 62
     7
370
     9
100
AcDbLine
 10
-275.0934423941565
 20
165.381525962711
 30
0.0
 11
-265.9195363519653
 21
165.381525962711
 31
0.0
  0
LINE
  5
292
330
1F
100
AcDbEntity
  8
D-F
  6
Continuous
 62
     7
370
     9
100
AcDbLine
 10
-356.2930686165025
 20
-176.9333837661348
 30
0.0
 11
-347.3678435382261
 21
-170.0848176897867
 31
0.0
  0
LINE
  5
293
330
1F
100
AcDbEntity
  8
D-F
  6
Continuous
 62
     7
370
     9
100
AcDbLine
 10
-356.2930686165025
 20
-176.9333837661348
 30
0.0
 11
-345.8994238757506
 21
-172.6281951520275
 31
0.0
  0
LINE
  5
294
330
1F
100
AcDbEntity
  8
D-F
  6
Continuous
 62
     7
370
     9
100
AcDbLine
 10
-337.0959585971756
 20
-165.8499271288135
 30
0.0
 11
-356.2930686165025
 21
-176.9333837661348
 31
0.0
  0
TEXT
  5
295
330
1F
100
AcDbEntity
  8
D-5
  6
Continuous
 62
     2
370
     9
100
AcDbText
 10
-331.2801537114357
 20
-168.5114226660638
 30
0.0
 40
9.144
  1
R20
 50
30.00000000000005
 41
1.083333333333333
  7
ＭＳ ゴシック
100
AcDbText
  0
TEXT
  5
296
330
1F
100
AcDbEntity
  8
F-4ﾚｲﾔ
  6
Continuous
 62
     2
370
     9
100
AcDbText
 10
96.25954783430757
 20
-292.3774578321169
 30
0.0
 40
9.144
  1
ＷＨＸＳ、ＷＨＸＳ－６、ＥＸＳ、ＥＸＳ－６
 41
1.119047619047619
  7
ＭＳ ゴシック
100
AcDbText
  0
LINE
  5
297
330
1F
100
AcDbEntity
  8
ハッチ
  6
Continuous
 62
     7
370
     9
100
AcDbLine
 10
335.8500879771011
 20
89.21766036597626
 30
0.0
 11
339.9403810695278
 21
89.21766036597626
 31
0.0
  0
LINE
  5
298
330
1F
100
AcDbEntity
  8
ハッチ
  6
Continuous
 62
     7
370
     9
100
AcDbLine
 10
335.8500879771025
 20
87.65560778062608
 30
0.0
 11
337.412140562452
 21
89.21766036597555
 31
0.0
  0
LINE
  5
299
330
1F
100
AcDbEntity
  8
ハッチ
  6
Continuous
 62
     7
370
     9
100
AcDbLine
 10
337.167728689513
 20
89.2176603659762
 30
0.0
 11
339.9403810695283
 21
86.44500798596096
 31
0.0
  0
LINE
  5
29A
330
1F
100
AcDbEntity
  8
ハッチ
  6
Continuous
 62
     7
370
     9
100
AcDbLine
 10
339.2890490330728
 20
89.21766036597643
 30
0.0
 11
339.9403810695281
 21
88.56632832952111
 31
0.0
  0
LINE
  5
29B
330
1F
100
AcDbEntity
  8
ハッチ
  6
Continuous
 62
     7
370
     9
100
AcDbLine
 10
335.8500879771009
 20
88.41398073482831
 30
0.0
 11
338.8280021606308
 21
85.43606655129841
 31
0.0
  0
LINE
  5
29C
330
1F
100
AcDbEntity
  8
ハッチ
  6
Continuous
 62
     7
370
     9
100
AcDbLine
 10
337.6538058456847
 20
85.21668496208821
 30
0.0
 11
339.9403810695286
 21
87.50326018593213
 31
0.0
  0
LINE
  5
29D
330
1F
100
AcDbEntity
  8
ハッチ
  6
Continuous
 62
     7
370
     9
100
AcDbLine
 10
336.2995040334866
 20
85.98370349345015
 30
0.0
 11
339.5334609060118
 21
89.21766036597538
 31
0.0
  0
LINE
  5
29E
330
1F
100
AcDbEntity
  8
ハッチ
  6
Continuous
 62
     7
370
     9
100
AcDbLine
 10
261.816881659495
 20
164.3399784521114
 30
0.0
 11
264.8168752733026
 21
164.3399784521114
 31
0.0
  0
LINE
  5
29F
330
1F
100
AcDbEntity
  8
ハッチ
  6
Continuous
 62
     7
370
     9
100
AcDbLine
 10
261.8168321126164
 20
160.2602884541475
 30
0.0
 11
264.8168271838978
 21
160.2602884541475
 31
0.0
  0
LINE
  5
2A0
330
1F
100
AcDbEntity
  8
ハッチ
  6
Continuous
 62
     7
370
     9
100
AcDbLine
 10
264.8168752733026
 20
164.3399784521114
 30
0.0
 11
264.8168752733026
 21
160.2602884541475
 31
0.0
  0
LINE
  5
2A1
330
1F
100
AcDbEntity
  8
ハッチ
  6
Continuous
 62
     7
370
     9
100
AcDbLine
 10
262.0454106033774
 20
164.3399784521118
 30
0.0
 11
264.8168752733035
 21
161.5685137821857
 31
0.0
  0
LINE
  5
2A2
330
1F
100
AcDbEntity
  8
ハッチ
  6
Continuous
 62
     7
370
     9
100
AcDbLine
 10
264.166730946938
 20
164.3399784521112
 30
0.0
 11
264.8168752733022
 21
163.689834125747
 31
0.0
  0
LINE
  5
2A3
330
1F
100
AcDbEntity
  8
ハッチ
  6
Continuous
 62
     7
370
     9
100
AcDbLine
 10
264.2049852885698
 20
160.2602884541461
 30
0.0
 11
264.8168752733022
 21
160.8721784388784
 31
0.0
  0
LINE
  5
2A4
330
1F
100
AcDbEntity
  8
ハッチ
  6
Continuous
 62
     7
370
     9
100
AcDbLine
 10
262.0836649450104
 20
160.2602884541467
 30
0.0
 11
264.8168752733026
 21
162.9934987824389
 31
0.0
  0
LINE
  5
2A5
330
1F
100
AcDbEntity
  8
ハッチ
  6
Continuous
 62
     7
370
     9
100
AcDbLine
 10
261.8027776224852
 20
164.2220418187415
 30
0.0
 11
261.920714255855
 21
164.3399784521114
 31
0.0
  0
LINE
  5
2A6
330
1F
100
AcDbEntity
  8
ハッチ
  6
Continuous
 62
     7
370
     9
100
AcDbLine
 10
260.9931588838415
 20
161.2911027365379
 30
0.0
 11
264.0420345994144
 21
164.3399784521108
 31
0.0
  0
LINE
  5
2A7
330
1F
100
AcDbEntity
  8
ハッチ
  6
Continuous
 62
     7
370
     9
100
AcDbLine
 10
261.8118137487921
 20
160.3309346195771
 30
0.0
 11
261.8824599142217
 21
160.2602884541475
 31
0.0
  0
LINE
  5
2A8
330
1F
100
AcDbEntity
  8
ハッチ
  6
Continuous
 62
     7
370
     9
100
AcDbLine
 10
261.0363229774148
 20
163.2277457345145
 30
0.0
 11
264.0037802577811
 21
160.2602884541481
 31
0.0
  0
LINE
  5
2A9
330
1F
100
AcDbEntity
  8
ハッチ
  6
Continuous
 62
     7
370
     9
100
AcDbLine
 10
114.8466945054395
 20
169.9377388035797
 30
0.0
 11
122.806289232002
 21
170.0998613753702
 31
0.0
  0
LINE
  5
2AA
330
1F
100
AcDbEntity
  8
ハッチ
  6
Continuous
 62
     7
370
     9
100
AcDbLine
 10
122.8560246363517
 20
167.6565910787064
 30
0.0
 11
120.4604112495273
 21
170.0520560016372
 31
0.0
  0
LINE
  5
2AB
330
1F
100
AcDbEntity
  8
ハッチ
  6
Continuous
 62
     7
370
     9
100
AcDbLine
 10
122.9296627275679
 20
164.0478792174311
 30
0.0
 11
116.9958578289192
 21
169.9814614202394
 31
0.0
  0
LINE
  5
2AC
330
1F
100
AcDbEntity
  8
ハッチ
  6
Continuous
 62
     7
370
     9
100
AcDbLine
 10
123.003003890997
 20
160.4388704283686
 30
0.0
 11
114.8466945054395
 21
168.5951055819792
 31
0.0
  0
LINE
  5
2AD
330
1F
100
AcDbEntity
  8
ハッチ
  6
Continuous
 62
     7
370
     9
100
AcDbLine
 10
114.8466945054395
 20
162.2265241709783
 30
0.0
 11
122.7185470708956
 21
170.098154040594
 31
0.0
  0
LINE
  5
2AE
330
1F
100
AcDbEntity
  8
ハッチ
  6
Continuous
 62
     7
370
     9
100
AcDbLine
 10
114.8466945054395
 20
165.7620433327182
 30
0.0
 11
119.1092413540459
 21
170.0245901813247
 31
0.0
  0
LINE
  5
2AF
330
1F
100
AcDbEntity
  8
ハッチ
  6
Continuous
 62
     7
370
     9
100
AcDbLine
 10
114.8466945054395
 20
169.2975624944581
 30
0.0
 11
115.5000841010898
 21
169.9510263220552
 31
0.0
  0
LINE
  5
2B0
330
1F
100
AcDbEntity
  8
ハッチ
  6
Continuous
 62
     7
370
     9
100
AcDbLine
 10
114.8464916047849
 20
59.91494429363318
 30
0.0
 11
125.0458126299116
 21
60.1226452807531
 31
0.0
  0
LINE
  5
2B1
330
1F
100
AcDbEntity
  8
ハッチ
  6
Continuous
 62
     7
370
     9
100
AcDbLine
 10
122.288095806643
 20
60.06660016092622
 30
0.0
 11
124.991771772648
 21
62.7703503588781
 31
0.0
  0
LINE
  5
2B2
330
1F
100
AcDbEntity
  8
ハッチ
  6
Continuous
 62
     7
370
     9
100
AcDbLine
 10
118.6790870175805
 20
59.99296206970997
 30
0.0
 11
124.921251423197
 21
66.23527493922012
 31
0.0
  0
LINE
  5
2B3
330
1F
100
AcDbEntity
  8
ハッチ
  6
Continuous
 62
     7
370
     9
100
AcDbLine
 10
115.070078228518
 20
59.91954667433419
 30
0.0
 11
124.8508795376395
 21
69.70019951956215
 31
0.0
  0
LINE
  5
2B4
330
1F
100
AcDbEntity
  8
ハッチ
  6
Continuous
 62
     7
370
     9
100
AcDbLine
 10
124.3386791047849
 20
60.10831851502247
 30
0.0
 11
114.8464916047849
 21
69.60035755112887
 31
0.0
  0
LINE
  5
2B5
330
1F
100
AcDbEntity
  8
ハッチ
  6
Continuous
 62
     7
370
     9
100
AcDbLine
 10
120.8739772202831
 20
60.03772393362465
 30
0.0
 11
114.8464916047849
 21
66.06506108522942
 31
0.0
  0
LINE
  5
2B6
330
1F
100
AcDbEntity
  8
ハッチ
  6
Continuous
 62
     7
370
     9
100
AcDbLine
 10
117.409423799675
 20
59.96705512028013
 30
0.0
 11
114.8464916047849
 21
62.52976461932989
 31
0.0
  0
LINE
  5
2B7
330
1F
100
AcDbEntity
  8
ハッチ
  6
Continuous
 62
     7
370
     9
100
AcDbLine
 10
115.610711259525
 20
159.4545744178523
 30
0.0
 11
122.8750280147299
 21
166.7191900546354
 31
0.0
  0
LINE
  5
2B8
330
1F
100
AcDbEntity
  8
ハッチ
  6
Continuous
 62
     7
370
     9
100
AcDbLine
 10
116.8907119829695
 20
159.4806453339238
 30
0.0
 11
114.8466945054395
 21
161.524586882127
 31
0.0
  0
LINE
  5
2B9
330
1F
100
AcDbEntity
  8
ハッチ
  6
Continuous
 62
     7
370
     9
100
AcDbLine
 10
119.2195093808238
 20
159.5280780270426
 30
0.0
 11
122.9456968280746
 21
163.2542654742933
 31
0.0
  0
LINE
  5
2BA
330
1F
100
AcDbEntity
  8
ハッチ
  6
Continuous
 62
     7
370
     9
100
AcDbLine
 10
120.3554382023713
 20
159.5512145022237
 30
0.0
 11
114.8466945054395
 21
165.0598833480265
 31
0.0
  0
LINE
  5
2BB
330
1F
100
AcDbEntity
  8
ハッチ
  6
Continuous
 62
     7
370
     9
100
AcDbLine
 10
122.8285111374047
 20
159.6015857838543
 30
0.0
 11
123.0163656414192
 21
159.7893408939513
 31
0.0
  0
LINE
  5
2BC
330
1F
100
AcDbEntity
  8
ハッチ
  6
Continuous
 62
     7
370
     9
100
AcDbLine
 10
122.806289232002
 20
170.0998613753702
 30
0.0
 11
123.0199869162245
 21
159.6054857417745
 31
0.0
  0
LINE
  5
2BD
330
1F
100
AcDbEntity
  8
ハッチ
  6
Continuous
 62
     7
370
     9
100
AcDbLine
 10
124.9873178558406
 20
62.99512469375981
 30
0.0
 11
117.6055692246368
 21
70.37672577262036
 31
0.0
  0
LINE
  5
2BE
330
1F
100
AcDbEntity
  8
ハッチ
  6
Continuous
 62
     7
370
     9
100
AcDbLine
 10
114.8464916047849
 20
66.76714683797434
 30
0.0
 11
118.4739032164308
 21
70.39441190529782
 31
0.0
  0
LINE
  5
2BF
330
1F
100
AcDbEntity
  8
ハッチ
  6
Continuous
 62
     7
370
     9
100
AcDbLine
 10
124.913828228518
 20
66.60398501892871
 30
0.0
 11
121.0705138578967
 21
70.44729938955004
 31
0.0
  0
LINE
  5
2C0
330
1F
100
AcDbEntity
  8
ハッチ
  6
Continuous
 62
     7
370
     9
100
AcDbLine
 10
114.8464916047849
 20
63.23155344428771
 30
0.0
 11
122.0828568422852
 21
70.46791868178803
 31
0.0
  0
LINE
  5
2C1
330
1F
100
AcDbEntity
  8
ハッチ
  6
Continuous
 62
     7
370
     9
100
AcDbLine
 10
124.8340115804133
 20
70.52395390345917
 30
0.0
 11
125.0458126299116
 21
60.1226452807531
 31
0.0
  0
LINE
  5
2C2
330
1F
100
AcDbEntity
  8
ハッチ
  6
Continuous
 62
     7
370
     9
100
AcDbLine
 10
124.8401901373017
 20
70.21299380799121
 30
0.0
 11
124.5353138841531
 21
70.51787006113993
 31
0.0
  0
ARC
  5
2C3
330
1F
100
AcDbEntity
  8
ハッチ
  6
Continuous
 62
     4
370
     9
100
AcDbCircle
 10
267.9238752228025
 20
101.1323860718878
 30
0.0
 40
96.99999999999999
100
AcDbArc
 50
2.668098382393501
 51
35.6537411903356
  0
ARC
  5
2C4
330
1F
100
AcDbEntity
  8
ハッチ
  6
Continuous
 62
     4
370
     9
100
AcDbCircle
 10
267.9238752228025
 20
101.1323860718878
 30
0.0
 40
96.99999999999999
100
AcDbArc
 50
38.04073499817508
 51
43.45186313705005
  0
ARC
  5
2C5
330
1F
100
AcDbEntity
  8
ハッチ
  6
Continuous
 62
     4
370
     9
100
AcDbCircle
 10
267.9238752228025
 20
101.1323860718878
 30
0.0
 40
100.0
100
AcDbArc
 50
2.668098382393505
 51
35.93654222626517
  0
ARC
  5
2C6
330
1F
100
AcDbEntity
  8
ハッチ
  6
Continuous
 62
     4
370
     9
100
AcDbCircle
 10
267.9238752228025
 20
101.1323860718878
 30
0.0
 40
100.0
100
AcDbArc
 50
38.25051027514505
 51
82.18518269125286
  0
LINE
  5
2C7
330
1F
100
AcDbEntity
  8
通り芯
  6
Continuous
 62
     3
370
     9
100
AcDbLine
 10
250.8174784781174
 20
261.2168062611792
 30
0.0
 11
250.8175117326006
 21
266.2168584939924
 31
0.0
  0
LINE
  5
2C8
330
1F
100
AcDbEntity
  8
通り芯
  6
Continuous
 62
     3
370
     9
100
AcDbLine
 10
436.8167175980556
 20
75.21693570110853
 30
0.0
 11
441.816691322303
 21
75.21693570110853
 31
0.0
  0
LINE
  5
2C9
330
1F
100
AcDbEntity
  8
0-9
  6
Continuous
 62
     7
370
     9
100
AcDbLine
 10
352.7677489369806
 20
169.355359936237
 30
0.0
 11
353.3336164436055
 21
169.3552812013676
 31
0.0
  0
LINE
  5
2CA
330
1F
100
AcDbEntity
  8
0-9
  6
Continuous
 62
     7
370
     9
100
AcDbLine
 10
353.3336164436055
 20
169.3552812013676
 30
0.0
 11
355.5961941415855
 21
167.0927035033876
 31
0.0
  0
LINE
  5
2CB
330
1F
100
AcDbEntity
  8
0-9
  6
Continuous
 62
     7
370
     9
100
AcDbLine
 10
355.5961941415857
 20
167.0927035033876
 30
0.0
 11
355.5962728764551
 21
166.5269409765884
 31
0.0
  0
LINE
  5
2CC
330
1F
100
AcDbEntity
  8
0-9
  6
Continuous
 62
     7
370
     9
100
AcDbLine
 10
352.7677489369806
 20
169.355359936237
 30
0.0
 11
355.5961941415857
 21
166.5270197114579
 31
0.0
  0
LINE
  5
2CD
330
1F
100
AcDbEntity
  8
0-9
  6
JWW_CENTER1
 62
     7
370
     9
100
AcDbLine
 10
331.9769143343054
 20
145.7358439243487
 30
0.0
 11
355.2872910038379
 21
169.0464830434458
 31
0.0
  0
LINE
  5
2CE
330
1F
100
AcDbEntity
  8
0-9
  6
Continuous
 62
     7
370
     9
100
AcDbLine
 10
329.7161797295478
 20
150.5460398471163
 30
0.0
 11
336.7872533736258
 21
143.4750711828642
 31
0.0
  0
LINE
  5
2CF
330
1F
100
AcDbEntity
  8
0-9
  6
Continuous
 62
     7
370
     9
100
AcDbLine
 10
322.6451060854698
 20
143.4749662030383
 30
0.0
 11
329.7161797295476
 21
136.4039975387861
 31
0.0
  0
LINE
  5
2D0
330
1F
100
AcDbEntity
  8
0-9
  6
Continuous
 62
     7
370
     9
100
AcDbLine
 10
319.8166871258213
 20
140.6465472433896
 30
0.0
 11
326.8878657497251
 21
133.5754735993115
 31
0.0
  0
LINE
  5
2D1
330
1F
100
AcDbEntity
  8
0-9
  6
Continuous
 62
     7
370
     9
100
AcDbLine
 10
319.7278741930992
 20
140.5577343106677
 30
0.0
 11
326.7990003270902
 21
133.4866081766767
 31
0.0
  0
LINE
  5
2D2
330
1F
100
AcDbEntity
  8
0-9
  6
Continuous
 62
     7
370
     9
100
AcDbLine
 10
312.0386268441351
 20
132.8682770020517
 30
0.0
 11
319.1096742432565
 21
125.7972820928431
 31
0.0
  0
LINE
  5
2D3
330
1F
100
AcDbEntity
  8
0-9
  6
Continuous
 62
     7
370
     9
100
AcDbLine
 10
329.7161797295478
 20
150.5460398471163
 30
0.0
 11
312.0386268441351
 21
132.8682770020517
 31
0.0
  0
LINE
  5
2D4
330
1F
100
AcDbEntity
  8
0-9
  6
Continuous
 62
     7
370
     9
100
AcDbLine
 10
336.787253373626
 20
143.4750711828642
 30
0.0
 11
319.1096742432565
 21
125.7972820928431
 31
0.0
  0
LINE
  5
2D5
330
1F
100
AcDbEntity
  8
0-9
  6
JWW_DASHED2
 62
     7
370
     9
100
AcDbLine
 10
329.3626339208308
 20
150.1924940383993
 30
0.0
 11
336.4336813199525
 21
143.1214991291908
 31
0.0
  0
LINE
  5
2D6
330
1F
100
AcDbEntity
  8
0-9
  6
JWW_DASHED2
 62
     7
370
     9
100
AcDbLine
 10
322.9986256492302
 20
143.8284857667987
 30
0.0
 11
330.0697517832212
 21
136.7575695924595
 31
0.0
  0
LINE
  5
2D7
330
1F
100
AcDbEntity
  8
0-9
  6
JWW_DASHED2
 62
     7
370
     9
100
AcDbLine
 10
312.3921201629391
 20
133.2217703208557
 30
0.0
 11
319.4634037666689
 21
126.1508016566037
 31
0.0
  0
LINE
  5
2D8
330
1F
100
AcDbEntity
  8
仕上
  6
Continuous
 62
     6
370
     9
100
AcDbLine
 10
314.3159900253706
 20
130.5909307261751
 30
0.0
 11
298.3748300412535
 21
115.1971639385193
 31
0.0
  0
LINE
  5
2D9
330
1F
100
AcDbEntity
  8
仕上
  6
Continuous
 62
     6
370
     9
100
AcDbLine
 10
318.599650076153
 20
126.3073024739271
 30
0.0
 11
304.5914273737108
 21
111.8017411098155
 31
0.0
  0
LINE
  5
2DA
330
1F
100
AcDbEntity
  8
0-9
  6
Continuous
 62
     7
370
     9
100
AcDbLine
 10
331.8375536154065
 20
148.4249021650984
 30
0.0
 11
346.4549867986809
 21
163.04251864045
 31
0.0
  0
LINE
  5
2DB
330
1F
100
AcDbEntity
  8
0-9
  6
Continuous
 62
     7
370
     9
100
AcDbLine
 10
349.2833577319983
 20
165.8709250395004
 30
0.0
 11
352.7677489369804
 21
169.355359936237
 31
0.0
  0
LINE
  5
2DC
330
1F
100
AcDbEntity
  8
0-9
  6
Continuous
 62
     7
370
     9
100
AcDbLine
 10
332.1203692664149
 20
148.14208651409
 30
0.0
 11
346.7379077827525
 21
162.7595888608907
 31
0.0
  0
LINE
  5
2DD
330
1F
100
AcDbEntity
  8
0-9
  6
Continuous
 62
     7
370
     9
100
AcDbLine
 10
349.566304347808
 20
165.5879784273812
 30
0.0
 11
353.3336164436055
 21
169.3552812013676
 31
0.0
  0
LINE
  5
2DE
330
1F
100
AcDbEntity
  8
0-A
  6
Continuous
 62
     2
370
     9
100
AcDbLine
 10
345.4086181487609
 20
164.0887742173141
 30
0.0
 11
348.1306634570332
 21
161.3670020011224
 31
0.0
  0
LINE
  5
2DF
330
1F
100
AcDbEntity
  8
0-A
  6
Continuous
 62
     2
370
     9
100
AcDbLine
 10
348.1306634570332
 20
161.3670020011224
 30
0.0
 11
350.3301773673668
 21
159.1672674886211
 31
0.0
  0
LINE
  5
2E0
330
1F
100
AcDbEntity
  8
0-A
  6
Continuous
 62
     2
370
     9
100
AcDbLine
 10
351.8288693620943
 20
163.3254134131911
 30
0.0
 11
348.5764893754981
 21
166.5777933997875
 31
0.0
  0
LINE
  5
2E1
330
1F
100
AcDbEntity
  8
0-9
  6
Continuous
 62
     7
370
     9
100
AcDbLine
 10
334.3831569240469
 20
145.879456326197
 30
0.0
 11
349.0005489815434
 21
160.4970292306842
 31
0.0
  0
LINE
  5
2E2
330
1F
100
AcDbEntity
  8
0-9
  6
Continuous
 62
     7
370
     9
100
AcDbLine
 10
351.8288837670228
 20
163.3253990084408
 30
0.0
 11
355.5962728764551
 21
167.0928347281699
 31
0.0
  0
LINE
  5
2E3
330
1F
100
AcDbEntity
  8
0-9
  6
Continuous
 62
     7
370
     9
100
AcDbLine
 10
334.6659200851423
 20
145.5964307155368
 30
0.0
 11
349.283409630782
 21
160.2141402116899
 31
0.0
  0
LINE
  5
2E4
330
1F
100
AcDbEntity
  8
0-9
  6
Continuous
 62
     7
370
     9
100
AcDbLine
 10
352.1117285714195
 20
163.0425017102647
 30
0.0
 11
355.5961941415855
 21
166.5270197114579
 31
0.0
  0
LINE
  5
2E5
330
1F
100
AcDbEntity
  8
D-E
  6
Continuous
 62
     7
370
     9
100
AcDbLine
 10
-285.913040904363
 20
284.4064421071218
 30
0.0
 11
-285.913040904363
 21
297.1562985920248
 31
0.0
  0
LINE
  5
2E6
330
1F
100
AcDbEntity
  8
D-E
  6
Continuous
 62
     7
370
     9
100
AcDbLine
 10
-284.8629557850639
 20
284.4064421071218
 30
0.0
 11
-284.8629557850639
 21
297.1562985920248
 31
0.0
  0
LINE
  5
2E7
330
1F
100
AcDbEntity
  8
D-E
  6
Continuous
 62
     7
370
     9
100
AcDbLine
 10
-314.8632032248865
 20
239.4062936432284
 30
0.0
 11
-314.8632032248865
 21
253.3561837799472
 31
0.0
  0
LINE
  5
2E8
330
1F
100
AcDbEntity
  8
D-E
  6
Continuous
 62
     7
370
     9
100
AcDbLine
 10
-315.913436808079
 20
239.4062936432284
 30
0.0
 11
-315.913436808079
 21
253.3561837799472
 31
0.0
  0
LINE
  5
2E9
330
1F
100
AcDbEntity
  8
D-E
  6
Continuous
 62
     7
370
     9
100
AcDbLine
 10
-307.3632527128509
 20
246.9062441552639
 30
0.0
 11
-307.3632527128509
 21
260.8563569878229
 31
0.0
  0
LINE
  5
2EA
330
1F
100
AcDbEntity
  8
D-E
  6
Continuous
 62
     7
370
     9
100
AcDbLine
 10
-308.41333783215
 20
246.9062441552639
 30
0.0
 11
-308.41333783215
 21
260.8563569878229
 31
0.0
  0
LINE
  5
2EB
330
1F
100
AcDbEntity
  8
D-E
  6
Continuous
 62
     7
370
     9
100
AcDbLine
 10
-300.9130903923275
 20
260.8563569878229
 30
0.0
 11
-314.8632032248865
 21
260.8563569878229
 31
0.0
  0
LINE
  5
2EC
330
1F
100
AcDbEntity
  8
D-E
  6
Continuous
 62
     7
370
     9
100
AcDbLine
 10
-300.9130903923275
 20
261.9062194112818
 30
0.0
 11
-314.8632032248865
 21
261.9062194112818
 31
0.0
  0
LINE
  5
2ED
330
1F
100
AcDbEntity
  8
D-E
  6
Continuous
 62
     7
370
     9
100
AcDbLine
 10
-293.413436808079
 20
276.9062688992461
 30
0.0
 11
-293.413436808079
 21
290.8562332679116
 31
0.0
  0
LINE
  5
2EE
330
1F
100
AcDbEntity
  8
D-E
  6
Continuous
 62
     7
370
     9
100
AcDbLine
 10
-292.3632032248862
 20
276.9062688992461
 30
0.0
 11
-292.3632032248862
 21
290.8562332679116
 31
0.0
  0
LINE
  5
2EF
330
1F
100
AcDbEntity
  8
D-E
  6
Continuous
 62
     7
370
     9
100
AcDbLine
 10
-314.8632032248865
 20
269.4063183872107
 30
0.0
 11
-314.8632032248865
 21
283.3562085239295
 31
0.0
  0
LINE
  5
2F0
330
1F
100
AcDbEntity
  8
D-E
  6
Continuous
 62
     7
370
     9
100
AcDbLine
 10
-315.913436808079
 20
269.4063183872107
 30
0.0
 11
-315.913436808079
 21
283.3562085239295
 31
0.0
  0
LINE
  5
2F1
330
1F
100
AcDbEntity
  8
D-E
  6
Continuous
 62
     7
370
     9
100
AcDbLine
 10
-293.413436808079
 20
269.4063183872107
 30
0.0
 11
-307.3632527128509
 21
269.4063183872107
 31
0.0
  0
LINE
  5
2F2
330
1F
100
AcDbEntity
  8
D-E
  6
Continuous
 62
     7
370
     9
100
AcDbLine
 10
-293.413436808079
 20
268.3563074998584
 30
0.0
 11
-307.3632527128509
 21
268.3563074998584
 31
0.0
  0
LINE
  5
2F3
330
1F
100
AcDbEntity
  8
D-E
  6
Continuous
 62
     7
370
     9
100
AcDbLine
 10
-293.413436808079
 20
283.3562085239295
 30
0.0
 11
-307.3632527128509
 21
283.3562085239295
 31
0.0
  0
LINE
  5
2F4
330
1F
100
AcDbEntity
  8
D-E
  6
Continuous
 62
     7
370
     9
100
AcDbLine
 10
-293.413436808079
 20
284.4062194112818
 30
0.0
 11
-307.3632527128509
 21
284.4062194112818
 31
0.0
  0
LINE
  5
2F5
330
1F
100
AcDbEntity
  8
D-E
  6
Continuous
 62
     7
370
     9
100
AcDbLine
 10
-300.9130903923275
 20
275.8564064757874
 30
0.0
 11
-314.8632032248865
 21
275.8564064757874
 31
0.0
  0
LINE
  5
2F6
330
1F
100
AcDbEntity
  8
D-E
  6
Continuous
 62
     7
370
     9
100
AcDbLine
 10
-300.9130903923275
 20
276.9062688992461
 30
0.0
 11
-314.8632032248865
 21
276.9062688992461
 31
0.0
  0
LINE
  5
2F7
330
1F
100
AcDbEntity
  8
D-E
  6
Continuous
 62
     7
370
     9
100
AcDbLine
 10
-299.8633022008156
 20
269.4063183872107
 30
0.0
 11
-299.8633022008156
 21
283.3562085239295
 31
0.0
  0
LINE
  5
2F8
330
1F
100
AcDbEntity
  8
D-E
  6
Continuous
 62
     7
370
     9
100
AcDbLine
 10
-300.9130903923275
 20
269.4063183872107
 30
0.0
 11
-300.9130903923275
 21
283.3562085239295
 31
0.0
  0
LINE
  5
2F9
330
1F
100
AcDbEntity
  8
D-E
  6
Continuous
 62
     7
370
     9
100
AcDbLine
 10
-314.8632032248865
 20
254.4064173631397
 30
0.0
 11
-314.8632032248865
 21
268.3563074998584
 31
0.0
  0
LINE
  5
2FA
330
1F
100
AcDbEntity
  8
D-E
  6
Continuous
 62
     7
370
     9
100
AcDbLine
 10
-315.913436808079
 20
254.4064173631397
 30
0.0
 11
-315.913436808079
 21
268.3563074998584
 31
0.0
  0
LINE
  5
2FB
330
1F
100
AcDbEntity
  8
D-E
  6
Continuous
 62
     7
370
     9
100
AcDbLine
 10
-299.8633022008156
 20
254.4064173631397
 30
0.0
 11
-299.8633022008156
 21
268.3563074998584
 31
0.0
  0
LINE
  5
2FC
330
1F
100
AcDbEntity
  8
D-E
  6
Continuous
 62
     7
370
     9
100
AcDbLine
 10
-300.9130903923275
 20
254.4064173631397
 30
0.0
 11
-300.9130903923275
 21
268.3563074998584
 31
0.0
  0
LINE
  5
2FD
330
1F
100
AcDbEntity
  8
D-E
  6
Continuous
 62
     7
370
     9
100
AcDbLine
 10
-307.3632527128509
 20
261.9065163390687
 30
0.0
 11
-307.3632527128509
 21
275.8562580118941
 31
0.0
  0
LINE
  5
2FE
330
1F
100
AcDbEntity
  8
D-E
  6
Continuous
 62
     7
370
     9
100
AcDbLine
 10
-308.41333783215
 20
261.9065163390687
 30
0.0
 11
-308.41333783215
 21
275.8562580118941
 31
0.0
  0
LINE
  5
2FF
330
1F
100
AcDbEntity
  8
D-E
  6
Continuous
 62
     7
370
     9
100
AcDbLine
 10
-293.4131398802919
 20
261.9065163390687
 30
0.0
 11
-293.4131398802919
 21
275.8562580118941
 31
0.0
  0
LINE
  5
300
330
1F
100
AcDbEntity
  8
D-E
  6
Continuous
 62
     7
370
     9
100
AcDbLine
 10
-299.8633022008156
 20
284.4064421071218
 30
0.0
 11
-299.8633022008156
 21
297.1562985920248
 31
0.0
  0
LINE
  5
301
330
1F
100
AcDbEntity
  8
D-E
  6
Continuous
 62
     7
370
     9
100
AcDbLine
 10
-300.9130903923275
 20
284.4064421071218
 30
0.0
 11
-300.9130903923275
 21
297.1562985920248
 31
0.0
  0
LINE
  5
302
330
1F
100
AcDbEntity
  8
D-E
  6
Continuous
 62
     7
370
     9
100
AcDbLine
 10
-315.913436808079
 20
284.4064421071218
 30
0.0
 11
-315.913436808079
 21
297.1562985920248
 31
0.0
  0
LINE
  5
303
330
1F
100
AcDbEntity
  8
D-E
  6
Continuous
 62
     7
370
     9
100
AcDbLine
 10
-300.9130903923275
 20
290.8562332679116
 30
0.0
 11
-314.8632032248865
 21
290.8562332679116
 31
0.0
  0
LINE
  5
304
330
1F
100
AcDbEntity
  8
D-E
  6
Continuous
 62
     7
370
     9
100
AcDbLine
 10
-300.9130903923275
 20
291.9063183872107
 30
0.0
 11
-314.8632032248865
 21
291.9063183872107
 31
0.0
  0
LINE
  5
305
330
1F
100
AcDbEntity
  8
D-E
  6
Continuous
 62
     7
370
     9
100
AcDbLine
 10
-314.8632032248865
 20
284.4064421071218
 30
0.0
 11
-314.8632032248865
 21
297.1562985920248
 31
0.0
  0
LINE
  5
306
330
1F
100
AcDbEntity
  8
D-E
  6
Continuous
 62
     7
370
     9
100
AcDbLine
 10
-308.41333783215
 20
276.9062688992461
 30
0.0
 11
-308.41333783215
 21
290.8562332679116
 31
0.0
  0
LINE
  5
307
330
1F
100
AcDbEntity
  8
D-E
  6
Continuous
 62
     7
370
     9
100
AcDbLine
 10
-307.3632527128509
 20
276.9062688992461
 30
0.0
 11
-307.3632527128509
 21
290.8562332679116
 31
0.0
  0
LINE
  5
308
330
1F
100
AcDbEntity
  8
D-E
  6
Continuous
 62
     7
370
     9
100
AcDbLine
 10
-308.41333783215
 20
291.9063183872107
 30
0.0
 11
-308.41333783215
 21
297.1562985920248
 31
0.0
  0
LINE
  5
309
330
1F
100
AcDbEntity
  8
D-E
  6
Continuous
 62
     7
370
     9
100
AcDbLine
 10
-307.3632527128509
 20
291.9063183872107
 30
0.0
 11
-307.3632527128509
 21
297.1562985920248
 31
0.0
  0
LINE
  5
30A
330
1F
100
AcDbEntity
  8
D-E
  6
Continuous
 62
     7
370
     9
100
AcDbLine
 10
-293.413436808079
 20
291.9063183872107
 30
0.0
 11
-293.413436808079
 21
297.1562985920248
 31
0.0
  0
LINE
  5
30B
330
1F
100
AcDbEntity
  8
D-E
  6
Continuous
 62
     7
370
     9
100
AcDbLine
 10
-292.3632032248862
 20
291.9063183872107
 30
0.0
 11
-292.3632032248862
 21
297.1562985920248
 31
0.0
  0
LINE
  5
30C
330
1F
100
AcDbEntity
  8
D-E
  6
Continuous
 62
     7
370
     9
100
AcDbLine
 10
-344.8637475924962
 20
209.4064173631397
 30
0.0
 11
-344.8637475924962
 21
223.356159035965
 31
0.0
  0
LINE
  5
30D
330
1F
100
AcDbEntity
  8
D-E
  6
Continuous
 62
     7
370
     9
100
AcDbLine
 10
-345.9139811756887
 20
209.4064173631397
 30
0.0
 11
-345.9139811756887
 21
223.356159035965
 31
0.0
  0
LINE
  5
30E
330
1F
100
AcDbEntity
  8
D-E
  6
Continuous
 62
     7
370
     9
100
AcDbLine
 10
-323.4136842479015
 20
223.356159035965
 30
0.0
 11
-337.3637970804606
 21
223.356159035965
 31
0.0
  0
LINE
  5
30F
330
1F
100
AcDbEntity
  8
D-E
  6
Continuous
 62
     7
370
     9
100
AcDbLine
 10
-323.4136842479015
 20
224.4063183872107
 30
0.0
 11
-337.3637970804606
 21
224.4063183872107
 31
0.0
  0
LINE
  5
310
330
1F
100
AcDbEntity
  8
D-E
  6
Continuous
 62
     7
370
     9
100
AcDbLine
 10
-337.3637970804606
 20
216.9062194112817
 30
0.0
 11
-337.3637970804606
 21
230.8563322438408
 31
0.0
  0
LINE
  5
311
330
1F
100
AcDbEntity
  8
D-E
  6
Continuous
 62
     7
370
     9
100
AcDbLine
 10
-338.4137337358662
 20
216.9062194112817
 30
0.0
 11
-338.4137337358662
 21
230.8563322438408
 31
0.0
  0
LINE
  5
312
330
1F
100
AcDbEntity
  8
D-E
  6
Continuous
 62
     7
370
     9
100
AcDbLine
 10
-330.9136347599372
 20
215.8564312197699
 30
0.0
 11
-344.8637475924962
 21
215.8564312197699
 31
0.0
  0
LINE
  5
313
330
1F
100
AcDbEntity
  8
D-E
  6
Continuous
 62
     7
370
     9
100
AcDbLine
 10
-330.9136347599372
 20
216.9062194112817
 30
0.0
 11
-344.8637475924962
 21
216.9062194112817
 31
0.0
  0
LINE
  5
314
330
1F
100
AcDbEntity
  8
D-E
  6
Continuous
 62
     7
370
     9
100
AcDbLine
 10
-330.9136347599372
 20
230.8563322438408
 30
0.0
 11
-344.8637475924962
 21
230.8563322438408
 31
0.0
  0
LINE
  5
315
330
1F
100
AcDbEntity
  8
D-E
  6
Continuous
 62
     7
370
     9
100
AcDbLine
 10
-330.9136347599372
 20
231.9063431311929
 30
0.0
 11
-344.8637475924962
 21
231.9063431311929
 31
0.0
  0
LINE
  5
316
330
1F
100
AcDbEntity
  8
D-E
  6
Continuous
 62
     7
370
     9
100
AcDbLine
 10
-323.4136842479015
 20
246.9062441552639
 30
0.0
 11
-323.4136842479015
 21
260.8563569878229
 31
0.0
  0
LINE
  5
317
330
1F
100
AcDbEntity
  8
D-E
  6
Continuous
 62
     7
370
     9
100
AcDbLine
 10
-322.3635991286028
 20
246.9062441552639
 30
0.0
 11
-322.3635991286028
 21
260.8563569878229
 31
0.0
  0
LINE
  5
318
330
1F
100
AcDbEntity
  8
D-E
  6
Continuous
 62
     7
370
     9
100
AcDbLine
 10
-344.8637475924962
 20
239.4062936432284
 30
0.0
 11
-344.8637475924962
 21
253.3561837799472
 31
0.0
  0
LINE
  5
319
330
1F
100
AcDbEntity
  8
D-E
  6
Continuous
 62
     7
370
     9
100
AcDbLine
 10
-345.9139811756887
 20
239.4062936432284
 30
0.0
 11
-345.9139811756887
 21
253.3561837799472
 31
0.0
  0
LINE
  5
31A
330
1F
100
AcDbEntity
  8
D-E
  6
Continuous
 62
     7
370
     9
100
AcDbLine
 10
-323.4136842479015
 20
239.4062936432284
 30
0.0
 11
-337.3637970804606
 21
239.4062936432284
 31
0.0
  0
LINE
  5
31B
330
1F
100
AcDbEntity
  8
D-E
  6
Continuous
 62
     7
370
     9
100
AcDbLine
 10
-323.4136842479015
 20
238.3564312197696
 30
0.0
 11
-337.3637970804606
 21
238.3564312197696
 31
0.0
  0
LINE
  5
31C
330
1F
100
AcDbEntity
  8
D-E
  6
Continuous
 62
     7
370
     9
100
AcDbLine
 10
-323.4136842479015
 20
253.3561837799472
 30
0.0
 11
-337.3637970804606
 21
253.3561837799472
 31
0.0
  0
LINE
  5
31D
330
1F
100
AcDbEntity
  8
D-E
  6
Continuous
 62
     7
370
     9
100
AcDbLine
 10
-323.4136842479015
 20
254.4062688992462
 30
0.0
 11
-337.3637970804606
 21
254.4062688992462
 31
0.0
  0
LINE
  5
31E
330
1F
100
AcDbEntity
  8
D-E
  6
Continuous
 62
     7
370
     9
100
AcDbLine
 10
-337.3637970804606
 20
246.9062441552639
 30
0.0
 11
-337.3637970804606
 21
260.8563569878229
 31
0.0
  0
LINE
  5
31F
330
1F
100
AcDbEntity
  8
D-E
  6
Continuous
 62
     7
370
     9
100
AcDbLine
 10
-338.4137337358662
 20
246.9062441552639
 30
0.0
 11
-338.4137337358662
 21
260.8563569878229
 31
0.0
  0
LINE
  5
320
330
1F
100
AcDbEntity
  8
D-E
  6
Continuous
 62
     7
370
     9
100
AcDbLine
 10
-330.9136347599372
 20
245.8563817318052
 30
0.0
 11
-344.8637475924962
 21
245.8563817318052
 31
0.0
  0
LINE
  5
321
330
1F
100
AcDbEntity
  8
D-E
  6
Continuous
 62
     7
370
     9
100
AcDbLine
 10
-330.9136347599372
 20
246.9062441552639
 30
0.0
 11
-344.8637475924962
 21
246.9062441552639
 31
0.0
  0
LINE
  5
322
330
1F
100
AcDbEntity
  8
D-E
  6
Continuous
 62
     7
370
     9
100
AcDbLine
 10
-329.8635496406381
 20
239.4062936432284
 30
0.0
 11
-329.8635496406381
 21
253.3561837799472
 31
0.0
  0
LINE
  5
323
330
1F
100
AcDbEntity
  8
D-E
  6
Continuous
 62
     7
370
     9
100
AcDbLine
 10
-330.9136347599372
 20
239.4062936432284
 30
0.0
 11
-330.9136347599372
 21
253.3561837799472
 31
0.0
  0
LINE
  5
324
330
1F
100
AcDbEntity
  8
D-E
  6
Continuous
 62
     7
370
     9
100
AcDbLine
 10
-330.9136347599372
 20
260.8563569878229
 30
0.0
 11
-344.8637475924962
 21
260.8563569878229
 31
0.0
  0
LINE
  5
325
330
1F
100
AcDbEntity
  8
D-E
  6
Continuous
 62
     7
370
     9
100
AcDbLine
 10
-330.9136347599372
 20
261.9062194112818
 30
0.0
 11
-344.8637475924962
 21
261.9062194112818
 31
0.0
  0
LINE
  5
326
330
1F
100
AcDbEntity
  8
D-E
  6
Continuous
 62
     7
370
     9
100
AcDbLine
 10
-323.4136842479015
 20
276.9062688992461
 30
0.0
 11
-323.4136842479015
 21
290.8562332679116
 31
0.0
  0
LINE
  5
327
330
1F
100
AcDbEntity
  8
D-E
  6
Continuous
 62
     7
370
     9
100
AcDbLine
 10
-322.3635991286028
 20
276.9062688992461
 30
0.0
 11
-322.3635991286028
 21
290.8562332679116
 31
0.0
  0
LINE
  5
328
330
1F
100
AcDbEntity
  8
D-E
  6
Continuous
 62
     7
370
     9
100
AcDbLine
 10
-344.8637475924962
 20
269.4063183872107
 30
0.0
 11
-344.8637475924962
 21
283.3562085239295
 31
0.0
  0
LINE
  5
329
330
1F
100
AcDbEntity
  8
D-E
  6
Continuous
 62
     7
370
     9
100
AcDbLine
 10
-345.9139811756887
 20
269.4063183872107
 30
0.0
 11
-345.9139811756887
 21
283.3562085239295
 31
0.0
  0
LINE
  5
32A
330
1F
100
AcDbEntity
  8
D-E
  6
Continuous
 62
     7
370
     9
100
AcDbLine
 10
-323.4136842479015
 20
269.4063183872107
 30
0.0
 11
-337.3637970804606
 21
269.4063183872107
 31
0.0
  0
LINE
  5
32B
330
1F
100
AcDbEntity
  8
D-E
  6
Continuous
 62
     7
370
     9
100
AcDbLine
 10
-323.4136842479015
 20
268.3563074998584
 30
0.0
 11
-337.3637970804606
 21
268.3563074998584
 31
0.0
  0
LINE
  5
32C
330
1F
100
AcDbEntity
  8
D-E
  6
Continuous
 62
     7
370
     9
100
AcDbLine
 10
-323.4136842479015
 20
283.3562085239295
 30
0.0
 11
-337.3637970804606
 21
283.3562085239295
 31
0.0
  0
LINE
  5
32D
330
1F
100
AcDbEntity
  8
D-E
  6
Continuous
 62
     7
370
     9
100
AcDbLine
 10
-323.4136842479015
 20
284.4062194112818
 30
0.0
 11
-337.3637970804606
 21
284.4062194112818
 31
0.0
  0
LINE
  5
32E
330
1F
100
AcDbEntity
  8
D-E
  6
Continuous
 62
     7
370
     9
100
AcDbLine
 10
-330.9136347599372
 20
275.8564064757874
 30
0.0
 11
-344.8637475924962
 21
275.8564064757874
 31
0.0
  0
LINE
  5
32F
330
1F
100
AcDbEntity
  8
D-E
  6
Continuous
 62
     7
370
     9
100
AcDbLine
 10
-330.9136347599372
 20
276.9062688992461
 30
0.0
 11
-344.8637475924962
 21
276.9062688992461
 31
0.0
  0
LINE
  5
330
330
1F
100
AcDbEntity
  8
D-E
  6
Continuous
 62
     7
370
     9
100
AcDbLine
 10
-329.8635496406381
 20
269.4063183872107
 30
0.0
 11
-329.8635496406381
 21
283.3562085239295
 31
0.0
  0
LINE
  5
331
330
1F
100
AcDbEntity
  8
D-E
  6
Continuous
 62
     7
370
     9
100
AcDbLine
 10
-330.9136347599372
 20
269.4063183872107
 30
0.0
 11
-330.9136347599372
 21
283.3562085239295
 31
0.0
  0
LINE
  5
332
330
1F
100
AcDbEntity
  8
D-E
  6
Continuous
 62
     7
370
     9
100
AcDbLine
 10
-345.9139811756887
 20
224.4063183872107
 30
0.0
 11
-345.9139811756887
 21
238.3564312197696
 31
0.0
  0
LINE
  5
333
330
1F
100
AcDbEntity
  8
D-E
  6
Continuous
 62
     7
370
     9
100
AcDbLine
 10
-344.8637475924962
 20
224.4063183872107
 30
0.0
 11
-344.8637475924962
 21
238.3564312197696
 31
0.0
  0
LINE
  5
334
330
1F
100
AcDbEntity
  8
D-E
  6
Continuous
 62
     7
370
     9
100
AcDbLine
 10
-330.9137832238309
 20
224.4063183872107
 30
0.0
 11
-330.9137832238309
 21
238.3564312197696
 31
0.0
  0
LINE
  5
335
330
1F
100
AcDbEntity
  8
D-E
  6
Continuous
 62
     7
370
     9
100
AcDbLine
 10
-329.8635496406381
 20
224.4063183872107
 30
0.0
 11
-329.8635496406381
 21
238.3564312197696
 31
0.0
  0
LINE
  5
336
330
1F
100
AcDbEntity
  8
D-E
  6
Continuous
 62
     7
370
     9
100
AcDbLine
 10
-338.4137337358662
 20
231.9063431311929
 30
0.0
 11
-338.4137337358662
 21
245.8563817318052
 31
0.0
  0
LINE
  5
337
330
1F
100
AcDbEntity
  8
D-E
  6
Continuous
 62
     7
370
     9
100
AcDbLine
 10
-337.3637970804606
 20
231.9063431311929
 30
0.0
 11
-337.3637970804606
 21
245.8563817318052
 31
0.0
  0
LINE
  5
338
330
1F
100
AcDbEntity
  8
D-E
  6
Continuous
 62
     7
370
     9
100
AcDbLine
 10
-323.4136842479015
 20
231.9063431311929
 30
0.0
 11
-323.4136842479015
 21
245.8563817318052
 31
0.0
  0
LINE
  5
339
330
1F
100
AcDbEntity
  8
D-E
  6
Continuous
 62
     7
370
     9
100
AcDbLine
 10
-322.3635991286028
 20
231.9063431311929
 30
0.0
 11
-322.3635991286028
 21
245.8563817318052
 31
0.0
  0
LINE
  5
33A
330
1F
100
AcDbEntity
  8
D-E
  6
Continuous
 62
     7
370
     9
100
AcDbLine
 10
-344.8637475924962
 20
254.4064173631397
 30
0.0
 11
-344.8637475924962
 21
268.3563074998584
 31
0.0
  0
LINE
  5
33B
330
1F
100
AcDbEntity
  8
D-E
  6
Continuous
 62
     7
370
     9
100
AcDbLine
 10
-345.9139811756887
 20
254.4064173631397
 30
0.0
 11
-345.9139811756887
 21
268.3563074998584
 31
0.0
  0
LINE
  5
33C
330
1F
100
AcDbEntity
  8
D-E
  6
Continuous
 62
     7
370
     9
100
AcDbLine
 10
-329.8635496406381
 20
254.4064173631397
 30
0.0
 11
-329.8635496406381
 21
268.3563074998584
 31
0.0
  0
LINE
  5
33D
330
1F
100
AcDbEntity
  8
D-E
  6
Continuous
 62
     7
370
     9
100
AcDbLine
 10
-330.9136347599372
 20
254.4064173631397
 30
0.0
 11
-330.9136347599372
 21
268.3563074998584
 31
0.0
  0
LINE
  5
33E
330
1F
100
AcDbEntity
  8
D-E
  6
Continuous
 62
     7
370
     9
100
AcDbLine
 10
-337.3637970804606
 20
261.9065163390687
 30
0.0
 11
-337.3637970804606
 21
275.8562580118941
 31
0.0
  0
LINE
  5
33F
330
1F
100
AcDbEntity
  8
D-E
  6
Continuous
 62
     7
370
     9
100
AcDbLine
 10
-338.4135852719725
 20
261.9065163390687
 30
0.0
 11
-338.4135852719725
 21
275.8562580118941
 31
0.0
  0
LINE
  5
340
330
1F
100
AcDbEntity
  8
D-E
  6
Continuous
 62
     7
370
     9
100
AcDbLine
 10
-322.3635991286028
 20
261.9065163390687
 30
0.0
 11
-322.3635991286028
 21
275.8562580118941
 31
0.0
  0
LINE
  5
341
330
1F
100
AcDbEntity
  8
D-E
  6
Continuous
 62
     7
370
     9
100
AcDbLine
 10
-323.4133873201147
 20
261.9065163390687
 30
0.0
 11
-323.4133873201147
 21
275.8562580118941
 31
0.0
  0
LINE
  5
342
330
1F
100
AcDbEntity
  8
D-E
  6
Continuous
 62
     7
370
     9
100
AcDbLine
 10
-329.8635496406381
 20
284.4064421071218
 30
0.0
 11
-329.8635496406381
 21
297.1562985920248
 31
0.0
  0
LINE
  5
343
330
1F
100
AcDbEntity
  8
D-E
  6
Continuous
 62
     7
370
     9
100
AcDbLine
 10
-330.9136347599372
 20
284.4064421071218
 30
0.0
 11
-330.9136347599372
 21
297.1562985920248
 31
0.0
  0
LINE
  5
344
330
1F
100
AcDbEntity
  8
D-E
  6
Continuous
 62
     7
370
     9
100
AcDbLine
 10
-345.9139811756887
 20
284.4064421071218
 30
0.0
 11
-345.9139811756887
 21
297.1562985920248
 31
0.0
  0
LINE
  5
345
330
1F
100
AcDbEntity
  8
D-E
  6
Continuous
 62
     7
370
     9
100
AcDbLine
 10
-330.9136347599372
 20
290.8562332679116
 30
0.0
 11
-344.8637475924962
 21
290.8562332679116
 31
0.0
  0
LINE
  5
346
330
1F
100
AcDbEntity
  8
D-E
  6
Continuous
 62
     7
370
     9
100
AcDbLine
 10
-330.9136347599372
 20
291.9063183872107
 30
0.0
 11
-344.8637475924962
 21
291.9063183872107
 31
0.0
  0
LINE
  5
347
330
1F
100
AcDbEntity
  8
D-E
  6
Continuous
 62
     7
370
     9
100
AcDbLine
 10
-344.8637475924962
 20
284.4064421071218
 30
0.0
 11
-344.8637475924962
 21
297.1562985920248
 31
0.0
  0
LINE
  5
348
330
1F
100
AcDbEntity
  8
D-E
  6
Continuous
 62
     7
370
     9
100
AcDbLine
 10
-338.4137337358662
 20
276.9062688992461
 30
0.0
 11
-338.4137337358662
 21
290.8562332679116
 31
0.0
  0
LINE
  5
349
330
1F
100
AcDbEntity
  8
D-E
  6
Continuous
 62
     7
370
     9
100
AcDbLine
 10
-337.3637970804606
 20
276.9062688992461
 30
0.0
 11
-337.3637970804606
 21
290.8562332679116
 31
0.0
  0
LINE
  5
34A
330
1F
100
AcDbEntity
  8
D-E
  6
Continuous
 62
     7
370
     9
100
AcDbLine
 10
-338.4137337358662
 20
291.9063183872107
 30
0.0
 11
-338.4137337358662
 21
297.1562985920248
 31
0.0
  0
LINE
  5
34B
330
1F
100
AcDbEntity
  8
D-E
  6
Continuous
 62
     7
370
     9
100
AcDbLine
 10
-337.3637970804606
 20
291.9063183872107
 30
0.0
 11
-337.3637970804606
 21
297.1562985920248
 31
0.0
  0
LINE
  5
34C
330
1F
100
AcDbEntity
  8
D-E
  6
Continuous
 62
     7
370
     9
100
AcDbLine
 10
-323.4136842479015
 20
291.9063183872107
 30
0.0
 11
-323.4136842479015
 21
297.1562985920248
 31
0.0
  0
LINE
  5
34D
330
1F
100
AcDbEntity
  8
D-E
  6
Continuous
 62
     7
370
     9
100
AcDbLine
 10
-322.3635991286028
 20
291.9063183872107
 30
0.0
 11
-322.3635991286028
 21
297.1562985920248
 31
0.0
  0
LINE
  5
34E
330
1F
100
AcDbEntity
  8
D-E
  6
Continuous
 62
     7
370
     9
100
AcDbLine
 10
-308.4134862960437
 20
239.4062936432284
 30
0.0
 11
-322.3634506647094
 21
239.4062936432284
 31
0.0
  0
LINE
  5
34F
330
1F
100
AcDbEntity
  8
D-E
  6
Continuous
 62
     7
370
     9
100
AcDbLine
 10
-308.4134862960437
 20
238.3564312197696
 30
0.0
 11
-322.3634506647094
 21
238.3564312197696
 31
0.0
  0
LINE
  5
350
330
1F
100
AcDbEntity
  8
D-E
  6
Continuous
 62
     7
370
     9
100
AcDbLine
 10
-308.4134862960437
 20
253.3561837799472
 30
0.0
 11
-322.3634506647094
 21
253.3561837799472
 31
0.0
  0
LINE
  5
351
330
1F
100
AcDbEntity
  8
D-E
  6
Continuous
 62
     7
370
     9
100
AcDbLine
 10
-308.4134862960437
 20
254.4062688992462
 30
0.0
 11
-322.3634506647094
 21
254.4062688992462
 31
0.0
  0
LINE
  5
352
330
1F
100
AcDbEntity
  8
D-E
  6
Continuous
 62
     7
370
     9
100
AcDbLine
 10
-308.4134862960437
 20
269.4063183872107
 30
0.0
 11
-322.3634506647094
 21
269.4063183872107
 31
0.0
  0
LINE
  5
353
330
1F
100
AcDbEntity
  8
D-E
  6
Continuous
 62
     7
370
     9
100
AcDbLine
 10
-308.4134862960437
 20
268.3563074998584
 30
0.0
 11
-322.3634506647094
 21
268.3563074998584
 31
0.0
  0
LINE
  5
354
330
1F
100
AcDbEntity
  8
D-E
  6
Continuous
 62
     7
370
     9
100
AcDbLine
 10
-308.4134862960437
 20
283.3562085239295
 30
0.0
 11
-322.3634506647094
 21
283.3562085239295
 31
0.0
  0
LINE
  5
355
330
1F
100
AcDbEntity
  8
D-E
  6
Continuous
 62
     7
370
     9
100
AcDbLine
 10
-308.4134862960437
 20
284.4062194112818
 30
0.0
 11
-322.3634506647094
 21
284.4062194112818
 31
0.0
  0
LINE
  5
356
330
1F
100
AcDbEntity
  8
D-E
  6
Continuous
 62
     7
370
     9
100
AcDbLine
 10
-315.913436808079
 20
231.9063431311929
 30
0.0
 11
-329.8634011767447
 21
231.9063431311929
 31
0.0
  0
LINE
  5
357
330
1F
100
AcDbEntity
  8
D-E
  6
Continuous
 62
     7
370
     9
100
AcDbLine
 10
-315.913436808079
 20
230.8563322438408
 30
0.0
 11
-329.8634011767447
 21
230.8563322438408
 31
0.0
  0
LINE
  5
358
330
1F
100
AcDbEntity
  8
D-E
  6
Continuous
 62
     7
370
     9
100
AcDbLine
 10
-315.913436808079
 20
245.8560848040181
 30
0.0
 11
-329.8634011767447
 21
245.8560848040181
 31
0.0
  0
LINE
  5
359
330
1F
100
AcDbEntity
  8
D-E
  6
Continuous
 62
     7
370
     9
100
AcDbLine
 10
-315.913436808079
 20
246.9062441552639
 30
0.0
 11
-329.8634011767447
 21
246.9062441552639
 31
0.0
  0
LINE
  5
35A
330
1F
100
AcDbEntity
  8
D-E
  6
Continuous
 62
     7
370
     9
100
AcDbLine
 10
-315.913436808079
 20
261.9062194112818
 30
0.0
 11
-329.8634011767447
 21
261.9062194112818
 31
0.0
  0
LINE
  5
35B
330
1F
100
AcDbEntity
  8
D-E
  6
Continuous
 62
     7
370
     9
100
AcDbLine
 10
-315.913436808079
 20
260.8563569878229
 30
0.0
 11
-329.8634011767447
 21
260.8563569878229
 31
0.0
  0
LINE
  5
35C
330
1F
100
AcDbEntity
  8
D-E
  6
Continuous
 62
     7
370
     9
100
AcDbLine
 10
-315.913436808079
 20
275.8561837799472
 30
0.0
 11
-329.8634011767447
 21
275.8561837799472
 31
0.0
  0
LINE
  5
35D
330
1F
100
AcDbEntity
  8
D-E
  6
Continuous
 62
     7
370
     9
100
AcDbLine
 10
-315.913436808079
 20
276.9062688992461
 30
0.0
 11
-329.8634011767447
 21
276.9062688992461
 31
0.0
  0
LINE
  5
35E
330
1F
100
AcDbEntity
  8
D-E
  6
Continuous
 62
     7
370
     9
100
AcDbLine
 10
-338.4137337358662
 20
209.4064173631397
 30
0.0
 11
-352.3638465684253
 21
209.4064173631397
 31
0.0
  0
LINE
  5
35F
330
1F
100
AcDbEntity
  8
D-E
  6
Continuous
 62
     7
370
     9
100
AcDbLine
 10
-338.4137337358662
 20
208.3563322438406
 30
0.0
 11
-352.3638465684253
 21
208.3563322438406
 31
0.0
  0
LINE
  5
360
330
1F
100
AcDbEntity
  8
D-E
  6
Continuous
 62
     7
370
     9
100
AcDbLine
 10
-338.4137337358662
 20
223.356159035965
 30
0.0
 11
-352.3638465684253
 21
223.356159035965
 31
0.0
  0
LINE
  5
361
330
1F
100
AcDbEntity
  8
D-E
  6
Continuous
 62
     7
370
     9
100
AcDbLine
 10
-338.4137337358662
 20
224.4063183872107
 30
0.0
 11
-352.3638465684253
 21
224.4063183872107
 31
0.0
  0
LINE
  5
362
330
1F
100
AcDbEntity
  8
D-E
  6
Continuous
 62
     7
370
     9
100
AcDbLine
 10
-338.4137337358662
 20
239.4062936432284
 30
0.0
 11
-352.3638465684253
 21
239.4062936432284
 31
0.0
  0
LINE
  5
363
330
1F
100
AcDbEntity
  8
D-E
  6
Continuous
 62
     7
370
     9
100
AcDbLine
 10
-338.4137337358662
 20
238.3564312197696
 30
0.0
 11
-352.3638465684253
 21
238.3564312197696
 31
0.0
  0
LINE
  5
364
330
1F
100
AcDbEntity
  8
D-E
  6
Continuous
 62
     7
370
     9
100
AcDbLine
 10
-338.4137337358662
 20
253.3561837799472
 30
0.0
 11
-352.3638465684253
 21
253.3561837799472
 31
0.0
  0
LINE
  5
365
330
1F
100
AcDbEntity
  8
D-E
  6
Continuous
 62
     7
370
     9
100
AcDbLine
 10
-338.4137337358662
 20
254.4062688992462
 30
0.0
 11
-352.3638465684253
 21
254.4062688992462
 31
0.0
  0
LINE
  5
366
330
1F
100
AcDbEntity
  8
D-E
  6
Continuous
 62
     7
370
     9
100
AcDbLine
 10
-338.4137337358662
 20
269.4063183872107
 30
0.0
 11
-352.3638465684253
 21
269.4063183872107
 31
0.0
  0
LINE
  5
367
330
1F
100
AcDbEntity
  8
D-E
  6
Continuous
 62
     7
370
     9
100
AcDbLine
 10
-338.4137337358662
 20
268.3563074998584
 30
0.0
 11
-352.3638465684253
 21
268.3563074998584
 31
0.0
  0
LINE
  5
368
330
1F
100
AcDbEntity
  8
D-E
  6
Continuous
 62
     7
370
     9
100
AcDbLine
 10
-338.4137337358662
 20
283.3562085239295
 30
0.0
 11
-352.3638465684253
 21
283.3562085239295
 31
0.0
  0
LINE
  5
369
330
1F
100
AcDbEntity
  8
D-E
  6
Continuous
 62
     7
370
     9
100
AcDbLine
 10
-338.4137337358662
 20
284.4062194112818
 30
0.0
 11
-352.3638465684253
 21
284.4062194112818
 31
0.0
  0
LINE
  5
36A
330
1F
100
AcDbEntity
  8
D-E
  6
Continuous
 62
     7
370
     9
100
AcDbLine
 10
-285.913040904363
 20
290.8562332679116
 30
0.0
 11
-299.8633022008156
 21
290.8562332679116
 31
0.0
  0
LINE
  5
36B
330
1F
100
AcDbEntity
  8
D-E
  6
Continuous
 62
     7
370
     9
100
AcDbLine
 10
-285.913040904363
 20
291.9063183872107
 30
0.0
 11
-299.8633022008156
 21
291.9063183872107
 31
0.0
  0
LINE
  5
36C
330
1F
100
AcDbEntity
  8
D-E
  6
Continuous
 62
     7
370
     9
100
AcDbLine
 10
-315.9132883441856
 20
290.8562332679116
 30
0.0
 11
-329.8634011767447
 21
290.8562332679116
 31
0.0
  0
LINE
  5
36D
330
1F
100
AcDbEntity
  8
D-E
  6
Continuous
 62
     7
370
     9
100
AcDbLine
 10
-315.9132883441856
 20
291.9063183872107
 30
0.0
 11
-329.8634011767447
 21
291.9063183872107
 31
0.0
  0
LINE
  5
36E
330
1F
100
AcDbEntity
  8
D-E
  6
Continuous
 62
     7
370
     9
100
AcDbLine
 10
-353.4140801516181
 20
216.9062194112817
 30
0.0
 11
-353.4140801516181
 21
230.8563322438408
 31
0.0
  0
LINE
  5
36F
330
1F
100
AcDbEntity
  8
D-E
  6
Continuous
 62
     7
370
     9
100
AcDbLine
 10
-352.3641434962125
 20
216.9062194112817
 30
0.0
 11
-352.3641434962125
 21
230.8563322438408
 31
0.0
  0
LINE
  5
370
330
1F
100
AcDbEntity
  8
D-E
  6
Continuous
 62
     7
370
     9
100
AcDbLine
 10
-353.4140801516181
 20
246.9062441552639
 30
0.0
 11
-353.4140801516181
 21
260.8563569878229
 31
0.0
  0
LINE
  5
371
330
1F
100
AcDbEntity
  8
D-E
  6
Continuous
 62
     7
370
     9
100
AcDbLine
 10
-352.3641434962125
 20
246.9062441552639
 30
0.0
 11
-352.3641434962125
 21
260.8563569878229
 31
0.0
  0
LINE
  5
372
330
1F
100
AcDbEntity
  8
D-E
  6
Continuous
 62
     7
370
     9
100
AcDbLine
 10
-353.4140801516181
 20
276.9062688992461
 30
0.0
 11
-353.4140801516181
 21
290.8562332679116
 31
0.0
  0
LINE
  5
373
330
1F
100
AcDbEntity
  8
D-E
  6
Continuous
 62
     7
370
     9
100
AcDbLine
 10
-352.3641434962125
 20
276.9062688992461
 30
0.0
 11
-352.3641434962125
 21
290.8562332679116
 31
0.0
  0
LINE
  5
374
330
1F
100
AcDbEntity
  8
D-E
  6
Continuous
 62
     7
370
     9
100
AcDbLine
 10
-353.4140801516181
 20
231.9063431311929
 30
0.0
 11
-353.4140801516181
 21
245.8563817318052
 31
0.0
  0
LINE
  5
375
330
1F
100
AcDbEntity
  8
D-E
  6
Continuous
 62
     7
370
     9
100
AcDbLine
 10
-352.3641434962125
 20
231.9063431311929
 30
0.0
 11
-352.3641434962125
 21
245.8563817318052
 31
0.0
  0
LINE
  5
376
330
1F
100
AcDbEntity
  8
D-E
  6
Continuous
 62
     7
370
     9
100
AcDbLine
 10
-352.3641434962125
 20
261.9065163390687
 30
0.0
 11
-352.3641434962125
 21
275.8562580118941
 31
0.0
  0
LINE
  5
377
330
1F
100
AcDbEntity
  8
D-E
  6
Continuous
 62
     7
370
     9
100
AcDbLine
 10
-353.4139316877244
 20
261.9065163390687
 30
0.0
 11
-353.4139316877244
 21
275.8562580118941
 31
0.0
  0
LINE
  5
378
330
1F
100
AcDbEntity
  8
D-E
  6
Continuous
 62
     7
370
     9
100
AcDbLine
 10
-353.4140801516181
 20
291.9063183872107
 30
0.0
 11
-353.4140801516181
 21
297.1562985920248
 31
0.0
  0
LINE
  5
379
330
1F
100
AcDbEntity
  8
D-E
  6
Continuous
 62
     7
370
     9
100
AcDbLine
 10
-352.3641434962125
 20
291.9063183872107
 30
0.0
 11
-352.3641434962125
 21
297.1562985920248
 31
0.0
  0
LINE
  5
37A
330
1F
100
AcDbEntity
  8
D-E
  6
Continuous
 62
     7
370
     9
100
AcDbLine
 10
-353.4140801516181
 20
209.4064173631397
 30
0.0
 11
-360.3123065029694
 21
209.4064173631397
 31
0.0
  0
LINE
  5
37B
330
1F
100
AcDbEntity
  8
D-E
  6
Continuous
 62
     7
370
     9
100
AcDbLine
 10
-353.4140801516181
 20
208.3563322438406
 30
0.0
 11
-360.3123065029694
 21
208.3563322438406
 31
0.0
  0
LINE
  5
37C
330
1F
100
AcDbEntity
  8
D-E
  6
Continuous
 62
     7
370
     9
100
AcDbLine
 10
-353.4140801516181
 20
223.356159035965
 30
0.0
 11
-360.3123065029694
 21
223.356159035965
 31
0.0
  0
LINE
  5
37D
330
1F
100
AcDbEntity
  8
D-E
  6
Continuous
 62
     7
370
     9
100
AcDbLine
 10
-353.4140801516181
 20
224.4063183872107
 30
0.0
 11
-360.3123065029694
 21
224.4063183872107
 31
0.0
  0
LINE
  5
37E
330
1F
100
AcDbEntity
  8
D-E
  6
Continuous
 62
     7
370
     9
100
AcDbLine
 10
-353.4140801516181
 20
239.4062936432284
 30
0.0
 11
-360.3123065029694
 21
239.4062936432284
 31
0.0
  0
LINE
  5
37F
330
1F
100
AcDbEntity
  8
D-E
  6
Continuous
 62
     7
370
     9
100
AcDbLine
 10
-353.4140801516181
 20
238.3564312197696
 30
0.0
 11
-360.3123065029694
 21
238.3564312197696
 31
0.0
  0
LINE
  5
380
330
1F
100
AcDbEntity
  8
D-E
  6
Continuous
 62
     7
370
     9
100
AcDbLine
 10
-353.4140801516181
 20
253.3561837799472
 30
0.0
 11
-360.3123065029694
 21
253.3561837799472
 31
0.0
  0
LINE
  5
381
330
1F
100
AcDbEntity
  8
D-E
  6
Continuous
 62
     7
370
     9
100
AcDbLine
 10
-353.4140801516181
 20
254.4062688992462
 30
0.0
 11
-360.3123065029694
 21
254.4062688992462
 31
0.0
  0
LINE
  5
382
330
1F
100
AcDbEntity
  8
D-E
  6
Continuous
 62
     7
370
     9
100
AcDbLine
 10
-353.4140801516181
 20
269.4063183872107
 30
0.0
 11
-360.3123065029694
 21
269.4063183872107
 31
0.0
  0
LINE
  5
383
330
1F
100
AcDbEntity
  8
D-E
  6
Continuous
 62
     7
370
     9
100
AcDbLine
 10
-353.4140801516181
 20
268.3563074998584
 30
0.0
 11
-360.3123065029694
 21
268.3563074998584
 31
0.0
  0
LINE
  5
384
330
1F
100
AcDbEntity
  8
D-E
  6
Continuous
 62
     7
370
     9
100
AcDbLine
 10
-345.9136842479015
 20
215.8564312197699
 30
0.0
 11
-360.3123065029694
 21
215.8564312197699
 31
0.0
  0
LINE
  5
385
330
1F
100
AcDbEntity
  8
D-E
  6
Continuous
 62
     7
370
     9
100
AcDbLine
 10
-345.9136842479015
 20
216.9062194112817
 30
0.0
 11
-360.3123065029694
 21
216.9062194112817
 31
0.0
  0
LINE
  5
386
330
1F
100
AcDbEntity
  8
D-E
  6
Continuous
 62
     7
370
     9
100
AcDbLine
 10
-345.9136842479015
 20
230.8563322438408
 30
0.0
 11
-360.3123065029694
 21
230.8563322438408
 31
0.0
  0
LINE
  5
387
330
1F
100
AcDbEntity
  8
D-E
  6
Continuous
 62
     7
370
     9
100
AcDbLine
 10
-345.9136842479015
 20
231.9063431311929
 30
0.0
 11
-360.3123065029694
 21
231.9063431311929
 31
0.0
  0
LINE
  5
388
330
1F
100
AcDbEntity
  8
D-E
  6
Continuous
 62
     7
370
     9
100
AcDbLine
 10
-345.9136842479015
 20
245.8563817318052
 30
0.0
 11
-360.3123065029694
 21
245.8563817318052
 31
0.0
  0
LINE
  5
389
330
1F
100
AcDbEntity
  8
D-E
  6
Continuous
 62
     7
370
     9
100
AcDbLine
 10
-345.9136842479015
 20
246.9062441552639
 30
0.0
 11
-360.3123065029694
 21
246.9062441552639
 31
0.0
  0
LINE
  5
38A
330
1F
100
AcDbEntity
  8
D-E
  6
Continuous
 62
     7
370
     9
100
AcDbLine
 10
-345.9136842479015
 20
260.8563569878229
 30
0.0
 11
-360.3123065029694
 21
260.8563569878229
 31
0.0
  0
LINE
  5
38B
330
1F
100
AcDbEntity
  8
D-E
  6
Continuous
 62
     7
370
     9
100
AcDbLine
 10
-345.9136842479015
 20
261.9062194112818
 30
0.0
 11
-360.3123065029694
 21
261.9062194112818
 31
0.0
  0
LINE
  5
38C
330
1F
100
AcDbEntity
  8
D-E
  6
Continuous
 62
     7
370
     9
100
AcDbLine
 10
-345.9136842479015
 20
275.8564064757874
 30
0.0
 11
-360.3123065029694
 21
275.8564064757874
 31
0.0
  0
LINE
  5
38D
330
1F
100
AcDbEntity
  8
D-E
  6
Continuous
 62
     7
370
     9
100
AcDbLine
 10
-345.9136842479015
 20
276.9062688992461
 30
0.0
 11
-360.3123065029694
 21
276.9062688992461
 31
0.0
  0
LINE
  5
38E
330
1F
100
AcDbEntity
  8
D-E
  6
Continuous
 62
     7
370
     9
100
AcDbLine
 10
-353.4140801516181
 20
283.3562085239295
 30
0.0
 11
-360.3123065029694
 21
283.3562085239295
 31
0.0
  0
LINE
  5
38F
330
1F
100
AcDbEntity
  8
D-E
  6
Continuous
 62
     7
370
     9
100
AcDbLine
 10
-353.4140801516181
 20
284.4062194112818
 30
0.0
 11
-360.3123065029694
 21
284.4062194112818
 31
0.0
  0
LINE
  5
390
330
1F
100
AcDbEntity
  8
D-E
  6
Continuous
 62
     7
370
     9
100
AcDbLine
 10
-336.2958220619853
 20
207.0954283956566
 30
0.0
 11
-316.0215927545531
 21
225.2902724095924
 31
0.0
  0
LINE
  5
391
330
1F
100
AcDbEntity
  8
D-E
  6
Continuous
 62
     7
370
     9
100
AcDbLine
 10
-316.0215927545531
 20
225.2902724095924
 30
0.0
 11
-293.1480575983031
 21
261.1600398821431
 31
0.0
  0
LINE
  5
392
330
1F
100
AcDbEntity
  8
D-E
  6
Continuous
 62
     7
370
     9
100
AcDbLine
 10
-281.3047216476062
 20
291.9063183872107
 30
0.0
 11
-284.8629557850639
 21
291.9063183872107
 31
0.0
  0
LINE
  5
393
330
1F
100
AcDbEntity
  8
D-E
  6
Continuous
 62
     7
370
     9
100
AcDbLine
 10
-281.6568780031803
 20
290.8562332679116
 30
0.0
 11
-284.8629557850639
 21
290.8562332679116
 31
0.0
  0
LINE
  5
394
330
1F
100
AcDbEntity
  8
D-E
  6
Continuous
 62
     7
370
     9
100
AcDbLine
 10
-284.8629557850639
 20
282.5709087588324
 30
0.0
 11
-284.8629557850639
 21
283.3562085239295
 31
0.0
  0
LINE
  5
395
330
1F
100
AcDbEntity
  8
D-E
  6
Continuous
 62
     7
370
     9
100
AcDbLine
 10
-285.913040904363
 20
279.857359943904
 30
0.0
 11
-285.913040904363
 21
283.3562085239295
 31
0.0
  0
LINE
  5
396
330
1F
100
AcDbEntity
  8
D-E
  6
Continuous
 62
     7
370
     9
100
AcDbLine
 10
-292.3632032248862
 20
263.1884278281947
 30
0.0
 11
-292.3632032248862
 21
275.8562580118941
 31
0.0
  0
LINE
  5
397
330
1F
100
AcDbEntity
  8
D-E
  6
Continuous
 62
     7
370
     9
100
AcDbLine
 10
-289.957123133565
 20
269.4063183872107
 30
0.0
 11
-292.3632032248862
 21
269.4063183872107
 31
0.0
  0
LINE
  5
398
330
1F
100
AcDbEntity
  8
D-E
  6
Continuous
 62
     7
370
     9
100
AcDbLine
 10
-290.3633945783494
 20
268.3563074998584
 30
0.0
 11
-292.3632032248862
 21
268.3563074998584
 31
0.0
  0
LINE
  5
399
330
1F
100
AcDbEntity
  8
D-E
  6
Continuous
 62
     7
370
     9
100
AcDbLine
 10
-284.5591244268503
 20
283.3562085239295
 30
0.0
 11
-292.3632032248862
 21
283.3562085239295
 31
0.0
  0
LINE
  5
39A
330
1F
100
AcDbEntity
  8
D-E
  6
Continuous
 62
     7
370
     9
100
AcDbLine
 10
-284.152778750119
 20
284.4062194112818
 30
0.0
 11
-292.3632032248862
 21
284.4062194112818
 31
0.0
  0
LINE
  5
39B
330
1F
100
AcDbEntity
  8
D-E
  6
Continuous
 62
     7
370
     9
100
AcDbLine
 10
-287.4612966185731
 20
275.8561837799472
 30
0.0
 11
-299.8631537369218
 21
275.8561837799472
 31
0.0
  0
LINE
  5
39C
330
1F
100
AcDbEntity
  8
D-E
  6
Continuous
 62
     7
370
     9
100
AcDbLine
 10
-287.0549509418421
 20
276.9062688992461
 30
0.0
 11
-299.8631537369218
 21
276.9062688992461
 31
0.0
  0
LINE
  5
39D
330
1F
100
AcDbEntity
  8
D-E
  6
Continuous
 62
     7
370
     9
100
AcDbLine
 10
-293.1480575983031
 20
261.1600398821431
 30
0.0
 11
-281.4664730596628
 21
291.348391075133
 31
0.0
  0
LINE
  5
39E
330
1F
100
AcDbEntity
  8
D-E
  6
Continuous
 62
     7
370
     9
100
AcDbLine
 10
-292.8593695572343
 20
261.9062194112818
 30
0.0
 11
-299.8631537369218
 21
261.9062194112818
 31
0.0
  0
LINE
  5
39F
330
1F
100
AcDbEntity
  8
D-E
  6
Continuous
 62
     7
370
     9
100
AcDbLine
 10
-293.3417287474794
 20
260.8563569878229
 30
0.0
 11
-299.8631537369218
 21
260.8563569878229
 31
0.0
  0
LINE
  5
3A0
330
1F
100
AcDbEntity
  8
D-E
  6
Continuous
 62
     7
370
     9
100
AcDbLine
 10
-293.413436808079
 20
260.7439698203822
 30
0.0
 11
-293.413436808079
 21
260.8563569878229
 31
0.0
  0
LINE
  5
3A1
330
1F
100
AcDbEntity
  8
D-E
  6
Continuous
 62
     7
370
     9
100
AcDbLine
 10
-307.0200041908915
 20
239.4062936432284
 30
0.0
 11
-307.3632527128509
 21
239.4062936432284
 31
0.0
  0
LINE
  5
3A2
330
1F
100
AcDbEntity
  8
D-E
  6
Continuous
 62
     7
370
     9
100
AcDbLine
 10
-298.1244930791941
 20
253.3561837799472
 30
0.0
 11
-307.3632527128509
 21
253.3561837799472
 31
0.0
  0
LINE
  5
3A3
330
1F
100
AcDbEntity
  8
D-E
  6
Continuous
 62
     7
370
     9
100
AcDbLine
 10
-297.4547724552493
 20
254.4062688992462
 30
0.0
 11
-307.3632527128509
 21
254.4062688992462
 31
0.0
  0
LINE
  5
3A4
330
1F
100
AcDbEntity
  8
D-E
  6
Continuous
 62
     7
370
     9
100
AcDbLine
 10
-302.9069604831212
 20
245.8563817318052
 30
0.0
 11
-314.8632032248865
 21
245.8563817318052
 31
0.0
  0
LINE
  5
3A5
330
1F
100
AcDbEntity
  8
D-E
  6
Continuous
 62
     7
370
     9
100
AcDbLine
 10
-302.2374625550175
 20
246.9062441552639
 30
0.0
 11
-314.8632032248865
 21
246.9062441552639
 31
0.0
  0
LINE
  5
3A6
330
1F
100
AcDbEntity
  8
D-E
  6
Continuous
 62
     7
370
     9
100
AcDbLine
 10
-299.8633022008156
 20
250.6292732145967
 30
0.0
 11
-299.8633022008156
 21
253.3561837799472
 31
0.0
  0
LINE
  5
3A7
330
1F
100
AcDbEntity
  8
D-E
  6
Continuous
 62
     7
370
     9
100
AcDbLine
 10
-300.9130903923275
 20
248.9830313306228
 30
0.0
 11
-300.9130903923275
 21
253.3561837799472
 31
0.0
  0
LINE
  5
3A8
330
1F
100
AcDbEntity
  8
D-E
  6
Continuous
 62
     7
370
     9
100
AcDbLine
 10
-307.3632527128509
 20
238.8680377970501
 30
0.0
 11
-307.3632527128509
 21
245.8563817318052
 31
0.0
  0
LINE
  5
3A9
330
1F
100
AcDbEntity
  8
D-E
  6
Continuous
 62
     7
370
     9
100
AcDbLine
 10
-308.41333783215
 20
237.2214247533424
 30
0.0
 11
-308.41333783215
 21
245.8563817318052
 31
0.0
  0
LINE
  5
3AA
330
1F
100
AcDbEntity
  8
D-E
  6
Continuous
 62
     7
370
     9
100
AcDbLine
 10
-311.8026200587125
 20
231.9063431311929
 30
0.0
 11
-314.8632032248865
 21
231.9063431311929
 31
0.0
  0
LINE
  5
3AB
330
1F
100
AcDbEntity
  8
D-E
  6
Continuous
 62
     7
370
     9
100
AcDbLine
 10
-314.8632032248865
 20
227.1068023795037
 30
0.0
 11
-314.8632032248865
 21
238.3564312197696
 31
0.0
  0
LINE
  5
3AC
330
1F
100
AcDbEntity
  8
D-E
  6
Continuous
 62
     7
370
     9
100
AcDbLine
 10
-315.913436808079
 20
225.459818176062
 30
0.0
 11
-315.913436808079
 21
238.3564312197696
 31
0.0
  0
LINE
  5
3AD
330
1F
100
AcDbEntity
  8
D-E
  6
Continuous
 62
     7
370
     9
100
AcDbLine
 10
-312.4721922187631
 20
230.8563322438408
 30
0.0
 11
-314.8632032248865
 21
230.8563322438408
 31
0.0
  0
LINE
  5
3AE
330
1F
100
AcDbEntity
  8
D-E
  6
Continuous
 62
     7
370
     9
100
AcDbLine
 10
-323.4136842479015
 20
218.6563860207621
 30
0.0
 11
-323.4136842479015
 21
230.8563322438408
 31
0.0
  0
LINE
  5
3AF
330
1F
100
AcDbEntity
  8
D-E
  6
Continuous
 62
     7
370
     9
100
AcDbLine
 10
-322.3635991286028
 20
219.5986863533213
 30
0.0
 11
-322.3635991286028
 21
230.8563322438408
 31
0.0
  0
LINE
  5
3B0
330
1F
100
AcDbEntity
  8
D-E
  6
Continuous
 62
     7
370
     9
100
AcDbLine
 10
-333.7207158278216
 20
209.4064173631397
 30
0.0
 11
-337.3637970804606
 21
209.4064173631397
 31
0.0
  0
LINE
  5
3B1
330
1F
100
AcDbEntity
  8
D-E
  6
Continuous
 62
     7
370
     9
100
AcDbLine
 10
-334.8908340050809
 20
208.3563322438406
 30
0.0
 11
-337.3637970804606
 21
208.3563322438406
 31
0.0
  0
LINE
  5
3B2
330
1F
100
AcDbEntity
  8
D-E
  6
Continuous
 62
     7
370
     9
100
AcDbLine
 10
-329.8635496406381
 20
212.8679272739295
 30
0.0
 11
-329.8635496406381
 21
223.356159035965
 31
0.0
  0
LINE
  5
3B3
330
1F
100
AcDbEntity
  8
D-E
  6
Continuous
 62
     7
370
     9
100
AcDbLine
 10
-330.9136347599372
 20
211.9256269413703
 30
0.0
 11
-330.9136347599372
 21
223.356159035965
 31
0.0
  0
LINE
  5
3B4
330
1F
100
AcDbEntity
  8
D-E
  6
Continuous
 62
     7
370
     9
100
AcDbLine
 10
-318.1767688657225
 20
223.356159035965
 30
0.0
 11
-322.3634506647094
 21
223.356159035965
 31
0.0
  0
LINE
  5
3B5
330
1F
100
AcDbEntity
  8
D-E
  6
Continuous
 62
     7
370
     9
100
AcDbLine
 10
-317.0065764565165
 20
224.4063183872107
 30
0.0
 11
-322.3634506647094
 21
224.4063183872107
 31
0.0
  0
LINE
  5
3B6
330
1F
100
AcDbEntity
  8
D-E
  6
Continuous
 62
     7
370
     9
100
AcDbLine
 10
-326.5338014354015
 20
215.8562085239295
 30
0.0
 11
-329.8634011767447
 21
215.8562085239295
 31
0.0
  0
LINE
  5
3B7
330
1F
100
AcDbEntity
  8
D-E
  6
Continuous
 62
     7
370
     9
100
AcDbLine
 10
-325.363757490089
 20
216.9062194112817
 30
0.0
 11
-329.8634011767447
 21
216.9062194112817
 31
0.0
  0
LINE
  5
3B8
330
1F
100
AcDbEntity
  8
D-E
  6
Continuous
 62
     7
370
     9
100
AcDbLine
 10
-345.9139811756887
 20
205.7335690998373
 30
0.0
 11
-345.9139811756887
 21
208.3563322438406
 31
0.0
  0
LINE
  5
3B9
330
1F
100
AcDbEntity
  8
D-E
  6
Continuous
 62
     7
370
     9
100
AcDbLine
 10
-344.8637475924962
 20
205.8822556892588
 30
0.0
 11
-344.8637475924962
 21
208.3563322438406
 31
0.0
  0
LINE
  5
3BA
330
1F
100
AcDbEntity
  8
D-E
  6
Continuous
 62
     7
370
     9
100
AcDbLine
 10
-338.4137337358662
 20
206.7955313306228
 30
0.0
 11
-338.4137337358662
 21
215.8564312197699
 31
0.0
  0
LINE
  5
3BB
330
1F
100
AcDbEntity
  8
D-E
  6
Continuous
 62
     7
370
     9
100
AcDbLine
 10
-337.3637970804606
 20
206.9442179200443
 30
0.0
 11
-337.3637970804606
 21
215.8564312197699
 31
0.0
  0
LINE
  5
3BC
330
1F
100
AcDbEntity
  8
D-E
  6
Continuous
 62
     7
370
     9
100
AcDbLine
 10
-353.4140801516181
 20
204.6716068690519
 30
0.0
 11
-353.4140801516181
 21
215.8564312197699
 31
0.0
  0
LINE
  5
3BD
330
1F
100
AcDbEntity
  8
D-E
  6
Continuous
 62
     7
370
     9
100
AcDbLine
 10
-352.3641434962125
 20
204.8202934584734
 30
0.0
 11
-352.3641434962125
 21
215.8564312197699
 31
0.0
  0
CIRCLE
  5
3BE
330
1F
100
AcDbEntity
  8
D-E
  6
Continuous
 62
     7
370
     9
100
AcDbCircle
 10
-285.3879241127665
 20
297.1562985920248
 30
0.0
 40
0.5250000067659327
  0
CIRCLE
  5
3BF
330
1F
100
AcDbEntity
  8
D-E
  6
Continuous
 62
     7
370
     9
100
AcDbCircle
 10
-315.3883200164828
 20
297.1562985920248
 30
0.0
 40
0.5250000067659327
  0
CIRCLE
  5
3C0
330
1F
100
AcDbEntity
  8
D-E
  6
Continuous
 62
     7
370
     9
100
AcDbCircle
 10
-307.8883695044475
 20
297.1562985920248
 30
0.0
 40
0.5250000067659327
  0
CIRCLE
  5
3C1
330
1F
100
AcDbEntity
  8
D-E
  6
Continuous
 62
     7
370
     9
100
AcDbCircle
 10
-300.3882705285181
 20
297.1562985920248
 30
0.0
 40
0.5250000067659327
  0
CIRCLE
  5
3C2
330
1F
100
AcDbEntity
  8
D-E
  6
Continuous
 62
     7
370
     9
100
AcDbCircle
 10
-292.8880230886956
 20
297.1562985920248
 30
0.0
 40
0.5250000067659327
  0
CIRCLE
  5
3C3
330
1F
100
AcDbEntity
  8
D-E
  6
Continuous
 62
     7
370
     9
100
AcDbCircle
 10
-345.3888643840928
 20
297.1562985920248
 30
0.0
 40
0.5250000067659327
  0
CIRCLE
  5
3C4
330
1F
100
AcDbEntity
  8
D-E
  6
Continuous
 62
     7
370
     9
100
AcDbCircle
 10
-337.8889138720572
 20
297.1562985920248
 30
0.0
 40
0.5250000067659327
  0
CIRCLE
  5
3C5
330
1F
100
AcDbEntity
  8
D-E
  6
Continuous
 62
     7
370
     9
100
AcDbCircle
 10
-330.3886664322343
 20
297.1562985920248
 30
0.0
 40
0.5250000067659327
  0
CIRCLE
  5
3C6
330
1F
100
AcDbEntity
  8
D-E
  6
Continuous
 62
     7
370
     9
100
AcDbCircle
 10
-322.8885674563056
 20
297.1562985920248
 30
0.0
 40
0.5250000067659327
  0
CIRCLE
  5
3C7
330
1F
100
AcDbEntity
  8
D-E
  6
Continuous
 62
     7
370
     9
100
AcDbCircle
 10
-352.8889633600219
 20
297.1562985920248
 30
0.0
 40
0.5250000067659327
  0
LINE
  5
3C8
330
1F
100
AcDbEntity
  8
D-E
  6
Continuous
 62
     7
370
     9
100
AcDbLine
 10
-345.9136842479015
 20
291.9063183872107
 30
0.0
 11
-359.2321850720612
 21
291.9063183872107
 31
0.0
  0
LINE
  5
3C9
330
1F
100
AcDbEntity
  8
D-E
  6
Continuous
 62
     7
370
     9
100
AcDbLine
 10
-345.9136842479015
 20
290.8562332679116
 30
0.0
 11
-359.7146871547513
 21
290.8562332679116
 31
0.0
  0
LINE
  5
3CA
330
1F
100
AcDbEntity
  8
D-E
  6
Continuous
 62
     7
370
     9
100
AcDbLine
 10
-281.4664730596628
 20
291.348391075133
 30
0.0
 11
-277.9327190131006
 21
303.5386845459529
 31
0.0
  0
LINE
  5
3CB
330
1F
100
AcDbEntity
  8
D-E
  6
Continuous
 62
     7
370
     9
100
AcDbLine
 10
-368.3215597587979
 20
202.5608432541977
 30
0.0
 11
-336.2958220619853
 21
207.0954283956566
 31
0.0
  0
LINE
  5
3CC
330
1F
100
AcDbEntity
  8
D-E
  6
Continuous
 62
     7
370
     9
100
AcDbLine
 10
-333.2088865547006
 20
-122.7080477428556
 30
0.0
 11
-347.15899938726
 21
-122.7080477428556
 31
0.0
  0
LINE
  5
3CD
330
1F
100
AcDbEntity
  8
D-E
  6
Continuous
 62
     7
370
     9
100
AcDbLine
 10
-333.2088865547006
 20
-121.6579997395299
 30
0.0
 11
-347.15899938726
 21
-121.6579997395299
 31
0.0
  0
LINE
  5
3CE
330
1F
100
AcDbEntity
  8
D-E
  6
Continuous
 62
     7
370
     9
100
AcDbLine
 10
-340.7086886028428
 20
-130.2078869069707
 30
0.0
 11
-354.6588756673484
 21
-130.2078869069707
 31
0.0
  0
LINE
  5
3CF
330
1F
100
AcDbEntity
  8
D-E
  6
Continuous
 62
     7
370
     9
100
AcDbLine
 10
-340.7086886028428
 20
-129.1580244835121
 30
0.0
 11
-354.6588756673484
 21
-129.1580244835121
 31
0.0
  0
LINE
  5
3D0
330
1F
100
AcDbEntity
  8
D-E
  6
Continuous
 62
     7
370
     9
100
AcDbLine
 10
-340.7086886028428
 20
-136.6579007636008
 30
0.0
 11
-340.7086886028428
 21
-122.7080477428556
 31
0.0
  0
LINE
  5
3D1
330
1F
100
AcDbEntity
  8
D-E
  6
Continuous
 62
     7
370
     9
100
AcDbLine
 10
-355.7088865547006
 20
-129.1580244835121
 30
0.0
 11
-355.8123658885265
 21
-129.1580244835121
 31
0.0
  0
LINE
  5
3D2
330
1F
100
AcDbEntity
  8
D-E
  6
Continuous
 62
     7
370
     9
100
AcDbLine
 10
-355.7088865547006
 20
-130.2078869069707
 30
0.0
 11
-355.8123658885265
 21
-130.2078869069707
 31
0.0
  0
LINE
  5
3D3
330
1F
100
AcDbEntity
  8
D-E
  6
Continuous
 62
     7
370
     9
100
AcDbLine
 10
-348.2090845065587
 20
-136.6579007636008
 30
0.0
 11
-355.8123658885265
 21
-136.6579007636008
 31
0.0
  0
LINE
  5
3D4
330
1F
100
AcDbEntity
  8
D-E
  6
Continuous
 62
     7
370
     9
100
AcDbLine
 10
-348.2090845065587
 20
-137.7079116509531
 30
0.0
 11
-355.8123658885265
 21
-137.7079116509531
 31
0.0
  0
LINE
  5
3D5
330
1F
100
AcDbEntity
  8
D-E
  6
Continuous
 62
     7
370
     9
100
AcDbLine
 10
-355.7088865547006
 20
-144.1579626235566
 30
0.0
 11
-355.8123658885265
 21
-144.1579626235566
 31
0.0
  0
LINE
  5
3D6
330
1F
100
AcDbEntity
  8
D-E
  6
Continuous
 62
     7
370
     9
100
AcDbLine
 10
-355.7088865547006
 20
-145.207899278962
 30
0.0
 11
-355.8123658885265
 21
-145.207899278962
 31
0.0
  0
LINE
  5
3D7
330
1F
100
AcDbEntity
  8
D-E
  6
Continuous
 62
     7
370
     9
100
AcDbLine
 10
-308.9953162949878
 20
-102.7606245811683
 30
0.0
 11
-333.9258186968037
 21
-142.3118141068759
 31
0.0
  0
LINE
  5
3D8
330
1F
100
AcDbEntity
  8
D-E
  6
Continuous
 62
     7
370
     9
100
AcDbLine
 10
-339.6589004113309
 20
-136.6579007636008
 30
0.0
 11
-339.6589004113309
 21
-122.7080477428556
 31
0.0
  0
LINE
  5
3D9
330
1F
100
AcDbEntity
  8
D-E
  6
Continuous
 62
     7
370
     9
100
AcDbLine
 10
-347.15899938726
 20
-144.1579626235566
 30
0.0
 11
-347.15899938726
 21
-130.2078869069707
 31
0.0
  0
LINE
  5
3DA
330
1F
100
AcDbEntity
  8
D-E
  6
Continuous
 62
     7
370
     9
100
AcDbLine
 10
-348.2089360426653
 20
-144.1579626235566
 30
0.0
 11
-348.2089360426653
 21
-130.2078869069707
 31
0.0
  0
LINE
  5
3DB
330
1F
100
AcDbEntity
  8
D-E
  6
Continuous
 62
     7
370
     9
100
AcDbLine
 10
-355.7090350185944
 20
-72.60122384742678
 30
0.0
 11
-355.7090350185944
 21
-69.15819769138787
 31
0.0
  0
LINE
  5
3DC
330
1F
100
AcDbEntity
  8
D-E
  6
Continuous
 62
     7
370
     9
100
AcDbLine
 10
-325.7086391148781
 20
-129.2754965393082
 30
0.0
 11
-325.7086391148781
 21
-122.7080477428556
 31
0.0
  0
LINE
  5
3DD
330
1F
100
AcDbEntity
  8
D-E
  6
Continuous
 62
     7
370
     9
100
AcDbLine
 10
-324.658553995579
 20
-122.7080477428556
 30
0.0
 11
-324.658553995579
 21
-127.6095831894347
 31
0.0
  0
LINE
  5
3DE
330
1F
100
AcDbEntity
  8
D-E
  6
Continuous
 62
     7
370
     9
100
AcDbLine
 10
-321.5688719062631
 20
-122.7080477428556
 30
0.0
 11
-332.1588014354015
 21
-122.7080477428556
 31
0.0
  0
LINE
  5
3DF
330
1F
100
AcDbEntity
  8
D-E
  6
Continuous
 62
     7
370
     9
100
AcDbLine
 10
-320.9070198686787
 20
-121.6579997395299
 30
0.0
 11
-332.1588014354015
 21
-121.6579997395299
 31
0.0
  0
LINE
  5
3E0
330
1F
100
AcDbEntity
  8
D-E
  6
Continuous
 62
     7
370
     9
100
AcDbLine
 10
-326.2964076695656
 20
-130.2081096028112
 30
0.0
 11
-339.6587519474372
 21
-130.2081096028112
 31
0.0
  0
LINE
  5
3E1
330
1F
100
AcDbEntity
  8
D-E
  6
Continuous
 62
     7
370
     9
100
AcDbLine
 10
-325.7086391148781
 20
-129.1580244835121
 30
0.0
 11
-339.6587519474372
 21
-129.1580244835121
 31
0.0
  0
LINE
  5
3E2
330
1F
100
AcDbEntity
  8
D-E
  6
Continuous
 62
     7
370
     9
100
AcDbLine
 10
-332.1590983631887
 20
-139.5088529120383
 30
0.0
 11
-332.1590983631887
 21
-130.2081096028112
 31
0.0
  0
LINE
  5
3E3
330
1F
100
AcDbEntity
  8
D-E
  6
Continuous
 62
     7
370
     9
100
AcDbLine
 10
-333.2090350185944
 20
-141.1746549139915
 30
0.0
 11
-333.2090350185944
 21
-130.2081096028112
 31
0.0
  0
LINE
  5
3E4
330
1F
100
AcDbEntity
  8
D-E
  6
Continuous
 62
     7
370
     9
100
AcDbLine
 10
-333.2090350185944
 20
-136.6579007636008
 30
0.0
 11
-347.15899938726
 21
-136.6579007636008
 31
0.0
  0
LINE
  5
3E5
330
1F
100
AcDbEntity
  8
D-E
  6
Continuous
 62
     7
370
     9
100
AcDbLine
 10
-333.2090350185944
 20
-137.7079116509531
 30
0.0
 11
-347.1590736192065
 21
-137.7079116509531
 31
0.0
  0
LINE
  5
3E6
330
1F
100
AcDbEntity
  8
D-E
  6
Continuous
 62
     7
370
     9
100
AcDbLine
 10
-348.2089360426653
 20
-145.207899278962
 30
0.0
 11
-348.2089360426653
 21
-153.8657196970362
 31
0.0
  0
LINE
  5
3E7
330
1F
100
AcDbEntity
  8
D-E
  6
Continuous
 62
     7
370
     9
100
AcDbLine
 10
-340.7086886028428
 20
-137.7079116509531
 30
0.0
 11
-340.7086886028428
 21
-147.7985942219518
 31
0.0
  0
LINE
  5
3E8
330
1F
100
AcDbEntity
  8
D-E
  6
Continuous
 62
     7
370
     9
100
AcDbLine
 10
-339.6589004113309
 20
-137.7079116509531
 30
0.0
 11
-339.6589004113309
 21
-146.9493436346946
 31
0.0
  0
LINE
  5
3E9
330
1F
100
AcDbEntity
  8
D-E
  6
Continuous
 62
     7
370
     9
100
AcDbLine
 10
-336.2081541328256
 20
-144.1579626235566
 30
0.0
 11
-339.6589004113309
 21
-144.1579626235566
 31
0.0
  0
LINE
  5
3EA
330
1F
100
AcDbEntity
  8
D-E
  6
Continuous
 62
     7
370
     9
100
AcDbLine
 10
-340.7086886028428
 20
-144.1579626235566
 30
0.0
 11
-354.6588756673484
 21
-144.1579626235566
 31
0.0
  0
LINE
  5
3EB
330
1F
100
AcDbEntity
  8
D-E
  6
Continuous
 62
     7
370
     9
100
AcDbLine
 10
-337.5060254905115
 20
-145.207899278962
 30
0.0
 11
-339.6589004113309
 21
-145.207899278962
 31
0.0
  0
LINE
  5
3EC
330
1F
100
AcDbEntity
  8
D-E
  6
Continuous
 62
     7
370
     9
100
AcDbLine
 10
-340.7086886028428
 20
-145.207899278962
 30
0.0
 11
-354.6588756673484
 21
-145.207899278962
 31
0.0
  0
LINE
  5
3ED
330
1F
100
AcDbEntity
  8
D-E
  6
Continuous
 62
     7
370
     9
100
AcDbLine
 10
-347.15899938726
 20
-145.207899278962
 30
0.0
 11
-347.15899938726
 21
-153.0163206458855
 31
0.0
  0
LINE
  5
3EE
330
1F
100
AcDbEntity
  8
D-E
  6
Continuous
 62
     7
370
     9
100
AcDbLine
 10
-345.479724286964
 20
-151.6579502515655
 30
0.0
 11
-347.15899938726
 21
-151.6579502515655
 31
0.0
  0
LINE
  5
3EF
330
1F
100
AcDbEntity
  8
D-E
  6
Continuous
 62
     7
370
     9
100
AcDbLine
 10
-346.7776698765969
 20
-152.7078869069707
 30
0.0
 11
-347.15899938726
 21
-152.7078869069707
 31
0.0
  0
LINE
  5
3F0
330
1F
100
AcDbEntity
  8
D-E
  6
Continuous
 62
     7
370
     9
100
AcDbLine
 10
-348.2089360426653
 20
-152.7078869069707
 30
0.0
 11
-355.8123658885265
 21
-152.7078869069707
 31
0.0
  0
LINE
  5
3F1
330
1F
100
AcDbEntity
  8
D-E
  6
Continuous
 62
     7
370
     9
100
AcDbLine
 10
-348.2089360426653
 20
-151.6579502515655
 30
0.0
 11
-355.8123658885265
 21
-151.6579502515655
 31
0.0
  0
LINE
  5
3F2
330
1F
100
AcDbEntity
  8
D-E
  6
Continuous
 62
     7
370
     9
100
AcDbLine
 10
-355.7090350185944
 20
-159.9326595922538
 30
0.0
 11
-355.7090350185944
 21
-152.7078869069707
 31
0.0
  0
LINE
  5
3F3
330
1F
100
AcDbEntity
  8
D-E
  6
Continuous
 62
     7
370
     9
100
AcDbLine
 10
-355.7090350185944
 20
-151.6579502515655
 30
0.0
 11
-355.7090350185944
 21
-137.7079116509531
 31
0.0
  0
LINE
  5
3F4
330
1F
100
AcDbEntity
  8
D-E
  6
Continuous
 62
     7
370
     9
100
AcDbLine
 10
-354.6588756673484
 20
-159.0831491931827
 30
0.0
 11
-354.6588756673484
 21
-152.7078869069707
 31
0.0
  0
LINE
  5
3F5
330
1F
100
AcDbEntity
  8
D-E
  6
Continuous
 62
     7
370
     9
100
AcDbLine
 10
-354.6588756673484
 20
-151.6579502515655
 30
0.0
 11
-354.6588756673484
 21
-137.7079116509531
 31
0.0
  0
LINE
  5
3F6
330
1F
100
AcDbEntity
  8
D-E
  6
Continuous
 62
     7
370
     9
100
AcDbLine
 10
-348.2090845065587
 20
-121.6579997395299
 30
0.0
 11
-355.8123658885265
 21
-121.6579997395299
 31
0.0
  0
LINE
  5
3F7
330
1F
100
AcDbEntity
  8
D-E
  6
Continuous
 62
     7
370
     9
100
AcDbLine
 10
-348.2090845065587
 20
-122.7080477428556
 30
0.0
 11
-355.8123658885265
 21
-122.7080477428556
 31
0.0
  0
LINE
  5
3F8
330
1F
100
AcDbEntity
  8
D-E
  6
Continuous
 62
     7
370
     9
100
AcDbLine
 10
-354.6588756673484
 20
-136.6579007636008
 30
0.0
 11
-354.6588756673484
 21
-122.7080477428556
 31
0.0
  0
LINE
  5
3F9
330
1F
100
AcDbEntity
  8
D-E
  6
Continuous
 62
     7
370
     9
100
AcDbLine
 10
-355.7090350185944
 20
-136.6579007636008
 30
0.0
 11
-355.7089607866475
 21
-122.7080477428556
 31
0.0
  0
LINE
  5
3FA
330
1F
100
AcDbEntity
  8
D-E
  6
Continuous
 62
     7
370
     9
100
AcDbLine
 10
-355.7089607866475
 20
-115.2081714627668
 30
0.0
 11
-355.8123658885265
 21
-115.2081714627668
 31
0.0
  0
LINE
  5
3FB
330
1F
100
AcDbEntity
  8
D-E
  6
Continuous
 62
     7
370
     9
100
AcDbLine
 10
-355.7089607866475
 20
-114.1580863434677
 30
0.0
 11
-355.8123658885265
 21
-114.1580863434677
 31
0.0
  0
LINE
  5
3FC
330
1F
100
AcDbEntity
  8
D-E
  6
Continuous
 62
     7
370
     9
100
AcDbLine
 10
-348.2089360426653
 20
-129.1580244835121
 30
0.0
 11
-348.2090102746122
 21
-115.2081714627668
 31
0.0
  0
LINE
  5
3FD
330
1F
100
AcDbEntity
  8
D-E
  6
Continuous
 62
     7
370
     9
100
AcDbLine
 10
-347.15899938726
 20
-129.1580244835121
 30
0.0
 11
-347.15899938726
 21
-115.2081714627668
 31
0.0
  0
LINE
  5
3FE
330
1F
100
AcDbEntity
  8
D-E
  6
Continuous
 62
     7
370
     9
100
AcDbLine
 10
-354.6588756673484
 20
-121.6579997395299
 30
0.0
 11
-354.6588756673484
 21
-107.7081467187844
 31
0.0
  0
LINE
  5
3FF
330
1F
100
AcDbEntity
  8
D-E
  6
Continuous
 62
     7
370
     9
100
AcDbLine
 10
-355.7089607866475
 20
-121.6579997395299
 30
0.0
 11
-355.7088865547006
 21
-107.7081467187844
 31
0.0
  0
LINE
  5
400
330
1F
100
AcDbEntity
  8
D-E
  6
Continuous
 62
     7
370
     9
100
AcDbLine
 10
-348.2090102746122
 20
-107.7081467187844
 30
0.0
 11
-355.8123658885265
 21
-107.7081467187844
 31
0.0
  0
LINE
  5
401
330
1F
100
AcDbEntity
  8
D-E
  6
Continuous
 62
     7
370
     9
100
AcDbLine
 10
-348.2090102746122
 20
-106.6582842953259
 30
0.0
 11
-355.8123658885265
 21
-106.6582842953259
 31
0.0
  0
LINE
  5
402
330
1F
100
AcDbEntity
  8
D-E
  6
Continuous
 62
     7
370
     9
100
AcDbLine
 10
-348.2090102746122
 20
-114.1580863434677
 30
0.0
 11
-348.2090102746122
 21
-100.2083446706426
 31
0.0
  0
LINE
  5
403
330
1F
100
AcDbEntity
  8
D-E
  6
Continuous
 62
     7
370
     9
100
AcDbLine
 10
-347.15899938726
 20
-114.1580863434677
 30
0.0
 11
-347.15899938726
 21
-100.2083446706426
 31
0.0
  0
LINE
  5
404
330
1F
100
AcDbEntity
  8
D-E
  6
Continuous
 62
     7
370
     9
100
AcDbLine
 10
-355.7088865547006
 20
-100.2083446706426
 30
0.0
 11
-355.8123658885265
 21
-100.2083446706426
 31
0.0
  0
LINE
  5
405
330
1F
100
AcDbEntity
  8
D-E
  6
Continuous
 62
     7
370
     9
100
AcDbLine
 10
-355.7088865547006
 20
-99.15825955134375
 30
0.0
 11
-355.8123658885265
 21
-99.15825955134375
 31
0.0
  0
LINE
  5
406
330
1F
100
AcDbEntity
  8
D-E
  6
Continuous
 62
     7
370
     9
100
AcDbLine
 10
-354.6588756673484
 20
-106.6582842953259
 30
0.0
 11
-354.6588756673484
 21
-92.70820857874031
 31
0.0
  0
LINE
  5
407
330
1F
100
AcDbEntity
  8
D-E
  6
Continuous
 62
     7
370
     9
100
AcDbLine
 10
-355.7088865547006
 20
-106.6582842953259
 30
0.0
 11
-355.7088865547006
 21
-92.70820857874031
 31
0.0
  0
LINE
  5
408
330
1F
100
AcDbEntity
  8
D-E
  6
Continuous
 62
     7
370
     9
100
AcDbLine
 10
-348.2090102746122
 20
-99.15825955134375
 30
0.0
 11
-348.2090845065587
 21
-84.15832141129928
 31
0.0
  0
LINE
  5
409
330
1F
100
AcDbEntity
  8
D-E
  6
Continuous
 62
     7
370
     9
100
AcDbLine
 10
-347.15899938726
 20
-99.15825955134375
 30
0.0
 11
-347.15899938726
 21
-84.15832141129928
 31
0.0
  0
LINE
  5
40A
330
1F
100
AcDbEntity
  8
D-E
  6
Continuous
 62
     7
370
     9
100
AcDbLine
 10
-355.7088123227537
 20
-84.15832141129928
 30
0.0
 11
-355.8123658885265
 21
-84.15832141129928
 31
0.0
  0
LINE
  5
40B
330
1F
100
AcDbEntity
  8
D-E
  6
Continuous
 62
     7
370
     9
100
AcDbLine
 10
-355.7088123227537
 20
-83.10827340797366
 30
0.0
 11
-355.8123658885265
 21
-83.10827340797366
 31
0.0
  0
LINE
  5
40C
330
1F
100
AcDbEntity
  8
D-E
  6
Continuous
 62
     7
370
     9
100
AcDbLine
 10
-348.2089360426653
 20
-76.65822243537022
 30
0.0
 11
-355.8123658885265
 21
-76.65822243537022
 31
0.0
  0
LINE
  5
40D
330
1F
100
AcDbEntity
  8
D-E
  6
Continuous
 62
     7
370
     9
100
AcDbLine
 10
-348.2089360426653
 20
-75.60821154801803
 30
0.0
 11
-355.8123658885265
 21
-75.60821154801803
 31
0.0
  0
LINE
  5
40E
330
1F
100
AcDbEntity
  8
D-E
  6
Continuous
 62
     7
370
     9
100
AcDbLine
 10
-355.7087380908072
 20
-69.15819769138787
 30
0.0
 11
-355.8122174246331
 21
-69.15819769138787
 31
0.0
  0
LINE
  5
40F
330
1F
100
AcDbEntity
  8
D-E
  6
Continuous
 62
     7
370
     9
100
AcDbLine
 10
-355.7087380908072
 20
-68.10818680403577
 30
0.0
 11
-355.8122174246331
 21
-68.10818680403577
 31
0.0
  0
LINE
  5
410
330
1F
100
AcDbEntity
  8
D-E
  6
Continuous
 62
     7
370
     9
100
AcDbLine
 10
-330.36194293139
 20
-136.6579007636008
 30
0.0
 11
-332.1590983631887
 21
-136.6579007636008
 31
0.0
  0
LINE
  5
411
330
1F
100
AcDbEntity
  8
D-E
  6
Continuous
 62
     7
370
     9
100
AcDbLine
 10
-331.0239434328681
 20
-137.7079858828997
 30
0.0
 11
-332.1590983631887
 21
-137.7079858828997
 31
0.0
  0
LINE
  5
412
330
1F
100
AcDbEntity
  8
D-E
  6
Continuous
 62
     7
370
     9
100
AcDbLine
 10
-333.2088865547006
 20
-129.1580244835121
 30
0.0
 11
-333.2088865547006
 21
-115.2081714627668
 31
0.0
  0
LINE
  5
413
330
1F
100
AcDbEntity
  8
D-E
  6
Continuous
 62
     7
370
     9
100
AcDbLine
 10
-332.1589498992956
 20
-129.1580244835121
 30
0.0
 11
-332.1588014354015
 21
-115.2081714627668
 31
0.0
  0
LINE
  5
414
330
1F
100
AcDbEntity
  8
D-E
  6
Continuous
 62
     7
370
     9
100
AcDbLine
 10
-340.7086886028428
 20
-115.2081714627668
 30
0.0
 11
-354.6588756673484
 21
-115.2081714627668
 31
0.0
  0
LINE
  5
415
330
1F
100
AcDbEntity
  8
D-E
  6
Continuous
 62
     7
370
     9
100
AcDbLine
 10
-340.7086886028428
 20
-114.1580863434677
 30
0.0
 11
-354.6588756673484
 21
-114.1580863434677
 31
0.0
  0
LINE
  5
416
330
1F
100
AcDbEntity
  8
D-E
  6
Continuous
 62
     7
370
     9
100
AcDbLine
 10
-316.8414846068544
 20
-115.2081714627668
 30
0.0
 11
-324.658553995579
 21
-115.2081714627668
 31
0.0
  0
LINE
  5
417
330
1F
100
AcDbEntity
  8
D-E
  6
Continuous
 62
     7
370
     9
100
AcDbLine
 10
-325.7086391148781
 20
-115.2081714627668
 30
0.0
 11
-339.6587519474372
 21
-115.2081714627668
 31
0.0
  0
LINE
  5
418
330
1F
100
AcDbEntity
  8
D-E
  6
Continuous
 62
     7
370
     9
100
AcDbLine
 10
-316.1795583373231
 20
-114.1580863434677
 30
0.0
 11
-324.6584055316856
 21
-114.1580863434677
 31
0.0
  0
LINE
  5
419
330
1F
100
AcDbEntity
  8
D-E
  6
Continuous
 62
     7
370
     9
100
AcDbLine
 10
-325.7084906509843
 20
-114.1580863434677
 30
0.0
 11
-339.6587519474372
 21
-114.1580863434677
 31
0.0
  0
LINE
  5
41A
330
1F
100
AcDbEntity
  8
D-E
  6
Continuous
 62
     7
370
     9
100
AcDbLine
 10
-318.208168979215
 20
-117.3764123965715
 30
0.0
 11
-318.208168979215
 21
-115.2081714627668
 31
0.0
  0
LINE
  5
41B
330
1F
100
AcDbEntity
  8
D-E
  6
Continuous
 62
     7
370
     9
100
AcDbLine
 10
-317.1583065557566
 20
-115.7108702064324
 30
0.0
 11
-317.1583065557566
 21
-115.2081714627668
 31
0.0
  0
LINE
  5
41C
330
1F
100
AcDbEntity
  8
D-E
  6
Continuous
 62
     7
370
     9
100
AcDbLine
 10
-340.7086886028428
 20
-121.6578512756363
 30
0.0
 11
-340.7086886028428
 21
-107.7081467187844
 31
0.0
  0
LINE
  5
41D
330
1F
100
AcDbEntity
  8
D-E
  6
Continuous
 62
     7
370
     9
100
AcDbLine
 10
-339.6589004113309
 20
-121.6578512756363
 30
0.0
 11
-339.6587519474372
 21
-107.7081467187844
 31
0.0
  0
LINE
  5
41E
330
1F
100
AcDbEntity
  8
D-E
  6
Continuous
 62
     7
370
     9
100
AcDbLine
 10
-333.2087380908072
 20
-107.7081467187844
 30
0.0
 11
-347.15899938726
 21
-107.7081467187844
 31
0.0
  0
LINE
  5
41F
330
1F
100
AcDbEntity
  8
D-E
  6
Continuous
 62
     7
370
     9
100
AcDbLine
 10
-333.2087380908072
 20
-106.6582842953259
 30
0.0
 11
-347.15899938726
 21
-106.6582842953259
 31
0.0
  0
LINE
  5
420
330
1F
100
AcDbEntity
  8
D-E
  6
Continuous
 62
     7
370
     9
100
AcDbLine
 10
-325.7086391148781
 20
-121.6578512756363
 30
0.0
 11
-325.7084906509843
 21
-107.7081467187844
 31
0.0
  0
LINE
  5
421
330
1F
100
AcDbEntity
  8
D-E
  6
Continuous
 62
     7
370
     9
100
AcDbLine
 10
-324.658553995579
 20
-121.6578512756363
 30
0.0
 11
-324.6584055316856
 21
-107.7081467187844
 31
0.0
  0
LINE
  5
422
330
1F
100
AcDbEntity
  8
D-E
  6
Continuous
 62
     7
370
     9
100
AcDbLine
 10
-312.1138746116053
 20
-107.7081467187844
 30
0.0
 11
-317.1583065557566
 21
-107.7081467187844
 31
0.0
  0
LINE
  5
423
330
1F
100
AcDbEntity
  8
D-E
  6
Continuous
 62
     7
370
     9
100
AcDbLine
 10
-318.2082432111619
 20
-107.7081467187844
 30
0.0
 11
-332.1588014354015
 21
-107.7081467187844
 31
0.0
  0
LINE
  5
424
330
1F
100
AcDbEntity
  8
D-E
  6
Continuous
 62
     7
370
     9
100
AcDbLine
 10
-311.4520968059678
 20
-106.6582842953259
 30
0.0
 11
-317.1583065557566
 21
-106.6582842953259
 31
0.0
  0
LINE
  5
425
330
1F
100
AcDbEntity
  8
D-E
  6
Continuous
 62
     7
370
     9
100
AcDbLine
 10
-318.2082432111619
 20
-106.6582842953259
 30
0.0
 11
-332.1588014354015
 21
-106.6582842953259
 31
0.0
  0
LINE
  5
426
330
1F
100
AcDbEntity
  8
D-E
  6
Continuous
 62
     7
370
     9
100
AcDbLine
 10
-340.7086143708959
 20
-100.2083446706426
 30
0.0
 11
-354.6588756673484
 21
-100.2083446706426
 31
0.0
  0
LINE
  5
427
330
1F
100
AcDbEntity
  8
D-E
  6
Continuous
 62
     7
370
     9
100
AcDbLine
 10
-340.708540138949
 20
-99.15825955134375
 30
0.0
 11
-354.6588756673484
 21
-99.15825955134375
 31
0.0
  0
LINE
  5
428
330
1F
100
AcDbEntity
  8
D-E
  6
Continuous
 62
     7
370
     9
100
AcDbLine
 10
-332.1588014354015
 20
-114.1580863434677
 30
0.0
 11
-332.1586529715081
 21
-100.2083446706426
 31
0.0
  0
LINE
  5
429
330
1F
100
AcDbEntity
  8
D-E
  6
Continuous
 62
     7
370
     9
100
AcDbLine
 10
-333.2088865547006
 20
-114.1580863434677
 30
0.0
 11
-333.2087380908072
 21
-100.2083446706426
 31
0.0
  0
LINE
  5
42A
330
1F
100
AcDbEntity
  8
D-E
  6
Continuous
 62
     7
370
     9
100
AcDbLine
 10
-325.7084906509843
 20
-100.2083446706426
 30
0.0
 11
-339.6586034835437
 21
-100.2083446706426
 31
0.0
  0
LINE
  5
42B
330
1F
100
AcDbEntity
  8
D-E
  6
Continuous
 62
     7
370
     9
100
AcDbLine
 10
-325.7084906509843
 20
-99.15825955134375
 30
0.0
 11
-339.6586034835437
 21
-99.15825955134375
 31
0.0
  0
LINE
  5
42C
330
1F
100
AcDbEntity
  8
D-E
  6
Continuous
 62
     7
370
     9
100
AcDbLine
 10
-318.208168979215
 20
-114.1580863434677
 30
0.0
 11
-318.2082432111619
 21
-100.2083446706426
 31
0.0
  0
LINE
  5
42D
330
1F
100
AcDbEntity
  8
D-E
  6
Continuous
 62
     7
370
     9
100
AcDbLine
 10
-317.1583065557566
 20
-114.1580863434677
 30
0.0
 11
-317.1583065557566
 21
-100.2083446706426
 31
0.0
  0
LINE
  5
42E
330
1F
100
AcDbEntity
  8
D-E
  6
Continuous
 62
     7
370
     9
100
AcDbLine
 10
-310.7080700032859
 20
-100.2083446706426
 30
0.0
 11
-324.6584055316856
 21
-100.2083446706426
 31
0.0
  0
LINE
  5
42F
330
1F
100
AcDbEntity
  8
D-E
  6
Continuous
 62
     7
370
     9
100
AcDbLine
 10
-310.7080700032859
 20
-99.15825955134375
 30
0.0
 11
-324.6584055316856
 21
-99.15825955134375
 31
0.0
  0
LINE
  5
430
330
1F
100
AcDbEntity
  8
D-E
  6
Continuous
 62
     7
370
     9
100
AcDbLine
 10
-348.2090845065587
 20
-92.70820857874031
 30
0.0
 11
-355.8123658885265
 21
-92.70820857874031
 31
0.0
  0
LINE
  5
431
330
1F
100
AcDbEntity
  8
D-E
  6
Continuous
 62
     7
370
     9
100
AcDbLine
 10
-348.2090845065587
 20
-91.65823480736131
 30
0.0
 11
-355.8123658885265
 21
-91.65823480736131
 31
0.0
  0
LINE
  5
432
330
1F
100
AcDbEntity
  8
D-E
  6
Continuous
 62
     7
370
     9
100
AcDbLine
 10
-340.7086886028428
 20
-106.6582842953259
 30
0.0
 11
-340.708540138949
 21
-92.70820857874031
 31
0.0
  0
LINE
  5
433
330
1F
100
AcDbEntity
  8
D-E
  6
Continuous
 62
     7
370
     9
100
AcDbLine
 10
-339.6587519474372
 20
-106.6582842953259
 30
0.0
 11
-339.6586034835437
 21
-92.70820857874031
 31
0.0
  0
LINE
  5
434
330
1F
100
AcDbEntity
  8
D-E
  6
Continuous
 62
     7
370
     9
100
AcDbLine
 10
-333.2085896269134
 20
-92.70820857874031
 30
0.0
 11
-347.15899938726
 21
-92.70820857874031
 31
0.0
  0
LINE
  5
435
330
1F
100
AcDbEntity
  8
D-E
  6
Continuous
 62
     7
370
     9
100
AcDbLine
 10
-333.2085896269134
 20
-91.65823480736131
 30
0.0
 11
-347.15899938726
 21
-91.65823480736131
 31
0.0
  0
LINE
  5
436
330
1F
100
AcDbEntity
  8
D-E
  6
Continuous
 62
     7
370
     9
100
AcDbLine
 10
-325.7084906509843
 20
-106.6582842953259
 30
0.0
 11
-325.7083421870909
 21
-92.70820857874031
 31
0.0
  0
LINE
  5
437
330
1F
100
AcDbEntity
  8
D-E
  6
Continuous
 62
     7
370
     9
100
AcDbLine
 10
-324.6584055316856
 20
-106.6582842953259
 30
0.0
 11
-324.6584055316856
 21
-92.70820857874031
 31
0.0
  0
LINE
  5
438
330
1F
100
AcDbEntity
  8
D-E
  6
Continuous
 62
     7
370
     9
100
AcDbLine
 10
-318.2082432111619
 20
-92.70820857874031
 30
0.0
 11
-332.1585045076147
 21
-92.70820857874031
 31
0.0
  0
LINE
  5
439
330
1F
100
AcDbEntity
  8
D-E
  6
Continuous
 62
     7
370
     9
100
AcDbLine
 10
-332.1586529715081
 20
-99.15825955134375
 30
0.0
 11
-332.1585045076147
 21
-84.15832141129928
 31
0.0
  0
LINE
  5
43A
330
1F
100
AcDbEntity
  8
D-E
  6
Continuous
 62
     7
370
     9
100
AcDbLine
 10
-333.2087380908072
 20
-99.15825955134375
 30
0.0
 11
-333.2085896269134
 21
-84.15832141129928
 31
0.0
  0
LINE
  5
43B
330
1F
100
AcDbEntity
  8
D-E
  6
Continuous
 62
     7
370
     9
100
AcDbLine
 10
-340.708540138949
 20
-84.15832141129928
 30
0.0
 11
-354.6588756673484
 21
-84.15832141129928
 31
0.0
  0
LINE
  5
43C
330
1F
100
AcDbEntity
  8
D-E
  6
Continuous
 62
     7
370
     9
100
AcDbLine
 10
-340.708540138949
 20
-83.10827340797366
 30
0.0
 11
-354.6588756673484
 21
-83.10827340797366
 31
0.0
  0
LINE
  5
43D
330
1F
100
AcDbEntity
  8
D-E
  6
Continuous
 62
     7
370
     9
100
AcDbLine
 10
-340.708540138949
 20
-91.65823480736131
 30
0.0
 11
-340.7083916750556
 21
-76.65822243537022
 31
0.0
  0
LINE
  5
43E
330
1F
100
AcDbEntity
  8
D-E
  6
Continuous
 62
     7
370
     9
100
AcDbLine
 10
-339.6585292515969
 20
-91.65823480736131
 30
0.0
 11
-339.6583065557566
 21
-76.65822243537022
 31
0.0
  0
LINE
  5
43F
330
1F
100
AcDbEntity
  8
D-E
  6
Continuous
 62
     7
370
     9
100
AcDbLine
 10
-354.6588756673484
 20
-91.65823480736131
 30
0.0
 11
-354.6588014354015
 21
-76.65822243537022
 31
0.0
  0
LINE
  5
440
330
1F
100
AcDbEntity
  8
D-E
  6
Continuous
 62
     7
370
     9
100
AcDbLine
 10
-333.9258186968037
 20
-142.3118141068759
 30
0.0
 11
-368.1327163292993
 21
-169.9824032445976
 31
0.0
  0
LINE
  5
441
330
1F
100
AcDbEntity
  8
D-E
  6
Continuous
 62
     7
370
     9
100
AcDbLine
 10
-307.8506561840321
 20
-100.2083446706426
 30
0.0
 11
-309.6582075798275
 21
-100.2083446706426
 31
0.0
  0
LINE
  5
442
330
1F
100
AcDbEntity
  8
D-E
  6
Continuous
 62
     7
370
     9
100
AcDbLine
 10
-308.9953162949878
 20
-102.7606245811683
 30
0.0
 11
-297.008047585987
 21
-75.7891426532323
 31
0.0
  0
LINE
  5
443
330
1F
100
AcDbEntity
  8
D-E
  6
Continuous
 62
     7
370
     9
100
AcDbLine
 10
-355.7088865547006
 20
-91.65823480736131
 30
0.0
 11
-355.708690894002
 21
-52.80256364189131
 31
0.0
  0
LINE
  5
444
330
1F
100
AcDbEntity
  8
D-E
  6
Continuous
 62
     7
370
     9
100
AcDbLine
 10
-304.5275969417196
 20
-92.70820857874031
 30
0.0
 11
-317.1583065557566
 21
-92.70820857874031
 31
0.0
  0
LINE
  5
445
330
1F
100
AcDbEntity
  8
D-E
  6
Continuous
 62
     7
370
     9
100
AcDbLine
 10
-307.3942727292025
 20
-99.15825955134375
 30
0.0
 11
-309.6582075798275
 21
-99.15825955134375
 31
0.0
  0
LINE
  5
446
330
1F
100
AcDbEntity
  8
D-E
  6
Continuous
 62
     7
370
     9
100
AcDbLine
 10
-304.0609441353016
 20
-91.65823480736131
 30
0.0
 11
-317.1583065557566
 21
-91.65823480736131
 31
0.0
  0
LINE
  5
447
330
1F
100
AcDbEntity
  8
D-E
  6
Continuous
 62
     7
370
     9
100
AcDbLine
 10
-318.2082803274108
 20
-91.65823480736131
 30
0.0
 11
-332.1585045076147
 21
-91.65823480736131
 31
0.0
  0
LINE
  5
448
330
1F
100
AcDbEntity
  8
D-E
  6
Continuous
 62
     7
370
     9
100
AcDbLine
 10
-348.2088253378168
 20
-61.65809871545881
 30
0.0
 11
-355.8122551836781
 21
-61.65809871545881
 31
0.0
  0
LINE
  5
449
330
1F
100
AcDbEntity
  8
D-E
  6
Continuous
 62
     7
370
     9
100
AcDbLine
 10
-348.2088253378168
 20
-60.60808782810662
 30
0.0
 11
-355.8122551836781
 21
-60.60808782810662
 31
0.0
  0
LINE
  5
44A
330
1F
100
AcDbEntity
  8
D-E
  6
Continuous
 62
     7
370
     9
100
AcDbLine
 10
-354.6588014354015
 20
-75.60821154801803
 30
0.0
 11
-354.6587225516805
 21
-61.65809871545881
 31
0.0
  0
LINE
  5
44B
330
1F
100
AcDbEntity
  8
D-E
  6
Continuous
 62
     7
370
     9
100
AcDbLine
 10
-354.6587166141826
 20
-60.60808782810662
 30
0.0
 11
-354.6586734254749
 21
-52.97042396064602
 31
0.0
  0
LINE
  5
44C
330
1F
100
AcDbEntity
  8
D-E
  6
Continuous
 62
     7
370
     9
100
AcDbLine
 10
-340.7083916750556
 20
-75.60821154801803
 30
0.0
 11
-340.7083916750556
 21
-61.65809871545881
 31
0.0
  0
LINE
  5
44D
330
1F
100
AcDbEntity
  8
D-E
  6
Continuous
 62
     7
370
     9
100
AcDbLine
 10
-340.7083916750556
 20
-60.60808782810662
 30
0.0
 11
-340.7083916750556
 21
-55.96169919814734
 31
0.0
  0
LINE
  5
44E
330
1F
100
AcDbEntity
  8
D-E
  6
Continuous
 62
     7
370
     9
100
AcDbLine
 10
-339.6583065557566
 20
-75.60821154801803
 30
0.0
 11
-339.6583065557566
 21
-61.65809871545881
 31
0.0
  0
LINE
  5
44F
330
1F
100
AcDbEntity
  8
D-E
  6
Continuous
 62
     7
370
     9
100
AcDbLine
 10
-339.6583065557566
 20
-60.60808782810662
 30
0.0
 11
-339.6583065557566
 21
-56.24556046549917
 31
0.0
  0
LINE
  5
450
330
1F
100
AcDbEntity
  8
D-E
  6
Continuous
 62
     7
370
     9
100
AcDbLine
 10
-326.3158096720988
 20
-60.60808782810662
 30
0.0
 11
-332.1582344654197
 21
-60.60808782810662
 31
0.0
  0
LINE
  5
451
330
1F
100
AcDbEntity
  8
D-E
  6
Continuous
 62
     7
370
     9
100
AcDbLine
 10
-333.2083293007506
 20
-60.60808782810662
 30
0.0
 11
-347.1587402185178
 21
-60.60808782810662
 31
0.0
  0
LINE
  5
452
330
1F
100
AcDbEntity
  8
D-E
  6
Continuous
 62
     7
370
     9
100
AcDbLine
 10
-323.6415254542293
 20
-61.65809871545881
 30
0.0
 11
-332.1582470674156
 21
-61.65809871545881
 31
0.0
  0
LINE
  5
453
330
1F
100
AcDbEntity
  8
D-E
  6
Continuous
 62
     7
370
     9
100
AcDbLine
 10
-333.2083414493306
 20
-61.65809871545881
 30
0.0
 11
-347.1587402185178
 21
-61.65809871545881
 31
0.0
  0
LINE
  5
454
330
1F
100
AcDbEntity
  8
D-E
  6
Continuous
 62
     7
370
     9
100
AcDbLine
 10
-348.2090845065587
 20
-83.10827340797366
 30
0.0
 11
-348.2087875787719
 21
-69.15819769138787
 31
0.0
  0
LINE
  5
455
330
1F
100
AcDbEntity
  8
D-E
  6
Continuous
 62
     7
370
     9
100
AcDbLine
 10
-348.2087652292581
 20
-68.10818680403577
 30
0.0
 11
-348.2084686758617
 21
-54.17570046447447
 31
0.0
  0
LINE
  5
456
330
1F
100
AcDbEntity
  8
D-E
  6
Continuous
 62
     7
370
     9
100
AcDbLine
 10
-347.15899938726
 20
-83.10827340797366
 30
0.0
 11
-347.1587024594727
 21
-69.15819769138787
 31
0.0
  0
LINE
  5
457
330
1F
100
AcDbEntity
  8
D-E
  6
Continuous
 62
     7
370
     9
100
AcDbLine
 10
-347.1586801099588
 20
-68.10818680403577
 30
0.0
 11
-347.158388343174
 21
-54.40058208133404
 31
0.0
  0
LINE
  5
458
330
1F
100
AcDbEntity
  8
D-E
  6
Continuous
 62
     7
370
     9
100
AcDbLine
 10
-340.7083916750556
 20
-68.10818680403577
 30
0.0
 11
-354.6588014354015
 21
-68.10818680403577
 31
0.0
  0
LINE
  5
459
330
1F
100
AcDbEntity
  8
D-E
  6
Continuous
 62
     7
370
     9
100
AcDbLine
 10
-340.7083916750556
 20
-69.15819769138787
 30
0.0
 11
-354.6588014354015
 21
-69.15819769138787
 31
0.0
  0
LINE
  5
45A
330
1F
100
AcDbEntity
  8
D-E
  6
Continuous
 62
     7
370
     9
100
AcDbLine
 10
-333.2085896269134
 20
-83.10827340797366
 30
0.0
 11
-333.2084282251476
 21
-69.15819769138787
 31
0.0
  0
LINE
  5
45B
330
1F
100
AcDbEntity
  8
D-E
  6
Continuous
 62
     7
370
     9
100
AcDbLine
 10
-333.2084160765676
 20
-68.10818680403577
 30
0.0
 11
-333.20830116822
 21
-58.17657210383271
 31
0.0
  0
LINE
  5
45C
330
1F
100
AcDbEntity
  8
D-E
  6
Continuous
 62
     7
370
     9
100
AcDbLine
 10
-332.1585045076147
 20
-83.10827340797366
 30
0.0
 11
-332.1583370819259
 21
-69.15819769138787
 31
0.0
  0
LINE
  5
45D
330
1F
100
AcDbEntity
  8
D-E
  6
Continuous
 62
     7
370
     9
100
AcDbLine
 10
-332.1583244799301
 20
-68.10818680403577
 30
0.0
 11
-332.1582094290299
 21
-58.52203080247784
 31
0.0
  0
LINE
  5
45E
330
1F
100
AcDbEntity
  8
D-E
  6
Continuous
 62
     7
370
     9
100
AcDbLine
 10
-325.7083421870909
 20
-68.10818680403577
 30
0.0
 11
-339.6583065557566
 21
-68.10818680403577
 31
0.0
  0
LINE
  5
45F
330
1F
100
AcDbEntity
  8
D-E
  6
Continuous
 62
     7
370
     9
100
AcDbLine
 10
-325.7083421870909
 20
-69.15819769138787
 30
0.0
 11
-339.6583065557566
 21
-69.15819769138787
 31
0.0
  0
LINE
  5
460
330
1F
100
AcDbEntity
  8
D-E
  6
Continuous
 62
     7
370
     9
100
AcDbLine
 10
-318.2083968722854
 20
-68.10818680403577
 30
0.0
 11
-318.2084172875421
 21
-63.98290651805297
 31
0.0
  0
LINE
  5
461
330
1F
100
AcDbEntity
  8
D-E
  6
Continuous
 62
     7
370
     9
100
AcDbLine
 10
-317.1583065557566
 20
-68.10818680403577
 30
0.0
 11
-317.1583065557566
 21
-64.46272889373947
 31
0.0
  0
LINE
  5
462
330
1F
100
AcDbEntity
  8
D-E
  6
Continuous
 62
     7
370
     9
100
AcDbLine
 10
-310.7080700032859
 20
-68.10818680403577
 30
0.0
 11
-324.6584055316856
 21
-68.10818680403577
 31
0.0
  0
LINE
  5
463
330
1F
100
AcDbEntity
  8
D-E
  6
Continuous
 62
     7
370
     9
100
AcDbLine
 10
-307.8760508700423
 20
-69.15819769138787
 30
0.0
 11
-309.6582075798275
 21
-69.15819769138787
 31
0.0
  0
LINE
  5
464
330
1F
100
AcDbEntity
  8
D-E
  6
Continuous
 62
     7
370
     9
100
AcDbLine
 10
-310.7080700032859
 20
-69.15819769138787
 30
0.0
 11
-324.6584055316856
 21
-69.15819769138787
 31
0.0
  0
LINE
  5
465
330
1F
100
AcDbEntity
  8
D-E
  6
Continuous
 62
     7
370
     9
100
AcDbLine
 10
-333.2085028515259
 20
-75.60821154801803
 30
0.0
 11
-347.1588509233662
 21
-75.60821154801803
 31
0.0
  0
LINE
  5
466
330
1F
100
AcDbEntity
  8
D-E
  6
Continuous
 62
     7
370
     9
100
AcDbLine
 10
-333.2085150001058
 20
-76.65822243537022
 30
0.0
 11
-347.1588509233662
 21
-76.65822243537022
 31
0.0
  0
LINE
  5
467
330
1F
100
AcDbEntity
  8
D-E
  6
Continuous
 62
     7
370
     9
100
AcDbLine
 10
-325.7083421870909
 20
-91.65823480736131
 30
0.0
 11
-325.7083421870909
 21
-76.65822243537022
 31
0.0
  0
LINE
  5
468
330
1F
100
AcDbEntity
  8
D-E
  6
Continuous
 62
     7
370
     9
100
AcDbLine
 10
-325.7083421870909
 20
-75.60821154801803
 30
0.0
 11
-325.7083421870909
 21
-61.65809871545881
 31
0.0
  0
LINE
  5
469
330
1F
100
AcDbEntity
  8
D-E
  6
Continuous
 62
     7
370
     9
100
AcDbLine
 10
-324.6584055316856
 20
-91.65823480736131
 30
0.0
 11
-324.6584055316856
 21
-76.65822243537022
 31
0.0
  0
LINE
  5
46A
330
1F
100
AcDbEntity
  8
D-E
  6
Continuous
 62
     7
370
     9
100
AcDbLine
 10
-324.6584055316856
 20
-75.60821154801803
 30
0.0
 11
-324.6584055316856
 21
-61.65809871545881
 31
0.0
  0
LINE
  5
46B
330
1F
100
AcDbEntity
  8
D-E
  6
Continuous
 62
     7
370
     9
100
AcDbLine
 10
-318.2083597560367
 20
-75.60821154801803
 30
0.0
 11
-332.1584144935496
 21
-75.60821154801803
 31
0.0
  0
LINE
  5
46C
330
1F
100
AcDbEntity
  8
D-E
  6
Continuous
 62
     7
370
     9
100
AcDbLine
 10
-318.208354559725
 20
-76.65822243537022
 30
0.0
 11
-332.1584270955454
 21
-76.65822243537022
 31
0.0
  0
LINE
  5
46D
330
1F
100
AcDbEntity
  8
D-E
  6
Continuous
 62
     7
370
     9
100
AcDbLine
 10
-310.7080700032859
 20
-75.60821154801803
 30
0.0
 11
-310.7080700032859
 21
-67.63660517185536
 31
0.0
  0
LINE
  5
46E
330
1F
100
AcDbEntity
  8
D-E
  6
Continuous
 62
     7
370
     9
100
AcDbLine
 10
-309.6582075798275
 20
-75.60821154801803
 30
0.0
 11
-309.6582075798275
 21
-68.19128553183006
 31
0.0
  0
LINE
  5
46F
330
1F
100
AcDbEntity
  8
D-E
  6
Continuous
 62
     7
370
     9
100
AcDbLine
 10
-297.2779898796339
 20
-75.60821154801803
 30
0.0
 11
-302.1581086038984
 21
-75.60821154801803
 31
0.0
  0
LINE
  5
470
330
1F
100
AcDbEntity
  8
D-E
  6
Continuous
 62
     7
370
     9
100
AcDbLine
 10
-303.2079710273568
 20
-75.60821154801803
 30
0.0
 11
-317.1583065557566
 21
-75.60821154801803
 31
0.0
  0
LINE
  5
471
330
1F
100
AcDbEntity
  8
D-E
  6
Continuous
 62
     7
370
     9
100
AcDbLine
 10
-297.3943034434102
 20
-76.65822243537022
 30
0.0
 11
-302.1581086038984
 21
-76.65822243537022
 31
0.0
  0
LINE
  5
472
330
1F
100
AcDbEntity
  8
D-E
  6
Continuous
 62
     7
370
     9
100
AcDbLine
 10
-303.2079710273568
 20
-76.65822243537022
 30
0.0
 11
-317.1583065557566
 21
-76.65822243537022
 31
0.0
  0
LINE
  5
473
330
1F
100
AcDbEntity
  8
D-E
  6
Continuous
 62
     7
370
     9
100
AcDbLine
 10
-325.7083421870909
 20
-83.10827340797366
 30
0.0
 11
-339.65845501965
 21
-83.10827340797366
 31
0.0
  0
LINE
  5
474
330
1F
100
AcDbEntity
  8
D-E
  6
Continuous
 62
     7
370
     9
100
AcDbLine
 10
-325.7083421870909
 20
-84.15832141129928
 30
0.0
 11
-339.65845501965
 21
-84.15832141129928
 31
0.0
  0
LINE
  5
475
330
1F
100
AcDbEntity
  8
D-E
  6
Continuous
 62
     7
370
     9
100
AcDbLine
 10
-318.2082432111619
 20
-99.15825955134375
 30
0.0
 11
-318.2083174431087
 21
-84.15832141129928
 31
0.0
  0
LINE
  5
476
330
1F
100
AcDbEntity
  8
D-E
  6
Continuous
 62
     7
370
     9
100
AcDbLine
 10
-318.2083226396039
 20
-83.10827340797366
 30
0.0
 11
-318.208391675974
 21
-69.15819769138787
 31
0.0
  0
LINE
  5
477
330
1F
100
AcDbEntity
  8
D-E
  6
Continuous
 62
     7
370
     9
100
AcDbLine
 10
-317.1583065557566
 20
-99.15825955134375
 30
0.0
 11
-317.1583065557566
 21
-84.15832141129928
 31
0.0
  0
LINE
  5
478
330
1F
100
AcDbEntity
  8
D-E
  6
Continuous
 62
     7
370
     9
100
AcDbLine
 10
-317.1583065557566
 20
-83.10827340797366
 30
0.0
 11
-317.1583065557566
 21
-69.15819769138787
 31
0.0
  0
LINE
  5
479
330
1F
100
AcDbEntity
  8
D-E
  6
Continuous
 62
     7
370
     9
100
AcDbLine
 10
-300.2609792308931
 20
-83.10827340797366
 30
0.0
 11
-309.6582075798275
 21
-83.10827340797366
 31
0.0
  0
LINE
  5
47A
330
1F
100
AcDbEntity
  8
D-E
  6
Continuous
 62
     7
370
     9
100
AcDbLine
 10
-310.7080700032859
 20
-83.10827340797366
 30
0.0
 11
-324.6584055316856
 21
-83.10827340797366
 31
0.0
  0
LINE
  5
47B
330
1F
100
AcDbEntity
  8
D-E
  6
Continuous
 62
     7
370
     9
100
AcDbLine
 10
-300.7276650291317
 20
-84.15832141129928
 30
0.0
 11
-309.6582075798275
 21
-84.15832141129928
 31
0.0
  0
LINE
  5
47C
330
1F
100
AcDbEntity
  8
D-E
  6
Continuous
 62
     7
370
     9
100
AcDbLine
 10
-310.7080700032859
 20
-84.15832141129928
 30
0.0
 11
-324.6584055316856
 21
-84.15832141129928
 31
0.0
  0
LINE
  5
47D
330
1F
100
AcDbEntity
  8
D-E
  6
Continuous
 62
     7
370
     9
100
AcDbLine
 10
-303.2079710273568
 20
-89.73903625392666
 30
0.0
 11
-303.2079710273568
 21
-84.15832141129928
 31
0.0
  0
LINE
  5
47E
330
1F
100
AcDbEntity
  8
D-E
  6
Continuous
 62
     7
370
     9
100
AcDbLine
 10
-303.2079710273568
 20
-83.10827340797366
 30
0.0
 11
-303.2079710273568
 21
-71.84702604387368
 31
0.0
  0
LINE
  5
47F
330
1F
100
AcDbEntity
  8
D-E
  6
Continuous
 62
     7
370
     9
100
AcDbLine
 10
-302.1581086038984
 20
-87.37683464916357
 30
0.0
 11
-302.1581086038984
 21
-84.15832141129928
 31
0.0
  0
LINE
  5
480
330
1F
100
AcDbEntity
  8
D-E
  6
Continuous
 62
     7
370
     9
100
AcDbLine
 10
-302.1581086038984
 20
-83.10827340797366
 30
0.0
 11
-302.1581086038984
 21
-72.48396265103486
 31
0.0
  0
LINE
  5
481
330
1F
100
AcDbEntity
  8
D-E
  6
Continuous
 62
     7
370
     9
100
AcDbLine
 10
-310.7080700032859
 20
-105.4778478774628
 30
0.0
 11
-310.7080700032859
 21
-92.70820857874031
 31
0.0
  0
LINE
  5
482
330
1F
100
AcDbEntity
  8
D-E
  6
Continuous
 62
     7
370
     9
100
AcDbLine
 10
-310.7080700032859
 20
-91.65823480736131
 30
0.0
 11
-310.7080700032859
 21
-76.65822243537022
 31
0.0
  0
LINE
  5
483
330
1F
100
AcDbEntity
  8
D-E
  6
Continuous
 62
     7
370
     9
100
AcDbLine
 10
-309.6582075798275
 20
-103.8123428032969
 30
0.0
 11
-309.6582075798275
 21
-92.70820857874031
 31
0.0
  0
LINE
  5
484
330
1F
100
AcDbEntity
  8
D-E
  6
Continuous
 62
     7
370
     9
100
AcDbLine
 10
-309.6582075798275
 20
-91.65823480736131
 30
0.0
 11
-309.6582075798275
 21
-76.65822243537022
 31
0.0
  0
LINE
  5
485
330
1F
100
AcDbEntity
  8
0-E
  6
Continuous
 62
     7
370
     9
100
AcDbLine
 10
282.8861417527453
 20
186.0677120395248
 30
0.0
 11
282.8171555301947
 21
186.0677120395248
 31
0.0
  0
LINE
  5
486
330
1F
100
AcDbEntity
  8
0-E
  6
Continuous
 62
     7
370
     9
100
AcDbLine
 10
282.8861417527453
 20
186.7677192977596
 30
0.0
 11
282.8171555301947
 21
186.7677192977596
 31
0.0
  0
LINE
  5
487
330
1F
100
AcDbEntity
  8
0-E
  6
Continuous
 62
     7
370
     9
100
AcDbLine
 10
311.9493840722131
 20
160.3677460212605
 30
0.0
 11
308.5864294427791
 21
160.3677460212605
 31
0.0
  0
LINE
  5
488
330
1F
100
AcDbEntity
  8
0-E
  6
Continuous
 62
     7
370
     9
100
AcDbLine
 10
312.3905692759716
 20
161.0676543035661
 30
0.0
 11
308.5864294427791
 21
161.0676543035661
 31
0.0
  0
LINE
  5
489
330
1F
100
AcDbEntity
  8
0-E
  6
Continuous
 62
     7
370
     9
100
AcDbLine
 10
312.8865871444261
 20
165.367614053355
 30
0.0
 11
303.5863634588263
 21
165.367614053355
 31
0.0
  0
LINE
  5
48A
330
1F
100
AcDbEntity
  8
0-E
  6
Continuous
 62
     7
370
     9
100
AcDbLine
 10
312.8865871444261
 20
166.0676707995542
 30
0.0
 11
303.5863634588263
 21
166.0676707995542
 31
0.0
  0
LINE
  5
48B
330
1F
100
AcDbEntity
  8
0-E
  6
Continuous
 62
     7
370
     9
100
AcDbLine
 10
307.8864716725088
 20
170.3677047812899
 30
0.0
 11
298.5862974748736
 21
170.3677047812899
 31
0.0
  0
LINE
  5
48C
330
1F
100
AcDbEntity
  8
0-E
  6
Continuous
 62
     7
370
     9
100
AcDbLine
 10
314.7915296905953
 20
165.367614053355
 30
0.0
 11
313.5864954267317
 21
165.367614053355
 31
0.0
  0
LINE
  5
48D
330
1F
100
AcDbEntity
  8
0-E
  6
Continuous
 62
     7
370
     9
100
AcDbLine
 10
314.0284229499582
 20
163.6660941130045
 30
0.0
 11
322.0199354226254
 21
181.6470820649619
 31
0.0
  0
LINE
  5
48E
330
1F
100
AcDbEntity
  8
0-E
  6
Continuous
 62
     7
370
     9
100
AcDbLine
 10
317.0069025188037
 20
170.3677047812899
 30
0.0
 11
308.5864294427791
 21
170.3677047812899
 31
0.0
  0
LINE
  5
48F
330
1F
100
AcDbEntity
  8
0-E
  6
Continuous
 62
     7
370
     9
100
AcDbLine
 10
315.0957853271485
 20
166.0676707995542
 30
0.0
 11
313.5864954267317
 21
166.0676707995542
 31
0.0
  0
LINE
  5
490
330
1F
100
AcDbEntity
  8
0-E
  6
Continuous
 62
     7
370
     9
100
AcDbLine
 10
317.318004389749
 20
171.0676872955425
 30
0.0
 11
308.5864294427791
 21
171.0676872955425
 31
0.0
  0
LINE
  5
491
330
1F
100
AcDbEntity
  8
0-E
  6
Continuous
 62
     7
370
     9
100
AcDbLine
 10
307.8864469283429
 20
171.0676872955425
 30
0.0
 11
298.5862974748736
 21
171.0676872955425
 31
0.0
  0
LINE
  5
492
330
1F
100
AcDbEntity
  8
0-E
  6
Continuous
 62
     7
370
     9
100
AcDbLine
 10
287.8860835880722
 20
191.0677780234775
 30
0.0
 11
282.8171303574981
 21
191.0677780234775
 31
0.0
  0
LINE
  5
493
330
1F
100
AcDbEntity
  8
0-E
  6
Continuous
 62
     7
370
     9
100
AcDbLine
 10
287.8860835880722
 20
191.7677852817123
 30
0.0
 11
282.8171303574981
 21
191.7677852817123
 31
0.0
  0
LINE
  5
494
330
1F
100
AcDbEntity
  8
0-E
  6
Continuous
 62
     7
370
     9
100
AcDbLine
 10
283.5861560704951
 20
191.7677852817123
 30
0.0
 11
283.5861848629668
 21
196.8595611933528
 31
0.0
  0
LINE
  5
495
330
1F
100
AcDbEntity
  8
0-E
  6
Continuous
 62
     7
370
     9
100
AcDbLine
 10
292.8863726965797
 20
181.7677028017714
 30
0.0
 11
292.8863726965797
 21
191.0677780234775
 31
0.0
  0
LINE
  5
496
330
1F
100
AcDbEntity
  8
0-E
  6
Continuous
 62
     7
370
     9
100
AcDbLine
 10
292.8863726965797
 20
191.7677852817123
 30
0.0
 11
292.8863726965797
 21
194.8653777016852
 31
0.0
  0
LINE
  5
497
330
1F
100
AcDbEntity
  8
0-E
  6
Continuous
 62
     7
370
     9
100
AcDbLine
 10
293.5864294427791
 20
181.7677028017714
 30
0.0
 11
293.5864294427791
 21
191.0677780234775
 31
0.0
  0
LINE
  5
498
330
1F
100
AcDbEntity
  8
0-E
  6
Continuous
 62
     7
370
     9
100
AcDbLine
 10
293.5864294427791
 20
191.7677852817123
 30
0.0
 11
293.5864294427791
 21
194.676136856784
 31
0.0
  0
LINE
  5
499
330
1F
100
AcDbEntity
  8
0-E
  6
Continuous
 62
     7
370
     9
100
AcDbLine
 10
302.4814273652176
 20
191.7677852817123
 30
0.0
 11
298.5864775030037
 21
191.7677852817123
 31
0.0
  0
LINE
  5
49A
330
1F
100
AcDbEntity
  8
0-E
  6
Continuous
 62
     7
370
     9
100
AcDbLine
 10
297.8864142794497
 20
191.7677852817123
 30
0.0
 11
288.5861403342715
 21
191.7677852817123
 31
0.0
  0
LINE
  5
49B
330
1F
100
AcDbEntity
  8
0-E
  6
Continuous
 62
     7
370
     9
100
AcDbLine
 10
304.2642835104639
 20
191.0677780234775
 30
0.0
 11
298.586469101673
 21
191.0677780234775
 31
0.0
  0
LINE
  5
49C
330
1F
100
AcDbEntity
  8
0-E
  6
Continuous
 62
     7
370
     9
100
AcDbLine
 10
297.8864061803964
 20
191.0677780234775
 30
0.0
 11
288.5861403342715
 21
191.0677780234775
 31
0.0
  0
LINE
  5
49D
330
1F
100
AcDbEntity
  8
0-E
  6
Continuous
 62
     7
370
     9
100
AcDbLine
 10
287.8861236604448
 20
186.7677192977596
 30
0.0
 11
287.886321362709
 21
196.0560435241338
 31
0.0
  0
LINE
  5
49E
330
1F
100
AcDbEntity
  8
0-E
  6
Continuous
 62
     7
370
     9
100
AcDbLine
 10
288.5861804066441
 20
186.7677192977596
 30
0.0
 11
288.586374917834
 21
195.9061224462274
 31
0.0
  0
LINE
  5
49F
330
1F
100
AcDbEntity
  8
0-E
  6
Continuous
 62
     7
370
     9
100
AcDbLine
 10
292.8863726965797
 20
186.7677192977596
 30
0.0
 11
283.5860995230157
 21
186.7677192977596
 31
0.0
  0
LINE
  5
4A0
330
1F
100
AcDbEntity
  8
0-E
  6
Continuous
 62
     7
370
     9
100
AcDbLine
 10
292.8863726965797
 20
186.0677120395248
 30
0.0
 11
283.5860995230157
 21
186.0677120395248
 31
0.0
  0
LINE
  5
4A1
330
1F
100
AcDbEntity
  8
0-E
  6
Continuous
 62
     7
370
     9
100
AcDbLine
 10
297.8862407286744
 20
176.767661561801
 30
0.0
 11
297.8863483298516
 21
186.0677120395248
 31
0.0
  0
LINE
  5
4A2
330
1F
100
AcDbEntity
  8
0-E
  6
Continuous
 62
     7
370
     9
100
AcDbLine
 10
297.8863564289051
 20
186.7677192977596
 30
0.0
 11
297.8864330344701
 21
193.3887957645616
 31
0.0
  0
LINE
  5
4A3
330
1F
100
AcDbEntity
  8
0-E
  6
Continuous
 62
     7
370
     9
100
AcDbLine
 10
298.5862974748736
 20
176.767661561801
 30
0.0
 11
298.5864090919995
 21
186.0677120395248
 31
0.0
  0
LINE
  5
4A4
330
1F
100
AcDbEntity
  8
0-E
  6
Continuous
 62
     7
370
     9
100
AcDbLine
 10
298.58641749333
 20
186.7677192977596
 30
0.0
 11
298.5864941939302
 21
193.1584899654648
 31
0.0
  0
LINE
  5
4A5
330
1F
100
AcDbEntity
  8
0-E
  6
Continuous
 62
     7
370
     9
100
AcDbLine
 10
302.8864056885561
 20
186.7677192977596
 30
0.0
 11
293.5864294427791
 21
186.7677192977596
 31
0.0
  0
LINE
  5
4A6
330
1F
100
AcDbEntity
  8
0-E
  6
Continuous
 62
     7
370
     9
100
AcDbLine
 10
302.8864056885561
 20
186.0677120395248
 30
0.0
 11
293.5864294427791
 21
186.0677120395248
 31
0.0
  0
LINE
  5
4A7
330
1F
100
AcDbEntity
  8
0-E
  6
Continuous
 62
     7
370
     9
100
AcDbLine
 10
307.8863692317598
 20
186.7677192977596
 30
0.0
 11
307.8863556215887
 21
189.5179061550814
 31
0.0
  0
LINE
  5
4A8
330
1F
100
AcDbEntity
  8
0-E
  6
Continuous
 62
     7
370
     9
100
AcDbLine
 10
308.5864294427791
 20
186.7677192977596
 30
0.0
 11
308.5864294427791
 21
189.1980245712904
 31
0.0
  0
LINE
  5
4A9
330
1F
100
AcDbEntity
  8
0-E
  6
Continuous
 62
     7
370
     9
100
AcDbLine
 10
312.8865871444261
 20
186.7677192977596
 30
0.0
 11
303.5863634588263
 21
186.7677192977596
 31
0.0
  0
LINE
  5
4AA
330
1F
100
AcDbEntity
  8
0-E
  6
Continuous
 62
     7
370
     9
100
AcDbLine
 10
314.774599899922
 20
186.0677120395248
 30
0.0
 11
313.5864954267317
 21
186.0677120395248
 31
0.0
  0
LINE
  5
4AB
330
1F
100
AcDbEntity
  8
0-E
  6
Continuous
 62
     7
370
     9
100
AcDbLine
 10
312.8865871444261
 20
186.0677120395248
 30
0.0
 11
303.5863634588263
 21
186.0677120395248
 31
0.0
  0
LINE
  5
4AC
330
1F
100
AcDbEntity
  8
0-E
  6
Continuous
 62
     7
370
     9
100
AcDbLine
 10
297.8862985789328
 20
181.7677028017714
 30
0.0
 11
288.5860665310393
 21
181.7677028017714
 31
0.0
  0
LINE
  5
4AD
330
1F
100
AcDbEntity
  8
0-E
  6
Continuous
 62
     7
370
     9
100
AcDbLine
 10
297.8862904798795
 20
181.0676955435366
 30
0.0
 11
288.5860665310393
 21
181.0676955435366
 31
0.0
  0
LINE
  5
4AE
330
1F
100
AcDbEntity
  8
0-E
  6
Continuous
 62
     7
370
     9
100
AcDbLine
 10
302.8864056885561
 20
171.0676872955425
 30
0.0
 11
302.8864056885561
 21
181.0676955435366
 31
0.0
  0
LINE
  5
4AF
330
1F
100
AcDbEntity
  8
0-E
  6
Continuous
 62
     7
370
     9
100
AcDbLine
 10
302.8864056885561
 20
181.7677028017714
 30
0.0
 11
302.8864056885561
 21
191.0677780234775
 31
0.0
  0
LINE
  5
4B0
330
1F
100
AcDbEntity
  8
0-E
  6
Continuous
 62
     7
370
     9
100
AcDbLine
 10
303.5863634588263
 20
171.0676872955425
 30
0.0
 11
303.5863634588263
 21
181.0676955435366
 31
0.0
  0
LINE
  5
4B1
330
1F
100
AcDbEntity
  8
0-E
  6
Continuous
 62
     7
370
     9
100
AcDbLine
 10
303.5863634588263
 20
181.7677028017714
 30
0.0
 11
303.5863634588263
 21
191.0677780234775
 31
0.0
  0
LINE
  5
4B2
330
1F
100
AcDbEntity
  8
0-E
  6
Continuous
 62
     7
370
     9
100
AcDbLine
 10
307.8863939759256
 20
181.7677028017714
 30
0.0
 11
298.5863574842504
 21
181.7677028017714
 31
0.0
  0
LINE
  5
4B3
330
1F
100
AcDbEntity
  8
0-E
  6
Continuous
 62
     7
370
     9
100
AcDbLine
 10
307.8863974401335
 20
181.0676955435366
 30
0.0
 11
298.5863490829198
 21
181.0676955435366
 31
0.0
  0
LINE
  5
4B4
330
1F
100
AcDbEntity
  8
0-E
  6
Continuous
 62
     7
370
     9
100
AcDbLine
 10
312.8865871444261
 20
181.7677028017714
 30
0.0
 11
312.8865871444261
 21
187.0821070525465
 31
0.0
  0
LINE
  5
4B5
330
1F
100
AcDbEntity
  8
0-E
  6
Continuous
 62
     7
370
     9
100
AcDbLine
 10
313.5864954267317
 20
181.7677028017714
 30
0.0
 11
313.5864954267317
 21
186.7123201458967
 31
0.0
  0
LINE
  5
4B6
330
1F
100
AcDbEntity
  8
0-E
  6
Continuous
 62
     7
370
     9
100
AcDbLine
 10
321.8399738935275
 20
181.7677028017714
 30
0.0
 11
318.5865614106844
 21
181.7677028017714
 31
0.0
  0
LINE
  5
4B7
330
1F
100
AcDbEntity
  8
0-E
  6
Continuous
 62
     7
370
     9
100
AcDbLine
 10
317.8866531283788
 20
181.7677028017714
 30
0.0
 11
308.5864294427791
 21
181.7677028017714
 31
0.0
  0
LINE
  5
4B8
330
1F
100
AcDbEntity
  8
0-E
  6
Continuous
 62
     7
370
     9
100
AcDbLine
 10
321.7624315176766
 20
181.0676955435366
 30
0.0
 11
318.5865614106844
 21
181.0676955435366
 31
0.0
  0
LINE
  5
4B9
330
1F
100
AcDbEntity
  8
0-E
  6
Continuous
 62
     7
370
     9
100
AcDbLine
 10
317.8866531283788
 20
181.0676955435366
 30
0.0
 11
308.5864294427791
 21
181.0676955435366
 31
0.0
  0
LINE
  5
4BA
330
1F
100
AcDbEntity
  8
0-E
  6
Continuous
 62
     7
370
     9
100
AcDbLine
 10
302.8864056885561
 20
176.767661561801
 30
0.0
 11
293.58633046685
 21
176.767661561801
 31
0.0
  0
LINE
  5
4BB
330
1F
100
AcDbEntity
  8
0-E
  6
Continuous
 62
     7
370
     9
100
AcDbLine
 10
302.8864056885561
 20
176.0676295595839
 30
0.0
 11
293.58633046685
 21
176.0676295595839
 31
0.0
  0
LINE
  5
4BC
330
1F
100
AcDbEntity
  8
0-E
  6
Continuous
 62
     7
370
     9
100
AcDbLine
 10
307.8864716725088
 20
166.0676707995542
 30
0.0
 11
307.8864221845442
 21
176.0676295595839
 31
0.0
  0
LINE
  5
4BD
330
1F
100
AcDbEntity
  8
0-E
  6
Continuous
 62
     7
370
     9
100
AcDbLine
 10
307.8864187202141
 20
176.767661561801
 30
0.0
 11
307.8863726959675
 21
186.0677120395248
 31
0.0
  0
LINE
  5
4BE
330
1F
100
AcDbEntity
  8
0-E
  6
Continuous
 62
     7
370
     9
100
AcDbLine
 10
308.5864294427791
 20
166.0676707995542
 30
0.0
 11
308.5864294427791
 21
176.0676295595839
 31
0.0
  0
LINE
  5
4BF
330
1F
100
AcDbEntity
  8
0-E
  6
Continuous
 62
     7
370
     9
100
AcDbLine
 10
308.5864294427791
 20
176.767661561801
 30
0.0
 11
308.5864294427791
 21
186.0677120395248
 31
0.0
  0
LINE
  5
4C0
330
1F
100
AcDbEntity
  8
0-E
  6
Continuous
 62
     7
370
     9
100
AcDbLine
 10
319.8513143260214
 20
176.767661561801
 30
0.0
 11
313.5864954267317
 21
176.767661561801
 31
0.0
  0
LINE
  5
4C1
330
1F
100
AcDbEntity
  8
0-E
  6
Continuous
 62
     7
370
     9
100
AcDbLine
 10
312.8865871444261
 20
176.767661561801
 30
0.0
 11
303.5863634588263
 21
176.767661561801
 31
0.0
  0
LINE
  5
4C2
330
1F
100
AcDbEntity
  8
0-E
  6
Continuous
 62
     7
370
     9
100
AcDbLine
 10
319.5401904605289
 20
176.0676295595839
 30
0.0
 11
313.5864954267317
 21
176.0676295595839
 31
0.0
  0
LINE
  5
4C3
330
1F
100
AcDbEntity
  8
0-E
  6
Continuous
 62
     7
370
     9
100
AcDbLine
 10
312.8865871444261
 20
176.0676295595839
 30
0.0
 11
303.5863634588263
 21
176.0676295595839
 31
0.0
  0
LINE
  5
4C4
330
1F
100
AcDbEntity
  8
0-E
  6
Continuous
 62
     7
370
     9
100
AcDbLine
 10
317.8866531283788
 20
172.3471529978323
 30
0.0
 11
317.8866531283788
 21
176.0676295595839
 31
0.0
  0
LINE
  5
4C5
330
1F
100
AcDbEntity
  8
0-E
  6
Continuous
 62
     7
370
     9
100
AcDbLine
 10
317.8866531283788
 20
176.767661561801
 30
0.0
 11
317.8866531283788
 21
184.2751598045343
 31
0.0
  0
LINE
  5
4C6
330
1F
100
AcDbEntity
  8
0-E
  6
Continuous
 62
     7
370
     9
100
AcDbLine
 10
318.5865614106844
 20
173.9219540676744
 30
0.0
 11
318.5865614106844
 21
176.0676295595839
 31
0.0
  0
LINE
  5
4C7
330
1F
100
AcDbEntity
  8
0-E
  6
Continuous
 62
     7
370
     9
100
AcDbLine
 10
318.5865614106844
 20
176.767661561801
 30
0.0
 11
318.5865614106844
 21
183.8505353997602
 31
0.0
  0
LINE
  5
4C8
330
1F
100
AcDbEntity
  8
0-E
  6
Continuous
 62
     7
370
     9
100
AcDbLine
 10
312.8865871444261
 20
161.8546119154749
 30
0.0
 11
312.8865871444261
 21
170.3677047812899
 31
0.0
  0
LINE
  5
4C9
330
1F
100
AcDbEntity
  8
0-E
  6
Continuous
 62
     7
370
     9
100
AcDbLine
 10
312.8865871444261
 20
171.0676872955425
 30
0.0
 11
312.8865871444261
 21
181.0676955435366
 31
0.0
  0
LINE
  5
4CA
330
1F
100
AcDbEntity
  8
0-E
  6
Continuous
 62
     7
370
     9
100
AcDbLine
 10
313.5864954267317
 20
162.9649486315855
 30
0.0
 11
313.5864954267317
 21
170.3677047812899
 31
0.0
  0
LINE
  5
4CB
330
1F
100
AcDbEntity
  8
0-E
  6
Continuous
 62
     7
370
     9
100
AcDbLine
 10
313.5864954267317
 20
171.0676872955425
 30
0.0
 11
313.5864954267317
 21
181.0676955435366
 31
0.0
  0
LINE
  5
4CC
330
1F
100
AcDbEntity
  8
0-E
  6
Continuous
 62
     7
370
     9
100
AcDbLine
 10
283.5861118545092
 20
183.9484534699182
 30
0.0
 11
283.5861521121631
 21
191.0677780234775
 31
0.0
  0
LINE
  5
4CD
330
1F
100
AcDbEntity
  8
0-E
  6
Continuous
 62
     7
370
     9
100
AcDbLine
 10
287.8860097848399
 20
181.7677028017714
 30
0.0
 11
285.7668457223187
 21
181.7677028017714
 31
0.0
  0
LINE
  5
4CE
330
1F
100
AcDbEntity
  8
0-E
  6
Continuous
 62
     7
370
     9
100
AcDbLine
 10
287.8860097848399
 20
181.0676955435366
 30
0.0
 11
286.4668475877507
 21
181.0676955435366
 31
0.0
  0
LINE
  5
4CF
330
1F
100
AcDbEntity
  8
0-E
  6
Continuous
 62
     7
370
     9
100
AcDbLine
 10
287.8859721289235
 20
179.6485600694521
 30
0.0
 11
287.8861087607688
 21
186.0677120395248
 31
0.0
  0
LINE
  5
4D0
330
1F
100
AcDbEntity
  8
0-E
  6
Continuous
 62
     7
370
     9
100
AcDbLine
 10
288.5860139745959
 20
178.948512830669
 30
0.0
 11
288.5861655069683
 21
186.0677120395248
 31
0.0
  0
LINE
  5
4D1
330
1F
100
AcDbEntity
  8
0-E
  6
Continuous
 62
     7
370
     9
100
AcDbLine
 10
292.8863091589253
 20
174.648184516937
 30
0.0
 11
292.8863726965797
 21
181.0676955435366
 31
0.0
  0
LINE
  5
4D2
330
1F
100
AcDbEntity
  8
0-E
  6
Continuous
 62
     7
370
     9
100
AcDbLine
 10
292.8862737206506
 20
176.0676295595839
 30
0.0
 11
291.4668750515751
 21
176.0676295595839
 31
0.0
  0
LINE
  5
4D3
330
1F
100
AcDbEntity
  8
0-E
  6
Continuous
 62
     7
370
     9
100
AcDbLine
 10
292.8862737206506
 20
176.767661561801
 30
0.0
 11
290.7668484423514
 21
176.767661561801
 31
0.0
  0
LINE
  5
4D4
330
1F
100
AcDbEntity
  8
0-E
  6
Continuous
 62
     7
370
     9
100
AcDbLine
 10
293.5863237435369
 20
173.9481645394247
 30
0.0
 11
293.5864294427791
 21
181.0676955435366
 31
0.0
  0
LINE
  5
4D5
330
1F
100
AcDbEntity
  8
0-E
  6
Continuous
 62
     7
370
     9
100
AcDbLine
 10
297.8862407286744
 20
171.0676872955425
 30
0.0
 11
296.4667787964414
 21
171.0676872955425
 31
0.0
  0
LINE
  5
4D6
330
1F
100
AcDbEntity
  8
0-E
  6
Continuous
 62
     7
370
     9
100
AcDbLine
 10
297.8862407286744
 20
170.3677047812899
 30
0.0
 11
297.1667559180819
 21
170.3677047812899
 31
0.0
  0
LINE
  5
4D7
330
1F
100
AcDbEntity
  8
0-E
  6
Continuous
 62
     7
370
     9
100
AcDbLine
 10
297.8861771922836
 20
169.6482779646787
 30
0.0
 11
297.8862407286744
 21
176.0676295595839
 31
0.0
  0
LINE
  5
4D8
330
1F
100
AcDbEntity
  8
0-E
  6
Continuous
 62
     7
370
     9
100
AcDbLine
 10
298.5862270095929
 20
168.9482227541973
 30
0.0
 11
298.5862974748736
 21
176.0676295595839
 31
0.0
  0
LINE
  5
4D9
330
1F
100
AcDbEntity
  8
0-E
  6
Continuous
 62
     7
370
     9
100
AcDbLine
 10
302.8863067126272
 20
166.0676707995542
 30
0.0
 11
301.4667567726825
 21
166.0676707995542
 31
0.0
  0
LINE
  5
4DA
330
1F
100
AcDbEntity
  8
0-E
  6
Continuous
 62
     7
370
     9
100
AcDbLine
 10
302.8863067126272
 20
165.367614053355
 30
0.0
 11
302.1668081256978
 21
165.367614053355
 31
0.0
  0
LINE
  5
4DB
330
1F
100
AcDbEntity
  8
0-E
  6
Continuous
 62
     7
370
     9
100
AcDbLine
 10
307.8864716725088
 20
161.0676543035661
 30
0.0
 11
306.4667347489235
 21
161.0676543035661
 31
0.0
  0
LINE
  5
4DC
330
1F
100
AcDbEntity
  8
0-E
  6
Continuous
 62
     7
370
     9
100
AcDbLine
 10
307.8864716725088
 20
160.3677460212605
 30
0.0
 11
307.1666376391889
 21
160.3677460212605
 31
0.0
  0
LINE
  5
4DD
330
1F
100
AcDbEntity
  8
0-E
  6
Continuous
 62
     7
370
     9
100
AcDbLine
 10
307.8865021094374
 20
159.6478760051882
 30
0.0
 11
307.8864716725088
 21
165.367614053355
 31
0.0
  0
LINE
  5
4DE
330
1F
100
AcDbEntity
  8
0-E
  6
Continuous
 62
     7
370
     9
100
AcDbLine
 10
308.5864294427791
 20
158.947943279618
 30
0.0
 11
308.5864294427791
 21
165.367614053355
 31
0.0
  0
LINE
  5
4DF
330
1F
100
AcDbEntity
  8
0-E
  6
Continuous
 62
     7
370
     9
100
AcDbLine
 10
303.5863634588263
 20
163.9480477839959
 30
0.0
 11
303.5863634588263
 21
170.3677047812899
 31
0.0
  0
LINE
  5
4E0
330
1F
100
AcDbEntity
  8
0-E
  6
Continuous
 62
     7
370
     9
100
AcDbLine
 10
302.8863448172752
 20
164.6480718184789
 30
0.0
 11
302.8864056885561
 21
170.3677047812899
 31
0.0
  0
LINE
  5
4E1
330
1F
100
AcDbEntity
  8
0-E
  6
Continuous
 62
     7
370
     9
100
AcDbLine
 10
314.0284229499582
 20
163.6660941130045
 30
0.0
 11
310.1002103665623
 21
157.4341506936917
 31
0.0
  0
LINE
  5
4E2
330
1F
100
AcDbEntity
  8
0-E
  6
Continuous
 62
     7
370
     9
100
AcDbLine
 10
282.8861111638318
 20
184.6484595533894
 30
0.0
 11
282.8861732172821
 21
196.9714680725226
 31
0.0
  0
LINE
  5
4E3
330
1F
100
AcDbEntity
  8
D-5
  6
Continuous
 62
     7
370
     9
100
AcDbLine
 10
-290.3330380755759
 20
-148.4437186423525
 30
0.0
 11
-241.1587169266012
 21
-233.6161413000848
 31
0.0
  0
TEXT
  5
4E4
330
1F
100
AcDbEntity
  8
D-5
  6
Continuous
 62
     2
370
     9
100
AcDbText
 10
-239.8782205658551
 20
-227.9810334711358
 30
0.0
 40
9.144
  1
取付クリップ
 41
1.104166666666669
  7
ＭＳ ゴシック
100
AcDbText
  0
LINE
  5
4E5
330
1F
100
AcDbEntity
  8
D-5
  6
Continuous
 62
     7
370
     9
100
AcDbLine
 10
-241.1587169266012
 20
-233.6161413000848
 30
0.0
 11
-159.382300178028
 21
-233.6161413000848
 31
0.0
  0
TEXT
  5
4E6
330
1F
100
AcDbEntity
  8
D-5
  6
Continuous
 62
     2
370
     9
100
AcDbText
 10
-239.8782205658551
 20
-246.8170123071146
 30
0.0
 40
9.144
  1
(SUS304CSP)
 41
1.113636363636366
  7
ＭＳ ゴシック
100
AcDbText
  0
LINE
  5
4E7
330
1F
100
AcDbEntity
  8
D-A
  6
Continuous
 62
     2
370
     9
100
AcDbLine
 10
-258.2901888819096
 20
-87.73028785553552
 30
0.0
 11
-259.2946096112843
 21
-86.72586712616082
 31
0.0
  0
LINE
  5
4E8
330
1F
100
AcDbEntity
  8
D-A
  6
Continuous
 62
     2
370
     9
100
AcDbLine
 10
-256.6815961319298
 20
-93.30050429597665
 30
0.0
 11
-258.764369633078
 21
-99.98391368791613
 31
0.0
  0
LINE
  5
4E9
330
1F
100
AcDbEntity
  8
D-A
  6
Continuous
 62
     2
370
     9
100
AcDbLine
 10
-260.7099476242371
 20
-101.2202479752098
 30
0.0
 11
-260.567437510561
 21
-101.3629942934944
 31
0.0
  0
LINE
  5
4EA
330
1F
100
AcDbEntity
  8
D-A
  6
Continuous
 62
     2
370
     9
100
AcDbLine
 10
-240.1466043043146
 20
-105.8737149633914
 30
0.0
 11
-239.142026105201
 21
-106.8782144276356
 31
0.0
  0
LINE
  5
4EB
330
1F
100
AcDbEntity
  8
D-A
  6
Continuous
 62
     2
370
     9
100
AcDbLine
 10
-245.7167026424519
 20
-104.2652403157161
 30
0.0
 11
-252.4002301366955
 21
-106.3480531842991
 31
0.0
  0
LINE
  5
4EC
330
1F
100
AcDbEntity
  8
D-A
  6
Continuous
 62
     2
370
     9
100
AcDbLine
 10
-253.6365644239889
 20
-108.2937099103274
 30
0.0
 11
-253.7791139050999
 21
-108.1510816943469
 31
0.0
  0
LINE
  5
4ED
330
1F
100
AcDbEntity
  8
D-A
  6
Continuous
 62
     2
370
     9
100
AcDbLine
 10
-260.1433321363522
 20
-101.3629549260597
 30
0.0
 11
-257.1732166566782
 21
-98.39307565099392
 31
0.0
  0
LINE
  5
4EE
330
1F
100
AcDbEntity
  8
D-A
  6
Continuous
 62
     2
370
     9
100
AcDbLine
 10
-259.0824585055934
 20
-102.4235923522106
 30
0.0
 11
-256.1124611282232
 21
-99.45383117944897
 31
0.0
  0
LINE
  5
4EF
330
1F
100
AcDbEntity
  8
D-A
  6
Continuous
 62
     2
370
     9
100
AcDbLine
 10
-254.8399481684246
 20
-106.66602395451
 30
0.0
 11
-251.869990158489
 21
-103.6963808840523
 31
0.0
  0
LINE
  5
4F0
330
1F
100
AcDbEntity
  8
D-A
  6
Continuous
 62
     2
370
     9
100
AcDbLine
 10
-253.7794682120126
 20
-107.7265826457914
 30
0.0
 11
-250.8095495695121
 21
-104.7568214730297
 31
0.0
  0
LINE
  5
4F1
330
1F
100
AcDbEntity
  8
D-A
  6
Continuous
 62
     2
370
     9
100
AcDbLine
 10
-250.8091558951649
 20
-104.7569789427686
 30
0.0
 11
-252.2945679419146
 21
-103.2715668960192
 31
0.0
  0
ARC
  5
4F2
330
1F
100
AcDbEntity
  8
D-A
  6
Continuous
 62
     2
370
     9
100
AcDbCircle
 10
-262.5327779539477
 20
-91.97279819270432
 30
0.0
 40
6.000000077324945
100
AcDbArc
 50
347.2168426513672
 51
45.00035095214844
  0
ARC
  5
4F3
330
1F
100
AcDbEntity
  8
D-A
  6
Continuous
 62
     2
370
     9
100
AcDbCircle
 10
-260.3553257723042
 20
-101.1509612901076
 30
0.0
 40
1.800000131935687
100
AcDbArc
 50
225.0003509521484
 51
315.0003509521484
  0
ARC
  5
4F4
330
1F
100
AcDbEntity
  8
D-A
  6
Continuous
 62
     2
370
     9
100
AcDbCircle
 10
-260.3553257723042
 20
-101.1509612901076
 30
0.0
 40
0.3000000038662473
100
AcDbArc
 50
225.0003509521484
 51
315.0003509521484
  0
ARC
  5
4F5
330
1F
100
AcDbEntity
  8
D-A
  6
Continuous
 62
     2
370
     9
100
AcDbCircle
 10
-250.9769005344947
 20
-96.07153865828573
 30
0.0
 40
11.01118190868481
100
AcDbArc
 50
131.6701507568359
 51
207.8788452148438
  0
ARC
  5
4F6
330
1F
100
AcDbEntity
  8
D-A
  6
Continuous
 62
     2
370
     9
100
AcDbCircle
 10
-250.9769005344947
 20
-96.07153865828573
 30
0.0
 40
12.5111836678273
100
AcDbArc
 50
131.6701507568359
 51
208.9452667236328
  0
ARC
  5
4F7
330
1F
100
AcDbEntity
  8
D-A
  6
Continuous
 62
     2
370
     9
100
AcDbCircle
 10
-244.3889965391791
 20
-110.116264667995
 30
0.0
 40
6.000000077324945
100
AcDbArc
 50
45.00035095214844
 51
102.7838592529297
  0
ARC
  5
4F8
330
1F
100
AcDbEntity
  8
D-A
  6
Continuous
 62
     2
370
     9
100
AcDbCircle
 10
-253.5671202691479
 20
-107.9390880583948
 30
0.0
 40
1.800000131935687
100
AcDbArc
 50
135.0003509521484
 51
225.0003509521484
  0
ARC
  5
4F9
330
1F
100
AcDbEntity
  8
D-A
  6
Continuous
 62
     2
370
     9
100
AcDbCircle
 10
-253.5671202691479
 20
-107.9390880583948
 30
0.0
 40
0.3000000038662473
100
AcDbArc
 50
135.0003509521484
 51
225.0003509521484
  0
ARC
  5
4FA
330
1F
100
AcDbEntity
  8
D-A
  6
Continuous
 62
     2
370
     9
100
AcDbCircle
 10
-248.4879338419344
 20
-98.56026914623786
 30
0.0
 40
11.01118190868481
100
AcDbArc
 50
242.1218566894531
 51
318.3305511474609
  0
ARC
  5
4FB
330
1F
100
AcDbEntity
  8
D-A
  6
Continuous
 62
     2
370
     9
100
AcDbCircle
 10
-248.4879338419344
 20
-98.56026914623786
 30
0.0
 40
12.5111836678273
100
AcDbArc
 50
241.0554351806641
 51
318.3305511474609
  0
LINE
  5
4FC
330
1F
100
AcDbEntity
  8
D-9
  6
Continuous
 62
     7
370
     9
100
AcDbLine
 10
-250.8863273144543
 20
-94.22672584631962
 30
0.0
 11
-250.0375260545169
 21
-94.22684394862378
 31
0.0
  0
LINE
  5
4FD
330
1F
100
AcDbEntity
  8
D-9
  6
Continuous
 62
     7
370
     9
100
AcDbLine
 10
-250.0375260545169
 20
-94.22684394862378
 30
0.0
 11
-246.643659507547
 21
-97.62071049559373
 31
0.0
  0
LINE
  5
4FE
330
1F
100
AcDbEntity
  8
D-9
  6
Continuous
 62
     7
370
     9
100
AcDbLine
 10
-246.6436595075467
 20
-97.62071049559373
 30
0.0
 11
-246.6435414052426
 21
-98.46935428579252
 31
0.0
  0
LINE
  5
4FF
330
1F
100
AcDbEntity
  8
D-9
  6
Continuous
 62
     7
370
     9
100
AcDbLine
 10
-250.8863273144543
 20
-94.22672584631962
 30
0.0
 11
-246.6436595075467
 21
-98.46923618348836
 31
0.0
  0
LINE
  5
500
330
1F
100
AcDbEntity
  8
D-9
  6
JWW_CENTER1
 62
     7
370
     9
100
AcDbLine
 10
-282.0725792184671
 20
-129.6559998641521
 30
0.0
 11
-247.1070142141684
 21
-94.69004118550643
 31
0.0
  0
LINE
  5
501
330
1F
100
AcDbEntity
  8
D-9
  6
Continuous
 62
     7
370
     9
100
AcDbLine
 10
-285.4636811256036
 20
-122.4407059800007
 30
0.0
 11
-274.8570706594866
 21
-133.0471589763788
 31
0.0
  0
LINE
  5
502
330
1F
100
AcDbEntity
  8
D-9
  6
Continuous
 62
     7
370
     9
100
AcDbLine
 10
-296.0702915917205
 20
-133.0473164461177
 30
0.0
 11
-285.4636811256038
 21
-143.653769442496
 31
0.0
  0
LINE
  5
503
330
1F
100
AcDbEntity
  8
D-9
  6
Continuous
 62
     7
370
     9
100
AcDbLine
 10
-300.3129200311934
 20
-137.2899448855907
 30
0.0
 11
-289.7061520953375
 21
-147.8965553517078
 31
0.0
  0
LINE
  5
504
330
1F
100
AcDbEntity
  8
D-9
  6
Continuous
 62
     7
370
     9
100
AcDbLine
 10
-300.4461394302764
 20
-137.4231642846736
 30
0.0
 11
-289.8394502292899
 21
-148.0298534856601
 31
0.0
  0
LINE
  5
505
330
1F
100
AcDbEntity
  8
D-9
  6
Continuous
 62
     7
370
     9
100
AcDbLine
 10
-311.9800104537226
 20
-148.9573502475976
 30
0.0
 11
-301.3734393550404
 21
-159.5638426114104
 31
0.0
  0
LINE
  5
506
330
1F
100
AcDbEntity
  8
D-9
  6
Continuous
 62
     7
370
     9
100
AcDbLine
 10
-285.4636811256036
 20
-122.4407059800007
 30
0.0
 11
-311.9800104537226
 21
-148.9573502475976
 31
0.0
  0
LINE
  5
507
330
1F
100
AcDbEntity
  8
D-9
  6
Continuous
 62
     7
370
     9
100
AcDbLine
 10
-274.8570706594863
 20
-133.0471589763788
 30
0.0
 11
-301.3734393550404
 21
-159.5638426114105
 31
0.0
  0
LINE
  5
508
330
1F
100
AcDbEntity
  8
D-9
  6
JWW_DASHED2
 62
     7
370
     9
100
AcDbLine
 10
-285.9939998386791
 20
-122.9710246930761
 30
0.0
 11
-275.3874287399964
 21
-133.577517056889
 31
0.0
  0
LINE
  5
509
330
1F
100
AcDbEntity
  8
D-9
  6
JWW_DASHED2
 62
     7
370
     9
100
AcDbLine
 10
-295.54001224608
 20
-132.5170371004771
 30
0.0
 11
-284.9333230450934
 21
-143.1234113619858
 31
0.0
  0
LINE
  5
50A
330
1F
100
AcDbEntity
  8
D-9
  6
JWW_DASHED2
 62
     7
370
     9
100
AcDbLine
 10
-311.4497704755166
 20
-148.4271102693915
 30
0.0
 11
-300.8428450699219
 21
-159.0335632657696
 31
0.0
  0
LINE
  5
50B
330
1F
100
AcDbEntity
  8
D-9
  6
Continuous
 62
     7
370
     9
100
AcDbLine
 10
-282.2816202968155
 20
-125.6224125030276
 30
0.0
 11
-260.355470521904
 21
-103.6959877900002
 31
0.0
  0
LINE
  5
50C
330
1F
100
AcDbEntity
  8
D-9
  6
Continuous
 62
     7
370
     9
100
AcDbLine
 10
-256.1129141219278
 20
-99.45337819142453
 30
0.0
 11
-250.8863273144546
 21
-94.22672584631962
 31
0.0
  0
LINE
  5
50D
330
1F
100
AcDbEntity
  8
D-9
  6
Continuous
 62
     7
370
     9
100
AcDbLine
 10
-281.8573968203028
 20
-126.0466359795402
 30
0.0
 11
-259.9310890457964
 21
-104.120382459339
 31
0.0
  0
LINE
  5
50E
330
1F
100
AcDbEntity
  8
D-9
  6
Continuous
 62
     7
370
     9
100
AcDbLine
 10
-255.6884941982132
 20
-99.87779810960339
 30
0.0
 11
-250.0375260545169
 21
-94.22684394862378
 31
0.0
  0
LINE
  5
50F
330
1F
100
AcDbEntity
  8
D-A
  6
Continuous
 62
     2
370
     9
100
AcDbLine
 10
-261.9250234967839
 20
-102.126604424704
 30
0.0
 11
-257.8419555343754
 21
-106.2092627489915
 31
0.0
  0
LINE
  5
510
330
1F
100
AcDbEntity
  8
D-A
  6
Continuous
 62
     2
370
     9
100
AcDbLine
 10
-257.8419555343754
 20
-106.2092627489915
 30
0.0
 11
-254.542684668875
 21
-109.5088645177434
 31
0.0
  0
LINE
  5
511
330
1F
100
AcDbEntity
  8
D-A
  6
Continuous
 62
     2
370
     9
100
AcDbLine
 10
-252.2946466767838
 20
-103.2716456308885
 30
0.0
 11
-257.1732166566782
 21
-98.39307565099392
 31
0.0
  0
LINE
  5
512
330
1F
100
AcDbEntity
  8
D-9
  6
Continuous
 62
     7
370
     9
100
AcDbLine
 10
-278.4632153338549
 20
-129.4405812613795
 30
0.0
 11
-256.5371272476102
 21
-107.5142219046488
 31
0.0
  0
LINE
  5
513
330
1F
100
AcDbEntity
  8
D-9
  6
Continuous
 62
     7
370
     9
100
AcDbLine
 10
-252.294625069391
 20
-103.2716672380139
 30
0.0
 11
-246.6435414052426
 21
-97.62051365842026
 31
0.0
  0
LINE
  5
514
330
1F
100
AcDbEntity
  8
D-9
  6
Continuous
 62
     7
370
     9
100
AcDbLine
 10
-278.0390705922117
 20
-129.8651196773699
 30
0.0
 11
-256.1128362737522
 21
-107.9385554331403
 31
0.0
  0
LINE
  5
515
330
1F
100
AcDbEntity
  8
D-9
  6
Continuous
 62
     7
370
     9
100
AcDbLine
 10
-251.870357862796
 20
-103.6960131852781
 30
0.0
 11
-246.643659507547
 21
-98.46923618348836
 31
0.0
  0
LINE
  5
516
330
1F
100
AcDbEntity
  8
ハッチ
  6
Continuous
 62
     6
370
     9
100
AcDbLine
 10
314.8464916047848
 20
-70.78368979141456
 30
0.0
 11
531.3733931231818
 21
-70.78368979141456
 31
0.0
  0
LINE
  5
517
330
1F
100
AcDbEntity
  8
ハッチ
  6
Continuous
 62
     6
370
     9
100
AcDbLine
 10
531.3733931231818
 20
-76.5109897339757
 30
0.0
 11
531.3733931231818
 21
6.20740533091961
 31
0.0
  0
LINE
  5
518
330
1F
100
AcDbEntity
  8
ハッチ
  6
Continuous
 62
     6
370
     9
100
AcDbLine
 10
539.3732385007859
 20
18.20784478404468
 30
0.0
 11
523.3733605710985
 21
6.20740533091961
 31
0.0
  0
LINE
  5
519
330
1F
100
AcDbEntity
  8
ハッチ
  6
Continuous
 62
     6
370
     9
100
AcDbLine
 10
539.3732385007859
 20
18.20784478404468
 30
0.0
 11
531.3735802976611
 21
18.20784478404468
 31
0.0
  0
LINE
  5
51A
330
1F
100
AcDbEntity
  8
ハッチ
  6
Continuous
 62
     6
370
     9
100
AcDbLine
 10
531.3735802976611
 20
6.20740533091961
 30
0.0
 11
523.3733605710985
 21
6.20740533091961
 31
0.0
  0
LINE
  5
51B
330
1F
100
AcDbEntity
  8
ハッチ
  6
Continuous
 62
     7
370
     9
100
AcDbLine
 10
339.9403810695278
 20
89.2179408731246
 30
0.0
 11
531.3733931231818
 21
89.2179408731246
 31
0.0
  0
LINE
  5
51C
330
1F
100
AcDbEntity
  8
ハッチ
  6
Continuous
 62
     7
370
     9
100
AcDbLine
 10
339.9403810695278
 20
86.21694044738723
 30
0.0
 11
531.3733931231818
 21
86.21694044738723
 31
0.0
  0
LINE
  5
51D
330
1F
100
AcDbEntity
  8
ハッチ
  6
Continuous
 62
     6
370
     9
100
AcDbLine
 10
531.3733931231818
 20
18.20784478404468
 30
0.0
 11
531.3733931231818
 21
96.67976341791365
 31
0.0
  0
LINE
  5
51E
330
1F
100
AcDbEntity
  8
ハッチ
  6
Continuous
 62
     6
370
     9
100
AcDbLine
 10
531.3733931231818
 20
43.54262851059162
 30
0.0
 11
417.0470748211755
 21
-70.78368979141456
 31
0.0
  0
LINE
  5
51F
330
1F
100
AcDbEntity
  8
ハッチ
  6
Continuous
 62
     6
370
     9
100
AcDbLine
 10
531.3733931231818
 20
35.05734713635322
 30
0.0
 11
425.532356195414
 21
-70.78368979141456
 31
0.0
  0
TEXT
  5
520
330
1F
100
AcDbEntity
  8
0-E
  6
Continuous
 62
     2
370
     9
100
AcDbText
 10
436.643279210666
 20
-130.2657484926949
 30
0.0
 40
9.144
  1
スラブコンクリート
 41
1.111111111111111
  7
ＭＳ ゴシック
100
AcDbText
  0
LINE
  5
521
330
1F
100
AcDbEntity
  8
0-E
  6
Continuous
 62
     7
370
     9
100
AcDbLine
 10
489.8934054049757
 20
-39.68795825568054
 30
0.0
 11
489.8934054049757
 21
-114.6879829996628
 31
0.0
  0
LWPOLYLINE
  5
522
330
1F
100
AcDbEntity
  8
0-E
  6
Continuous
 62
     7
370
     9
100
AcDbPolyline
 90
        4
 70
     1
 43
0.3
 10
490.0434054049758
 20
-39.68795825568054
 42
0.4142135623731
 10
489.8934054049757
 20
-39.53795825568054
 42
0.4142135623731
 10
489.7434054049757
 20
-39.68795825568054
 42
0.4142135623731
 10
489.8934054049757
 20
-39.83795825568055
 42
0.4142135623731
  0
LINE
  5
523
330
1F
100
AcDbEntity
  8
ハッチ
  6
Continuous
 62
     6
370
     9
100
AcDbLine
 10
531.3733931231818
 20
52.02790988483
 30
0.0
 11
408.561793446937
 21
-70.78368979141456
 31
0.0
  0
LINE
  5
524
330
1F
100
AcDbEntity
  8
ハッチ
  6
Continuous
 62
     6
370
     9
100
AcDbLine
 10
283.0571558135723
 20
365.9166961229271
 30
0.0
 11
199.3320325824693
 21
365.9166961229271
 31
0.0
  0
LINE
  5
525
330
1F
100
AcDbEntity
  8
ハッチ
  6
Continuous
 62
     6
370
     9
100
AcDbLine
 10
199.3320325824693
 20
365.9168832974063
 30
0.0
 11
199.3320325824693
 21
357.9166635708438
 31
0.0
  0
LINE
  5
526
330
1F
100
AcDbEntity
  8
ハッチ
  6
Continuous
 62
     6
370
     9
100
AcDbLine
 10
187.3315931293442
 20
373.9165415005311
 30
0.0
 11
199.3320325824693
 21
357.9166635708438
 31
0.0
  0
LINE
  5
527
330
1F
100
AcDbEntity
  8
ハッチ
  6
Continuous
 62
     6
370
     9
100
AcDbLine
 10
187.3315931293442
 20
373.9165415005311
 30
0.0
 11
187.3315931293442
 21
365.9168832974063
 31
0.0
  0
LINE
  5
528
330
1F
100
AcDbEntity
  8
ハッチ
  6
Continuous
 62
     6
370
     9
100
AcDbLine
 10
187.3315931293442
 20
365.9166961229271
 30
0.0
 11
104.2020395652906
 21
365.9166961229271
 31
0.0
  0
LINE
  5
529
330
1F
100
AcDbEntity
  8
ハッチ
  6
Continuous
 62
     6
370
     9
100
AcDbLine
 10
114.8466945054395
 20
159.4390130073718
 30
0.0
 11
114.8466945054395
 21
365.9166961229271
 31
0.0
  0
LINE
  5
52A
330
1F
100
AcDbEntity
  8
ハッチ
  6
Continuous
 62
     7
370
     9
100
AcDbLine
 10
264.8175111556724
 20
164.3399784521114
 30
0.0
 11
264.8175111556724
 21
365.9166961229271
 31
0.0
  0
LINE
  5
52B
330
1F
100
AcDbEntity
  8
ハッチ
  6
Continuous
 62
     7
370
     9
100
AcDbLine
 10
261.8174762220403
 20
164.3399908418517
 30
0.0
 11
261.8174762220403
 21
365.9166961229271
 31
0.0
  0
LINE
  5
52C
330
1F
100
AcDbEntity
  8
通り芯
  6
JWW_DASHED2
 62
     3
370
     9
100
AcDbLine
 10
254.6474730748415
 20
206.8849914085319
 30
0.0
 11
247.0509951686254
 21
215.9380980037222
 31
0.0
  0
LINE
  5
52D
330
1F
100
AcDbEntity
  8
通り芯
  6
JWW_DASHED2
 62
     3
370
     9
100
AcDbLine
 10
247.6001356127586
 20
226.3909286976189
 30
0.0
 11
253.4677742780353
 21
227.6947300390255
 31
0.0
  0
LINE
  5
52E
330
1F
100
AcDbEntity
  8
通り芯
  6
JWW_DASHED2
 62
     3
370
     9
100
AcDbLine
 10
246.817034807071
 20
225.4146817717642
 30
0.0
 11
246.8171339008287
 21
216.580869662012
 31
0.0
  0
LINE
  5
52F
330
1F
100
AcDbEntity
  8
0-9
  6
JWW_DASHED2
 62
     2
370
     9
100
AcDbLine
 10
244.8171865259765
 20
223.5769137178477
 30
0.0
 11
246.8169481000332
 21
223.5769137178477
 31
0.0
  0
LINE
  5
530
330
1F
100
AcDbEntity
  8
0-9
  6
JWW_DASHED2
 62
     2
370
     9
100
AcDbLine
 10
244.8171865259765
 20
218.8571028196081
 30
0.0
 11
246.8169481000332
 21
218.8571028196081
 31
0.0
  0
LINE
  5
531
330
1F
100
AcDbEntity
  8
0-9
  6
JWW_DASHED2
 62
     2
370
     9
100
AcDbLine
 10
244.8171865259765
 20
218.0416850622424
 30
0.0
 11
246.8169481000332
 21
218.0416850622424
 31
0.0
  0
LINE
  5
532
330
1F
100
AcDbEntity
  8
0-9
  6
JWW_DASHED2
 62
     2
370
     9
100
AcDbLine
 10
244.8171865259765
 20
224.39166259235
 30
0.0
 11
246.8169481000332
 21
224.39166259235
 31
0.0
  0
LINE
  5
533
330
1F
100
AcDbEntity
  8
0-9
  6
JWW_DASHED2
 62
     2
370
     9
100
AcDbLine
 10
229.8169185250829
 20
232.216799344092
 30
0.0
 11
223.81695253333
 21
232.216799344092
 31
0.0
  0
LINE
  5
534
330
1F
100
AcDbEntity
  8
0-9
  6
JWW_DASHED2
 62
     2
370
     9
100
AcDbLine
 10
229.8169185250829
 20
226.2165980046649
 30
0.0
 11
229.8169185250829
 21
232.216799344092
 31
0.0
  0
LINE
  5
535
330
1F
100
AcDbEntity
  8
0-9
  6
JWW_DASHED2
 62
     2
370
     9
100
AcDbLine
 10
223.81695253333
 20
226.2165980046649
 30
0.0
 11
223.81695253333
 21
232.216799344092
 31
0.0
  0
LINE
  5
536
330
1F
100
AcDbEntity
  8
0-9
  6
JWW_DASHED2
 62
     2
370
     9
100
AcDbLine
 10
231.8166800991396
 20
224.2169355243657
 30
0.0
 11
244.8171865259765
 21
224.2169355243657
 31
0.0
  0
LINE
  5
537
330
1F
100
AcDbEntity
  8
0-9
  6
JWW_DASHED2
 62
     2
370
     9
100
AcDbLine
 10
231.8166800991396
 20
218.2168332786962
 30
0.0
 11
244.8171865259765
 21
218.2168332786962
 31
0.0
  0
LINE
  5
538
330
1F
100
AcDbEntity
  8
0-9
  6
JWW_DASHED2
 62
     2
370
     9
100
AcDbLine
 10
244.8171865259765
 20
218.0416850622424
 30
0.0
 11
244.8171865259765
 21
224.39166259235
 31
0.0
  0
ARC
  5
539
330
1F
100
AcDbEntity
  8
通り芯
  6
JWW_DASHED2
 62
     3
370
     9
100
AcDbCircle
 10
247.8169775276979
 20
216.580869662012
 30
0.0
 40
1.00000000920535
100
AcDbArc
 50
180.0
 51
220.0001678466797
  0
ARC
  5
53A
330
1F
100
AcDbEntity
  8
通り芯
  6
JWW_DASHED2
 62
     3
370
     9
100
AcDbCircle
 10
252.8170255722633
 20
230.6232726290747
 30
0.0
 40
3.000000027616052
100
AcDbArc
 50
282.5279693603516
 51
0.0000000000000032
  0
ARC
  5
53B
330
1F
100
AcDbEntity
  8
通り芯
  6
JWW_DASHED2
 62
     3
370
     9
100
AcDbCircle
 10
250.8172516114871
 20
203.6710340233251
 30
0.0
 40
4.999999658941762
100
AcDbArc
 50
0.0
 51
40.00016784667969
  0
ARC
  5
53C
330
1F
100
AcDbEntity
  8
通り芯
  6
JWW_DASHED2
 62
     3
370
     9
100
AcDbCircle
 10
247.8170394612963
 20
225.4147065452036
 30
0.0
 40
1.00000000920535
100
AcDbArc
 50
102.5281982421875
 51
180.0028381347657
  0
ARC
  5
53D
330
1F
100
AcDbEntity
  8
0-9
  6
JWW_DASHED2
 62
     2
370
     9
100
AcDbCircle
 10
231.8166800991396
 20
226.2165980046649
 30
0.0
 40
1.999999824868206
100
AcDbArc
 50
180.0
 51
270.0
  0
ARC
  5
53E
330
1F
100
AcDbEntity
  8
0-9
  6
JWW_DASHED2
 62
     2
370
     9
100
AcDbCircle
 10
231.8166800991396
 20
226.2165980046649
 30
0.0
 40
7.999999299472823
100
AcDbArc
 50
180.0
 51
270.0
  0
LINE
  5
53F
330
1F
100
AcDbEntity
  8
通り芯
  6
JWW_DASHED2
 62
     3
370
     9
100
AcDbLine
 10
396.1485899563409
 20
79.04718193790231
 30
0.0
 11
387.0954833611506
 21
71.45067925824685
 31
0.0
  0
LINE
  5
540
330
1F
100
AcDbEntity
  8
通り芯
  6
JWW_DASHED2
 62
     3
370
     9
100
AcDbLine
 10
376.6426774406933
 20
71.99983208909981
 30
0.0
 11
375.3388513258472
 21
77.8674583676567
 31
0.0
  0
ARC
  5
541
330
1F
100
AcDbEntity
  8
通り芯
  6
JWW_DASHED2
 62
     3
370
     9
100
AcDbCircle
 10
386.4527612497395
 20
72.21671116419802
 30
0.0
 40
1.00000000920535
100
AcDbArc
 50
270.0
 51
310.0001678466797
  0
ARC
  5
542
330
1F
100
AcDbEntity
  8
通り芯
  6
JWW_DASHED2
 62
     3
370
     9
100
AcDbCircle
 10
372.4102839623586
 20
77.21669727516513
 30
0.0
 40
3.000000027616052
100
AcDbArc
 50
12.52796936035156
 51
90.0
  0
ARC
  5
543
330
1F
100
AcDbEntity
  8
通り芯
  6
JWW_DASHED2
 62
     3
370
     9
100
AcDbCircle
 10
399.3625473415476
 20
75.21693570110853
 30
0.0
 40
4.999999658941762
100
AcDbArc
 50
90.0
 51
130.0001678466797
  0
ARC
  5
544
330
1F
100
AcDbEntity
  8
通り芯
  6
JWW_DASHED2
 62
     3
370
     9
100
AcDbCircle
 10
377.6188500462299
 20
72.21673593763742
 30
0.0
 40
1.00000000920535
100
AcDbArc
 50
192.5281982421875
 51
270.0028381347656
  0
LINE
  5
545
330
1F
100
AcDbEntity
  8
0-9
  6
JWW_DASHED2
 62
     2
370
     9
100
AcDbLine
 10
378.6417453584471
 20
69.21693254919646
 30
0.0
 11
384.9916733416758
 21
69.21693254919646
 31
0.0
  0
LINE
  5
546
330
1F
100
AcDbEntity
  8
0-9
  6
JWW_DASHED2
 62
     2
370
     9
100
AcDbLine
 10
392.8168596402965
 20
54.21663977486347
 30
0.0
 11
392.8168596402965
 21
48.21667378311057
 31
0.0
  0
LINE
  5
547
330
1F
100
AcDbEntity
  8
0-9
  6
JWW_DASHED2
 62
     2
370
     9
100
AcDbLine
 10
386.8167821680664
 20
54.21663977486347
 30
0.0
 11
392.8168596402965
 21
54.21663977486347
 31
0.0
  0
LINE
  5
548
330
1F
100
AcDbEntity
  8
0-9
  6
JWW_DASHED2
 62
     2
370
     9
100
AcDbLine
 10
386.8167821680664
 20
48.21667378311057
 30
0.0
 11
392.8168596402965
 21
48.21667378311057
 31
0.0
  0
LINE
  5
549
330
1F
100
AcDbEntity
  8
0-9
  6
JWW_DASHED2
 62
     2
370
     9
100
AcDbLine
 10
384.8170205940099
 20
56.2164137356398
 30
0.0
 11
384.8170205940099
 21
69.21693254919646
 31
0.0
  0
LINE
  5
54A
330
1F
100
AcDbEntity
  8
0-9
  6
JWW_DASHED2
 62
     2
370
     9
100
AcDbLine
 10
378.8168440280221
 20
56.2164137356398
 30
0.0
 11
378.8168440280221
 21
69.21693254919646
 31
0.0
  0
ARC
  5
54B
330
1F
100
AcDbEntity
  8
0-9
  6
JWW_DASHED2
 62
     2
370
     9
100
AcDbCircle
 10
386.8167821680664
 20
56.2164137356398
 30
0.0
 40
1.999999824868206
100
AcDbArc
 50
180.0
 51
270.0
  0
ARC
  5
54C
330
1F
100
AcDbEntity
  8
0-9
  6
JWW_DASHED2
 62
     2
370
     9
100
AcDbCircle
 10
386.8167821680664
 20
56.2164137356398
 30
0.0
 40
7.999999299472823
100
AcDbArc
 50
180.0
 51
270.0
  0
LINE
  5
54D
330
1F
100
AcDbEntity
  8
0-9
  6
JWW_DASHED2
 62
     2
370
     9
100
AcDbLine
 10
384.9916733416758
 20
69.21693254919646
 30
0.0
 11
384.9916733416758
 21
71.21669412325312
 31
0.0
  0
LINE
  5
54E
330
1F
100
AcDbEntity
  8
0-9
  6
JWW_DASHED2
 62
     2
370
     9
100
AcDbLine
 10
384.1770235609312
 20
69.21693254919646
 30
0.0
 11
384.1770235609312
 21
71.21669412325312
 31
0.0
  0
LINE
  5
54F
330
1F
100
AcDbEntity
  8
0-9
  6
JWW_DASHED2
 62
     2
370
     9
100
AcDbLine
 10
379.4570887954945
 20
69.21693254919646
 30
0.0
 11
379.4570887954945
 21
71.21669412325312
 31
0.0
  0
LINE
  5
550
330
1F
100
AcDbEntity
  8
0-9
  6
JWW_DASHED2
 62
     2
370
     9
100
AcDbLine
 10
378.6417453584471
 20
69.21693254919646
 30
0.0
 11
378.6417453584471
 21
71.21669412325312
 31
0.0
  0
TEXT
  5
551
330
1F
100
AcDbEntity
  8
F-4ﾚｲﾔ
  6
Continuous
 62
     2
370
     9
100
AcDbText
 10
96.25954783430761
 20
-311.4499399082638
 30
0.0
 40
9.144
  1
ＷＨＸＳＷ、ＷＨＤＸＳ、ＷＨＤＵＸＳ，ＥＷＸＳ
 41
1.119565217391305
  7
ＭＳ ゴシック
100
AcDbText
  0
LINE
  5
552
330
1F
100
AcDbEntity
  8
F-4ﾚｲﾔ
  6
Continuous
 62
     7
370
     9
100
AcDbLine
 10
89.06451084959845
 20
-249.1609121775568
 30
0.0
 11
413.9892783634941
 21
-249.1609121775568
 31
0.0
  0
LINE
  5
553
330
1F
100
AcDbEntity
  8
F-4ﾚｲﾔ
  6
Continuous
 62
     7
370
     9
100
AcDbLine
 10
89.06451084959845
 20
-270.1609072287603
 30
0.0
 11
413.9892783634941
 21
-270.1609072287603
 31
0.0
  0
LINE
  5
554
330
1F
100
AcDbEntity
  8
F-4ﾚｲﾔ
  6
Continuous
 62
     7
370
     9
100
AcDbLine
 10
89.06451084959845
 20
-273.1609171263532
 30
0.0
 11
413.9892783634941
 21
-273.1609171263532
 31
0.0
  0
LINE
  5
555
330
1F
100
AcDbEntity
  8
F-4ﾚｲﾔ
  6
Continuous
 62
     7
370
     9
100
AcDbLine
 10
89.06451084959845
 20
-321.0499714588958
 30
0.0
 11
413.9892783634941
 21
-321.0499714588958
 31
0.0
  0
LINE
  5
556
330
1F
100
AcDbEntity
  8
F-4ﾚｲﾔ
  6
Continuous
 62
     7
370
     9
100
AcDbLine
 10
413.9892783634941
 20
-321.0499714588958
 30
0.0
 11
413.9892783634941
 21
-249.1609121775568
 31
0.0
  0
TEXT
  5
557
330
1F
100
AcDbEntity
  8
F-4ﾚｲﾔ
  6
Continuous
 62
     2
370
     9
100
AcDbText
 10
225.2768946065463
 20
-263.9689097031585
 30
0.0
 40
9.144
  1
適用機種
 41
1.09375
  7
ＭＳ ゴシック
100
AcDbText
  0
ENDSEC
  0
SECTION
  2
OBJECTS
  0
DICTIONARY
  5
C
330
0
100
AcDbDictionary
281
     1
  3
ACAD_GROUP
350
D
  3
ACAD_LAYOUT
350
1A
  3
ACAD_MLEADERSTYLE
350
559
  3
ACAD_MLINESTYLE
350
17
  3
ACAD_PLOTSETTINGS
350
19
  3
ACAD_PLOTSTYLENAME
350
E
  3
ACAD_TABLESTYLE
350
558
  3
ACAD_VISUALSTYLE
350
2A
  0
DICTIONARY
  5
D
102
{ACAD_REACTORS
330
C
102
}
330
C
100
AcDbDictionary
281
     1
  0
DICTIONARY
  5
1A
102
{ACAD_REACTORS
330
C
102
}
330
C
100
AcDbDictionary
281
     1
  3
Layout1
350
1E
  3
Layout2
350
26
  3
Model
350
22
  0
DICTIONARY
  5
559
102
{ACAD_REACTORS
330
C
102
}
330
C
100
AcDbDictionary
281
     1
  0
DICTIONARY
  5
17
102
{ACAD_REACTORS
330
C
102
}
330
C
100
AcDbDictionary
281
     1
  3
Standard
350
18
  0
DICTIONARY
  5
19
102
{ACAD_REACTORS
330
C
102
}
330
C
100
AcDbDictionary
281
     1
  0
ACDBDICTIONARYWDFLT
  5
E
102
{ACAD_REACTORS
330
C
102
}
330
C
100
AcDbDictionary
281
     1
  3
Normal
350
F
100
AcDbDictionaryWithDefault
340
F
  0
DICTIONARY
  5
558
102
{ACAD_REACTORS
330
C
102
}
330
C
100
AcDbDictionary
281
     1
  0
DICTIONARY
  5
2A
102
{ACAD_REACTORS
330
C
102
}
330
C
100
AcDbDictionary
281
     1
  3
2dWireframe
350
2F
  3
3D Hidden
350
31
  3
3dWireframe
350
30
  3
Basic
350
32
  3
Brighten
350
36
  3
ColorChange
350
3A
  3
Conceptual
350
34
  3
Dim
350
35
  3
Facepattern
350
39
  3
Flat
350
2B
  3
FlatWithEdges
350
2C
  3
Gouraud
350
2D
  3
GouraudWithEdges
350
2E
  3
Linepattern
350
38
  3
Realistic
350
33
  3
Thicken
350
37
  0
LAYOUT
  5
1E
102
{ACAD_REACTORS
330
1A
102
}
330
1A
100
AcDbPlotSettings
  1

  2
none_device
  4

  6

 40
0.0
 41
0.0
 42
0.0
 43
0.0
 44
0.0
 45
0.0
 46
0.0
 47
0.0
 48
0.0
 49
0.0
140
0.0
141
0.0
142
1.0
143
1.0
 70
   688
 72
     0
 73
     0
 74
     5
  7

 75
    16
 76
     0
 77
     5
 78
   300
147
1.0
148
0.0
149
0.0
100
AcDbLayout
  1
Layout1
 70
     1
 71
     1
 10
0.0
 20
0.0
 11
420.0
 21
297.0
 12
0.0
 22
0.0
 32
0.0
 14
1.000000000000000E+20
 24
1.000000000000000E+20
 34
1.000000000000000E+20
 15
-1.000000000000000E+20
 25
-1.000000000000000E+20
 35
-1.000000000000000E+20
146
0.0
 13
0.0
 23
0.0
 33
0.0
 16
1.0
 26
0.0
 36
0.0
 17
0.0
 27
1.0
 37
0.0
 76
     0
330
1B
  0
LAYOUT
  5
26
102
{ACAD_REACTORS
330
1A
102
}
330
1A
100
AcDbPlotSettings
  1

  2
none_device
  4

  6

 40
0.0
 41
0.0
 42
0.0
 43
0.0
 44
0.0
 45
0.0
 46
0.0
 47
0.0
 48
0.0
 49
0.0
140
0.0
141
0.0
142
1.0
143
1.0
 70
   688
 72
     0
 73
     0
 74
     5
  7

 75
    16
 76
     0
 77
     5
 78
   300
147
1.0
148
0.0
149
0.0
100
AcDbLayout
  1
Layout2
 70
     1
 71
     2
 10
0.0
 20
0.0
 11
0.0
 21
0.0
 12
0.0
 22
0.0
 32
0.0
 14
0.0
 24
0.0
 34
0.0
 15
0.0
 25
0.0
 35
0.0
146
0.0
 13
0.0
 23
0.0
 33
0.0
 16
1.0
 26
0.0
 36
0.0
 17
0.0
 27
1.0
 37
0.0
 76
     0
330
23
  0
LAYOUT
  5
22
102
{ACAD_REACTORS
330
1A
102
}
330
1A
100
AcDbPlotSettings
  1

  2
none_device
  4

  6

 40
0.0
 41
0.0
 42
0.0
 43
0.0
 44
0.0
 45
0.0
 46
0.0
 47
0.0
 48
0.0
 49
0.0
140
0.0
141
0.0
142
1.0
143
1.0
 70
  1712
 72
     0
 73
     0
 74
     0
  7

 75
     0
 76
     0
 77
     5
 78
   300
147
1.0
148
0.0
149
0.0
100
AcDbLayout
  1
Model
 70
     1
 71
     0
 10
-630.0
 20
-445.5
 11
630.0
 21
445.5
 12
0.0
 22
0.0
 32
0.0
 14
-630.0
 24
-445.5
 34
0.0
 15
630.0
 25
445.5
 35
0.0
146
0.0
 13
0.0
 23
0.0
 33
0.0
 16
1.0
 26
0.0
 36
0.0
 17
0.0
 27
1.0
 37
0.0
 76
     0
330
1F
331
29
  0
MLINESTYLE
  5
18
102
{ACAD_REACTORS
330
17
102
}
330
17
100
AcDbMlineStyle
  2
Standard
 70
     0
  3

 62
   256
 51
90.0
 52
90.0
 71
     2
 49
0.5
 62
   256
  6
BYLAYER
 49
-0.5
 62
   256
  6
BYLAYER
  0
ACDBPLACEHOLDER
  5
F
102
{ACAD_REACTORS
330
E
102
}
330
E
  0
VISUALSTYLE
  5
2F
102
{ACAD_REACTORS
330
2A
102
}
330
2A
100
AcDbVisualStyle
  2
2dWireframe
 70
     4
 71
     0
 72
     2
 73
     0
 90
        0
 40
-0.6
 41
-30.0
 62
     5
 63
     7
421
 16777215
 74
     1
 91
        4
 64
     7
 65
   257
 75
     1
175
     1
 42
1.0
 92
        0
 66
   257
 43
1.0
 76
     1
 77
     6
 78
     2
 67
     7
 79
     5
170
     0
171
     0
290
     0
174
     0
 93
        1
 44
0.0
173
     0
291
     0
 45
0.0
  0
VISUALSTYLE
  5
31
102
{ACAD_REACTORS
330
2A
102
}
330
2A
100
AcDbVisualStyle
  2
3D Hidden
 70
     6
 71
     1
 72
     2
 73
     2
 90
        0
 40
-0.6
 41
-30.0
 62
     5
 63
     7
421
 16777215
 74
     2
 91
        2
 64
     7
 65
   257
 75
     2
175
     1
 42
40.0
 92
        0
 66
   257
 43
1.0
 76
     1
 77
     6
 78
     2
 67
     7
 79
     3
170
     0
171
     0
290
     0
174
     0
 93
        1
 44
0.0
173
     0
291
     0
 45
0.0
  0
VISUALSTYLE
  5
30
102
{ACAD_REACTORS
330
2A
102
}
330
2A
100
AcDbVisualStyle
  2
3dWireframe
 70
     5
 71
     0
 72
     2
 73
     0
 90
        0
 40
-0.6
 41
-30.0
 62
     5
 63
     7
421
 16777215
 74
     1
 91
        4
 64
     7
 65
   257
 75
     1
175
     1
 42
1.0
 92
        0
 66
   257
 43
1.0
 76
     1
 77
     6
 78
     2
 67
     7
 79
     5
170
     0
171
     0
290
     0
174
     0
 93
        1
 44
0.0
173
     0
291
     0
 45
0.0
  0
VISUALSTYLE
  5
32
102
{ACAD_REACTORS
330
2A
102
}
330
2A
100
AcDbVisualStyle
  2
Basic
 70
     7
 71
     1
 72
     0
 73
     1
 90
        0
 40
-0.6
 41
-30.0
 62
     5
 63
     7
421
 16777215
 74
     0
 91
        4
 64
     7
 65
   257
 75
     1
175
     1
 42
1.0
 92
        8
 66
     7
 43
1.0
 76
     1
 77
     6
 78
     2
 67
     7
 79
     5
170
     0
171
     0
290
     0
174
     0
 93
        1
 44
0.0
173
     0
291
     1
 45
0.0
  0
VISUALSTYLE
  5
36
102
{ACAD_REACTORS
330
2A
102
}
330
2A
100
AcDbVisualStyle
  2
Brighten
 70
    12
 71
     2
 72
     2
 73
     0
 90
        0
 40
-0.6
 41
-30.0
 62
     5
 63
     7
421
 16777215
 74
     1
 91
        4
 64
     7
 65
   257
 75
     1
175
     1
 42
1.0
 92
        8
 66
     7
 43
1.0
 76
     1
 77
     6
 78
     2
 67
     7
 79
     5
170
     0
171
     0
290
     0
174
     0
 93
        1
 44
50.0
173
     0
291
     1
 45
0.0
  0
VISUALSTYLE
  5
3A
102
{ACAD_REACTORS
330
2A
102
}
330
2A
100
AcDbVisualStyle
  2
ColorChange
 70
    16
 71
     2
 72
     2
 73
     3
 90
        0
 40
-0.6
 41
-30.0
 62
     5
 63
     8
421
  8421504
 74
     1
 91
        4
 64
     7
 65
   257
 75
     1
175
     1
 42
1.0
 92
        8
 66
     8
424
  8421504
 43
1.0
 76
     1
 77
     6
 78
     2
 67
     7
 79
     5
170
     0
171
     0
290
     0
174
     0
 93
        1
 44
0.0
173
     0
291
     1
 45
0.0
  0
VISUALSTYLE
  5
34
102
{ACAD_REACTORS
330
2A
102
}
330
2A
100
AcDbVisualStyle
  2
Conceptual
 70
     9
 71
     3
 72
     2
 73
     0
 90
        0
 40
-0.6
 41
-30.0
 62
     5
 63
     7
421
 16777215
 74
     2
 91
        2
 64
     7
 65
   257
 75
     1
175
     1
 42
40.0
 92
        8
 66
     7
 43
1.0
 76
     1
 77
     6
 78
     2
 67
     7
 79
     3
170
     0
171
     0
290
     0
174
     0
 93
        1
 44
0.0
173
     0
291
     0
 45
0.0
  0
VISUALSTYLE
  5
35
102
{ACAD_REACTORS
330
2A
102
}
330
2A
100
AcDbVisualStyle
  2
Dim
 70
    11
 71
     2
 72
     2
 73
     0
 90
        0
 40
-0.6
 41
-30.0
 62
     5
 63
     7
421
 16777215
 74
     1
 91
        4
 64
     7
 65
   257
 75
     1
175
     1
 42
1.0
 92
        8
 66
     7
 43
1.0
 76
     1
 77
     6
 78
     2
 67
     7
 79
     5
170
     0
171
     0
290
     0
174
     0
 93
        1
 44
-50.0
173
     0
291
     1
 45
0.0
  0
VISUALSTYLE
  5
39
102
{ACAD_REACTORS
330
2A
102
}
330
2A
100
AcDbVisualStyle
  2
Facepattern
 70
    15
 71
     2
 72
     2
 73
     0
 90
        0
 40
-0.6
 41
-30.0
 62
     5
 63
     7
421
 16777215
 74
     1
 91
        4
 64
     7
 65
   257
 75
     1
175
     1
 42
1.0
 92
        8
 66
     7
 43
1.0
 76
     1
 77
     6
 78
     2
 67
     7
 79
     5
170
     0
171
     0
290
     0
174
     0
 93
        1
 44
0.0
173
     0
291
     1
 45
0.0
  0
VISUALSTYLE
  5
2B
102
{ACAD_REACTORS
330
2A
102
}
330
2A
100
AcDbVisualStyle
  2
Flat
 70
     0
 71
     2
 72
     1
 73
     1
 90
        2
 40
-0.6
 41
30.0
 62
     5
 63
     7
421
 16777215
 74
     0
 91
        4
 64
     7
 65
   257
 75
     1
175
     1
 42
1.0
 92
        8
 66
     7
 43
1.0
 76
     1
 77
     6
 78
     2
 67
     7
 79
     5
170
     0
171
     0
290
     0
174
     0
 93
       13
 44
0.0
173
     0
291
     1
 45
0.0
  0
VISUALSTYLE
  5
2C
102
{ACAD_REACTORS
330
2A
102
}
330
2A
100
AcDbVisualStyle
  2
FlatWithEdges
 70
     1
 71
     2
 72
     1
 73
     1
 90
        2
 40
-0.6
 41
30.0
 62
     5
 63
     7
421
 16777215
 74
     1
 91
        4
 64
     7
 65
   257
 75
     1
175
     1
 42
1.0
 92
        0
 66
   257
 43
1.0
 76
     1
 77
     6
 78
     2
 67
     7
 79
     5
170
     0
171
     0
290
     0
174
     0
 93
       13
 44
0.0
173
     0
291
     1
 45
0.0
  0
VISUALSTYLE
  5
2D
102
{ACAD_REACTORS
330
2A
102
}
330
2A
100
AcDbVisualStyle
  2
Gouraud
 70
     2
 71
     2
 72
     2
 73
     1
 90
        2
 40
-0.6
 41
30.0
 62
     5
 63
     7
421
 16777215
 74
     0
 91
        4
 64
     7
 65
   257
 75
     1
175
     1
 42
1.0
 92
        0
 66
     7
 43
1.0
 76
     1
 77
     6
 78
     2
 67
     7
 79
     5
170
     0
171
     0
290
     0
174
     0
 93
       13
 44
0.0
173
     0
291
     1
 45
0.0
  0
VISUALSTYLE
  5
2E
102
{ACAD_REACTORS
330
2A
102
}
330
2A
100
AcDbVisualStyle
  2
GouraudWithEdges
 70
     3
 71
     2
 72
     2
 73
     1
 90
        2
 40
-0.6
 41
30.0
 62
     5
 63
     7
421
 16777215
 74
     1
 91
        4
 64
     7
 65
   257
 75
     1
175
     1
 42
1.0
 92
        0
 66
   257
 43
1.0
 76
     1
 77
     6
 78
     2
 67
     7
 79
     5
170
     0
171
     0
290
     0
174
     0
 93
       13
 44
0.0
173
     0
291
     1
 45
0.0
  0
VISUALSTYLE
  5
38
102
{ACAD_REACTORS
330
2A
102
}
330
2A
100
AcDbVisualStyle
  2
Linepattern
 70
    14
 71
     2
 72
     2
 73
     0
 90
        0
 40
-0.6
 41
-30.0
 62
     5
 63
     7
421
 16777215
 74
     1
 91
        4
 64
     7
 65
   257
 75
     7
175
     7
 42
1.0
 92
        8
 66
     7
 43
1.0
 76
     1
 77
     6
 78
     2
 67
     7
 79
     5
170
     0
171
     0
290
     0
174
     0
 93
        1
 44
0.0
173
     0
291
     1
 45
0.0
  0
VISUALSTYLE
  5
33
102
{ACAD_REACTORS
330
2A
102
}
330
2A
100
AcDbVisualStyle
  2
Realistic
 70
     8
 71
     2
 72
     2
 73
     0
 90
        0
 40
-0.6
 41
-30.0
 62
     5
 63
     7
421
 16777215
 74
     1
 91
        0
 64
     7
 65
   257
 75
     1
175
     1
 42
1.0
 92
        8
 66
     8
424
  7895160
 43
1.0
 76
     1
 77
     6
 78
     2
 67
     7
 79
     5
170
     0
171
     0
290
     0
174
     0
 93
       13
 44
0.0
173
     0
291
     0
 45
0.0
  0
VISUALSTYLE
  5
37
102
{ACAD_REACTORS
330
2A
102
}
330
2A
100
AcDbVisualStyle
  2
Thicken
 70
    13
 71
     2
 72
     2
 73
     0
 90
        0
 40
-0.6
 41
-30.0
 62
     5
 63
     7
421
 16777215
 74
     1
 91
        4
 64
     7
 65
   257
 75
     1
175
     1
 42
1.0
 92
       12
 66
     7
 43
1.0
 76
     1
 77
     6
 78
     2
 67
     7
 79
     5
170
     0
171
     0
290
     0
174
     0
 93
        1
 44
0.0
173
     0
291
     1
 45
0.0
  0
ENDSEC
  0
EOF
