  0
SECTION
  2
HEADER
  9
$ACADVER
  1
AC1018
  9
$ACADMAINTVER
 70
     0
  9
$DWGCODEPAGE
  3
ANSI_932
  9
$INSBASE
 10
0.0
 20
0.0
 30
0.0
  9
$EXTMIN
 10
-630.0
 20
-445.5
 30
0.0
  9
$EXTMAX
 10
630.0
 20
445.5
 30
0.0
  9
$LIMMIN
 10
-630.0
 20
-445.5
  9
$LIMMAX
 10
630.0
 20
445.5
  9
$ORTHOMODE
 70
     0
  9
$REGENMODE
 70
     1
  9
$FILLMODE
 70
     1
  9
$QTEXTMODE
 70
     0
  9
$MIRRTEXT
 70
     1
  9
$LTSCALE
 40
3.0
  9
$ATTMODE
 70
     1
  9
$TEXTSIZE
 40
2.5
  9
$TRACEWID
 40
1.0
  9
$TEXTSTYLE
  7
Standard
  9
$CLAYER
  8
0
  9
$CELTYPE
  6
ByLayer
  9
$CECOLOR
 62
   256
  9
$CELTSCALE
 40
1.0
  9
$DISPSILH
 70
     0
  9
$DIMSCALE
 40
1.0
  9
$DIMASZ
 40
2.5
  9
$DIMEXO
 40
0.625
  9
$DIMDLI
 40
3.75
  9
$DIMRND
 40
0.0
  9
$DIMDLE
 40
0.0
  9
$DIMEXE
 40
1.25
  9
$DIMTP
 40
0.0
  9
$DIMTM
 40
0.0
  9
$DIMTXT
 40
2.5
  9
$DIMCEN
 40
2.5
  9
$DIMTSZ
 40
0.0
  9
$DIMTOL
 70
     0
  9
$DIMLIM
 70
     0
  9
$DIMTIH
 70
     0
  9
$DIMTOH
 70
     0
  9
$DIMSE1
 70
     0
  9
$DIMSE2
 70
     0
  9
$DIMTAD
 70
     1
  9
$DIMZIN
 70
     8
  9
$DIMBLK
  1

  9
$DIMASO
 70
     1
  9
$DIMSHO
 70
     1
  9
$DIMPOST
  1

  9
$DIMAPOST
  1

  9
$DIMALT
 70
     0
  9
$DIMALTD
 70
     3
  9
$DIMALTF
 40
0.03937007874016
  9
$DIMLFAC
 40
1.0
  9
$DIMTOFL
 70
     1
  9
$DIMTVP
 40
0.0
  9
$DIMTIX
 70
     0
  9
$DIMSOXD
 70
     0
  9
$DIMSAH
 70
     0
  9
$DIMBLK1
  1

  9
$DIMBLK2
  1

  9
$DIMSTYLE
  2
ISO-25
  9
$DIMCLRD
 70
     0
  9
$DIMCLRE
 70
     0
  9
$DIMCLRT
 70
     0
  9
$DIMTFAC
 40
1.0
  9
$DIMGAP
 40
0.625
  9
$DIMJUST
 70
     0
  9
$DIMSD1
 70
     0
  9
$DIMSD2
 70
     0
  9
$DIMTOLJ
 70
     0
  9
$DIMTZIN
 70
     8
  9
$DIMALTZ
 70
     0
  9
$DIMALTTZ
 70
     0
  9
$DIMUPT
 70
     0
  9
$DIMDEC
 70
     2
  9
$DIMTDEC
 70
     2
  9
$DIMALTU
 70
     2
  9
$DIMALTTD
 70
     3
  9
$DIMTXSTY
  7
Standard
  9
$DIMAUNIT
 70
     0
  9
$DIMADEC
 70
     0
  9
$DIMALTRND
 40
0.0
  9
$DIMAZIN
 70
     0
  9
$DIMDSEP
 70
    44
  9
$DIMATFIT
 70
     3
  9
$DIMFRAC
 70
     0
  9
$DIMLDRBLK
  1

  9
$DIMLUNIT
 70
     2
  9
$DIMLWD
 70
    -2
  9
$DIMLWE
 70
    -2
  9
$DIMTMOVE
 70
     0
  9
$LUNITS
 70
     2
  9
$LUPREC
 70
     4
  9
$SKETCHINC
 40
1.0
  9
$FILLETRAD
 40
10.0
  9
$AUNITS
 70
     0
  9
$AUPREC
 70
     0
  9
$MENU
  1
.
  9
$ELEVATION
 40
0.0
  9
$PELEVATION
 40
0.0
  9
$THICKNESS
 40
0.0
  9
$LIMCHECK
 70
     0
  9
$CHAMFERA
 40
10.0
  9
$CHAMFERB
 40
10.0
  9
$CHAMFERC
 40
20.0
  9
$CHAMFERD
 40
0.0
  9
$SKPOLY
 70
     0
  9
$TDCREATE
 40
2457372.406666053
  9
$TDUCREATE
 40
2457372.031666053
  9
$TDUPDATE
 40
2457372.406666065
  9
$TDUUPDATE
 40
2457372.031666065
  9
$TDINDWG
 40
0.0000000116
  9
$TDUSRTIMER
 40
0.0000000116
  9
$USRTIMER
 70
     1
  9
$ANGBASE
 50
0.0
  9
$ANGDIR
 70
     0
  9
$PDMODE
 70
     0
  9
$PDSIZE
 40
0.0
  9
$PLINEWID
 40
0.0
  9
$SPLFRAME
 70
     0
  9
$SPLINETYPE
 70
     6
  9
$SPLINESEGS
 70
     8
  9
$HANDSEED
  5
2DC
  9
$SURFTAB1
 70
     6
  9
$SURFTAB2
 70
     6
  9
$SURFTYPE
 70
     6
  9
$SURFU
 70
     6
  9
$SURFV
 70
     6
  9
$UCSBASE
  2

  9
$UCSNAME
  2

  9
$UCSORG
 10
0.0
 20
0.0
 30
0.0
  9
$UCSXDIR
 10
1.0
 20
0.0
 30
0.0
  9
$UCSYDIR
 10
0.0
 20
1.0
 30
0.0
  9
$UCSORTHOREF
  2

  9
$UCSORTHOVIEW
 70
     0
  9
$UCSORGTOP
 10
0.0
 20
0.0
 30
0.0
  9
$UCSORGBOTTOM
 10
0.0
 20
0.0
 30
0.0
  9
$UCSORGLEFT
 10
0.0
 20
0.0
 30
0.0
  9
$UCSORGRIGHT
 10
0.0
 20
0.0
 30
0.0
  9
$UCSORGFRONT
 10
0.0
 20
0.0
 30
0.0
  9
$UCSORGBACK
 10
0.0
 20
0.0
 30
0.0
  9
$PUCSBASE
  2

  9
$PUCSNAME
  2

  9
$PUCSORG
 10
0.0
 20
0.0
 30
0.0
  9
$PUCSXDIR
 10
1.0
 20
0.0
 30
0.0
  9
$PUCSYDIR
 10
0.0
 20
1.0
 30
0.0
  9
$PUCSORTHOREF
  2

  9
$PUCSORTHOVIEW
 70
     0
  9
$PUCSORGTOP
 10
0.0
 20
0.0
 30
0.0
  9
$PUCSORGBOTTOM
 10
0.0
 20
0.0
 30
0.0
  9
$PUCSORGLEFT
 10
0.0
 20
0.0
 30
0.0
  9
$PUCSORGRIGHT
 10
0.0
 20
0.0
 30
0.0
  9
$PUCSORGFRONT
 10
0.0
 20
0.0
 30
0.0
  9
$PUCSORGBACK
 10
0.0
 20
0.0
 30
0.0
  9
$USERI1
 70
     0
  9
$USERI2
 70
     0
  9
$USERI3
 70
     0
  9
$USERI4
 70
     0
  9
$USERI5
 70
     0
  9
$USERR1
 40
0.0
  9
$USERR2
 40
0.0
  9
$USERR3
 40
0.0
  9
$USERR4
 40
0.0
  9
$USERR5
 40
0.0
  9
$WORLDVIEW
 70
     1
  9
$SHADEDGE
 70
     3
  9
$SHADEDIF
 70
    70
  9
$TILEMODE
 70
     1
  9
$MAXACTVP
 70
    64
  9
$PINSBASE
 10
0.0
 20
0.0
 30
0.0
  9
$PLIMCHECK
 70
     0
  9
$PEXTMIN
 10
1.000000000000000E+20
 20
1.000000000000000E+20
 30
1.000000000000000E+20
  9
$PEXTMAX
 10
-1.000000000000000E+20
 20
-1.000000000000000E+20
 30
-1.000000000000000E+20
  9
$PLIMMIN
 10
0.0
 20
0.0
  9
$PLIMMAX
 10
420.0
 20
297.0
  9
$UNITMODE
 70
     0
  9
$VISRETAIN
 70
     1
  9
$PLINEGEN
 70
     0
  9
$PSLTSCALE
 70
     1
  9
$TREEDEPTH
 70
  3020
  9
$CMLSTYLE
  2
Standard
  9
$CMLJUST
 70
     0
  9
$CMLSCALE
 40
20.0
  9
$PROXYGRAPHICS
 70
     1
  9
$MEASUREMENT
 70
     1
  9
$CELWEIGHT
370
    -1
  9
$ENDCAPS
280
     0
  9
$JOINSTYLE
280
     0
  9
$LWDISPLAY
290
     0
  9
$INSUNITS
 70
     4
  9
$HYPERLINKBASE
  1

  9
$STYLESHEET
  1

  9
$XEDIT
290
     1
  9
$CEPSNTYPE
380
     0
  9
$PSTYLEMODE
290
     1
  9
$FINGERPRINTGUID
  2
{BE0DA217-A3B2-44AE-B167-E9C2606FB6F4}
  9
$VERSIONGUID
  2
{FAEB1C32-E019-11D5-929B-00C0DF256EC4}
  9
$EXTNAMES
290
     1
  9
$PSVPSCALE
 40
0.0
  9
$OLESTARTUP
290
     0
  9
$SORTENTS
280
   127
  9
$INDEXCTL
280
     0
  9
$HIDETEXT
280
     1
  9
$XCLIPFRAME
290
     0
  9
$HALOGAP
280
     0
  9
$OBSCOLOR
 70
   257
  9
$OBSLTYPE
280
     0
  9
$INTERSECTIONDISPLAY
280
     0
  9
$INTERSECTIONCOLOR
 70
   257
  9
$DIMASSOC
280
     2
  9
$PROJECTNAME
  1

  0
ENDSEC
  0
SECTION
  2
CLASSES
  0
CLASS
  1
ACDBDICTIONARYWDFLT
  2
AcDbDictionaryWithDefault
  3
ObjectDBX Classes
 90
        0
 91
        4
280
     0
281
     0
  0
CLASS
  1
VISUALSTYLE
  2
AcDbVisualStyle
  3
ObjectDBX Classes
 90
     4095
 91
        4
280
     0
281
     0
  0
ENDSEC
  0
SECTION
  2
TABLES
  0
TABLE
  2
VPORT
  5
8
330
0
100
AcDbSymbolTable
 70
     1
  0
VPORT
  5
29
330
8
100
AcDbSymbolTableRecord
100
AcDbViewportTableRecord
  2
*Active
 70
     0
 10
0.0
 20
0.0
 11
1.0
 21
1.0
 12
0.0
 22
0.0
 13
0.0
 23
0.0
 14
10.0
 24
10.0
 15
10.0
 25
10.0
 16
0.0
 26
0.0
 36
1.0
 17
0.0
 27
0.0
 37
0.0
 40
980.1
 41
1.414141414141414
 42
50.0
 43
0.0
 44
0.0
 50
0.0
 51
0.0
 71
     0
 72
 10000
 73
     1
 74
     3
 75
     0
 76
     0
 77
     0
 78
     0
281
     0
 65
     1
110
0.0
120
0.0
130
0.0
111
1.0
121
0.0
131
0.0
112
0.0
122
1.0
132
0.0
 79
     0
146
0.0
  0
ENDTAB
  0
TABLE
  2
LTYPE
  5
5
330
0
100
AcDbSymbolTable
 70
     5
  0
LTYPE
  5
14
330
5
100
AcDbSymbolTableRecord
100
AcDbLinetypeTableRecord
  2
ByBlock
 70
     0
  3

 72
    65
 73
     0
 40
0.0
  0
LTYPE
  5
15
330
5
100
AcDbSymbolTableRecord
100
AcDbLinetypeTableRecord
  2
ByLayer
 70
     0
  3

 72
    65
 73
     0
 40
0.0
  0
LTYPE
  5
16
330
5
100
AcDbSymbolTableRecord
100
AcDbLinetypeTableRecord
  2
Continuous
 70
     0
  3
Solid line
 72
    65
 73
     0
 40
0.0
  0
LTYPE
  5
3C
330
5
100
AcDbSymbolTableRecord
100
AcDbLinetypeTableRecord
  2
JWW_DASHED1
 70
     0
  3
-  --  --  --  --  --  --  --  -
 72
    65
 73
     2
 40
1.693333333333333
 49
0.8466666666666667
 74
     0
 49
-0.8466666666666667
 74
     0
  0
LTYPE
  5
3D
330
5
100
AcDbSymbolTableRecord
100
AcDbLinetypeTableRecord
  2
JWW_CENTER1
 70
     0
  3
-----  --  ----------  --  -----
 72
    65
 73
     4
 40
6.773333333333333
 49
4.233333333333333
 74
     0
 49
-0.8466666666666667
 74
     0
 49
0.8466666666666667
 74
     0
 49
-0.8466666666666667
 74
     0
  0
LTYPE
  5
3E
330
5
100
AcDbSymbolTableRecord
100
AcDbLinetypeTableRecord
  2
JWW_HOJO
 70
     0
  3
  -   -   -   -   -   -   -   - 
 72
    65
 73
     2
 40
1.693333333333333
 49
-1.27
 74
     0
 49
0.4233333333333333
 74
     0
  0
LTYPE
  5
3F
330
5
100
AcDbSymbolTableRecord
100
AcDbLinetypeTableRecord
  2
JWW_CENTER2
 70
     0
  3
-------------  --  -------------
 72
    65
 73
     4
 40
13.54666666666667
 49
11.00666666666667
 74
     0
 49
-0.8466666666666667
 74
     0
 49
0.8466666666666667
 74
     0
 49
-0.8466666666666667
 74
     0
  0
ENDTAB
  0
TABLE
  2
LAYER
  5
2
330
0
100
AcDbSymbolTable
 70
    18
  0
LAYER
  5
10
330
2
100
AcDbSymbolTableRecord
100
AcDbLayerTableRecord
  2
0
 70
     0
 62
     7
  6
Continuous
370
    -3
390
F
  0
LAYER
  5
40
330
2
100
AcDbSymbolTableRecord
100
AcDbLayerTableRecord
  2
通り芯
 70
     0
 62
     7
  6
Continuous
370
    -3
390
F
  0
LAYER
  5
41
330
2
100
AcDbSymbolTableRecord
100
AcDbLayerTableRecord
  2
1-5ﾚｲﾔ
 70
     0
 62
     7
  6
Continuous
370
    -3
390
F
  0
LAYER
  5
42
330
2
100
AcDbSymbolTableRecord
100
AcDbLayerTableRecord
  2
仕上
 70
     0
 62
     7
  6
Continuous
370
    -3
390
F
  0
LAYER
  5
43
330
2
100
AcDbSymbolTableRecord
100
AcDbLayerTableRecord
  2
021
 70
     0
 62
     7
  6
Continuous
370
    -3
390
F
  0
LAYER
  5
44
330
2
100
AcDbSymbolTableRecord
100
AcDbLayerTableRecord
  2
041
 70
     0
 62
     7
  6
Continuous
370
    -3
390
F
  0
LAYER
  5
45
330
2
100
AcDbSymbolTableRecord
100
AcDbLayerTableRecord
  2
087
 70
     0
 62
     7
  6
Continuous
370
    -3
390
F
  0
LAYER
  5
46
330
2
100
AcDbSymbolTableRecord
100
AcDbLayerTableRecord
  2
061
 70
     0
 62
     7
  6
Continuous
370
    -3
390
F
  0
LAYER
  5
47
330
2
100
AcDbSymbolTableRecord
100
AcDbLayerTableRecord
  2
051
 70
     0
 62
     7
  6
Continuous
370
    -3
390
F
  0
LAYER
  5
48
330
2
100
AcDbSymbolTableRecord
100
AcDbLayerTableRecord
  2
062
 70
     0
 62
     7
  6
Continuous
370
    -3
390
F
  0
LAYER
  5
49
330
2
100
AcDbSymbolTableRecord
100
AcDbLayerTableRecord
  2
その他
 70
     0
 62
     7
  6
Continuous
370
    -3
390
F
  0
LAYER
  5
4A
330
2
100
AcDbSymbolTableRecord
100
AcDbLayerTableRecord
  2
ハッチ
 70
     0
 62
     7
  6
Continuous
370
    -3
390
F
  0
LAYER
  5
4B
330
2
100
AcDbSymbolTableRecord
100
AcDbLayerTableRecord
  2
躯体
 70
     0
 62
     7
  6
Continuous
370
    -3
390
F
  0
LAYER
  5
4C
330
2
100
AcDbSymbolTableRecord
100
AcDbLayerTableRecord
  2
084
 70
     0
 62
     7
  6
Continuous
370
    -3
390
F
  0
LAYER
  5
4D
330
2
100
AcDbSymbolTableRecord
100
AcDbLayerTableRecord
  2
寸法
 70
     0
 62
     7
  6
Continuous
370
    -3
390
F
  0
LAYER
  5
4E
330
2
100
AcDbSymbolTableRecord
100
AcDbLayerTableRecord
  2
建具
 70
     0
 62
     7
  6
Continuous
370
    -3
390
F
  0
LAYER
  5
4F
330
2
100
AcDbSymbolTableRecord
100
AcDbLayerTableRecord
  2
090
 70
     0
 62
     7
  6
Continuous
370
    -3
390
F
  0
LAYER
  5
50
330
2
100
AcDbSymbolTableRecord
100
AcDbLayerTableRecord
  2
F-5ﾚｲﾔ
 70
     0
 62
     7
  6
Continuous
370
    -3
390
F
  0
ENDTAB
  0
TABLE
  2
STYLE
  5
3
330
0
100
AcDbSymbolTable
 70
     2
  0
STYLE
  5
11
330
3
100
AcDbSymbolTableRecord
100
AcDbTextStyleTableRecord
  2
Standard
 70
     0
 40
0.0
 41
1.0
 50
0.0
 71
     0
 42
2.5
  3
txt
  4

1001
ACAD
1000

1071
        0
  0
STYLE
  5
3B
330
3
100
AcDbSymbolTableRecord
100
AcDbTextStyleTableRecord
  2
ＭＳ ゴシック
 70
     0
 40
1.0
 41
1.0
 50
0.0
 71
     0
 42
10.0
  3
msgothic.ttc
  4

1001
ACAD
1000
MS Gothic
1071
    32817
  0
ENDTAB
  0
TABLE
  2
VIEW
  5
6
330
0
100
AcDbSymbolTable
 70
     0
  0
ENDTAB
  0
TABLE
  2
UCS
  5
7
330
0
100
AcDbSymbolTable
 70
     0
  0
ENDTAB
  0
TABLE
  2
APPID
  5
9
330
0
100
AcDbSymbolTable
 70
     1
  0
APPID
  5
12
330
9
100
AcDbSymbolTableRecord
100
AcDbRegAppTableRecord
  2
ACAD
 70
     0
  0
ENDTAB
  0
TABLE
  2
DIMSTYLE
  5
A
330
0
100
AcDbSymbolTable
 70
     1
100
AcDbDimStyleTable
  0
DIMSTYLE
105
27
330
A
100
AcDbSymbolTableRecord
100
AcDbDimStyleTableRecord
  2
ISO-25
 70
     0
 41
2.5
 42
0.625
 43
3.75
 44
1.25
 73
     0
 74
     0
 77
     1
 78
     8
140
2.5
141
2.5
143
0.03937007874016
147
0.625
171
     3
172
     1
271
     2
272
     2
274
     3
278
    44
283
     0
284
     8
340
11
  0
ENDTAB
  0
TABLE
  2
BLOCK_RECORD
  5
1
330
0
100
AcDbSymbolTable
 70
     1
  0
BLOCK_RECORD
  5
1F
330
1
100
AcDbSymbolTableRecord
100
AcDbBlockTableRecord
  2
*Model_Space
340
22
  0
BLOCK_RECORD
  5
1B
330
1
100
AcDbSymbolTableRecord
100
AcDbBlockTableRecord
  2
*Paper_Space
340
1E
  0
BLOCK_RECORD
  5
23
330
1
100
AcDbSymbolTableRecord
100
AcDbBlockTableRecord
  2
*Paper_Space0
340
26
  0
ENDTAB
  0
ENDSEC
  0
SECTION
  2
BLOCKS
  0
BLOCK
  5
20
330
1F
100
AcDbEntity
  8
0
100
AcDbBlockBegin
  2
*Model_Space
 70
     0
 10
0.0
 20
0.0
 30
0.0
  3
*Model_Space
  1

  0
ENDBLK
  5
21
330
1F
100
AcDbEntity
  8
0
100
AcDbBlockEnd
  0
BLOCK
  5
1C
330
1B
100
AcDbEntity
 67
     1
  8
0
100
AcDbBlockBegin
  2
*Paper_Space
 70
     0
 10
0.0
 20
0.0
 30
0.0
  3
*Paper_Space
  1

  0
ENDBLK
  5
1D
330
1B
100
AcDbEntity
 67
     1
  8
0
100
AcDbBlockEnd
  0
BLOCK
  5
24
330
23
100
AcDbEntity
  8
0
100
AcDbBlockBegin
  2
*Paper_Space0
 70
     0
 10
0.0
 20
0.0
 30
0.0
  3
*Paper_Space0
  1

  0
ENDBLK
  5
25
330
23
100
AcDbEntity
  8
0
100
AcDbBlockEnd
  0
ENDSEC
  0
SECTION
  2
ENTITIES
  0
ARC
  5
51
330
1F
100
AcDbEntity
  8
通り芯
  6
Continuous
 62
     3
370
     9
100
AcDbCircle
 10
-19.46080294691774
 20
-207.2065148904899
 30
0.0
 40
14.9999985897403
100
AcDbArc
 50
180.1104489274178
 51
198.7972897393708
  0
LINE
  5
52
330
1F
100
AcDbEntity
  8
1-5ﾚｲﾔ
  6
Continuous
 62
     7
370
     9
100
AcDbLine
 10
94.05031228876187
 20
22.62960615629399
 30
0.0
 11
-36.3300736959161
 21
-178.1385821901335
 31
0.0
  0
LINE
  5
53
330
1F
100
AcDbEntity
  8
1-5ﾚｲﾔ
  6
Continuous
 62
     7
370
     9
100
AcDbLine
 10
-36.3300736959161
 20
-178.1385821901335
 30
0.0
 11
-31.4592133334397
 21
-172.4355374481332
 31
0.0
  0
LINE
  5
54
330
1F
100
AcDbEntity
  8
1-5ﾚｲﾔ
  6
Continuous
 62
     7
370
     9
100
AcDbLine
 10
-36.3300736959161
 20
-178.1385821901335
 30
0.0
 11
-33.10124046985386
 21
-171.3691925575095
 31
0.0
  0
LINE
  5
55
330
1F
100
AcDbEntity
  8
通り芯
  6
Continuous
 62
     3
370
     9
100
AcDbLine
 10
-34.46077366653878
 20
-126.7064171296771
 30
0.0
 11
-34.46077366653878
 21
-107.2064953898753
 31
0.0
  0
LINE
  5
56
330
1F
100
AcDbEntity
  8
仕上
  6
JWW_DASHED1
 62
     6
370
     9
100
AcDbLine
 10
-49.46082769090026
 20
-222.2065058766106
 30
0.0
 11
-19.47590620840566
 21
-222.2065058766106
 31
0.0
  0
LINE
  5
57
330
1F
100
AcDbEntity
  8
021
  6
Continuous
 62
     6
370
     9
100
AcDbLine
 10
-34.46077366653878
 20
-110.3411034487311
 30
0.0
 11
-32.96074191176172
 21
-108.8410716939539
 31
0.0
  0
ARC
  5
58
330
1F
100
AcDbEntity
  8
通り芯
  6
Continuous
 62
     3
370
     9
100
AcDbCircle
 10
-19.46080294691774
 20
-207.2065148904899
 30
0.0
 40
29.99999717948059
100
AcDbArc
 50
180.3928070068359
 51
269.9631836959306
  0
LINE
  5
59
330
1F
100
AcDbEntity
  8
通り芯
  6
Continuous
 62
     3
370
     9
100
AcDbLine
 10
-41.46080624611557
 20
-136.2065064952101
 30
0.0
 11
-49.46079393303864
 21
-145.7405398691865
 31
0.0
  0
LINE
  5
5A
330
1F
100
AcDbEntity
  8
通り芯
  6
Continuous
 62
     3
370
     9
100
AcDbLine
 10
41.49796067641182
 20
-247.2065028719842
 30
0.0
 11
90.53921354907038
 21
-247.2065028719842
 31
0.0
  0
LINE
  5
5B
330
1F
100
AcDbEntity
  8
通り芯
  6
Continuous
 62
     3
370
     9
100
AcDbLine
 10
-55.30403076052067
 20
-106.6641304814139
 30
0.0
 11
-59.46079092841211
 21
-102.2064968921885
 31
0.0
  0
LINE
  5
5C
330
1F
100
AcDbEntity
  8
通り芯
  6
Continuous
 62
     3
370
     9
100
AcDbLine
 10
-53.96079010361274
 20
-124.5681676329715
 30
0.0
 11
-53.96079010361274
 21
-110.0741200924762
 31
0.0
  0
LINE
  5
5D
330
1F
100
AcDbEntity
  8
通り芯
  6
Continuous
 62
     3
370
     9
100
AcDbLine
 10
-53.82027515541955
 20
-247.6082537384949
 30
0.0
 11
-53.58552204380487
 21
-246.7184289559356
 31
0.0
  0
LINE
  5
5E
330
1F
100
AcDbEntity
  8
通り芯
  6
Continuous
 62
     3
370
     9
100
AcDbLine
 10
-59.96834915453735
 20
-134.6111217722391
 30
0.0
 11
-62.93330870048277
 21
-134.6715441908997
 31
0.0
  0
LINE
  5
5F
330
1F
100
AcDbEntity
  8
通り芯
  6
Continuous
 62
     3
370
     9
100
AcDbLine
 10
-56.06398078710288
 20
-137.4333367604468
 30
0.0
 11
-55.78906993024464
 21
-138.3262458362096
 31
0.0
  0
LINE
  5
60
330
1F
100
AcDbEntity
  8
通り芯
  6
Continuous
 62
     3
370
     9
100
AcDbLine
 10
-37.36005882467407
 20
-250.8630129783692
 30
0.0
 11
-47.56998594539834
 21
-255.5537646322098
 31
0.0
  0
LINE
  5
61
330
1F
100
AcDbEntity
  8
通り芯
  6
Continuous
 62
     3
370
     9
100
AcDbLine
 10
90.53921354907038
 20
-239.2064904116216
 30
0.0
 11
90.53921354907038
 21
-247.2065028719842
 31
0.0
  0
LINE
  5
62
330
1F
100
AcDbEntity
  8
通り芯
  6
Continuous
 62
     3
370
     9
100
AcDbLine
 10
85.28565889927552
 20
-245.8120555158669
 30
0.0
 11
85.53921505138356
 21
-247.2065028719842
 31
0.0
  0
LINE
  5
63
330
1F
100
AcDbEntity
  8
通り芯
  6
Continuous
 62
     3
370
     9
100
AcDbLine
 10
-51.46080324148903
 20
-97.20649839450172
 30
0.0
 11
-59.46079092841211
 21
-97.20649839450172
 31
0.0
  0
LINE
  5
64
330
1F
100
AcDbEntity
  8
通り芯
  6
Continuous
 62
     3
370
     9
100
AcDbLine
 10
74.44343928512149
 20
-230.9121942648017
 30
0.0
 11
80.53921655369675
 21
-222.2064856101108
 31
0.0
  0
LINE
  5
65
330
1F
100
AcDbEntity
  8
通り芯
  6
Continuous
 62
     3
370
     9
100
AcDbLine
 10
62.45111274750684
 20
-234.8669641946655
 30
0.0
 11
77.53922736446032
 21
-222.2064856101108
 31
0.0
  0
LINE
  5
66
330
1F
100
AcDbEntity
  8
通り芯
  6
Continuous
 62
     3
370
     9
100
AcDbLine
 10
37.78486803447089
 20
-248.7000439856425
 30
0.0
 11
-31.27037582218736
 21
-249.4943052257731
 31
0.0
  0
LINE
  5
67
330
1F
100
AcDbEntity
  8
通り芯
  6
Continuous
 62
     3
370
     9
100
AcDbLine
 10
-40.75894993489175
 20
-117.7123660174958
 30
0.0
 11
-34.46077366653878
 21
-110.2064845791116
 31
0.0
  0
LINE
  5
68
330
1F
100
AcDbEntity
  8
通り芯
  6
JWW_DASHED1
 62
     3
370
     9
100
AcDbLine
 10
-47.12123986437376
 20
-125.2945991960653
 30
0.0
 11
-40.75892516145234
 21
-117.7123660174958
 31
0.0
  0
LINE
  5
69
330
1F
100
AcDbEntity
  8
通り芯
  6
Continuous
 62
     3
370
     9
100
AcDbLine
 10
-34.46077366653878
 20
-107.2064953898753
 30
0.0
 11
-43.16648232122969
 21
-113.3023222053295
 31
0.0
  0
LINE
  5
6A
330
1F
100
AcDbEntity
  8
通り芯
  6
Continuous
 62
     3
370
     9
100
AcDbLine
 10
-53.83687335980778
 20
-139.7373657170332
 30
0.0
 11
-49.46079393303864
 21
-139.6482804290038
 31
0.0
  0
LINE
  5
6B
330
1F
100
AcDbEntity
  8
通り芯
  6
JWW_DASHED1
 62
     3
370
     9
100
AcDbLine
 10
-49.46079393303864
 20
-131.7224891930395
 30
0.0
 11
-49.46079393303864
 21
-139.6482804290038
 31
0.0
  0
LINE
  5
6C
330
1F
100
AcDbEntity
  8
通り芯
  6
Continuous
 62
     3
370
     9
100
AcDbLine
 10
-49.46079393303864
 20
-99.20653247639154
 30
0.0
 11
-49.46079393303864
 21
-110.025688018478
 31
0.0
  0
LINE
  5
6D
330
1F
100
AcDbEntity
  8
通り芯
  6
Continuous
 62
     3
370
     9
100
AcDbLine
 10
88.53917946718042
 20
-237.2065058766106
 30
0.0
 11
77.7200239250941
 21
-237.2065058766106
 31
0.0
  0
LINE
  5
6E
330
1F
100
AcDbEntity
  8
通り芯
  6
Continuous
 62
     3
370
     9
100
AcDbLine
 10
-59.46079092841211
 20
-97.20649839450172
 30
0.0
 11
-59.46079092841211
 21
-128.5995494241342
 31
0.0
  0
LINE
  5
6F
330
1F
100
AcDbEntity
  8
通り芯
  6
Continuous
 62
     3
370
     9
100
AcDbLine
 10
-57.59619323964159
 20
-250.5868882229811
 30
0.0
 11
-60.57143376293203
 21
-250.6474840557174
 31
0.0
  0
LINE
  5
70
330
1F
100
AcDbEntity
  8
通り芯
  6
Continuous
 62
     3
370
     9
100
AcDbLine
 10
46.3406230605629
 20
-242.4083831318478
 30
0.0
 11
39.69363676566559
 21
-247.9858257281655
 31
0.0
  0
LINE
  5
71
330
1F
100
AcDbEntity
  8
通り芯
  6
Continuous
 62
     3
370
     9
100
AcDbLine
 10
48.26898758231113
 20
-241.7065144339044
 30
0.0
 11
80.366322720227
 21
-241.7065144339044
 31
0.0
  0
LINE
  5
72
330
1F
100
AcDbEntity
  8
通り芯
  6
Continuous
 62
     3
370
     9
100
AcDbLine
 10
-86.93602161302408
 20
-255.1851358541572
 30
0.0
 11
-79.93742589293151
 21
-255.0426390308132
 31
0.0
  0
LINE
  5
73
330
1F
100
AcDbEntity
  8
通り芯
  6
Continuous
 62
     4
370
     9
100
AcDbLine
 10
-89.34915279666279
 20
-136.6947662120542
 30
0.0
 11
-66.4598821172923
 21
-136.9437888247548
 31
0.0
  0
LINE
  5
74
330
1F
100
AcDbEntity
  8
通り芯
  6
Continuous
 62
     4
370
     9
100
AcDbLine
 10
-87.04770027777278
 20
-249.7012873118369
 30
0.0
 11
-64.18756316311897
 21
-248.5206347376144
 31
0.0
  0
LINE
  5
75
330
1F
100
AcDbEntity
  8
通り芯
  6
Continuous
 62
     3
370
     9
100
AcDbLine
 10
-89.4607323676542
 20
-131.2109176697339
 30
0.0
 11
-82.46223574131943
 21
-131.0682226588748
 31
0.0
  0
LINE
  5
76
330
1F
100
AcDbEntity
  8
通り芯
  6
Continuous
 62
     4
370
     9
100
AcDbLine
 10
-87.84005396307077
 20
-138.189496450803
 30
0.0
 11
-66.92175812119092
 21
-138.4170157181171
 31
0.0
  0
LINE
  5
77
330
1F
100
AcDbEntity
  8
通り芯
  6
Continuous
 62
     4
370
     9
100
AcDbLine
 10
-85.60073323015865
 20
-248.1463080685032
 30
0.0
 11
-64.70909360905739
 21
-247.0673256895178
 31
0.0
  0
LINE
  5
78
330
1F
100
AcDbEntity
  8
通り芯
  6
Continuous
 62
     4
370
     9
100
AcDbLine
 10
-89.34915279666279
 20
-136.6947662120542
 30
0.0
 11
-87.84005396307077
 21
-138.189496450803
 31
0.0
  0
LINE
  5
79
330
1F
100
AcDbEntity
  8
通り芯
  6
Continuous
 62
     4
370
     9
100
AcDbLine
 10
-85.60073323015865
 20
-248.1463080685032
 30
0.0
 11
-87.04770027777278
 21
-249.7012873118369
 31
0.0
  0
LINE
  5
7A
330
1F
100
AcDbEntity
  8
通り芯
  6
Continuous
 62
     4
370
     9
100
AcDbLine
 10
-87.84005396307077
 20
-138.189496450803
 30
0.0
 11
-86.80184866531351
 21
-189.16877548657
 31
0.0
  0
LINE
  5
7B
330
1F
100
AcDbEntity
  8
通り芯
  6
Continuous
 62
     4
370
     9
100
AcDbLine
 10
-86.63893852791591
 20
-197.167078579615
 30
0.0
 11
-85.60073323015865
 21
-248.1463080685032
 31
0.0
  0
LINE
  5
7C
330
1F
100
AcDbEntity
  8
通り芯
  6
Continuous
 62
     3
370
     9
100
AcDbLine
 10
-79.89679745233991
 20
-257.0423015111123
 30
0.0
 11
-79.93742589293151
 21
-255.0426390308132
 31
0.0
  0
LINE
  5
7D
330
1F
100
AcDbEntity
  8
通り芯
  6
Continuous
 62
     3
370
     9
100
AcDbLine
 10
-51.5411930522942
 20
-256.464832639042
 30
0.0
 11
-79.89679745233991
 21
-257.0423015111123
 31
0.0
  0
LINE
  5
7E
330
1F
100
AcDbEntity
  8
通り芯
  6
Continuous
 62
     3
370
     9
100
AcDbLine
 10
-82.46223574131943
 20
-131.0682226588748
 30
0.0
 11
-82.50296327566866
 21
-129.068832686409
 31
0.0
  0
LINE
  5
7F
330
1F
100
AcDbEntity
  8
通り芯
  6
Continuous
 62
     3
370
     9
100
AcDbLine
 10
-57.87935365181488
 20
-128.5673439529333
 30
0.0
 11
-82.50296327566866
 21
-129.068832686409
 31
0.0
  0
LINE
  5
80
330
1F
100
AcDbEntity
  8
通り芯
  6
Continuous
 62
     3
370
     9
100
AcDbLine
 10
-66.71955730892847
 20
-137.6503520894617
 30
0.0
 11
-66.92180766806956
 21
-138.4170157181171
 31
0.0
  0
LINE
  5
81
330
1F
100
AcDbEntity
  8
通り芯
  6
Continuous
 62
     3
370
     9
100
AcDbLine
 10
-64.47582690380574
 20
-247.8252690675097
 30
0.0
 11
-64.70916792937561
 21
-247.0673256895178
 31
0.0
  0
LINE
  5
82
330
1F
100
AcDbEntity
  8
041
  6
Continuous
 62
     3
370
     9
100
AcDbLine
 10
-134.831998382902
 20
-255.9105517062362
 30
0.0
 11
-138.8209928192766
 21
-256.4918852348507
 31
0.0
  0
LINE
  5
83
330
1F
100
AcDbEntity
  8
041
  6
Continuous
 62
     3
370
     9
100
AcDbLine
 10
-141.4424438547063
 20
-127.7685987202739
 30
0.0
 11
-141.3559102309335
 21
-132.017739043633
 31
0.0
  0
LINE
  5
84
330
1F
100
AcDbEntity
  8
041
  6
Continuous
 62
     3
370
     9
100
AcDbLine
 10
-138.8209928192766
 20
-256.4918852348507
 30
0.0
 11
-138.7344591955039
 21
-260.740976011331
 31
0.0
  0
LINE
  5
85
330
1F
100
AcDbEntity
  8
041
  6
Continuous
 62
     3
370
     9
100
AcDbLine
 10
-141.4424438547063
 20
-127.7685987202739
 30
0.0
 11
-149.4607886602137
 21
-126.9493906266823
 31
0.0
  0
LINE
  5
86
330
1F
100
AcDbEntity
  8
041
  6
Continuous
 62
     3
370
     9
100
AcDbLine
 10
-138.7344591955039
 20
-260.740976011331
 30
0.0
 11
-149.4607886602137
 21
-262.2803232144126
 31
0.0
  0
LINE
  5
87
330
1F
100
AcDbEntity
  8
041
  6
Continuous
 62
     3
370
     9
100
AcDbLine
 10
-149.4607886602137
 20
-126.9493906266823
 30
0.0
 11
-149.4607886602137
 21
-262.2803232144126
 31
0.0
  0
LINE
  5
88
330
1F
100
AcDbEntity
  8
041
  6
Continuous
 62
     3
370
     9
100
AcDbLine
 10
-145.3900666473074
 20
-130.3809083565704
 30
0.0
 11
-145.2831940297993
 21
-135.6295083184882
 31
0.0
  0
LINE
  5
89
330
1F
100
AcDbEntity
  8
041
  6
Continuous
 62
     3
370
     9
100
AcDbLine
 10
-142.8694311234561
 20
-254.1545607757305
 30
0.0
 11
-142.7851766561066
 21
-258.2916012858714
 31
0.0
  0
LINE
  5
8A
330
1F
100
AcDbEntity
  8
041
  6
Continuous
 62
     3
370
     9
100
AcDbLine
 10
-142.7851766561066
 20
-258.2916012858714
 30
0.0
 11
-149.4608134336531
 21
-259.2495901868992
 31
0.0
  0
LINE
  5
8B
330
1F
100
AcDbEntity
  8
041
  6
JWW_CENTER1
 62
     3
370
     9
100
AcDbLine
 10
-133.9777110991409
 20
-149.1826606311315
 30
0.0
 11
-155.3761409697463
 21
-149.1826606311315
 31
0.0
  0
LINE
  5
8C
330
1F
100
AcDbEntity
  8
041
  6
Continuous
 62
     3
370
     9
100
AcDbLine
 10
-137.0564302787436
 20
-146.6826366088487
 30
0.0
 11
-148.4607840059884
 21
-146.6826737690078
 31
0.0
  0
LINE
  5
8D
330
1F
100
AcDbEntity
  8
041
  6
Continuous
 62
     3
370
     9
100
AcDbLine
 10
-136.9545866694308
 20
-151.6826970401339
 30
0.0
 11
-148.4607840059884
 21
-151.6826970401339
 31
0.0
  0
LINE
  5
8E
330
1F
100
AcDbEntity
  8
041
  6
Continuous
 62
     3
370
     9
100
AcDbLine
 10
-148.4607840059884
 20
-157.1826978649333
 30
0.0
 11
-139.838115920117
 21
-157.4326618683306
 31
0.0
  0
LINE
  5
8F
330
1F
100
AcDbEntity
  8
041
  6
Continuous
 62
     3
370
     9
100
AcDbLine
 10
-148.4607840059884
 20
-141.1826729442083
 30
0.0
 11
-148.4607840059884
 21
-253.6491826122713
 31
0.0
  0
LINE
  5
90
330
1F
100
AcDbEntity
  8
041
  6
Continuous
 62
     3
370
     9
100
AcDbLine
 10
-140.2714776952832
 20
-136.1525747176685
 30
0.0
 11
-140.1741428519387
 21
-140.9326593939323
 31
0.0
  0
LINE
  5
91
330
1F
100
AcDbEntity
  8
041
  6
Continuous
 62
     3
370
     9
100
AcDbLine
 10
-140.1741428519387
 20
-140.9326593939323
 30
0.0
 11
-148.4607840059884
 21
-141.1826729442083
 31
0.0
  0
LINE
  5
92
330
1F
100
AcDbEntity
  8
041
  6
Continuous
 62
     3
370
     9
100
AcDbLine
 10
-139.3393522649736
 20
-181.9233372164431
 30
0.0
 11
-148.4607840059884
 21
-182.173350766719
 31
0.0
  0
LINE
  5
93
330
1F
100
AcDbEntity
  8
041
  6
JWW_DASHED1
 62
     3
370
     9
100
AcDbLine
 10
-140.1741428519387
 20
-140.9326593939323
 30
0.0
 11
-139.838115920117
 21
-157.4326618683306
 31
0.0
  0
LINE
  5
94
330
1F
100
AcDbEntity
  8
041
  6
Continuous
 62
     3
370
     9
100
AcDbLine
 10
-139.838115920117
 20
-157.4326618683306
 30
0.0
 11
-139.3393522649736
 21
-181.9233372164431
 31
0.0
  0
LINE
  5
95
330
1F
100
AcDbEntity
  8
041
  6
Continuous
 62
     6
370
     9
100
AcDbLine
 10
-142.6824288162564
 20
-201.6733424303536
 30
0.0
 11
-148.4607840059884
 21
-201.6733919772324
 31
0.0
  0
LINE
  5
96
330
1F
100
AcDbEntity
  8
041
  6
Continuous
 62
     6
370
     9
100
AcDbLine
 10
-142.682441202976
 20
-186.6733345505735
 30
0.0
 11
-148.460759232549
 21
-186.6733593240129
 31
0.0
  0
LINE
  5
97
330
1F
100
AcDbEntity
  8
041
  6
Continuous
 62
     6
370
     9
100
AcDbLine
 10
-148.4607840059884
 20
-201.6733919772324
 30
0.0
 11
-148.460759232549
 21
-186.6733593240129
 31
0.0
  0
LINE
  5
98
330
1F
100
AcDbEntity
  8
041
  6
Continuous
 62
     6
370
     9
100
AcDbLine
 10
-142.6824164295368
 20
-197.9205627385175
 30
0.0
 11
-148.4607840059884
 21
-197.9205627385175
 31
0.0
  0
LINE
  5
99
330
1F
100
AcDbEntity
  8
041
  6
Continuous
 62
     6
370
     9
100
AcDbLine
 10
-142.682441202976
 20
-190.4260770822505
 30
0.0
 11
-148.4607840059884
 21
-190.4260770822505
 31
0.0
  0
LINE
  5
9A
330
1F
100
AcDbEntity
  8
041
  6
Continuous
 62
     6
370
     9
100
AcDbLine
 10
-141.9607413668048
 20
-199.7969649711552
 30
0.0
 11
-141.960778526964
 21
-188.5497491699309
 31
0.0
  0
LINE
  5
9B
330
1F
100
AcDbEntity
  8
041
  6
Continuous
 62
     3
370
     9
100
AcDbLine
 10
-136.9978163211582
 20
-198.6733036942385
 30
0.0
 11
-135.9776832474323
 21
-199.652746393774
 31
0.0
  0
LINE
  5
9C
330
1F
100
AcDbEntity
  8
041
  6
Continuous
 62
     3
370
     9
100
AcDbLine
 10
-137.1811149991695
 20
-189.6733361265295
 30
0.0
 11
-141.960778526964
 21
-189.6733113530901
 31
0.0
  0
LINE
  5
9D
330
1F
100
AcDbEntity
  8
041
  6
Continuous
 62
     3
370
     9
100
AcDbLine
 10
-136.9978163211582
 20
-198.6733036942385
 30
0.0
 11
-141.960778526964
 21
-198.6733408543976
 31
0.0
  0
LINE
  5
9E
330
1F
100
AcDbEntity
  8
041
  6
Continuous
 62
     3
370
     9
100
AcDbLine
 10
-135.6278451231533
 20
-216.831590654207
 30
0.0
 11
-148.4607840059884
 21
-218.0931532814618
 31
0.0
  0
LINE
  5
9F
330
1F
100
AcDbEntity
  8
041
  6
Continuous
 62
     3
370
     9
100
AcDbLine
 10
-145.3900666473074
 20
-130.3809083565704
 30
0.0
 11
-149.4608134336531
 21
-129.9650118561707
 31
0.0
  0
LINE
  5
A0
330
1F
100
AcDbEntity
  8
041
  6
Continuous
 62
     3
370
     9
100
AcDbLine
 10
-140.2714776952832
 20
-136.1525747176685
 30
0.0
 11
-145.2831940297993
 21
-135.6295083184882
 31
0.0
  0
LINE
  5
A1
330
1F
100
AcDbEntity
  8
041
  6
Continuous
 62
     3
370
     9
100
AcDbLine
 10
-137.3465520273842
 20
-132.4361624348499
 30
0.0
 11
-141.3559102309335
 21
-132.017739043633
 31
0.0
  0
LINE
  5
A2
330
1F
100
AcDbEntity
  8
041
  6
Continuous
 62
     3
370
     9
100
AcDbLine
 10
-142.8694311234561
 20
-254.1545607757305
 30
0.0
 11
-148.4607840059884
 21
-253.6491826122713
 31
0.0
  0
LINE
  5
A3
330
1F
100
AcDbEntity
  8
041
  6
Continuous
 62
     3
370
     9
100
AcDbLine
 10
-134.9144691626155
 20
-251.8613578121556
 30
0.0
 11
-148.4607840059884
 21
-250.6369305705393
 31
0.0
  0
LINE
  5
A4
330
1F
100
AcDbEntity
  8
041
  6
Continuous
 62
     3
370
     9
100
AcDbLine
 10
-137.1811149991695
 20
-189.6733361265295
 30
0.0
 11
-136.2016970730737
 21
-188.6531658926447
 31
0.0
  0
LINE
  5
A5
330
1F
100
AcDbEntity
  8
087
  6
Continuous
 62
     4
370
     9
100
AcDbLine
 10
-79.89679745233991
 20
-257.0423262845517
 30
0.0
 11
-79.835854791452
 21
-260.0416465909246
 31
0.0
  0
LINE
  5
A6
330
1F
100
AcDbEntity
  8
087
  6
Continuous
 62
     4
370
     9
100
AcDbLine
 10
-141.3610011727272
 20
-131.7678493605539
 30
0.0
 11
-141.4526257382935
 21
-127.268769807237
 31
0.0
  0
LINE
  5
A7
330
1F
100
AcDbEntity
  8
087
  6
Continuous
 62
     4
370
     9
100
AcDbLine
 10
-138.7243268587952
 20
-261.2409287915648
 30
0.0
 11
-138.8159018774829
 21
-256.7418987851266
 31
0.0
  0
LINE
  5
A8
330
1F
100
AcDbEntity
  8
041
  6
Continuous
 62
     3
370
     9
100
AcDbLine
 10
-137.1811149991695
 20
-189.6733361265295
 30
0.0
 11
-137.1704995803931
 21
-190.1946064513544
 31
0.0
  0
LINE
  5
A9
330
1F
100
AcDbEntity
  8
041
  6
Continuous
 62
     3
370
     9
100
AcDbLine
 10
-137.0076018297153
 20
-198.192921931119
 30
0.0
 11
-136.9978163211582
 21
-198.6733036942385
 31
0.0
  0
LINE
  5
AA
330
1F
100
AcDbEntity
  8
041
  6
Continuous
 62
     3
370
     9
100
AcDbLine
 10
-137.3465520273842
 20
-132.4361624348499
 30
0.0
 11
-136.1707178871223
 21
-190.1742550708994
 31
0.0
  0
LINE
  5
AB
330
1F
100
AcDbEntity
  8
041
  6
Continuous
 62
     3
370
     9
100
AcDbLine
 10
-136.0078325231641
 20
-198.1725581639443
 30
0.0
 11
-134.831998382902
 21
-255.9105517062362
 31
0.0
  0
LINE
  5
AC
330
1F
100
AcDbEntity
  8
通り芯
  6
Continuous
 62
     3
370
     9
100
AcDbLine
 10
-89.4607323676542
 20
-131.2109176697339
 30
0.0
 11
-88.27980728559828
 21
-189.1989495357413
 31
0.0
  0
LINE
  5
AD
330
1F
100
AcDbEntity
  8
通り芯
  6
Continuous
 62
     3
370
     9
100
AcDbLine
 10
-88.11692192164026
 20
-197.1972650155059
 30
0.0
 11
-86.93602161302408
 21
-255.1851358541572
 31
0.0
  0
LINE
  5
AE
330
1F
100
AcDbEntity
  8
通り芯
  6
Continuous
 62
     3
370
     9
100
AcDbLine
 10
-65.16200162789852
 20
-247.0907118162975
 30
0.0
 11
-66.18717609653919
 21
-196.7506742237078
 31
0.0
  0
LINE
  5
AF
330
1F
100
AcDbEntity
  8
通り芯
  6
Continuous
 62
     3
370
     9
100
AcDbLine
 10
-66.35006146049739
 20
-188.7523463572236
 30
0.0
 11
-67.37526070257746
 21
-138.4120858036795
 31
0.0
  0
LINE
  5
B0
330
1F
100
AcDbEntity
  8
087
  6
Continuous
 62
     4
370
     9
100
AcDbLine
 10
-82.50296327566866
 20
-129.068832686409
 30
0.0
 11
-82.56405457719285
 21
-126.0695123800361
 31
0.0
  0
ARC
  5
B1
330
1F
100
AcDbEntity
  8
通り芯
  6
Continuous
 62
     3
370
     9
100
AcDbCircle
 10
77.7200239250941
 20
-233.206512033149
 30
0.0
 40
4.000000036821402
100
AcDbArc
 50
145.0000152587891
 51
270.0
  0
ARC
  5
B2
330
1F
100
AcDbEntity
  8
通り芯
  6
Continuous
 62
     3
370
     9
100
AcDbCircle
 10
-45.4607753161377
 20
-110.025688018478
 30
0.0
 40
4.000000036821402
100
AcDbArc
 50
180.0
 51
304.9999847412109
  0
ARC
  5
B3
330
1F
100
AcDbEntity
  8
通り芯
  6
Continuous
 62
     3
370
     9
100
AcDbCircle
 10
-19.46080294691774
 20
-214.2065226966271
 30
0.0
 40
29.99999717948059
100
AcDbArc
 50
180.0
 51
270.0
  0
ARC
  5
B4
330
1F
100
AcDbEntity
  8
通り芯
  6
Continuous
 62
     3
370
     9
100
AcDbCircle
 10
4.162876343028984
 20
-223.7065297516078
 30
0.0
 40
1.500000013808026
100
AcDbArc
 50
0.0
 51
90.0
  0
ARC
  5
B5
330
1F
100
AcDbEntity
  8
通り芯
  6
Continuous
 62
     3
370
     9
100
AcDbCircle
 10
26.08514058943558
 20
-223.7065297516078
 30
0.0
 40
1.500000013808026
100
AcDbArc
 50
90.0
 51
130.0000305175781
  0
ARC
  5
B6
330
1F
100
AcDbEntity
  8
通り芯
  6
Continuous
 62
     3
370
     9
100
AcDbCircle
 10
-58.96078860129956
 20
-110.0741200924762
 30
0.0
 40
5.000000046026752
100
AcDbArc
 50
0.0
 51
42.99996948242188
  0
ARC
  5
B7
330
1F
100
AcDbEntity
  8
通り芯
  6
Continuous
 62
     3
370
     9
100
AcDbCircle
 10
-57.96078394707445
 20
-124.5681676329715
 30
0.0
 40
4.000000036821402
100
AcDbArc
 50
271.1664886474609
 51
0.0
  0
ARC
  5
B8
330
1F
100
AcDbEntity
  8
通り芯
  6
Continuous
 62
     3
370
     9
100
AcDbCircle
 10
-53.87760089415701
 20
-137.7377775570522
 30
0.0
 40
2.000000018410701
100
AcDbArc
 50
197.1116027832032
 51
271.1664886474609
  0
ARC
  5
B9
330
1F
100
AcDbEntity
  8
通り芯
  6
Continuous
 62
     3
370
     9
100
AcDbCircle
 10
-51.651657818513
 20
-247.2286007799158
 30
0.0
 40
2.000000018410701
100
AcDbArc
 50
90.65931701660158
 51
165.2213439941406
  0
ARC
  5
BA
330
1F
100
AcDbEntity
  8
通り芯
  6
Continuous
 62
     3
370
     9
100
AcDbCircle
 10
-60.65288883163066
 20
-246.648332509195
 30
0.0
 40
4.000000036821402
100
AcDbArc
 50
197.1117706298828
 51
271.1668395996094
  0
ARC
  5
BB
330
1F
100
AcDbEntity
  8
通り芯
  6
Continuous
 62
     3
370
     9
100
AcDbCircle
 10
-62.85185363178414
 20
-138.6707205108616
 30
0.0
 40
4.000000036821402
100
AcDbArc
 50
91.16683959960939
 51
165.2213439941406
  0
ARC
  5
BC
330
1F
100
AcDbEntity
  8
通り芯
  6
Continuous
 62
     3
370
     9
100
AcDbCircle
 10
-59.88689408583855
 20
-138.6102980922009
 30
0.0
 40
4.000000036821402
100
AcDbArc
 50
17.11198425292969
 51
91.16683959960938
  0
ARC
  5
BD
330
1F
100
AcDbEntity
  8
通り芯
  6
Continuous
 62
     3
370
     9
100
AcDbCircle
 10
-51.74480595060163
 20
-246.4669042258571
 30
0.0
 40
10.0000000920535
100
AcDbArc
 50
271.1666259765625
 51
294.675537109375
  0
ARC
  5
BE
330
1F
100
AcDbEntity
  8
通り芯
  6
Continuous
 62
     3
370
     9
100
AcDbCircle
 10
-31.09787836374795
 20
-264.4933097812581
 30
0.0
 40
14.9999985897403
100
AcDbArc
 50
90.65899658203125
 51
114.675552368164
  0
ARC
  5
BF
330
1F
100
AcDbEntity
  8
通り芯
  6
Continuous
 62
     3
370
     9
100
AcDbCircle
 10
88.53917946718042
 20
-239.2064904116216
 30
0.0
 40
2.000000018410701
100
AcDbArc
 50
0.0
 51
90.0
  0
ARC
  5
C0
330
1F
100
AcDbEntity
  8
通り芯
  6
Continuous
 62
     3
370
     9
100
AcDbCircle
 10
80.366322720227
 20
-246.706525318311
 30
0.0
 40
5.000000046026752
100
AcDbArc
 50
10.30488586425781
 51
89.99998474121092
  0
ARC
  5
C1
330
1F
100
AcDbEntity
  8
通り芯
  6
Continuous
 62
     3
370
     9
100
AcDbCircle
 10
-51.46080324148903
 20
-99.20653247639154
 30
0.0
 40
2.000000018410701
100
AcDbArc
 50
0.0
 51
90.0
  0
ARC
  5
C2
330
1F
100
AcDbEntity
  8
通り芯
  6
Continuous
 62
     3
370
     9
100
AcDbCircle
 10
56.02322275053257
 20
-227.2065336546764
 30
0.0
 40
10.0000000920535
100
AcDbArc
 50
270.0
 51
310.0000610351562
  0
ARC
  5
C3
330
1F
100
AcDbEntity
  8
通り芯
  6
Continuous
 62
     3
370
     9
100
AcDbCircle
 10
37.75035863340725
 20
-245.7002282104819
 30
0.0
 40
3.000000027616052
100
AcDbArc
 50
270.6590881347656
 51
310.0000305175781
  0
ARC
  5
C4
330
1F
100
AcDbEntity
  8
通り芯
  6
JWW_DASHED1
 62
     3
370
     9
100
AcDbCircle
 10
-39.46079693766501
 20
-131.7224891930395
 30
0.0
 40
10.0000000920535
100
AcDbArc
 50
139.9998931884765
 51
180.0
  0
ARC
  5
C5
330
1F
100
AcDbEntity
  8
通り芯
  6
Continuous
 62
     3
370
     9
100
AcDbCircle
 10
-38.46081705687914
 20
-119.6407305392441
 30
0.0
 40
3.000000027616052
100
AcDbArc
 50
139.9999694824219
 51
180.0
  0
ARC
  5
C6
330
1F
100
AcDbEntity
  8
通り芯
  6
Continuous
 62
     3
370
     9
100
AcDbCircle
 10
-57.68792928568507
 20
-246.5879348639737
 30
0.0
 40
4.000000036821402
100
AcDbArc
 50
271.3141479492188
 51
345.2214660644531
  0
ARC
  5
C7
330
1F
100
AcDbEntity
  8
通り芯
  6
Continuous
 62
     3
370
     9
100
AcDbCircle
 10
49.87247321996125
 20
-246.706525318311
 30
0.0
 40
5.000000046026752
100
AcDbArc
 50
90.0
 51
130.0000610351562
  0
ARC
  5
C8
330
1F
100
AcDbEntity
  8
通り芯
  6
Continuous
 62
     3
370
     9
100
AcDbCircle
 10
48.26898758231113
 20
-244.7065283965802
 30
0.0
 40
3.000000027616052
100
AcDbArc
 50
90.0
 51
130.0000152587891
  0
ARC
  5
C9
330
1F
100
AcDbEntity
  8
041
  6
Continuous
 62
     6
370
     9
100
AcDbCircle
 10
-144.7609203806795
 20
-199.7969525844355
 30
0.0
 40
2.800173401142179
100
AcDbArc
 50
317.9254455566406
 51
42.07450866699221
  0
ARC
  5
CA
330
1F
100
AcDbEntity
  8
041
  6
Continuous
 62
     6
370
     9
100
AcDbCircle
 10
-152.0501580916393
 20
-194.1733694572628
 30
0.0
 40
10.08940975730484
100
AcDbArc
 50
338.1978912353515
 51
21.80216979980466
  0
ARC
  5
CB
330
1F
100
AcDbEntity
  8
041
  6
Continuous
 62
     6
370
     9
100
AcDbCircle
 10
-144.7609699275582
 20
-188.5496872363325
 30
0.0
 40
2.800189271626786
100
AcDbArc
 50
317.9257965087891
 51
42.07435607910156
  0
LINE
  5
CC
330
1F
100
AcDbEntity
  8
通り芯
  6
Continuous
 62
     3
370
     9
100
AcDbLine
 10
-64.85043470201418
 20
-188.7218111868363
 30
0.0
 11
-65.92192688104149
 21
-136.1065952141695
 31
0.0
  0
LINE
  5
CD
330
1F
100
AcDbEntity
  8
通り芯
  6
Continuous
 62
     3
370
     9
100
AcDbLine
 10
-55.85228006955526
 20
-188.5385636018881
 30
0.0
 11
-56.92376777440751
 21
-135.9233213095973
 31
0.0
  0
LINE
  5
CE
330
1F
100
AcDbEntity
  8
通り芯
  6
Continuous
 62
     3
370
     9
100
AcDbLine
 10
-54.3525947344707
 20
-188.5080224823962
 30
0.0
 11
-55.359151663153
 21
-139.081265948354
 31
0.0
  0
LINE
  5
CF
330
1F
100
AcDbEntity
  8
通り芯
  6
Continuous
 62
     3
370
     9
100
AcDbLine
 10
-63.61603991650111
 20
-249.3352845183592
 30
0.0
 11
-64.68755339662698
 21
-196.7201337338018
 31
0.0
  0
LINE
  5
D0
330
1F
100
AcDbEntity
  8
通り芯
  6
Continuous
 62
     3
370
     9
100
AcDbLine
 10
-54.6178808098673
 20
-249.1520601606658
 30
0.0
 11
-55.68937355385111
 21
-196.5368875439215
 31
0.0
  0
LINE
  5
D1
330
1F
100
AcDbEntity
  8
通り芯
  6
Continuous
 62
     3
370
     9
100
AcDbLine
 10
-53.18295365379436
 20
-245.9420789124804
 30
0.0
 11
-54.18972461161445
 21
-196.5063474836399
 31
0.0
  0
LINE
  5
D2
330
1F
100
AcDbEntity
  8
通り芯
  6
Continuous
 62
     3
370
     9
100
AcDbLine
 10
4.162876343028984
 20
-222.2064856101108
 30
0.0
 11
-19.48971838787196
 21
-222.2064856101108
 31
0.0
  0
LINE
  5
D3
330
1F
100
AcDbEntity
  8
通り芯
  6
Continuous
 62
     3
370
     9
100
AcDbLine
 10
56.02322275053257
 20
-237.2065058766106
 30
0.0
 11
-19.48007991551162
 21
-237.2065058766106
 31
0.0
  0
ARC
  5
D4
330
1F
100
AcDbEntity
  8
通り芯
  6
Continuous
 62
     3
370
     9
100
AcDbCircle
 10
46.63109163735498
 20
-240.2065074525666
 30
0.0
 40
3.000000027616052
100
AcDbArc
 50
90.0
 51
129.9998779296875
  0
LINE
  5
D5
330
1F
100
AcDbEntity
  8
通り芯
  6
Continuous
 62
     3
370
     9
100
AcDbLine
 10
36.12457534013669
 20
-244.2188263789313
 30
0.0
 11
-51.67469711714131
 21
-245.2287153386623
 31
0.0
  0
LINE
  5
D6
330
1F
100
AcDbEntity
  8
通り芯
  6
Continuous
 62
     3
370
     9
100
AcDbLine
 10
38.01843528720218
 20
-243.5171568170436
 30
0.0
 11
44.70272711560676
 21
-237.9083621878343
 31
0.0
  0
ARC
  5
D7
330
1F
100
AcDbEntity
  8
通り芯
  6
Continuous
 62
     3
370
     9
100
AcDbCircle
 10
36.09007088014221
 20
-241.2190248117871
 30
0.0
 40
3.0
100
AcDbArc
 50
270.6590011738043
 51
310.000039341836
  0
LINE
  5
D8
330
1F
100
AcDbEntity
  8
通り芯
  6
Continuous
 62
     3
370
     9
100
AcDbLine
 10
-19.46080294691774
 20
-244.2065012960281
 30
0.0
 11
36.36390341310141
 21
-244.2065012960281
 31
0.0
  0
LINE
  5
D9
330
1F
100
AcDbEntity
  8
061
  6
Continuous
 62
     2
370
     9
100
AcDbLine
 10
-37.46078789432863
 20
-129.0764986372284
 30
0.0
 11
-49.46076915959924
 21
-129.0764986372284
 31
0.0
  0
LINE
  5
DA
330
1F
100
AcDbEntity
  8
通り芯
  6
Continuous
 62
     3
370
     9
100
AcDbLine
 10
-49.46076915959924
 20
-133.5665394789385
 30
0.0
 11
-49.46076915959924
 21
-128.8464808463051
 31
0.0
  0
LINE
  5
DB
330
1F
100
AcDbEntity
  8
通り芯
  6
Continuous
 62
     3
370
     9
100
AcDbLine
 10
-50.46079858726375
 20
-133.5665394789385
 30
0.0
 11
-50.46079858726375
 21
-128.8464808463051
 31
0.0
  0
LINE
  5
DC
330
1F
100
AcDbEntity
  8
通り芯
  6
Continuous
 62
     3
370
     9
100
AcDbLine
 10
-50.46079858726375
 20
-128.8464808463051
 30
0.0
 11
-51.82328820657403
 21
-131.2064730024628
 31
0.0
  0
LINE
  5
DD
330
1F
100
AcDbEntity
  8
通り芯
  6
Continuous
 62
     3
370
     9
100
AcDbLine
 10
-50.46079858726375
 20
-133.5665394789385
 30
0.0
 11
-51.82328820657403
 21
-131.2064730024628
 31
0.0
  0
LINE
  5
DE
330
1F
100
AcDbEntity
  8
061
  6
Continuous
 62
     2
370
     9
100
AcDbLine
 10
-49.46076915959924
 20
-128.206416444789
 30
0.0
 11
-49.46076915959924
 21
-134.2064245749546
 31
0.0
  0
LINE
  5
DF
330
1F
100
AcDbEntity
  8
061
  6
Continuous
 62
     2
370
     9
100
AcDbLine
 10
-37.46078789432863
 20
-128.206416444789
 30
0.0
 11
-49.46076915959924
 21
-128.206416444789
 31
0.0
  0
LINE
  5
E0
330
1F
100
AcDbEntity
  8
061
  6
Continuous
 62
     2
370
     9
100
AcDbLine
 10
-37.46078789432863
 20
-133.3365173578184
 30
0.0
 11
-49.46076915959924
 21
-133.3365173578184
 31
0.0
  0
LINE
  5
E1
330
1F
100
AcDbEntity
  8
061
  6
Continuous
 62
     2
370
     9
100
AcDbLine
 10
-37.46078789432863
 20
-134.2064245749546
 30
0.0
 11
-49.46076915959924
 21
-134.2064245749546
 31
0.0
  0
ARC
  5
E2
330
1F
100
AcDbEntity
  8
061
  6
Continuous
 62
     2
370
     9
100
AcDbCircle
 10
-35.66076915959917
 20
-128.3064205098718
 30
0.0
 40
2.0
100
AcDbArc
 50
0.0
 51
90.0
  0
ARC
  5
E3
330
1F
100
AcDbEntity
  8
061
  6
Continuous
 62
     2
370
     9
100
AcDbCircle
 10
-35.66076915959917
 20
-134.1064205098718
 30
0.0
 40
2.0
100
AcDbArc
 50
270.0
 51
0.0
  0
LINE
  5
E4
330
1F
100
AcDbEntity
  8
061
  6
Continuous
 62
     2
370
     9
100
AcDbLine
 10
-35.16076915959911
 20
-131.8564205098718
 30
0.0
 11
-35.16076915959911
 21
-130.5564205098718
 31
0.0
  0
LINE
  5
E5
330
1F
100
AcDbEntity
  8
061
  6
Continuous
 62
     2
370
     9
100
AcDbLine
 10
-35.16076915959911
 20
-130.5564205098718
 30
0.0
 11
-33.66076915959911
 21
-130.5564205098718
 31
0.0
  0
LINE
  5
E6
330
1F
100
AcDbEntity
  8
061
  6
Continuous
 62
     2
370
     9
100
AcDbLine
 10
-35.16076915959911
 20
-131.8564205098718
 30
0.0
 11
-33.66076915959911
 21
-131.8564205098718
 31
0.0
  0
LINE
  5
E7
330
1F
100
AcDbEntity
  8
061
  6
Continuous
 62
     2
370
     9
100
AcDbLine
 10
-35.66076915959917
 20
-126.3064205098718
 30
0.0
 11
-37.46078789432863
 21
-126.3064205098718
 31
0.0
  0
LINE
  5
E8
330
1F
100
AcDbEntity
  8
061
  6
Continuous
 62
     2
370
     9
100
AcDbLine
 10
-37.46078789432863
 20
-126.3064205098718
 30
0.0
 11
-37.46078789432863
 21
-136.1064205098718
 31
0.0
  0
LINE
  5
E9
330
1F
100
AcDbEntity
  8
061
  6
Continuous
 62
     2
370
     9
100
AcDbLine
 10
-35.66076915959917
 20
-136.1064205098718
 30
0.0
 11
-37.46078789432863
 21
-136.1064205098718
 31
0.0
  0
LINE
  5
EA
330
1F
100
AcDbEntity
  8
通り芯
  6
Continuous
 62
     3
370
     9
100
AcDbLine
 10
-49.46076915959924
 20
-133.5665394789385
 30
0.0
 11
-50.46079858726375
 21
-133.5665394789385
 31
0.0
  0
LINE
  5
EB
330
1F
100
AcDbEntity
  8
通り芯
  6
Continuous
 62
     3
370
     9
100
AcDbLine
 10
-49.46076915959924
 20
-128.8463015408051
 30
0.0
 11
-50.46079858726375
 21
-128.8463015408051
 31
0.0
  0
LINE
  5
EC
330
1F
100
AcDbEntity
  8
通り芯
  6
JWW_CENTER1
 62
     3
370
     9
100
AcDbLine
 10
-52.4302374715129
 20
-131.2064730024628
 30
0.0
 11
-32.7513969658267
 21
-131.2064730024628
 31
0.0
  0
LINE
  5
ED
330
1F
100
AcDbEntity
  8
通り芯
  6
Continuous
 62
     3
370
     9
100
AcDbLine
 10
-41.46080624611557
 20
-119.6407305392441
 30
0.0
 11
-41.46080624611557
 21
-129.0764986372284
 31
0.0
  0
LINE
  5
EE
330
1F
100
AcDbEntity
  8
通り芯
  6
Continuous
 62
     3
370
     9
100
AcDbLine
 10
-41.46080624611557
 20
-133.3365173578184
 30
0.0
 11
-41.46080624611557
 21
-136.2065064952101
 31
0.0
  0
LINE
  5
EF
330
1F
100
AcDbEntity
  8
通り芯
  6
Continuous
 62
     3
370
     9
100
AcDbLine
 10
-34.46077366653878
 20
-207.235430331444
 30
0.0
 11
-34.46077366653878
 21
-135.7064238900666
 31
0.0
  0
LINE
  5
F0
330
1F
100
AcDbEntity
  8
061
  6
Continuous
 62
     2
370
     9
100
AcDbLine
 10
-33.66076915959911
 20
-134.1064205098718
 30
0.0
 11
-33.66076915959911
 21
-131.8564205098718
 31
0.0
  0
LINE
  5
F1
330
1F
100
AcDbEntity
  8
061
  6
Continuous
 62
     2
370
     9
100
AcDbLine
 10
-33.66076915959911
 20
-130.5564205098718
 30
0.0
 11
-33.66076915959911
 21
-128.3064205098718
 31
0.0
  0
LINE
  5
F2
330
1F
100
AcDbEntity
  8
仕上
  6
JWW_DASHED1
 62
     6
370
     9
100
AcDbLine
 10
-49.46082769090026
 20
-222.2065058766106
 30
0.0
 11
-49.46082769090026
 21
-237.2065058766106
 31
0.0
  0
LINE
  5
F3
330
1F
100
AcDbEntity
  8
仕上
  6
JWW_DASHED1
 62
     6
370
     9
100
AcDbLine
 10
-45.91828123819744
 20
-237.2065058766106
 30
0.0
 11
-49.46082769090026
 21
-237.2065058766106
 31
0.0
  0
ARC
  5
F4
330
1F
100
AcDbEntity
  8
仕上
  6
JWW_DASHED1
 62
     6
370
     9
100
AcDbCircle
 10
-19.46082769090009
 20
-207.2064687606372
 30
0.0
 40
40.00000206199852
100
AcDbArc
 50
221.4096069335938
 51
270.0
  0
LINE
  5
F5
330
1F
100
AcDbEntity
  8
仕上
  6
Continuous
 62
     6
370
     9
100
AcDbLine
 10
112.9516198518576
 20
-235.7517576713741
 30
0.0
 11
116.7893620129638
 21
-222.2065058766106
 31
0.0
  0
LINE
  5
F6
330
1F
100
AcDbEntity
  8
仕上
  6
JWW_HOJO
 62
     6
370
     9
100
AcDbLine
 10
112.5394345953119
 20
-237.2065058766106
 30
0.0
 11
112.9516198518576
 21
-235.7517081834096
 31
0.0
  0
LINE
  5
F7
330
1F
100
AcDbEntity
  8
仕上
  6
JWW_HOJO
 62
     6
370
     9
100
AcDbLine
 10
112.5394345953119
 20
-237.2065058766106
 30
0.0
 11
111.0272803512241
 21
-237.2065058766106
 31
0.0
  0
LINE
  5
F8
330
1F
100
AcDbEntity
  8
仕上
  6
JWW_HOJO
 62
     6
370
     9
100
AcDbLine
 10
99.5391937538846
 20
-247.2065141246047
 30
0.0
 11
97.7292209392732
 21
-247.2065141246047
 31
0.0
  0
LINE
  5
F9
330
1F
100
AcDbEntity
  8
仕上
  6
JWW_HOJO
 62
     6
370
     9
100
AcDbLine
 10
99.5391937538846
 20
-247.2065141246047
 30
0.0
 11
99.71932994476288
 21
-245.4056223514839
 31
0.0
  0
LINE
  5
FA
330
1F
100
AcDbEntity
  8
仕上
  6
Continuous
 62
     6
370
     9
100
AcDbLine
 10
58.53913271872818
 20
-222.2065058766106
 30
0.0
 11
58.53913271872818
 21
-237.2065058766106
 31
0.0
  0
LINE
  5
FB
330
1F
100
AcDbEntity
  8
仕上
  6
Continuous
 62
     6
370
     9
100
AcDbLine
 10
102.3491698676937
 20
-237.2065058766106
 30
0.0
 11
111.0272803512241
 21
-237.2065058766106
 31
0.0
  0
LINE
  5
FC
330
1F
100
AcDbEntity
  8
仕上
  6
Continuous
 62
     6
370
     9
100
AcDbLine
 10
100.359085606186
 20
-239.0074966256605
 30
0.0
 11
99.71928045679834
 21
-245.4055728635194
 31
0.0
  0
ARC
  5
FD
330
1F
100
AcDbEntity
  8
仕上
  6
Continuous
 62
     6
370
     9
100
AcDbCircle
 10
97.7292209392732
 20
-245.2065075262094
 30
0.0
 40
2.000000219087343
100
AcDbArc
 50
270.0
 51
354.2896118164062
  0
ARC
  5
FE
330
1F
100
AcDbEntity
  8
仕上
  6
Continuous
 62
     6
370
     9
100
AcDbCircle
 10
111.0272803512241
 20
-235.2064992782153
 30
0.0
 40
2.000000219087343
100
AcDbArc
 50
270.0
 51
344.1812286376953
  0
ARC
  5
FF
330
1F
100
AcDbEntity
  8
仕上
  6
Continuous
 62
     6
370
     9
100
AcDbCircle
 10
102.3491698676937
 20
-239.2065001030147
 30
0.0
 40
2.000000025774982
100
AcDbArc
 50
90.0
 51
174.28955078125
  0
LINE
  5
100
330
1F
100
AcDbEntity
  8
仕上
  6
Continuous
 62
     4
370
     9
100
AcDbLine
 10
9.539459339294183
 20
-234.2065058766106
 30
0.0
 11
6.539459339294183
 21
-234.2065058766106
 31
0.0
  0
ARC
  5
101
330
1F
100
AcDbEntity
  8
仕上
  6
Continuous
 62
     4
370
     9
100
AcDbCircle
 10
84.53918715548934
 20
-235.2065058766106
 30
0.0
 40
2.0
100
AcDbArc
 50
180.0
 51
270.0
  0
LINE
  5
102
330
1F
100
AcDbEntity
  8
仕上
  6
Continuous
 62
     6
370
     9
100
AcDbLine
 10
82.53918715548929
 20
-222.2065058766106
 30
0.0
 11
82.53918715548929
 21
-235.2065058766106
 31
0.0
  0
LINE
  5
103
330
1F
100
AcDbEntity
  8
仕上
  6
Continuous
 62
     6
370
     9
100
AcDbLine
 10
90.53921354907038
 20
-222.2065058766106
 30
0.0
 11
90.53921354907038
 21
-247.2065141246047
 31
0.0
  0
ARC
  5
104
330
1F
100
AcDbEntity
  8
仕上
  6
Continuous
 62
     4
370
     9
100
AcDbCircle
 10
88.53921354907033
 20
-233.2065058766106
 30
0.0
 40
2.0
100
AcDbArc
 50
0.0
 51
90.0
  0
LINE
  5
105
330
1F
100
AcDbEntity
  8
仕上
  6
Continuous
 62
     4
370
     9
100
AcDbLine
 10
82.53918715548929
 20
-231.2065058766106
 30
0.0
 11
88.53921354907033
 21
-231.2065058766106
 31
0.0
  0
LINE
  5
106
330
1F
100
AcDbEntity
  8
仕上
  6
Continuous
 62
     6
370
     9
100
AcDbLine
 10
97.7292209392732
 20
-247.2065141246047
 30
0.0
 11
41.49799303761017
 21
-247.2065141246047
 31
0.0
  0
LINE
  5
107
330
1F
100
AcDbEntity
  8
仕上
  6
Continuous
 62
     6
370
     9
100
AcDbLine
 10
90.53921354907038
 20
-237.2065058766106
 30
0.0
 11
84.53918715548934
 21
-237.2065058766106
 31
0.0
  0
ARC
  5
108
330
1F
100
AcDbEntity
  8
仕上
  6
JWW_DASHED1
 62
     6
370
     9
100
AcDbCircle
 10
-19.46082769090009
 20
-207.2064687606372
 30
0.0
 40
29.99999690700222
100
AcDbArc
 50
210.0000305175781
 51
270.0
  0
LINE
  5
109
330
1F
100
AcDbEntity
  8
仕上
  6
JWW_DASHED1
 62
     6
370
     9
100
AcDbLine
 10
41.49799303761017
 20
-247.2065141246047
 30
0.0
 11
-19.46082769090009
 21
-247.2065141246047
 31
0.0
  0
LINE
  5
10A
330
1F
100
AcDbEntity
  8
仕上
  6
JWW_DASHED1
 62
     6
370
     9
100
AcDbLine
 10
84.53918715548934
 20
-237.2065058766106
 30
0.0
 11
-19.46082769090009
 21
-237.2065058766106
 31
0.0
  0
LINE
  5
10B
330
1F
100
AcDbEntity
  8
087
  6
Continuous
 62
     2
370
     9
100
AcDbLine
 10
44.28917498969793
 20
-234.9065074249505
 30
0.0
 11
44.28917498969793
 21
-228.9064876297647
 31
0.0
  0
LINE
  5
10C
330
1F
100
AcDbEntity
  8
087
  6
Continuous
 62
     2
370
     9
100
AcDbLine
 10
30.78922942645903
 20
-234.9065074249505
 30
0.0
 11
30.78922942645903
 21
-228.9064876297647
 31
0.0
  0
LINE
  5
10D
330
1F
100
AcDbEntity
  8
087
  6
Continuous
 62
     2
370
     9
100
AcDbLine
 10
44.28917498969793
 20
-231.9064975273577
 30
0.0
 11
45.28922777686012
 21
-234.9065074249505
 31
0.0
  0
LINE
  5
10E
330
1F
100
AcDbEntity
  8
087
  6
Continuous
 62
     2
370
     9
100
AcDbLine
 10
30.78922942645903
 20
-231.9064975273577
 30
0.0
 11
29.78925087124355
 21
-234.9065074249505
 31
0.0
  0
LINE
  5
10F
330
1F
100
AcDbEntity
  8
087
  6
Continuous
 62
     2
370
     9
100
AcDbLine
 10
39.23229682246824
 20
-228.9064876297647
 30
0.0
 11
39.23229682246824
 21
-234.9065074249505
 31
0.0
  0
LINE
  5
110
330
1F
100
AcDbEntity
  8
087
  6
Continuous
 62
     2
370
     9
100
AcDbLine
 10
35.846033361742
 20
-228.9064876297647
 30
0.0
 11
35.846033361742
 21
-234.9065074249505
 31
0.0
  0
LINE
  5
111
330
1F
100
AcDbEntity
  8
087
  6
Continuous
 62
     2
370
     9
100
AcDbLine
 10
44.28917498969793
 20
-228.9064876297647
 30
0.0
 11
30.78922942645903
 21
-228.9064876297647
 31
0.0
  0
LINE
  5
112
330
1F
100
AcDbEntity
  8
087
  6
Continuous
 62
     6
370
     9
100
AcDbLine
 10
48.53918983608736
 20
-234.9065074249505
 30
0.0
 11
48.53918983608736
 21
-237.2065074249506
 31
0.0
  0
LINE
  5
113
330
1F
100
AcDbEntity
  8
087
  6
Continuous
 62
     6
370
     9
100
AcDbLine
 10
-19.46079393303864
 20
-237.2065074249506
 30
0.0
 11
48.53918983608736
 21
-237.2065074249506
 31
0.0
  0
ARC
  5
114
330
1F
100
AcDbEntity
  8
087
  6
Continuous
 62
     6
370
     9
100
AcDbCircle
 10
-19.46079393303864
 20
-207.2065074249506
 30
0.0
 40
30.0
100
AcDbArc
 50
180.0
 51
270.0
  0
LINE
  5
115
330
1F
100
AcDbEntity
  8
087
  6
Continuous
 62
     6
370
     9
100
AcDbLine
 10
-19.46079393303864
 20
-234.9065074249505
 30
0.0
 11
48.53918983608736
 21
-234.9065074249505
 31
0.0
  0
LINE
  5
116
330
1F
100
AcDbEntity
  8
087
  6
Continuous
 62
     6
370
     9
100
AcDbLine
 10
-47.16079393303869
 20
-186.2065074249506
 30
0.0
 11
-49.46079393303864
 21
-186.2065074249506
 31
0.0
  0
LINE
  5
117
330
1F
100
AcDbEntity
  8
087
  6
Continuous
 62
     6
370
     9
100
AcDbLine
 10
-47.16079393303869
 20
-198.2065074249506
 30
0.0
 11
-49.46079393303864
 21
-198.2065074249506
 31
0.0
  0
LINE
  5
118
330
1F
100
AcDbEntity
  8
087
  6
Continuous
 62
     6
370
     9
100
AcDbLine
 10
-47.16079393303869
 20
-147.2065074249506
 30
0.0
 11
-49.46079393303864
 21
-147.2065074249506
 31
0.0
  0
ARC
  5
119
330
1F
100
AcDbEntity
  8
087
  6
Continuous
 62
     6
370
     9
100
AcDbCircle
 10
-19.46079393303864
 20
-207.2065074249505
 30
0.0
 40
27.69999999999999
100
AcDbArc
 50
180.0
 51
270.0
  0
LINE
  5
11A
330
1F
100
AcDbEntity
  8
051
  6
Continuous
 62
     2
370
     9
100
AcDbLine
 10
-38.89681859844416
 20
-188.1932168811147
 30
0.0
 11
-38.73393323448613
 21
-196.191544747599
 31
0.0
  0
LINE
  5
11B
330
1F
100
AcDbEntity
  8
051
  6
Continuous
 62
     2
370
     9
100
AcDbLine
 10
-38.73393323448613
 20
-196.191544747599
 30
0.0
 11
-38.07131805124868
 21
-195.5014310466439
 31
0.0
  0
LINE
  5
11C
330
1F
100
AcDbEntity
  8
051
  6
Continuous
 62
     2
370
     9
100
AcDbLine
 10
-38.07131805124868
 20
-195.5014310466439
 30
0.0
 11
-38.20668012404974
 21
-188.8558072909127
 31
0.0
  0
LINE
  5
11D
330
1F
100
AcDbEntity
  8
051
  6
Continuous
 62
     2
370
     9
100
AcDbLine
 10
-38.20668012404974
 20
-188.8558072909127
 30
0.0
 11
-38.89681859844416
 21
-188.1932168811147
 31
0.0
  0
LINE
  5
11E
330
1F
100
AcDbEntity
  8
051
  6
Continuous
 62
     2
370
     9
100
AcDbLine
 10
-38.20668012404974
 20
-188.8558072909127
 30
0.0
 11
-141.9607537535244
 21
-190.9687516587043
 31
0.0
  0
LINE
  5
11F
330
1F
100
AcDbEntity
  8
051
  6
Continuous
 62
     2
370
     9
100
AcDbLine
 10
-38.89676905156534
 20
-188.1932664279935
 30
0.0
 11
-141.9607537535244
 21
-190.2921642556535
 31
0.0
  0
LINE
  5
120
330
1F
100
AcDbEntity
  8
051
  6
Continuous
 62
     2
370
     9
100
AcDbLine
 10
-38.07131805124868
 20
-195.5014310466439
 30
0.0
 11
-141.9607289800852
 21
-197.6171376529269
 31
0.0
  0
LINE
  5
121
330
1F
100
AcDbEntity
  8
051
  6
Continuous
 62
     2
370
     9
100
AcDbLine
 10
-38.73398278136494
 20
-196.1915942944777
 30
0.0
 11
-141.9607289800852
 21
-198.2937869895761
 31
0.0
  0
LINE
  5
122
330
1F
100
AcDbEntity
  8
062
  6
Continuous
 62
     2
370
     9
100
AcDbLine
 10
-36.26866033968014
 20
-181.1499919349264
 30
0.0
 11
-36.3300736959161
 21
-178.1385821901335
 31
0.0
  0
LINE
  5
123
330
1F
100
AcDbEntity
  8
062
  6
Continuous
 62
     2
370
     9
100
AcDbLine
 10
-38.06684043745884
 20
-184.5715011953029
 30
0.0
 11
-42.14551472440803
 21
-187.2591716342093
 31
0.0
  0
LINE
  5
124
330
1F
100
AcDbEntity
  8
062
  6
Continuous
 62
     2
370
     9
100
AcDbLine
 10
-35.82122725094291
 20
-203.1216544194673
 30
0.0
 11
-35.75976434782814
 21
-206.1329155236239
 31
0.0
  0
LINE
  5
125
330
1F
100
AcDbEntity
  8
062
  6
Continuous
 62
     2
370
     9
100
AcDbLine
 10
-37.75729631234009
 20
-199.7764473523975
 30
0.0
 11
-41.9418770526612
 21
-197.2570381137957
 31
0.0
  0
LINE
  5
126
330
1F
100
AcDbEntity
  8
062
  6
Continuous
 62
     2
370
     9
100
AcDbLine
 10
-41.14575780457665
 20
-187.2386592263983
 30
0.0
 11
-45.94474461509151
 21
-187.33651431197
 31
0.0
  0
LINE
  5
127
330
1F
100
AcDbEntity
  8
062
  6
Continuous
 62
     2
370
     9
100
AcDbLine
 10
-41.12128164646413
 20
-188.4385855364625
 30
0.0
 11
-45.92036755073644
 21
-188.5362424345192
 31
0.0
  0
LINE
  5
128
330
1F
100
AcDbEntity
  8
062
  6
Continuous
 62
     2
370
     9
100
AcDbLine
 10
-40.94214490626922
 20
-197.2365257059847
 30
0.0
 11
-45.74110694334468
 21
-197.3343807915565
 31
0.0
  0
ARC
  5
129
330
1F
100
AcDbEntity
  8
062
  6
Continuous
 62
     2
370
     9
100
AcDbCircle
 10
-40.26798530027838
 20
-181.2311992692313
 30
0.0
 40
3.999999649736412
100
AcDbArc
 50
303.3834838867188
 51
1.166992187500014
  0
ARC
  5
12A
330
1F
100
AcDbEntity
  8
062
  6
Continuous
 62
     2
370
     9
100
AcDbCircle
 10
-36.06043958164702
 20
-189.6605602075796
 30
0.0
 40
11.52495392685231
100
AcDbArc
 50
91.34062194824219
 51
164.3990783691407
  0
ARC
  5
12B
330
1F
100
AcDbEntity
  8
062
  6
Continuous
 62
     2
370
     9
100
AcDbCircle
 10
-45.94474461509151
 20
-187.33651431197
 30
0.0
 40
1.200000049754919
100
AcDbArc
 50
181.1669921875
 51
271.1669921875
  0
ARC
  5
12C
330
1F
100
AcDbEntity
  8
062
  6
Continuous
 62
     2
370
     9
100
AcDbCircle
 10
-36.06043958164702
 20
-189.6605602075796
 30
0.0
 40
10.32495407063989
100
AcDbArc
 50
91.34062194824219
 51
166.5760498046875
  0
ARC
  5
12D
330
1F
100
AcDbEntity
  8
062
  6
Continuous
 62
     2
370
     9
100
AcDbCircle
 10
-45.94880745915077
 20
-187.1363944686159
 30
0.0
 40
0.1999999921639453
100
AcDbArc
 50
219.4327087402344
 51
271.1669921875
  0
ARC
  5
12E
330
1F
100
AcDbEntity
  8
062
  6
Continuous
 62
     2
370
     9
100
AcDbCircle
 10
-39.82027970370802
 20
-203.2031590350448
 30
0.0
 40
3.999999649736412
100
AcDbArc
 50
1.1669921875
 51
58.95050048828125
  0
ARC
  5
12F
330
1F
100
AcDbEntity
  8
062
  6
Continuous
 62
     2
370
     9
100
AcDbCircle
 10
-35.95963645678842
 20
-194.6097483810873
 30
0.0
 40
11.52495392685231
100
AcDbArc
 50
197.9349060058593
 51
270.9933624267578
  0
ARC
  5
130
330
1F
100
AcDbEntity
  8
062
  6
Continuous
 62
     2
370
     9
100
AcDbCircle
 10
-45.74110694334468
 20
-197.3343807915565
 30
0.0
 40
1.200000049754919
100
AcDbArc
 50
91.1669921875
 51
181.1669921875
  0
ARC
  5
131
330
1F
100
AcDbEntity
  8
062
  6
Continuous
 62
     2
370
     9
100
AcDbCircle
 10
-35.95963645678842
 20
-194.6097483810873
 30
0.0
 40
10.32495407063989
100
AcDbArc
 50
195.7579345703125
 51
270.9933624267578
  0
ARC
  5
132
330
1F
100
AcDbEntity
  8
062
  6
Continuous
 62
     2
370
     9
100
AcDbCircle
 10
-45.73704409928541
 20
-197.5343519942743
 30
0.0
 40
0.1999999921639453
100
AcDbArc
 50
91.1669921875
 51
142.9012756347656
  0
LINE
  5
133
330
1F
100
AcDbEntity
  8
062
  6
Continuous
 62
     2
370
     9
100
AcDbLine
 10
-40.96654674406369
 20
-196.0369462240719
 30
0.0
 11
-45.76550878113915
 21
-196.1346526690074
 31
0.0
  0
LINE
  5
134
330
1F
100
AcDbEntity
  8
062
  6
Continuous
 62
     2
370
     9
100
AcDbLine
 10
-47.11034438713227
 20
-189.0371297836041
 30
0.0
 11
-47.16089752795301
 21
-186.5611056592115
 31
0.0
  0
LINE
  5
135
330
1F
100
AcDbEntity
  8
062
  6
Continuous
 62
     2
370
     9
100
AcDbLine
 10
-46.92458368965708
 20
-198.1586426667827
 30
0.0
 11
-46.97494076322681
 21
-195.6827532162776
 31
0.0
  0
LINE
  5
136
330
1F
100
AcDbEntity
  8
062
  6
Continuous
 62
     2
370
     9
100
AcDbLine
 10
-40.94214490626922
 20
-197.2365257059847
 30
0.0
 11
-40.97615227276253
 21
-195.56058796069
 31
0.0
  0
LINE
  5
137
330
1F
100
AcDbEntity
  8
062
  6
Continuous
 62
     2
370
     9
100
AcDbLine
 10
-41.11165513022172
 20
-188.9149669013564
 30
0.0
 11
-41.14575780457665
 21
-187.2386592263983
 31
0.0
  0
LINE
  5
138
330
1F
100
AcDbEntity
  8
087
  6
Continuous
 62
     6
370
     9
100
AcDbLine
 10
-49.46079393303864
 20
-207.2065074249506
 30
0.0
 11
-49.46079393303864
 21
-196.4100437261913
 31
0.0
  0
LINE
  5
139
330
1F
100
AcDbEntity
  8
087
  6
Continuous
 62
     6
370
     9
100
AcDbLine
 10
-49.46079393303864
 20
-188.4084027720732
 30
0.0
 11
-49.46079393303864
 21
-147.2065074249506
 31
0.0
  0
LINE
  5
13A
330
1F
100
AcDbEntity
  8
087
  6
Continuous
 62
     6
370
     9
100
AcDbLine
 10
-47.16079393303869
 20
-207.2065074249505
 30
0.0
 11
-47.16079393303869
 21
-196.363204671617
 31
0.0
  0
LINE
  5
13B
330
1F
100
AcDbEntity
  8
087
  6
Continuous
 62
     6
370
     9
100
AcDbLine
 10
-47.16079393303869
 20
-188.3615632770006
 30
0.0
 11
-47.16079393303869
 21
-147.2065074249506
 31
0.0
  0
LINE
  5
13C
330
1F
100
AcDbEntity
  8
通り芯
  6
JWW_CENTER1
 62
     3
370
     9
100
AcDbLine
 10
-31.4201808516973
 20
-192.0417952247329
 30
0.0
 11
-156.8412917218691
 21
-194.5959795597358
 31
0.0
  0
LINE
  5
13D
330
1F
100
AcDbEntity
  8
通り芯
  6
Continuous
 62
     3
370
     9
100
AcDbLine
 10
-49.46079393303864
 20
-214.2065226966271
 30
0.0
 11
-49.46079393303864
 21
-196.4100437261913
 31
0.0
  0
LINE
  5
13E
330
1F
100
AcDbEntity
  8
通り芯
  6
Continuous
 62
     3
370
     9
100
AcDbLine
 10
-49.46079393303864
 20
-188.4084027720732
 30
0.0
 11
-49.46079393303864
 21
-139.6482804290038
 31
0.0
  0
LINE
  5
13F
330
1F
100
AcDbEntity
  8
021
  6
Continuous
 62
     6
370
     9
100
AcDbLine
 10
-34.53432600807372
 20
-105.426870598196
 30
0.0
 11
-44.02674000388288
 21
-112.0735596118208
 31
0.0
  0
LINE
  5
140
330
1F
100
AcDbEntity
  8
021
  6
Continuous
 62
     6
370
     9
100
AcDbLine
 10
-48.93856983079735
 20
-112.0015927704066
 30
0.0
 11
-47.81202244819224
 21
-110.8749710674833
 31
0.0
  0
LINE
  5
141
330
1F
100
AcDbEntity
  8
021
  6
Continuous
 62
     6
370
     9
100
AcDbLine
 10
-34.46077366653878
 20
-107.2064953898753
 30
0.0
 11
-43.16648232122969
 21
-113.3022974318901
 31
0.0
  0
LINE
  5
142
330
1F
100
AcDbEntity
  8
021
  6
Continuous
 62
     6
370
     9
100
AcDbLine
 10
-34.46077366653878
 20
-107.512695100677
 30
0.0
 11
-32.9831866478446
 21
-106.0351080819829
 31
0.0
  0
LINE
  5
143
330
1F
100
AcDbEntity
  8
021
  6
Continuous
 62
     6
370
     9
100
AcDbLine
 10
-42.8740566427262
 20
-113.097544955371
 30
0.0
 11
-36.76606606853392
 21
-106.9895543811786
 31
0.0
  0
LINE
  5
144
330
1F
100
AcDbEntity
  8
021
  6
Continuous
 62
     6
370
     9
100
AcDbLine
 10
-46.49469480888138
 20
-113.8897500000326
 30
0.0
 11
-45.10525168751997
 21
-112.5003068786712
 31
0.0
  0
LINE
  5
145
330
1F
100
AcDbEntity
  8
021
  6
Continuous
 62
     6
370
     9
100
AcDbLine
 10
-48.2883413672526
 20
-112.8549634369105
 30
0.0
 11
-47.22766655997287
 21
-111.7942886296308
 31
0.0
  0
ARC
  5
146
330
1F
100
AcDbEntity
  8
021
  6
Continuous
 62
     6
370
     9
100
AcDbCircle
 10
-33.96069701910801
 20
-106.2460291449089
 30
0.0
 40
1.00000000920535
100
AcDbArc
 50
0.0
 51
125.000732421875
  0
ARC
  5
147
330
1F
100
AcDbEntity
  8
021
  6
Continuous
 62
     6
370
     9
100
AcDbCircle
 10
-45.46070099581948
 20
-110.0257127919174
 30
0.0
 40
2.500000023013376
100
AcDbArc
 50
199.8594055175781
 51
305.0001373291016
  0
ARC
  5
148
330
1F
100
AcDbEntity
  8
021
  6
Continuous
 62
     6
370
     9
100
AcDbCircle
 10
-45.46070099581948
 20
-110.0257127919174
 30
0.0
 40
4.000000036821402
100
AcDbArc
 50
209.6023254394531
 51
304.9999542236328
  0
LINE
  5
149
330
1F
100
AcDbEntity
  8
021
  6
Continuous
 62
     6
370
     9
100
AcDbLine
 10
-34.46077366653878
 20
-113.1695117967852
 30
0.0
 11
-32.96074191176172
 21
-111.669480042008
 31
0.0
  0
LINE
  5
14A
330
1F
100
AcDbEntity
  8
021
  6
Continuous
 62
     6
370
     9
100
AcDbLine
 10
-34.46077366653878
 20
-115.9979201448394
 30
0.0
 11
-32.96074191176172
 21
-114.4978883900622
 31
0.0
  0
LINE
  5
14B
330
1F
100
AcDbEntity
  8
021
  6
Continuous
 62
     6
370
     9
100
AcDbLine
 10
-34.46077366653878
 20
-118.8263284928936
 30
0.0
 11
-32.96074191176172
 21
-117.3262967381163
 31
0.0
  0
LINE
  5
14C
330
1F
100
AcDbEntity
  8
021
  6
Continuous
 62
     6
370
     9
100
AcDbLine
 10
-34.46077366653878
 20
-121.6547368409477
 30
0.0
 11
-32.96074191176172
 21
-120.1547050861705
 31
0.0
  0
LINE
  5
14D
330
1F
100
AcDbEntity
  8
021
  6
Continuous
 62
     6
370
     9
100
AcDbLine
 10
-34.46077366653878
 20
-124.4831451890019
 30
0.0
 11
-32.96074191176172
 21
-122.9831134342246
 31
0.0
  0
LINE
  5
14E
330
1F
100
AcDbEntity
  8
021
  6
Continuous
 62
     6
370
     9
100
AcDbLine
 10
-34.46077366653878
 20
-135.7967785812185
 30
0.0
 11
-32.96074191176172
 21
-134.2967468264412
 31
0.0
  0
LINE
  5
14F
330
1F
100
AcDbEntity
  8
021
  6
Continuous
 62
     6
370
     9
100
AcDbLine
 10
-34.46077366653878
 20
-138.6251869292726
 30
0.0
 11
-32.96074191176172
 21
-137.1251551744954
 31
0.0
  0
LINE
  5
150
330
1F
100
AcDbEntity
  8
021
  6
Continuous
 62
     6
370
     9
100
AcDbLine
 10
-34.46077366653878
 20
-141.4535952773268
 30
0.0
 11
-32.96074191176172
 21
-139.9535635225496
 31
0.0
  0
LINE
  5
151
330
1F
100
AcDbEntity
  8
その他
  6
Continuous
 62
     2
370
     9
100
AcDbLine
 10
33.53904738144655
 20
-155.906462532297
 30
0.0
 11
41.53908461524844
 21
-155.906462532297
 31
0.0
  0
LINE
  5
152
330
1F
100
AcDbEntity
  8
その他
  6
Continuous
 62
     2
370
     9
100
AcDbLine
 10
34.53910158255064
 20
-154.9065074249505
 30
0.0
 11
33.53904738144655
 21
-155.906462532297
 31
0.0
  0
LINE
  5
153
330
1F
100
AcDbEntity
  8
その他
  6
Continuous
 62
     2
370
     9
100
AcDbLine
 10
34.53910158255064
 20
-154.9065074249505
 30
0.0
 11
40.53903041414452
 21
-154.9065074249505
 31
0.0
  0
LINE
  5
154
330
1F
100
AcDbEntity
  8
その他
  6
Continuous
 62
     2
370
     9
100
AcDbLine
 10
40.53903041414452
 20
-154.9065074249505
 30
0.0
 11
41.53908461524844
 21
-155.906462532297
 31
0.0
  0
LINE
  5
155
330
1F
100
AcDbEntity
  8
その他
  6
Continuous
 62
     2
370
     9
100
AcDbLine
 10
34.53910158255064
 20
-154.9065074249505
 30
0.0
 11
34.53910158255064
 21
-228.9064876297647
 31
0.0
  0
LINE
  5
156
330
1F
100
AcDbEntity
  8
その他
  6
Continuous
 62
     2
370
     9
100
AcDbLine
 10
33.53904738144655
 20
-155.906462532297
 30
0.0
 11
33.53904738144655
 21
-228.9064876297647
 31
0.0
  0
LINE
  5
157
330
1F
100
AcDbEntity
  8
その他
  6
Continuous
 62
     2
370
     9
100
AcDbLine
 10
40.53903041414452
 20
-154.9065074249505
 30
0.0
 11
40.53903041414452
 21
-228.9064876297647
 31
0.0
  0
LINE
  5
158
330
1F
100
AcDbEntity
  8
その他
  6
Continuous
 62
     2
370
     9
100
AcDbLine
 10
41.53908461524844
 20
-155.906462532297
 30
0.0
 11
41.53908461524844
 21
-228.9064876297647
 31
0.0
  0
LINE
  5
159
330
1F
100
AcDbEntity
  8
087
  6
JWW_CENTER1
 62
     6
370
     9
100
AcDbLine
 10
37.53916509210512
 20
-153.3271340580446
 30
0.0
 11
37.53916509210512
 21
-235.8603340963952
 31
0.0
  0
LINE
  5
15A
330
1F
100
AcDbEntity
  8
087
  6
JWW_CENTER1
 62
     4
370
     9
100
AcDbLine
 10
-6.239365686835015
 20
-107.9654724226594
 30
0.0
 11
-12.92874433763996
 21
-104.1033968477136
 31
0.0
  0
LINE
  5
15B
330
1F
100
AcDbEntity
  8
087
  6
Continuous
 62
     4
370
     9
100
AcDbLine
 10
-15.01050529833066
 20
-117.3352240314914
 30
0.0
 11
-17.78180656786191
 21
-115.7352286503681
 31
0.0
  0
LINE
  5
15C
330
1F
100
AcDbEntity
  8
087
  6
Continuous
 62
     4
370
     9
100
AcDbLine
 10
-2.510599943589398
 20
-95.68453429369063
 30
0.0
 11
-5.281901213120648
 21
-94.08453891256735
 31
0.0
  0
ARC
  5
15D
330
1F
100
AcDbEntity
  8
ハッチ
  6
Continuous
 62
     4
370
     9
100
AcDbCircle
 10
-30.66076915959911
 20
-144.0419819830657
 30
0.0
 40
3.0
100
AcDbArc
 50
149.9999766268836
 51
180.0
  0
LINE
  5
15E
330
1F
100
AcDbEntity
  8
ハッチ
  6
Continuous
 62
     4
370
     9
100
AcDbLine
 10
-33.66076915959911
 20
-144.0419819830657
 30
0.0
 11
-33.66076915959911
 21
-229.0955169477317
 31
0.0
  0
LINE
  5
15F
330
1F
100
AcDbEntity
  8
ハッチ
  6
Continuous
 62
     4
370
     9
100
AcDbLine
 10
-33.25884475904547
 20
-142.5419809232122
 30
0.0
 11
5.968013606146485
 21
-74.59913322182533
 31
0.0
  0
ARC
  5
160
330
1F
100
AcDbEntity
  8
ハッチ
  6
Continuous
 62
     4
370
     9
100
AcDbCircle
 10
-30.4607344473269
 20
-229.0955169477317
 30
0.0
 40
3.20000006816562
100
AcDbArc
 50
180.0
 51
270.0
  0
LINE
  5
161
330
1F
100
AcDbEntity
  8
ハッチ
  6
Continuous
 62
     4
370
     9
100
AcDbLine
 10
-5.460717185453575
 20
-229.0955169477317
 30
0.0
 11
-5.460717185453575
 21
-232.2955021131252
 31
0.0
  0
LINE
  5
162
330
1F
100
AcDbEntity
  8
ハッチ
  6
Continuous
 62
     4
370
     9
100
AcDbLine
 10
-30.4607344473269
 20
-144.0955177136169
 30
0.0
 11
8.739319176417553
 21
-76.19912580452208
 31
0.0
  0
LINE
  5
163
330
1F
100
AcDbEntity
  8
ハッチ
  6
Continuous
 62
     4
370
     9
100
AcDbLine
 10
8.739319176417553
 20
-76.19912580452208
 30
0.0
 11
5.968013606146485
 21
-74.59913322182533
 31
0.0
  0
LINE
  5
164
330
1F
100
AcDbEntity
  8
ハッチ
  6
Continuous
 62
     4
370
     9
100
AcDbLine
 10
-30.4607344473269
 20
-144.0955177136169
 30
0.0
 11
-30.4607344473269
 21
-229.0955169477317
 31
0.0
  0
LINE
  5
165
330
1F
100
AcDbEntity
  8
021
  6
Continuous
 62
     6
370
     9
100
AcDbLine
 10
-32.96074191176172
 20
-142.025652132265
 30
0.0
 11
-32.96074191176172
 21
-106.2460291449089
 31
0.0
  0
LINE
  5
166
330
1F
100
AcDbEntity
  8
021
  6
Continuous
 62
     6
370
     9
100
AcDbLine
 10
-34.46077366653878
 20
-144.2820036253809
 30
0.0
 11
-33.59472354664393
 21
-143.415953505486
 31
0.0
  0
LINE
  5
167
330
1F
100
AcDbEntity
  8
021
  6
Continuous
 62
     6
370
     9
100
AcDbLine
 10
-34.46077366653878
 20
-147.1104119734351
 30
0.0
 11
-33.66076915959911
 21
-146.3104074664954
 31
0.0
  0
LINE
  5
168
330
1F
100
AcDbEntity
  8
021
  6
Continuous
 62
     6
370
     9
100
AcDbLine
 10
-34.46077366653878
 20
-149.9388203214893
 30
0.0
 11
-33.66076915959911
 21
-149.1388158145496
 31
0.0
  0
LINE
  5
169
330
1F
100
AcDbEntity
  8
021
  6
Continuous
 62
     6
370
     9
100
AcDbLine
 10
-34.46077366653878
 20
-152.7672286695434
 30
0.0
 11
-33.66076915959911
 21
-151.9672241626037
 31
0.0
  0
LINE
  5
16A
330
1F
100
AcDbEntity
  8
021
  6
Continuous
 62
     6
370
     9
100
AcDbLine
 10
-34.46077366653878
 20
-155.5956370175976
 30
0.0
 11
-33.66076915959911
 21
-154.7956325106579
 31
0.0
  0
LINE
  5
16B
330
1F
100
AcDbEntity
  8
021
  6
Continuous
 62
     6
370
     9
100
AcDbLine
 10
-34.46077366653878
 20
-158.4240453656517
 30
0.0
 11
-33.66076915959911
 21
-157.624040858712
 31
0.0
  0
LINE
  5
16C
330
1F
100
AcDbEntity
  8
021
  6
Continuous
 62
     6
370
     9
100
AcDbLine
 10
-34.46077366653878
 20
-161.2524537137058
 30
0.0
 11
-33.66076915959911
 21
-160.4524492067662
 31
0.0
  0
LINE
  5
16D
330
1F
100
AcDbEntity
  8
021
  6
Continuous
 62
     6
370
     9
100
AcDbLine
 10
-34.46077366653878
 20
-164.08086206176
 30
0.0
 11
-33.66076915959911
 21
-163.2808575548203
 31
0.0
  0
LINE
  5
16E
330
1F
100
AcDbEntity
  8
021
  6
Continuous
 62
     6
370
     9
100
AcDbLine
 10
-34.46077366653878
 20
-166.9092704098142
 30
0.0
 11
-33.66076915959911
 21
-166.1092659028745
 31
0.0
  0
LINE
  5
16F
330
1F
100
AcDbEntity
  8
021
  6
Continuous
 62
     6
370
     9
100
AcDbLine
 10
-34.46077366653878
 20
-169.7376787578683
 30
0.0
 11
-33.66076915959911
 21
-168.9376742509286
 31
0.0
  0
LINE
  5
170
330
1F
100
AcDbEntity
  8
021
  6
Continuous
 62
     6
370
     9
100
AcDbLine
 10
-34.46077366653878
 20
-172.5660871059225
 30
0.0
 11
-33.66076915959911
 21
-171.7660825989828
 31
0.0
  0
LINE
  5
171
330
1F
100
AcDbEntity
  8
021
  6
Continuous
 62
     6
370
     9
100
AcDbLine
 10
-34.46077366653878
 20
-175.3944954539766
 30
0.0
 11
-33.66076915959911
 21
-174.5944909470369
 31
0.0
  0
LINE
  5
172
330
1F
100
AcDbEntity
  8
021
  6
Continuous
 62
     6
370
     9
100
AcDbLine
 10
-34.46077366653878
 20
-178.2229038020308
 30
0.0
 11
-33.66076915959911
 21
-177.4228992950911
 31
0.0
  0
LINE
  5
173
330
1F
100
AcDbEntity
  8
021
  6
Continuous
 62
     6
370
     9
100
AcDbLine
 10
-34.46077366653878
 20
-181.051312150085
 30
0.0
 11
-33.66076915959911
 21
-180.2513076431453
 31
0.0
  0
LINE
  5
174
330
1F
100
AcDbEntity
  8
021
  6
Continuous
 62
     6
370
     9
100
AcDbLine
 10
-34.46077366653878
 20
-183.8797204981391
 30
0.0
 11
-33.66076915959911
 21
-183.0797159911994
 31
0.0
  0
LINE
  5
175
330
1F
100
AcDbEntity
  8
021
  6
Continuous
 62
     6
370
     9
100
AcDbLine
 10
-34.46077366653878
 20
-186.7081288461932
 30
0.0
 11
-33.66076915959911
 21
-185.9081243392535
 31
0.0
  0
LINE
  5
176
330
1F
100
AcDbEntity
  8
021
  6
Continuous
 62
     6
370
     9
100
AcDbLine
 10
-34.46077366653878
 20
-189.5365371942474
 30
0.0
 11
-33.66076915959911
 21
-188.7365326873077
 31
0.0
  0
LINE
  5
177
330
1F
100
AcDbEntity
  8
021
  6
Continuous
 62
     6
370
     9
100
AcDbLine
 10
-34.46077366653878
 20
-192.3649455423015
 30
0.0
 11
-33.66076915959911
 21
-191.5649410353619
 31
0.0
  0
LINE
  5
178
330
1F
100
AcDbEntity
  8
021
  6
Continuous
 62
     6
370
     9
100
AcDbLine
 10
-34.46077366653878
 20
-195.1933538903557
 30
0.0
 11
-33.66076915959911
 21
-194.393349383416
 31
0.0
  0
LINE
  5
179
330
1F
100
AcDbEntity
  8
021
  6
Continuous
 62
     6
370
     9
100
AcDbLine
 10
-34.46077366653878
 20
-198.0217622384099
 30
0.0
 11
-33.66076915959911
 21
-197.2217577314702
 31
0.0
  0
LINE
  5
17A
330
1F
100
AcDbEntity
  8
021
  6
Continuous
 62
     6
370
     9
100
AcDbLine
 10
-34.46077366653878
 20
-200.850170586464
 30
0.0
 11
-33.66076915959911
 21
-200.0501660795243
 31
0.0
  0
LINE
  5
17B
330
1F
100
AcDbEntity
  8
021
  6
Continuous
 62
     6
370
     9
100
AcDbLine
 10
-34.46077366653878
 20
-203.6785789345182
 30
0.0
 11
-33.66076915959911
 21
-202.8785744275785
 31
0.0
  0
LINE
  5
17C
330
1F
100
AcDbEntity
  8
021
  6
Continuous
 62
     6
370
     9
100
AcDbLine
 10
-34.46077366653878
 20
-206.5069872825723
 30
0.0
 11
-33.66076915959911
 21
-205.7069827756326
 31
0.0
  0
LINE
  5
17D
330
1F
100
AcDbEntity
  8
021
  6
Continuous
 62
     6
370
     9
100
AcDbLine
 10
-34.46077366653878
 20
-207.2064953898753
 30
0.0
 11
-33.66076915959911
 21
-207.2064953898753
 31
0.0
  0
LINE
  5
17E
330
1F
100
AcDbEntity
  8
躯体
  6
JWW_DASHED1
 62
     2
370
     9
100
AcDbLine
 10
-49.46079393303864
 20
-222.2065058766106
 30
0.0
 11
-30.4607344473269
 21
-222.2065058766106
 31
0.0
  0
LINE
  5
17F
330
1F
100
AcDbEntity
  8
ハッチ
  6
Continuous
 62
     4
370
     9
100
AcDbLine
 10
-30.4607344473269
 20
-232.2955021131252
 30
0.0
 11
30.65956443970015
 21
-232.2955021131252
 31
0.0
  0
LINE
  5
180
330
1F
100
AcDbEntity
  8
ハッチ
  6
Continuous
 62
     4
370
     9
100
AcDbLine
 10
30.78922942645903
 20
-229.0955169477317
 30
0.0
 11
-30.4607344473269
 21
-229.0955169477317
 31
0.0
  0
LINE
  5
181
330
1F
100
AcDbEntity
  8
躯体
  6
Continuous
 62
     2
370
     9
100
AcDbLine
 10
-30.4607344473269
 20
-222.2065058766106
 30
0.0
 11
33.53904738144655
 21
-222.2065058766106
 31
0.0
  0
LINE
  5
182
330
1F
100
AcDbEntity
  8
躯体
  6
Continuous
 62
     2
370
     9
100
AcDbLine
 10
41.53908461524844
 20
-222.2065058766106
 30
0.0
 11
116.7892060669616
 21
-222.2065058766106
 31
0.0
  0
LINE
  5
183
330
1F
100
AcDbEntity
  8
通り芯
  6
Continuous
 62
     3
370
     9
100
AcDbLine
 10
5.662883324366646
 20
-223.7065297516078
 30
0.0
 11
5.662883324366646
 21
-229.0955169477317
 31
0.0
  0
LINE
  5
184
330
1F
100
AcDbEntity
  8
通り芯
  6
Continuous
 62
     3
370
     9
100
AcDbLine
 10
5.662883324366646
 20
-232.2955021131252
 30
0.0
 11
5.662883324366646
 21
-234.9065074249505
 31
0.0
  0
LINE
  5
185
330
1F
100
AcDbEntity
  8
仕上
  6
Continuous
 62
     4
370
     9
100
AcDbLine
 10
6.539459339294183
 20
-234.2065058766106
 30
0.0
 11
6.539459339294183
 21
-232.2955021131252
 31
0.0
  0
LINE
  5
186
330
1F
100
AcDbEntity
  8
仕上
  6
Continuous
 62
     4
370
     9
100
AcDbLine
 10
6.539459339294183
 20
-229.0955169477317
 30
0.0
 11
6.539459339294183
 21
-222.2065058766106
 31
0.0
  0
LINE
  5
187
330
1F
100
AcDbEntity
  8
仕上
  6
Continuous
 62
     4
370
     9
100
AcDbLine
 10
23.53945933929424
 20
-222.2065058766106
 30
0.0
 11
15.50227975631952
 21
-229.0955169477318
 31
0.0
  0
LINE
  5
188
330
1F
100
AcDbEntity
  8
仕上
  6
Continuous
 62
     4
370
     9
100
AcDbLine
 10
11.76896373002717
 20
-232.2955021131252
 30
0.0
 11
9.539459339294183
 21
-234.2065058766106
 31
0.0
  0
LINE
  5
189
330
1F
100
AcDbEntity
  8
通り芯
  6
Continuous
 62
     3
370
     9
100
AcDbLine
 10
25.12093355512206
 20
-222.5574261524424
 30
0.0
 11
17.32917027615053
 21
-229.0955169477317
 31
0.0
  0
LINE
  5
18A
330
1F
100
AcDbEntity
  8
通り芯
  6
Continuous
 62
     3
370
     9
100
AcDbLine
 10
13.51559110057059
 20
-232.2955021131252
 30
0.0
 11
10.40392808656992
 21
-234.9065074249505
 31
0.0
  0
LINE
  5
18B
330
1F
100
AcDbEntity
  8
021
  6
Continuous
 62
     6
370
     9
100
AcDbLine
 10
-34.46077366653878
 20
-126.706417129677
 30
0.0
 11
-34.46077366653878
 21
-107.2064953898753
 31
0.0
  0
LINE
  5
18C
330
1F
100
AcDbEntity
  8
021
  6
Continuous
 62
     6
370
     9
100
AcDbLine
 10
-34.46077366653878
 20
-207.2064953898753
 30
0.0
 11
-34.46077366653878
 21
-135.7064238900667
 31
0.0
  0
LINE
  5
18D
330
1F
100
AcDbEntity
  8
021
  6
Continuous
 62
     6
370
     9
100
AcDbLine
 10
-33.66076915959911
 20
-132.1683657262246
 30
0.0
 11
-32.96074191176172
 21
-131.4683384783871
 31
0.0
  0
LINE
  5
18E
330
1F
100
AcDbEntity
  8
021
  6
Continuous
 62
     6
370
     9
100
AcDbLine
 10
-33.66076915959911
 20
-129.3399573781705
 30
0.0
 11
-32.96074191176172
 21
-128.6399301303329
 31
0.0
  0
LINE
  5
18F
330
1F
100
AcDbEntity
  8
021
  6
Continuous
 62
     6
370
     9
100
AcDbLine
 10
-34.14771541970561
 20
-126.9984952902227
 30
0.0
 11
-32.96074191176172
 21
-125.8115217822788
 31
0.0
  0
LINE
  5
190
330
1F
100
AcDbEntity
  8
通り芯
  6
Continuous
 62
     3
370
     9
100
AcDbLine
 10
26.08514058943558
 20
-222.2064856101108
 30
0.0
 11
33.53904738144655
 21
-222.2064856101108
 31
0.0
  0
LINE
  5
191
330
1F
100
AcDbEntity
  8
通り芯
  6
Continuous
 62
     3
370
     9
100
AcDbLine
 10
41.53908461524844
 20
-222.2064856101108
 30
0.0
 11
80.53921655369675
 21
-222.2064856101108
 31
0.0
  0
LINE
  5
192
330
1F
100
AcDbEntity
  8
仕上
  6
Continuous
 62
     6
370
     9
100
AcDbLine
 10
-19.47590620840566
 20
-222.2065058766106
 30
0.0
 11
33.53904738144655
 21
-222.2065058766106
 31
0.0
  0
LINE
  5
193
330
1F
100
AcDbEntity
  8
仕上
  6
Continuous
 62
     6
370
     9
100
AcDbLine
 10
41.53908461524844
 20
-222.2065058766106
 30
0.0
 11
116.7893620129638
 21
-222.2065058766106
 31
0.0
  0
LINE
  5
194
330
1F
100
AcDbEntity
  8
087
  6
Continuous
 62
     4
370
     9
100
AcDbLine
 10
-141.3610011727272
 20
-131.7678493605539
 30
0.0
 11
-82.47244239834606
 21
-130.5685671599136
 31
0.0
  0
LINE
  5
195
330
1F
100
AcDbEntity
  8
087
  6
Continuous
 62
     4
370
     9
100
AcDbLine
 10
-141.4526257382935
 20
-127.268769807237
 30
0.0
 11
-82.56405457719285
 21
-126.0695123800361
 31
0.0
  0
LINE
  5
196
330
1F
100
AcDbEntity
  8
087
  6
Continuous
 62
     4
370
     9
100
AcDbLine
 10
-138.7243268587952
 20
-261.2409287915648
 30
0.0
 11
-79.835854791452
 21
-260.0416465909246
 31
0.0
  0
LINE
  5
197
330
1F
100
AcDbEntity
  8
087
  6
Continuous
 62
     4
370
     9
100
AcDbLine
 10
-138.8159514243617
 20
-256.7418740116873
 30
0.0
 11
-79.9272687827837
 21
-255.5426413579258
 31
0.0
  0
LINE
  5
198
330
1F
100
AcDbEntity
  8
その他
  6
Continuous
 62
     7
370
     9
100
AcDbLine
 10
-49.46079393303864
 20
-65.80828425502978
 30
0.0
 11
90.53921354907038
 21
-65.80828425502978
 31
0.0
  0
LINE
  5
199
330
1F
100
AcDbEntity
  8
その他
  6
Continuous
 62
     7
370
     9
100
AcDbLine
 10
-49.46079393303864
 20
-65.80828425502978
 30
0.0
 11
-42.02495747273507
 21
-64.8293378133794
 31
0.0
  0
LINE
  5
19A
330
1F
100
AcDbEntity
  8
その他
  6
Continuous
 62
     7
370
     9
100
AcDbLine
 10
-49.46079393303864
 20
-65.80828425502978
 30
0.0
 11
-42.02495747273507
 21
-66.78723069668015
 31
0.0
  0
LINE
  5
19B
330
1F
100
AcDbEntity
  8
その他
  6
Continuous
 62
     7
370
     9
100
AcDbLine
 10
90.53921354907038
 20
-65.80828425502978
 30
0.0
 11
83.1033770887668
 21
-64.8293378133794
 31
0.0
  0
LINE
  5
19C
330
1F
100
AcDbEntity
  8
その他
  6
Continuous
 62
     7
370
     9
100
AcDbLine
 10
90.53921354907038
 20
-65.80828425502978
 30
0.0
 11
83.1033770887668
 21
-66.78723069668015
 31
0.0
  0
TEXT
  5
19D
330
1F
100
AcDbEntity
  8
その他
  6
Continuous
 62
     2
370
   211
100
AcDbText
 10
10.78920980801587
 20
-62.31628425502976
 30
0.0
 40
9.144
  1
140
 41
1.083333333333333
  7
ＭＳ ゴシック
100
AcDbText
  0
LINE
  5
19E
330
1F
100
AcDbEntity
  8
その他
  6
Continuous
 62
     7
370
     9
100
AcDbLine
 10
90.53921354907038
 20
-64.90828425502977
 30
0.0
 11
90.53921354907038
 21
-218.8286683082984
 31
0.0
  0
LINE
  5
19F
330
1F
100
AcDbEntity
  8
その他
  6
Continuous
 62
     7
370
     9
100
AcDbLine
 10
-49.46079393303864
 20
-40.64644432732823
 30
0.0
 11
-42.02495747273507
 21
-39.66749788567785
 31
0.0
  0
LINE
  5
1A0
330
1F
100
AcDbEntity
  8
その他
  6
Continuous
 62
     7
370
     9
100
AcDbLine
 10
-49.46079393303864
 20
-40.64644432732823
 30
0.0
 11
-42.02495747273507
 21
-41.62539076897862
 31
0.0
  0
LINE
  5
1A1
330
1F
100
AcDbEntity
  8
その他
  6
Continuous
 62
     7
370
     9
100
AcDbLine
 10
-49.46079393303864
 20
-39.74644432732823
 30
0.0
 11
-49.46079393303864
 21
-93.20653247639154
 31
0.0
  0
LINE
  5
1A2
330
1F
100
AcDbEntity
  8
その他
  6
Continuous
 62
     7
370
     9
100
AcDbLine
 10
157.0958606344921
 20
-237.2065058766106
 30
0.0
 11
156.1169141928417
 21
-229.770669416307
 31
0.0
  0
LINE
  5
1A3
330
1F
100
AcDbEntity
  8
その他
  6
Continuous
 62
     7
370
     9
100
AcDbLine
 10
157.0958606344921
 20
-237.2065058766106
 30
0.0
 11
158.0748070761425
 21
-229.770669416307
 31
0.0
  0
LINE
  5
1A4
330
1F
100
AcDbEntity
  8
その他
  6
Continuous
 62
     7
370
     9
100
AcDbLine
 10
180.4115113706015
 20
-237.2065058766106
 30
0.0
 11
180.4115113706015
 21
-97.20653245798087
 31
0.0
  0
LINE
  5
1A5
330
1F
100
AcDbEntity
  8
その他
  6
Continuous
 62
     7
370
     9
100
AcDbLine
 10
180.4115113706015
 20
-237.2065058766106
 30
0.0
 11
179.4325649289511
 21
-229.770669416307
 31
0.0
  0
LINE
  5
1A6
330
1F
100
AcDbEntity
  8
その他
  6
Continuous
 62
     7
370
     9
100
AcDbLine
 10
180.4115113706015
 20
-237.2065058766106
 30
0.0
 11
181.3904578122518
 21
-229.770669416307
 31
0.0
  0
LINE
  5
1A7
330
1F
100
AcDbEntity
  8
その他
  6
Continuous
 62
     7
370
     9
100
AcDbLine
 10
180.4115113706015
 20
-97.20653245798087
 30
0.0
 11
179.4325649289511
 21
-104.6423689182845
 31
0.0
  0
LINE
  5
1A8
330
1F
100
AcDbEntity
  8
その他
  6
Continuous
 62
     7
370
     9
100
AcDbLine
 10
180.4115113706015
 20
-97.20653245798087
 30
0.0
 11
181.3904578122518
 21
-104.6423689182845
 31
0.0
  0
LINE
  5
1A9
330
1F
100
AcDbEntity
  8
その他
  6
Continuous
 62
     7
370
     9
100
AcDbLine
 10
181.3115113706015
 20
-97.20653245798087
 30
0.0
 11
-45.46080324148903
 21
-97.20653245798086
 31
0.0
  0
TEXT
  5
1AA
330
1F
100
AcDbEntity
  8
その他
  6
Continuous
 62
     2
370
   211
100
AcDbText
 10
176.9195113706014
 20
-176.9565191672958
 30
0.0
 40
9.144
  1
140
 50
90.0
 41
1.083333333333333
  7
ＭＳ ゴシック
100
AcDbText
  0
LINE
  5
1AB
330
1F
100
AcDbEntity
  8
その他
  6
Continuous
 62
     7
370
     9
100
AcDbLine
 10
181.3115113706015
 20
-237.2065058766106
 30
0.0
 11
117.0272803512241
 21
-237.2065058766106
 31
0.0
  0
TEXT
  5
1AC
330
1F
100
AcDbEntity
  8
1-5ﾚｲﾔ
  6
Continuous
 62
     7
370
     9
100
AcDbText
 10
126.9558981366919
 20
-279.5742806100162
 30
0.0
 40
6.858000000000001
  1
クロロプレンゴム
 41
1.145833333333333
  7
ＭＳ ゴシック
100
AcDbText
  0
LINE
  5
1AD
330
1F
100
AcDbEntity
  8
1-5ﾚｲﾔ
  6
Continuous
 62
     7
370
     9
100
AcDbLine
 10
125.7031979105465
 20
-270.1414048726346
 30
0.0
 11
209.4558981366919
 21
-270.1414048726346
 31
0.0
  0
LINE
  5
1AE
330
1F
100
AcDbEntity
  8
1-5ﾚｲﾔ
  6
Continuous
 62
     7
370
     9
100
AcDbLine
 10
106.688225109459
 20
-237.2065058766106
 30
0.0
 11
109.5583508521972
 21
-244.1356023704453
 31
0.0
  0
LINE
  5
1AF
330
1F
100
AcDbEntity
  8
1-5ﾚｲﾔ
  6
Continuous
 62
     7
370
     9
100
AcDbLine
 10
106.688225109459
 20
-237.2065058766106
 30
0.0
 11
111.2539358270244
 21
-243.1566559287949
 31
0.0
  0
LINE
  5
1B0
330
1F
100
AcDbEntity
  8
1-5ﾚｲﾔ
  6
Continuous
 62
     7
370
     9
100
AcDbLine
 10
125.7031979105465
 20
-270.1414048726346
 30
0.0
 11
106.688225109459
 21
-237.2065058766106
 31
0.0
  0
LINE
  5
1B1
330
1F
100
AcDbEntity
  8
1-5ﾚｲﾔ
  6
Continuous
 62
     7
370
     9
100
AcDbLine
 10
101.3563259792793
 20
-313.3347994071476
 30
0.0
 11
41.53908461524844
 21
-209.7282981960355
 31
0.0
  0
TEXT
  5
1B2
330
1F
100
AcDbEntity
  8
1-5ﾚｲﾔ
  6
Continuous
 62
     7
370
     9
100
AcDbText
 10
102.2440156157152
 20
-310.8106024388603
 30
0.0
 40
6.858000000000001
  1
長ネジボルトＢ：ＳＷＲＭ
 41
1.152777777777777
  7
ＭＳ ゴシック
100
AcDbText
  0
TEXT
  5
1B3
330
1F
100
AcDbEntity
  8
1-5ﾚｲﾔ
  6
Continuous
 62
     7
370
     9
100
AcDbText
 10
102.2440156157152
 20
-322.6320842995128
 30
0.0
 40
6.858000000000001
  1
（別途）
 41
1.125
  7
ＭＳ ゴシック
100
AcDbText
  0
LINE
  5
1B4
330
1F
100
AcDbEntity
  8
1-5ﾚｲﾔ
  6
Continuous
 62
     7
370
     9
100
AcDbLine
 10
101.3563259792793
 20
-313.3347994071476
 30
0.0
 11
226.7440156157152
 21
-313.3347994071476
 31
0.0
  0
LINE
  5
1B5
330
1F
100
AcDbEntity
  8
1-5ﾚｲﾔ
  6
Continuous
 62
     7
370
     9
100
AcDbLine
 10
41.53908461524844
 20
-209.7282981960355
 30
0.0
 11
44.40921035798664
 21
-216.6573946898702
 31
0.0
  0
LINE
  5
1B6
330
1F
100
AcDbEntity
  8
1-5ﾚｲﾔ
  6
Continuous
 62
     7
370
     9
100
AcDbLine
 10
41.53908461524844
 20
-209.7282981960355
 30
0.0
 11
46.10479533281386
 21
-215.6784482482198
 31
0.0
  0
LINE
  5
1B7
330
1F
100
AcDbEntity
  8
通り芯
  6
Continuous
 62
     3
370
     9
100
AcDbLine
 10
25.3069542890605
 20
-250.9872195778715
 30
0.0
 11
24.89953332733592
 21
-248.8482634734845
 31
0.0
  0
ARC
  5
1B8
330
1F
100
AcDbEntity
  8
通り芯
  6
Continuous
 62
     3
370
     9
100
AcDbCircle
 10
26.78046204355379
 20
-250.7065509165497
 30
0.0
 40
1.5
100
AcDbArc
 50
190.7843172895724
 51
270.0
  0
LINE
  5
1B9
330
1F
100
AcDbEntity
  8
通り芯
  6
Continuous
 62
     3
370
     9
100
AcDbLine
 10
34.99324826005525
 20
-252.2065509165497
 30
0.0
 11
26.78046204355379
 21
-252.2065509165497
 31
0.0
  0
LINE
  5
1BA
330
1F
100
AcDbEntity
  8
通り芯
  6
Continuous
 62
     3
370
     9
100
AcDbLine
 10
35.95743196041846
 20
-251.8556156631823
 30
0.0
 11
46.6585158347545
 21
-242.8763038549565
 31
0.0
  0
ARC
  5
1BB
330
1F
100
AcDbEntity
  8
通り芯
  6
Continuous
 62
     3
370
     9
100
AcDbCircle
 10
34.99324826005525
 20
-250.7065509165497
 30
0.0
 40
1.5
100
AcDbArc
 50
270.0
 51
310.0001139783442
  0
LINE
  5
1BC
330
1F
100
AcDbEntity
  8
084
  6
Continuous
 62
     6
370
     9
100
AcDbLine
 10
41.53903771243426
 20
-269.2065185579015
 30
0.0
 11
41.53903771243426
 21
-275.2065340965332
 31
0.0
  0
LINE
  5
1BD
330
1F
100
AcDbEntity
  8
084
  6
Continuous
 62
     6
370
     9
100
AcDbLine
 10
35.53900978708293
 20
-269.2065061711818
 30
0.0
 11
41.53903771243426
 21
-269.2065061711818
 31
0.0
  0
LINE
  5
1BE
330
1F
100
AcDbEntity
  8
084
  6
Continuous
 62
     6
370
     9
100
AcDbLine
 10
27.53897255328104
 20
-267.2065959564889
 30
0.0
 11
27.53897255328104
 21
-254.2065478382805
 31
0.0
  0
LINE
  5
1BF
330
1F
100
AcDbEntity
  8
084
  6
Continuous
 62
     6
370
     9
100
AcDbLine
 10
35.53900978708293
 20
-275.2065340965332
 30
0.0
 11
41.53903771243426
 21
-275.2065340965332
 31
0.0
  0
LINE
  5
1C0
330
1F
100
AcDbEntity
  8
084
  6
JWW_CENTER1
 62
     6
370
     9
100
AcDbLine
 10
35.53920797459801
 20
-272.2065201338576
 30
0.0
 11
44.5390516751101
 21
-272.2065201338576
 31
0.0
  0
LINE
  5
1C1
330
1F
100
AcDbEntity
  8
084
  6
Continuous
 62
     6
370
     9
100
AcDbLine
 10
33.53909957239
 20
-267.2065959564889
 30
0.0
 11
33.53909957239
 21
-254.2065478382805
 31
0.0
  0
LINE
  5
1C2
330
1F
100
AcDbEntity
  8
084
  6
Continuous
 62
     6
370
     9
100
AcDbLine
 10
27.36407207122107
 20
-254.2065478382805
 30
0.0
 11
33.71395050757116
 21
-254.2065478382805
 31
0.0
  0
LINE
  5
1C3
330
1F
100
AcDbEntity
  8
084
  6
Continuous
 62
     6
370
     9
100
AcDbLine
 10
32.8991520861901
 20
-254.2065478382805
 30
0.0
 11
32.8991520861901
 21
-252.2065509165497
 31
0.0
  0
LINE
  5
1C4
330
1F
100
AcDbEntity
  8
084
  6
Continuous
 62
     6
370
     9
100
AcDbLine
 10
28.17921732075365
 20
-254.2065478382805
 30
0.0
 11
28.17921732075365
 21
-252.2065509165497
 31
0.0
  0
LINE
  5
1C5
330
1F
100
AcDbEntity
  8
084
  6
Continuous
 62
     6
370
     9
100
AcDbLine
 10
27.36407207122107
 20
-254.2065478382805
 30
0.0
 11
27.36407207122107
 21
-252.2065509165497
 31
0.0
  0
LINE
  5
1C6
330
1F
100
AcDbEntity
  8
084
  6
Continuous
 62
     6
370
     9
100
AcDbLine
 10
33.71395050757116
 20
-254.2065478382805
 30
0.0
 11
33.71395050757116
 21
-252.2065509165497
 31
0.0
  0
LINE
  5
1C7
330
1F
100
AcDbEntity
  8
084
  6
JWW_CENTER1
 62
     6
370
     9
100
AcDbLine
 10
30.53913515659298
 20
-267.2065959564889
 30
0.0
 11
30.53913515659298
 21
-250.2275123245389
 31
0.0
  0
ARC
  5
1C8
330
1F
100
AcDbEntity
  8
084
  6
Continuous
 62
     6
370
     9
100
AcDbCircle
 10
35.53900978708293
 20
-267.2065959564889
 30
0.0
 40
2.000000018410701
100
AcDbArc
 50
180.0
 51
270.0
  0
ARC
  5
1C9
330
1F
100
AcDbEntity
  8
084
  6
Continuous
 62
     6
370
     9
100
AcDbCircle
 10
35.53900978708293
 20
-267.2065959564889
 30
0.0
 40
8.000000073642804
100
AcDbArc
 50
180.0
 51
270.0
  0
ARC
  5
1CA
330
1F
100
AcDbEntity
  8
084
  6
JWW_CENTER1
 62
     6
370
     9
100
AcDbCircle
 10
35.53920797459801
 20
-267.2065959564889
 30
0.0
 40
5.000000046026752
100
AcDbArc
 50
180.0
 51
270.0
  0
LINE
  5
1CB
330
1F
100
AcDbEntity
  8
1-5ﾚｲﾔ
  6
Continuous
 62
     7
370
     9
100
AcDbLine
 10
3.073252134695622
 20
-334.9173680775459
 30
0.0
 11
-93.72596133356416
 21
-334.9173680775459
 31
0.0
  0
TEXT
  5
1CC
330
1F
100
AcDbEntity
  8
1-5ﾚｲﾔ
  6
Continuous
 62
     7
370
     9
100
AcDbText
 10
-93.72596133356416
 20
-344.4084611442575
 30
0.0
 40
6.858000000000001
  1
（別途）
 41
1.125
  7
ＭＳ ゴシック
100
AcDbText
  0
TEXT
  5
1CD
330
1F
100
AcDbEntity
  8
1-5ﾚｲﾔ
  6
Continuous
 62
     7
370
     9
100
AcDbText
 10
-93.72596133356416
 20
-331.3995094413771
 30
0.0
 40
6.858000000000001
  1
ルーフドレイン本体
 41
1.148148148148148
  7
ＭＳ ゴシック
100
AcDbText
  0
LINE
  5
1CE
330
1F
100
AcDbEntity
  8
寸法
  6
Continuous
 62
     7
370
     9
100
AcDbLine
 10
3.073252134695622
 20
-334.9173680775459
 30
0.0
 11
25.78737585170506
 21
-250.1471043162614
 31
0.0
  0
LINE
  5
1CF
330
1F
100
AcDbEntity
  8
寸法
  6
Continuous
 62
     7
370
     9
100
AcDbLine
 10
25.78737585170506
 20
-250.1471043162614
 30
0.0
 11
22.91725010896687
 21
-257.0762008100961
 31
0.0
  0
LINE
  5
1D0
330
1F
100
AcDbEntity
  8
寸法
  6
Continuous
 62
     7
370
     9
100
AcDbLine
 10
25.78737585170506
 20
-250.1471043162614
 30
0.0
 11
24.80842941005466
 21
-257.5829407765651
 31
0.0
  0
LINE
  5
1D1
330
1F
100
AcDbEntity
  8
1-5ﾚｲﾔ
  6
Continuous
 62
     7
370
     9
100
AcDbLine
 10
-31.58252568289271
 20
-293.3349869013825
 30
0.0
 11
1.461261649741175
 21
-236.1014683667595
 31
0.0
  0
TEXT
  5
1D2
330
1F
100
AcDbEntity
  8
1-5ﾚｲﾔ
  6
Continuous
 62
     7
370
     9
100
AcDbText
 10
-104.0568542860435
 20
-291.0821938533526
 30
0.0
 40
6.858000000000001
  1
固定プレートＡ
 41
1.142857142857143
  7
ＭＳ ゴシック
100
AcDbText
  0
LINE
  5
1D3
330
1F
100
AcDbEntity
  8
1-5ﾚｲﾔ
  6
Continuous
 62
     7
370
     9
100
AcDbLine
 10
-31.58252568289271
 20
-293.3349869013825
 30
0.0
 11
-104.0568542860435
 21
-293.3349869013825
 31
0.0
  0
TEXT
  5
1D4
330
1F
100
AcDbEntity
  8
1-5ﾚｲﾔ
  6
Continuous
 62
     7
370
     9
100
AcDbText
 10
-104.0568542860435
 20
-302.3977445757247
 30
0.0
 40
6.858000000000001
  1
ＳＰＨＣ
 41
1.125
  7
ＭＳ ゴシック
100
AcDbText
  0
LINE
  5
1D5
330
1F
100
AcDbEntity
  8
1-5ﾚｲﾔ
  6
Continuous
 62
     7
370
     9
100
AcDbLine
 10
1.461261649741175
 20
-236.1014683667595
 30
0.0
 11
-3.104449067824248
 21
-242.0516184189439
 31
0.0
  0
LINE
  5
1D6
330
1F
100
AcDbEntity
  8
1-5ﾚｲﾔ
  6
Continuous
 62
     7
370
     9
100
AcDbLine
 10
1.461261649741175
 20
-236.1014683667595
 30
0.0
 11
-1.408864092997021
 21
-243.0305648605942
 31
0.0
  0
LINE
  5
1D7
330
1F
100
AcDbEntity
  8
1-5ﾚｲﾔ
  6
Continuous
 62
     7
370
     9
100
AcDbLine
 10
-152.2293833699521
 20
-300.6902117109036
 30
0.0
 11
-129.3430253806635
 21
-261.0498768732458
 31
0.0
  0
LINE
  5
1D8
330
1F
100
AcDbEntity
  8
1-5ﾚｲﾔ
  6
Continuous
 62
     7
370
     9
100
AcDbLine
 10
-129.3430253806635
 20
-261.0498768732458
 30
0.0
 11
-133.9087360982289
 21
-267.00002692543
 31
0.0
  0
LINE
  5
1D9
330
1F
100
AcDbEntity
  8
1-5ﾚｲﾔ
  6
Continuous
 62
     7
370
     9
100
AcDbLine
 10
-129.3430253806635
 20
-261.0498768732458
 30
0.0
 11
-132.2131511234017
 21
-267.9789733670805
 31
0.0
  0
LINE
  5
1DA
330
1F
100
AcDbEntity
  8
1-5ﾚｲﾔ
  6
Continuous
 62
     7
370
     9
100
AcDbLine
 10
-149.4607886602137
 20
-126.9493906266823
 30
0.0
 11
-152.3309144029519
 21
-120.0202941328476
 31
0.0
  0
LINE
  5
1DB
330
1F
100
AcDbEntity
  8
1-5ﾚｲﾔ
  6
Continuous
 62
     7
370
     9
100
AcDbLine
 10
-149.4607886602137
 20
-126.9493906266823
 30
0.0
 11
-154.0264993777791
 21
-120.999240574498
 31
0.0
  0
LINE
  5
1DC
330
1F
100
AcDbEntity
  8
1-5ﾚｲﾔ
  6
Continuous
 62
     7
370
     9
100
AcDbLine
 10
-37.96786321849942
 20
-107.8310697897278
 30
0.0
 11
-42.53357393606484
 21
-101.8809197375435
 31
0.0
  0
LINE
  5
1DD
330
1F
100
AcDbEntity
  8
1-5ﾚｲﾔ
  6
Continuous
 62
     7
370
     9
100
AcDbLine
 10
-37.96786321849942
 20
-107.8310697897278
 30
0.0
 11
-40.83798896123761
 21
-100.9019732958931
 31
0.0
  0
LINE
  5
1DE
330
1F
100
AcDbEntity
  8
1-5ﾚｲﾔ
  6
Continuous
 62
     7
370
     9
100
AcDbLine
 10
-43.35330929492574
 20
-11.69700755016186
 30
0.0
 11
-0.5343713127428487
 21
-85.86158366144338
 31
0.0
  0
LINE
  5
1DF
330
1F
100
AcDbEntity
  8
1-5ﾚｲﾔ
  6
Continuous
 62
     7
370
     9
100
AcDbLine
 10
-43.35330929492574
 20
-11.69700755016186
 30
0.0
 11
-126.5556317941537
 21
-11.69700755016186
 31
0.0
  0
TEXT
  5
1E0
330
1F
100
AcDbEntity
  8
1-5ﾚｲﾔ
  6
Continuous
 62
     7
370
     9
100
AcDbText
 10
-126.5556317941537
 20
-8.109923697014395
 30
0.0
 40
6.858000000000001
  1
引き上げハンドル
 41
1.145833333333333
  7
ＭＳ ゴシック
100
AcDbText
  0
TEXT
  5
1E1
330
1F
100
AcDbEntity
  8
1-5ﾚｲﾔ
  6
Continuous
 62
     7
370
     9
100
AcDbText
 10
-126.5556317941537
 20
-20.6810953878564
 30
0.0
 40
6.858000000000001
  1
ＳＰＨＣ
 41
1.125
  7
ＭＳ ゴシック
100
AcDbText
  0
LINE
  5
1E2
330
1F
100
AcDbEntity
  8
1-5ﾚｲﾔ
  6
Continuous
 62
     7
370
     9
100
AcDbLine
 10
-0.5343713127428487
 20
-85.86158366144338
 30
0.0
 11
-5.100082030308442
 21
-79.91143360925909
 31
0.0
  0
LINE
  5
1E3
330
1F
100
AcDbEntity
  8
1-5ﾚｲﾔ
  6
Continuous
 62
     7
370
     9
100
AcDbLine
 10
-0.5343713127428487
 20
-85.86158366144338
 30
0.0
 11
-3.404497055481045
 21
-78.93248716760868
 31
0.0
  0
LINE
  5
1E4
330
1F
100
AcDbEntity
  8
1-5ﾚｲﾔ
  6
Continuous
 62
     7
370
     9
100
AcDbLine
 10
-72.66782956770817
 20
-47.7289650519678
 30
0.0
 11
-37.96786321849942
 21
-107.8310697897278
 31
0.0
  0
TEXT
  5
1E5
330
1F
100
AcDbEntity
  8
1-5ﾚｲﾔ
  6
Continuous
 62
     7
370
     9
100
AcDbText
 10
-238.1957539578673
 20
-56.58858220142125
 30
0.0
 40
6.858000000000001
  1
（別途）
 41
1.125
  7
ＭＳ ゴシック
100
AcDbText
  0
LINE
  5
1E6
330
1F
100
AcDbEntity
  8
1-5ﾚｲﾔ
  6
Continuous
 62
     7
370
     9
100
AcDbLine
 10
-72.66782956770817
 20
-47.7289650519678
 30
0.0
 11
-238.1957539578673
 21
-47.7289650519678
 31
0.0
  0
TEXT
  5
1E7
330
1F
100
AcDbEntity
  8
1-5ﾚｲﾔ
  6
Continuous
 62
     7
370
     9
100
AcDbText
 10
-238.1957539578673
 20
-45.05775636383838
 30
0.0
 40
6.858000000000001
  1
養生シート：ポリエチレンフォーム
 41
1.15625
  7
ＭＳ ゴシック
100
AcDbText
  0
LINE
  5
1E8
330
1F
100
AcDbEntity
  8
1-5ﾚｲﾔ
  6
Continuous
 62
     7
370
     9
100
AcDbLine
 10
-172.1582013067247
 20
-87.63631872256882
 30
0.0
 11
-149.4607886602137
 21
-126.9493906266823
 31
0.0
  0
LINE
  5
1E9
330
1F
100
AcDbEntity
  8
1-5ﾚｲﾔ
  6
Continuous
 62
     7
370
     9
100
AcDbLine
 10
-172.1582013067247
 20
-87.63631872256882
 30
0.0
 11
-328.2531050006046
 21
-87.63631872256882
 31
0.0
  0
TEXT
  5
1EA
330
1F
100
AcDbEntity
  8
1-5ﾚｲﾔ
  6
Continuous
 62
     7
370
     9
100
AcDbText
 10
-328.2531050006046
 20
-96.49593587202227
 30
0.0
 40
6.858000000000001
  1
（別途）
 41
1.125
  7
ＭＳ ゴシック
100
AcDbText
  0
TEXT
  5
1EB
330
1F
100
AcDbEntity
  8
1-5ﾚｲﾔ
  6
Continuous
 62
     7
370
     9
100
AcDbText
 10
-328.2531050006046
 20
-85.20749053940466
 30
0.0
 40
6.858000000000001
  1
位置決めプレート：ポリエチレン
 41
1.155555555555555
  7
ＭＳ ゴシック
100
AcDbText
  0
LINE
  5
1EC
330
1F
100
AcDbEntity
  8
通り芯
  6
Continuous
 62
     3
370
     9
100
AcDbLine
 10
-59.46080021845182
 20
122.833607304971
 30
0.0
 11
-49.46080322307836
 21
123.8336119591962
 31
0.0
  0
LINE
  5
1ED
330
1F
100
AcDbEntity
  8
通り芯
  6
JWW_DASHED1
 62
     3
370
     9
100
AcDbLine
 10
80.53920726365703
 20
123.8336119591962
 30
0.0
 11
-49.46080322307836
 21
123.8336119591962
 31
0.0
  0
LINE
  5
1EE
330
1F
100
AcDbEntity
  8
通り芯
  6
Continuous
 62
     3
370
     9
100
AcDbLine
 10
-59.46080021845182
 20
332.833593754695
 30
0.0
 11
-49.46080322307836
 21
331.8336386473485
 31
0.0
  0
LINE
  5
1EF
330
1F
100
AcDbEntity
  8
通り芯
  6
JWW_DASHED1
 62
     3
370
     9
100
AcDbLine
 10
80.53920726365703
 20
331.8336386473485
 30
0.0
 11
-49.46080322307836
 21
331.8336386473485
 31
0.0
  0
LINE
  5
1F0
330
1F
100
AcDbEntity
  8
通り芯
  6
Continuous
 62
     3
370
     9
100
AcDbLine
 10
-59.46080021845182
 20
122.833607304971
 30
0.0
 11
-59.46080021845182
 21
332.833593754695
 31
0.0
  0
LINE
  5
1F1
330
1F
100
AcDbEntity
  8
通り芯
  6
JWW_DASHED1
 62
     3
370
     9
100
AcDbLine
 10
90.5392042590305
 20
132.8336043003445
 30
0.0
 11
90.5392042590305
 21
322.8335967593213
 31
0.0
  0
LINE
  5
1F2
330
1F
100
AcDbEntity
  8
通り芯
  6
Continuous
 62
     3
370
     9
100
AcDbLine
 10
-44.95832970856566
 20
133.283886334611
 30
0.0
 11
-35.3612974782327
 21
134.2435846029564
 31
0.0
  0
LINE
  5
1F3
330
1F
100
AcDbEntity
  8
通り芯
  6
Continuous
 62
     3
370
     9
100
AcDbLine
 10
-49.46080322307836
 20
123.8336119591962
 30
0.0
 11
-49.46080322307836
 21
331.8336386473485
 31
0.0
  0
LINE
  5
1F4
330
1F
100
AcDbEntity
  8
通り芯
  6
Continuous
 62
     3
370
     9
100
AcDbLine
 10
-35.3612974782327
 20
321.4236412301489
 30
0.0
 11
-44.95832970856566
 21
322.3833642719337
 31
0.0
  0
LINE
  5
1F5
330
1F
100
AcDbEntity
  8
通り芯
  6
Continuous
 62
     3
370
     9
100
AcDbLine
 10
-63.64793262302976
 20
312.9884337601056
 30
0.0
 11
-59.46080021845182
 21
313.7859898676746
 31
0.0
  0
LINE
  5
1F6
330
1F
100
AcDbEntity
  8
通り芯
  6
Continuous
 62
     3
370
     9
100
AcDbLine
 10
-64.46082348957822
 20
303.6611347377993
 30
0.0
 11
-64.46082348957822
 21
312.0061173416014
 31
0.0
  0
LINE
  5
1F7
330
1F
100
AcDbEntity
  8
通り芯
  6
Continuous
 62
     3
370
     9
100
AcDbLine
 10
-63.64793262302976
 20
302.6788183192951
 30
0.0
 11
-59.46080021845182
 21
301.8812622117262
 31
0.0
  0
LINE
  5
1F8
330
1F
100
AcDbEntity
  8
通り芯
  6
Continuous
 62
     3
370
     9
100
AcDbLine
 10
-63.64793262302976
 20
152.9884322872495
 30
0.0
 11
-59.46080021845182
 21
153.7859883948185
 31
0.0
  0
LINE
  5
1F9
330
1F
100
AcDbEntity
  8
通り芯
  6
Continuous
 62
     3
370
     9
100
AcDbLine
 10
-64.46082348957822
 20
143.6611332649433
 30
0.0
 11
-64.46082348957822
 21
152.006091095306
 31
0.0
  0
LINE
  5
1FA
330
1F
100
AcDbEntity
  8
通り芯
  6
Continuous
 62
     3
370
     9
100
AcDbLine
 10
-63.64793262302976
 20
142.6787920729997
 30
0.0
 11
-59.46080021845182
 21
141.8812359654308
 31
0.0
  0
LINE
  5
1FB
330
1F
100
AcDbEntity
  8
041
  6
Continuous
 62
     3
370
     9
100
AcDbLine
 10
-139.7418184645467
 20
161.3336626254456
 30
0.0
 11
-149.1162737287228
 21
160.1825895378491
 31
0.0
  0
LINE
  5
1FC
330
1F
100
AcDbEntity
  8
041
  6
Continuous
 62
     3
370
     9
100
AcDbLine
 10
-149.1162737287228
 20
295.4847106155744
 30
0.0
 11
-139.7417689176677
 21
294.3336375279778
 31
0.0
  0
LINE
  5
1FD
330
1F
100
AcDbEntity
  8
041
  6
Continuous
 62
     3
370
     9
100
AcDbLine
 10
-149.1162737287228
 20
160.1825895378491
 30
0.0
 11
-149.1162737287228
 21
295.4847106155744
 31
0.0
  0
LINE
  5
1FE
330
1F
100
AcDbEntity
  8
通り芯
  6
Continuous
 62
     3
370
     9
100
AcDbLine
 10
-82.4436897252595
 20
163.8336247141299
 30
0.0
 11
-59.46080021845182
 21
163.8336247141299
 31
0.0
  0
LINE
  5
1FF
330
1F
100
AcDbEntity
  8
通り芯
  6
Continuous
 62
     3
370
     9
100
AcDbLine
 10
-82.44562205353168
 20
291.8336011189754
 30
0.0
 11
-59.46080021845182
 21
291.8336011189754
 31
0.0
  0
LINE
  5
200
330
1F
100
AcDbEntity
  8
通り芯
  6
JWW_DASHED1
 62
     3
370
     9
100
AcDbLine
 10
80.53920726365703
 20
332.833593754695
 30
0.0
 11
-49.46080322307836
 21
332.833593754695
 31
0.0
  0
LINE
  5
201
330
1F
100
AcDbEntity
  8
通り芯
  6
Continuous
 62
     3
370
     9
100
AcDbLine
 10
-49.46080322307836
 20
332.833593754695
 30
0.0
 11
-59.46080021845182
 21
332.833593754695
 31
0.0
  0
LINE
  5
202
330
1F
100
AcDbEntity
  8
通り芯
  6
JWW_DASHED1
 62
     3
370
     9
100
AcDbLine
 10
80.53920726365703
 20
122.833607304971
 30
0.0
 11
-49.46080322307836
 21
122.833607304971
 31
0.0
  0
LINE
  5
203
330
1F
100
AcDbEntity
  8
通り芯
  6
Continuous
 62
     3
370
     9
100
AcDbLine
 10
-49.46080322307836
 20
122.833607304971
 30
0.0
 11
-59.46080021845182
 21
122.833607304971
 31
0.0
  0
LINE
  5
204
330
1F
100
AcDbEntity
  8
通り芯
  6
Continuous
 62
     3
370
     9
100
AcDbLine
 10
-35.03542765655902
 20
134.3336360551218
 30
0.0
 11
-34.46083250345748
 21
134.3336360551218
 31
0.0
  0
LINE
  5
205
330
1F
100
AcDbEntity
  8
通り芯
  6
Continuous
 62
     3
370
     9
100
AcDbLine
 10
-35.0353533362408
 20
321.3336640983017
 30
0.0
 11
-34.46083250345748
 21
321.3336640983017
 31
0.0
  0
LINE
  5
206
330
1F
100
AcDbEntity
  8
021
  6
Continuous
 62
     6
370
     9
100
AcDbLine
 10
-47.81208128511076
 20
134.3336360551218
 30
0.0
 11
-47.81208128511076
 21
321.3336640983017
 31
0.0
  0
LINE
  5
207
330
1F
100
AcDbEntity
  8
寸法
  6
Continuous
 62
     2
370
     9
100
AcDbLine
 10
-66.46085757146784
 20
304.6585134074497
 30
0.0
 11
-66.46085757146784
 21
311.0084909375572
 31
0.0
  0
LINE
  5
208
330
1F
100
AcDbEntity
  8
寸法
  6
Continuous
 62
     2
370
     9
100
AcDbLine
 10
-66.46085757146784
 20
310.1936429692974
 30
0.0
 11
-64.46082348957822
 21
310.1936429692974
 31
0.0
  0
LINE
  5
209
330
1F
100
AcDbEntity
  8
寸法
  6
Continuous
 62
     2
370
     9
100
AcDbLine
 10
-66.46085757146784
 20
311.0084909375572
 30
0.0
 11
-64.46082348957822
 21
311.0084909375572
 31
0.0
  0
LINE
  5
20A
330
1F
100
AcDbEntity
  8
寸法
  6
Continuous
 62
     2
370
     9
100
AcDbLine
 10
-66.46085757146784
 20
305.4736586569821
 30
0.0
 11
-64.46082348957822
 21
305.4736586569821
 31
0.0
  0
LINE
  5
20B
330
1F
100
AcDbEntity
  8
寸法
  6
Continuous
 62
     2
370
     9
100
AcDbLine
 10
-66.46085757146784
 20
304.6585134074497
 30
0.0
 11
-64.46082348957822
 21
304.6585134074497
 31
0.0
  0
LINE
  5
20C
330
1F
100
AcDbEntity
  8
寸法
  6
Continuous
 62
     2
370
     9
100
AcDbLine
 10
-84.46079270688574
 20
304.8335129832672
 30
0.0
 11
-66.46085757146784
 21
304.8335129832672
 31
0.0
  0
LINE
  5
20D
330
1F
100
AcDbEntity
  8
寸法
  6
Continuous
 62
     2
370
     9
100
AcDbLine
 10
-84.46079270688574
 20
310.8334913617397
 30
0.0
 11
-66.46085757146784
 21
310.8334913617397
 31
0.0
  0
LINE
  5
20E
330
1F
100
AcDbEntity
  8
寸法
  6
JWW_CENTER1
 62
     2
370
     9
100
AcDbLine
 10
-84.46079270688574
 20
302.7722141857775
 30
0.0
 11
-84.46079270688574
 21
313.2060931985445
 31
0.0
  0
LINE
  5
20F
330
1F
100
AcDbEntity
  8
寸法
  6
JWW_CENTER1
 62
     2
370
     9
100
AcDbLine
 10
-89.21731784229428
 20
307.8335764928216
 30
0.0
 11
-62.85443935951992
 21
307.8335764928216
 31
0.0
  0
LINE
  5
210
330
1F
100
AcDbEntity
  8
寸法
  6
Continuous
 62
     2
370
     9
100
AcDbLine
 10
-66.46085757146784
 20
144.6585119345936
 30
0.0
 11
-66.46085757146784
 21
151.0084894647011
 31
0.0
  0
LINE
  5
211
330
1F
100
AcDbEntity
  8
寸法
  6
Continuous
 62
     2
370
     9
100
AcDbLine
 10
-66.46085757146784
 20
150.1936414964413
 30
0.0
 11
-64.46082348957822
 21
150.1936414964413
 31
0.0
  0
LINE
  5
212
330
1F
100
AcDbEntity
  8
寸法
  6
Continuous
 62
     2
370
     9
100
AcDbLine
 10
-66.46085757146784
 20
151.0084894647011
 30
0.0
 11
-64.46082348957822
 21
151.0084894647011
 31
0.0
  0
LINE
  5
213
330
1F
100
AcDbEntity
  8
寸法
  6
Continuous
 62
     2
370
     9
100
AcDbLine
 10
-66.46085757146784
 20
145.4736571841261
 30
0.0
 11
-64.46082348957822
 21
145.4736571841261
 31
0.0
  0
LINE
  5
214
330
1F
100
AcDbEntity
  8
寸法
  6
Continuous
 62
     2
370
     9
100
AcDbLine
 10
-66.46085757146784
 20
144.6585119345936
 30
0.0
 11
-64.46082348957822
 21
144.6585119345936
 31
0.0
  0
LINE
  5
215
330
1F
100
AcDbEntity
  8
寸法
  6
Continuous
 62
     2
370
     9
100
AcDbLine
 10
-84.46079270688574
 20
144.8335115104111
 30
0.0
 11
-66.46085757146784
 21
144.8335115104111
 31
0.0
  0
LINE
  5
216
330
1F
100
AcDbEntity
  8
寸法
  6
Continuous
 62
     2
370
     9
100
AcDbLine
 10
-84.46079270688574
 20
150.8334898888837
 30
0.0
 11
-66.46085757146784
 21
150.8334898888837
 31
0.0
  0
LINE
  5
217
330
1F
100
AcDbEntity
  8
寸法
  6
JWW_CENTER1
 62
     2
370
     9
100
AcDbLine
 10
-84.46079270688574
 20
142.7722127129215
 30
0.0
 11
-84.46079270688574
 21
153.2060917256884
 31
0.0
  0
LINE
  5
218
330
1F
100
AcDbEntity
  8
寸法
  6
JWW_CENTER1
 62
     2
370
     9
100
AcDbLine
 10
-89.21731784229428
 20
147.8335750199656
 30
0.0
 11
-62.85443935951992
 21
147.8335750199656
 31
0.0
  0
ARC
  5
219
330
1F
100
AcDbEntity
  8
通り芯
  6
JWW_DASHED1
 62
     3
370
     9
100
AcDbCircle
 10
80.53920726365703
 20
133.8336337280092
 30
0.0
 40
10.0000000920535
100
AcDbArc
 50
270.0
 51
0.0
  0
ARC
  5
21A
330
1F
100
AcDbEntity
  8
通り芯
  6
JWW_DASHED1
 62
     3
370
     9
100
AcDbCircle
 10
80.53920726365703
 20
132.8336043003445
 30
0.0
 40
10.0000000920535
100
AcDbArc
 50
270.0
 51
0.0
  0
ARC
  5
21B
330
1F
100
AcDbEntity
  8
通り芯
  6
JWW_DASHED1
 62
     3
370
     9
100
AcDbCircle
 10
80.53920726365703
 20
321.8335921050961
 30
0.0
 40
10.0000000920535
100
AcDbArc
 50
0.0
 51
90.0
  0
ARC
  5
21C
330
1F
100
AcDbEntity
  8
通り芯
  6
JWW_DASHED1
 62
     3
370
     9
100
AcDbCircle
 10
80.53920726365703
 20
322.8335967593213
 30
0.0
 40
10.0000000920535
100
AcDbArc
 50
0.0
 51
90.0
  0
ARC
  5
21D
330
1F
100
AcDbEntity
  8
通り芯
  6
Continuous
 62
     3
370
     9
100
AcDbCircle
 10
-63.46081883535277
 20
312.0061173416014
 30
0.0
 40
1.00000000920535
100
AcDbArc
 50
100.7846374511719
 51
180.0
  0
ARC
  5
21E
330
1F
100
AcDbEntity
  8
通り芯
  6
Continuous
 62
     3
370
     9
100
AcDbCircle
 10
-63.46081883535277
 20
303.6611347377993
 30
0.0
 40
1.00000000920535
100
AcDbArc
 50
180.0
 51
259.2153625488281
  0
ARC
  5
21F
330
1F
100
AcDbEntity
  8
通り芯
  6
Continuous
 62
     3
370
     9
100
AcDbCircle
 10
-63.46081883535277
 20
152.006091095306
 30
0.0
 40
1.00000000920535
100
AcDbArc
 50
100.7843627929688
 51
180.0
  0
ARC
  5
220
330
1F
100
AcDbEntity
  8
通り芯
  6
Continuous
 62
     3
370
     9
100
AcDbCircle
 10
-63.46081883535277
 20
143.6611332649433
 30
0.0
 40
1.00000000920535
100
AcDbArc
 50
180.0
 51
259.2156372070312
  0
ARC
  5
221
330
1F
100
AcDbEntity
  8
087
  6
Continuous
 62
     4
370
     9
100
AcDbCircle
 10
-1726.926371971758
 20
227.8087775435689
 30
0.0
 40
1645.726630958351
100
AcDbArc
 50
357.6667633056641
 51
2.333236694335945
  0
CIRCLE
  5
222
330
1F
100
AcDbEntity
  8
寸法
  6
Continuous
 62
     2
370
     9
100
AcDbCircle
 10
-84.46079270688574
 20
307.8335764928216
 30
0.0
 40
3.000112475805761
  0
CIRCLE
  5
223
330
1F
100
AcDbEntity
  8
寸法
  6
Continuous
 62
     2
370
     9
100
AcDbCircle
 10
-84.46079270688574
 20
147.8335750199656
 30
0.0
 40
3.000112475805761
  0
LINE
  5
224
330
1F
100
AcDbEntity
  8
021
  6
Continuous
 62
     6
370
     9
100
AcDbLine
 10
-32.96080074868007
 20
321.3336640983017
 30
0.0
 11
-48.93860984339653
 21
321.3336640983017
 31
0.0
  0
LINE
  5
225
330
1F
100
AcDbEntity
  8
021
  6
Continuous
 62
     6
370
     9
100
AcDbLine
 10
-48.93860984339653
 20
134.3336360551218
 30
0.0
 11
-48.93860984339653
 21
321.3336640983017
 31
0.0
  0
LINE
  5
226
330
1F
100
AcDbEntity
  8
021
  6
Continuous
 62
     6
370
     9
100
AcDbLine
 10
-48.93860984339653
 20
134.3336360551218
 30
0.0
 11
-32.96080074868007
 21
134.3336360551218
 31
0.0
  0
LINE
  5
227
330
1F
100
AcDbEntity
  8
021
  6
Continuous
 62
     6
370
     9
100
AcDbLine
 10
-46.88468650692755
 20
130.8335454450153
 30
0.0
 11
-47.92349362857721
 21
131.9156174222931
 31
0.0
  0
ARC
  5
228
330
1F
100
AcDbEntity
  8
021
  6
Continuous
 62
     6
370
     9
100
AcDbCircle
 10
-44.4608032230783
 20
128.308710831367
 30
0.0
 40
3.5
100
AcDbArc
 50
95.7105275540095
 51
133.8313573080005
  0
LINE
  5
229
330
1F
100
AcDbEntity
  8
021
  6
Continuous
 62
     6
370
     9
100
AcDbLine
 10
-34.31155175989085
 20
132.8409812151923
 30
0.0
 11
-44.83423665071211
 21
131.7887596490816
 31
0.0
  0
ARC
  5
22A
330
1F
100
AcDbEntity
  8
021
  6
Continuous
 62
     6
370
     9
100
AcDbCircle
 10
-34.46080074868007
 20
134.3335376594669
 30
0.0
 40
1.5
100
AcDbArc
 50
275.7103401725259
 51
0.0
  0
ARC
  5
22B
330
1F
100
AcDbEntity
  8
通り芯
  6
Continuous
 62
     3
370
     9
100
AcDbCircle
 10
-44.46082949883095
 20
128.3086612763095
 30
0.0
 40
5.000000046026752
100
AcDbArc
 50
95.71064758300781
 51
179.814086709043
  0
LINE
  5
22C
330
1F
100
AcDbEntity
  8
021
  6
Continuous
 62
     6
370
     9
100
AcDbLine
 10
-34.31155175989085
 20
322.8263189382312
 30
0.0
 11
-44.83423665071211
 21
323.8785405043419
 31
0.0
  0
ARC
  5
22D
330
1F
100
AcDbEntity
  8
021
  6
Continuous
 62
     6
370
     9
100
AcDbCircle
 10
-34.46080074868007
 20
321.3337624939566
 30
0.0
 40
1.5
100
AcDbArc
 50
0.0
 51
84.28965982747407
  0
LINE
  5
22E
330
1F
100
AcDbEntity
  8
021
  6
Continuous
 62
     6
370
     9
100
AcDbLine
 10
-46.88468650692755
 20
324.8337547084082
 30
0.0
 11
-47.92349362857721
 21
323.7516827311304
 31
0.0
  0
ARC
  5
22F
330
1F
100
AcDbEntity
  8
021
  6
Continuous
 62
     6
370
     9
100
AcDbCircle
 10
-44.4608032230783
 20
327.3585893220565
 30
0.0
 40
3.5
100
AcDbArc
 50
226.1686426919995
 51
264.2894724459905
  0
ARC
  5
230
330
1F
100
AcDbEntity
  8
通り芯
  6
Continuous
 62
     3
370
     9
100
AcDbCircle
 10
-44.46082949883095
 20
327.3585645567959
 30
0.0
 40
5.000000046026752
100
AcDbArc
 50
180.1859132909572
 51
264.2893524169922
  0
ARC
  5
231
330
1F
100
AcDbEntity
  8
通り芯
  6
Continuous
 62
     3
370
     9
100
AcDbCircle
 10
-35.46083715768259
 20
320.4286408106795
 30
0.0
 40
1.00000000920535
100
AcDbArc
 50
64.826418570703
 51
84.28926086425781
  0
ARC
  5
232
330
1F
100
AcDbEntity
  8
通り芯
  6
Continuous
 62
     3
370
     9
100
AcDbCircle
 10
-35.46083715768259
 20
135.2386097958652
 30
0.0
 40
1.00000000920535
100
AcDbArc
 50
275.7111511230469
 51
295.1802545102793
  0
LINE
  5
233
330
1F
100
AcDbEntity
  8
躯体
  6
Continuous
 62
     2
370
     9
100
AcDbLine
 10
-48.77647630186397
 20
324.8336500767117
 30
0.0
 11
-30.46080322307841
 21
324.8336500767117
 31
0.0
  0
LINE
  5
234
330
1F
100
AcDbEntity
  8
躯体
  6
Continuous
 62
     2
370
     9
100
AcDbLine
 10
-48.77643281912242
 20
130.8336500767118
 30
0.0
 11
-30.46080322307841
 21
130.8336500767118
 31
0.0
  0
LINE
  5
235
330
1F
100
AcDbEntity
  8
その他
  6
Continuous
 62
     6
370
     9
100
AcDbLine
 10
52.33926120890465
 20
92.83365007671176
 30
0.0
 11
23.73921728244483
 21
92.83365007671176
 31
0.0
  0
LINE
  5
236
330
1F
100
AcDbEntity
  8
その他
  6
Continuous
 62
     6
370
     9
100
AcDbLine
 10
52.33926120890465
 20
362.8336500767117
 30
0.0
 11
23.73921728244483
 21
362.8336500767117
 31
0.0
  0
LINE
  5
237
330
1F
100
AcDbEntity
  8
その他
  6
Continuous
 62
     6
370
     9
100
AcDbLine
 10
52.33926120890465
 20
362.8336500767117
 30
0.0
 11
52.33926120890465
 21
92.83365007671176
 31
0.0
  0
LINE
  5
238
330
1F
100
AcDbEntity
  8
建具
  6
JWW_DASHED1
 62
     6
370
     9
100
AcDbLine
 10
50.03909690886258
 20
362.8336500767117
 30
0.0
 11
50.03909690886258
 21
92.83365007671176
 31
0.0
  0
LINE
  5
239
330
1F
100
AcDbEntity
  8
建具
  6
JWW_DASHED1
 62
     6
370
     9
100
AcDbLine
 10
26.03908430121453
 20
362.8336500767117
 30
0.0
 11
26.03908430121453
 21
92.83365007671176
 31
0.0
  0
LINE
  5
23A
330
1F
100
AcDbEntity
  8
その他
  6
Continuous
 62
     6
370
     9
100
AcDbLine
 10
23.73921728244483
 20
362.8336500767117
 30
0.0
 11
23.73921728244483
 21
92.83365007671176
 31
0.0
  0
LINE
  5
23B
330
1F
100
AcDbEntity
  8
その他
  6
Continuous
 62
     2
370
     9
100
AcDbLine
 10
34.53925068976656
 20
219.360093558157
 30
0.0
 11
34.53925068976656
 21
217.3336758259183
 31
0.0
  0
LINE
  5
23C
330
1F
100
AcDbEntity
  8
その他
  6
Continuous
 62
     2
370
     9
100
AcDbLine
 10
41.53923161628029
 20
217.3336758259183
 30
0.0
 11
41.53923161628029
 21
219.360093558157
 31
0.0
  0
LINE
  5
23D
330
1F
100
AcDbEntity
  8
その他
  6
Continuous
 62
     2
370
     9
100
AcDbLine
 10
34.53925068976656
 20
236.3072065952664
 30
0.0
 11
34.53925068976656
 21
238.3336739185696
 31
0.0
  0
LINE
  5
23E
330
1F
100
AcDbEntity
  8
その他
  6
Continuous
 62
     2
370
     9
100
AcDbLine
 10
41.53923161628029
 20
238.3336739185696
 30
0.0
 11
41.53923161628029
 21
236.3072065952664
 31
0.0
  0
LINE
  5
23F
330
1F
100
AcDbEntity
  8
その他
  6
Continuous
 62
     2
370
     9
100
AcDbLine
 10
35.7392247498251
 20
236.3072065952664
 30
0.0
 11
35.7392247498251
 21
238.3336739185696
 31
0.0
  0
LINE
  5
240
330
1F
100
AcDbEntity
  8
その他
  6
Continuous
 62
     2
370
     9
100
AcDbLine
 10
40.33920796515719
 20
238.3336739185696
 30
0.0
 11
40.33920796515719
 21
236.3072065952664
 31
0.0
  0
LINE
  5
241
330
1F
100
AcDbEntity
  8
その他
  6
Continuous
 62
     2
370
     9
100
AcDbLine
 10
40.33920796515719
 20
217.3336758259183
 30
0.0
 11
40.33920796515719
 21
219.360093558157
 31
0.0
  0
LINE
  5
242
330
1F
100
AcDbEntity
  8
その他
  6
Continuous
 62
     2
370
     9
100
AcDbLine
 10
35.7392247498251
 20
219.360093558157
 30
0.0
 11
35.7392247498251
 21
217.3336758259183
 31
0.0
  0
LINE
  5
243
330
1F
100
AcDbEntity
  8
その他
  6
JWW_CENTER2
 62
     2
370
     9
100
AcDbLine
 10
38.03923924567482
 20
207.6823897007352
 30
0.0
 11
38.03923924567482
 21
246.6365408542997
 31
0.0
  0
ARC
  5
244
330
1F
100
AcDbEntity
  8
その他
  6
Continuous
 62
     2
370
     9
100
AcDbCircle
 10
38.03923924567482
 20
217.3336758259183
 30
0.0
 40
3.499999284744262
100
AcDbArc
 50
180.0
 51
0.0
  0
ARC
  5
245
330
1F
100
AcDbEntity
  8
その他
  6
Continuous
 62
     2
370
     9
100
AcDbCircle
 10
33.33922322394625
 20
219.360093558157
 30
0.0
 40
1.200000047683716
100
AcDbArc
 50
0.0
 51
53.96806335449219
  0
ARC
  5
246
330
1F
100
AcDbEntity
  8
その他
  6
Continuous
 62
     2
370
     9
100
AcDbCircle
 10
42.7392590821006
 20
219.360093558157
 30
0.0
 40
1.200000047683716
100
AcDbArc
 50
126.0319366455078
 51
180.0
  0
ARC
  5
247
330
1F
100
AcDbEntity
  8
その他
  6
Continuous
 62
     2
370
     9
100
AcDbCircle
 10
38.03923924567482
 20
238.3336739185696
 30
0.0
 40
3.499999284744262
100
AcDbArc
 50
0.0
 51
180.0
  0
ARC
  5
248
330
1F
100
AcDbEntity
  8
その他
  6
Continuous
 62
     2
370
     9
100
AcDbCircle
 10
33.33922322394625
 20
236.3072065952664
 30
0.0
 40
1.200000047683716
100
AcDbArc
 50
306.0319366455078
 51
0.0000000000000318
  0
ARC
  5
249
330
1F
100
AcDbEntity
  8
その他
  6
Continuous
 62
     2
370
     9
100
AcDbCircle
 10
42.7392590821006
 20
236.3072065952664
 30
0.0
 40
1.200000047683716
100
AcDbArc
 50
180.0
 51
233.9680633544922
  0
ARC
  5
24A
330
1F
100
AcDbEntity
  8
その他
  6
Continuous
 62
     2
370
     9
100
AcDbCircle
 10
38.03923924567482
 20
227.8336500767117
 30
0.0
 40
8.5
100
AcDbArc
 50
118.0275573730469
 51
241.9724426269531
  0
ARC
  5
24B
330
1F
100
AcDbEntity
  8
その他
  6
Continuous
 62
     2
370
     9
100
AcDbCircle
 10
38.03923924567482
 20
227.8336500767117
 30
0.0
 40
8.5
100
AcDbArc
 50
298.0275573730469
 51
61.97244262695312
  0
ARC
  5
24C
330
1F
100
AcDbEntity
  8
その他
  6
Continuous
 62
     2
370
     9
100
AcDbCircle
 10
38.03923924567482
 20
238.3336739185696
 30
0.0
 40
2.299999237060547
100
AcDbArc
 50
0.0
 51
180.0
  0
ARC
  5
24D
330
1F
100
AcDbEntity
  8
その他
  6
Continuous
 62
     2
370
     9
100
AcDbCircle
 10
38.03923924567482
 20
217.3336758259183
 30
0.0
 40
2.299999237060547
100
AcDbArc
 50
180.0
 51
0.0
  0
ARC
  5
24E
330
1F
100
AcDbEntity
  8
その他
  6
Continuous
 62
     2
370
     9
100
AcDbCircle
 10
33.33922322394625
 20
219.360093558157
 30
0.0
 40
2.400000095367432
100
AcDbArc
 50
0.0
 51
53.96806335449219
  0
ARC
  5
24F
330
1F
100
AcDbEntity
  8
その他
  6
Continuous
 62
     2
370
     9
100
AcDbCircle
 10
38.03923924567482
 20
227.8336500767117
 30
0.0
 40
7.300000667572021
100
AcDbArc
 50
118.0275573730469
 51
243.5666198730468
  0
ARC
  5
250
330
1F
100
AcDbEntity
  8
その他
  6
Continuous
 62
     2
370
     9
100
AcDbCircle
 10
42.7392590821006
 20
219.360093558157
 30
0.0
 40
2.400000095367432
100
AcDbArc
 50
122.0298156738281
 51
180.0
  0
ARC
  5
251
330
1F
100
AcDbEntity
  8
その他
  6
Continuous
 62
     2
370
     9
100
AcDbCircle
 10
33.33922322394625
 20
236.3072065952664
 30
0.0
 40
2.400000095367432
100
AcDbArc
 50
302.0298156738281
 51
0.0
  0
ARC
  5
252
330
1F
100
AcDbEntity
  8
その他
  6
Continuous
 62
     2
370
     9
100
AcDbCircle
 10
38.03923924567482
 20
227.8336500767117
 30
0.0
 40
7.300000667572021
100
AcDbArc
 50
298.0275573730469
 51
61.97244262695312
  0
ARC
  5
253
330
1F
100
AcDbEntity
  8
その他
  6
Continuous
 62
     2
370
     9
100
AcDbCircle
 10
42.7392590821006
 20
236.3072065952664
 30
0.0
 40
2.400000095367432
100
AcDbArc
 50
180.0
 51
237.9701843261718
  0
CIRCLE
  5
254
330
1F
100
AcDbEntity
  8
その他
  6
Continuous
 62
     2
370
     9
100
AcDbCircle
 10
38.03923924567482
 20
227.8336500767117
 30
0.0
 40
5.0
  0
CIRCLE
  5
255
330
1F
100
AcDbEntity
  8
その他
  6
Continuous
 62
     2
370
     9
100
AcDbCircle
 10
38.03923924567482
 20
227.8336500767117
 30
0.0
 40
3.799999713897705
  0
ELLIPSE
  5
256
330
1F
100
AcDbEntity
  8
ハッチ
  6
Continuous
 62
     4
370
     9
100
AcDbEllipse
 10
-11.53186318053099
 20
227.8336500767117
 30
0.0
 11
7.653789711389854E-16
 21
-12.49999999999999
 31
0.0
210
0.0
220
0.0
230
1.0
 40
0.4999962141896503
 41
0.0
 42
6.283185307179586
  0
ELLIPSE
  5
257
330
1F
100
AcDbEntity
  8
ハッチ
  6
Continuous
 62
     4
370
     9
100
AcDbEllipse
 10
-8.76056191099974
 20
227.8336500767117
 30
0.0
 11
6.316494094264765E-15
 21
12.49999999999999
 31
0.0
210
0.0
220
0.0
230
1.0
 40
0.4999962141896503
 41
0.2235634380068037
 42
2.918029215582992
  0
LINE
  5
258
330
1F
100
AcDbEntity
  8
ハッチ
  6
Continuous
 62
     4
370
     9
100
AcDbLine
 10
-33.660778449639
 20
202.8336516876481
 30
0.0
 11
-33.660778449639
 21
252.8336484657754
 31
0.0
  0
LINE
  5
259
330
1F
100
AcDbEntity
  8
087
  6
Continuous
 62
     4
370
     9
100
AcDbLine
 10
8.739309886377669
 20
202.8336516876481
 30
0.0
 11
-33.660778449639
 21
202.8336516876481
 31
0.0
  0
LINE
  5
25A
330
1F
100
AcDbEntity
  8
ハッチ
  6
Continuous
 62
     4
370
     9
100
AcDbLine
 10
5.968004316106772
 20
202.8336516876481
 30
0.0
 11
5.968004316106772
 21
252.8336484657754
 31
0.0
  0
LINE
  5
25B
330
1F
100
AcDbEntity
  8
087
  6
Continuous
 62
     4
370
     9
100
AcDbLine
 10
8.739309886377669
 20
252.8336484657754
 30
0.0
 11
-33.660778449639
 21
252.8336484657754
 31
0.0
  0
LINE
  5
25C
330
1F
100
AcDbEntity
  8
ハッチ
  6
Continuous
 62
     4
370
     9
100
AcDbLine
 10
8.739309886377669
 20
202.8336516876481
 30
0.0
 11
8.739309886377669
 21
252.8336484657754
 31
0.0
  0
LINE
  5
25D
330
1F
100
AcDbEntity
  8
087
  6
JWW_DASHED1
 62
     4
370
     9
100
AcDbLine
 10
-30.46074373736678
 20
202.8336516876481
 30
0.0
 11
-30.46074373736678
 21
252.8336484657754
 31
0.0
  0
LINE
  5
25E
330
1F
100
AcDbEntity
  8
躯体
  6
Continuous
 62
     2
370
     9
100
AcDbLine
 10
-30.46080322307841
 20
324.8336500767117
 30
0.0
 11
-30.46080322307841
 21
252.8336484657754
 31
0.0
  0
LINE
  5
25F
330
1F
100
AcDbEntity
  8
躯体
  6
Continuous
 62
     2
370
     9
100
AcDbLine
 10
-30.46080322307841
 20
202.8336516876481
 30
0.0
 11
-30.46080322307841
 21
130.8336500767118
 31
0.0
  0
LINE
  5
260
330
1F
100
AcDbEntity
  8
021
  6
Continuous
 62
     6
370
     9
100
AcDbLine
 10
-32.96080074868007
 20
134.3336360551218
 30
0.0
 11
-32.96080074868007
 21
199.8336516876481
 31
0.0
  0
LINE
  5
261
330
1F
100
AcDbEntity
  8
021
  6
Continuous
 62
     6
370
     9
100
AcDbLine
 10
-32.96080074868007
 20
199.8336516876481
 30
0.0
 11
-33.660778449639
 21
202.8336516876481
 31
0.0
  0
LINE
  5
262
330
1F
100
AcDbEntity
  8
021
  6
Continuous
 62
     6
370
     9
100
AcDbLine
 10
-32.96080074868007
 20
255.8336484657754
 30
0.0
 11
-33.660778449639
 21
252.8336484657754
 31
0.0
  0
LINE
  5
263
330
1F
100
AcDbEntity
  8
021
  6
Continuous
 62
     6
370
     9
100
AcDbLine
 10
-32.96080074868007
 20
255.8336484657754
 30
0.0
 11
-32.96080074868007
 21
321.3335650045441
 31
0.0
  0
LINE
  5
264
330
1F
100
AcDbEntity
  8
通り芯
  6
JWW_CENTER1
 62
     3
370
     9
100
AcDbLine
 10
-159.7019148311638
 20
227.8336500767117
 30
0.0
 11
134.6439747560389
 21
227.8336500767117
 31
0.0
  0
LINE
  5
265
330
1F
100
AcDbEntity
  8
087
  6
Continuous
 62
     4
370
     9
100
AcDbLine
 10
-82.56406386723256
 20
294.8086930016295
 30
0.0
 11
-139.7417813045756
 21
294.8087993054534
 31
0.0
  0
LINE
  5
266
330
1F
100
AcDbEntity
  8
087
  6
Continuous
 62
     4
370
     9
100
AcDbLine
 10
-139.7382882492267
 20
160.8087550289494
 30
0.0
 11
-139.7417813045756
 21
294.8087993054534
 31
0.0
  0
LINE
  5
267
330
1F
100
AcDbEntity
  8
087
  6
Continuous
 62
     4
370
     9
100
AcDbLine
 10
-82.56406386723256
 20
160.8088620855083
 30
0.0
 11
-139.7382882492267
 21
160.8087550289494
 31
0.0
  0
LINE
  5
268
330
1F
100
AcDbEntity
  8
その他
  6
Continuous
 62
     7
370
     9
100
AcDbLine
 10
162.8789459930245
 20
122.833607304971
 30
0.0
 11
162.8789459930245
 21
332.8335968513748
 31
0.0
  0
LINE
  5
269
330
1F
100
AcDbEntity
  8
その他
  6
Continuous
 62
     7
370
     9
100
AcDbLine
 10
162.8789459930245
 20
122.833607304971
 30
0.0
 11
161.8999995513742
 21
130.2694437652746
 31
0.0
  0
LINE
  5
26A
330
1F
100
AcDbEntity
  8
その他
  6
Continuous
 62
     7
370
     9
100
AcDbLine
 10
162.8789459930245
 20
122.833607304971
 30
0.0
 11
163.8578924346749
 21
130.2694437652746
 31
0.0
  0
LINE
  5
26B
330
1F
100
AcDbEntity
  8
その他
  6
Continuous
 62
     7
370
     9
100
AcDbLine
 10
162.8789459930245
 20
332.8335968513748
 30
0.0
 11
161.8999995513742
 21
325.3977603910712
 31
0.0
  0
LINE
  5
26C
330
1F
100
AcDbEntity
  8
その他
  6
Continuous
 62
     7
370
     9
100
AcDbLine
 10
162.8789459930245
 20
332.8335968513748
 30
0.0
 11
163.8578924346749
 21
325.3977603910712
 31
0.0
  0
LINE
  5
26D
330
1F
100
AcDbEntity
  8
その他
  6
Continuous
 62
     7
370
     9
100
AcDbLine
 10
163.7789459930245
 20
122.833607304971
 30
0.0
 11
86.53920726365705
 21
122.833607304971
 31
0.0
  0
LINE
  5
26E
330
1F
100
AcDbEntity
  8
その他
  6
Continuous
 62
     7
370
     9
100
AcDbLine
 10
163.7789459930245
 20
332.8335968513748
 30
0.0
 11
86.53920726365702
 21
332.8335968513748
 31
0.0
  0
TEXT
  5
26F
330
1F
100
AcDbEntity
  8
その他
  6
Continuous
 62
     2
370
   211
100
AcDbText
 10
159.3869459930245
 20
218.0836020781729
 30
0.0
 40
9.144
  1
210
 50
90.0
 41
1.083333333333333
  7
ＭＳ ゴシック
100
AcDbText
  0
TEXT
  5
270
330
1F
100
AcDbEntity
  8
1-5ﾚｲﾔ
  6
Continuous
 62
     7
370
     9
100
AcDbText
 10
94.21491741971307
 20
13.54024237854996
 30
0.0
 40
6.858000000000001
  1
（別途）
 41
1.125
  7
ＭＳ ゴシック
100
AcDbText
  0
TEXT
  5
271
330
1F
100
AcDbEntity
  8
1-5ﾚｲﾔ
  6
Continuous
 62
     7
370
     9
100
AcDbText
 10
94.21491741971307
 20
24.78752740235698
 30
0.0
 40
6.858000000000001
  1
蝶ナット：ＳＰＨＣ
 41
1.148148148148148
  7
ＭＳ ゴシック
100
AcDbText
  0
LINE
  5
272
330
1F
100
AcDbEntity
  8
1-5ﾚｲﾔ
  6
Continuous
 62
     7
370
     9
100
AcDbLine
 10
94.05031228876187
 20
22.62960615629399
 30
0.0
 11
187.2149174197131
 21
22.62960615629399
 31
0.0
  0
LINE
  5
273
330
1F
100
AcDbEntity
  8
1-5ﾚｲﾔ
  6
Continuous
 62
     7
370
     9
100
AcDbLine
 10
-299.8757488970848
 20
-247.2644092221336
 30
0.0
 11
-173.327968574583
 21
-247.2644092221336
 31
0.0
  0
TEXT
  5
274
330
1F
100
AcDbEntity
  8
1-5ﾚｲﾔ
  6
Continuous
 62
     7
370
     9
100
AcDbText
 10
-299.8757488970848
 20
-256.124026371587
 30
0.0
 40
6.858000000000001
  1
（別途）
 41
1.125
  7
ＭＳ ゴシック
100
AcDbText
  0
TEXT
  5
275
330
1F
100
AcDbEntity
  8
1-5ﾚｲﾔ
  6
Continuous
 62
     7
370
     9
100
AcDbText
 10
-298.9880592606489
 20
-244.7402122538462
 30
0.0
 40
6.858000000000001
  1
長ネジボルトＡ：ＳＷＲＭ
 41
1.152777777777777
  7
ＭＳ ゴシック
100
AcDbText
  0
LINE
  5
276
330
1F
100
AcDbEntity
  8
1-5ﾚｲﾔ
  6
Continuous
 62
     7
370
     9
100
AcDbLine
 10
-173.327968574583
 20
-247.2644092221336
 30
0.0
 11
-123.991404529591
 21
-197.9278451771415
 31
0.0
  0
LINE
  5
277
330
1F
100
AcDbEntity
  8
1-5ﾚｲﾔ
  6
Continuous
 62
     7
370
     9
100
AcDbLine
 10
-123.9914045295911
 20
-197.9278451771415
 30
0.0
 11
-129.9415545817754
 21
-202.4935558947069
 31
0.0
  0
LINE
  5
278
330
1F
100
AcDbEntity
  8
1-5ﾚｲﾔ
  6
Continuous
 62
     7
370
     9
100
AcDbLine
 10
-123.9914045295911
 20
-197.9278451771415
 30
0.0
 11
-128.5571152471565
 21
-203.8779952293258
 31
0.0
  0
LINE
  5
279
330
1F
100
AcDbEntity
  8
躯体
  6
Continuous
 62
     2
370
     9
100
AcDbLine
 10
120.5392060669615
 20
-207.2065058766106
 30
0.0
 11
116.7892060669616
 21
-222.2065058766106
 31
0.0
  0
LINE
  5
27A
330
1F
100
AcDbEntity
  8
躯体
  6
Continuous
 62
     2
370
     9
100
AcDbLine
 10
-30.4607344473269
 20
-207.2065058766106
 30
0.0
 11
-26.71073444732695
 21
-222.2065058766106
 31
0.0
  0
ARC
  5
27B
330
1F
100
AcDbEntity
  8
通り芯
  6
Continuous
 62
     3
370
     9
100
AcDbCircle
 10
-19.46080294691774
 20
-207.2065148904899
 30
0.0
 40
14.9999985897403
100
AcDbArc
 50
222.8338071065149
 51
238.6845889572802
  0
LINE
  5
27C
330
1F
100
AcDbEntity
  8
躯体
  6
JWW_DASHED1
 62
     2
370
     9
100
AcDbLine
 10
-49.46079393303864
 20
-207.2065058766106
 30
0.0
 11
-49.46079393303864
 21
-222.2065058766106
 31
0.0
  0
LINE
  5
27D
330
1F
100
AcDbEntity
  8
躯体
  6
JWW_DASHED1
 62
     2
370
     9
100
AcDbLine
 10
-49.46079393303864
 20
-207.2065058766106
 30
0.0
 11
-30.4607344473269
 21
-207.2065058766106
 31
0.0
  0
LINE
  5
27E
330
1F
100
AcDbEntity
  8
躯体
  6
Continuous
 62
     2
370
     9
100
AcDbLine
 10
33.03920606696153
 20
-207.2065058766106
 30
0.0
 11
33.03920606696153
 21
-222.2065058766106
 31
0.0
  0
LINE
  5
27F
330
1F
100
AcDbEntity
  8
躯体
  6
Continuous
 62
     2
370
     9
100
AcDbLine
 10
43.03920606696147
 20
-207.2065058766106
 30
0.0
 11
43.03920606696147
 21
-222.2065058766106
 31
0.0
  0
LINE
  5
280
330
1F
100
AcDbEntity
  8
躯体
  6
Continuous
 62
     2
370
     9
100
AcDbLine
 10
120.5392060669615
 20
-207.2065058766106
 30
0.0
 11
41.53908461524844
 21
-207.2065058766106
 31
0.0
  0
LINE
  5
281
330
1F
100
AcDbEntity
  8
躯体
  6
Continuous
 62
     2
370
     9
100
AcDbLine
 10
33.53904738144655
 20
-207.2065058766106
 30
0.0
 11
-30.4607344473269
 21
-207.2065058766106
 31
0.0
  0
LINE
  5
282
330
1F
100
AcDbEntity
  8
建具
  6
Continuous
 62
     6
370
     9
100
AcDbLine
 10
25.53901014764483
 20
-207.2065058766106
 30
0.0
 11
23.23904403511767
 21
-207.2065058766106
 31
0.0
  0
LINE
  5
283
330
1F
100
AcDbEntity
  8
建具
  6
Continuous
 62
     6
370
     9
100
AcDbLine
 10
51.83898886782004
 20
-207.2065058766106
 30
0.0
 11
49.53902275529288
 21
-207.2065058766106
 31
0.0
  0
LINE
  5
284
330
1F
100
AcDbEntity
  8
建具
  6
Continuous
 62
     6
370
     9
100
AcDbLine
 10
25.53901014764483
 20
-202.0065609496455
 30
0.0
 11
25.53901014764483
 21
-207.2065058766106
 31
0.0
  0
LINE
  5
285
330
1F
100
AcDbEntity
  8
建具
  6
Continuous
 62
     6
370
     9
100
AcDbLine
 10
49.53902275529288
 20
-202.0065609496455
 30
0.0
 11
49.53902275529288
 21
-207.2065058766106
 31
0.0
  0
LINE
  5
286
330
1F
100
AcDbEntity
  8
建具
  6
Continuous
 62
     6
370
     9
100
AcDbLine
 10
23.23904403511767
 20
-202.4066024488386
 30
0.0
 11
23.23904403511767
 21
-207.2065058766106
 31
0.0
  0
LINE
  5
287
330
1F
100
AcDbEntity
  8
建具
  6
Continuous
 62
     6
370
     9
100
AcDbLine
 10
51.83898886782004
 20
-202.4066024488386
 30
0.0
 11
51.83898886782004
 21
-207.2065058766106
 31
0.0
  0
LINE
  5
288
330
1F
100
AcDbEntity
  8
建具
  6
Continuous
 62
     6
370
     9
100
AcDbLine
 10
33.28903383117057
 20
-199.2065677365663
 30
0.0
 11
33.28903383117057
 21
-201.5065338490934
 31
0.0
  0
LINE
  5
289
330
1F
100
AcDbEntity
  8
建具
  6
Continuous
 62
     6
370
     9
100
AcDbLine
 10
41.78899907176697
 20
-199.2065677365663
 30
0.0
 11
41.78899907176697
 21
-201.5065338490934
 31
0.0
  0
LINE
  5
28A
330
1F
100
AcDbEntity
  8
建具
  6
Continuous
 62
     6
370
     9
100
AcDbLine
 10
49.03899565474092
 20
-201.5065338490934
 30
0.0
 11
41.53908461524844
 21
-201.5065338490934
 31
0.0
  0
LINE
  5
28B
330
1F
100
AcDbEntity
  8
建具
  6
Continuous
 62
     6
370
     9
100
AcDbLine
 10
33.53904738144655
 20
-201.5065338490934
 30
0.0
 11
26.03903724819679
 21
-201.5065338490934
 31
0.0
  0
LINE
  5
28C
330
1F
100
AcDbEntity
  8
建具
  6
Continuous
 62
     6
370
     9
100
AcDbLine
 10
48.63900370242646
 20
-199.2065677365663
 30
0.0
 11
41.53908461524844
 21
-199.2065677365663
 31
0.0
  0
LINE
  5
28D
330
1F
100
AcDbEntity
  8
建具
  6
Continuous
 62
     6
370
     9
100
AcDbLine
 10
33.53904738144655
 20
-199.2065677365663
 30
0.0
 11
26.43902920051107
 21
-199.2065677365663
 31
0.0
  0
LINE
  5
28E
330
1F
100
AcDbEntity
  8
090
  6
Continuous
 62
     2
370
     9
100
AcDbLine
 10
26.55095559965366
 20
-188.2065413135281
 30
0.0
 11
23.5390999329519
 21
-188.2065413135281
 31
0.0
  0
LINE
  5
28F
330
1F
100
AcDbEntity
  8
090
  6
Continuous
 62
     2
370
     9
100
AcDbLine
 10
29.93510651343706
 20
-190.0740622681462
 30
0.0
 11
32.53909227410008
 21
-194.2065196920007
 31
0.0
  0
LINE
  5
290
330
1F
100
AcDbEntity
  8
090
  6
Continuous
 62
     2
370
     9
100
AcDbLine
 10
32.53909227410008
 20
-196.1065433990923
 30
0.0
 11
32.53909227410008
 21
-198.006567106184
 31
0.0
  0
LINE
  5
291
330
1F
100
AcDbEntity
  8
090
  6
Continuous
 62
     2
370
     9
100
AcDbLine
 10
33.73911767792191
 20
-196.1065433990923
 30
0.0
 11
33.73911767792191
 21
-198.006567106184
 31
0.0
  0
LINE
  5
292
330
1F
100
AcDbEntity
  8
090
  6
Continuous
 62
     2
370
     9
100
AcDbLine
 10
48.52727549079896
 20
-188.2065413135281
 30
0.0
 11
51.53913115750089
 21
-188.2065413135281
 31
0.0
  0
LINE
  5
293
330
1F
100
AcDbEntity
  8
090
  6
Continuous
 62
     2
370
     9
100
AcDbLine
 10
45.14312457701556
 20
-190.0740622681462
 30
0.0
 11
42.53913881635253
 21
-194.2065196920007
 31
0.0
  0
LINE
  5
294
330
1F
100
AcDbEntity
  8
090
  6
Continuous
 62
     2
370
     9
100
AcDbLine
 10
42.53913881635253
 20
-196.1065433990923
 30
0.0
 11
42.53913881635253
 21
-198.006567106184
 31
0.0
  0
LINE
  5
295
330
1F
100
AcDbEntity
  8
090
  6
Continuous
 62
     2
370
     9
100
AcDbLine
 10
41.33911341253071
 20
-196.1065433990923
 30
0.0
 11
41.33911341253071
 21
-198.006567106184
 31
0.0
  0
LINE
  5
296
330
1F
100
AcDbEntity
  8
090
  6
Continuous
 62
     2
370
     9
100
AcDbLine
 10
32.53909227410008
 20
-196.1065433990923
 30
0.0
 11
33.73911767792191
 21
-196.1065433990923
 31
0.0
  0
LINE
  5
297
330
1F
100
AcDbEntity
  8
090
  6
Continuous
 62
     2
370
     9
100
AcDbLine
 10
41.33911341253071
 20
-196.1065433990923
 30
0.0
 11
42.53913881635253
 21
-196.1065433990923
 31
0.0
  0
LINE
  5
298
330
1F
100
AcDbEntity
  8
090
  6
Continuous
 62
     2
370
     9
100
AcDbLine
 10
32.53909227410008
 20
-194.2065196920007
 30
0.0
 11
33.53909692832536
 21
-194.2065196920007
 31
0.0
  0
LINE
  5
299
330
1F
100
AcDbEntity
  8
090
  6
Continuous
 62
     2
370
     9
100
AcDbLine
 10
41.53908461524844
 20
-194.2065196920007
 30
0.0
 11
42.53913881635253
 21
-194.2065196920007
 31
0.0
  0
LINE
  5
29A
330
1F
100
AcDbEntity
  8
090
  6
Continuous
 62
     2
370
     9
100
AcDbLine
 10
43.33912272098109
 20
-199.206542963127
 30
0.0
 11
42.53913881635253
 21
-199.206542963127
 31
0.0
  0
LINE
  5
29B
330
1F
100
AcDbEntity
  8
090
  6
Continuous
 62
     2
370
     9
100
AcDbLine
 10
32.53909227410008
 20
-199.206542963127
 30
0.0
 11
31.73910836947152
 21
-199.206542963127
 31
0.0
  0
ARC
  5
29C
330
1F
100
AcDbEntity
  8
建具
  6
Continuous
 62
     6
370
     9
100
AcDbCircle
 10
26.03903724819679
 20
-202.0065609496455
 30
0.0
 40
0.5000000046026752
100
AcDbArc
 50
90.0
 51
180.0
  0
ARC
  5
29D
330
1F
100
AcDbEntity
  8
建具
  6
Continuous
 62
     6
370
     9
100
AcDbCircle
 10
49.03899565474092
 20
-202.0065609496455
 30
0.0
 40
0.5000000046026752
100
AcDbArc
 50
0.0
 51
90.0
  0
ARC
  5
29E
330
1F
100
AcDbEntity
  8
建具
  6
Continuous
 62
     6
370
     9
100
AcDbCircle
 10
26.43902920051107
 20
-202.4066024488386
 30
0.0
 40
3.20000006816562
100
AcDbArc
 50
90.0
 51
180.0
  0
ARC
  5
29F
330
1F
100
AcDbEntity
  8
建具
  6
Continuous
 62
     6
370
     9
100
AcDbCircle
 10
48.63900370242646
 20
-202.4066024488386
 30
0.0
 40
3.20000006816562
100
AcDbArc
 50
0.0
 51
90.0
  0
ARC
  5
2A0
330
1F
100
AcDbEntity
  8
090
  6
Continuous
 62
     2
370
     9
100
AcDbCircle
 10
26.55095559965366
 20
-192.206559930429
 30
0.0
 40
4.000000036821402
100
AcDbArc
 50
32.21649169921875
 51
90.0
  0
ARC
  5
2A1
330
1F
100
AcDbEntity
  8
090
  6
Continuous
 62
     2
370
     9
100
AcDbCircle
 10
35.06400121624546
 20
-188.1716107639949
 30
0.0
 40
11.52495470102229
100
AcDbArc
 50
180.1736297607422
 51
253.2320861816407
  0
ARC
  5
2A2
330
1F
100
AcDbEntity
  8
090
  6
Continuous
 62
     2
370
     9
100
AcDbCircle
 10
32.53909227410008
 20
-198.006567106184
 30
0.0
 40
1.200000049754919
100
AcDbArc
 50
270.0
 51
0.0
  0
ARC
  5
2A3
330
1F
100
AcDbEntity
  8
090
  6
Continuous
 62
     2
370
     9
100
AcDbCircle
 10
35.06400121624546
 20
-188.1716107639949
 30
0.0
 40
10.32495484480987
100
AcDbArc
 50
180.1736297607422
 51
255.4090576171875
  0
ARC
  5
2A4
330
1F
100
AcDbEntity
  8
090
  6
Continuous
 62
     2
370
     9
100
AcDbCircle
 10
32.33912107138235
 20
-198.006567106184
 30
0.0
 40
0.2000000042603513
100
AcDbArc
 50
308.2657165527344
 51
0.0
  0
ARC
  5
2A5
330
1F
100
AcDbEntity
  8
090
  6
Continuous
 62
     2
370
     9
100
AcDbCircle
 10
48.52727549079896
 20
-192.206559930429
 30
0.0
 40
4.000000036821402
100
AcDbArc
 50
90.0
 51
147.7835083007812
  0
ARC
  5
2A6
330
1F
100
AcDbEntity
  8
090
  6
Continuous
 62
     2
370
     9
100
AcDbCircle
 10
40.01422987420733
 20
-188.1716107639949
 30
0.0
 40
11.52495470102229
100
AcDbArc
 50
286.7679138183594
 51
359.8263702392579
  0
ARC
  5
2A7
330
1F
100
AcDbEntity
  8
090
  6
Continuous
 62
     2
370
     9
100
AcDbCircle
 10
42.53913881635253
 20
-198.006567106184
 30
0.0
 40
1.200000049754919
100
AcDbArc
 50
180.0
 51
270.0
  0
ARC
  5
2A8
330
1F
100
AcDbEntity
  8
090
  6
Continuous
 62
     2
370
     9
100
AcDbCircle
 10
40.01422987420733
 20
-188.1716107639949
 30
0.0
 40
10.32495484480987
100
AcDbArc
 50
284.5909423828125
 51
359.8263702392578
  0
ARC
  5
2A9
330
1F
100
AcDbEntity
  8
090
  6
Continuous
 62
     2
370
     9
100
AcDbCircle
 10
42.73911001907027
 20
-198.006567106184
 30
0.0
 40
0.2000000042603513
100
AcDbArc
 50
180.0
 51
231.7342834472656
  0
TEXT
  5
2AA
330
1F
100
AcDbEntity
  8
1-5ﾚｲﾔ
  6
Continuous
 62
     7
370
     9
100
AcDbText
 10
179.0085007532251
 20
-87.13203744159733
 30
0.0
 40
6.858000000000001
  1
ＳＰＨＣ
 41
1.125
  7
ＭＳ ゴシック
100
AcDbText
  0
LINE
  5
2AB
330
1F
100
AcDbEntity
  8
1-5ﾚｲﾔ
  6
Continuous
 62
     7
370
     9
100
AcDbLine
 10
178.8683990076876
 20
-77.77714402285703
 30
0.0
 11
251.0085007532251
 21
-77.77714402285703
 31
0.0
  0
TEXT
  5
2AC
330
1F
100
AcDbEntity
  8
1-5ﾚｲﾔ
  6
Continuous
 62
     7
370
     9
100
AcDbText
 10
179.0085007532251
 20
-75.59873478693248
 30
0.0
 40
6.858000000000001
  1
固定プレートＢ
 41
1.142857142857143
  7
ＭＳ ゴシック
100
AcDbText
  0
TEXT
  5
2AD
330
1F
100
AcDbEntity
  8
1-5ﾚｲﾔ
  6
Continuous
 62
     7
370
     9
100
AcDbText
 10
176.2192355687504
 20
-32.28477942407263
 30
0.0
 40
6.858000000000001
  1
蝶ナット：ＳＰＨＣ
 41
1.148148148148148
  7
ＭＳ ゴシック
100
AcDbText
  0
LINE
  5
2AE
330
1F
100
AcDbEntity
  8
1-5ﾚｲﾔ
  6
Continuous
 62
     7
370
     9
100
AcDbLine
 10
176.0546304377992
 20
-34.44270067013561
 30
0.0
 11
269.2192355687504
 21
-34.44270067013561
 31
0.0
  0
TEXT
  5
2AF
330
1F
100
AcDbEntity
  8
1-5ﾚｲﾔ
  6
Continuous
 62
     7
370
     9
100
AcDbText
 10
176.2192355687504
 20
-43.53206444787964
 30
0.0
 40
6.858000000000001
  1
（別途）
 41
1.125
  7
ＭＳ ゴシック
100
AcDbText
  0
LINE
  5
2B0
330
1F
100
AcDbEntity
  8
1-5ﾚｲﾔ
  6
Continuous
 62
     7
370
     9
100
AcDbLine
 10
176.0546304377992
 20
-34.44270067013561
 30
0.0
 11
51.53913165618832
 21
-188.2065360600906
 31
0.0
  0
LINE
  5
2B1
330
1F
100
AcDbEntity
  8
1-5ﾚｲﾔ
  6
Continuous
 62
     7
370
     9
100
AcDbLine
 10
178.8683990076876
 20
-77.77714402285703
 30
0.0
 11
51.83898886782004
 21
-204.8065541627246
 31
0.0
  0
TEXT
  5
2B2
330
1F
100
AcDbEntity
  8
1-5ﾚｲﾔ
  6
Continuous
 62
     7
370
     9
100
AcDbText
 10
205.5471818163397
 20
-124.3767251306933
 30
0.0
 40
6.858000000000001
  1
特殊発泡樹脂
 41
1.138888888888889
  7
ＭＳ ゴシック
100
AcDbText
  0
TEXT
  5
2B3
330
1F
100
AcDbEntity
  8
1-5ﾚｲﾔ
  6
Continuous
 62
     7
370
     9
100
AcDbText
 10
205.5471818163397
 20
-113.01530231084
 30
0.0
 40
6.858000000000001
  1
抜型本体
 41
1.125
  7
ＭＳ ゴシック
100
AcDbText
  0
LINE
  5
2B4
330
1F
100
AcDbEntity
  8
1-5ﾚｲﾔ
  6
Continuous
 62
     7
370
     9
100
AcDbLine
 10
205.4923312977599
 20
-115.1069898910183
 30
0.0
 11
267.0471818163397
 21
-115.1069898910183
 31
0.0
  0
LINE
  5
2B5
330
1F
100
AcDbEntity
  8
寸法
  6
Continuous
 62
     7
370
     9
100
AcDbLine
 10
205.4923312977599
 20
-115.1069898910183
 30
0.0
 11
113.3928071102001
 21
-207.2065140785781
 31
0.0
  0
LINE
  5
2B6
330
1F
100
AcDbEntity
  8
寸法
  6
Continuous
 62
     7
370
     9
100
AcDbLine
 10
113.3928071102
 20
-207.2065140785783
 30
0.0
 11
119.3429571623843
 21
-202.6408033610128
 31
0.0
  0
LINE
  5
2B7
330
1F
100
AcDbEntity
  8
寸法
  6
Continuous
 62
     7
370
     9
100
AcDbLine
 10
113.3928071102
 20
-207.2065140785783
 30
0.0
 11
117.9585178277654
 21
-201.256364026394
 31
0.0
  0
LINE
  5
2B8
330
1F
100
AcDbEntity
  8
1-5ﾚｲﾔ
  6
Continuous
 62
     7
370
     9
100
AcDbLine
 10
51.83898886782004
 20
-204.8065541627246
 30
0.0
 11
57.78913892000435
 21
-200.2408434451592
 31
0.0
  0
LINE
  5
2B9
330
1F
100
AcDbEntity
  8
1-5ﾚｲﾔ
  6
Continuous
 62
     7
370
     9
100
AcDbLine
 10
51.83898886782004
 20
-204.8065541627246
 30
0.0
 11
56.40469958538563
 21
-198.8564041105403
 31
0.0
  0
LINE
  5
2BA
330
1F
100
AcDbEntity
  8
1-5ﾚｲﾔ
  6
Continuous
 62
     7
370
     9
100
AcDbLine
 10
51.53913165618832
 20
-188.2065360600906
 30
0.0
 11
56.97943943878056
 21
-183.0438767423875
 31
0.0
  0
LINE
  5
2BB
330
1F
100
AcDbEntity
  8
1-5ﾚｲﾔ
  6
Continuous
 62
     7
370
     9
100
AcDbLine
 10
51.53913165618832
 20
-188.2065360600906
 30
0.0
 11
55.45787089155772
 21
-181.8117348274349
 31
0.0
  0
LINE
  5
2BC
330
1F
100
AcDbEntity
  8
その他
  6
Continuous
 62
     7
370
     9
100
AcDbLine
 10
157.0958606344921
 20
-207.2065058766106
 30
0.0
 11
156.1169141928417
 21
-214.6423423369142
 31
0.0
  0
LINE
  5
2BD
330
1F
100
AcDbEntity
  8
その他
  6
Continuous
 62
     7
370
     9
100
AcDbLine
 10
157.0958606344921
 20
-207.2065058766106
 30
0.0
 11
158.0748070761425
 21
-214.6423423369142
 31
0.0
  0
LINE
  5
2BE
330
1F
100
AcDbEntity
  8
その他
  6
Continuous
 62
     7
370
     9
100
AcDbLine
 10
157.9958606344921
 20
-207.2065058766106
 30
0.0
 11
131.5392060669615
 21
-207.2065058766106
 31
0.0
  0
LINE
  5
2BF
330
1F
100
AcDbEntity
  8
その他
  6
Continuous
 62
     7
370
     9
100
AcDbLine
 10
157.0958606344921
 20
-237.2065058766106
 30
0.0
 11
157.0958606344921
 21
-207.2065058766106
 31
0.0
  0
TEXT
  5
2C0
330
1F
100
AcDbEntity
  8
その他
  6
Continuous
 62
     2
370
   211
100
AcDbText
 10
153.6038606344921
 20
-228.5815058766106
 30
0.0
 40
9.144
  1
30
 50
90.0
 41
1.0625
  7
ＭＳ ゴシック
100
AcDbText
  0
LINE
  5
2C1
330
1F
100
AcDbEntity
  8
その他
  6
Continuous
 62
     7
370
     9
100
AcDbLine
 10
120.5392060669615
 20
-40.64644432732823
 30
0.0
 11
113.1033696066579
 21
-39.66749788567785
 31
0.0
  0
LINE
  5
2C2
330
1F
100
AcDbEntity
  8
その他
  6
Continuous
 62
     7
370
     9
100
AcDbLine
 10
120.5392060669615
 20
-40.64644432732823
 30
0.0
 11
113.1033696066579
 21
-41.62539076897862
 31
0.0
  0
LINE
  5
2C3
330
1F
100
AcDbEntity
  8
その他
  6
Continuous
 62
     7
370
     9
100
AcDbLine
 10
-49.46079393303864
 20
-40.64644432732823
 30
0.0
 11
120.5392060669615
 21
-40.64644432732823
 31
0.0
  0
TEXT
  5
2C4
330
1F
100
AcDbEntity
  8
その他
  6
Continuous
 62
     2
370
   211
100
AcDbText
 10
25.78920606696143
 20
-37.15444432732823
 30
0.0
 40
9.144
  1
170
 41
1.083333333333333
  7
ＭＳ ゴシック
100
AcDbText
  0
LINE
  5
2C5
330
1F
100
AcDbEntity
  8
その他
  6
Continuous
 62
     7
370
     9
100
AcDbLine
 10
120.5392060669615
 20
-39.74644432732823
 30
0.0
 11
120.5392060669615
 21
-194.3240087226328
 31
0.0
  0
ARC
  5
2C6
330
1F
100
AcDbEntity
  8
躯体
  6
Continuous
 62
     2
370
     9
100
AcDbCircle
 10
80.53919677692159
 20
322.8336500767118
 30
0.0
 40
40.0
100
AcDbArc
 50
0.0
 51
90.0
  0
LINE
  5
2C7
330
1F
100
AcDbEntity
  8
躯体
  6
Continuous
 62
     2
370
     9
100
AcDbLine
 10
120.5391967769217
 20
132.8336500767118
 30
0.0
 11
120.5391967769217
 21
322.8336500767118
 31
0.0
  0
ARC
  5
2C8
330
1F
100
AcDbEntity
  8
躯体
  6
Continuous
 62
     2
370
     9
100
AcDbCircle
 10
80.53919677692176
 20
132.833650076712
 30
0.0
 40
40.0
100
AcDbArc
 50
270.0
 51
0.0
  0
LINE
  5
2C9
330
1F
100
AcDbEntity
  8
躯体
  6
Continuous
 62
     2
370
     9
100
AcDbLine
 10
-49.46080322307836
 20
362.8336500767118
 30
0.0
 11
-49.46080322307836
 21
324.8336500767117
 31
0.0
  0
LINE
  5
2CA
330
1F
100
AcDbEntity
  8
躯体
  6
Continuous
 62
     2
370
     9
100
AcDbLine
 10
80.53919677692176
 20
362.8336500767118
 30
0.0
 11
-49.46080322307836
 21
362.8336500767118
 31
0.0
  0
LINE
  5
2CB
330
1F
100
AcDbEntity
  8
躯体
  6
Continuous
 62
     2
370
     9
100
AcDbLine
 10
80.53919677692176
 20
92.83365007671178
 30
0.0
 11
-49.46080322307836
 21
92.83365007671178
 31
0.0
  0
LINE
  5
2CC
330
1F
100
AcDbEntity
  8
躯体
  6
Continuous
 62
     2
370
     9
100
AcDbLine
 10
-49.46080322307836
 20
130.8336500767118
 30
0.0
 11
-49.46080322307836
 21
92.83365007671178
 31
0.0
  0
LINE
  5
2CD
330
1F
100
AcDbEntity
  8
その他
  6
Continuous
 62
     7
370
     9
100
AcDbLine
 10
195.7074811797894
 20
362.8336500767118
 30
0.0
 11
194.728534738139
 21
355.3978136164082
 31
0.0
  0
LINE
  5
2CE
330
1F
100
AcDbEntity
  8
その他
  6
Continuous
 62
     7
370
     9
100
AcDbLine
 10
195.7074811797894
 20
362.8336500767118
 30
0.0
 11
196.6864276214398
 21
355.3978136164082
 31
0.0
  0
LINE
  5
2CF
330
1F
100
AcDbEntity
  8
その他
  6
Continuous
 62
     7
370
     9
100
AcDbLine
 10
196.6074811797894
 20
362.8336500767118
 30
0.0
 11
96.51273276295971
 21
362.8336500767118
 31
0.0
  0
LINE
  5
2D0
330
1F
100
AcDbEntity
  8
その他
  6
Continuous
 62
     7
370
     9
100
AcDbLine
 10
195.7074811797894
 20
92.83365007671178
 30
0.0
 11
194.728534738139
 21
100.2694865370154
 31
0.0
  0
LINE
  5
2D1
330
1F
100
AcDbEntity
  8
その他
  6
Continuous
 62
     7
370
     9
100
AcDbLine
 10
195.7074811797894
 20
92.83365007671178
 30
0.0
 11
196.6864276214398
 21
100.2694865370154
 31
0.0
  0
LINE
  5
2D2
330
1F
100
AcDbEntity
  8
その他
  6
Continuous
 62
     7
370
     9
100
AcDbLine
 10
196.6074811797894
 20
92.83365007671178
 30
0.0
 11
96.51273276295971
 21
92.83365007671178
 31
0.0
  0
LINE
  5
2D3
330
1F
100
AcDbEntity
  8
その他
  6
Continuous
 62
     7
370
     9
100
AcDbLine
 10
195.7074811797894
 20
92.83365007671178
 30
0.0
 11
195.7074811797894
 21
362.8336500767118
 31
0.0
  0
TEXT
  5
2D4
330
1F
100
AcDbEntity
  8
その他
  6
Continuous
 62
     2
370
   211
100
AcDbText
 10
192.2154811797894
 20
218.0836500767118
 30
0.0
 40
9.144
  1
270
 50
90.0
 41
1.083333333333333
  7
ＭＳ ゴシック
100
AcDbText
  0
TEXT
  5
2D5
330
1F
100
AcDbEntity
  8
F-5ﾚｲﾔ
  6
Continuous
 62
     2
370
     9
100
AcDbText
 10
-250.5001051619245
 20
-404.2404895226635
 30
0.0
 40
9.144
  1
複数回使用抜型　よこ引き排水用　ＣＷ－１００－３０
 41
1.12
  7
ＭＳ ゴシック
100
AcDbText
  0
LINE
  5
2D6
330
1F
100
AcDbEntity
  8
1-5ﾚｲﾔ
  6
Continuous
 62
     7
370
     9
100
AcDbLine
 10
-152.2293833699521
 20
-300.6902117109036
 30
0.0
 11
-320.2900551187095
 21
-300.6902117109036
 31
0.0
  0
TEXT
  5
2D7
330
1F
100
AcDbEntity
  8
1-5ﾚｲﾔ
  6
Continuous
 62
     7
370
     9
100
AcDbText
 10
-320.2900551187095
 20
-309.549828860357
 30
0.0
 40
6.858000000000001
  1
（別途）
 41
1.125
  7
ＭＳ ゴシック
100
AcDbText
  0
TEXT
  5
2D8
330
1F
100
AcDbEntity
  8
1-5ﾚｲﾔ
  6
Continuous
 62
     7
370
     9
100
AcDbText
 10
-320.2900551187095
 20
-298.3143503282762
 30
0.0
 40
6.858000000000001
  1
スペーサー：硬質ポリ塩化ビニル管
 41
1.15625
  7
ＭＳ ゴシック
100
AcDbText
  0
TEXT
  5
2D9
330
1F
100
AcDbEntity
  8
1-5ﾚｲﾔ
  6
Continuous
 62
     7
370
     9
100
AcDbText
 10
126.9558981366919
 20
-267.2875013788764
 30
0.0
 40
6.858000000000001
  1
ゴム部材
 41
1.125
  7
ＭＳ ゴシック
100
AcDbText
  0
ENDSEC
  0
SECTION
  2
OBJECTS
  0
DICTIONARY
  5
C
330
0
100
AcDbDictionary
281
     1
  3
ACAD_GROUP
350
D
  3
ACAD_LAYOUT
350
1A
  3
ACAD_MLEADERSTYLE
350
2DB
  3
ACAD_MLINESTYLE
350
17
  3
ACAD_PLOTSETTINGS
350
19
  3
ACAD_PLOTSTYLENAME
350
E
  3
ACAD_TABLESTYLE
350
2DA
  3
ACAD_VISUALSTYLE
350
2A
  0
DICTIONARY
  5
D
102
{ACAD_REACTORS
330
C
102
}
330
C
100
AcDbDictionary
281
     1
  0
DICTIONARY
  5
1A
102
{ACAD_REACTORS
330
C
102
}
330
C
100
AcDbDictionary
281
     1
  3
Layout1
350
1E
  3
Layout2
350
26
  3
Model
350
22
  0
DICTIONARY
  5
2DB
102
{ACAD_REACTORS
330
C
102
}
330
C
100
AcDbDictionary
281
     1
  0
DICTIONARY
  5
17
102
{ACAD_REACTORS
330
C
102
}
330
C
100
AcDbDictionary
281
     1
  3
Standard
350
18
  0
DICTIONARY
  5
19
102
{ACAD_REACTORS
330
C
102
}
330
C
100
AcDbDictionary
281
     1
  0
ACDBDICTIONARYWDFLT
  5
E
102
{ACAD_REACTORS
330
C
102
}
330
C
100
AcDbDictionary
281
     1
  3
Normal
350
F
100
AcDbDictionaryWithDefault
340
F
  0
DICTIONARY
  5
2DA
102
{ACAD_REACTORS
330
C
102
}
330
C
100
AcDbDictionary
281
     1
  0
DICTIONARY
  5
2A
102
{ACAD_REACTORS
330
C
102
}
330
C
100
AcDbDictionary
281
     1
  3
2dWireframe
350
2F
  3
3D Hidden
350
31
  3
3dWireframe
350
30
  3
Basic
350
32
  3
Brighten
350
36
  3
ColorChange
350
3A
  3
Conceptual
350
34
  3
Dim
350
35
  3
Facepattern
350
39
  3
Flat
350
2B
  3
FlatWithEdges
350
2C
  3
Gouraud
350
2D
  3
GouraudWithEdges
350
2E
  3
Linepattern
350
38
  3
Realistic
350
33
  3
Thicken
350
37
  0
LAYOUT
  5
1E
102
{ACAD_REACTORS
330
1A
102
}
330
1A
100
AcDbPlotSettings
  1

  2
none_device
  4

  6

 40
0.0
 41
0.0
 42
0.0
 43
0.0
 44
0.0
 45
0.0
 46
0.0
 47
0.0
 48
0.0
 49
0.0
140
0.0
141
0.0
142
1.0
143
1.0
 70
   688
 72
     0
 73
     0
 74
     5
  7

 75
    16
 76
     0
 77
     5
 78
   300
147
1.0
148
0.0
149
0.0
100
AcDbLayout
  1
Layout1
 70
     1
 71
     1
 10
0.0
 20
0.0
 11
420.0
 21
297.0
 12
0.0
 22
0.0
 32
0.0
 14
1.000000000000000E+20
 24
1.000000000000000E+20
 34
1.000000000000000E+20
 15
-1.000000000000000E+20
 25
-1.000000000000000E+20
 35
-1.000000000000000E+20
146
0.0
 13
0.0
 23
0.0
 33
0.0
 16
1.0
 26
0.0
 36
0.0
 17
0.0
 27
1.0
 37
0.0
 76
     0
330
1B
  0
LAYOUT
  5
26
102
{ACAD_REACTORS
330
1A
102
}
330
1A
100
AcDbPlotSettings
  1

  2
none_device
  4

  6

 40
0.0
 41
0.0
 42
0.0
 43
0.0
 44
0.0
 45
0.0
 46
0.0
 47
0.0
 48
0.0
 49
0.0
140
0.0
141
0.0
142
1.0
143
1.0
 70
   688
 72
     0
 73
     0
 74
     5
  7

 75
    16
 76
     0
 77
     5
 78
   300
147
1.0
148
0.0
149
0.0
100
AcDbLayout
  1
Layout2
 70
     1
 71
     2
 10
0.0
 20
0.0
 11
0.0
 21
0.0
 12
0.0
 22
0.0
 32
0.0
 14
0.0
 24
0.0
 34
0.0
 15
0.0
 25
0.0
 35
0.0
146
0.0
 13
0.0
 23
0.0
 33
0.0
 16
1.0
 26
0.0
 36
0.0
 17
0.0
 27
1.0
 37
0.0
 76
     0
330
23
  0
LAYOUT
  5
22
102
{ACAD_REACTORS
330
1A
102
}
330
1A
100
AcDbPlotSettings
  1

  2
none_device
  4

  6

 40
0.0
 41
0.0
 42
0.0
 43
0.0
 44
0.0
 45
0.0
 46
0.0
 47
0.0
 48
0.0
 49
0.0
140
0.0
141
0.0
142
1.0
143
1.0
 70
  1712
 72
     0
 73
     0
 74
     0
  7

 75
     0
 76
     0
 77
     5
 78
   300
147
1.0
148
0.0
149
0.0
100
AcDbLayout
  1
Model
 70
     1
 71
     0
 10
-630.0
 20
-445.5
 11
630.0
 21
445.5
 12
0.0
 22
0.0
 32
0.0
 14
-630.0
 24
-445.5
 34
0.0
 15
630.0
 25
445.5
 35
0.0
146
0.0
 13
0.0
 23
0.0
 33
0.0
 16
1.0
 26
0.0
 36
0.0
 17
0.0
 27
1.0
 37
0.0
 76
     0
330
1F
331
29
  0
MLINESTYLE
  5
18
102
{ACAD_REACTORS
330
17
102
}
330
17
100
AcDbMlineStyle
  2
Standard
 70
     0
  3

 62
   256
 51
90.0
 52
90.0
 71
     2
 49
0.5
 62
   256
  6
BYLAYER
 49
-0.5
 62
   256
  6
BYLAYER
  0
ACDBPLACEHOLDER
  5
F
102
{ACAD_REACTORS
330
E
102
}
330
E
  0
VISUALSTYLE
  5
2F
102
{ACAD_REACTORS
330
2A
102
}
330
2A
100
AcDbVisualStyle
  2
2dWireframe
 70
     4
 71
     0
 72
     2
 73
     0
 90
        0
 40
-0.6
 41
-30.0
 62
     5
 63
     7
421
 16777215
 74
     1
 91
        4
 64
     7
 65
   257
 75
     1
175
     1
 42
1.0
 92
        0
 66
   257
 43
1.0
 76
     1
 77
     6
 78
     2
 67
     7
 79
     5
170
     0
171
     0
290
     0
174
     0
 93
        1
 44
0.0
173
     0
291
     0
 45
0.0
1001
ACAD
1000
AcDbSavedByObjectVersion
1070
     0
  0
VISUALSTYLE
  5
31
102
{ACAD_REACTORS
330
2A
102
}
330
2A
100
AcDbVisualStyle
  2
3D Hidden
 70
     6
 71
     1
 72
     2
 73
     2
 90
        0
 40
-0.6
 41
-30.0
 62
     5
 63
     7
421
 16777215
 74
     2
 91
        2
 64
     7
 65
   257
 75
     2
175
     1
 42
40.0
 92
        0
 66
   257
 43
1.0
 76
     1
 77
     6
 78
     2
 67
     7
 79
     3
170
     0
171
     0
290
     0
174
     0
 93
        1
 44
0.0
173
     0
291
     0
 45
0.0
1001
ACAD
1000
AcDbSavedByObjectVersion
1070
     0
  0
VISUALSTYLE
  5
30
102
{ACAD_REACTORS
330
2A
102
}
330
2A
100
AcDbVisualStyle
  2
3dWireframe
 70
     5
 71
     0
 72
     2
 73
     0
 90
        0
 40
-0.6
 41
-30.0
 62
     5
 63
     7
421
 16777215
 74
     1
 91
        4
 64
     7
 65
   257
 75
     1
175
     1
 42
1.0
 92
        0
 66
   257
 43
1.0
 76
     1
 77
     6
 78
     2
 67
     7
 79
     5
170
     0
171
     0
290
     0
174
     0
 93
        1
 44
0.0
173
     0
291
     0
 45
0.0
1001
ACAD
1000
AcDbSavedByObjectVersion
1070
     0
  0
VISUALSTYLE
  5
32
102
{ACAD_REACTORS
330
2A
102
}
330
2A
100
AcDbVisualStyle
  2
Basic
 70
     7
 71
     1
 72
     0
 73
     1
 90
        0
 40
-0.6
 41
-30.0
 62
     5
 63
     7
421
 16777215
 74
     0
 91
        4
 64
     7
 65
   257
 75
     1
175
     1
 42
1.0
 92
        8
 66
     7
 43
1.0
 76
     1
 77
     6
 78
     2
 67
     7
 79
     5
170
     0
171
     0
290
     0
174
     0
 93
        1
 44
0.0
173
     0
291
     1
 45
0.0
1001
ACAD
1000
AcDbSavedByObjectVersion
1070
     0
  0
VISUALSTYLE
  5
36
102
{ACAD_REACTORS
330
2A
102
}
330
2A
100
AcDbVisualStyle
  2
Brighten
 70
    12
 71
     2
 72
     2
 73
     0
 90
        0
 40
-0.6
 41
-30.0
 62
     5
 63
     7
421
 16777215
 74
     1
 91
        4
 64
     7
 65
   257
 75
     1
175
     1
 42
1.0
 92
        8
 66
     7
 43
1.0
 76
     1
 77
     6
 78
     2
 67
     7
 79
     5
170
     0
171
     0
290
     0
174
     0
 93
        1
 44
50.0
173
     0
291
     1
 45
0.0
1001
ACAD
1000
AcDbSavedByObjectVersion
1070
     0
  0
VISUALSTYLE
  5
3A
102
{ACAD_REACTORS
330
2A
102
}
330
2A
100
AcDbVisualStyle
  2
ColorChange
 70
    16
 71
     2
 72
     2
 73
     3
 90
        0
 40
-0.6
 41
-30.0
 62
     5
 63
     8
421
  8421504
 74
     1
 91
        4
 64
     7
 65
   257
 75
     1
175
     1
 42
1.0
 92
        8
 66
     8
424
  8421504
 43
1.0
 76
     1
 77
     6
 78
     2
 67
     7
 79
     5
170
     0
171
     0
290
     0
174
     0
 93
        1
 44
0.0
173
     0
291
     1
 45
0.0
1001
ACAD
1000
AcDbSavedByObjectVersion
1070
     0
  0
VISUALSTYLE
  5
34
102
{ACAD_REACTORS
330
2A
102
}
330
2A
100
AcDbVisualStyle
  2
Conceptual
 70
     9
 71
     3
 72
     2
 73
     0
 90
        0
 40
-0.6
 41
-30.0
 62
     5
 63
     7
421
 16777215
 74
     2
 91
        2
 64
     7
 65
   257
 75
     1
175
     1
 42
40.0
 92
        8
 66
     7
 43
1.0
 76
     1
 77
     6
 78
     2
 67
     7
 79
     3
170
     0
171
     0
290
     0
174
     0
 93
        1
 44
0.0
173
     0
291
     0
 45
0.0
1001
ACAD
1000
AcDbSavedByObjectVersion
1070
     0
  0
VISUALSTYLE
  5
35
102
{ACAD_REACTORS
330
2A
102
}
330
2A
100
AcDbVisualStyle
  2
Dim
 70
    11
 71
     2
 72
     2
 73
     0
 90
        0
 40
-0.6
 41
-30.0
 62
     5
 63
     7
421
 16777215
 74
     1
 91
        4
 64
     7
 65
   257
 75
     1
175
     1
 42
1.0
 92
        8
 66
     7
 43
1.0
 76
     1
 77
     6
 78
     2
 67
     7
 79
     5
170
     0
171
     0
290
     0
174
     0
 93
        1
 44
-50.0
173
     0
291
     1
 45
0.0
1001
ACAD
1000
AcDbSavedByObjectVersion
1070
     0
  0
VISUALSTYLE
  5
39
102
{ACAD_REACTORS
330
2A
102
}
330
2A
100
AcDbVisualStyle
  2
Facepattern
 70
    15
 71
     2
 72
     2
 73
     0
 90
        0
 40
-0.6
 41
-30.0
 62
     5
 63
     7
421
 16777215
 74
     1
 91
        4
 64
     7
 65
   257
 75
     1
175
     1
 42
1.0
 92
        8
 66
     7
 43
1.0
 76
     1
 77
     6
 78
     2
 67
     7
 79
     5
170
     0
171
     0
290
     0
174
     0
 93
        1
 44
0.0
173
     0
291
     1
 45
0.0
1001
ACAD
1000
AcDbSavedByObjectVersion
1070
     0
  0
VISUALSTYLE
  5
2B
102
{ACAD_REACTORS
330
2A
102
}
330
2A
100
AcDbVisualStyle
  2
Flat
 70
     0
 71
     2
 72
     1
 73
     1
 90
        2
 40
-0.6
 41
30.0
 62
     5
 63
     7
421
 16777215
 74
     0
 91
        4
 64
     7
 65
   257
 75
     1
175
     1
 42
1.0
 92
        8
 66
     7
 43
1.0
 76
     1
 77
     6
 78
     2
 67
     7
 79
     5
170
     0
171
     0
290
     0
174
     0
 93
       13
 44
0.0
173
     0
291
     1
 45
0.0
1001
ACAD
1000
AcDbSavedByObjectVersion
1070
     0
  0
VISUALSTYLE
  5
2C
102
{ACAD_REACTORS
330
2A
102
}
330
2A
100
AcDbVisualStyle
  2
FlatWithEdges
 70
     1
 71
     2
 72
     1
 73
     1
 90
        2
 40
-0.6
 41
30.0
 62
     5
 63
     7
421
 16777215
 74
     1
 91
        4
 64
     7
 65
   257
 75
     1
175
     1
 42
1.0
 92
        0
 66
   257
 43
1.0
 76
     1
 77
     6
 78
     2
 67
     7
 79
     5
170
     0
171
     0
290
     0
174
     0
 93
       13
 44
0.0
173
     0
291
     1
 45
0.0
1001
ACAD
1000
AcDbSavedByObjectVersion
1070
     0
  0
VISUALSTYLE
  5
2D
102
{ACAD_REACTORS
330
2A
102
}
330
2A
100
AcDbVisualStyle
  2
Gouraud
 70
     2
 71
     2
 72
     2
 73
     1
 90
        2
 40
-0.6
 41
30.0
 62
     5
 63
     7
421
 16777215
 74
     0
 91
        4
 64
     7
 65
   257
 75
     1
175
     1
 42
1.0
 92
        0
 66
     7
 43
1.0
 76
     1
 77
     6
 78
     2
 67
     7
 79
     5
170
     0
171
     0
290
     0
174
     0
 93
       13
 44
0.0
173
     0
291
     1
 45
0.0
1001
ACAD
1000
AcDbSavedByObjectVersion
1070
     0
  0
VISUALSTYLE
  5
2E
102
{ACAD_REACTORS
330
2A
102
}
330
2A
100
AcDbVisualStyle
  2
GouraudWithEdges
 70
     3
 71
     2
 72
     2
 73
     1
 90
        2
 40
-0.6
 41
30.0
 62
     5
 63
     7
421
 16777215
 74
     1
 91
        4
 64
     7
 65
   257
 75
     1
175
     1
 42
1.0
 92
        0
 66
   257
 43
1.0
 76
     1
 77
     6
 78
     2
 67
     7
 79
     5
170
     0
171
     0
290
     0
174
     0
 93
       13
 44
0.0
173
     0
291
     1
 45
0.0
1001
ACAD
1000
AcDbSavedByObjectVersion
1070
     0
  0
VISUALSTYLE
  5
38
102
{ACAD_REACTORS
330
2A
102
}
330
2A
100
AcDbVisualStyle
  2
Linepattern
 70
    14
 71
     2
 72
     2
 73
     0
 90
        0
 40
-0.6
 41
-30.0
 62
     5
 63
     7
421
 16777215
 74
     1
 91
        4
 64
     7
 65
   257
 75
     7
175
     7
 42
1.0
 92
        8
 66
     7
 43
1.0
 76
     1
 77
     6
 78
     2
 67
     7
 79
     5
170
     0
171
     0
290
     0
174
     0
 93
        1
 44
0.0
173
     0
291
     1
 45
0.0
1001
ACAD
1000
AcDbSavedByObjectVersion
1070
     0
  0
VISUALSTYLE
  5
33
102
{ACAD_REACTORS
330
2A
102
}
330
2A
100
AcDbVisualStyle
  2
Realistic
 70
     8
 71
     2
 72
     2
 73
     0
 90
        0
 40
-0.6
 41
-30.0
 62
     5
 63
     7
421
 16777215
 74
     1
 91
        0
 64
     7
 65
   257
 75
     1
175
     1
 42
1.0
 92
        8
 66
     8
424
  7895160
 43
1.0
 76
     1
 77
     6
 78
     2
 67
     7
 79
     5
170
     0
171
     0
290
     0
174
     0
 93
       13
 44
0.0
173
     0
291
     0
 45
0.0
1001
ACAD
1000
AcDbSavedByObjectVersion
1070
     0
  0
VISUALSTYLE
  5
37
102
{ACAD_REACTORS
330
2A
102
}
330
2A
100
AcDbVisualStyle
  2
Thicken
 70
    13
 71
     2
 72
     2
 73
     0
 90
        0
 40
-0.6
 41
-30.0
 62
     5
 63
     7
421
 16777215
 74
     1
 91
        4
 64
     7
 65
   257
 75
     1
175
     1
 42
1.0
 92
       12
 66
     7
 43
1.0
 76
     1
 77
     6
 78
     2
 67
     7
 79
     5
170
     0
171
     0
290
     0
174
     0
 93
        1
 44
0.0
173
     0
291
     1
 45
0.0
1001
ACAD
1000
AcDbSavedByObjectVersion
1070
     0
  0
ENDSEC
  0
EOF
