  0
SECTION
  2
HEADER
  9
$ACADVER
  1
AC1018
  9
$ACADMAINTVER
 70
     0
  9
$DWGCODEPAGE
  3
ANSI_932
  9
$INSBASE
 10
0.0
 20
0.0
 30
0.0
  9
$EXTMIN
 10
-2100.0
 20
-1485.0
 30
0.0
  9
$EXTMAX
 10
2100.0
 20
1485.0
 30
0.0
  9
$LIMMIN
 10
-2100.0
 20
-1485.0
  9
$LIMMAX
 10
2100.0
 20
1485.0
  9
$ORTHOMODE
 70
     0
  9
$REGENMODE
 70
     1
  9
$FILLMODE
 70
     1
  9
$QTEXTMODE
 70
     0
  9
$MIRRTEXT
 70
     1
  9
$LTSCALE
 40
10.0
  9
$ATTMODE
 70
     1
  9
$TEXTSIZE
 40
2.5
  9
$TRACEWID
 40
1.0
  9
$TEXTSTYLE
  7
Standard
  9
$CLAYER
  8
0
  9
$CELTYPE
  6
ByLayer
  9
$CECOLOR
 62
   256
  9
$CELTSCALE
 40
1.0
  9
$DISPSILH
 70
     0
  9
$DIMSCALE
 40
1.0
  9
$DIMASZ
 40
2.5
  9
$DIMEXO
 40
0.625
  9
$DIMDLI
 40
3.75
  9
$DIMRND
 40
0.0
  9
$DIMDLE
 40
0.0
  9
$DIMEXE
 40
1.25
  9
$DIMTP
 40
0.0
  9
$DIMTM
 40
0.0
  9
$DIMTXT
 40
2.5
  9
$DIMCEN
 40
2.5
  9
$DIMTSZ
 40
0.0
  9
$DIMTOL
 70
     0
  9
$DIMLIM
 70
     0
  9
$DIMTIH
 70
     0
  9
$DIMTOH
 70
     0
  9
$DIMSE1
 70
     0
  9
$DIMSE2
 70
     0
  9
$DIMTAD
 70
     1
  9
$DIMZIN
 70
     8
  9
$DIMBLK
  1

  9
$DIMASO
 70
     1
  9
$DIMSHO
 70
     1
  9
$DIMPOST
  1

  9
$DIMAPOST
  1

  9
$DIMALT
 70
     0
  9
$DIMALTD
 70
     3
  9
$DIMALTF
 40
0.03937007874016
  9
$DIMLFAC
 40
1.0
  9
$DIMTOFL
 70
     1
  9
$DIMTVP
 40
0.0
  9
$DIMTIX
 70
     0
  9
$DIMSOXD
 70
     0
  9
$DIMSAH
 70
     0
  9
$DIMBLK1
  1

  9
$DIMBLK2
  1

  9
$DIMSTYLE
  2
ISO-25
  9
$DIMCLRD
 70
     0
  9
$DIMCLRE
 70
     0
  9
$DIMCLRT
 70
     0
  9
$DIMTFAC
 40
1.0
  9
$DIMGAP
 40
0.625
  9
$DIMJUST
 70
     0
  9
$DIMSD1
 70
     0
  9
$DIMSD2
 70
     0
  9
$DIMTOLJ
 70
     0
  9
$DIMTZIN
 70
     8
  9
$DIMALTZ
 70
     0
  9
$DIMALTTZ
 70
     0
  9
$DIMUPT
 70
     0
  9
$DIMDEC
 70
     2
  9
$DIMTDEC
 70
     2
  9
$DIMALTU
 70
     2
  9
$DIMALTTD
 70
     3
  9
$DIMTXSTY
  7
Standard
  9
$DIMAUNIT
 70
     0
  9
$DIMADEC
 70
     0
  9
$DIMALTRND
 40
0.0
  9
$DIMAZIN
 70
     0
  9
$DIMDSEP
 70
    44
  9
$DIMATFIT
 70
     3
  9
$DIMFRAC
 70
     0
  9
$DIMLDRBLK
  1

  9
$DIMLUNIT
 70
     2
  9
$DIMLWD
 70
    -2
  9
$DIMLWE
 70
    -2
  9
$DIMTMOVE
 70
     0
  9
$LUNITS
 70
     2
  9
$LUPREC
 70
     4
  9
$SKETCHINC
 40
1.0
  9
$FILLETRAD
 40
10.0
  9
$AUNITS
 70
     0
  9
$AUPREC
 70
     0
  9
$MENU
  1
.
  9
$ELEVATION
 40
0.0
  9
$PELEVATION
 40
0.0
  9
$THICKNESS
 40
0.0
  9
$LIMCHECK
 70
     0
  9
$CHAMFERA
 40
10.0
  9
$CHAMFERB
 40
10.0
  9
$CHAMFERC
 40
20.0
  9
$CHAMFERD
 40
0.0
  9
$SKPOLY
 70
     0
  9
$TDCREATE
 40
2456498.818874306
  9
$TDUCREATE
 40
2456498.443874306
  9
$TDUPDATE
 40
2456498.818874317
  9
$TDUUPDATE
 40
2456498.443874317
  9
$TDINDWG
 40
0.0000000116
  9
$TDUSRTIMER
 40
0.0000000116
  9
$USRTIMER
 70
     1
  9
$ANGBASE
 50
0.0
  9
$ANGDIR
 70
     0
  9
$PDMODE
 70
     0
  9
$PDSIZE
 40
0.0
  9
$PLINEWID
 40
0.0
  9
$SPLFRAME
 70
     0
  9
$SPLINETYPE
 70
     6
  9
$SPLINESEGS
 70
     8
  9
$HANDSEED
  5
3D7
  9
$SURFTAB1
 70
     6
  9
$SURFTAB2
 70
     6
  9
$SURFTYPE
 70
     6
  9
$SURFU
 70
     6
  9
$SURFV
 70
     6
  9
$UCSBASE
  2

  9
$UCSNAME
  2

  9
$UCSORG
 10
0.0
 20
0.0
 30
0.0
  9
$UCSXDIR
 10
1.0
 20
0.0
 30
0.0
  9
$UCSYDIR
 10
0.0
 20
1.0
 30
0.0
  9
$UCSORTHOREF
  2

  9
$UCSORTHOVIEW
 70
     0
  9
$UCSORGTOP
 10
0.0
 20
0.0
 30
0.0
  9
$UCSORGBOTTOM
 10
0.0
 20
0.0
 30
0.0
  9
$UCSORGLEFT
 10
0.0
 20
0.0
 30
0.0
  9
$UCSORGRIGHT
 10
0.0
 20
0.0
 30
0.0
  9
$UCSORGFRONT
 10
0.0
 20
0.0
 30
0.0
  9
$UCSORGBACK
 10
0.0
 20
0.0
 30
0.0
  9
$PUCSBASE
  2

  9
$PUCSNAME
  2

  9
$PUCSORG
 10
0.0
 20
0.0
 30
0.0
  9
$PUCSXDIR
 10
1.0
 20
0.0
 30
0.0
  9
$PUCSYDIR
 10
0.0
 20
1.0
 30
0.0
  9
$PUCSORTHOREF
  2

  9
$PUCSORTHOVIEW
 70
     0
  9
$PUCSORGTOP
 10
0.0
 20
0.0
 30
0.0
  9
$PUCSORGBOTTOM
 10
0.0
 20
0.0
 30
0.0
  9
$PUCSORGLEFT
 10
0.0
 20
0.0
 30
0.0
  9
$PUCSORGRIGHT
 10
0.0
 20
0.0
 30
0.0
  9
$PUCSORGFRONT
 10
0.0
 20
0.0
 30
0.0
  9
$PUCSORGBACK
 10
0.0
 20
0.0
 30
0.0
  9
$USERI1
 70
     0
  9
$USERI2
 70
     0
  9
$USERI3
 70
     0
  9
$USERI4
 70
     0
  9
$USERI5
 70
     0
  9
$USERR1
 40
0.0
  9
$USERR2
 40
0.0
  9
$USERR3
 40
0.0
  9
$USERR4
 40
0.0
  9
$USERR5
 40
0.0
  9
$WORLDVIEW
 70
     1
  9
$SHADEDGE
 70
     3
  9
$SHADEDIF
 70
    70
  9
$TILEMODE
 70
     1
  9
$MAXACTVP
 70
    64
  9
$PINSBASE
 10
0.0
 20
0.0
 30
0.0
  9
$PLIMCHECK
 70
     0
  9
$PEXTMIN
 10
1.000000000000000E+20
 20
1.000000000000000E+20
 30
1.000000000000000E+20
  9
$PEXTMAX
 10
-1.000000000000000E+20
 20
-1.000000000000000E+20
 30
-1.000000000000000E+20
  9
$PLIMMIN
 10
0.0
 20
0.0
  9
$PLIMMAX
 10
420.0
 20
297.0
  9
$UNITMODE
 70
     0
  9
$VISRETAIN
 70
     1
  9
$PLINEGEN
 70
     0
  9
$PSLTSCALE
 70
     1
  9
$TREEDEPTH
 70
  3020
  9
$CMLSTYLE
  2
Standard
  9
$CMLJUST
 70
     0
  9
$CMLSCALE
 40
20.0
  9
$PROXYGRAPHICS
 70
     1
  9
$MEASUREMENT
 70
     1
  9
$CELWEIGHT
370
    -1
  9
$ENDCAPS
280
     0
  9
$JOINSTYLE
280
     0
  9
$LWDISPLAY
290
     0
  9
$INSUNITS
 70
     4
  9
$HYPERLINKBASE
  1

  9
$STYLESHEET
  1

  9
$XEDIT
290
     1
  9
$CEPSNTYPE
380
     0
  9
$PSTYLEMODE
290
     1
  9
$FINGERPRINTGUID
  2
{C753AAFB-1DB8-46B6-96CF-4050D5F56777}
  9
$VERSIONGUID
  2
{FAEB1C32-E019-11D5-929B-00C0DF256EC4}
  9
$EXTNAMES
290
     1
  9
$PSVPSCALE
 40
0.0
  9
$OLESTARTUP
290
     0
  9
$SORTENTS
280
   127
  9
$INDEXCTL
280
     0
  9
$HIDETEXT
280
     1
  9
$XCLIPFRAME
290
     0
  9
$HALOGAP
280
     0
  9
$OBSCOLOR
 70
   257
  9
$OBSLTYPE
280
     0
  9
$INTERSECTIONDISPLAY
280
     0
  9
$INTERSECTIONCOLOR
 70
   257
  9
$DIMASSOC
280
     2
  9
$PROJECTNAME
  1

  0
ENDSEC
  0
SECTION
  2
CLASSES
  0
CLASS
  1
ACDBDICTIONARYWDFLT
  2
AcDbDictionaryWithDefault
  3
ObjectDBX Classes
 90
        0
 91
        4
280
     0
281
     0
  0
CLASS
  1
VISUALSTYLE
  2
AcDbVisualStyle
  3
ObjectDBX Classes
 90
     4095
 91
        4
280
     0
281
     0
  0
ENDSEC
  0
SECTION
  2
TABLES
  0
TABLE
  2
VPORT
  5
8
330
0
100
AcDbSymbolTable
 70
     1
  0
VPORT
  5
29
330
8
100
AcDbSymbolTableRecord
100
AcDbViewportTableRecord
  2
*Active
 70
     0
 10
0.0
 20
0.0
 11
1.0
 21
1.0
 12
0.0
 22
0.0
 13
0.0
 23
0.0
 14
10.0
 24
10.0
 15
10.0
 25
10.0
 16
0.0
 26
0.0
 36
1.0
 17
0.0
 27
0.0
 37
0.0
 40
3267.0
 41
1.414141414141414
 42
50.0
 43
0.0
 44
0.0
 50
0.0
 51
0.0
 71
     0
 72
 10000
 73
     1
 74
     3
 75
     0
 76
     0
 77
     0
 78
     0
281
     0
 65
     1
110
0.0
120
0.0
130
0.0
111
1.0
121
0.0
131
0.0
112
0.0
122
1.0
132
0.0
 79
     0
146
0.0
  0
ENDTAB
  0
TABLE
  2
LTYPE
  5
5
330
0
100
AcDbSymbolTable
 70
     5
  0
LTYPE
  5
14
330
5
100
AcDbSymbolTableRecord
100
AcDbLinetypeTableRecord
  2
ByBlock
 70
     0
  3

 72
    65
 73
     0
 40
0.0
  0
LTYPE
  5
15
330
5
100
AcDbSymbolTableRecord
100
AcDbLinetypeTableRecord
  2
ByLayer
 70
     0
  3

 72
    65
 73
     0
 40
0.0
  0
LTYPE
  5
16
330
5
100
AcDbSymbolTableRecord
100
AcDbLinetypeTableRecord
  2
Continuous
 70
     0
  3
Solid line
 72
    65
 73
     0
 40
0.0
  0
LTYPE
  5
3C
330
5
100
AcDbSymbolTableRecord
100
AcDbLinetypeTableRecord
  2
JWW_PHANTOM1
 70
     0
  3
----  -  -  --------  -  -  ----
 72
    65
 73
     6
 40
6.773333333333333
 49
3.386666666666667
 74
     0
 49
-0.8466666666666667
 74
     0
 49
0.4233333333333333
 74
     0
 49
-0.8466666666666667
 74
     0
 49
0.4233333333333333
 74
     0
 49
-0.8466666666666667
 74
     0
  0
LTYPE
  5
3D
330
5
100
AcDbSymbolTableRecord
100
AcDbLinetypeTableRecord
  2
JWW_DASHED1
 70
     0
  3
-  --  --  --  --  --  --  --  -
 72
    65
 73
     2
 40
1.693333333333333
 49
0.8466666666666667
 74
     0
 49
-0.8466666666666667
 74
     0
  0
LTYPE
  5
3E
330
5
100
AcDbSymbolTableRecord
100
AcDbLinetypeTableRecord
  2
JWW_CENTER1
 70
     0
  3
-----  --  ----------  --  -----
 72
    65
 73
     4
 40
6.773333333333333
 49
4.233333333333333
 74
     0
 49
-0.8466666666666667
 74
     0
 49
0.8466666666666667
 74
     0
 49
-0.8466666666666667
 74
     0
  0
LTYPE
  5
3F
330
5
100
AcDbSymbolTableRecord
100
AcDbLinetypeTableRecord
  2
JWW_HOJO
 70
     0
  3
  -   -   -   -   -   -   -   - 
 72
    65
 73
     2
 40
1.693333333333333
 49
-1.27
 74
     0
 49
0.4233333333333333
 74
     0
  0
ENDTAB
  0
TABLE
  2
LAYER
  5
2
330
0
100
AcDbSymbolTable
 70
    11
  0
LAYER
  5
10
330
2
100
AcDbSymbolTableRecord
100
AcDbLayerTableRecord
  2
0
 70
     0
 62
     7
  6
Continuous
370
    -3
390
F
  0
LAYER
  5
40
330
2
100
AcDbSymbolTableRecord
100
AcDbLayerTableRecord
  2
0-0
 70
     0
 62
     7
  6
Continuous
370
    -3
390
F
  0
LAYER
  5
41
330
2
100
AcDbSymbolTableRecord
100
AcDbLayerTableRecord
  2
0-E
 70
     0
 62
     7
  6
Continuous
370
    -3
390
F
  0
LAYER
  5
42
330
2
100
AcDbSymbolTableRecord
100
AcDbLayerTableRecord
  2
0-5
 70
     0
 62
     7
  6
Continuous
370
    -3
390
F
  0
LAYER
  5
43
330
2
100
AcDbSymbolTableRecord
100
AcDbLayerTableRecord
  2
0-A
 70
     0
 62
     7
  6
Continuous
370
    -3
390
F
  0
LAYER
  5
44
330
2
100
AcDbSymbolTableRecord
100
AcDbLayerTableRecord
  2
0-1
 70
     0
 62
     7
  6
Continuous
370
    -3
390
F
  0
LAYER
  5
45
330
2
100
AcDbSymbolTableRecord
100
AcDbLayerTableRecord
  2
0-2
 70
     0
 62
     7
  6
Continuous
370
    -3
390
F
  0
LAYER
  5
46
330
2
100
AcDbSymbolTableRecord
100
AcDbLayerTableRecord
  2
0-F
 70
     0
 62
     7
  6
Continuous
370
    -3
390
F
  0
LAYER
  5
47
330
2
100
AcDbSymbolTableRecord
100
AcDbLayerTableRecord
  2
0-4
 70
     0
 62
     7
  6
Continuous
370
    -3
390
F
  0
LAYER
  5
48
330
2
100
AcDbSymbolTableRecord
100
AcDbLayerTableRecord
  2
0-9
 70
     0
 62
     7
  6
Continuous
370
    -3
390
F
  0
LAYER
  5
49
330
2
100
AcDbSymbolTableRecord
100
AcDbLayerTableRecord
  2
0-B
 70
     0
 62
     7
  6
Continuous
370
    -3
390
F
  0
ENDTAB
  0
TABLE
  2
STYLE
  5
3
330
0
100
AcDbSymbolTable
 70
     2
  0
STYLE
  5
11
330
3
100
AcDbSymbolTableRecord
100
AcDbTextStyleTableRecord
  2
Standard
 70
     0
 40
0.0
 41
1.0
 50
0.0
 71
     0
 42
2.5
  3
txt
  4

1001
ACAD
1000

1071
        0
  0
STYLE
  5
3B
330
3
100
AcDbSymbolTableRecord
100
AcDbTextStyleTableRecord
  2
ＭＳ ゴシック
 70
     0
 40
1.0
 41
1.0
 50
0.0
 71
     0
 42
10.0
  3

  4

1001
ACAD
1000
MS Gothic
1071
    32817
  0
ENDTAB
  0
TABLE
  2
VIEW
  5
6
330
0
100
AcDbSymbolTable
 70
     0
  0
ENDTAB
  0
TABLE
  2
UCS
  5
7
330
0
100
AcDbSymbolTable
 70
     0
  0
ENDTAB
  0
TABLE
  2
APPID
  5
9
330
0
100
AcDbSymbolTable
 70
     1
  0
APPID
  5
12
330
9
100
AcDbSymbolTableRecord
100
AcDbRegAppTableRecord
  2
ACAD
 70
     0
  0
ENDTAB
  0
TABLE
  2
DIMSTYLE
  5
A
330
0
100
AcDbSymbolTable
 70
     1
100
AcDbDimStyleTable
  0
DIMSTYLE
105
27
330
A
100
AcDbSymbolTableRecord
100
AcDbDimStyleTableRecord
  2
ISO-25
 70
     0
 41
2.5
 42
0.625
 43
3.75
 44
1.25
 73
     0
 74
     0
 77
     1
 78
     8
140
2.5
141
2.5
143
0.03937007874016
147
0.625
171
     3
172
     1
271
     2
272
     2
274
     3
278
    44
283
     0
284
     8
340
11
  0
ENDTAB
  0
TABLE
  2
BLOCK_RECORD
  5
1
330
0
100
AcDbSymbolTable
 70
     1
  0
BLOCK_RECORD
  5
1F
330
1
100
AcDbSymbolTableRecord
100
AcDbBlockTableRecord
  2
*Model_Space
340
22
  0
BLOCK_RECORD
  5
1B
330
1
100
AcDbSymbolTableRecord
100
AcDbBlockTableRecord
  2
*Paper_Space
340
1E
  0
BLOCK_RECORD
  5
23
330
1
100
AcDbSymbolTableRecord
100
AcDbBlockTableRecord
  2
*Paper_Space0
340
26
  0
ENDTAB
  0
ENDSEC
  0
SECTION
  2
BLOCKS
  0
BLOCK
  5
20
330
1F
100
AcDbEntity
  8
0
100
AcDbBlockBegin
  2
*Model_Space
 70
     0
 10
0.0
 20
0.0
 30
0.0
  3
*Model_Space
  1

  0
ENDBLK
  5
21
330
1F
100
AcDbEntity
  8
0
100
AcDbBlockEnd
  0
BLOCK
  5
1C
330
1B
100
AcDbEntity
 67
     1
  8
0
100
AcDbBlockBegin
  2
*Paper_Space
 70
     0
 10
0.0
 20
0.0
 30
0.0
  3
*Paper_Space
  1

  0
ENDBLK
  5
1D
330
1B
100
AcDbEntity
 67
     1
  8
0
100
AcDbBlockEnd
  0
BLOCK
  5
24
330
23
100
AcDbEntity
  8
0
100
AcDbBlockBegin
  2
*Paper_Space0
 70
     0
 10
0.0
 20
0.0
 30
0.0
  3
*Paper_Space0
  1

  0
ENDBLK
  5
25
330
23
100
AcDbEntity
  8
0
100
AcDbBlockEnd
  0
ENDSEC
  0
SECTION
  2
ENTITIES
  0
TEXT
  5
4A
330
1F
100
AcDbEntity
  8
0-0
  6
Continuous
 62
     2
370
    13
100
AcDbText
 10
-892.0692930267253
 20
-1357.098140832454
 30
0.0
 40
30.48
  1
自動ドアガード　ステンレス製　フラットバータイプ　ＤＡ２－４Ｈ７Ａ－ＡＰ
 41
0.8993055555555554
  7
ＭＳ ゴシック
100
AcDbText
  0
LINE
  5
4B
330
1F
100
AcDbEntity
  8
0-E
  6
Continuous
 62
     7
370
    13
100
AcDbLine
 10
-388.7095074435057
 20
914.1855482804181
 30
0.0
 11
-388.7095074435057
 21
964.1855828041649
 31
0.0
  0
LINE
  5
4C
330
1F
100
AcDbEntity
  8
0-E
  6
Continuous
 62
     7
370
    13
100
AcDbLine
 10
-553.7093835468517
 20
733.7271946413089
 30
0.0
 11
-553.7093835468517
 21
974.1855302526596
 31
0.0
  0
LINE
  5
4D
330
1F
100
AcDbEntity
  8
0-E
  6
Continuous
 62
     7
370
    13
100
AcDbLine
 10
423.7903103641963
 20
964.1855828041649
 30
0.0
 11
-388.7095074435057
 21
964.1855828041649
 31
0.0
  0
LINE
  5
4E
330
1F
100
AcDbEntity
  8
0-E
  6
Continuous
 62
     7
370
    13
100
AcDbLine
 10
423.7903103641963
 20
974.1855302526596
 30
0.0
 11
-553.7093835468517
 21
974.1855302526596
 31
0.0
  0
LINE
  5
4F
330
1F
100
AcDbEntity
  8
0-E
  6
Continuous
 62
     7
370
    13
100
AcDbLine
 10
423.7903103641963
 20
1024.185564776406
 30
0.0
 11
-438.7095419672523
 21
1024.185564776406
 31
0.0
  0
LINE
  5
50
330
1F
100
AcDbEntity
  8
0-E
  6
Continuous
 62
     7
370
    13
100
AcDbLine
 10
423.7903103641963
 20
914.1855482804181
 30
0.0
 11
-388.7095074435057
 21
914.1855482804181
 31
0.0
  0
LINE
  5
51
330
1F
100
AcDbEntity
  8
0-E
  6
Continuous
 62
     7
370
    13
100
AcDbLine
 10
423.7903103641963
 20
914.1855482804181
 30
0.0
 11
423.7903103641963
 21
964.1855828041649
 31
0.0
  0
LINE
  5
52
330
1F
100
AcDbEntity
  8
0-E
  6
Continuous
 62
     7
370
    13
100
AcDbLine
 10
423.7903103641963
 20
974.1855302526596
 30
0.0
 11
423.7903103641963
 21
1024.185564776406
 31
0.0
  0
LINE
  5
53
330
1F
100
AcDbEntity
  8
0-E
  6
Continuous
 62
     7
370
    13
100
AcDbLine
 10
-408.7095509811317
 20
991.685586928162
 30
0.0
 11
-408.7095509811317
 21
1006.685508100904
 31
0.0
  0
LINE
  5
54
330
1F
100
AcDbEntity
  8
0-E
  6
Continuous
 62
     7
370
    13
100
AcDbLine
 10
-388.7095074435057
 20
974.1855302526596
 30
0.0
 11
-388.7095074435057
 21
991.685586928162
 31
0.0
  0
LINE
  5
55
330
1F
100
AcDbEntity
  8
0-E
  6
Continuous
 62
     7
370
    13
100
AcDbLine
 10
-388.7095074435057
 20
1006.685508100904
 30
0.0
 11
-388.7095074435057
 21
1024.185564776406
 31
0.0
  0
LINE
  5
56
330
1F
100
AcDbEntity
  8
0-E
  6
Continuous
 62
     7
370
    13
100
AcDbLine
 10
373.7902758404497
 20
974.1855302526596
 30
0.0
 11
373.7902758404497
 21
991.685586928162
 31
0.0
  0
LINE
  5
57
330
1F
100
AcDbEntity
  8
0-E
  6
Continuous
 62
     7
370
    13
100
AcDbLine
 10
373.7902758404497
 20
1006.685508100904
 30
0.0
 11
373.7902758404497
 21
1024.185564776406
 31
0.0
  0
LINE
  5
58
330
1F
100
AcDbEntity
  8
0-E
  6
Continuous
 62
     7
370
    13
100
AcDbLine
 10
-408.7095509811317
 20
1006.685508100904
 30
0.0
 11
393.7903193780756
 21
1006.685508100904
 31
0.0
  0
LINE
  5
59
330
1F
100
AcDbEntity
  8
0-E
  6
Continuous
 62
     7
370
    13
100
AcDbLine
 10
393.7903193780756
 20
991.685586928162
 30
0.0
 11
393.7903193780756
 21
1006.685508100904
 31
0.0
  0
LINE
  5
5A
330
1F
100
AcDbEntity
  8
0-E
  6
Continuous
 62
     7
370
    13
100
AcDbLine
 10
-408.7095509811317
 20
991.685586928162
 30
0.0
 11
393.7903193780756
 21
991.685586928162
 31
0.0
  0
LINE
  5
5B
330
1F
100
AcDbEntity
  8
0-E
  6
Continuous
 62
     7
370
    13
100
AcDbLine
 10
-358.709516457385
 20
931.6856049559206
 30
0.0
 11
-358.709516457385
 21
946.6855261286628
 31
0.0
  0
LINE
  5
5C
330
1F
100
AcDbEntity
  8
0-E
  6
Continuous
 62
     7
370
    13
100
AcDbLine
 10
-338.7094729197589
 20
914.1855482804181
 30
0.0
 11
-338.7094729197589
 21
931.6856049559206
 31
0.0
  0
LINE
  5
5D
330
1F
100
AcDbEntity
  8
0-E
  6
Continuous
 62
     7
370
    13
100
AcDbLine
 10
-338.7094729197589
 20
946.6855261286628
 30
0.0
 11
-338.7094729197589
 21
964.1855828041649
 31
0.0
  0
LINE
  5
5E
330
1F
100
AcDbEntity
  8
0-E
  6
Continuous
 62
     7
370
    13
100
AcDbLine
 10
373.7902758404497
 20
914.1855482804181
 30
0.0
 11
373.7902758404497
 21
931.6856049559206
 31
0.0
  0
LINE
  5
5F
330
1F
100
AcDbEntity
  8
0-E
  6
Continuous
 62
     7
370
    13
100
AcDbLine
 10
373.7902758404497
 20
946.6855261286628
 30
0.0
 11
373.7902758404497
 21
964.1855828041649
 31
0.0
  0
LINE
  5
60
330
1F
100
AcDbEntity
  8
0-E
  6
Continuous
 62
     7
370
    13
100
AcDbLine
 10
-358.709516457385
 20
946.6855261286628
 30
0.0
 11
393.7903193780756
 21
946.6855261286628
 31
0.0
  0
LINE
  5
61
330
1F
100
AcDbEntity
  8
0-E
  6
Continuous
 62
     7
370
    13
100
AcDbLine
 10
393.7903193780756
 20
931.6856049559206
 30
0.0
 11
393.7903193780756
 21
946.6855261286628
 31
0.0
  0
LINE
  5
62
330
1F
100
AcDbEntity
  8
0-E
  6
Continuous
 62
     7
370
    13
100
AcDbLine
 10
-358.709516457385
 20
931.6856049559206
 30
0.0
 11
393.7903193780756
 21
931.6856049559206
 31
0.0
  0
LINE
  5
63
330
1F
100
AcDbEntity
  8
0-E
  6
Continuous
 62
     7
370
    13
100
AcDbLine
 10
-553.7093835468517
 20
784.0686567066632
 30
0.0
 11
-604.050845612206
 21
733.7271946413089
 31
0.0
  0
LINE
  5
64
330
1F
100
AcDbEntity
  8
0-E
  6
Continuous
 62
     7
370
    13
100
AcDbLine
 10
-553.7093835468517
 20
769.9265406460747
 30
0.0
 11
-589.9087295516175
 21
733.7271946413089
 31
0.0
  0
LINE
  5
65
330
1F
100
AcDbEntity
  8
0-E
  6
Continuous
 62
     7
370
    13
100
AcDbLine
 10
-553.7093835468517
 20
755.7844245854867
 30
0.0
 11
-575.766613491029
 21
733.7271946413089
 31
0.0
  0
LINE
  5
66
330
1F
100
AcDbEntity
  8
0-E
  6
Continuous
 62
     7
370
    13
100
AcDbLine
 10
-553.7093835468517
 20
951.1341917328308
 30
0.0
 11
-656.8655392251476
 21
847.9780360545344
 31
0.0
  0
LINE
  5
67
330
1F
100
AcDbEntity
  8
0-E
  6
Continuous
 62
     7
370
    13
100
AcDbLine
 10
-553.7093835468517
 20
936.9920756722424
 30
0.0
 11
-656.8655392251476
 21
833.8359199939462
 31
0.0
  0
LINE
  5
68
330
1F
100
AcDbEntity
  8
0-E
  6
Continuous
 62
     7
370
    13
100
AcDbLine
 10
-438.7095419672523
 20
1037.849801191253
 30
0.0
 11
-502.3738129058458
 21
974.1855302526596
 31
0.0
  0
LINE
  5
69
330
1F
100
AcDbEntity
  8
0-E
  6
Continuous
 62
     7
370
    13
100
AcDbLine
 10
-553.7093835468517
 20
922.8499596116537
 30
0.0
 11
-656.8655392251476
 21
819.6938039333576
 31
0.0
  0
LINE
  5
6A
330
1F
100
AcDbEntity
  8
0-E
  6
Continuous
 62
     7
370
    13
100
AcDbLine
 10
-613.9758781799997
 20
1045.241700035026
 30
0.0
 11
-656.8655392251476
 21
1002.352038989878
 31
0.0
  0
LINE
  5
6B
330
1F
100
AcDbEntity
  8
0-E
  6
Continuous
 62
     7
370
    13
100
AcDbLine
 10
-628.117994240588
 20
1045.241700035026
 30
0.0
 11
-656.8655392251476
 21
1016.494155050466
 31
0.0
  0
LINE
  5
6C
330
1F
100
AcDbEntity
  8
0-E
  6
Continuous
 62
     7
370
    13
100
AcDbLine
 10
-642.2601103011762
 20
1045.241700035026
 30
0.0
 11
-656.8655392251476
 21
1030.636271111054
 31
0.0
  0
LINE
  5
6D
330
1F
100
AcDbEntity
  8
0-E
  6
Continuous
 62
     7
370
    13
100
AcDbLine
 10
-438.7095419672523
 20
974.1855302526596
 30
0.0
 11
-438.7095419672523
 21
1045.241700035026
 31
0.0
  0
LINE
  5
6E
330
1F
100
AcDbEntity
  8
0-E
  6
Continuous
 62
     7
370
    13
100
AcDbLine
 10
-445.459759184068
 20
1045.241700035026
 30
0.0
 11
-516.5159289664341
 21
974.1855302526596
 31
0.0
  0
LINE
  5
6F
330
1F
100
AcDbEntity
  8
0-E
  6
Continuous
 62
     7
370
    13
100
AcDbLine
 10
-459.6018752446565
 20
1045.241700035026
 30
0.0
 11
-530.6580450270225
 21
974.1855302526596
 31
0.0
  0
LINE
  5
70
330
1F
100
AcDbEntity
  8
0-5
  6
JWW_PHANTOM1
 62
     7
370
    13
100
AcDbLine
 10
423.7903103641963
 20
914.1855482804181
 30
0.0
 11
875.6830677482134
 21
914.1855482804181
 31
0.0
  0
LINE
  5
71
330
1F
100
AcDbEntity
  8
0-5
  6
JWW_PHANTOM1
 62
     7
370
    13
100
AcDbLine
 10
423.7903103641963
 20
964.1855828041649
 30
0.0
 11
875.6830677482134
 21
964.1855828041649
 31
0.0
  0
LINE
  5
72
330
1F
100
AcDbEntity
  8
0-0
  6
Continuous
 62
     4
370
    13
100
AcDbLine
 10
-341.2095341022009
 20
754.1855843359349
 30
0.0
 11
-431.2095070605632
 21
754.1855843359349
 31
0.0
  0
LINE
  5
73
330
1F
100
AcDbEntity
  8
0-A
  6
Continuous
 62
     2
370
    13
100
AcDbLine
 10
-361.7096047403788
 20
845.1853142141284
 30
0.0
 11
-361.7096047403788
 21
844.7704581981832
 31
0.0
  0
LINE
  5
74
330
1F
100
AcDbEntity
  8
0-A
  6
Continuous
 62
     2
370
    13
100
AcDbLine
 10
-361.7096047403788
 20
844.7704581981832
 30
0.0
 11
-375.7096203526534
 21
844.7704581981832
 31
0.0
  0
LINE
  5
75
330
1F
100
AcDbEntity
  8
0-A
  6
Continuous
 62
     2
370
    13
100
AcDbLine
 10
-375.7096203526534
 20
845.1853142141284
 30
0.0
 11
-375.7096203526534
 21
844.7704581981832
 31
0.0
  0
LINE
  5
76
330
1F
100
AcDbEntity
  8
0-A
  6
Continuous
 62
     2
370
    13
100
AcDbLine
 10
-361.7096047403788
 20
845.1853142141284
 30
0.0
 11
-375.7096203526534
 21
845.1853142141284
 31
0.0
  0
LINE
  5
77
330
1F
100
AcDbEntity
  8
0-A
  6
Continuous
 62
     2
370
    13
100
AcDbLine
 10
-368.2305437756839
 20
842.1178174025674
 30
0.0
 11
-369.18860699703
 21
842.1178174025674
 31
0.0
  0
LINE
  5
78
330
1F
100
AcDbEntity
  8
0-A
  6
Continuous
 62
     2
370
    13
100
AcDbLine
 10
-368.2305437756839
 20
841.4979859491484
 30
0.0
 11
-368.2305437756839
 21
842.1178174025674
 31
0.0
  0
LINE
  5
79
330
1F
100
AcDbEntity
  8
0-A
  6
Continuous
 62
     2
370
    13
100
AcDbLine
 10
-369.18860699703
 20
841.4979859491484
 30
0.0
 11
-369.18860699703
 21
842.1178174025674
 31
0.0
  0
LINE
  5
7A
330
1F
100
AcDbEntity
  8
0-1
  6
Continuous
 62
     3
370
    13
100
AcDbLine
 10
-353.7096170534557
 20
852.6852748004995
 30
0.0
 11
-353.7096170534557
 21
855.6852887631754
 31
0.0
  0
LINE
  5
7B
330
1F
100
AcDbEntity
  8
0-1
  6
Continuous
 62
     3
370
    13
100
AcDbLine
 10
-383.7094593989401
 20
855.6852887631754
 30
0.0
 11
-353.7096170534557
 21
855.6852887631754
 31
0.0
  0
LINE
  5
7C
330
1F
100
AcDbEntity
  8
0-2
  6
Continuous
 62
     6
370
    13
100
AcDbLine
 10
-378.7094856746928
 20
847.6853010762522
 30
0.0
 11
-378.7094856746928
 21
852.6852748004995
 31
0.0
  0
LINE
  5
7D
330
1F
100
AcDbEntity
  8
0-0
  6
Continuous
 62
     4
370
    13
100
AcDbLine
 10
-388.7095074435057
 20
834.1851639238935
 30
0.0
 11
-388.7095074435057
 21
874.1852509991452
 31
0.0
  0
LINE
  5
7E
330
1F
100
AcDbEntity
  8
0-0
  6
Continuous
 62
     4
370
    13
100
AcDbLine
 10
-383.7094593989401
 20
834.1851639238935
 30
0.0
 11
-383.7094593989401
 21
874.1852509991452
 31
0.0
  0
LINE
  5
7F
330
1F
100
AcDbEntity
  8
0-A
  6
Continuous
 62
     2
370
    13
100
AcDbLine
 10
-373.4805310502074
 20
855.6852887631754
 30
0.0
 11
-374.4831121421287
 21
856.2640954009726
 31
0.0
  0
LINE
  5
80
330
1F
100
AcDbEntity
  8
0-A
  6
Continuous
 62
     2
370
    13
100
AcDbLine
 10
-374.4831121421287
 20
860.106604490262
 30
0.0
 11
-374.4831121421287
 21
856.2640954009726
 31
0.0
  0
LINE
  5
81
330
1F
100
AcDbEntity
  8
0-A
  6
Continuous
 62
     2
370
    13
100
AcDbLine
 10
-373.2096334905297
 20
860.8417810774588
 30
0.0
 11
-374.4831121421287
 21
860.106604490262
 31
0.0
  0
LINE
  5
82
330
1F
100
AcDbEntity
  8
0-A
  6
Continuous
 62
     2
370
    13
100
AcDbLine
 10
-362.9360386305853
 20
860.106604490262
 30
0.0
 11
-362.9360386305853
 21
856.2640954009726
 31
0.0
  0
LINE
  5
83
330
1F
100
AcDbEntity
  8
0-A
  6
Continuous
 62
     2
370
    13
100
AcDbLine
 10
-363.9386197225066
 20
855.6852887631754
 30
0.0
 11
-362.9360386305853
 21
856.2640954009726
 31
0.0
  0
LINE
  5
84
330
1F
100
AcDbEntity
  8
0-A
  6
Continuous
 62
     2
370
    13
100
AcDbLine
 10
-373.4803824095711
 20
860.6854111280592
 30
0.0
 11
-363.9386197225066
 21
860.6854111280592
 31
0.0
  0
LINE
  5
85
330
1F
100
AcDbEntity
  8
0-A
  6
Continuous
 62
     2
370
    13
100
AcDbLine
 10
-364.2095916025025
 20
860.8417810774588
 30
0.0
 11
-362.9360386305853
 21
860.106604490262
 31
0.0
  0
LINE
  5
86
330
1F
100
AcDbEntity
  8
0-A
  6
Continuous
 62
     2
370
    13
100
AcDbLine
 10
-365.8227884283916
 20
860.106604490262
 30
0.0
 11
-365.8227884283916
 21
856.2640954009726
 31
0.0
  0
LINE
  5
87
330
1F
100
AcDbEntity
  8
0-A
  6
Continuous
 62
     2
370
    13
100
AcDbLine
 10
-371.5964366646405
 20
860.106604490262
 30
0.0
 11
-371.5964366646405
 21
856.2640954009726
 31
0.0
  0
LINE
  5
88
330
1F
100
AcDbEntity
  8
0-1
  6
Continuous
 62
     3
370
    13
100
AcDbLine
 10
-363.7095645019505
 20
852.6852748004995
 30
0.0
 11
-363.7095645019505
 21
855.6852887631754
 31
0.0
  0
LINE
  5
89
330
1F
100
AcDbEntity
  8
0-1
  6
Continuous
 62
     3
370
    13
100
AcDbLine
 10
-373.7096605910816
 20
852.6852748004995
 30
0.0
 11
-373.7096605910816
 21
855.6852887631754
 31
0.0
  0
LINE
  5
8A
330
1F
100
AcDbEntity
  8
0-1
  6
JWW_DASHED1
 62
     3
370
    13
100
AcDbLine
 10
356.2903678055837
 20
852.6852748004995
 30
0.0
 11
326.2905254600994
 21
852.6852748004995
 31
0.0
  0
LINE
  5
8B
330
1F
100
AcDbEntity
  8
0-1
  6
JWW_DASHED1
 62
     3
370
    13
100
AcDbLine
 10
326.2905254600994
 20
852.6852748004995
 30
0.0
 11
326.2905254600994
 21
855.6852887631754
 31
0.0
  0
LINE
  5
8C
330
1F
100
AcDbEntity
  8
0-1
  6
JWW_DASHED1
 62
     3
370
    13
100
AcDbLine
 10
356.2903678055837
 20
855.6852887631754
 30
0.0
 11
326.2905254600994
 21
855.6852887631754
 31
0.0
  0
LINE
  5
8D
330
1F
100
AcDbEntity
  8
0-2
  6
JWW_DASHED1
 62
     6
370
    13
100
AcDbLine
 10
351.2903940813362
 20
847.6853010762522
 30
0.0
 11
351.2903940813362
 21
852.6852748004995
 31
0.0
  0
LINE
  5
8E
330
1F
100
AcDbEntity
  8
0-0
  6
Continuous
 62
     4
370
    13
100
AcDbLine
 10
361.2904901704676
 20
834.1851639238935
 30
0.0
 11
361.2904901704676
 21
874.1852509991452
 31
0.0
  0
LINE
  5
8F
330
1F
100
AcDbEntity
  8
0-0
  6
JWW_DASHED1
 62
     4
370
    13
100
AcDbLine
 10
356.2903678055837
 20
834.1851639238935
 30
0.0
 11
356.2903678055837
 21
874.1852509991452
 31
0.0
  0
LINE
  5
90
330
1F
100
AcDbEntity
  8
0-0
  6
Continuous
 62
     4
370
    13
100
AcDbLine
 10
-451.2095505981891
 20
774.1854792329246
 30
0.0
 11
-451.2095505981891
 21
874.1855482804181
 31
0.0
  0
LINE
  5
91
330
1F
100
AcDbEntity
  8
0-0
  6
Continuous
 62
     4
370
    13
100
AcDbLine
 10
-451.2095505981891
 20
774.1854792329246
 30
0.0
 11
-431.2095070605632
 21
754.1855843359349
 31
0.0
  0
LINE
  5
92
330
1F
100
AcDbEntity
  8
0-0
  6
Continuous
 62
     4
370
    13
100
AcDbLine
 10
-341.2095341022009
 20
754.1855843359349
 30
0.0
 11
-321.2094905645749
 21
774.1854792329246
 31
0.0
  0
LINE
  5
93
330
1F
100
AcDbEntity
  8
0-0
  6
Continuous
 62
     4
370
    13
100
AcDbLine
 10
423.7903103641963
 20
774.1854792329246
 30
0.0
 11
403.7901181859341
 21
754.1855843359349
 31
0.0
  0
LINE
  5
94
330
1F
100
AcDbEntity
  8
0-0
  6
Continuous
 62
     4
370
    13
100
AcDbLine
 10
313.7902938682081
 20
754.1855843359349
 30
0.0
 11
403.7901181859341
 21
754.1855843359349
 31
0.0
  0
LINE
  5
95
330
1F
100
AcDbEntity
  8
0-0
  6
Continuous
 62
     4
370
    13
100
AcDbLine
 10
313.7902938682081
 20
754.1855843359349
 30
0.0
 11
293.7902503305822
 21
774.1854792329246
 31
0.0
  0
LINE
  5
96
330
1F
100
AcDbEntity
  8
0-0
  6
Continuous
 62
     4
370
    13
100
AcDbLine
 10
423.7903103641963
 20
874.1855482804181
 30
0.0
 11
-451.2095505981891
 21
874.1855482804181
 31
0.0
  0
LINE
  5
97
330
1F
100
AcDbEntity
  8
0-0
  6
Continuous
 62
     4
370
    13
100
AcDbLine
 10
423.7903103641963
 20
774.1854792329246
 30
0.0
 11
423.7903103641963
 21
874.1855482804181
 31
0.0
  0
LINE
  5
98
330
1F
100
AcDbEntity
  8
0-0
  6
Continuous
 62
     4
370
    13
100
AcDbLine
 10
-321.2094905645749
 20
774.1854792329246
 30
0.0
 11
-321.2094905645749
 21
834.1853125645298
 31
0.0
  0
LINE
  5
99
330
1F
100
AcDbEntity
  8
0-0
  6
JWW_DASHED1
 62
     4
370
    13
100
AcDbLine
 10
-321.2094905645749
 20
834.1853125645298
 30
0.0
 11
-321.2094905645749
 21
874.1855482804181
 31
0.0
  0
LINE
  5
9A
330
1F
100
AcDbEntity
  8
0-0
  6
Continuous
 62
     4
370
    13
100
AcDbLine
 10
293.7902503305822
 20
774.1854792329246
 30
0.0
 11
293.7902503305822
 21
834.1853125645298
 31
0.0
  0
LINE
  5
9B
330
1F
100
AcDbEntity
  8
0-0
  6
JWW_DASHED1
 62
     4
370
    13
100
AcDbLine
 10
293.7902503305822
 20
834.1853125645298
 30
0.0
 11
293.7902503305822
 21
874.1855482804181
 31
0.0
  0
LINE
  5
9C
330
1F
100
AcDbEntity
  8
0-A
  6
Continuous
 62
     2
370
    13
100
AcDbLine
 10
-362.2094832002945
 20
846.6852468751483
 30
0.0
 11
-375.2095932521013
 21
846.6852468751483
 31
0.0
  0
LINE
  5
9D
330
1F
100
AcDbEntity
  8
0-A
  6
Continuous
 62
     2
370
    13
100
AcDbLine
 10
-375.2095932521013
 20
846.6852468751483
 30
0.0
 11
-375.2095932521013
 21
847.6853010762522
 31
0.0
  0
LINE
  5
9E
330
1F
100
AcDbEntity
  8
0-A
  6
Continuous
 62
     2
370
    13
100
AcDbLine
 10
-362.2094832002945
 20
846.6852468751483
 30
0.0
 11
-362.2094832002945
 21
847.6853010762522
 31
0.0
  0
LINE
  5
9F
330
1F
100
AcDbEntity
  8
0-A
  6
Continuous
 62
     2
370
    13
100
AcDbLine
 10
-362.6096237932452
 20
845.1853142141284
 30
0.0
 11
-362.6096237932452
 21
846.6852468751483
 31
0.0
  0
LINE
  5
A0
330
1F
100
AcDbEntity
  8
0-A
  6
Continuous
 62
     2
370
    13
100
AcDbLine
 10
-374.809601299787
 20
845.1853142141284
 30
0.0
 11
-374.809601299787
 21
846.6852468751483
 31
0.0
  0
LINE
  5
A1
330
1F
100
AcDbEntity
  8
0-A
  6
Continuous
 62
     2
370
    13
100
AcDbLine
 10
-369.709592427302
 20
845.1853142141284
 30
0.0
 11
-369.709592427302
 21
846.6852468751483
 31
0.0
  0
LINE
  5
A2
330
1F
100
AcDbEntity
  8
0-A
  6
Continuous
 62
     2
370
    13
100
AcDbLine
 10
-370.7096466284059
 20
845.1853142141284
 30
0.0
 11
-370.7096466284059
 21
846.6852468751483
 31
0.0
  0
LINE
  5
A3
330
1F
100
AcDbEntity
  8
0-A
  6
Continuous
 62
     2
370
    13
100
AcDbLine
 10
-372.9596199402536
 20
861.2746226103981
 30
0.0
 11
-372.9596199402536
 21
861.6640610775341
 31
0.0
  0
LINE
  5
A4
330
1F
100
AcDbEntity
  8
0-A
  6
Continuous
 62
     2
370
    13
100
AcDbLine
 10
-364.4596051527786
 20
861.6642097181705
 30
0.0
 11
-364.4596051527786
 21
861.2746226103981
 31
0.0
  0
LINE
  5
A5
330
1F
100
AcDbEntity
  8
0-F
  6
Continuous
 62
     7
370
    13
100
AcDbLine
 10
-214.2561611910643
 20
882.0816361625594
 30
0.0
 11
-225.8970269441203
 21
860.7401108822216
 31
0.0
  0
LINE
  5
A6
330
1F
100
AcDbEntity
  8
0-F
  6
Continuous
 62
     7
370
    13
100
AcDbLine
 10
-225.8970269441203
 20
860.7401108822216
 30
0.0
 11
-221.3699534042981
 21
841.9852299549774
 31
0.0
  0
LINE
  5
A7
330
1F
100
AcDbEntity
  8
0-F
  6
Continuous
 62
     7
370
    13
100
AcDbLine
 10
-221.3699534042981
 20
841.9852299549774
 30
0.0
 11
-208.4356911543772
 21
827.1107614792822
 31
0.0
  0
LINE
  5
A8
330
1F
100
AcDbEntity
  8
0-2
  6
Continuous
 62
     6
370
    13
100
AcDbLine
 10
-353.7096170534557
 20
852.6852748004995
 30
0.0
 11
-223.9527331008472
 21
852.6852748004995
 31
0.0
  0
LINE
  5
A9
330
1F
100
AcDbEntity
  8
0-2
  6
Continuous
 62
     6
370
    13
100
AcDbLine
 10
-222.7459197746339
 20
847.6853010762522
 30
0.0
 11
-378.7094856746928
 21
847.6853010762522
 31
0.0
  0
LINE
  5
AA
330
1F
100
AcDbEntity
  8
0-1
  6
Continuous
 62
     3
370
    13
100
AcDbLine
 10
-383.7094593989401
 20
852.6852748004995
 30
0.0
 11
-371.7095521888735
 21
852.6852748004995
 31
0.0
  0
LINE
  5
AB
330
1F
100
AcDbEntity
  8
0-1
  6
Continuous
 62
     3
370
    13
100
AcDbLine
 10
-365.7096729041585
 20
852.6852748004995
 30
0.0
 11
-353.7096170534557
 21
852.6852748004995
 31
0.0
  0
LINE
  5
AC
330
1F
100
AcDbEntity
  8
0-A
  6
JWW_DASHED1
 62
     2
370
    13
100
AcDbLine
 10
-365.7096729041585
 20
861.1852895879748
 30
0.0
 11
-371.7095521888735
 21
861.1852895879748
 31
0.0
  0
LINE
  5
AD
330
1F
100
AcDbEntity
  8
0-A
  6
Continuous
 62
     2
370
    13
100
AcDbLine
 10
-370.8395585445422
 20
847.6853010762522
 30
0.0
 11
-370.8395585445422
 21
855.6852887631754
 31
0.0
  0
LINE
  5
AE
330
1F
100
AcDbEntity
  8
0-A
  6
Continuous
 62
     2
370
    13
100
AcDbLine
 10
-371.7095521888735
 20
847.6853010762522
 30
0.0
 11
-371.7095521888735
 21
855.6852887631754
 31
0.0
  0
LINE
  5
AF
330
1F
100
AcDbEntity
  8
0-A
  6
JWW_DASHED1
 62
     2
370
    13
100
AcDbLine
 10
-371.7095521888735
 20
855.6852887631754
 30
0.0
 11
-371.7095521888735
 21
861.1852895879748
 31
0.0
  0
LINE
  5
B0
330
1F
100
AcDbEntity
  8
0-A
  6
JWW_DASHED1
 62
     2
370
    13
100
AcDbLine
 10
-370.8395585445422
 20
855.6852887631754
 30
0.0
 11
-370.8395585445422
 21
861.1852895879748
 31
0.0
  0
LINE
  5
B1
330
1F
100
AcDbEntity
  8
0-A
  6
Continuous
 62
     2
370
    13
100
AcDbLine
 10
-366.57966654849
 20
847.6853010762522
 30
0.0
 11
-366.57966654849
 21
855.6852887631754
 31
0.0
  0
LINE
  5
B2
330
1F
100
AcDbEntity
  8
0-A
  6
Continuous
 62
     2
370
    13
100
AcDbLine
 10
-365.7096729041585
 20
847.6853010762522
 30
0.0
 11
-365.7096729041585
 21
855.6852887631754
 31
0.0
  0
LINE
  5
B3
330
1F
100
AcDbEntity
  8
0-A
  6
JWW_DASHED1
 62
     2
370
    13
100
AcDbLine
 10
-365.7096729041585
 20
855.6852887631754
 30
0.0
 11
-365.7096729041585
 21
861.1852895879748
 31
0.0
  0
LINE
  5
B4
330
1F
100
AcDbEntity
  8
0-A
  6
JWW_DASHED1
 62
     2
370
    13
100
AcDbLine
 10
-366.57966654849
 20
855.6852887631754
 30
0.0
 11
-366.57966654849
 21
861.1852895879748
 31
0.0
  0
LINE
  5
B5
330
1F
100
AcDbEntity
  8
0-1
  6
JWW_CENTER1
 62
     3
370
    13
100
AcDbLine
 10
-368.709538226198
 20
839.0962505476267
 30
0.0
 11
-368.709538226198
 21
866.6111187352545
 31
0.0
  0
LINE
  5
B6
330
1F
100
AcDbEntity
  8
0-A
  6
JWW_DASHED1
 62
     2
370
    13
100
AcDbLine
 10
334.2903645063862
 20
845.1853142141284
 30
0.0
 11
334.2903645063862
 21
844.7704581981832
 31
0.0
  0
LINE
  5
B7
330
1F
100
AcDbEntity
  8
0-A
  6
JWW_DASHED1
 62
     2
370
    13
100
AcDbLine
 10
334.2903645063862
 20
844.7704581981832
 30
0.0
 11
348.2903801186606
 21
844.7704581981832
 31
0.0
  0
LINE
  5
B8
330
1F
100
AcDbEntity
  8
0-A
  6
JWW_DASHED1
 62
     2
370
    13
100
AcDbLine
 10
348.2903801186606
 20
845.1853142141284
 30
0.0
 11
348.2903801186606
 21
844.7704581981832
 31
0.0
  0
LINE
  5
B9
330
1F
100
AcDbEntity
  8
0-A
  6
JWW_DASHED1
 62
     2
370
    13
100
AcDbLine
 10
334.2903645063862
 20
845.1853142141284
 30
0.0
 11
348.2903801186606
 21
845.1853142141284
 31
0.0
  0
LINE
  5
BA
330
1F
100
AcDbEntity
  8
0-A
  6
JWW_DASHED1
 62
     2
370
    13
100
AcDbLine
 10
340.8113778620095
 20
842.1178174025674
 30
0.0
 11
341.7693667630373
 21
842.1178174025674
 31
0.0
  0
LINE
  5
BB
330
1F
100
AcDbEntity
  8
0-A
  6
JWW_DASHED1
 62
     2
370
    13
100
AcDbLine
 10
340.8113778620095
 20
841.4979859491484
 30
0.0
 11
340.8113778620095
 21
842.1178174025674
 31
0.0
  0
LINE
  5
BC
330
1F
100
AcDbEntity
  8
0-A
  6
JWW_DASHED1
 62
     2
370
    13
100
AcDbLine
 10
341.7693667630373
 20
841.4979859491484
 30
0.0
 11
341.7693667630373
 21
842.1178174025674
 31
0.0
  0
LINE
  5
BD
330
1F
100
AcDbEntity
  8
0-A
  6
JWW_DASHED1
 62
     2
370
    13
100
AcDbLine
 10
346.0613651365329
 20
855.6852887631754
 30
0.0
 11
347.0639462284541
 21
856.2640954009726
 31
0.0
  0
LINE
  5
BE
330
1F
100
AcDbEntity
  8
0-A
  6
JWW_DASHED1
 62
     2
370
    13
100
AcDbLine
 10
347.0639462284541
 20
860.106604490262
 30
0.0
 11
347.0639462284541
 21
856.2640954009726
 31
0.0
  0
LINE
  5
BF
330
1F
100
AcDbEntity
  8
0-A
  6
JWW_DASHED1
 62
     2
370
    13
100
AcDbLine
 10
345.7903932565369
 20
860.8417810774588
 30
0.0
 11
347.0639462284541
 21
860.106604490262
 31
0.0
  0
LINE
  5
C0
330
1F
100
AcDbEntity
  8
0-A
  6
JWW_DASHED1
 62
     2
370
    13
100
AcDbLine
 10
335.5167983965925
 20
860.106604490262
 30
0.0
 11
335.5167983965925
 21
856.2640954009726
 31
0.0
  0
LINE
  5
C1
330
1F
100
AcDbEntity
  8
0-A
  6
JWW_DASHED1
 62
     2
370
    13
100
AcDbLine
 10
336.5193794885138
 20
855.6852887631754
 30
0.0
 11
335.5167983965925
 21
856.2640954009726
 31
0.0
  0
LINE
  5
C2
330
1F
100
AcDbEntity
  8
0-A
  6
JWW_DASHED1
 62
     2
370
    13
100
AcDbLine
 10
346.0612164958965
 20
860.6854111280592
 30
0.0
 11
336.5193794885138
 21
860.6854111280592
 31
0.0
  0
LINE
  5
C3
330
1F
100
AcDbEntity
  8
0-A
  6
JWW_DASHED1
 62
     2
370
    13
100
AcDbLine
 10
336.7903513685097
 20
860.8417810774588
 30
0.0
 11
335.5167983965925
 21
860.106604490262
 31
0.0
  0
LINE
  5
C4
330
1F
100
AcDbEntity
  8
0-A
  6
JWW_DASHED1
 62
     2
370
    13
100
AcDbLine
 10
338.4035481943988
 20
860.106604490262
 30
0.0
 11
338.4035481943988
 21
856.2640954009726
 31
0.0
  0
LINE
  5
C5
330
1F
100
AcDbEntity
  8
0-A
  6
JWW_DASHED1
 62
     2
370
    13
100
AcDbLine
 10
344.1771964306477
 20
860.106604490262
 30
0.0
 11
344.1771964306477
 21
856.2640954009726
 31
0.0
  0
LINE
  5
C6
330
1F
100
AcDbEntity
  8
0-1
  6
JWW_DASHED1
 62
     3
370
    13
100
AcDbLine
 10
336.2903242679578
 20
852.6852748004995
 30
0.0
 11
336.2903242679578
 21
855.6852887631754
 31
0.0
  0
LINE
  5
C7
330
1F
100
AcDbEntity
  8
0-1
  6
JWW_DASHED1
 62
     3
370
    13
100
AcDbLine
 10
346.2904203570889
 20
852.6852748004995
 30
0.0
 11
346.2904203570889
 21
855.6852887631754
 31
0.0
  0
LINE
  5
C8
330
1F
100
AcDbEntity
  8
0-A
  6
JWW_DASHED1
 62
     2
370
    13
100
AcDbLine
 10
334.7903916069382
 20
846.6852468751483
 30
0.0
 11
347.7903530181086
 21
846.6852468751483
 31
0.0
  0
LINE
  5
C9
330
1F
100
AcDbEntity
  8
0-A
  6
JWW_DASHED1
 62
     2
370
    13
100
AcDbLine
 10
347.7903530181086
 20
846.6852468751483
 30
0.0
 11
347.7903530181086
 21
847.6853010762522
 31
0.0
  0
LINE
  5
CA
330
1F
100
AcDbEntity
  8
0-A
  6
JWW_DASHED1
 62
     2
370
    13
100
AcDbLine
 10
334.7903916069382
 20
846.6852468751483
 30
0.0
 11
334.7903916069382
 21
847.6853010762522
 31
0.0
  0
LINE
  5
CB
330
1F
100
AcDbEntity
  8
0-A
  6
JWW_DASHED1
 62
     2
370
    13
100
AcDbLine
 10
335.1903835592524
 20
845.1853142141284
 30
0.0
 11
335.1903835592524
 21
846.6852468751483
 31
0.0
  0
LINE
  5
CC
330
1F
100
AcDbEntity
  8
0-A
  6
JWW_DASHED1
 62
     2
370
    13
100
AcDbLine
 10
347.3903610657943
 20
845.1853142141284
 30
0.0
 11
347.3903610657943
 21
846.6852468751483
 31
0.0
  0
LINE
  5
CD
330
1F
100
AcDbEntity
  8
0-A
  6
JWW_DASHED1
 62
     2
370
    13
100
AcDbLine
 10
342.2903521933092
 20
845.1853142141284
 30
0.0
 11
342.2903521933092
 21
846.6852468751483
 31
0.0
  0
LINE
  5
CE
330
1F
100
AcDbEntity
  8
0-A
  6
JWW_DASHED1
 62
     2
370
    13
100
AcDbLine
 10
343.2904063944131
 20
845.1853142141284
 30
0.0
 11
343.2904063944131
 21
846.6852468751483
 31
0.0
  0
LINE
  5
CF
330
1F
100
AcDbEntity
  8
0-A
  6
JWW_DASHED1
 62
     2
370
    13
100
AcDbLine
 10
345.5403797062609
 20
861.2746226103981
 30
0.0
 11
345.5403797062609
 21
861.6640610775341
 31
0.0
  0
LINE
  5
D0
330
1F
100
AcDbEntity
  8
0-A
  6
JWW_DASHED1
 62
     2
370
    13
100
AcDbLine
 10
337.0403649187858
 20
861.6642097181705
 30
0.0
 11
337.0403649187858
 21
861.2746226103981
 31
0.0
  0
LINE
  5
D1
330
1F
100
AcDbEntity
  8
0-A
  6
JWW_DASHED1
 62
     2
370
    13
100
AcDbLine
 10
338.2904326701657
 20
861.1852895879748
 30
0.0
 11
344.2903119548808
 21
861.1852895879748
 31
0.0
  0
LINE
  5
D2
330
1F
100
AcDbEntity
  8
0-A
  6
JWW_DASHED1
 62
     2
370
    13
100
AcDbLine
 10
343.4203183105495
 20
847.6853010762522
 30
0.0
 11
343.4203183105495
 21
861.1852895879748
 31
0.0
  0
LINE
  5
D3
330
1F
100
AcDbEntity
  8
0-A
  6
JWW_DASHED1
 62
     2
370
    13
100
AcDbLine
 10
344.2903119548808
 20
847.6853010762522
 30
0.0
 11
344.2903119548808
 21
861.1852895879748
 31
0.0
  0
LINE
  5
D4
330
1F
100
AcDbEntity
  8
0-A
  6
JWW_DASHED1
 62
     2
370
    13
100
AcDbLine
 10
339.1604263144972
 20
847.6853010762522
 30
0.0
 11
339.1604263144972
 21
861.1852895879748
 31
0.0
  0
LINE
  5
D5
330
1F
100
AcDbEntity
  8
0-A
  6
JWW_DASHED1
 62
     2
370
    13
100
AcDbLine
 10
338.2904326701657
 20
847.6853010762522
 30
0.0
 11
338.2904326701657
 21
861.1852895879748
 31
0.0
  0
LINE
  5
D6
330
1F
100
AcDbEntity
  8
0-1
  6
JWW_CENTER1
 62
     3
370
    13
100
AcDbLine
 10
341.2902979922052
 20
839.0962505476267
 30
0.0
 11
341.2902979922052
 21
866.6111187352545
 31
0.0
  0
LINE
  5
D7
330
1F
100
AcDbEntity
  8
0-2
  6
Continuous
 62
     6
370
    13
100
AcDbLine
 10
-373.7095119504453
 20
847.6853010762522
 30
0.0
 11
-373.7095119504453
 21
852.6852748004995
 31
0.0
  0
LINE
  5
D8
330
1F
100
AcDbEntity
  8
0-2
  6
Continuous
 62
     6
370
    13
100
AcDbLine
 10
-363.7095645019505
 20
847.6853010762522
 30
0.0
 11
-363.7095645019505
 21
852.6852748004995
 31
0.0
  0
LINE
  5
D9
330
1F
100
AcDbEntity
  8
0-2
  6
JWW_DASHED1
 62
     6
370
    13
100
AcDbLine
 10
346.2902717164525
 20
847.6853010762522
 30
0.0
 11
346.2902717164525
 21
852.6852748004995
 31
0.0
  0
LINE
  5
DA
330
1F
100
AcDbEntity
  8
0-2
  6
JWW_DASHED1
 62
     6
370
    13
100
AcDbLine
 10
336.2903242679578
 20
847.6853010762522
 30
0.0
 11
336.2903242679578
 21
852.6852748004995
 31
0.0
  0
LINE
  5
DB
330
1F
100
AcDbEntity
  8
0-0
  6
Continuous
 62
     4
370
    13
100
AcDbLine
 10
361.2904901704676
 20
834.1853125645298
 30
0.0
 11
-388.7095074435057
 21
834.1853125645298
 31
0.0
  0
ARC
  5
DC
330
1F
100
AcDbEntity
  8
0-A
  6
Continuous
 62
     2
370
    13
100
AcDbCircle
 10
-368.709538226198
 20
850.5852798906903
 30
0.0
 40
9.10000097406417
100
AcDbArc
 50
273.0174102783203
 51
320.2848510742188
  0
ARC
  5
DD
330
1F
100
AcDbEntity
  8
0-A
  6
Continuous
 62
     2
370
    13
100
AcDbCircle
 10
-368.709538226198
 20
850.5852798906903
 30
0.0
 40
9.10000097406417
100
AcDbArc
 50
219.7151489257812
 51
266.9822845458984
  0
ARC
  5
DE
330
1F
100
AcDbEntity
  8
0-A
  6
Continuous
 62
     2
370
    13
100
AcDbCircle
 10
-373.4803824095711
 20
857.3291055601447
 30
0.0
 40
3.356073607233961
100
AcDbArc
 50
55.84544372558594
 51
90.0
  0
ARC
  5
DF
330
1F
100
AcDbEntity
  8
0-A
  6
Continuous
 62
     2
370
    13
100
AcDbCircle
 10
-368.709538226198
 20
863.1730608173689
 30
0.0
 40
7.487799343685385
100
AcDbArc
 50
247.323486328125
 51
292.6765136718751
  0
ARC
  5
E0
330
1F
100
AcDbEntity
  8
0-A
  6
Continuous
 62
     2
370
    13
100
AcDbCircle
 10
-373.4803824095711
 20
859.0412970498173
 30
0.0
 40
3.356073607233961
100
AcDbArc
 50
270.0
 51
304.1545562744141
  0
ARC
  5
E1
330
1F
100
AcDbEntity
  8
0-A
  6
Continuous
 62
     2
370
    13
100
AcDbCircle
 10
-373.4596470408056
 20
861.2746226103981
 30
0.0
 40
0.4999999925062694
100
AcDbArc
 50
300.0010986328125
 51
0.0000000000000127
  0
ARC
  5
E2
330
1F
100
AcDbEntity
  8
0-A
  6
Continuous
 62
     2
370
    13
100
AcDbCircle
 10
-363.9386197225066
 20
857.3291055601447
 30
0.0
 40
3.356073607233961
100
AcDbArc
 50
90.0
 51
124.154556274414
  0
ARC
  5
E3
330
1F
100
AcDbEntity
  8
0-A
  6
Continuous
 62
     2
370
    13
100
AcDbCircle
 10
-363.9386197225066
 20
859.0412970498173
 30
0.0
 40
3.356073607233961
100
AcDbArc
 50
235.845443725586
 51
270.0
  0
ARC
  5
E4
330
1F
100
AcDbEntity
  8
0-A
  6
Continuous
 62
     2
370
    13
100
AcDbCircle
 10
-363.9595780522265
 20
861.2746226103981
 30
0.0
 40
0.4999999925062694
100
AcDbArc
 50
180.0
 51
239.9989013671875
  0
ARC
  5
E5
330
1F
100
AcDbEntity
  8
0-A
  6
Continuous
 62
     2
370
    13
100
AcDbCircle
 10
-368.709538226198
 20
853.1974904332293
 30
0.0
 40
7.487799343685385
100
AcDbArc
 50
67.323486328125
 51
112.676513671875
  0
ARC
  5
E6
330
1F
100
AcDbEntity
  8
0-A
  6
Continuous
 62
     2
370
    13
100
AcDbCircle
 10
-368.709538226198
 20
860.1852353868708
 30
0.0
 40
4.500000331737819
100
AcDbArc
 50
19.18785095214844
 51
160.8142395019531
  0
ARC
  5
E7
330
1F
100
AcDbEntity
  8
0-A
  6
JWW_DASHED1
 62
     2
370
    13
100
AcDbCircle
 10
341.2902979922052
 20
850.5852798906903
 30
0.0
 40
9.10000097406417
100
AcDbArc
 50
219.7151489257812
 51
266.9825897216797
  0
ARC
  5
E8
330
1F
100
AcDbEntity
  8
0-A
  6
JWW_DASHED1
 62
     2
370
    13
100
AcDbCircle
 10
341.2902979922052
 20
850.5852798906903
 30
0.0
 40
9.10000097406417
100
AcDbArc
 50
273.0177154541016
 51
320.2848510742188
  0
ARC
  5
E9
330
1F
100
AcDbEntity
  8
0-A
  6
JWW_DASHED1
 62
     2
370
    13
100
AcDbCircle
 10
346.0612164958965
 20
857.3291055601447
 30
0.0
 40
3.356073607233961
100
AcDbArc
 50
90.0
 51
124.154556274414
  0
ARC
  5
EA
330
1F
100
AcDbEntity
  8
0-A
  6
JWW_DASHED1
 62
     2
370
    13
100
AcDbCircle
 10
341.2902979922052
 20
863.1730608173689
 30
0.0
 40
7.487799343685385
100
AcDbArc
 50
247.323486328125
 51
292.6765136718751
  0
ARC
  5
EB
330
1F
100
AcDbEntity
  8
0-A
  6
JWW_DASHED1
 62
     2
370
    13
100
AcDbCircle
 10
346.0612164958965
 20
859.0412970498173
 30
0.0
 40
3.356073607233961
100
AcDbArc
 50
235.845443725586
 51
270.0
  0
ARC
  5
EC
330
1F
100
AcDbEntity
  8
0-A
  6
JWW_DASHED1
 62
     2
370
    13
100
AcDbCircle
 10
346.0404068068129
 20
861.2746226103981
 30
0.0
 40
0.4999999925062694
100
AcDbArc
 50
180.0
 51
239.9989013671875
  0
ARC
  5
ED
330
1F
100
AcDbEntity
  8
0-A
  6
JWW_DASHED1
 62
     2
370
    13
100
AcDbCircle
 10
336.5193794885138
 20
857.3291055601447
 30
0.0
 40
3.356073607233961
100
AcDbArc
 50
55.84544372558594
 51
90.0
  0
ARC
  5
EE
330
1F
100
AcDbEntity
  8
0-A
  6
JWW_DASHED1
 62
     2
370
    13
100
AcDbCircle
 10
336.5193794885138
 20
859.0412970498173
 30
0.0
 40
3.356073607233961
100
AcDbArc
 50
270.0
 51
304.1545562744141
  0
ARC
  5
EF
330
1F
100
AcDbEntity
  8
0-A
  6
JWW_DASHED1
 62
     2
370
    13
100
AcDbCircle
 10
336.5403378182338
 20
861.2746226103981
 30
0.0
 40
0.4999999925062694
100
AcDbArc
 50
300.0010986328125
 51
0.0000000000000127
  0
ARC
  5
F0
330
1F
100
AcDbEntity
  8
0-A
  6
JWW_DASHED1
 62
     2
370
    13
100
AcDbCircle
 10
341.2902979922052
 20
853.1974904332293
 30
0.0
 40
7.487799343685385
100
AcDbArc
 50
67.323486328125
 51
112.676513671875
  0
ARC
  5
F1
330
1F
100
AcDbEntity
  8
0-A
  6
JWW_DASHED1
 62
     2
370
    13
100
AcDbCircle
 10
341.2902979922052
 20
860.1852353868708
 30
0.0
 40
4.500000331737819
100
AcDbArc
 50
19.18576049804688
 51
160.8121490478516
  0
LINE
  5
F2
330
1F
100
AcDbEntity
  8
0-2
  6
JWW_DASHED1
 62
     6
370
    13
100
AcDbLine
 10
351.2903940813362
 20
847.6853010762522
 30
0.0
 11
-222.7459197746339
 21
847.6853010762522
 31
0.0
  0
LINE
  5
F3
330
1F
100
AcDbEntity
  8
0-2
  6
JWW_DASHED1
 62
     6
370
    13
100
AcDbLine
 10
-223.9527331008472
 20
852.6852748004995
 30
0.0
 11
326.2905254600994
 21
852.6852748004995
 31
0.0
  0
LINE
  5
F4
330
1F
100
AcDbEntity
  8
0-4
  6
Continuous
 62
     7
370
    13
100
AcDbLine
 10
28.02896496561717
 20
874.1855482804181
 30
0.0
 11
24.76581016011588
 21
898.9716698147633
 31
0.0
  0
LINE
  5
F5
330
1F
100
AcDbEntity
  8
0-4
  6
Continuous
 62
     7
370
    13
100
AcDbLine
 10
28.02896496561717
 20
874.1855482804181
 30
0.0
 11
31.29211977111846
 21
898.9716698147633
 31
0.0
  0
LINE
  5
F6
330
1F
100
AcDbEntity
  8
0-4
  6
Continuous
 62
     7
370
    13
100
AcDbLine
 10
28.02896496561717
 20
834.1853125645298
 30
0.0
 11
24.76581016011588
 21
809.3991910301845
 31
0.0
  0
LINE
  5
F7
330
1F
100
AcDbEntity
  8
0-4
  6
Continuous
 62
     7
370
    13
100
AcDbLine
 10
28.02896496561717
 20
834.1853125645298
 30
0.0
 11
31.29211977111845
 21
809.3991910301845
 31
0.0
  0
TEXT
  5
F8
330
1F
100
AcDbEntity
  8
0-4
  6
Continuous
 62
     2
370
   211
100
AcDbText
 10
12.38896496561716
 20
780.008366368574
 30
0.0
 40
30.48
  1
40
 50
90.0
 41
1.0625
  7
ＭＳ ゴシック
100
AcDbText
  0
LINE
  5
F9
330
1F
100
AcDbEntity
  8
0-0
  6
JWW_CENTER1
 62
     4
370
    13
100
AcDbLine
 10
411.2957034292771
 20
854.1855047427919
 30
0.0
 11
386.2846098127915
 21
854.1855047427919
 31
0.0
  0
LINE
  5
FA
330
1F
100
AcDbEntity
  8
0-0
  6
JWW_CENTER1
 62
     4
370
    13
100
AcDbLine
 10
398.7901444616867
 20
865.6854856693054
 30
0.0
 11
398.7901444616867
 21
842.6855257236268
 31
0.0
  0
LINE
  5
FB
330
1F
100
AcDbEntity
  8
0-0
  6
JWW_CENTER1
 62
     4
370
    13
100
AcDbLine
 10
411.2957034292771
 20
774.1854792329246
 30
0.0
 11
386.2846098127915
 21
774.1854792329246
 31
0.0
  0
LINE
  5
FC
330
1F
100
AcDbEntity
  8
0-0
  6
JWW_CENTER1
 62
     4
370
    13
100
AcDbLine
 10
398.7901444616867
 20
785.6854601594382
 30
0.0
 11
398.7901444616867
 21
762.6855002137596
 31
0.0
  0
LINE
  5
FD
330
1F
100
AcDbEntity
  8
0-0
  6
JWW_CENTER1
 62
     4
370
    13
100
AcDbLine
 10
331.295826560046
 20
774.1854792329246
 30
0.0
 11
306.2847329435602
 21
774.1854792329246
 31
0.0
  0
LINE
  5
FE
330
1F
100
AcDbEntity
  8
0-0
  6
JWW_CENTER1
 62
     4
370
    13
100
AcDbLine
 10
318.7902675924556
 20
785.6854601594382
 30
0.0
 11
318.7902675924556
 21
762.6855002137596
 31
0.0
  0
LINE
  5
FF
330
1F
100
AcDbEntity
  8
0-0
  6
JWW_CENTER1
 62
     4
370
    13
100
AcDbLine
 10
-413.7039743687254
 20
854.1855047427919
 30
0.0
 11
-438.715067985211
 21
854.1855047427919
 31
0.0
  0
LINE
  5
100
330
1F
100
AcDbEntity
  8
0-0
  6
JWW_CENTER1
 62
     4
370
    13
100
AcDbLine
 10
-426.2095333363158
 20
865.6854856693054
 30
0.0
 11
-426.2095333363158
 21
842.6855257236268
 31
0.0
  0
LINE
  5
101
330
1F
100
AcDbEntity
  8
0-0
  6
JWW_CENTER1
 62
     4
370
    13
100
AcDbLine
 10
-413.7039743687254
 20
774.1854792329246
 30
0.0
 11
-438.715067985211
 21
774.1854792329246
 31
0.0
  0
LINE
  5
102
330
1F
100
AcDbEntity
  8
0-0
  6
JWW_CENTER1
 62
     4
370
    13
100
AcDbLine
 10
-426.2095333363158
 20
785.6854601594382
 30
0.0
 11
-426.2095333363158
 21
762.6855002137596
 31
0.0
  0
LINE
  5
103
330
1F
100
AcDbEntity
  8
0-0
  6
JWW_CENTER1
 62
     4
370
    13
100
AcDbLine
 10
-333.7039488588579
 20
774.1854792329246
 30
0.0
 11
-358.7150424753436
 21
774.1854792329246
 31
0.0
  0
LINE
  5
104
330
1F
100
AcDbEntity
  8
0-0
  6
JWW_CENTER1
 62
     4
370
    13
100
AcDbLine
 10
-346.2095078264483
 20
785.6854601594382
 30
0.0
 11
-346.2095078264483
 21
762.6855002137596
 31
0.0
  0
LINE
  5
105
330
1F
100
AcDbEntity
  8
0-4
  6
Continuous
 62
     7
370
    13
100
AcDbLine
 10
563.7903103641963
 20
754.1855843359349
 30
0.0
 11
563.7903103641963
 21
874.1855482804181
 31
0.0
  0
LINE
  5
106
330
1F
100
AcDbEntity
  8
0-4
  6
Continuous
 62
     7
370
    13
100
AcDbLine
 10
563.7903103641963
 20
754.1855843359349
 30
0.0
 11
560.5271555586951
 21
778.9717058702802
 31
0.0
  0
LINE
  5
107
330
1F
100
AcDbEntity
  8
0-4
  6
Continuous
 62
     7
370
    13
100
AcDbLine
 10
563.7903103641963
 20
754.1855843359349
 30
0.0
 11
567.0534651696976
 21
778.9717058702802
 31
0.0
  0
LINE
  5
108
330
1F
100
AcDbEntity
  8
0-4
  6
Continuous
 62
     7
370
    13
100
AcDbLine
 10
563.7903103641963
 20
874.1855482804181
 30
0.0
 11
560.5271555586951
 21
849.3994267460728
 31
0.0
  0
LINE
  5
109
330
1F
100
AcDbEntity
  8
0-4
  6
Continuous
 62
     7
370
    13
100
AcDbLine
 10
563.7903103641963
 20
874.1855482804181
 30
0.0
 11
567.0534651696976
 21
849.3994267460728
 31
0.0
  0
LINE
  5
10A
330
1F
100
AcDbEntity
  8
0-4
  6
Continuous
 62
     7
370
    13
100
AcDbLine
 10
566.7903103641963
 20
754.1855843359349
 30
0.0
 11
423.7901181859341
 21
754.1855843359349
 31
0.0
  0
LINE
  5
10B
330
1F
100
AcDbEntity
  8
0-4
  6
Continuous
 62
     7
370
    13
100
AcDbLine
 10
566.7903103641963
 20
874.1855482804181
 30
0.0
 11
443.7903103641963
 21
874.1855482804181
 31
0.0
  0
TEXT
  5
10C
330
1F
100
AcDbEntity
  8
0-4
  6
Continuous
 62
     2
370
   211
100
AcDbText
 10
548.1503103641963
 20
781.6855663081765
 30
0.0
 40
30.48
  1
120
 50
90.0
 41
1.083333333333333
  7
ＭＳ ゴシック
100
AcDbText
  0
LINE
  5
10D
330
1F
100
AcDbEntity
  8
0-4
  6
Continuous
 62
     7
370
    13
100
AcDbLine
 10
563.7903103641963
 20
914.1855482804181
 30
0.0
 11
560.5271555586951
 21
938.9716698147633
 31
0.0
  0
LINE
  5
10E
330
1F
100
AcDbEntity
  8
0-4
  6
Continuous
 62
     7
370
    13
100
AcDbLine
 10
563.7903103641963
 20
914.1855482804181
 30
0.0
 11
567.0534651696976
 21
938.9716698147633
 31
0.0
  0
LINE
  5
10F
330
1F
100
AcDbEntity
  8
0-4
  6
Continuous
 62
     7
370
    13
100
AcDbLine
 10
563.7903103641963
 20
874.1855482804181
 30
0.0
 11
563.7903103641963
 21
954.1318918454637
 31
0.0
  0
LINE
  5
110
330
1F
100
AcDbEntity
  8
0-5
  6
Continuous
 62
     7
370
    13
100
AcDbLine
 10
712.1192422367182
 20
838.9026993535354
 30
0.0
 11
712.1192422367182
 21
685.2640269533448
 31
0.0
  0
LINE
  5
111
330
1F
100
AcDbEntity
  8
0-5
  6
Continuous
 62
     7
370
    13
100
AcDbLine
 10
712.1192422367182
 20
838.9026993535354
 30
0.0
 11
563.7903103641963
 21
894.1587200629408
 31
0.0
  0
TEXT
  5
112
330
1F
100
AcDbEntity
  8
0-4
  6
Continuous
 62
     2
370
   211
100
AcDbText
 10
700.1436268800094
 20
700.5833631534401
 30
0.0
 40
30.48
  1
40㎜以上
 50
90.0
 41
0.7687499999999997
  7
ＭＳ ゴシック
100
AcDbText
  0
TEXT
  5
113
330
1F
100
AcDbEntity
  8
0-4
  6
Continuous
 62
     2
370
   211
100
AcDbText
 10
-46.20962011699639
 20
599.8255843359349
 30
0.0
 40
30.48
  1
875
 41
1.083333333333333
  7
ＭＳ ゴシック
100
AcDbText
  0
LINE
  5
114
330
1F
100
AcDbEntity
  8
0-4
  6
Continuous
 62
     7
370
    13
100
AcDbLine
 10
423.7903103641963
 20
581.1855843359349
 30
0.0
 11
423.7903103641963
 21
754.1854792329246
 31
0.0
  0
LINE
  5
115
330
1F
100
AcDbEntity
  8
0-4
  6
Continuous
 62
     7
370
    13
100
AcDbLine
 10
-451.2095505981891
 20
581.1855843359349
 30
0.0
 11
-451.2095505981891
 21
754.1854792329246
 31
0.0
  0
LINE
  5
116
330
1F
100
AcDbEntity
  8
0-4
  6
Continuous
 62
     7
370
    13
100
AcDbLine
 10
423.7903103641963
 20
584.1855843359349
 30
0.0
 11
399.004188829851
 21
580.9224295304336
 31
0.0
  0
LINE
  5
117
330
1F
100
AcDbEntity
  8
0-4
  6
Continuous
 62
     7
370
    13
100
AcDbLine
 10
423.7903103641963
 20
584.1855843359349
 30
0.0
 11
399.004188829851
 21
587.4487391414361
 31
0.0
  0
LINE
  5
118
330
1F
100
AcDbEntity
  8
0-4
  6
Continuous
 62
     7
370
    13
100
AcDbLine
 10
-451.2095505981891
 20
584.1855843359349
 30
0.0
 11
-426.4234290638439
 21
580.9224295304336
 31
0.0
  0
LINE
  5
119
330
1F
100
AcDbEntity
  8
0-4
  6
Continuous
 62
     7
370
    13
100
AcDbLine
 10
-451.2095505981891
 20
584.1855843359349
 30
0.0
 11
-426.4234290638439
 21
587.4487391414361
 31
0.0
  0
LINE
  5
11A
330
1F
100
AcDbEntity
  8
0-4
  6
Continuous
 62
     7
370
    13
100
AcDbLine
 10
-451.2095505981891
 20
584.1855843359349
 30
0.0
 11
423.7903103641963
 21
584.1855843359349
 31
0.0
  0
TEXT
  5
11B
330
1F
100
AcDbEntity
  8
0-4
  6
Continuous
 62
     2
370
   211
100
AcDbText
 10
326.2902803473892
 20
669.8255843359349
 30
0.0
 40
30.48
  1
130
 41
1.083333333333333
  7
ＭＳ ゴシック
100
AcDbText
  0
LINE
  5
11C
330
1F
100
AcDbEntity
  8
0-4
  6
Continuous
 62
     7
370
    13
100
AcDbLine
 10
423.7903103641963
 20
651.1855843359349
 30
0.0
 11
423.7903103641963
 21
754.1854792329246
 31
0.0
  0
LINE
  5
11D
330
1F
100
AcDbEntity
  8
0-4
  6
Continuous
 62
     7
370
    13
100
AcDbLine
 10
293.7902503305822
 20
651.1855843359349
 30
0.0
 11
293.7902503305822
 21
754.1854792329246
 31
0.0
  0
LINE
  5
11E
330
1F
100
AcDbEntity
  8
0-4
  6
Continuous
 62
     7
370
    13
100
AcDbLine
 10
423.7903103641963
 20
654.1855843359349
 30
0.0
 11
399.004188829851
 21
650.9224295304335
 31
0.0
  0
LINE
  5
11F
330
1F
100
AcDbEntity
  8
0-4
  6
Continuous
 62
     7
370
    13
100
AcDbLine
 10
423.7903103641963
 20
654.1855843359349
 30
0.0
 11
399.004188829851
 21
657.4487391414362
 31
0.0
  0
LINE
  5
120
330
1F
100
AcDbEntity
  8
0-4
  6
Continuous
 62
     7
370
    13
100
AcDbLine
 10
293.7902503305822
 20
654.1855843359349
 30
0.0
 11
318.5763718649275
 21
650.9224295304335
 31
0.0
  0
LINE
  5
121
330
1F
100
AcDbEntity
  8
0-4
  6
Continuous
 62
     7
370
    13
100
AcDbLine
 10
293.7902503305822
 20
654.1855843359349
 30
0.0
 11
318.5763718649275
 21
657.4487391414362
 31
0.0
  0
LINE
  5
122
330
1F
100
AcDbEntity
  8
0-4
  6
Continuous
 62
     7
370
    13
100
AcDbLine
 10
293.7902503305822
 20
654.1855843359349
 30
0.0
 11
423.7903103641963
 21
654.1855843359349
 31
0.0
  0
LINE
  5
123
330
1F
100
AcDbEntity
  8
0-F
  6
Continuous
 62
     7
370
    13
100
AcDbLine
 10
416.151816704783
 20
44.68041429819884
 30
0.0
 11
361.2907874517401
 21
1.564373563948287
 31
0.0
  0
LINE
  5
124
330
1F
100
AcDbEntity
  8
0-2
  6
Continuous
 62
     6
370
    13
100
AcDbLine
 10
-378.7094485145337
 20
218.3910032909915
 30
0.0
 11
351.2905427219727
 21
218.3910032909915
 31
0.0
  0
LINE
  5
125
330
1F
100
AcDbEntity
  8
0-0
  6
Continuous
 62
     4
370
    13
100
AcDbLine
 10
293.7902503305822
 20
-871.6089540992818
 30
0.0
 11
423.7903103641963
 21
-871.6089540992818
 31
0.0
  0
LINE
  5
126
330
1F
100
AcDbEntity
  8
0-2
  6
Continuous
 62
     6
370
    13
100
AcDbLine
 10
351.2905427219727
 20
218.3910032909915
 30
0.0
 11
351.2905427219727
 21
-761.6089376032937
 31
0.0
  0
LINE
  5
127
330
1F
100
AcDbEntity
  8
0-2
  6
Continuous
 62
     6
370
    13
100
AcDbLine
 10
-378.7094485145337
 20
218.3910032909915
 30
0.0
 11
-378.7094485145337
 21
-761.6089376032937
 31
0.0
  0
LINE
  5
128
330
1F
100
AcDbEntity
  8
0-2
  6
Continuous
 62
     6
370
    13
100
AcDbLine
 10
-378.7094485145337
 20
-761.6089376032937
 30
0.0
 11
351.2905427219727
 21
-761.6089376032937
 31
0.0
  0
LINE
  5
129
330
1F
100
AcDbEntity
  8
0-0
  6
Continuous
 62
     4
370
    13
100
AcDbLine
 10
351.2905427219727
 20
223.390977015239
 30
0.0
 11
-378.7094485145337
 21
223.390977015239
 31
0.0
  0
LINE
  5
12A
330
1F
100
AcDbEntity
  8
0-0
  6
Continuous
 62
     4
370
    13
100
AcDbLine
 10
-378.7094485145337
 20
228.3910993801226
 30
0.0
 11
351.2905427219727
 21
228.3910993801226
 31
0.0
  0
LINE
  5
12B
330
1F
100
AcDbEntity
  8
0-0
  6
Continuous
 62
     4
370
    13
100
AcDbLine
 10
-321.2094905645749
 20
-866.6089060547164
 30
0.0
 11
-451.2095134380301
 21
-866.6089060547164
 31
0.0
  0
LINE
  5
12C
330
1F
100
AcDbEntity
  8
0-0
  6
Continuous
 62
     4
370
    13
100
AcDbLine
 10
-321.2094905645749
 20
-866.6089060547164
 30
0.0
 11
-321.2094905645749
 21
-871.6089540992818
 31
0.0
  0
LINE
  5
12D
330
1F
100
AcDbEntity
  8
0-0
  6
Continuous
 62
     4
370
    13
100
AcDbLine
 10
-451.2095134380301
 20
-871.6089540992818
 30
0.0
 11
-321.2094905645749
 21
-871.6089540992818
 31
0.0
  0
LINE
  5
12E
330
1F
100
AcDbEntity
  8
0-0
  6
Continuous
 62
     4
370
    13
100
AcDbLine
 10
-451.2095134380301
 20
-866.6089060547164
 30
0.0
 11
-451.2095134380301
 21
-871.6089540992818
 31
0.0
  0
LINE
  5
12F
330
1F
100
AcDbEntity
  8
0-0
  6
Continuous
 62
     4
370
    13
100
AcDbLine
 10
-388.7095074435057
 20
218.3910032909915
 30
0.0
 11
-388.7095074435057
 21
-866.6089060547164
 31
0.0
  0
LINE
  5
130
330
1F
100
AcDbEntity
  8
0-0
  6
Continuous
 62
     4
370
    13
100
AcDbLine
 10
-383.7094965590992
 20
218.3910032909915
 30
0.0
 11
-383.7094965590992
 21
-866.6089060547164
 31
0.0
  0
LINE
  5
131
330
1F
100
AcDbEntity
  8
0-0
  6
JWW_HOJO
 62
     4
370
    13
100
AcDbLine
 10
-386.209520581382
 20
-793.2127238950569
 30
0.0
 11
-386.209520581382
 21
-879.4149285956594
 31
0.0
  0
LINE
  5
132
330
1F
100
AcDbEntity
  8
0-1
  6
JWW_DASHED1
 62
     3
370
    13
100
AcDbLine
 10
-353.7096170534557
 20
193.3909860291182
 30
0.0
 11
-353.7096170534557
 21
-736.6089575015794
 31
0.0
  0
LINE
  5
133
330
1F
100
AcDbEntity
  8
0-1
  6
JWW_DASHED1
 62
     3
370
    13
100
AcDbLine
 10
326.2905254600994
 20
193.3909860291182
 30
0.0
 11
326.2905254600994
 21
-736.6089575015794
 31
0.0
  0
LINE
  5
134
330
1F
100
AcDbEntity
  8
0-A
  6
Continuous
 62
     2
370
    13
100
AcDbLine
 10
-368.1910425265842
 20
209.6403803906952
 30
0.0
 11
-367.958568571393
 21
209.1418396965063
 31
0.0
  0
LINE
  5
135
330
1F
100
AcDbEntity
  8
0-A
  6
Continuous
 62
     2
370
    13
100
AcDbLine
 10
-367.4600278772041
 20
208.9095143819512
 30
0.0
 11
-367.958568571393
 21
209.1418396965063
 31
0.0
  0
LINE
  5
136
330
1F
100
AcDbEntity
  8
0-A
  6
Continuous
 62
     2
370
    13
100
AcDbLine
 10
-369.2279596054935
 20
209.6403803906952
 30
0.0
 11
-369.4602849200484
 21
209.1418396965063
 31
0.0
  0
LINE
  5
137
330
1F
100
AcDbEntity
  8
0-A
  6
Continuous
 62
     2
370
    13
100
AcDbLine
 10
-369.9589742548736
 20
208.9095143819512
 30
0.0
 11
-369.4602849200484
 21
209.1418396965063
 31
0.0
  0
LINE
  5
138
330
1F
100
AcDbEntity
  8
0-A
  6
Continuous
 62
     2
370
    13
100
AcDbLine
 10
-368.1910425265842
 20
207.1415826536619
 30
0.0
 11
-367.958568571393
 21
207.6401233478509
 31
0.0
  0
LINE
  5
139
330
1F
100
AcDbEntity
  8
0-A
  6
Continuous
 62
     2
370
    13
100
AcDbLine
 10
-367.4600278772041
 20
207.8727459436784
 30
0.0
 11
-367.958568571393
 21
207.6401233478509
 31
0.0
  0
LINE
  5
13A
330
1F
100
AcDbEntity
  8
0-A
  6
Continuous
 62
     2
370
    13
100
AcDbLine
 10
-369.2279596054935
 20
207.1415826536619
 30
0.0
 11
-369.4602849200484
 21
207.6401233478509
 31
0.0
  0
LINE
  5
13B
330
1F
100
AcDbEntity
  8
0-A
  6
Continuous
 62
     2
370
    13
100
AcDbLine
 10
-369.9589742548736
 20
207.8727459436784
 30
0.0
 11
-369.4602849200484
 21
207.6401233478509
 31
0.0
  0
LINE
  5
13C
330
1F
100
AcDbEntity
  8
0-A
  6
Continuous
 62
     2
370
    13
100
AcDbLine
 10
-372.1594873949887
 20
208.8708678165104
 30
0.0
 11
-369.9589742548736
 21
208.9095143819512
 31
0.0
  0
LINE
  5
13D
330
1F
100
AcDbEntity
  8
0-A
  6
Continuous
 62
     2
370
    13
100
AcDbLine
 10
-372.1594873949887
 20
208.8708678165104
 30
0.0
 11
-372.1594873949887
 21
207.9110952278468
 31
0.0
  0
LINE
  5
13E
330
1F
100
AcDbEntity
  8
0-A
  6
Continuous
 62
     2
370
    13
100
AcDbLine
 10
-372.1594873949887
 20
207.9110952278468
 30
0.0
 11
-369.9589742548736
 21
207.8727459436784
 31
0.0
  0
LINE
  5
13F
330
1F
100
AcDbEntity
  8
0-A
  6
Continuous
 62
     2
370
    13
100
AcDbLine
 10
-369.1893502002115
 20
211.84130229256
 30
0.0
 11
-369.2279596054935
 21
209.6403803906952
 31
0.0
  0
LINE
  5
140
330
1F
100
AcDbEntity
  8
0-A
  6
Continuous
 62
     2
370
    13
100
AcDbLine
 10
-369.1893502002115
 20
211.84130229256
 30
0.0
 11
-368.2295032912298
 21
211.84130229256
 31
0.0
  0
LINE
  5
141
330
1F
100
AcDbEntity
  8
0-A
  6
Continuous
 62
     2
370
    13
100
AcDbLine
 10
-368.2295032912298
 20
211.84130229256
 30
0.0
 11
-368.1910425265842
 21
209.6403803906952
 31
0.0
  0
LINE
  5
142
330
1F
100
AcDbEntity
  8
0-A
  6
Continuous
 62
     2
370
    13
100
AcDbLine
 10
-365.2595147370891
 20
208.8708678165104
 30
0.0
 11
-367.4600278772041
 21
208.9095143819512
 31
0.0
  0
LINE
  5
143
330
1F
100
AcDbEntity
  8
0-A
  6
Continuous
 62
     2
370
    13
100
AcDbLine
 10
-365.2595147370891
 20
208.8708678165104
 30
0.0
 11
-365.2595147370891
 21
207.9110952278468
 31
0.0
  0
LINE
  5
144
330
1F
100
AcDbEntity
  8
0-A
  6
Continuous
 62
     2
370
    13
100
AcDbLine
 10
-365.2595147370891
 20
207.9110952278468
 30
0.0
 11
-367.4600278772041
 21
207.8727459436784
 31
0.0
  0
LINE
  5
145
330
1F
100
AcDbEntity
  8
0-A
  6
Continuous
 62
     2
370
    13
100
AcDbLine
 10
-368.2295032912298
 20
204.9409580330698
 30
0.0
 11
-368.1910425265842
 21
207.1415826536619
 31
0.0
  0
LINE
  5
146
330
1F
100
AcDbEntity
  8
0-A
  6
Continuous
 62
     2
370
    13
100
AcDbLine
 10
-369.1893502002115
 20
204.9409580330698
 30
0.0
 11
-369.2279596054935
 21
207.1415826536619
 31
0.0
  0
LINE
  5
147
330
1F
100
AcDbEntity
  8
0-A
  6
Continuous
 62
     2
370
    13
100
AcDbLine
 10
-369.1893502002115
 20
204.9409580330698
 30
0.0
 11
-368.2295032912298
 21
204.9409580330698
 31
0.0
  0
LINE
  5
148
330
1F
100
AcDbEntity
  8
0-A
  6
Continuous
 62
     2
370
    13
100
AcDbLine
 10
-368.1910425265842
 20
-752.8584261834746
 30
0.0
 11
-367.958568571393
 21
-752.3599226494448
 31
0.0
  0
LINE
  5
149
330
1F
100
AcDbEntity
  8
0-A
  6
Continuous
 62
     2
370
    13
100
AcDbLine
 10
-367.4600278772041
 20
-752.1275601747309
 30
0.0
 11
-367.958568571393
 21
-752.3599226494448
 31
0.0
  0
LINE
  5
14A
330
1F
100
AcDbEntity
  8
0-A
  6
Continuous
 62
     2
370
    13
100
AcDbLine
 10
-369.2279596054935
 20
-752.8584261834746
 30
0.0
 11
-369.4602849200484
 21
-752.3599226494448
 31
0.0
  0
LINE
  5
14B
330
1F
100
AcDbEntity
  8
0-A
  6
Continuous
 62
     2
370
    13
100
AcDbLine
 10
-369.9589742548736
 20
-752.1275601747309
 30
0.0
 11
-369.4602849200484
 21
-752.3599226494448
 31
0.0
  0
LINE
  5
14C
330
1F
100
AcDbEntity
  8
0-A
  6
Continuous
 62
     2
370
    13
100
AcDbLine
 10
-368.1910425265842
 20
-750.3596656066004
 30
0.0
 11
-367.958568571393
 21
-750.8582063007894
 31
0.0
  0
LINE
  5
14D
330
1F
100
AcDbEntity
  8
0-A
  6
Continuous
 62
     2
370
    13
100
AcDbLine
 10
-367.4600278772041
 20
-751.0908288966169
 30
0.0
 11
-367.958568571393
 21
-750.8582063007894
 31
0.0
  0
LINE
  5
14E
330
1F
100
AcDbEntity
  8
0-A
  6
Continuous
 62
     2
370
    13
100
AcDbLine
 10
-369.2279596054935
 20
-750.3596656066004
 30
0.0
 11
-369.4602849200484
 21
-750.8582063007894
 31
0.0
  0
LINE
  5
14F
330
1F
100
AcDbEntity
  8
0-A
  6
Continuous
 62
     2
370
    13
100
AcDbLine
 10
-369.9589742548736
 20
-751.0908288966169
 30
0.0
 11
-369.4602849200484
 21
-750.8582063007894
 31
0.0
  0
LINE
  5
150
330
1F
100
AcDbEntity
  8
0-A
  6
Continuous
 62
     2
370
    13
100
AcDbLine
 10
-372.1594873949887
 20
-752.0889879296079
 30
0.0
 11
-369.9589742548736
 21
-752.1275601747309
 31
0.0
  0
LINE
  5
151
330
1F
100
AcDbEntity
  8
0-A
  6
Continuous
 62
     2
370
    13
100
AcDbLine
 10
-372.1594873949887
 20
-752.0889879296079
 30
0.0
 11
-372.1594873949887
 21
-751.1291410206262
 31
0.0
  0
LINE
  5
152
330
1F
100
AcDbEntity
  8
0-A
  6
Continuous
 62
     2
370
    13
100
AcDbLine
 10
-372.1594873949887
 20
-751.1291410206262
 30
0.0
 11
-369.9589742548736
 21
-751.0908288966169
 31
0.0
  0
LINE
  5
153
330
1F
100
AcDbEntity
  8
0-A
  6
Continuous
 62
     2
370
    13
100
AcDbLine
 10
-369.1893502002115
 20
-755.0592737650213
 30
0.0
 11
-369.2279596054935
 21
-752.8584261834746
 31
0.0
  0
LINE
  5
154
330
1F
100
AcDbEntity
  8
0-A
  6
Continuous
 62
     2
370
    13
100
AcDbLine
 10
-369.1893502002115
 20
-755.0592737650213
 30
0.0
 11
-368.2295032912298
 21
-755.0592737650213
 31
0.0
  0
LINE
  5
155
330
1F
100
AcDbEntity
  8
0-A
  6
Continuous
 62
     2
370
    13
100
AcDbLine
 10
-368.2295032912298
 20
-755.0592737650213
 30
0.0
 11
-368.1910425265842
 21
-752.8584261834746
 31
0.0
  0
LINE
  5
156
330
1F
100
AcDbEntity
  8
0-A
  6
Continuous
 62
     2
370
    13
100
AcDbLine
 10
-365.2595147370891
 20
-752.0889879296079
 30
0.0
 11
-367.4600278772041
 21
-752.1275601747309
 31
0.0
  0
LINE
  5
157
330
1F
100
AcDbEntity
  8
0-A
  6
Continuous
 62
     2
370
    13
100
AcDbLine
 10
-365.2595147370891
 20
-752.0889879296079
 30
0.0
 11
-365.2595147370891
 21
-751.1291410206262
 31
0.0
  0
LINE
  5
158
330
1F
100
AcDbEntity
  8
0-A
  6
Continuous
 62
     2
370
    13
100
AcDbLine
 10
-365.2595147370891
 20
-751.1291410206262
 30
0.0
 11
-367.4600278772041
 21
-751.0908288966169
 31
0.0
  0
LINE
  5
159
330
1F
100
AcDbEntity
  8
0-A
  6
Continuous
 62
     2
370
    13
100
AcDbLine
 10
-368.2295032912298
 20
-748.1591153063264
 30
0.0
 11
-368.1910425265842
 21
-750.3596656066004
 31
0.0
  0
LINE
  5
15A
330
1F
100
AcDbEntity
  8
0-A
  6
Continuous
 62
     2
370
    13
100
AcDbLine
 10
-369.1893502002115
 20
-748.1591153063264
 30
0.0
 11
-369.2279596054935
 21
-750.3596656066004
 31
0.0
  0
LINE
  5
15B
330
1F
100
AcDbEntity
  8
0-A
  6
Continuous
 62
     2
370
    13
100
AcDbLine
 10
-369.1893502002115
 20
-748.1591153063264
 30
0.0
 11
-368.2295032912298
 21
-748.1591153063264
 31
0.0
  0
LINE
  5
15C
330
1F
100
AcDbEntity
  8
0-1
  6
JWW_CENTER1
 62
     3
370
    13
100
AcDbLine
 10
-368.7095010660389
 20
217.4838494875821
 30
0.0
 11
-368.7095010660389
 21
199.462807381808
 31
0.0
  0
LINE
  5
15D
330
1F
100
AcDbEntity
  8
0-1
  6
JWW_CENTER1
 62
     3
370
    13
100
AcDbLine
 10
-377.7170864663588
 20
208.3910558424967
 30
0.0
 11
-359.7148845612371
 21
208.3910558424967
 31
0.0
  0
LINE
  5
15E
330
1F
100
AcDbEntity
  8
0-1
  6
JWW_CENTER1
 62
     3
370
    13
100
AcDbLine
 10
-377.4264197020516
 20
-751.6091387954352
 30
0.0
 11
-359.3940065875996
 21
-751.6091387954352
 31
0.0
  0
LINE
  5
15F
330
1F
100
AcDbEntity
  8
0-1
  6
JWW_CENTER1
 62
     3
370
    13
100
AcDbLine
 10
-368.7095010660389
 20
-759.8522654032049
 30
0.0
 11
-368.7095010660389
 21
-743.0481070267542
 31
0.0
  0
LINE
  5
160
330
1F
100
AcDbEntity
  8
0-A
  6
Continuous
 62
     2
370
    13
100
AcDbLine
 10
-368.1910425265842
 20
-112.8583707451714
 30
0.0
 11
-367.958568571393
 21
-112.3598300509827
 31
0.0
  0
LINE
  5
161
330
1F
100
AcDbEntity
  8
0-A
  6
Continuous
 62
     2
370
    13
100
AcDbLine
 10
-367.4600278772041
 20
-112.1275047364276
 30
0.0
 11
-367.958568571393
 21
-112.3598300509827
 31
0.0
  0
LINE
  5
162
330
1F
100
AcDbEntity
  8
0-A
  6
Continuous
 62
     2
370
    13
100
AcDbLine
 10
-369.2279596054935
 20
-112.8583707451714
 30
0.0
 11
-369.4602849200484
 21
-112.3598300509827
 31
0.0
  0
LINE
  5
163
330
1F
100
AcDbEntity
  8
0-A
  6
Continuous
 62
     2
370
    13
100
AcDbLine
 10
-369.9589742548736
 20
-112.1275047364276
 30
0.0
 11
-369.4602849200484
 21
-112.3598300509827
 31
0.0
  0
LINE
  5
164
330
1F
100
AcDbEntity
  8
0-A
  6
Continuous
 62
     2
370
    13
100
AcDbLine
 10
-368.1910425265842
 20
-110.3595730081382
 30
0.0
 11
-367.958568571393
 21
-110.8581137023271
 31
0.0
  0
LINE
  5
165
330
1F
100
AcDbEntity
  8
0-A
  6
Continuous
 62
     2
370
    13
100
AcDbLine
 10
-367.4600278772041
 20
-111.0907362981547
 30
0.0
 11
-367.958568571393
 21
-110.8581137023271
 31
0.0
  0
LINE
  5
166
330
1F
100
AcDbEntity
  8
0-A
  6
Continuous
 62
     2
370
    13
100
AcDbLine
 10
-369.2279596054935
 20
-110.3595730081382
 30
0.0
 11
-369.4602849200484
 21
-110.8581137023271
 31
0.0
  0
LINE
  5
167
330
1F
100
AcDbEntity
  8
0-A
  6
Continuous
 62
     2
370
    13
100
AcDbLine
 10
-369.9589742548736
 20
-111.0907362981547
 30
0.0
 11
-369.4602849200484
 21
-110.8581137023271
 31
0.0
  0
LINE
  5
168
330
1F
100
AcDbEntity
  8
0-A
  6
Continuous
 62
     2
370
    13
100
AcDbLine
 10
-372.1594873949887
 20
-112.0888581709866
 30
0.0
 11
-369.9589742548736
 21
-112.1275047364276
 31
0.0
  0
LINE
  5
169
330
1F
100
AcDbEntity
  8
0-A
  6
Continuous
 62
     2
370
    13
100
AcDbLine
 10
-372.1594873949887
 20
-112.0888581709866
 30
0.0
 11
-372.1594873949887
 21
-111.1290855823231
 31
0.0
  0
LINE
  5
16A
330
1F
100
AcDbEntity
  8
0-A
  6
Continuous
 62
     2
370
    13
100
AcDbLine
 10
-372.1594873949887
 20
-111.1290855823231
 30
0.0
 11
-369.9589742548736
 21
-111.0907362981547
 31
0.0
  0
LINE
  5
16B
330
1F
100
AcDbEntity
  8
0-A
  6
Continuous
 62
     2
370
    13
100
AcDbLine
 10
-369.1893502002115
 20
-115.0591440064
 30
0.0
 11
-369.2279596054935
 21
-112.8583707451714
 31
0.0
  0
LINE
  5
16C
330
1F
100
AcDbEntity
  8
0-A
  6
Continuous
 62
     2
370
    13
100
AcDbLine
 10
-369.1893502002115
 20
-115.0591440064
 30
0.0
 11
-368.2295032912298
 21
-115.0591440064
 31
0.0
  0
LINE
  5
16D
330
1F
100
AcDbEntity
  8
0-A
  6
Continuous
 62
     2
370
    13
100
AcDbLine
 10
-368.2295032912298
 20
-115.0591440064
 30
0.0
 11
-368.1910425265842
 21
-112.8583707451714
 31
0.0
  0
LINE
  5
16E
330
1F
100
AcDbEntity
  8
0-A
  6
Continuous
 62
     2
370
    13
100
AcDbLine
 10
-365.2595147370891
 20
-112.0888581709866
 30
0.0
 11
-367.4600278772041
 21
-112.1275047364276
 31
0.0
  0
LINE
  5
16F
330
1F
100
AcDbEntity
  8
0-A
  6
Continuous
 62
     2
370
    13
100
AcDbLine
 10
-365.2595147370891
 20
-112.0888581709866
 30
0.0
 11
-365.2595147370891
 21
-111.1290855823231
 31
0.0
  0
LINE
  5
170
330
1F
100
AcDbEntity
  8
0-A
  6
Continuous
 62
     2
370
    13
100
AcDbLine
 10
-365.2595147370891
 20
-111.1290855823231
 30
0.0
 11
-367.4600278772041
 21
-111.0907362981547
 31
0.0
  0
LINE
  5
171
330
1F
100
AcDbEntity
  8
0-A
  6
Continuous
 62
     2
370
    13
100
AcDbLine
 10
-368.2295032912298
 20
-108.1590970281823
 30
0.0
 11
-368.1910425265842
 21
-110.3595730081382
 31
0.0
  0
LINE
  5
172
330
1F
100
AcDbEntity
  8
0-A
  6
Continuous
 62
     2
370
    13
100
AcDbLine
 10
-369.1893502002115
 20
-108.1590970281823
 30
0.0
 11
-369.2279596054935
 21
-110.3595730081382
 31
0.0
  0
LINE
  5
173
330
1F
100
AcDbEntity
  8
0-A
  6
Continuous
 62
     2
370
    13
100
AcDbLine
 10
-369.1893502002115
 20
-108.1590970281823
 30
0.0
 11
-368.2295032912298
 21
-108.1590970281823
 31
0.0
  0
LINE
  5
174
330
1F
100
AcDbEntity
  8
0-1
  6
JWW_CENTER1
 62
     3
370
    13
100
AcDbLine
 10
-368.7095010660389
 20
-120.7016912014222
 30
0.0
 11
-368.7095010660389
 21
-102.680649095648
 31
0.0
  0
LINE
  5
175
330
1F
100
AcDbEntity
  8
0-A
  6
Continuous
 62
     2
370
    13
100
AcDbLine
 10
340.7718394527506
 20
209.6403803906952
 30
0.0
 11
340.5393654975592
 21
209.1418396965063
 31
0.0
  0
LINE
  5
176
330
1F
100
AcDbEntity
  8
0-A
  6
Continuous
 62
     2
370
    13
100
AcDbLine
 10
340.0408248033705
 20
208.9095143819512
 30
0.0
 11
340.5393654975592
 21
209.1418396965063
 31
0.0
  0
LINE
  5
177
330
1F
100
AcDbEntity
  8
0-A
  6
Continuous
 62
     2
370
    13
100
AcDbLine
 10
341.8087565316599
 20
209.6403803906952
 30
0.0
 11
342.0410818462148
 21
209.1418396965063
 31
0.0
  0
LINE
  5
178
330
1F
100
AcDbEntity
  8
0-A
  6
Continuous
 62
     2
370
    13
100
AcDbLine
 10
342.53977118104
 20
208.9095143819512
 30
0.0
 11
342.0410818462148
 21
209.1418396965063
 31
0.0
  0
LINE
  5
179
330
1F
100
AcDbEntity
  8
0-A
  6
Continuous
 62
     2
370
    13
100
AcDbLine
 10
340.7718394527506
 20
207.1415826536619
 30
0.0
 11
340.5393654975592
 21
207.6401233478509
 31
0.0
  0
LINE
  5
17A
330
1F
100
AcDbEntity
  8
0-A
  6
Continuous
 62
     2
370
    13
100
AcDbLine
 10
340.0408248033705
 20
207.8727459436784
 30
0.0
 11
340.5393654975592
 21
207.6401233478509
 31
0.0
  0
LINE
  5
17B
330
1F
100
AcDbEntity
  8
0-A
  6
Continuous
 62
     2
370
    13
100
AcDbLine
 10
341.8087565316599
 20
207.1415826536619
 30
0.0
 11
342.0410818462148
 21
207.6401233478509
 31
0.0
  0
LINE
  5
17C
330
1F
100
AcDbEntity
  8
0-A
  6
Continuous
 62
     2
370
    13
100
AcDbLine
 10
342.53977118104
 20
207.8727459436784
 30
0.0
 11
342.0410818462148
 21
207.6401233478509
 31
0.0
  0
LINE
  5
17D
330
1F
100
AcDbEntity
  8
0-A
  6
Continuous
 62
     2
370
    13
100
AcDbLine
 10
344.7402471609959
 20
208.8708678165104
 30
0.0
 11
342.53977118104
 21
208.9095143819512
 31
0.0
  0
LINE
  5
17E
330
1F
100
AcDbEntity
  8
0-A
  6
Continuous
 62
     2
370
    13
100
AcDbLine
 10
344.7402471609959
 20
208.8708678165104
 30
0.0
 11
344.7402471609959
 21
207.9110952278468
 31
0.0
  0
LINE
  5
17F
330
1F
100
AcDbEntity
  8
0-A
  6
Continuous
 62
     2
370
    13
100
AcDbLine
 10
344.7402471609959
 20
207.9110952278468
 30
0.0
 11
342.53977118104
 21
207.8727459436784
 31
0.0
  0
LINE
  5
180
330
1F
100
AcDbEntity
  8
0-A
  6
Continuous
 62
     2
370
    13
100
AcDbLine
 10
341.7701099662187
 20
211.84130229256
 30
0.0
 11
341.8087565316599
 21
209.6403803906952
 31
0.0
  0
LINE
  5
181
330
1F
100
AcDbEntity
  8
0-A
  6
Continuous
 62
     2
370
    13
100
AcDbLine
 10
341.7701099662187
 20
211.84130229256
 30
0.0
 11
340.8103373775552
 21
211.84130229256
 31
0.0
  0
LINE
  5
182
330
1F
100
AcDbEntity
  8
0-A
  6
Continuous
 62
     2
370
    13
100
AcDbLine
 10
340.8103373775552
 20
211.84130229256
 30
0.0
 11
340.7718394527506
 21
209.6403803906952
 31
0.0
  0
LINE
  5
183
330
1F
100
AcDbEntity
  8
0-A
  6
Continuous
 62
     2
370
    13
100
AcDbLine
 10
337.8403488234144
 20
208.8708678165104
 30
0.0
 11
340.0408248033705
 21
208.9095143819512
 31
0.0
  0
LINE
  5
184
330
1F
100
AcDbEntity
  8
0-A
  6
Continuous
 62
     2
370
    13
100
AcDbLine
 10
337.8403488234144
 20
208.8708678165104
 30
0.0
 11
337.8403488234144
 21
207.9110952278468
 31
0.0
  0
LINE
  5
185
330
1F
100
AcDbEntity
  8
0-A
  6
Continuous
 62
     2
370
    13
100
AcDbLine
 10
337.8403488234144
 20
207.9110952278468
 30
0.0
 11
340.0408248033705
 21
207.8727459436784
 31
0.0
  0
LINE
  5
186
330
1F
100
AcDbEntity
  8
0-A
  6
Continuous
 62
     2
370
    13
100
AcDbLine
 10
340.8103373775552
 20
204.9409580330698
 30
0.0
 11
340.7718394527506
 21
207.1415826536619
 31
0.0
  0
LINE
  5
187
330
1F
100
AcDbEntity
  8
0-A
  6
Continuous
 62
     2
370
    13
100
AcDbLine
 10
341.7701099662187
 20
204.9409580330698
 30
0.0
 11
341.8087565316599
 21
207.1415826536619
 31
0.0
  0
LINE
  5
188
330
1F
100
AcDbEntity
  8
0-A
  6
Continuous
 62
     2
370
    13
100
AcDbLine
 10
341.7701099662187
 20
204.9409580330698
 30
0.0
 11
340.8103373775552
 21
204.9409580330698
 31
0.0
  0
LINE
  5
189
330
1F
100
AcDbEntity
  8
0-A
  6
Continuous
 62
     2
370
    13
100
AcDbLine
 10
340.7718394527506
 20
-752.8584261834746
 30
0.0
 11
340.5393654975592
 21
-752.3599226494448
 31
0.0
  0
LINE
  5
18A
330
1F
100
AcDbEntity
  8
0-A
  6
Continuous
 62
     2
370
    13
100
AcDbLine
 10
340.0408248033705
 20
-752.1275601747309
 30
0.0
 11
340.5393654975592
 21
-752.3599226494448
 31
0.0
  0
LINE
  5
18B
330
1F
100
AcDbEntity
  8
0-A
  6
Continuous
 62
     2
370
    13
100
AcDbLine
 10
341.8087565316599
 20
-752.8584261834746
 30
0.0
 11
342.0410818462148
 21
-752.3599226494448
 31
0.0
  0
LINE
  5
18C
330
1F
100
AcDbEntity
  8
0-A
  6
Continuous
 62
     2
370
    13
100
AcDbLine
 10
342.53977118104
 20
-752.1275601747309
 30
0.0
 11
342.0410818462148
 21
-752.3599226494448
 31
0.0
  0
LINE
  5
18D
330
1F
100
AcDbEntity
  8
0-A
  6
Continuous
 62
     2
370
    13
100
AcDbLine
 10
340.7718394527506
 20
-750.3596656066004
 30
0.0
 11
340.5393654975592
 21
-750.8582063007894
 31
0.0
  0
LINE
  5
18E
330
1F
100
AcDbEntity
  8
0-A
  6
Continuous
 62
     2
370
    13
100
AcDbLine
 10
340.0408248033705
 20
-751.0908288966169
 30
0.0
 11
340.5393654975592
 21
-750.8582063007894
 31
0.0
  0
LINE
  5
18F
330
1F
100
AcDbEntity
  8
0-A
  6
Continuous
 62
     2
370
    13
100
AcDbLine
 10
341.8087565316599
 20
-750.3596656066004
 30
0.0
 11
342.0410818462148
 21
-750.8582063007894
 31
0.0
  0
LINE
  5
190
330
1F
100
AcDbEntity
  8
0-A
  6
Continuous
 62
     2
370
    13
100
AcDbLine
 10
342.53977118104
 20
-751.0908288966169
 30
0.0
 11
342.0410818462148
 21
-750.8582063007894
 31
0.0
  0
LINE
  5
191
330
1F
100
AcDbEntity
  8
0-A
  6
Continuous
 62
     2
370
    13
100
AcDbLine
 10
344.7402471609959
 20
-752.0889879296079
 30
0.0
 11
342.53977118104
 21
-752.1275601747309
 31
0.0
  0
LINE
  5
192
330
1F
100
AcDbEntity
  8
0-A
  6
Continuous
 62
     2
370
    13
100
AcDbLine
 10
344.7402471609959
 20
-752.0889879296079
 30
0.0
 11
344.7402471609959
 21
-751.1291410206262
 31
0.0
  0
LINE
  5
193
330
1F
100
AcDbEntity
  8
0-A
  6
Continuous
 62
     2
370
    13
100
AcDbLine
 10
344.7402471609959
 20
-751.1291410206262
 30
0.0
 11
342.53977118104
 21
-751.0908288966169
 31
0.0
  0
LINE
  5
194
330
1F
100
AcDbEntity
  8
0-A
  6
Continuous
 62
     2
370
    13
100
AcDbLine
 10
341.7701099662187
 20
-755.0592737650213
 30
0.0
 11
341.8087565316599
 21
-752.8584261834746
 31
0.0
  0
LINE
  5
195
330
1F
100
AcDbEntity
  8
0-A
  6
Continuous
 62
     2
370
    13
100
AcDbLine
 10
341.7701099662187
 20
-755.0592737650213
 30
0.0
 11
340.8103373775552
 21
-755.0592737650213
 31
0.0
  0
LINE
  5
196
330
1F
100
AcDbEntity
  8
0-A
  6
Continuous
 62
     2
370
    13
100
AcDbLine
 10
340.8103373775552
 20
-755.0592737650213
 30
0.0
 11
340.7718394527506
 21
-752.8584261834746
 31
0.0
  0
LINE
  5
197
330
1F
100
AcDbEntity
  8
0-A
  6
Continuous
 62
     2
370
    13
100
AcDbLine
 10
337.8403488234144
 20
-752.0889879296079
 30
0.0
 11
340.0408248033705
 21
-752.1275601747309
 31
0.0
  0
LINE
  5
198
330
1F
100
AcDbEntity
  8
0-A
  6
Continuous
 62
     2
370
    13
100
AcDbLine
 10
337.8403488234144
 20
-752.0889879296079
 30
0.0
 11
337.8403488234144
 21
-751.1291410206262
 31
0.0
  0
LINE
  5
199
330
1F
100
AcDbEntity
  8
0-A
  6
Continuous
 62
     2
370
    13
100
AcDbLine
 10
337.8403488234144
 20
-751.1291410206262
 30
0.0
 11
340.0408248033705
 21
-751.0908288966169
 31
0.0
  0
LINE
  5
19A
330
1F
100
AcDbEntity
  8
0-A
  6
Continuous
 62
     2
370
    13
100
AcDbLine
 10
340.8103373775552
 20
-748.1591153063264
 30
0.0
 11
340.7718394527506
 21
-750.3596656066004
 31
0.0
  0
LINE
  5
19B
330
1F
100
AcDbEntity
  8
0-A
  6
Continuous
 62
     2
370
    13
100
AcDbLine
 10
341.7701099662187
 20
-748.1591153063264
 30
0.0
 11
341.8087565316599
 21
-750.3596656066004
 31
0.0
  0
LINE
  5
19C
330
1F
100
AcDbEntity
  8
0-A
  6
Continuous
 62
     2
370
    13
100
AcDbLine
 10
341.7701099662187
 20
-748.1591153063264
 30
0.0
 11
340.8103373775552
 21
-748.1591153063264
 31
0.0
  0
LINE
  5
19D
330
1F
100
AcDbEntity
  8
0-1
  6
JWW_CENTER1
 62
     3
370
    13
100
AcDbLine
 10
341.2902979922052
 20
217.4838494875821
 30
0.0
 11
341.2902979922052
 21
199.462807381808
 31
0.0
  0
LINE
  5
19E
330
1F
100
AcDbEntity
  8
0-1
  6
JWW_CENTER1
 62
     3
370
    13
100
AcDbLine
 10
350.2979205526842
 20
208.3910558424967
 30
0.0
 11
332.2956071670853
 21
208.3910558424967
 31
0.0
  0
LINE
  5
19F
330
1F
100
AcDbEntity
  8
0-1
  6
JWW_CENTER1
 62
     3
370
    13
100
AcDbLine
 10
350.0071794680588
 20
-751.6091387954352
 30
0.0
 11
331.9746920332887
 21
-751.6091387954352
 31
0.0
  0
LINE
  5
1A0
330
1F
100
AcDbEntity
  8
0-1
  6
JWW_CENTER1
 62
     3
370
    13
100
AcDbLine
 10
341.2902979922052
 20
-759.8522654032049
 30
0.0
 11
341.2902979922052
 21
-743.0481070267542
 31
0.0
  0
LINE
  5
1A1
330
1F
100
AcDbEntity
  8
0-A
  6
Continuous
 62
     2
370
    13
100
AcDbLine
 10
104.3089641454538
 20
209.6403803906952
 30
0.0
 11
104.5414381006452
 21
209.1418396965063
 31
0.0
  0
LINE
  5
1A2
330
1F
100
AcDbEntity
  8
0-A
  6
Continuous
 62
     2
370
    13
100
AcDbLine
 10
105.0399787948341
 20
208.9095143819512
 30
0.0
 11
104.5414381006452
 21
209.1418396965063
 31
0.0
  0
LINE
  5
1A3
330
1F
100
AcDbEntity
  8
0-A
  6
Continuous
 62
     2
370
    13
100
AcDbLine
 10
103.2721957071809
 20
209.6403803906952
 30
0.0
 11
103.0398703926261
 21
209.1418396965063
 31
0.0
  0
LINE
  5
1A4
330
1F
100
AcDbEntity
  8
0-A
  6
Continuous
 62
     2
370
    13
100
AcDbLine
 10
102.5411810578009
 20
208.9095143819512
 30
0.0
 11
103.0398703926261
 21
209.1418396965063
 31
0.0
  0
LINE
  5
1A5
330
1F
100
AcDbEntity
  8
0-A
  6
Continuous
 62
     2
370
    13
100
AcDbLine
 10
104.3089641454538
 20
207.1415826536619
 30
0.0
 11
104.5414381006452
 21
207.6401233478509
 31
0.0
  0
LINE
  5
1A6
330
1F
100
AcDbEntity
  8
0-A
  6
Continuous
 62
     2
370
    13
100
AcDbLine
 10
105.0399787948341
 20
207.8727459436784
 30
0.0
 11
104.5414381006452
 21
207.6401233478509
 31
0.0
  0
LINE
  5
1A7
330
1F
100
AcDbEntity
  8
0-A
  6
Continuous
 62
     2
370
    13
100
AcDbLine
 10
103.2721957071809
 20
207.1415826536619
 30
0.0
 11
103.0398703926261
 21
207.6401233478509
 31
0.0
  0
LINE
  5
1A8
330
1F
100
AcDbEntity
  8
0-A
  6
Continuous
 62
     2
370
    13
100
AcDbLine
 10
102.5411810578009
 20
207.8727459436784
 30
0.0
 11
103.0398703926261
 21
207.6401233478509
 31
0.0
  0
LINE
  5
1A9
330
1F
100
AcDbEntity
  8
0-A
  6
Continuous
 62
     2
370
    13
100
AcDbLine
 10
100.3404821168903
 20
208.8708678165104
 30
0.0
 11
102.5411810578009
 21
208.9095143819512
 31
0.0
  0
LINE
  5
1AA
330
1F
100
AcDbEntity
  8
0-A
  6
Continuous
 62
     2
370
    13
100
AcDbLine
 10
100.3404821168903
 20
208.8708678165104
 30
0.0
 11
100.3404821168903
 21
207.9110952278468
 31
0.0
  0
LINE
  5
1AB
330
1F
100
AcDbEntity
  8
0-A
  6
Continuous
 62
     2
370
    13
100
AcDbLine
 10
100.3404821168903
 20
207.9110952278468
 30
0.0
 11
102.5411810578009
 21
207.8727459436784
 31
0.0
  0
LINE
  5
1AC
330
1F
100
AcDbEntity
  8
0-A
  6
Continuous
 62
     2
370
    13
100
AcDbLine
 10
103.3106936319856
 20
211.84130229256
 30
0.0
 11
103.2721957071809
 21
209.6403803906952
 31
0.0
  0
LINE
  5
1AD
330
1F
100
AcDbEntity
  8
0-A
  6
Continuous
 62
     2
370
    13
100
AcDbLine
 10
103.3106936319856
 20
211.84130229256
 30
0.0
 11
104.2706148612856
 21
211.84130229256
 31
0.0
  0
LINE
  5
1AE
330
1F
100
AcDbEntity
  8
0-A
  6
Continuous
 62
     2
370
    13
100
AcDbLine
 10
104.2706148612856
 20
211.84130229256
 30
0.0
 11
104.3089641454538
 21
209.6403803906952
 31
0.0
  0
LINE
  5
1AF
330
1F
100
AcDbEntity
  8
0-A
  6
Continuous
 62
     2
370
    13
100
AcDbLine
 10
107.2406777357445
 20
208.8708678165104
 30
0.0
 11
105.0399787948341
 21
208.9095143819512
 31
0.0
  0
LINE
  5
1B0
330
1F
100
AcDbEntity
  8
0-A
  6
Continuous
 62
     2
370
    13
100
AcDbLine
 10
107.2406777357445
 20
208.8708678165104
 30
0.0
 11
107.2406777357445
 21
207.9110952278468
 31
0.0
  0
LINE
  5
1B1
330
1F
100
AcDbEntity
  8
0-A
  6
Continuous
 62
     2
370
    13
100
AcDbLine
 10
107.2406777357445
 20
207.9110952278468
 30
0.0
 11
105.0399787948341
 21
207.8727459436784
 31
0.0
  0
LINE
  5
1B2
330
1F
100
AcDbEntity
  8
0-A
  6
Continuous
 62
     2
370
    13
100
AcDbLine
 10
104.2706148612856
 20
204.9409580330698
 30
0.0
 11
104.3089641454538
 21
207.1415826536619
 31
0.0
  0
LINE
  5
1B3
330
1F
100
AcDbEntity
  8
0-A
  6
Continuous
 62
     2
370
    13
100
AcDbLine
 10
103.3106936319856
 20
204.9409580330698
 30
0.0
 11
103.2721957071809
 21
207.1415826536619
 31
0.0
  0
LINE
  5
1B4
330
1F
100
AcDbEntity
  8
0-A
  6
Continuous
 62
     2
370
    13
100
AcDbLine
 10
103.3106936319856
 20
204.9409580330698
 30
0.0
 11
104.2706148612856
 21
204.9409580330698
 31
0.0
  0
LINE
  5
1B5
330
1F
100
AcDbEntity
  8
0-1
  6
JWW_CENTER1
 62
     3
370
    13
100
AcDbLine
 10
103.7905056059992
 20
217.4838494875821
 30
0.0
 11
103.7905056059992
 21
199.462807381808
 31
0.0
  0
LINE
  5
1B6
330
1F
100
AcDbEntity
  8
0-1
  6
JWW_CENTER1
 62
     3
370
    13
100
AcDbLine
 10
94.78303168615662
 20
208.3910558424967
 30
0.0
 11
112.7853450717555
 21
208.3910558424967
 31
0.0
  0
LINE
  5
1B7
330
1F
100
AcDbEntity
  8
0-A
  6
Continuous
 62
     2
370
    13
100
AcDbLine
 10
-368.1910425265842
 20
-432.8583241440049
 30
0.0
 11
-367.958568571393
 21
-432.3597834498161
 31
0.0
  0
LINE
  5
1B8
330
1F
100
AcDbEntity
  8
0-A
  6
Continuous
 62
     2
370
    13
100
AcDbLine
 10
-367.4600278772041
 20
-432.1274581352611
 30
0.0
 11
-367.958568571393
 21
-432.3597834498161
 31
0.0
  0
LINE
  5
1B9
330
1F
100
AcDbEntity
  8
0-A
  6
Continuous
 62
     2
370
    13
100
AcDbLine
 10
-369.2279596054935
 20
-432.8583241440049
 30
0.0
 11
-369.4602849200484
 21
-432.3597834498161
 31
0.0
  0
LINE
  5
1BA
330
1F
100
AcDbEntity
  8
0-A
  6
Continuous
 62
     2
370
    13
100
AcDbLine
 10
-369.9589742548736
 20
-432.1274581352611
 30
0.0
 11
-369.4602849200484
 21
-432.3597834498161
 31
0.0
  0
LINE
  5
1BB
330
1F
100
AcDbEntity
  8
0-A
  6
Continuous
 62
     2
370
    13
100
AcDbLine
 10
-368.1910425265842
 20
-430.3595264069716
 30
0.0
 11
-367.958568571393
 21
-430.8580671011606
 31
0.0
  0
LINE
  5
1BC
330
1F
100
AcDbEntity
  8
0-A
  6
Continuous
 62
     2
370
    13
100
AcDbLine
 10
-367.4600278772041
 20
-431.0906896969881
 30
0.0
 11
-367.958568571393
 21
-430.8580671011606
 31
0.0
  0
LINE
  5
1BD
330
1F
100
AcDbEntity
  8
0-A
  6
Continuous
 62
     2
370
    13
100
AcDbLine
 10
-369.2279596054935
 20
-430.3595264069716
 30
0.0
 11
-369.4602849200484
 21
-430.8580671011606
 31
0.0
  0
LINE
  5
1BE
330
1F
100
AcDbEntity
  8
0-A
  6
Continuous
 62
     2
370
    13
100
AcDbLine
 10
-369.9589742548736
 20
-431.0906896969881
 30
0.0
 11
-369.4602849200484
 21
-430.8580671011606
 31
0.0
  0
LINE
  5
1BF
330
1F
100
AcDbEntity
  8
0-A
  6
Continuous
 62
     2
370
    13
100
AcDbLine
 10
-372.1594873949887
 20
-432.0888115698201
 30
0.0
 11
-369.9589742548736
 21
-432.1274581352611
 31
0.0
  0
LINE
  5
1C0
330
1F
100
AcDbEntity
  8
0-A
  6
Continuous
 62
     2
370
    13
100
AcDbLine
 10
-372.1594873949887
 20
-432.0888115698201
 30
0.0
 11
-372.1594873949887
 21
-431.1290389811564
 31
0.0
  0
LINE
  5
1C1
330
1F
100
AcDbEntity
  8
0-A
  6
Continuous
 62
     2
370
    13
100
AcDbLine
 10
-372.1594873949887
 20
-431.1290389811564
 30
0.0
 11
-369.9589742548736
 21
-431.0906896969881
 31
0.0
  0
LINE
  5
1C2
330
1F
100
AcDbEntity
  8
0-A
  6
Continuous
 62
     2
370
    13
100
AcDbLine
 10
-369.1893502002115
 20
-435.0590974052335
 30
0.0
 11
-369.2279596054935
 21
-432.8583241440049
 31
0.0
  0
LINE
  5
1C3
330
1F
100
AcDbEntity
  8
0-A
  6
Continuous
 62
     2
370
    13
100
AcDbLine
 10
-369.1893502002115
 20
-435.0590974052335
 30
0.0
 11
-368.2295032912298
 21
-435.0590974052335
 31
0.0
  0
LINE
  5
1C4
330
1F
100
AcDbEntity
  8
0-A
  6
Continuous
 62
     2
370
    13
100
AcDbLine
 10
-368.2295032912298
 20
-435.0590974052335
 30
0.0
 11
-368.1910425265842
 21
-432.8583241440049
 31
0.0
  0
LINE
  5
1C5
330
1F
100
AcDbEntity
  8
0-A
  6
Continuous
 62
     2
370
    13
100
AcDbLine
 10
-365.2595147370891
 20
-432.0888115698201
 30
0.0
 11
-367.4600278772041
 21
-432.1274581352611
 31
0.0
  0
LINE
  5
1C6
330
1F
100
AcDbEntity
  8
0-A
  6
Continuous
 62
     2
370
    13
100
AcDbLine
 10
-365.2595147370891
 20
-432.0888115698201
 30
0.0
 11
-365.2595147370891
 21
-431.1290389811564
 31
0.0
  0
LINE
  5
1C7
330
1F
100
AcDbEntity
  8
0-A
  6
Continuous
 62
     2
370
    13
100
AcDbLine
 10
-365.2595147370891
 20
-431.1290389811564
 30
0.0
 11
-367.4600278772041
 21
-431.0906896969881
 31
0.0
  0
LINE
  5
1C8
330
1F
100
AcDbEntity
  8
0-A
  6
Continuous
 62
     2
370
    13
100
AcDbLine
 10
-368.2295032912298
 20
-428.1590504270157
 30
0.0
 11
-368.1910425265842
 21
-430.3595264069716
 31
0.0
  0
LINE
  5
1C9
330
1F
100
AcDbEntity
  8
0-A
  6
Continuous
 62
     2
370
    13
100
AcDbLine
 10
-369.1893502002115
 20
-428.1590504270157
 30
0.0
 11
-369.2279596054935
 21
-430.3595264069716
 31
0.0
  0
LINE
  5
1CA
330
1F
100
AcDbEntity
  8
0-A
  6
Continuous
 62
     2
370
    13
100
AcDbLine
 10
-369.1893502002115
 20
-428.1590504270157
 30
0.0
 11
-368.2295032912298
 21
-428.1590504270157
 31
0.0
  0
LINE
  5
1CB
330
1F
100
AcDbEntity
  8
0-1
  6
JWW_CENTER1
 62
     3
370
    13
100
AcDbLine
 10
-368.7095010660389
 20
-440.7016446002557
 30
0.0
 11
-368.7095010660389
 21
-422.6807511351178
 31
0.0
  0
LINE
  5
1CC
330
1F
100
AcDbEntity
  8
0-1
  6
JWW_CENTER1
 62
     3
370
    13
100
AcDbLine
 10
-377.7170864663588
 20
-431.6089995958065
 30
0.0
 11
-359.714847401078
 21
-431.6089995958065
 31
0.0
  0
LINE
  5
1CD
330
1F
100
AcDbEntity
  8
0-A
  6
Continuous
 62
     2
370
    13
100
AcDbLine
 10
340.7718394527506
 20
-112.8583707451714
 30
0.0
 11
340.5393654975592
 21
-112.3598300509827
 31
0.0
  0
LINE
  5
1CE
330
1F
100
AcDbEntity
  8
0-A
  6
Continuous
 62
     2
370
    13
100
AcDbLine
 10
340.0408248033705
 20
-112.1275047364276
 30
0.0
 11
340.5393654975592
 21
-112.3598300509827
 31
0.0
  0
LINE
  5
1CF
330
1F
100
AcDbEntity
  8
0-A
  6
Continuous
 62
     2
370
    13
100
AcDbLine
 10
341.8087565316599
 20
-112.8583707451714
 30
0.0
 11
342.0410818462148
 21
-112.3598300509827
 31
0.0
  0
LINE
  5
1D0
330
1F
100
AcDbEntity
  8
0-A
  6
Continuous
 62
     2
370
    13
100
AcDbLine
 10
342.53977118104
 20
-112.1275047364276
 30
0.0
 11
342.0410818462148
 21
-112.3598300509827
 31
0.0
  0
LINE
  5
1D1
330
1F
100
AcDbEntity
  8
0-A
  6
Continuous
 62
     2
370
    13
100
AcDbLine
 10
340.7718394527506
 20
-110.3595730081382
 30
0.0
 11
340.5393654975592
 21
-110.8581137023271
 31
0.0
  0
LINE
  5
1D2
330
1F
100
AcDbEntity
  8
0-A
  6
Continuous
 62
     2
370
    13
100
AcDbLine
 10
340.0408248033705
 20
-111.0907362981547
 30
0.0
 11
340.5393654975592
 21
-110.8581137023271
 31
0.0
  0
LINE
  5
1D3
330
1F
100
AcDbEntity
  8
0-A
  6
Continuous
 62
     2
370
    13
100
AcDbLine
 10
341.8087565316599
 20
-110.3595730081382
 30
0.0
 11
342.0410818462148
 21
-110.8581137023271
 31
0.0
  0
LINE
  5
1D4
330
1F
100
AcDbEntity
  8
0-A
  6
Continuous
 62
     2
370
    13
100
AcDbLine
 10
342.53977118104
 20
-111.0907362981547
 30
0.0
 11
342.0410818462148
 21
-110.8581137023271
 31
0.0
  0
LINE
  5
1D5
330
1F
100
AcDbEntity
  8
0-A
  6
Continuous
 62
     2
370
    13
100
AcDbLine
 10
344.7402471609959
 20
-112.0888581709866
 30
0.0
 11
342.53977118104
 21
-112.1275047364276
 31
0.0
  0
LINE
  5
1D6
330
1F
100
AcDbEntity
  8
0-A
  6
Continuous
 62
     2
370
    13
100
AcDbLine
 10
344.7402471609959
 20
-112.0888581709866
 30
0.0
 11
344.7402471609959
 21
-111.1290855823231
 31
0.0
  0
LINE
  5
1D7
330
1F
100
AcDbEntity
  8
0-A
  6
Continuous
 62
     2
370
    13
100
AcDbLine
 10
344.7402471609959
 20
-111.1290855823231
 30
0.0
 11
342.53977118104
 21
-111.0907362981547
 31
0.0
  0
LINE
  5
1D8
330
1F
100
AcDbEntity
  8
0-A
  6
Continuous
 62
     2
370
    13
100
AcDbLine
 10
341.7701099662187
 20
-115.0591440064
 30
0.0
 11
341.8087565316599
 21
-112.8583707451714
 31
0.0
  0
LINE
  5
1D9
330
1F
100
AcDbEntity
  8
0-A
  6
Continuous
 62
     2
370
    13
100
AcDbLine
 10
341.7701099662187
 20
-115.0591440064
 30
0.0
 11
340.8103373775552
 21
-115.0591440064
 31
0.0
  0
LINE
  5
1DA
330
1F
100
AcDbEntity
  8
0-A
  6
Continuous
 62
     2
370
    13
100
AcDbLine
 10
340.8103373775552
 20
-115.0591440064
 30
0.0
 11
340.7718394527506
 21
-112.8583707451714
 31
0.0
  0
LINE
  5
1DB
330
1F
100
AcDbEntity
  8
0-A
  6
Continuous
 62
     2
370
    13
100
AcDbLine
 10
337.8403488234144
 20
-112.0888581709866
 30
0.0
 11
340.0408248033705
 21
-112.1275047364276
 31
0.0
  0
LINE
  5
1DC
330
1F
100
AcDbEntity
  8
0-A
  6
Continuous
 62
     2
370
    13
100
AcDbLine
 10
337.8403488234144
 20
-112.0888581709866
 30
0.0
 11
337.8403488234144
 21
-111.1290855823231
 31
0.0
  0
LINE
  5
1DD
330
1F
100
AcDbEntity
  8
0-A
  6
Continuous
 62
     2
370
    13
100
AcDbLine
 10
337.8403488234144
 20
-111.1290855823231
 30
0.0
 11
340.0408248033705
 21
-111.0907362981547
 31
0.0
  0
LINE
  5
1DE
330
1F
100
AcDbEntity
  8
0-A
  6
Continuous
 62
     2
370
    13
100
AcDbLine
 10
340.8103373775552
 20
-108.1590970281823
 30
0.0
 11
340.7718394527506
 21
-110.3595730081382
 31
0.0
  0
LINE
  5
1DF
330
1F
100
AcDbEntity
  8
0-A
  6
Continuous
 62
     2
370
    13
100
AcDbLine
 10
341.7701099662187
 20
-108.1590970281823
 30
0.0
 11
341.8087565316599
 21
-110.3595730081382
 31
0.0
  0
LINE
  5
1E0
330
1F
100
AcDbEntity
  8
0-A
  6
Continuous
 62
     2
370
    13
100
AcDbLine
 10
341.7701099662187
 20
-108.1590970281823
 30
0.0
 11
340.8103373775552
 21
-108.1590970281823
 31
0.0
  0
LINE
  5
1E1
330
1F
100
AcDbEntity
  8
0-1
  6
JWW_CENTER1
 62
     3
370
    13
100
AcDbLine
 10
341.2902979922052
 20
-120.7016912014222
 30
0.0
 11
341.2902979922052
 21
-102.680649095648
 31
0.0
  0
LINE
  5
1E2
330
1F
100
AcDbEntity
  8
0-1
  6
JWW_CENTER1
 62
     3
370
    13
100
AcDbLine
 10
350.2979205526842
 20
-111.609046196973
 30
0.0
 11
332.2956071670853
 21
-111.609046196973
 31
0.0
  0
LINE
  5
1E3
330
1F
100
AcDbEntity
  8
0-A
  6
Continuous
 62
     2
370
    13
100
AcDbLine
 10
340.7718394527506
 20
-432.8583241440049
 30
0.0
 11
340.5393654975592
 21
-432.3597834498161
 31
0.0
  0
LINE
  5
1E4
330
1F
100
AcDbEntity
  8
0-A
  6
Continuous
 62
     2
370
    13
100
AcDbLine
 10
340.0408248033705
 20
-432.1274581352611
 30
0.0
 11
340.5393654975592
 21
-432.3597834498161
 31
0.0
  0
LINE
  5
1E5
330
1F
100
AcDbEntity
  8
0-A
  6
Continuous
 62
     2
370
    13
100
AcDbLine
 10
341.8087565316599
 20
-432.8583241440049
 30
0.0
 11
342.0410818462148
 21
-432.3597834498161
 31
0.0
  0
LINE
  5
1E6
330
1F
100
AcDbEntity
  8
0-A
  6
Continuous
 62
     2
370
    13
100
AcDbLine
 10
342.53977118104
 20
-432.1274581352611
 30
0.0
 11
342.0410818462148
 21
-432.3597834498161
 31
0.0
  0
LINE
  5
1E7
330
1F
100
AcDbEntity
  8
0-A
  6
Continuous
 62
     2
370
    13
100
AcDbLine
 10
340.7718394527506
 20
-430.3595264069716
 30
0.0
 11
340.5393654975592
 21
-430.8580671011606
 31
0.0
  0
LINE
  5
1E8
330
1F
100
AcDbEntity
  8
0-A
  6
Continuous
 62
     2
370
    13
100
AcDbLine
 10
340.0408248033705
 20
-431.0906896969881
 30
0.0
 11
340.5393654975592
 21
-430.8580671011606
 31
0.0
  0
LINE
  5
1E9
330
1F
100
AcDbEntity
  8
0-A
  6
Continuous
 62
     2
370
    13
100
AcDbLine
 10
341.8087565316599
 20
-430.3595264069716
 30
0.0
 11
342.0410818462148
 21
-430.8580671011606
 31
0.0
  0
LINE
  5
1EA
330
1F
100
AcDbEntity
  8
0-A
  6
Continuous
 62
     2
370
    13
100
AcDbLine
 10
342.53977118104
 20
-431.0906896969881
 30
0.0
 11
342.0410818462148
 21
-430.8580671011606
 31
0.0
  0
LINE
  5
1EB
330
1F
100
AcDbEntity
  8
0-A
  6
Continuous
 62
     2
370
    13
100
AcDbLine
 10
344.7402471609959
 20
-432.0888115698201
 30
0.0
 11
342.53977118104
 21
-432.1274581352611
 31
0.0
  0
LINE
  5
1EC
330
1F
100
AcDbEntity
  8
0-A
  6
Continuous
 62
     2
370
    13
100
AcDbLine
 10
344.7402471609959
 20
-432.0888115698201
 30
0.0
 11
344.7402471609959
 21
-431.1290389811564
 31
0.0
  0
LINE
  5
1ED
330
1F
100
AcDbEntity
  8
0-A
  6
Continuous
 62
     2
370
    13
100
AcDbLine
 10
344.7402471609959
 20
-431.1290389811564
 30
0.0
 11
342.53977118104
 21
-431.0906896969881
 31
0.0
  0
LINE
  5
1EE
330
1F
100
AcDbEntity
  8
0-A
  6
Continuous
 62
     2
370
    13
100
AcDbLine
 10
341.7701099662187
 20
-435.0590974052335
 30
0.0
 11
341.8087565316599
 21
-432.8583241440049
 31
0.0
  0
LINE
  5
1EF
330
1F
100
AcDbEntity
  8
0-A
  6
Continuous
 62
     2
370
    13
100
AcDbLine
 10
341.7701099662187
 20
-435.0590974052335
 30
0.0
 11
340.8103373775552
 21
-435.0590974052335
 31
0.0
  0
LINE
  5
1F0
330
1F
100
AcDbEntity
  8
0-A
  6
Continuous
 62
     2
370
    13
100
AcDbLine
 10
340.8103373775552
 20
-435.0590974052335
 30
0.0
 11
340.7718394527506
 21
-432.8583241440049
 31
0.0
  0
LINE
  5
1F1
330
1F
100
AcDbEntity
  8
0-A
  6
Continuous
 62
     2
370
    13
100
AcDbLine
 10
337.8403488234144
 20
-432.0888115698201
 30
0.0
 11
340.0408248033705
 21
-432.1274581352611
 31
0.0
  0
LINE
  5
1F2
330
1F
100
AcDbEntity
  8
0-A
  6
Continuous
 62
     2
370
    13
100
AcDbLine
 10
337.8403488234144
 20
-432.0888115698201
 30
0.0
 11
337.8403488234144
 21
-431.1290389811564
 31
0.0
  0
LINE
  5
1F3
330
1F
100
AcDbEntity
  8
0-A
  6
Continuous
 62
     2
370
    13
100
AcDbLine
 10
337.8403488234144
 20
-431.1290389811564
 30
0.0
 11
340.0408248033705
 21
-431.0906896969881
 31
0.0
  0
LINE
  5
1F4
330
1F
100
AcDbEntity
  8
0-A
  6
Continuous
 62
     2
370
    13
100
AcDbLine
 10
340.8103373775552
 20
-428.1590504270157
 30
0.0
 11
340.7718394527506
 21
-430.3595264069716
 31
0.0
  0
LINE
  5
1F5
330
1F
100
AcDbEntity
  8
0-A
  6
Continuous
 62
     2
370
    13
100
AcDbLine
 10
341.7701099662187
 20
-428.1590504270157
 30
0.0
 11
341.8087565316599
 21
-430.3595264069716
 31
0.0
  0
LINE
  5
1F6
330
1F
100
AcDbEntity
  8
0-A
  6
Continuous
 62
     2
370
    13
100
AcDbLine
 10
341.7701099662187
 20
-428.1590504270157
 30
0.0
 11
340.8103373775552
 21
-428.1590504270157
 31
0.0
  0
LINE
  5
1F7
330
1F
100
AcDbEntity
  8
0-1
  6
JWW_CENTER1
 62
     3
370
    13
100
AcDbLine
 10
341.2902979922052
 20
-440.7016446002557
 30
0.0
 11
341.2902979922052
 21
-422.6807511351178
 31
0.0
  0
LINE
  5
1F8
330
1F
100
AcDbEntity
  8
0-1
  6
JWW_CENTER1
 62
     3
370
    13
100
AcDbLine
 10
350.2979205526842
 20
-431.6089995958065
 30
0.0
 11
332.2956071670853
 21
-431.6089995958065
 31
0.0
  0
LINE
  5
1F9
330
1F
100
AcDbEntity
  8
0-A
  6
Continuous
 62
     2
370
    13
100
AcDbLine
 10
-131.7279814184922
 20
209.6403803906952
 30
0.0
 11
-131.9605296940015
 21
209.1418396965063
 31
0.0
  0
LINE
  5
1FA
330
1F
100
AcDbEntity
  8
0-A
  6
Continuous
 62
     2
370
    13
100
AcDbLine
 10
-132.4590703881903
 20
208.9095143819512
 30
0.0
 11
-131.9605296940015
 21
209.1418396965063
 31
0.0
  0
LINE
  5
1FB
330
1F
100
AcDbEntity
  8
0-A
  6
Continuous
 62
     2
370
    13
100
AcDbLine
 10
-130.6912873005374
 20
209.6403803906952
 30
0.0
 11
-130.4589619859823
 21
209.1418396965063
 31
0.0
  0
LINE
  5
1FC
330
1F
100
AcDbEntity
  8
0-A
  6
Continuous
 62
     2
370
    13
100
AcDbLine
 10
-129.9602726511571
 20
208.9095143819512
 30
0.0
 11
-130.4589619859823
 21
209.1418396965063
 31
0.0
  0
LINE
  5
1FD
330
1F
100
AcDbEntity
  8
0-A
  6
Continuous
 62
     2
370
    13
100
AcDbLine
 10
-131.7279814184922
 20
207.1415826536619
 30
0.0
 11
-131.9605296940015
 21
207.6401233478509
 31
0.0
  0
LINE
  5
1FE
330
1F
100
AcDbEntity
  8
0-A
  6
Continuous
 62
     2
370
    13
100
AcDbLine
 10
-132.4590703881903
 20
207.8727459436784
 30
0.0
 11
-131.9605296940015
 21
207.6401233478509
 31
0.0
  0
LINE
  5
1FF
330
1F
100
AcDbEntity
  8
0-A
  6
Continuous
 62
     2
370
    13
100
AcDbLine
 10
-130.6912873005374
 20
207.1415826536619
 30
0.0
 11
-130.4589619859823
 21
207.6401233478509
 31
0.0
  0
LINE
  5
200
330
1F
100
AcDbEntity
  8
0-A
  6
Continuous
 62
     2
370
    13
100
AcDbLine
 10
-129.9602726511571
 20
207.8727459436784
 30
0.0
 11
-130.4589619859823
 21
207.6401233478509
 31
0.0
  0
LINE
  5
201
330
1F
100
AcDbEntity
  8
0-A
  6
Continuous
 62
     2
370
    13
100
AcDbLine
 10
-127.7595737102467
 20
208.8708678165104
 30
0.0
 11
-129.9602726511571
 21
208.9095143819512
 31
0.0
  0
LINE
  5
202
330
1F
100
AcDbEntity
  8
0-A
  6
Continuous
 62
     2
370
    13
100
AcDbLine
 10
-127.7595737102467
 20
208.8708678165104
 30
0.0
 11
-127.7595737102467
 21
207.9110952278468
 31
0.0
  0
LINE
  5
203
330
1F
100
AcDbEntity
  8
0-A
  6
Continuous
 62
     2
370
    13
100
AcDbLine
 10
-127.7595737102467
 20
207.9110952278468
 30
0.0
 11
-129.9602726511571
 21
207.8727459436784
 31
0.0
  0
LINE
  5
204
330
1F
100
AcDbEntity
  8
0-A
  6
Continuous
 62
     2
370
    13
100
AcDbLine
 10
-130.7297109050238
 20
211.84130229256
 30
0.0
 11
-130.6912873005374
 21
209.6403803906952
 31
0.0
  0
LINE
  5
205
330
1F
100
AcDbEntity
  8
0-A
  6
Continuous
 62
     2
370
    13
100
AcDbLine
 10
-130.7297109050238
 20
211.84130229256
 30
0.0
 11
-131.6897064546418
 21
211.84130229256
 31
0.0
  0
LINE
  5
206
330
1F
100
AcDbEntity
  8
0-A
  6
Continuous
 62
     2
370
    13
100
AcDbLine
 10
-131.6897064546418
 20
211.84130229256
 30
0.0
 11
-131.7279814184922
 21
209.6403803906952
 31
0.0
  0
LINE
  5
207
330
1F
100
AcDbEntity
  8
0-A
  6
Continuous
 62
     2
370
    13
100
AcDbLine
 10
-134.6596950087826
 20
208.8708678165104
 30
0.0
 11
-132.4590703881903
 21
208.9095143819512
 31
0.0
  0
LINE
  5
208
330
1F
100
AcDbEntity
  8
0-A
  6
Continuous
 62
     2
370
    13
100
AcDbLine
 10
-134.6596950087826
 20
208.8708678165104
 30
0.0
 11
-134.6596950087826
 21
207.9110952278468
 31
0.0
  0
LINE
  5
209
330
1F
100
AcDbEntity
  8
0-A
  6
Continuous
 62
     2
370
    13
100
AcDbLine
 10
-134.6596950087826
 20
207.9110952278468
 30
0.0
 11
-132.4590703881903
 21
207.8727459436784
 31
0.0
  0
LINE
  5
20A
330
1F
100
AcDbEntity
  8
0-A
  6
Continuous
 62
     2
370
    13
100
AcDbLine
 10
-131.6897064546418
 20
204.9409580330698
 30
0.0
 11
-131.7279814184922
 21
207.1415826536619
 31
0.0
  0
LINE
  5
20B
330
1F
100
AcDbEntity
  8
0-A
  6
Continuous
 62
     2
370
    13
100
AcDbLine
 10
-130.7297109050238
 20
204.9409580330698
 30
0.0
 11
-130.6912873005374
 21
207.1415826536619
 31
0.0
  0
LINE
  5
20C
330
1F
100
AcDbEntity
  8
0-A
  6
Continuous
 62
     2
370
    13
100
AcDbLine
 10
-130.7297109050238
 20
204.9409580330698
 30
0.0
 11
-131.6897064546418
 21
204.9409580330698
 31
0.0
  0
LINE
  5
20D
330
1F
100
AcDbEntity
  8
0-1
  6
JWW_CENTER1
 62
     3
370
    13
100
AcDbLine
 10
-131.2095971993557
 20
217.4838494875821
 30
0.0
 11
-131.2095971993557
 21
199.462807381808
 31
0.0
  0
LINE
  5
20E
330
1F
100
AcDbEntity
  8
0-1
  6
JWW_CENTER1
 62
     3
370
    13
100
AcDbLine
 10
-122.202123279513
 20
208.3910558424967
 30
0.0
 11
-140.2044366651119
 21
208.3910558424967
 31
0.0
  0
LINE
  5
20F
330
1F
100
AcDbEntity
  8
0-A
  6
Continuous
 62
     2
370
    13
100
AcDbLine
 10
104.3089641454538
 20
-752.8584261834746
 30
0.0
 11
104.5414381006452
 21
-752.3599226494448
 31
0.0
  0
LINE
  5
210
330
1F
100
AcDbEntity
  8
0-A
  6
Continuous
 62
     2
370
    13
100
AcDbLine
 10
105.0399787948341
 20
-752.1275601747309
 30
0.0
 11
104.5414381006452
 21
-752.3599226494448
 31
0.0
  0
LINE
  5
211
330
1F
100
AcDbEntity
  8
0-A
  6
Continuous
 62
     2
370
    13
100
AcDbLine
 10
103.2721957071809
 20
-752.8584261834746
 30
0.0
 11
103.0398703926261
 21
-752.3599226494448
 31
0.0
  0
LINE
  5
212
330
1F
100
AcDbEntity
  8
0-A
  6
Continuous
 62
     2
370
    13
100
AcDbLine
 10
102.5411810578009
 20
-752.1275601747309
 30
0.0
 11
103.0398703926261
 21
-752.3599226494448
 31
0.0
  0
LINE
  5
213
330
1F
100
AcDbEntity
  8
0-A
  6
Continuous
 62
     2
370
    13
100
AcDbLine
 10
104.3089641454538
 20
-750.3596656066004
 30
0.0
 11
104.5414381006452
 21
-750.8582063007894
 31
0.0
  0
LINE
  5
214
330
1F
100
AcDbEntity
  8
0-A
  6
Continuous
 62
     2
370
    13
100
AcDbLine
 10
105.0399787948341
 20
-751.0908288966169
 30
0.0
 11
104.5414381006452
 21
-750.8582063007894
 31
0.0
  0
LINE
  5
215
330
1F
100
AcDbEntity
  8
0-A
  6
Continuous
 62
     2
370
    13
100
AcDbLine
 10
103.2721957071809
 20
-750.3596656066004
 30
0.0
 11
103.0398703926261
 21
-750.8582063007894
 31
0.0
  0
LINE
  5
216
330
1F
100
AcDbEntity
  8
0-A
  6
Continuous
 62
     2
370
    13
100
AcDbLine
 10
102.5411810578009
 20
-751.0908288966169
 30
0.0
 11
103.0398703926261
 21
-750.8582063007894
 31
0.0
  0
LINE
  5
217
330
1F
100
AcDbEntity
  8
0-A
  6
Continuous
 62
     2
370
    13
100
AcDbLine
 10
100.3404821168903
 20
-752.0889879296079
 30
0.0
 11
102.5411810578009
 21
-752.1275601747309
 31
0.0
  0
LINE
  5
218
330
1F
100
AcDbEntity
  8
0-A
  6
Continuous
 62
     2
370
    13
100
AcDbLine
 10
100.3404821168903
 20
-752.0889879296079
 30
0.0
 11
100.3404821168903
 21
-751.1291410206262
 31
0.0
  0
LINE
  5
219
330
1F
100
AcDbEntity
  8
0-A
  6
Continuous
 62
     2
370
    13
100
AcDbLine
 10
100.3404821168903
 20
-751.1291410206262
 30
0.0
 11
102.5411810578009
 21
-751.0908288966169
 31
0.0
  0
LINE
  5
21A
330
1F
100
AcDbEntity
  8
0-A
  6
Continuous
 62
     2
370
    13
100
AcDbLine
 10
103.3106936319856
 20
-755.0592737650213
 30
0.0
 11
103.2721957071809
 21
-752.8584261834746
 31
0.0
  0
LINE
  5
21B
330
1F
100
AcDbEntity
  8
0-A
  6
Continuous
 62
     2
370
    13
100
AcDbLine
 10
103.3106936319856
 20
-755.0592737650213
 30
0.0
 11
104.2706148612856
 21
-755.0592737650213
 31
0.0
  0
LINE
  5
21C
330
1F
100
AcDbEntity
  8
0-A
  6
Continuous
 62
     2
370
    13
100
AcDbLine
 10
104.2706148612856
 20
-755.0592737650213
 30
0.0
 11
104.3089641454538
 21
-752.8584261834746
 31
0.0
  0
LINE
  5
21D
330
1F
100
AcDbEntity
  8
0-A
  6
Continuous
 62
     2
370
    13
100
AcDbLine
 10
107.2406777357445
 20
-752.0889879296079
 30
0.0
 11
105.0399787948341
 21
-752.1275601747309
 31
0.0
  0
LINE
  5
21E
330
1F
100
AcDbEntity
  8
0-A
  6
Continuous
 62
     2
370
    13
100
AcDbLine
 10
107.2406777357445
 20
-752.0889879296079
 30
0.0
 11
107.2406777357445
 21
-751.1291410206262
 31
0.0
  0
LINE
  5
21F
330
1F
100
AcDbEntity
  8
0-A
  6
Continuous
 62
     2
370
    13
100
AcDbLine
 10
107.2406777357445
 20
-751.1291410206262
 30
0.0
 11
105.0399787948341
 21
-751.0908288966169
 31
0.0
  0
LINE
  5
220
330
1F
100
AcDbEntity
  8
0-A
  6
Continuous
 62
     2
370
    13
100
AcDbLine
 10
104.2706148612856
 20
-748.1591153063264
 30
0.0
 11
104.3089641454538
 21
-750.3596656066004
 31
0.0
  0
LINE
  5
221
330
1F
100
AcDbEntity
  8
0-A
  6
Continuous
 62
     2
370
    13
100
AcDbLine
 10
103.3106936319856
 20
-748.1591153063264
 30
0.0
 11
103.2721957071809
 21
-750.3596656066004
 31
0.0
  0
LINE
  5
222
330
1F
100
AcDbEntity
  8
0-A
  6
Continuous
 62
     2
370
    13
100
AcDbLine
 10
103.3106936319856
 20
-748.1591153063264
 30
0.0
 11
104.2706148612856
 21
-748.1591153063264
 31
0.0
  0
LINE
  5
223
330
1F
100
AcDbEntity
  8
0-1
  6
JWW_CENTER1
 62
     3
370
    13
100
AcDbLine
 10
103.7905056059992
 20
-760.7017837998844
 30
0.0
 11
103.7905056059992
 21
-742.6808160144285
 31
0.0
  0
LINE
  5
224
330
1F
100
AcDbEntity
  8
0-1
  6
JWW_CENTER1
 62
     3
370
    13
100
AcDbLine
 10
94.78303168615662
 20
-751.6091387954352
 30
0.0
 11
112.7853450717555
 21
-751.6091387954352
 31
0.0
  0
LINE
  5
225
330
1F
100
AcDbEntity
  8
0-A
  6
Continuous
 62
     2
370
    13
100
AcDbLine
 10
-131.7279814184922
 20
-752.8584261834746
 30
0.0
 11
-131.9605296940015
 21
-752.3599226494448
 31
0.0
  0
LINE
  5
226
330
1F
100
AcDbEntity
  8
0-A
  6
Continuous
 62
     2
370
    13
100
AcDbLine
 10
-132.4590703881903
 20
-752.1275601747309
 30
0.0
 11
-131.9605296940015
 21
-752.3599226494448
 31
0.0
  0
LINE
  5
227
330
1F
100
AcDbEntity
  8
0-A
  6
Continuous
 62
     2
370
    13
100
AcDbLine
 10
-130.6912873005374
 20
-752.8584261834746
 30
0.0
 11
-130.4589619859823
 21
-752.3599226494448
 31
0.0
  0
LINE
  5
228
330
1F
100
AcDbEntity
  8
0-A
  6
Continuous
 62
     2
370
    13
100
AcDbLine
 10
-129.9602726511571
 20
-752.1275601747309
 30
0.0
 11
-130.4589619859823
 21
-752.3599226494448
 31
0.0
  0
LINE
  5
229
330
1F
100
AcDbEntity
  8
0-A
  6
Continuous
 62
     2
370
    13
100
AcDbLine
 10
-131.7279814184922
 20
-750.3596656066004
 30
0.0
 11
-131.9605296940015
 21
-750.8582063007894
 31
0.0
  0
LINE
  5
22A
330
1F
100
AcDbEntity
  8
0-A
  6
Continuous
 62
     2
370
    13
100
AcDbLine
 10
-132.4590703881903
 20
-751.0908288966169
 30
0.0
 11
-131.9605296940015
 21
-750.8582063007894
 31
0.0
  0
LINE
  5
22B
330
1F
100
AcDbEntity
  8
0-A
  6
Continuous
 62
     2
370
    13
100
AcDbLine
 10
-130.6912873005374
 20
-750.3596656066004
 30
0.0
 11
-130.4589619859823
 21
-750.8582063007894
 31
0.0
  0
LINE
  5
22C
330
1F
100
AcDbEntity
  8
0-A
  6
Continuous
 62
     2
370
    13
100
AcDbLine
 10
-129.9602726511571
 20
-751.0908288966169
 30
0.0
 11
-130.4589619859823
 21
-750.8582063007894
 31
0.0
  0
LINE
  5
22D
330
1F
100
AcDbEntity
  8
0-A
  6
Continuous
 62
     2
370
    13
100
AcDbLine
 10
-127.7595737102467
 20
-752.0889879296079
 30
0.0
 11
-129.9602726511571
 21
-752.1275601747309
 31
0.0
  0
LINE
  5
22E
330
1F
100
AcDbEntity
  8
0-A
  6
Continuous
 62
     2
370
    13
100
AcDbLine
 10
-127.7595737102467
 20
-752.0889879296079
 30
0.0
 11
-127.7595737102467
 21
-751.1291410206262
 31
0.0
  0
LINE
  5
22F
330
1F
100
AcDbEntity
  8
0-A
  6
Continuous
 62
     2
370
    13
100
AcDbLine
 10
-127.7595737102467
 20
-751.1291410206262
 30
0.0
 11
-129.9602726511571
 21
-751.0908288966169
 31
0.0
  0
LINE
  5
230
330
1F
100
AcDbEntity
  8
0-A
  6
Continuous
 62
     2
370
    13
100
AcDbLine
 10
-130.7297109050238
 20
-755.0592737650213
 30
0.0
 11
-130.6912873005374
 21
-752.8584261834746
 31
0.0
  0
LINE
  5
231
330
1F
100
AcDbEntity
  8
0-A
  6
Continuous
 62
     2
370
    13
100
AcDbLine
 10
-130.7297109050238
 20
-755.0592737650213
 30
0.0
 11
-131.6897064546418
 21
-755.0592737650213
 31
0.0
  0
LINE
  5
232
330
1F
100
AcDbEntity
  8
0-A
  6
Continuous
 62
     2
370
    13
100
AcDbLine
 10
-131.6897064546418
 20
-755.0592737650213
 30
0.0
 11
-131.7279814184922
 21
-752.8584261834746
 31
0.0
  0
LINE
  5
233
330
1F
100
AcDbEntity
  8
0-A
  6
Continuous
 62
     2
370
    13
100
AcDbLine
 10
-134.6596950087826
 20
-752.0889879296079
 30
0.0
 11
-132.4590703881903
 21
-752.1275601747309
 31
0.0
  0
LINE
  5
234
330
1F
100
AcDbEntity
  8
0-A
  6
Continuous
 62
     2
370
    13
100
AcDbLine
 10
-134.6596950087826
 20
-752.0889879296079
 30
0.0
 11
-134.6596950087826
 21
-751.1291410206262
 31
0.0
  0
LINE
  5
235
330
1F
100
AcDbEntity
  8
0-A
  6
Continuous
 62
     2
370
    13
100
AcDbLine
 10
-134.6596950087826
 20
-751.1291410206262
 30
0.0
 11
-132.4590703881903
 21
-751.0908288966169
 31
0.0
  0
LINE
  5
236
330
1F
100
AcDbEntity
  8
0-A
  6
Continuous
 62
     2
370
    13
100
AcDbLine
 10
-131.6897064546418
 20
-748.1591153063264
 30
0.0
 11
-131.7279814184922
 21
-750.3596656066004
 31
0.0
  0
LINE
  5
237
330
1F
100
AcDbEntity
  8
0-A
  6
Continuous
 62
     2
370
    13
100
AcDbLine
 10
-130.7297109050238
 20
-748.1591153063264
 30
0.0
 11
-130.6912873005374
 21
-750.3596656066004
 31
0.0
  0
LINE
  5
238
330
1F
100
AcDbEntity
  8
0-A
  6
Continuous
 62
     2
370
    13
100
AcDbLine
 10
-130.7297109050238
 20
-748.1591153063264
 30
0.0
 11
-131.6897064546418
 21
-748.1591153063264
 31
0.0
  0
LINE
  5
239
330
1F
100
AcDbEntity
  8
0-1
  6
JWW_CENTER1
 62
     3
370
    13
100
AcDbLine
 10
-122.202123279513
 20
-751.6091387954352
 30
0.0
 11
-140.2044366651119
 21
-751.6091387954352
 31
0.0
  0
LINE
  5
23A
330
1F
100
AcDbEntity
  8
0-0
  6
Continuous
 62
     4
370
    13
100
AcDbLine
 10
293.7902503305822
 20
-866.6089060547164
 30
0.0
 11
423.7903103641963
 21
-866.6089060547164
 31
0.0
  0
LINE
  5
23B
330
1F
100
AcDbEntity
  8
0-0
  6
Continuous
 62
     4
370
    13
100
AcDbLine
 10
293.7902503305822
 20
-866.6089060547164
 30
0.0
 11
293.7902503305822
 21
-871.6089540992818
 31
0.0
  0
LINE
  5
23C
330
1F
100
AcDbEntity
  8
0-0
  6
Continuous
 62
     4
370
    13
100
AcDbLine
 10
423.7903103641963
 20
-866.6089060547164
 30
0.0
 11
423.7903103641963
 21
-871.6089540992818
 31
0.0
  0
LINE
  5
23D
330
1F
100
AcDbEntity
  8
0-1
  6
Continuous
 62
     3
370
    13
100
AcDbLine
 10
-383.7094965590992
 20
-736.6089575015794
 30
0.0
 11
-378.7094485145337
 21
-736.6089575015794
 31
0.0
  0
LINE
  5
23E
330
1F
100
AcDbEntity
  8
0-1
  6
Continuous
 62
     3
370
    13
100
AcDbLine
 10
351.2905427219727
 20
-736.6089575015794
 30
0.0
 11
356.2905164462202
 21
-736.6089575015794
 31
0.0
  0
LINE
  5
23F
330
1F
100
AcDbEntity
  8
0-1
  6
JWW_DASHED1
 62
     3
370
    13
100
AcDbLine
 10
-378.7094485145337
 20
-736.6089575015794
 30
0.0
 11
351.2905427219727
 21
-736.6089575015794
 31
0.0
  0
LINE
  5
240
330
1F
100
AcDbEntity
  8
0-1
  6
Continuous
 62
     3
370
    13
100
AcDbLine
 10
351.2905427219727
 20
193.3909860291182
 30
0.0
 11
356.2905164462202
 21
193.3909860291182
 31
0.0
  0
LINE
  5
241
330
1F
100
AcDbEntity
  8
0-1
  6
Continuous
 62
     3
370
    13
100
AcDbLine
 10
-383.7094965590992
 20
193.3909860291182
 30
0.0
 11
-378.7094485145337
 21
193.3909860291182
 31
0.0
  0
LINE
  5
242
330
1F
100
AcDbEntity
  8
0-1
  6
JWW_DASHED1
 62
     3
370
    13
100
AcDbLine
 10
-378.7094485145337
 20
193.3909860291182
 30
0.0
 11
351.2905427219727
 21
193.3909860291182
 31
0.0
  0
LINE
  5
243
330
1F
100
AcDbEntity
  8
0-F
  6
Continuous
 62
     7
370
    13
100
AcDbLine
 10
361.2907874517401
 20
1.564373563948287
 30
0.0
 11
367.5803673366264
 21
8.00170224132831
 31
0.0
  0
LINE
  5
244
330
1F
100
AcDbEntity
  8
0-F
  6
Continuous
 62
     7
370
    13
100
AcDbLine
 10
361.2907874517401
 20
1.564373563948287
 30
0.0
 11
369.0322890721175
 21
6.154470733566555
 31
0.0
  0
ARC
  5
245
330
1F
100
AcDbEntity
  8
0-0
  6
Continuous
 62
     4
370
    13
100
AcDbCircle
 10
-378.7094485145337
 20
218.3910032909915
 30
0.0
 40
4.999999852484257
100
AcDbArc
 50
90.0
 51
180.0
  0
ARC
  5
246
330
1F
100
AcDbEntity
  8
0-0
  6
Continuous
 62
     4
370
    13
100
AcDbCircle
 10
-378.7094485145337
 20
218.3910032909915
 30
0.0
 40
9.999999704968515
100
AcDbArc
 50
90.0
 51
180.0
  0
ARC
  5
247
330
1F
100
AcDbEntity
  8
0-0
  6
Continuous
 62
     4
370
    13
100
AcDbCircle
 10
351.2905427219727
 20
218.3910032909915
 30
0.0
 40
4.999999852484257
100
AcDbArc
 50
0.0
 51
90.0
  0
ARC
  5
248
330
1F
100
AcDbEntity
  8
0-0
  6
Continuous
 62
     4
370
    13
100
AcDbCircle
 10
351.2905427219727
 20
218.3910032909915
 30
0.0
 40
9.999999704968515
100
AcDbArc
 50
0.0
 51
90.0
  0
CIRCLE
  5
249
330
1F
100
AcDbEntity
  8
0-A
  6
Continuous
 62
     2
370
    13
100
AcDbCircle
 10
-368.7095010660389
 20
208.3910558424967
 30
0.0
 40
6.999998516097492
  0
CIRCLE
  5
24A
330
1F
100
AcDbEntity
  8
0-A
  6
Continuous
 62
     2
370
    13
100
AcDbCircle
 10
-368.7095010660389
 20
-751.6091387954352
 30
0.0
 40
6.999998516097492
  0
CIRCLE
  5
24B
330
1F
100
AcDbEntity
  8
0-A
  6
Continuous
 62
     2
370
    13
100
AcDbCircle
 10
-368.7095010660389
 20
-111.609046196973
 30
0.0
 40
6.999998516097492
  0
CIRCLE
  5
24C
330
1F
100
AcDbEntity
  8
0-A
  6
Continuous
 62
     2
370
    13
100
AcDbCircle
 10
341.2902979922052
 20
208.3910558424967
 30
0.0
 40
6.999998516097492
  0
CIRCLE
  5
24D
330
1F
100
AcDbEntity
  8
0-A
  6
Continuous
 62
     2
370
    13
100
AcDbCircle
 10
341.2902979922052
 20
-751.6091387954352
 30
0.0
 40
6.999998516097492
  0
CIRCLE
  5
24E
330
1F
100
AcDbEntity
  8
0-A
  6
Continuous
 62
     2
370
    13
100
AcDbCircle
 10
103.7905056059992
 20
208.3910558424967
 30
0.0
 40
6.999998516097492
  0
CIRCLE
  5
24F
330
1F
100
AcDbEntity
  8
0-A
  6
Continuous
 62
     2
370
    13
100
AcDbCircle
 10
-368.7095010660389
 20
-431.6089995958065
 30
0.0
 40
6.999998516097492
  0
CIRCLE
  5
250
330
1F
100
AcDbEntity
  8
0-A
  6
Continuous
 62
     2
370
    13
100
AcDbCircle
 10
341.2902979922052
 20
-111.609046196973
 30
0.0
 40
6.999998516097492
  0
CIRCLE
  5
251
330
1F
100
AcDbEntity
  8
0-A
  6
Continuous
 62
     2
370
    13
100
AcDbCircle
 10
341.2902979922052
 20
-431.6089995958065
 30
0.0
 40
6.999998516097492
  0
CIRCLE
  5
252
330
1F
100
AcDbEntity
  8
0-A
  6
Continuous
 62
     2
370
    13
100
AcDbCircle
 10
-131.2095971993557
 20
208.3910558424967
 30
0.0
 40
6.999998516097492
  0
CIRCLE
  5
253
330
1F
100
AcDbEntity
  8
0-A
  6
Continuous
 62
     2
370
    13
100
AcDbCircle
 10
103.7905056059992
 20
-751.6091387954352
 30
0.0
 40
6.999998516097492
  0
CIRCLE
  5
254
330
1F
100
AcDbEntity
  8
0-A
  6
Continuous
 62
     2
370
    13
100
AcDbCircle
 10
-131.2095971993557
 20
-751.6091387954352
 30
0.0
 40
6.999998516097492
  0
LINE
  5
255
330
1F
100
AcDbEntity
  8
0-1
  6
JWW_CENTER1
 62
     3
370
    13
100
AcDbLine
 10
-131.2097086798328
 20
-739.9625399087652
 30
0.0
 11
-131.2097086798328
 21
-760.6792730070357
 31
0.0
  0
LINE
  5
256
330
1F
100
AcDbEntity
  8
0-1
  6
JWW_CENTER1
 62
     3
370
    13
100
AcDbLine
 10
-377.6044065474588
 20
-111.6089718766549
 30
0.0
 11
-359.104506041699
 21
-111.6089718766549
 31
0.0
  0
LINE
  5
257
330
1F
100
AcDbEntity
  8
0-4
  6
Continuous
 62
     7
370
    13
100
AcDbLine
 10
-214.8138608585052
 20
-871.6089540992818
 30
0.0
 11
-214.8138608585052
 21
-771.6089965322658
 31
0.0
  0
LINE
  5
258
330
1F
100
AcDbEntity
  8
0-4
  6
Continuous
 62
     7
370
    13
100
AcDbLine
 10
-214.8138608585052
 20
-871.6089540992818
 30
0.0
 11
-218.0770156640065
 21
-846.8228325649366
 31
0.0
  0
LINE
  5
259
330
1F
100
AcDbEntity
  8
0-4
  6
Continuous
 62
     7
370
    13
100
AcDbLine
 10
-214.8138608585052
 20
-871.6089540992818
 30
0.0
 11
-211.5507060530039
 21
-846.8228325649366
 31
0.0
  0
LINE
  5
25A
330
1F
100
AcDbEntity
  8
0-4
  6
Continuous
 62
     7
370
    13
100
AcDbLine
 10
-214.8138608585052
 20
-771.6089965322658
 30
0.0
 11
-218.0770156640065
 21
-796.3951180666111
 31
0.0
  0
LINE
  5
25B
330
1F
100
AcDbEntity
  8
0-4
  6
Continuous
 62
     7
370
    13
100
AcDbLine
 10
-214.8138608585052
 20
-771.6089965322658
 30
0.0
 11
-211.5507060530039
 21
-796.3951180666111
 31
0.0
  0
TEXT
  5
25C
330
1F
100
AcDbEntity
  8
0-4
  6
Continuous
 62
     2
370
   211
100
AcDbText
 10
-230.4538608585052
 20
-854.1089753157739
 30
0.0
 40
30.48
  1
100
 50
90.0
 41
1.083333333333333
  7
ＭＳ ゴシック
100
AcDbText
  0
LINE
  5
25D
330
1F
100
AcDbEntity
  8
0-0
  6
Continuous
 62
     4
370
    13
100
AcDbLine
 10
-383.7094965590992
 20
-766.6089484877002
 30
0.0
 11
356.2905164462202
 21
-766.6089484877002
 31
0.0
  0
LINE
  5
25E
330
1F
100
AcDbEntity
  8
0-0
  6
Continuous
 62
     4
370
    13
100
AcDbLine
 10
-383.7094965590992
 20
-771.6089965322658
 30
0.0
 11
356.2905164462202
 21
-771.6089965322658
 31
0.0
  0
LINE
  5
25F
330
1F
100
AcDbEntity
  8
0-F
  6
Continuous
 62
     7
370
    13
100
AcDbLine
 10
351.2905427219727
 20
-207.774245137711
 30
0.0
 11
357.5802712474953
 21
-201.336916460331
 31
0.0
  0
LINE
  5
260
330
1F
100
AcDbEntity
  8
0-F
  6
Continuous
 62
     7
370
    13
100
AcDbLine
 10
351.2905427219727
 20
-207.774245137711
 30
0.0
 11
359.03204434235
 21
-203.1841479680926
 31
0.0
  0
LINE
  5
261
330
1F
100
AcDbEntity
  8
0-F
  6
Continuous
 62
     7
370
    13
100
AcDbLine
 10
416.151816704783
 20
-156.7989050788061
 30
0.0
 11
351.2905427219727
 21
-207.774245137711
 31
0.0
  0
TEXT
  5
262
330
1F
100
AcDbEntity
  8
0-5
  6
Continuous
 62
     7
370
    13
100
AcDbText
 10
545.6954949873079
 20
-144.2719147137553
 30
0.0
 40
22.86
  1
パネル
 41
1.111111111111111
  7
ＭＳ ゴシック
100
AcDbText
  0
TEXT
  5
263
330
1F
100
AcDbEntity
  8
0-5
  6
Continuous
 62
     7
370
    13
100
AcDbText
 10
419.7059049767954
 20
-191.1384053165604
 30
0.0
 40
22.86
  1
透明ポリカーボネート
 41
1.15
  7
ＭＳ ゴシック
100
AcDbText
  0
LINE
  5
264
330
1F
100
AcDbEntity
  8
0-4
  6
Continuous
 62
     7
370
    13
100
AcDbLine
 10
416.151816704783
 20
-156.7989050788061
 30
0.0
 11
761.1066382913258
 21
-156.7989050788061
 31
0.0
  0
LINE
  5
265
330
1F
100
AcDbEntity
  8
0-0
  6
Continuous
 62
     4
370
    13
100
AcDbLine
 10
361.2906388111038
 20
218.3910032909915
 30
0.0
 11
361.2906388111038
 21
-866.6089060547164
 31
0.0
  0
LINE
  5
266
330
1F
100
AcDbEntity
  8
0-0
  6
Continuous
 62
     4
370
    13
100
AcDbLine
 10
356.2905164462202
 20
218.3910032909915
 30
0.0
 11
356.2905164462202
 21
-866.6089060547164
 31
0.0
  0
TEXT
  5
267
330
1F
100
AcDbEntity
  8
0-5
  6
Continuous
 62
     7
370
    13
100
AcDbText
 10
580.6872200528331
 20
-391.5302987643835
 30
0.0
 40
22.86
  1
ＳＵＳ３０４
 41
1.138888888888889
  7
ＭＳ ゴシック
100
AcDbText
  0
TEXT
  5
268
330
1F
100
AcDbEntity
  8
0-5
  6
Continuous
 62
     7
370
    13
100
AcDbText
 10
454.2381546442539
 20
-335.0579006207462
 30
0.0
 40
22.86
  1
トラス小ねじ，平座金，ばね座金
 41
1.155555555555555
  7
ＭＳ ゴシック
100
AcDbText
  0
LINE
  5
269
330
1F
100
AcDbEntity
  8
0-4
  6
Continuous
 62
     7
370
    13
100
AcDbLine
 10
451.1515491641567
 20
-350.7690058501427
 30
0.0
 11
975.9940070582945
 21
-350.7690058501427
 31
0.0
  0
LINE
  5
26A
330
1F
100
AcDbEntity
  8
0-F
  6
Continuous
 62
     7
370
    13
100
AcDbLine
 10
451.1515491641567
 20
-350.7690058501427
 30
0.0
 11
348.2902965083026
 21
-431.6089995958065
 31
0.0
  0
LINE
  5
26B
330
1F
100
AcDbEntity
  8
0-F
  6
Continuous
 62
     7
370
    13
100
AcDbLine
 10
348.2902965083026
 20
-431.6089995958065
 30
0.0
 11
356.0317981286798
 21
-427.0189024261882
 31
0.0
  0
LINE
  5
26C
330
1F
100
AcDbEntity
  8
0-F
  6
Continuous
 62
     7
370
    13
100
AcDbLine
 10
348.2902965083026
 20
-431.6089995958065
 30
0.0
 11
354.5800250338251
 21
-425.1716709184265
 31
0.0
  0
LINE
  5
26D
330
1F
100
AcDbEntity
  8
0-4
  6
Continuous
 62
     7
370
    13
100
AcDbLine
 10
-383.7094965590992
 20
-57.97324814946792
 30
0.0
 11
-358.9233750247539
 21
-54.71009334396663
 31
0.0
  0
LINE
  5
26E
330
1F
100
AcDbEntity
  8
0-4
  6
Continuous
 62
     7
370
    13
100
AcDbLine
 10
-383.7094965590992
 20
-57.97324814946792
 30
0.0
 11
-358.9233750247539
 21
-61.23640295496921
 31
0.0
  0
LINE
  5
26F
330
1F
100
AcDbEntity
  8
0-4
  6
Continuous
 62
     7
370
    13
100
AcDbLine
 10
-388.7095074435057
 20
-57.97324814946792
 30
0.0
 11
-413.495628977851
 21
-54.71009334396663
 31
0.0
  0
LINE
  5
270
330
1F
100
AcDbEntity
  8
0-4
  6
Continuous
 62
     7
370
    13
100
AcDbLine
 10
-388.7095074435057
 20
-57.97324814946792
 30
0.0
 11
-413.495628977851
 21
-61.23640295496921
 31
0.0
  0
TEXT
  5
271
330
1F
100
AcDbEntity
  8
0-4
  6
Continuous
 62
     2
370
   211
100
AcDbText
 10
-442.2654133172227
 20
-42.33324814946792
 30
0.0
 40
30.48
  1
5
 41
0.9999999999999998
  7
ＭＳ ゴシック
100
AcDbText
  0
TEXT
  5
272
330
1F
100
AcDbEntity
  8
0-5
  6
Continuous
 62
     7
370
    13
100
AcDbText
 10
417.6993791982279
 20
58.10715579175307
 30
0.0
 40
22.86
  1
フレーム　５Ｘ４０
 41
1.148148148148148
  7
ＭＳ ゴシック
100
AcDbText
  0
LINE
  5
273
330
1F
100
AcDbEntity
  8
0-5
  6
Continuous
 62
     7
370
    13
100
AcDbLine
 10
-321.2094905645749
 20
-871.6089540992818
 30
0.0
 11
293.7902503305822
 21
-871.6089540992818
 31
0.0
  0
LINE
  5
274
330
1F
100
AcDbEntity
  8
0-5
  6
Continuous
 62
     7
370
    13
100
AcDbLine
 10
423.7903103641963
 20
-871.6089540992818
 30
0.0
 11
531.5605686748752
 21
-871.6089540992818
 31
0.0
  0
TEXT
  5
275
330
1F
100
AcDbEntity
  8
0-5
  6
Continuous
 62
     7
370
    13
100
AcDbText
 10
417.6993791982279
 20
6.866033769240847
 30
0.0
 40
22.86
  1
ＳＵＳ３０４，ヘアライン仕上げ
 41
1.155555555555555
  7
ＭＳ ゴシック
100
AcDbText
  0
LINE
  5
276
330
1F
100
AcDbEntity
  8
0-4
  6
Continuous
 62
     7
370
    13
100
AcDbLine
 10
416.151816704783
 20
44.68041429819884
 30
0.0
 11
950.9705159705161
 21
44.68041429819884
 31
0.0
  0
LINE
  5
277
330
1F
100
AcDbEntity
  8
0-5
  6
Continuous
 62
     7
370
    13
100
AcDbLine
 10
-451.2095134380301
 20
-871.6089540992818
 30
0.0
 11
-573.5197320865907
 21
-871.6089540992818
 31
0.0
  0
LINE
  5
278
330
1F
100
AcDbEntity
  8
0-4
  6
Continuous
 62
     7
370
    13
100
AcDbLine
 10
-388.7094482195022
 20
368.39100299596
 30
0.0
 11
361.2906388111038
 21
368.39100299596
 31
0.0
  0
LINE
  5
279
330
1F
100
AcDbEntity
  8
0-4
  6
Continuous
 62
     7
370
    13
100
AcDbLine
 10
-388.7094482195022
 20
368.39100299596
 30
0.0
 11
-363.9233266851569
 21
371.6541578014613
 31
0.0
  0
LINE
  5
27A
330
1F
100
AcDbEntity
  8
0-4
  6
Continuous
 62
     7
370
    13
100
AcDbLine
 10
-388.7094482195022
 20
368.39100299596
 30
0.0
 11
-363.9233266851569
 21
365.1278481904587
 31
0.0
  0
LINE
  5
27B
330
1F
100
AcDbEntity
  8
0-4
  6
Continuous
 62
     7
370
    13
100
AcDbLine
 10
361.2906388111038
 20
368.39100299596
 30
0.0
 11
336.5045172767586
 21
371.6541578014613
 31
0.0
  0
LINE
  5
27C
330
1F
100
AcDbEntity
  8
0-4
  6
Continuous
 62
     7
370
    13
100
AcDbLine
 10
361.2906388111038
 20
368.39100299596
 30
0.0
 11
336.5045172767586
 21
365.1278481904587
 31
0.0
  0
LINE
  5
27D
330
1F
100
AcDbEntity
  8
0-4
  6
Continuous
 62
     7
370
    13
100
AcDbLine
 10
-388.7094482195022
 20
371.39100299596
 30
0.0
 11
-388.7094482195022
 21
238.3910032909915
 31
0.0
  0
LINE
  5
27E
330
1F
100
AcDbEntity
  8
0-4
  6
Continuous
 62
     7
370
    13
100
AcDbLine
 10
361.2906388111038
 20
371.39100299596
 30
0.0
 11
361.2906388111038
 21
238.3910032909915
 31
0.0
  0
TEXT
  5
27F
330
1F
100
AcDbEntity
  8
0-4
  6
Continuous
 62
     2
370
   211
100
AcDbText
 10
-46.20940470419917
 20
384.03100299596
 30
0.0
 40
30.48
  1
750
 41
1.083333333333333
  7
ＭＳ ゴシック
100
AcDbText
  0
LINE
  5
280
330
1F
100
AcDbEntity
  8
0-4
  6
Continuous
 62
     7
370
    13
100
AcDbLine
 10
-340.4631533293299
 20
-57.97324814946792
 30
0.0
 11
-450.5362554382245
 21
-57.97324814946792
 31
0.0
  0
LINE
  5
281
330
1F
100
AcDbEntity
  8
0-4
  6
Continuous
 62
     7
370
    13
100
AcDbLine
 10
28.02896496561717
 20
922.8889357034744
 30
0.0
 11
28.02896496561717
 21
776.1741673359368
 31
0.0
  0
LINE
  5
282
330
1F
100
AcDbEntity
  8
0-5
  6
Continuous
 62
     7
370
    13
100
AcDbLine
 10
503.0972245869431
 20
-990.8488069898266
 30
0.0
 11
400.2359719310891
 21
-910.0088132441629
 31
0.0
  0
LINE
  5
283
330
1F
100
AcDbEntity
  8
0-5
  6
Continuous
 62
     7
370
    13
100
AcDbLine
 10
400.2359719310891
 20
-910.0088132441629
 30
0.0
 11
417.707510035462
 21
-927.8902381389371
 31
0.0
  0
LINE
  5
284
330
1F
100
AcDbEntity
  8
0-5
  6
Continuous
 62
     7
370
    13
100
AcDbLine
 10
400.2359719310891
 20
-910.0088132441629
 30
0.0
 11
421.7402351274343
 21
-922.7589765522275
 31
0.0
  0
LINE
  5
285
330
1F
100
AcDbEntity
  8
0-5
  6
Continuous
 62
     7
370
    13
100
AcDbLine
 10
503.0972245869431
 20
-990.8488069898266
 30
0.0
 11
960.297540728013
 21
-990.8488069898266
 31
0.0
  0
TEXT
  5
286
330
1F
100
AcDbEntity
  8
0-5
  6
Continuous
 62
     7
370
    13
100
AcDbText
 10
629.197382657478
 20
-1030.461661545958
 30
0.0
 40
22.86
  1
ＳＵＳ３０４
 41
1.138888888888889
  7
ＭＳ ゴシック
100
AcDbText
  0
TEXT
  5
287
330
1F
100
AcDbEntity
  8
0-5
  6
Continuous
 62
     7
370
    13
100
AcDbText
 10
506.8154102377588
 20
-980.4558128846836
 30
0.0
 40
22.86
  1
アンカーボルト：Ｍ８×５０
 41
1.153846153846154
  7
ＭＳ ゴシック
100
AcDbText
  0
LINE
  5
288
330
1F
100
AcDbEntity
  8
0-4
  6
Continuous
 62
     7
370
    13
100
AcDbLine
 10
-528.7094482195022
 20
-871.6089540992818
 30
0.0
 11
-528.7094482195021
 21
228.3910029959601
 31
0.0
  0
LINE
  5
289
330
1F
100
AcDbEntity
  8
0-4
  6
Continuous
 62
     7
370
    13
100
AcDbLine
 10
-528.7094482195022
 20
-871.6089540992818
 30
0.0
 11
-531.9726030250034
 21
-846.8228325649366
 31
0.0
  0
LINE
  5
28A
330
1F
100
AcDbEntity
  8
0-4
  6
Continuous
 62
     7
370
    13
100
AcDbLine
 10
-528.7094482195022
 20
-871.6089540992818
 30
0.0
 11
-525.4462934140009
 21
-846.8228325649366
 31
0.0
  0
LINE
  5
28B
330
1F
100
AcDbEntity
  8
0-4
  6
Continuous
 62
     7
370
    13
100
AcDbLine
 10
-528.7094482195021
 20
228.3910029959601
 30
0.0
 11
-531.9726030250034
 21
203.6048814616149
 31
0.0
  0
LINE
  5
28C
330
1F
100
AcDbEntity
  8
0-4
  6
Continuous
 62
     7
370
    13
100
AcDbLine
 10
-528.7094482195021
 20
228.3910029959601
 30
0.0
 11
-525.4462934140008
 21
203.6048814616149
 31
0.0
  0
LINE
  5
28D
330
1F
100
AcDbEntity
  8
0-4
  6
Continuous
 62
     7
370
    13
100
AcDbLine
 10
-531.7094482195021
 20
228.3910029959601
 30
0.0
 11
-398.7094485145337
 21
228.3910029959601
 31
0.0
  0
TEXT
  5
28E
330
1F
100
AcDbEntity
  8
0-4
  6
Continuous
 62
     2
370
   211
100
AcDbText
 10
-544.3494482195022
 20
-365.3589755516609
 30
0.0
 40
30.48
  1
1100
 50
90.0
 41
1.09375
  7
ＭＳ ゴシック
100
AcDbText
  0
LINE
  5
28F
330
1F
100
AcDbEntity
  8
0-4
  6
Continuous
 62
     7
370
    13
100
AcDbLine
 10
507.4017668634747
 20
-774.2378409941989
 30
0.0
 11
404.5405142076206
 21
-855.0778347398625
 31
0.0
  0
LINE
  5
290
330
1F
100
AcDbEntity
  8
0-5
  6
Continuous
 62
     2
370
    13
100
AcDbLine
 10
398.3905241109633
 20
-898.0545387094435
 30
0.0
 11
399.1905080155919
 21
-898.0545387094435
 31
0.0
  0
LINE
  5
291
330
1F
100
AcDbEntity
  8
0-5
  6
Continuous
 62
     2
370
    13
100
AcDbLine
 10
398.3905241109633
 20
-898.0545387094435
 30
0.0
 11
397.3445399532389
 21
-910.0088132441624
 31
0.0
  0
LINE
  5
292
330
1F
100
AcDbEntity
  8
0-5
  6
Continuous
 62
     2
370
    13
100
AcDbLine
 10
393.7582873209505
 20
-909.695144341386
 30
0.0
 11
397.3445399532389
 21
-910.0088132441624
 31
0.0
  0
LINE
  5
293
330
1F
100
AcDbEntity
  8
0-5
  6
Continuous
 62
     2
370
    13
100
AcDbLine
 10
397.518746778996
 20
-908.0164341550426
 30
0.0
 11
393.9324941467077
 21
-907.7027280921072
 31
0.0
  0
LINE
  5
294
330
1F
100
AcDbEntity
  8
0-5
  6
Continuous
 62
     2
370
    13
100
AcDbLine
 10
397.6932508860258
 20
-906.0240550659228
 30
0.0
 11
394.1069982537374
 21
-905.7103490029874
 31
0.0
  0
LINE
  5
295
330
1F
100
AcDbEntity
  8
0-5
  6
Continuous
 62
     2
370
    13
100
AcDbLine
 10
397.8676063524193
 20
-904.0317131369625
 30
0.0
 11
394.2812050794946
 21
-903.7179699138676
 31
0.0
  0
LINE
  5
296
330
1F
100
AcDbEntity
  8
0-5
  6
Continuous
 62
     2
370
    13
100
AcDbLine
 10
398.0418131781763
 20
-902.0392597275242
 30
0.0
 11
394.4555605458879
 21
-901.7255908247478
 31
0.0
  0
LINE
  5
297
330
1F
100
AcDbEntity
  8
0-5
  6
Continuous
 62
     2
370
    13
100
AcDbLine
 10
398.2161686445698
 20
-900.0468806384043
 30
0.0
 11
394.6299160122814
 21
-899.733174575469
 31
0.0
  0
LINE
  5
298
330
1F
100
AcDbEntity
  8
0-5
  6
Continuous
 62
     2
370
    13
100
AcDbLine
 10
394.3309996926589
 20
-907.7376214814814
 30
0.0
 11
394.1069982537374
 21
-905.7103490029874
 31
0.0
  0
LINE
  5
299
330
1F
100
AcDbEntity
  8
0-5
  6
Continuous
 62
     2
370
    13
100
AcDbLine
 10
394.5053551590523
 20
-905.7452795525205
 30
0.0
 11
394.2812050794946
 21
-903.7179699138676
 31
0.0
  0
LINE
  5
29A
330
1F
100
AcDbEntity
  8
0-5
  6
Continuous
 62
     2
370
    13
100
AcDbLine
 10
394.6797106254459
 20
-903.7528261430828
 30
0.0
 11
394.4555605458879
 21
-901.7255908247478
 31
0.0
  0
LINE
  5
29B
330
1F
100
AcDbEntity
  8
0-5
  6
Continuous
 62
     2
370
    13
100
AcDbLine
 10
394.8540660918391
 20
-901.7604470539629
 30
0.0
 11
394.6299160122814
 21
-899.733174575469
 31
0.0
  0
LINE
  5
29C
330
1F
100
AcDbEntity
  8
0-5
  6
Continuous
 62
     2
370
    13
100
AcDbLine
 10
393.9324941467077
 20
-907.7027280921072
 30
0.0
 11
393.7582873209505
 21
-909.695144341386
 31
0.0
  0
LINE
  5
29D
330
1F
100
AcDbEntity
  8
0-5
  6
Continuous
 62
     2
370
    13
100
AcDbLine
 10
399.1905080155919
 20
-898.0545387094435
 30
0.0
 11
400.2363435326799
 21
-910.0088132441624
 31
0.0
  0
LINE
  5
29E
330
1F
100
AcDbEntity
  8
0-5
  6
Continuous
 62
     2
370
    13
100
AcDbLine
 10
403.8227448056045
 20
-909.695144341386
 30
0.0
 11
400.2363435326799
 21
-910.0088132441624
 31
0.0
  0
LINE
  5
29F
330
1F
100
AcDbEntity
  8
0-5
  6
Continuous
 62
     2
370
    13
100
AcDbLine
 10
400.0619880662864
 20
-908.0164341550426
 30
0.0
 11
403.6482406985749
 21
-907.7027280921072
 31
0.0
  0
LINE
  5
2A0
330
1F
100
AcDbEntity
  8
0-5
  6
Continuous
 62
     2
370
    13
100
AcDbLine
 10
399.887632599893
 20
-906.0240550659228
 30
0.0
 11
403.4740338728176
 21
-905.7103490029874
 31
0.0
  0
LINE
  5
2A1
330
1F
100
AcDbEntity
  8
0-5
  6
Continuous
 62
     2
370
    13
100
AcDbLine
 10
399.7134257741359
 20
-904.0317131369625
 30
0.0
 11
403.2996784064243
 21
-903.7179699138676
 31
0.0
  0
LINE
  5
2A2
330
1F
100
AcDbEntity
  8
0-5
  6
Continuous
 62
     2
370
    13
100
AcDbLine
 10
399.5390703077424
 20
-902.0392597275242
 30
0.0
 11
403.1253229400309
 21
-901.7255908247478
 31
0.0
  0
LINE
  5
2A3
330
1F
100
AcDbEntity
  8
0-5
  6
Continuous
 62
     2
370
    13
100
AcDbLine
 10
399.364714841349
 20
-900.0468806384043
 30
0.0
 11
402.9511161142738
 21
-899.733174575469
 31
0.0
  0
LINE
  5
2A4
330
1F
100
AcDbEntity
  8
0-5
  6
Continuous
 62
     2
370
    13
100
AcDbLine
 10
403.2498837932599
 20
-907.7376214814814
 30
0.0
 11
403.4740338728176
 21
-905.7103490029874
 31
0.0
  0
LINE
  5
2A5
330
1F
100
AcDbEntity
  8
0-5
  6
Continuous
 62
     2
370
    13
100
AcDbLine
 10
403.0755283268664
 20
-905.7452795525205
 30
0.0
 11
403.2996784064243
 21
-903.7179699138676
 31
0.0
  0
LINE
  5
2A6
330
1F
100
AcDbEntity
  8
0-5
  6
Continuous
 62
     2
370
    13
100
AcDbLine
 10
402.9011728604731
 20
-903.7528261430828
 30
0.0
 11
403.1253229400309
 21
-901.7255908247478
 31
0.0
  0
LINE
  5
2A7
330
1F
100
AcDbEntity
  8
0-5
  6
Continuous
 62
     2
370
    13
100
AcDbLine
 10
402.7269660347161
 20
-901.7604470539629
 30
0.0
 11
402.9511161142738
 21
-899.733174575469
 31
0.0
  0
LINE
  5
2A8
330
1F
100
AcDbEntity
  8
0-5
  6
Continuous
 62
     2
370
    13
100
AcDbLine
 10
403.6482406985749
 20
-907.7027280921072
 30
0.0
 11
403.8227448056045
 21
-909.695144341386
 31
0.0
  0
LINE
  5
2A9
330
1F
100
AcDbEntity
  8
0-5
  6
Continuous
 62
     2
370
    13
100
AcDbLine
 10
394.7904478994979
 20
-871.6089540992817
 30
0.0
 11
394.7904478994979
 21
-896.2719287183188
 31
0.0
  0
LINE
  5
2AA
330
1F
100
AcDbEntity
  8
0-5
  6
Continuous
 62
     2
370
    13
100
AcDbLine
 10
402.7904355864211
 20
-871.6089540992817
 30
0.0
 11
402.7904355864211
 21
-896.2719287183188
 31
0.0
  0
ARC
  5
2AB
330
1F
100
AcDbEntity
  8
0-5
  6
Continuous
 62
     2
370
    13
100
AcDbCircle
 10
372.6065761331827
 20
-896.9768197758668
 30
0.0
 40
22.1950267815682
100
AcDbArc
 50
352.8659820556641
 51
1.819824218750048
  0
ARC
  5
2AC
330
1F
100
AcDbEntity
  8
0-5
  6
Continuous
 62
     2
370
    13
100
AcDbCircle
 10
424.974307352736
 20
-896.9768197758668
 30
0.0
 40
22.1950267815682
100
AcDbArc
 50
178.18017578125
 51
187.1340179443359
  0
LINE
  5
2AD
330
1F
100
AcDbEntity
  8
0-5
  6
Continuous
 62
     2
370
    13
100
AcDbLine
 10
318.3904242807777
 20
-898.0545387094435
 30
0.0
 11
319.1904081854065
 21
-898.0545387094435
 31
0.0
  0
LINE
  5
2AE
330
1F
100
AcDbEntity
  8
0-5
  6
Continuous
 62
     2
370
    13
100
AcDbLine
 10
318.3904242807777
 20
-898.0545387094435
 30
0.0
 11
317.3444401230534
 21
-910.0088132441624
 31
0.0
  0
LINE
  5
2AF
330
1F
100
AcDbEntity
  8
0-5
  6
Continuous
 62
     2
370
    13
100
AcDbLine
 10
313.758187490765
 20
-909.695144341386
 30
0.0
 11
317.3444401230534
 21
-910.0088132441624
 31
0.0
  0
LINE
  5
2B0
330
1F
100
AcDbEntity
  8
0-5
  6
Continuous
 62
     2
370
    13
100
AcDbLine
 10
317.5186469488105
 20
-908.0164341550426
 30
0.0
 11
313.9323943165221
 21
-907.7027280921072
 31
0.0
  0
LINE
  5
2B1
330
1F
100
AcDbEntity
  8
0-5
  6
Continuous
 62
     2
370
    13
100
AcDbLine
 10
317.6931510558404
 20
-906.0240550659228
 30
0.0
 11
314.1068984235519
 21
-905.7103490029874
 31
0.0
  0
LINE
  5
2B2
330
1F
100
AcDbEntity
  8
0-5
  6
Continuous
 62
     2
370
    13
100
AcDbLine
 10
317.8675065222337
 20
-904.0317131369625
 30
0.0
 11
314.281105249309
 21
-903.7179699138676
 31
0.0
  0
LINE
  5
2B3
330
1F
100
AcDbEntity
  8
0-5
  6
Continuous
 62
     2
370
    13
100
AcDbLine
 10
318.0417133479909
 20
-902.0392597275242
 30
0.0
 11
314.4554607157024
 21
-901.7255908247478
 31
0.0
  0
LINE
  5
2B4
330
1F
100
AcDbEntity
  8
0-5
  6
Continuous
 62
     2
370
    13
100
AcDbLine
 10
318.2160688143844
 20
-900.0468806384043
 30
0.0
 11
314.6298161820959
 21
-899.733174575469
 31
0.0
  0
LINE
  5
2B5
330
1F
100
AcDbEntity
  8
0-5
  6
Continuous
 62
     2
370
    13
100
AcDbLine
 10
314.3308998624735
 20
-907.7376214814814
 30
0.0
 11
314.1068984235519
 21
-905.7103490029874
 31
0.0
  0
LINE
  5
2B6
330
1F
100
AcDbEntity
  8
0-5
  6
Continuous
 62
     2
370
    13
100
AcDbLine
 10
314.5052553288667
 20
-905.7452795525205
 30
0.0
 11
314.281105249309
 21
-903.7179699138676
 31
0.0
  0
LINE
  5
2B7
330
1F
100
AcDbEntity
  8
0-5
  6
Continuous
 62
     2
370
    13
100
AcDbLine
 10
314.6796107952603
 20
-903.7528261430828
 30
0.0
 11
314.4554607157024
 21
-901.7255908247478
 31
0.0
  0
LINE
  5
2B8
330
1F
100
AcDbEntity
  8
0-5
  6
Continuous
 62
     2
370
    13
100
AcDbLine
 10
314.8539662616536
 20
-901.7604470539629
 30
0.0
 11
314.6298161820959
 21
-899.733174575469
 31
0.0
  0
LINE
  5
2B9
330
1F
100
AcDbEntity
  8
0-5
  6
Continuous
 62
     2
370
    13
100
AcDbLine
 10
313.9323943165221
 20
-907.7027280921072
 30
0.0
 11
313.758187490765
 21
-909.695144341386
 31
0.0
  0
LINE
  5
2BA
330
1F
100
AcDbEntity
  8
0-5
  6
Continuous
 62
     2
370
    13
100
AcDbLine
 10
319.1904081854065
 20
-898.0545387094435
 30
0.0
 11
320.2362437024942
 21
-910.0088132441624
 31
0.0
  0
LINE
  5
2BB
330
1F
100
AcDbEntity
  8
0-5
  6
Continuous
 62
     2
370
    13
100
AcDbLine
 10
323.8226449754191
 20
-909.695144341386
 30
0.0
 11
320.2362437024942
 21
-910.0088132441624
 31
0.0
  0
LINE
  5
2BC
330
1F
100
AcDbEntity
  8
0-5
  6
Continuous
 62
     2
370
    13
100
AcDbLine
 10
320.061888236101
 20
-908.0164341550426
 30
0.0
 11
323.6481408683892
 21
-907.7027280921072
 31
0.0
  0
LINE
  5
2BD
330
1F
100
AcDbEntity
  8
0-5
  6
Continuous
 62
     2
370
    13
100
AcDbLine
 10
319.8875327697075
 20
-906.0240550659228
 30
0.0
 11
323.4739340426322
 21
-905.7103490029874
 31
0.0
  0
LINE
  5
2BE
330
1F
100
AcDbEntity
  8
0-5
  6
Continuous
 62
     2
370
    13
100
AcDbLine
 10
319.7133259439505
 20
-904.0317131369625
 30
0.0
 11
323.2995785762389
 21
-903.7179699138676
 31
0.0
  0
LINE
  5
2BF
330
1F
100
AcDbEntity
  8
0-5
  6
Continuous
 62
     2
370
    13
100
AcDbLine
 10
319.538970477557
 20
-902.0392597275242
 30
0.0
 11
323.1252231098454
 21
-901.7255908247478
 31
0.0
  0
LINE
  5
2C0
330
1F
100
AcDbEntity
  8
0-5
  6
Continuous
 62
     2
370
    13
100
AcDbLine
 10
319.3646150111635
 20
-900.0468806384043
 30
0.0
 11
322.9510162840882
 21
-899.733174575469
 31
0.0
  0
LINE
  5
2C1
330
1F
100
AcDbEntity
  8
0-5
  6
Continuous
 62
     2
370
    13
100
AcDbLine
 10
323.2497839630744
 20
-907.7376214814814
 30
0.0
 11
323.4739340426322
 21
-905.7103490029874
 31
0.0
  0
LINE
  5
2C2
330
1F
100
AcDbEntity
  8
0-5
  6
Continuous
 62
     2
370
    13
100
AcDbLine
 10
323.0754284966809
 20
-905.7452795525205
 30
0.0
 11
323.2995785762389
 21
-903.7179699138676
 31
0.0
  0
LINE
  5
2C3
330
1F
100
AcDbEntity
  8
0-5
  6
Continuous
 62
     2
370
    13
100
AcDbLine
 10
322.9010730302876
 20
-903.7528261430828
 30
0.0
 11
323.1252231098454
 21
-901.7255908247478
 31
0.0
  0
LINE
  5
2C4
330
1F
100
AcDbEntity
  8
0-5
  6
Continuous
 62
     2
370
    13
100
AcDbLine
 10
322.7268662045304
 20
-901.7604470539629
 30
0.0
 11
322.9510162840882
 21
-899.733174575469
 31
0.0
  0
LINE
  5
2C5
330
1F
100
AcDbEntity
  8
0-5
  6
Continuous
 62
     2
370
    13
100
AcDbLine
 10
323.6481408683892
 20
-907.7027280921072
 30
0.0
 11
323.8226449754191
 21
-909.695144341386
 31
0.0
  0
LINE
  5
2C6
330
1F
100
AcDbEntity
  8
0-5
  6
Continuous
 62
     2
370
    13
100
AcDbLine
 10
314.7903480693125
 20
-871.6089540992817
 30
0.0
 11
314.7903480693125
 21
-896.2719287183188
 31
0.0
  0
LINE
  5
2C7
330
1F
100
AcDbEntity
  8
0-5
  6
Continuous
 62
     2
370
    13
100
AcDbLine
 10
322.7903357562354
 20
-871.6089540992817
 30
0.0
 11
322.7903357562354
 21
-896.2719287183188
 31
0.0
  0
ARC
  5
2C8
330
1F
100
AcDbEntity
  8
0-5
  6
Continuous
 62
     2
370
    13
100
AcDbCircle
 10
292.6064763029972
 20
-896.9768197758668
 30
0.0
 40
22.1950267815682
100
AcDbArc
 50
352.8659820556641
 51
1.819824218750048
  0
ARC
  5
2C9
330
1F
100
AcDbEntity
  8
0-5
  6
Continuous
 62
     2
370
    13
100
AcDbCircle
 10
344.9742075225504
 20
-896.9768197758668
 30
0.0
 40
22.1950267815682
100
AcDbArc
 50
178.18017578125
 51
187.1340179443359
  0
LINE
  5
2CA
330
1F
100
AcDbEntity
  8
0-0
  6
JWW_CENTER1
 62
     4
370
    13
100
AcDbLine
 10
398.7905160632774
 20
-845.6850981225733
 30
0.0
 11
398.7905160632774
 21
-912.2531010516713
 31
0.0
  0
LINE
  5
2CB
330
1F
100
AcDbEntity
  8
0-0
  6
JWW_CENTER1
 62
     4
370
    13
100
AcDbLine
 10
318.790416233092
 20
-845.6850981225733
 30
0.0
 11
318.790416233092
 21
-912.2531010516713
 31
0.0
  0
LINE
  5
2CC
330
1F
100
AcDbEntity
  8
0-5
  6
JWW_DASHED1
 62
     2
370
    13
100
AcDbLine
 10
402.7904355864211
 20
-866.6089060547159
 30
0.0
 11
402.7904355864211
 21
-871.6089540992817
 31
0.0
  0
LINE
  5
2CD
330
1F
100
AcDbEntity
  8
0-5
  6
JWW_DASHED1
 62
     2
370
    13
100
AcDbLine
 10
394.7904478994979
 20
-866.6089060547159
 30
0.0
 11
394.7904478994979
 21
-871.6089540992817
 31
0.0
  0
LINE
  5
2CE
330
1F
100
AcDbEntity
  8
0-5
  6
JWW_DASHED1
 62
     2
370
    13
100
AcDbLine
 10
322.7903357562354
 20
-866.6089060547159
 30
0.0
 11
322.7903357562354
 21
-871.6089540992817
 31
0.0
  0
LINE
  5
2CF
330
1F
100
AcDbEntity
  8
0-5
  6
JWW_DASHED1
 62
     2
370
    13
100
AcDbLine
 10
314.7903480693125
 20
-866.6089060547159
 30
0.0
 11
314.7903480693125
 21
-871.6089540992817
 31
0.0
  0
LINE
  5
2D0
330
1F
100
AcDbEntity
  8
0-4
  6
Continuous
 62
     7
370
    13
100
AcDbLine
 10
404.5405142076206
 20
-855.0778347398625
 30
0.0
 11
422.0120523119936
 21
-837.1964098450883
 31
0.0
  0
LINE
  5
2D1
330
1F
100
AcDbEntity
  8
0-4
  6
Continuous
 62
     7
370
    13
100
AcDbLine
 10
404.5405142076206
 20
-855.0778347398625
 30
0.0
 11
426.0447774039658
 21
-842.3276714317979
 31
0.0
  0
LINE
  5
2D2
330
1F
100
AcDbEntity
  8
0-9
  6
Continuous
 62
     2
370
    13
100
AcDbLine
 10
390.2905132022545
 20
-865.0089113952924
 30
0.0
 11
390.2905132022545
 21
-866.6089060547159
 31
0.0
  0
LINE
  5
2D3
330
1F
100
AcDbEntity
  8
0-9
  6
Continuous
 62
     2
370
    13
100
AcDbLine
 10
390.2905132022545
 20
-866.6089060547159
 30
0.0
 11
407.2905189243004
 21
-866.6089060547159
 31
0.0
  0
LINE
  5
2D4
330
1F
100
AcDbEntity
  8
0-9
  6
Continuous
 62
     2
370
    13
100
AcDbLine
 10
407.2905189243004
 20
-865.0089113952924
 30
0.0
 11
407.2905189243004
 21
-866.6089060547159
 31
0.0
  0
LINE
  5
2D5
330
1F
100
AcDbEntity
  8
0-9
  6
Continuous
 62
     2
370
    13
100
AcDbLine
 10
390.2905132022545
 20
-865.0089113952924
 30
0.0
 11
407.2905189243004
 21
-865.0089113952924
 31
0.0
  0
LINE
  5
2D6
330
1F
100
AcDbEntity
  8
0-9
  6
JWW_HOJO
 62
     2
370
    13
100
AcDbLine
 10
394.5905219760583
 20
-865.0089113952924
 30
0.0
 11
394.5905219760583
 21
-866.6089060547159
 31
0.0
  0
LINE
  5
2D7
330
1F
100
AcDbEntity
  8
0-9
  6
JWW_HOJO
 62
     2
370
    13
100
AcDbLine
 10
402.9905101504966
 20
-865.0089113952924
 30
0.0
 11
402.9905101504966
 21
-866.6089060547159
 31
0.0
  0
LINE
  5
2D8
330
1F
100
AcDbEntity
  8
0-9
  6
Continuous
 62
     2
370
    13
100
AcDbLine
 10
391.0905160632774
 20
-863.008911395292
 30
0.0
 11
391.0905160632774
 21
-865.0089113952924
 31
0.0
  0
LINE
  5
2D9
330
1F
100
AcDbEntity
  8
0-9
  6
Continuous
 62
     2
370
    13
100
AcDbLine
 10
391.0905160632774
 20
-863.008911395292
 30
0.0
 11
406.4905160632775
 21
-863.008911395292
 31
0.0
  0
LINE
  5
2DA
330
1F
100
AcDbEntity
  8
0-9
  6
Continuous
 62
     2
370
    13
100
AcDbLine
 10
406.4905160632775
 20
-863.008911395292
 30
0.0
 11
406.4905160632775
 21
-865.0089113952924
 31
0.0
  0
LINE
  5
2DB
330
1F
100
AcDbEntity
  8
0-5
  6
Continuous
 62
     2
370
    13
100
AcDbLine
 10
404.7905189243004
 20
-856.3921573402689
 30
0.0
 11
406.2960750308678
 21
-857.2613833191201
 31
0.0
  0
LINE
  5
2DC
330
1F
100
AcDbEntity
  8
0-5
  6
Continuous
 62
     2
370
    13
100
AcDbLine
 10
392.7905379977868
 20
-856.3921573402689
 30
0.0
 11
392.7774574008629
 21
-856.3996885063455
 31
0.0
  0
LINE
  5
2DD
330
1F
100
AcDbEntity
  8
0-5
  6
Continuous
 62
     2
370
    13
100
AcDbLine
 10
392.7774574008629
 20
-856.3996885063455
 30
0.0
 11
391.2849814143822
 21
-857.2613833191201
 31
0.0
  0
LINE
  5
2DE
330
1F
100
AcDbEntity
  8
0-5
  6
Continuous
 62
     2
370
    13
100
AcDbLine
 10
404.54050557286
 20
-855.9591424705792
 30
0.0
 11
404.54050557286
 21
-851.4778254272744
 31
0.0
  0
LINE
  5
2DF
330
1F
100
AcDbEntity
  8
0-5
  6
Continuous
 62
     2
370
    13
100
AcDbLine
 10
393.0405265536949
 20
-851.4778254272744
 30
0.0
 11
393.0405265536949
 21
-855.9591424705792
 31
0.0
  0
LINE
  5
2E0
330
1F
100
AcDbEntity
  8
0-5
  6
Continuous
 62
     2
370
    13
100
AcDbLine
 10
395.0377611365959
 20
-857.2613833191201
 30
0.0
 11
395.0377611365959
 21
-862.2564515712071
 31
0.0
  0
LINE
  5
2E1
330
1F
100
AcDbEntity
  8
0-5
  6
Continuous
 62
     2
370
    13
100
AcDbLine
 10
404.99274460942
 20
-856.5089147331526
 30
0.0
 11
392.5882627216026
 21
-856.5089147331526
 31
0.0
  0
ARC
  5
2E2
330
1F
100
AcDbEntity
  8
0-5
  6
Continuous
 62
     2
370
    13
100
AcDbCircle
 10
398.7905160632774
 20
-866.2432658912945
 30
0.0
 40
9.734342575073242
100
AcDbArc
 50
67.32403564453125
 51
112.6759643554688
  0
ARC
  5
2E3
330
1F
100
AcDbEntity
  8
0-5
  6
Continuous
 62
     2
370
    13
100
AcDbCircle
 10
404.99274460942
 20
-860.8719630482005
 30
0.0
 40
4.363022327423096
100
AcDbArc
 50
89.99983215332031
 51
124.1534881591797
  0
ARC
  5
2E4
330
1F
100
AcDbEntity
  8
0-5
  6
Continuous
 62
     2
370
    13
100
AcDbCircle
 10
405.040532752578
 20
-855.9591424705792
 30
0.0
 40
0.5
100
AcDbArc
 50
180.0
 51
240.0003204345703
  0
ARC
  5
2E5
330
1F
100
AcDbEntity
  8
0-5
  6
Continuous
 62
     2
370
    13
100
AcDbCircle
 10
398.7905160632774
 20
-853.2745688202192
 30
0.0
 40
9.734342575073242
100
AcDbArc
 50
247.3240356445312
 51
292.6759643554688
  0
ARC
  5
2E6
330
1F
100
AcDbEntity
  8
0-5
  6
Continuous
 62
     2
370
    13
100
AcDbCircle
 10
404.99274460942
 20
-858.6458714248943
 30
0.0
 40
4.363022327423096
100
AcDbArc
 50
235.8465118408203
 51
270.0001678466797
  0
ARC
  5
2E7
330
1F
100
AcDbEntity
  8
0-5
  6
Continuous
 62
     2
370
    13
100
AcDbCircle
 10
392.588312312667
 20
-860.8719630482005
 30
0.0
 40
4.363022327423096
100
AcDbArc
 50
55.84651184082032
 51
90.0001678466797
  0
ARC
  5
2E8
330
1F
100
AcDbEntity
  8
0-5
  6
Continuous
 62
     2
370
    13
100
AcDbCircle
 10
392.588312312667
 20
-858.6458714248943
 30
0.0
 40
4.363022327423096
100
AcDbArc
 50
269.9998321533203
 51
304.1534881591797
  0
ARC
  5
2E9
330
1F
100
AcDbEntity
  8
0-5
  6
Continuous
 62
     2
370
    13
100
AcDbCircle
 10
392.5405241695091
 20
-855.9591424705792
 30
0.0
 40
0.5
100
AcDbArc
 50
299.9996795654297
 51
0.0000000000000127
  0
ARC
  5
2EA
330
1F
100
AcDbEntity
  8
0-5
  6
Continuous
 62
     2
370
    13
100
AcDbCircle
 10
398.7905160632774
 20
-854.5089304687787
 30
0.0
 40
6.499999046325684
100
AcDbArc
 50
27.79579162597656
 51
152.2042083740235
  0
LINE
  5
2EB
330
1F
100
AcDbEntity
  8
0-5
  6
Continuous
 62
     2
370
    13
100
AcDbLine
 10
392.588287517135
 20
-863.0089199783612
 30
0.0
 11
391.2849814143822
 21
-862.2564515712071
 31
0.0
  0
LINE
  5
2EC
330
1F
100
AcDbEntity
  8
0-5
  6
Continuous
 62
     2
370
    13
100
AcDbLine
 10
391.2849814143822
 20
-857.2613833191201
 30
0.0
 11
391.2849814143822
 21
-862.2564515712071
 31
0.0
  0
LINE
  5
2ED
330
1F
100
AcDbEntity
  8
0-5
  6
Continuous
 62
     2
370
    13
100
AcDbLine
 10
404.9927694049523
 20
-863.0089199783612
 30
0.0
 11
406.2960750308678
 21
-862.2564515712071
 31
0.0
  0
LINE
  5
2EE
330
1F
100
AcDbEntity
  8
0-5
  6
Continuous
 62
     2
370
    13
100
AcDbLine
 10
406.2960750308678
 20
-857.2613833191201
 30
0.0
 11
406.2960750308678
 21
-862.2564515712071
 31
0.0
  0
LINE
  5
2EF
330
1F
100
AcDbEntity
  8
0-5
  6
JWW_DASHED1
 62
     2
370
    13
100
AcDbLine
 10
395.0377392020868
 20
-858.289468074064
 30
0.0
 11
395.0377392020868
 21
-862.2564445262725
 31
0.0
  0
LINE
  5
2F0
330
1F
100
AcDbEntity
  8
0-5
  6
Continuous
 62
     2
370
    13
100
AcDbLine
 10
402.5432955470728
 20
-857.2613833191201
 30
0.0
 11
402.5432955470728
 21
-862.2564434305042
 31
0.0
  0
LINE
  5
2F1
330
1F
100
AcDbEntity
  8
0-9
  6
Continuous
 62
     2
370
    13
100
AcDbLine
 10
398.5408271655035
 20
-863.008911395292
 30
0.0
 11
398.0049287806412
 21
-865.0089113952924
 31
0.0
  0
LINE
  5
2F2
330
1F
100
AcDbEntity
  8
0-9
  6
Continuous
 62
     2
370
    13
100
AcDbLine
 10
399.5761033459137
 20
-863.008911395292
 30
0.0
 11
399.0402049610514
 21
-865.0089113952924
 31
0.0
  0
LINE
  5
2F3
330
1F
100
AcDbEntity
  8
0-9
  6
Continuous
 62
     2
370
    13
100
AcDbLine
 10
310.290413372069
 20
-865.0089113952924
 30
0.0
 11
310.290413372069
 21
-866.6089060547159
 31
0.0
  0
LINE
  5
2F4
330
1F
100
AcDbEntity
  8
0-9
  6
Continuous
 62
     2
370
    13
100
AcDbLine
 10
310.290413372069
 20
-866.6089060547159
 30
0.0
 11
327.2904190941148
 21
-866.6089060547159
 31
0.0
  0
LINE
  5
2F5
330
1F
100
AcDbEntity
  8
0-9
  6
Continuous
 62
     2
370
    13
100
AcDbLine
 10
327.2904190941148
 20
-865.0089113952924
 30
0.0
 11
327.2904190941148
 21
-866.6089060547159
 31
0.0
  0
LINE
  5
2F6
330
1F
100
AcDbEntity
  8
0-9
  6
Continuous
 62
     2
370
    13
100
AcDbLine
 10
310.290413372069
 20
-865.0089113952924
 30
0.0
 11
327.2904190941148
 21
-865.0089113952924
 31
0.0
  0
LINE
  5
2F7
330
1F
100
AcDbEntity
  8
0-9
  6
JWW_HOJO
 62
     2
370
    13
100
AcDbLine
 10
314.5904221458727
 20
-865.0089113952924
 30
0.0
 11
314.5904221458727
 21
-866.6089060547159
 31
0.0
  0
LINE
  5
2F8
330
1F
100
AcDbEntity
  8
0-9
  6
JWW_HOJO
 62
     2
370
    13
100
AcDbLine
 10
322.9904103203111
 20
-865.0089113952924
 30
0.0
 11
322.9904103203111
 21
-866.6089060547159
 31
0.0
  0
LINE
  5
2F9
330
1F
100
AcDbEntity
  8
0-9
  6
Continuous
 62
     2
370
    13
100
AcDbLine
 10
311.0904162330919
 20
-863.008911395292
 30
0.0
 11
311.0904162330919
 21
-865.0089113952924
 31
0.0
  0
LINE
  5
2FA
330
1F
100
AcDbEntity
  8
0-9
  6
Continuous
 62
     2
370
    13
100
AcDbLine
 10
311.0904162330919
 20
-863.008911395292
 30
0.0
 11
326.4904162330919
 21
-863.008911395292
 31
0.0
  0
LINE
  5
2FB
330
1F
100
AcDbEntity
  8
0-9
  6
Continuous
 62
     2
370
    13
100
AcDbLine
 10
326.4904162330919
 20
-863.008911395292
 30
0.0
 11
326.4904162330919
 21
-865.0089113952924
 31
0.0
  0
LINE
  5
2FC
330
1F
100
AcDbEntity
  8
0-5
  6
Continuous
 62
     2
370
    13
100
AcDbLine
 10
324.7904190941148
 20
-856.3921573402689
 30
0.0
 11
326.2959752006822
 21
-857.2613833191201
 31
0.0
  0
LINE
  5
2FD
330
1F
100
AcDbEntity
  8
0-5
  6
Continuous
 62
     2
370
    13
100
AcDbLine
 10
312.7904381676012
 20
-856.3921573402689
 30
0.0
 11
312.7773575706774
 21
-856.3996885063455
 31
0.0
  0
LINE
  5
2FE
330
1F
100
AcDbEntity
  8
0-5
  6
Continuous
 62
     2
370
    13
100
AcDbLine
 10
312.7773575706774
 20
-856.3996885063455
 30
0.0
 11
311.2848815841966
 21
-857.2613833191201
 31
0.0
  0
LINE
  5
2FF
330
1F
100
AcDbEntity
  8
0-5
  6
Continuous
 62
     2
370
    13
100
AcDbLine
 10
324.5404057426745
 20
-855.9591424705792
 30
0.0
 11
324.5404057426745
 21
-851.4778254272744
 31
0.0
  0
LINE
  5
300
330
1F
100
AcDbEntity
  8
0-5
  6
Continuous
 62
     2
370
    13
100
AcDbLine
 10
313.0404267235094
 20
-851.4778254272744
 30
0.0
 11
313.0404267235094
 21
-855.9591424705792
 31
0.0
  0
LINE
  5
301
330
1F
100
AcDbEntity
  8
0-5
  6
Continuous
 62
     2
370
    13
100
AcDbLine
 10
315.0376613064105
 20
-857.2613833191201
 30
0.0
 11
315.0376613064105
 21
-862.2564515712071
 31
0.0
  0
LINE
  5
302
330
1F
100
AcDbEntity
  8
0-5
  6
Continuous
 62
     2
370
    13
100
AcDbLine
 10
324.9926447792345
 20
-856.5089147331526
 30
0.0
 11
312.5881628914171
 21
-856.5089147331526
 31
0.0
  0
ARC
  5
303
330
1F
100
AcDbEntity
  8
0-5
  6
Continuous
 62
     2
370
    13
100
AcDbCircle
 10
318.790416233092
 20
-866.2432658912945
 30
0.0
 40
9.734342575073242
100
AcDbArc
 50
67.32403564453125
 51
112.6759643554688
  0
ARC
  5
304
330
1F
100
AcDbEntity
  8
0-5
  6
Continuous
 62
     2
370
    13
100
AcDbCircle
 10
324.9926447792345
 20
-860.8719630482005
 30
0.0
 40
4.363022327423096
100
AcDbArc
 50
89.99983215332031
 51
124.1534881591797
  0
ARC
  5
305
330
1F
100
AcDbEntity
  8
0-5
  6
Continuous
 62
     2
370
    13
100
AcDbCircle
 10
325.0404329223925
 20
-855.9591424705792
 30
0.0
 40
0.5
100
AcDbArc
 50
180.0
 51
240.0003204345703
  0
ARC
  5
306
330
1F
100
AcDbEntity
  8
0-5
  6
Continuous
 62
     2
370
    13
100
AcDbCircle
 10
318.790416233092
 20
-853.2745688202192
 30
0.0
 40
9.734342575073242
100
AcDbArc
 50
247.3240356445312
 51
292.6759643554688
  0
ARC
  5
307
330
1F
100
AcDbEntity
  8
0-5
  6
Continuous
 62
     2
370
    13
100
AcDbCircle
 10
324.9926447792345
 20
-858.6458714248943
 30
0.0
 40
4.363022327423096
100
AcDbArc
 50
235.8465118408203
 51
270.0001678466797
  0
ARC
  5
308
330
1F
100
AcDbEntity
  8
0-5
  6
Continuous
 62
     2
370
    13
100
AcDbCircle
 10
312.5882124824815
 20
-860.8719630482005
 30
0.0
 40
4.363022327423096
100
AcDbArc
 50
55.84651184082032
 51
90.0001678466797
  0
ARC
  5
309
330
1F
100
AcDbEntity
  8
0-5
  6
Continuous
 62
     2
370
    13
100
AcDbCircle
 10
312.5882124824815
 20
-858.6458714248943
 30
0.0
 40
4.363022327423096
100
AcDbArc
 50
269.9998321533203
 51
304.1534881591797
  0
ARC
  5
30A
330
1F
100
AcDbEntity
  8
0-5
  6
Continuous
 62
     2
370
    13
100
AcDbCircle
 10
312.5404243393236
 20
-855.9591424705792
 30
0.0
 40
0.5
100
AcDbArc
 50
299.9996795654297
 51
0.0000000000000127
  0
ARC
  5
30B
330
1F
100
AcDbEntity
  8
0-5
  6
Continuous
 62
     2
370
    13
100
AcDbCircle
 10
318.790416233092
 20
-854.5089304687787
 30
0.0
 40
6.499999046325684
100
AcDbArc
 50
27.79579162597656
 51
152.2042083740235
  0
LINE
  5
30C
330
1F
100
AcDbEntity
  8
0-5
  6
Continuous
 62
     2
370
    13
100
AcDbLine
 10
312.5881876869494
 20
-863.0089199783612
 30
0.0
 11
311.2848815841966
 21
-862.2564515712071
 31
0.0
  0
LINE
  5
30D
330
1F
100
AcDbEntity
  8
0-5
  6
Continuous
 62
     2
370
    13
100
AcDbLine
 10
311.2848815841966
 20
-857.2613833191201
 30
0.0
 11
311.2848815841966
 21
-862.2564515712071
 31
0.0
  0
LINE
  5
30E
330
1F
100
AcDbEntity
  8
0-5
  6
Continuous
 62
     2
370
    13
100
AcDbLine
 10
324.9926695747667
 20
-863.0089199783612
 30
0.0
 11
326.2959752006822
 21
-862.2564515712071
 31
0.0
  0
LINE
  5
30F
330
1F
100
AcDbEntity
  8
0-5
  6
Continuous
 62
     2
370
    13
100
AcDbLine
 10
326.2959752006822
 20
-857.2613833191201
 30
0.0
 11
326.2959752006822
 21
-862.2564515712071
 31
0.0
  0
LINE
  5
310
330
1F
100
AcDbEntity
  8
0-5
  6
JWW_DASHED1
 62
     2
370
    13
100
AcDbLine
 10
315.0376393719012
 20
-858.289468074064
 30
0.0
 11
315.0376393719012
 21
-862.2564445262725
 31
0.0
  0
LINE
  5
311
330
1F
100
AcDbEntity
  8
0-5
  6
Continuous
 62
     2
370
    13
100
AcDbLine
 10
322.5431957168871
 20
-857.2613833191201
 30
0.0
 11
322.5431957168871
 21
-862.2564434305042
 31
0.0
  0
LINE
  5
312
330
1F
100
AcDbEntity
  8
0-9
  6
Continuous
 62
     2
370
    13
100
AcDbLine
 10
318.540727335318
 20
-863.008911395292
 30
0.0
 11
318.0048289504557
 21
-865.0089113952924
 31
0.0
  0
LINE
  5
313
330
1F
100
AcDbEntity
  8
0-9
  6
Continuous
 62
     2
370
    13
100
AcDbLine
 10
319.5760035157281
 20
-863.008911395292
 30
0.0
 11
319.0401051308658
 21
-865.0089113952924
 31
0.0
  0
TEXT
  5
314
330
1F
100
AcDbEntity
  8
0-5
  6
Continuous
 62
     7
370
    13
100
AcDbText
 10
531.4734043473374
 20
-762.8125883829142
 30
0.0
 40
22.86
  1
六角袋ナット：Ｍ８，ばね座金，平座金
 41
1.157407407407407
  7
ＭＳ ゴシック
100
AcDbText
  0
LINE
  5
315
330
1F
100
AcDbEntity
  8
0-5
  6
Continuous
 62
     7
370
    13
100
AcDbLine
 10
507.4017668634747
 20
-774.2378409941989
 30
0.0
 11
1168.24262276693
 21
-774.2378409941989
 31
0.0
  0
TEXT
  5
316
330
1F
100
AcDbEntity
  8
0-5
  6
Continuous
 62
     7
370
    13
100
AcDbText
 10
735.3221948152022
 20
-813.3205270451606
 30
0.0
 40
22.86
  1
ＳＵＳ３０４
 41
1.138888888888889
  7
ＭＳ ゴシック
100
AcDbText
  0
LINE
  5
317
330
1F
100
AcDbEntity
  8
0-5
  6
Continuous
 62
     2
370
    13
100
AcDbLine
 10
-346.6092396576489
 20
-898.0545387094435
 30
0.0
 11
-345.8092557530204
 21
-898.0545387094435
 31
0.0
  0
LINE
  5
318
330
1F
100
AcDbEntity
  8
0-5
  6
Continuous
 62
     2
370
    13
100
AcDbLine
 10
-346.6092396576489
 20
-898.0545387094435
 30
0.0
 11
-347.6552238153733
 21
-910.0088132441624
 31
0.0
  0
LINE
  5
319
330
1F
100
AcDbEntity
  8
0-5
  6
Continuous
 62
     2
370
    13
100
AcDbLine
 10
-351.2414764476617
 20
-909.695144341386
 30
0.0
 11
-347.6552238153733
 21
-910.0088132441624
 31
0.0
  0
LINE
  5
31A
330
1F
100
AcDbEntity
  8
0-5
  6
Continuous
 62
     2
370
    13
100
AcDbLine
 10
-347.4810169896162
 20
-908.0164341550426
 30
0.0
 11
-351.0672696219046
 21
-907.7027280921072
 31
0.0
  0
LINE
  5
31B
330
1F
100
AcDbEntity
  8
0-5
  6
Continuous
 62
     2
370
    13
100
AcDbLine
 10
-347.3065128825864
 20
-906.0240550659228
 30
0.0
 11
-350.8927655148749
 21
-905.7103490029874
 31
0.0
  0
LINE
  5
31C
330
1F
100
AcDbEntity
  8
0-5
  6
Continuous
 62
     2
370
    13
100
AcDbLine
 10
-347.132157416193
 20
-904.0317131369625
 30
0.0
 11
-350.7185586891177
 21
-903.7179699138676
 31
0.0
  0
LINE
  5
31D
330
1F
100
AcDbEntity
  8
0-5
  6
Continuous
 62
     2
370
    13
100
AcDbLine
 10
-346.9579505904359
 20
-902.0392597275242
 30
0.0
 11
-350.5442032227244
 21
-901.7255908247478
 31
0.0
  0
LINE
  5
31E
330
1F
100
AcDbEntity
  8
0-5
  6
Continuous
 62
     2
370
    13
100
AcDbLine
 10
-346.7835951240424
 20
-900.0468806384043
 30
0.0
 11
-350.3698477563308
 21
-899.733174575469
 31
0.0
  0
LINE
  5
31F
330
1F
100
AcDbEntity
  8
0-5
  6
Continuous
 62
     2
370
    13
100
AcDbLine
 10
-350.6687640759533
 20
-907.7376214814814
 30
0.0
 11
-350.8927655148749
 21
-905.7103490029874
 31
0.0
  0
LINE
  5
320
330
1F
100
AcDbEntity
  8
0-5
  6
Continuous
 62
     2
370
    13
100
AcDbLine
 10
-350.49440860956
 20
-905.7452795525205
 30
0.0
 11
-350.7185586891177
 21
-903.7179699138676
 31
0.0
  0
LINE
  5
321
330
1F
100
AcDbEntity
  8
0-5
  6
Continuous
 62
     2
370
    13
100
AcDbLine
 10
-350.3200531431663
 20
-903.7528261430828
 30
0.0
 11
-350.5442032227244
 21
-901.7255908247478
 31
0.0
  0
LINE
  5
322
330
1F
100
AcDbEntity
  8
0-5
  6
Continuous
 62
     2
370
    13
100
AcDbLine
 10
-350.1456976767731
 20
-901.7604470539629
 30
0.0
 11
-350.3698477563308
 21
-899.733174575469
 31
0.0
  0
LINE
  5
323
330
1F
100
AcDbEntity
  8
0-5
  6
Continuous
 62
     2
370
    13
100
AcDbLine
 10
-351.0672696219046
 20
-907.7027280921072
 30
0.0
 11
-351.2414764476617
 21
-909.695144341386
 31
0.0
  0
LINE
  5
324
330
1F
100
AcDbEntity
  8
0-5
  6
Continuous
 62
     2
370
    13
100
AcDbLine
 10
-345.8092557530204
 20
-898.0545387094435
 30
0.0
 11
-344.7634202359324
 21
-910.0088132441624
 31
0.0
  0
LINE
  5
325
330
1F
100
AcDbEntity
  8
0-5
  6
Continuous
 62
     2
370
    13
100
AcDbLine
 10
-341.1770189630078
 20
-909.695144341386
 30
0.0
 11
-344.7634202359324
 21
-910.0088132441624
 31
0.0
  0
LINE
  5
326
330
1F
100
AcDbEntity
  8
0-5
  6
Continuous
 62
     2
370
    13
100
AcDbLine
 10
-344.9377757023258
 20
-908.0164341550426
 30
0.0
 11
-341.3515230700374
 21
-907.7027280921072
 31
0.0
  0
LINE
  5
327
330
1F
100
AcDbEntity
  8
0-5
  6
Continuous
 62
     2
370
    13
100
AcDbLine
 10
-345.1121311687193
 20
-906.0240550659228
 30
0.0
 11
-341.5257298957945
 21
-905.7103490029874
 31
0.0
  0
LINE
  5
328
330
1F
100
AcDbEntity
  8
0-5
  6
Continuous
 62
     2
370
    13
100
AcDbLine
 10
-345.2863379944763
 20
-904.0317131369625
 30
0.0
 11
-341.7000853621879
 21
-903.7179699138676
 31
0.0
  0
LINE
  5
329
330
1F
100
AcDbEntity
  8
0-5
  6
Continuous
 62
     2
370
    13
100
AcDbLine
 10
-345.4606934608698
 20
-902.0392597275242
 30
0.0
 11
-341.8744408285813
 21
-901.7255908247478
 31
0.0
  0
LINE
  5
32A
330
1F
100
AcDbEntity
  8
0-5
  6
Continuous
 62
     2
370
    13
100
AcDbLine
 10
-345.6350489272633
 20
-900.0468806384043
 30
0.0
 11
-342.0486476543384
 21
-899.733174575469
 31
0.0
  0
LINE
  5
32B
330
1F
100
AcDbEntity
  8
0-5
  6
Continuous
 62
     2
370
    13
100
AcDbLine
 10
-341.7498799753523
 20
-907.7376214814814
 30
0.0
 11
-341.5257298957945
 21
-905.7103490029874
 31
0.0
  0
LINE
  5
32C
330
1F
100
AcDbEntity
  8
0-5
  6
Continuous
 62
     2
370
    13
100
AcDbLine
 10
-341.9242354417459
 20
-905.7452795525205
 30
0.0
 11
-341.7000853621879
 21
-903.7179699138676
 31
0.0
  0
LINE
  5
32D
330
1F
100
AcDbEntity
  8
0-5
  6
Continuous
 62
     2
370
    13
100
AcDbLine
 10
-342.098590908139
 20
-903.7528261430828
 30
0.0
 11
-341.8744408285813
 21
-901.7255908247478
 31
0.0
  0
LINE
  5
32E
330
1F
100
AcDbEntity
  8
0-5
  6
Continuous
 62
     2
370
    13
100
AcDbLine
 10
-342.2727977338961
 20
-901.7604470539629
 30
0.0
 11
-342.0486476543384
 21
-899.733174575469
 31
0.0
  0
LINE
  5
32F
330
1F
100
AcDbEntity
  8
0-5
  6
Continuous
 62
     2
370
    13
100
AcDbLine
 10
-341.3515230700374
 20
-907.7027280921072
 30
0.0
 11
-341.1770189630078
 21
-909.695144341386
 31
0.0
  0
LINE
  5
330
330
1F
100
AcDbEntity
  8
0-5
  6
Continuous
 62
     2
370
    13
100
AcDbLine
 10
-350.2093158691143
 20
-871.6089540992817
 30
0.0
 11
-350.2093158691143
 21
-896.2719287183188
 31
0.0
  0
LINE
  5
331
330
1F
100
AcDbEntity
  8
0-5
  6
Continuous
 62
     2
370
    13
100
AcDbLine
 10
-342.2093281821911
 20
-871.6089540992817
 30
0.0
 11
-342.2093281821911
 21
-896.2719287183188
 31
0.0
  0
ARC
  5
332
330
1F
100
AcDbEntity
  8
0-5
  6
Continuous
 62
     2
370
    13
100
AcDbCircle
 10
-372.3931876354295
 20
-896.9768197758668
 30
0.0
 40
22.1950267815682
100
AcDbArc
 50
352.8659820556641
 51
1.819824218750048
  0
ARC
  5
333
330
1F
100
AcDbEntity
  8
0-5
  6
Continuous
 62
     2
370
    13
100
AcDbCircle
 10
-320.0254564158762
 20
-896.9768197758668
 30
0.0
 40
22.1950267815682
100
AcDbArc
 50
178.18017578125
 51
187.1340179443359
  0
LINE
  5
334
330
1F
100
AcDbEntity
  8
0-5
  6
Continuous
 62
     2
370
    13
100
AcDbLine
 10
-426.6093394878345
 20
-898.0545387094435
 30
0.0
 11
-425.8093555832057
 21
-898.0545387094435
 31
0.0
  0
LINE
  5
335
330
1F
100
AcDbEntity
  8
0-5
  6
Continuous
 62
     2
370
    13
100
AcDbLine
 10
-426.6093394878345
 20
-898.0545387094435
 30
0.0
 11
-427.6553236455588
 21
-910.0088132441624
 31
0.0
  0
LINE
  5
336
330
1F
100
AcDbEntity
  8
0-5
  6
Continuous
 62
     2
370
    13
100
AcDbLine
 10
-431.2415762778472
 20
-909.695144341386
 30
0.0
 11
-427.6553236455588
 21
-910.0088132441624
 31
0.0
  0
LINE
  5
337
330
1F
100
AcDbEntity
  8
0-5
  6
Continuous
 62
     2
370
    13
100
AcDbLine
 10
-427.4811168198017
 20
-908.0164341550426
 30
0.0
 11
-431.0673694520901
 21
-907.7027280921072
 31
0.0
  0
LINE
  5
338
330
1F
100
AcDbEntity
  8
0-5
  6
Continuous
 62
     2
370
    13
100
AcDbLine
 10
-427.3066127127719
 20
-906.0240550659228
 30
0.0
 11
-430.8928653450603
 21
-905.7103490029874
 31
0.0
  0
LINE
  5
339
330
1F
100
AcDbEntity
  8
0-5
  6
Continuous
 62
     2
370
    13
100
AcDbLine
 10
-427.1322572463785
 20
-904.0317131369625
 30
0.0
 11
-430.7186585193033
 21
-903.7179699138676
 31
0.0
  0
LINE
  5
33A
330
1F
100
AcDbEntity
  8
0-5
  6
Continuous
 62
     2
370
    13
100
AcDbLine
 10
-426.9580504206214
 20
-902.0392597275242
 30
0.0
 11
-430.5443030529098
 21
-901.7255908247478
 31
0.0
  0
LINE
  5
33B
330
1F
100
AcDbEntity
  8
0-5
  6
Continuous
 62
     2
370
    13
100
AcDbLine
 10
-426.7836949542278
 20
-900.0468806384043
 30
0.0
 11
-430.3699475865163
 21
-899.733174575469
 31
0.0
  0
LINE
  5
33C
330
1F
100
AcDbEntity
  8
0-5
  6
Continuous
 62
     2
370
    13
100
AcDbLine
 10
-430.6688639061388
 20
-907.7376214814814
 30
0.0
 11
-430.8928653450603
 21
-905.7103490029874
 31
0.0
  0
LINE
  5
33D
330
1F
100
AcDbEntity
  8
0-5
  6
Continuous
 62
     2
370
    13
100
AcDbLine
 10
-430.4945084397456
 20
-905.7452795525205
 30
0.0
 11
-430.7186585193033
 21
-903.7179699138676
 31
0.0
  0
LINE
  5
33E
330
1F
100
AcDbEntity
  8
0-5
  6
Continuous
 62
     2
370
    13
100
AcDbLine
 10
-430.3201529733519
 20
-903.7528261430828
 30
0.0
 11
-430.5443030529098
 21
-901.7255908247478
 31
0.0
  0
LINE
  5
33F
330
1F
100
AcDbEntity
  8
0-5
  6
Continuous
 62
     2
370
    13
100
AcDbLine
 10
-430.1457975069586
 20
-901.7604470539629
 30
0.0
 11
-430.3699475865163
 21
-899.733174575469
 31
0.0
  0
LINE
  5
340
330
1F
100
AcDbEntity
  8
0-5
  6
Continuous
 62
     2
370
    13
100
AcDbLine
 10
-431.0673694520901
 20
-907.7027280921072
 30
0.0
 11
-431.2415762778472
 21
-909.695144341386
 31
0.0
  0
LINE
  5
341
330
1F
100
AcDbEntity
  8
0-5
  6
Continuous
 62
     2
370
    13
100
AcDbLine
 10
-425.8093555832057
 20
-898.0545387094435
 30
0.0
 11
-424.7635200661181
 21
-910.0088132441624
 31
0.0
  0
LINE
  5
342
330
1F
100
AcDbEntity
  8
0-5
  6
Continuous
 62
     2
370
    13
100
AcDbLine
 10
-421.1771187931931
 20
-909.695144341386
 30
0.0
 11
-424.7635200661181
 21
-910.0088132441624
 31
0.0
  0
LINE
  5
343
330
1F
100
AcDbEntity
  8
0-5
  6
Continuous
 62
     2
370
    13
100
AcDbLine
 10
-424.9378755325113
 20
-908.0164341550426
 30
0.0
 11
-421.3516229002229
 21
-907.7027280921072
 31
0.0
  0
LINE
  5
344
330
1F
100
AcDbEntity
  8
0-5
  6
Continuous
 62
     2
370
    13
100
AcDbLine
 10
-425.1122309989047
 20
-906.0240550659228
 30
0.0
 11
-421.5258297259801
 21
-905.7103490029874
 31
0.0
  0
LINE
  5
345
330
1F
100
AcDbEntity
  8
0-5
  6
Continuous
 62
     2
370
    13
100
AcDbLine
 10
-425.2864378246618
 20
-904.0317131369625
 30
0.0
 11
-421.7001851923733
 21
-903.7179699138676
 31
0.0
  0
LINE
  5
346
330
1F
100
AcDbEntity
  8
0-5
  6
Continuous
 62
     2
370
    13
100
AcDbLine
 10
-425.4607932910552
 20
-902.0392597275242
 30
0.0
 11
-421.8745406587669
 21
-901.7255908247478
 31
0.0
  0
LINE
  5
347
330
1F
100
AcDbEntity
  8
0-5
  6
Continuous
 62
     2
370
    13
100
AcDbLine
 10
-425.6351487574487
 20
-900.0468806384043
 30
0.0
 11
-422.0487474845241
 21
-899.733174575469
 31
0.0
  0
LINE
  5
348
330
1F
100
AcDbEntity
  8
0-5
  6
Continuous
 62
     2
370
    13
100
AcDbLine
 10
-421.7499798055378
 20
-907.7376214814814
 30
0.0
 11
-421.5258297259801
 21
-905.7103490029874
 31
0.0
  0
LINE
  5
349
330
1F
100
AcDbEntity
  8
0-5
  6
Continuous
 62
     2
370
    13
100
AcDbLine
 10
-421.9243352719313
 20
-905.7452795525205
 30
0.0
 11
-421.7001851923733
 21
-903.7179699138676
 31
0.0
  0
LINE
  5
34A
330
1F
100
AcDbEntity
  8
0-5
  6
Continuous
 62
     2
370
    13
100
AcDbLine
 10
-422.0986907383246
 20
-903.7528261430828
 30
0.0
 11
-421.8745406587669
 21
-901.7255908247478
 31
0.0
  0
LINE
  5
34B
330
1F
100
AcDbEntity
  8
0-5
  6
Continuous
 62
     2
370
    13
100
AcDbLine
 10
-422.2728975640819
 20
-901.7604470539629
 30
0.0
 11
-422.0487474845241
 21
-899.733174575469
 31
0.0
  0
LINE
  5
34C
330
1F
100
AcDbEntity
  8
0-5
  6
Continuous
 62
     2
370
    13
100
AcDbLine
 10
-421.3516229002229
 20
-907.7027280921072
 30
0.0
 11
-421.1771187931931
 21
-909.695144341386
 31
0.0
  0
LINE
  5
34D
330
1F
100
AcDbEntity
  8
0-5
  6
Continuous
 62
     2
370
    13
100
AcDbLine
 10
-430.2094156992997
 20
-871.6089540992817
 30
0.0
 11
-430.2094156992997
 21
-896.2719287183188
 31
0.0
  0
LINE
  5
34E
330
1F
100
AcDbEntity
  8
0-5
  6
Continuous
 62
     2
370
    13
100
AcDbLine
 10
-422.2094280123769
 20
-871.6089540992817
 30
0.0
 11
-422.2094280123769
 21
-896.2719287183188
 31
0.0
  0
ARC
  5
34F
330
1F
100
AcDbEntity
  8
0-5
  6
Continuous
 62
     2
370
    13
100
AcDbCircle
 10
-452.393287465615
 20
-896.9768197758668
 30
0.0
 40
22.1950267815682
100
AcDbArc
 50
352.8659820556641
 51
1.819824218750048
  0
ARC
  5
350
330
1F
100
AcDbEntity
  8
0-5
  6
Continuous
 62
     2
370
    13
100
AcDbCircle
 10
-400.0255562460619
 20
-896.9768197758668
 30
0.0
 40
22.1950267815682
100
AcDbArc
 50
178.18017578125
 51
187.1340179443359
  0
LINE
  5
351
330
1F
100
AcDbEntity
  8
0-0
  6
JWW_CENTER1
 62
     4
370
    13
100
AcDbLine
 10
-346.2092477053347
 20
-845.6850981225733
 30
0.0
 11
-346.2092477053347
 21
-912.2531010516713
 31
0.0
  0
LINE
  5
352
330
1F
100
AcDbEntity
  8
0-0
  6
JWW_CENTER1
 62
     4
370
    13
100
AcDbLine
 10
-426.2093475355202
 20
-845.6850981225733
 30
0.0
 11
-426.2093475355202
 21
-912.2531010516713
 31
0.0
  0
LINE
  5
353
330
1F
100
AcDbEntity
  8
0-5
  6
JWW_DASHED1
 62
     2
370
    13
100
AcDbLine
 10
-342.2093281821911
 20
-866.6089060547159
 30
0.0
 11
-342.2093281821911
 21
-871.6089540992817
 31
0.0
  0
LINE
  5
354
330
1F
100
AcDbEntity
  8
0-5
  6
JWW_DASHED1
 62
     2
370
    13
100
AcDbLine
 10
-350.2093158691143
 20
-866.6089060547159
 30
0.0
 11
-350.2093158691143
 21
-871.6089540992817
 31
0.0
  0
LINE
  5
355
330
1F
100
AcDbEntity
  8
0-5
  6
JWW_DASHED1
 62
     2
370
    13
100
AcDbLine
 10
-422.2094280123769
 20
-866.6089060547159
 30
0.0
 11
-422.2094280123769
 21
-871.6089540992817
 31
0.0
  0
LINE
  5
356
330
1F
100
AcDbEntity
  8
0-5
  6
JWW_DASHED1
 62
     2
370
    13
100
AcDbLine
 10
-430.2094156992997
 20
-866.6089060547159
 30
0.0
 11
-430.2094156992997
 21
-871.6089540992817
 31
0.0
  0
LINE
  5
357
330
1F
100
AcDbEntity
  8
0-9
  6
Continuous
 62
     2
370
    13
100
AcDbLine
 10
-354.7092505663578
 20
-865.0089113952924
 30
0.0
 11
-354.7092505663578
 21
-866.6089060547159
 31
0.0
  0
LINE
  5
358
330
1F
100
AcDbEntity
  8
0-9
  6
Continuous
 62
     2
370
    13
100
AcDbLine
 10
-354.7092505663578
 20
-866.6089060547159
 30
0.0
 11
-337.7092448443118
 21
-866.6089060547159
 31
0.0
  0
LINE
  5
359
330
1F
100
AcDbEntity
  8
0-9
  6
Continuous
 62
     2
370
    13
100
AcDbLine
 10
-337.7092448443118
 20
-865.0089113952924
 30
0.0
 11
-337.7092448443118
 21
-866.6089060547159
 31
0.0
  0
LINE
  5
35A
330
1F
100
AcDbEntity
  8
0-9
  6
Continuous
 62
     2
370
    13
100
AcDbLine
 10
-354.7092505663578
 20
-865.0089113952924
 30
0.0
 11
-337.7092448443118
 21
-865.0089113952924
 31
0.0
  0
LINE
  5
35B
330
1F
100
AcDbEntity
  8
0-9
  6
JWW_HOJO
 62
     2
370
    13
100
AcDbLine
 10
-350.409241792554
 20
-865.0089113952924
 30
0.0
 11
-350.409241792554
 21
-866.6089060547159
 31
0.0
  0
LINE
  5
35C
330
1F
100
AcDbEntity
  8
0-9
  6
JWW_HOJO
 62
     2
370
    13
100
AcDbLine
 10
-342.0092536181156
 20
-865.0089113952924
 30
0.0
 11
-342.0092536181156
 21
-866.6089060547159
 31
0.0
  0
LINE
  5
35D
330
1F
100
AcDbEntity
  8
0-9
  6
Continuous
 62
     2
370
    13
100
AcDbLine
 10
-353.9092477053349
 20
-863.008911395292
 30
0.0
 11
-353.9092477053349
 21
-865.0089113952924
 31
0.0
  0
LINE
  5
35E
330
1F
100
AcDbEntity
  8
0-9
  6
Continuous
 62
     2
370
    13
100
AcDbLine
 10
-353.9092477053349
 20
-863.008911395292
 30
0.0
 11
-338.5092477053347
 21
-863.008911395292
 31
0.0
  0
LINE
  5
35F
330
1F
100
AcDbEntity
  8
0-9
  6
Continuous
 62
     2
370
    13
100
AcDbLine
 10
-338.5092477053347
 20
-863.008911395292
 30
0.0
 11
-338.5092477053347
 21
-865.0089113952924
 31
0.0
  0
LINE
  5
360
330
1F
100
AcDbEntity
  8
0-5
  6
Continuous
 62
     2
370
    13
100
AcDbLine
 10
-340.2092448443118
 20
-856.3921573402689
 30
0.0
 11
-338.7036887377444
 21
-857.2613833191201
 31
0.0
  0
LINE
  5
361
330
1F
100
AcDbEntity
  8
0-5
  6
Continuous
 62
     2
370
    13
100
AcDbLine
 10
-352.2092257708255
 20
-856.3921573402689
 30
0.0
 11
-352.2223063677494
 21
-856.3996885063455
 31
0.0
  0
LINE
  5
362
330
1F
100
AcDbEntity
  8
0-5
  6
Continuous
 62
     2
370
    13
100
AcDbLine
 10
-352.2223063677494
 20
-856.3996885063455
 30
0.0
 11
-353.7147823542301
 21
-857.2613833191201
 31
0.0
  0
LINE
  5
363
330
1F
100
AcDbEntity
  8
0-5
  6
Continuous
 62
     2
370
    13
100
AcDbLine
 10
-340.4592581957523
 20
-855.9591424705792
 30
0.0
 11
-340.4592581957523
 21
-851.4778254272744
 31
0.0
  0
LINE
  5
364
330
1F
100
AcDbEntity
  8
0-5
  6
Continuous
 62
     2
370
    13
100
AcDbLine
 10
-351.9592372149174
 20
-851.4778254272744
 30
0.0
 11
-351.9592372149174
 21
-855.9591424705792
 31
0.0
  0
LINE
  5
365
330
1F
100
AcDbEntity
  8
0-5
  6
Continuous
 62
     2
370
    13
100
AcDbLine
 10
-349.9620026320163
 20
-857.2613833191201
 30
0.0
 11
-349.9620026320163
 21
-862.2564515712071
 31
0.0
  0
LINE
  5
366
330
1F
100
AcDbEntity
  8
0-5
  6
Continuous
 62
     2
370
    13
100
AcDbLine
 10
-340.0070191591922
 20
-856.5089147331526
 30
0.0
 11
-352.4115010470097
 21
-856.5089147331526
 31
0.0
  0
ARC
  5
367
330
1F
100
AcDbEntity
  8
0-5
  6
Continuous
 62
     2
370
    13
100
AcDbCircle
 10
-346.2092477053347
 20
-866.2432658912945
 30
0.0
 40
9.734342575073242
100
AcDbArc
 50
67.32403564453125
 51
112.6759643554688
  0
ARC
  5
368
330
1F
100
AcDbEntity
  8
0-5
  6
Continuous
 62
     2
370
    13
100
AcDbCircle
 10
-340.0070191591922
 20
-860.8719630482005
 30
0.0
 40
4.363022327423096
100
AcDbArc
 50
89.99983215332031
 51
124.1534881591797
  0
ARC
  5
369
330
1F
100
AcDbEntity
  8
0-5
  6
Continuous
 62
     2
370
    13
100
AcDbCircle
 10
-339.9592310160342
 20
-855.9591424705792
 30
0.0
 40
0.5
100
AcDbArc
 50
180.0
 51
240.0003204345703
  0
ARC
  5
36A
330
1F
100
AcDbEntity
  8
0-5
  6
Continuous
 62
     2
370
    13
100
AcDbCircle
 10
-346.2092477053347
 20
-853.2745688202192
 30
0.0
 40
9.734342575073242
100
AcDbArc
 50
247.3240356445312
 51
292.6759643554688
  0
ARC
  5
36B
330
1F
100
AcDbEntity
  8
0-5
  6
Continuous
 62
     2
370
    13
100
AcDbCircle
 10
-340.0070191591922
 20
-858.6458714248943
 30
0.0
 40
4.363022327423096
100
AcDbArc
 50
235.8465118408203
 51
270.0001678466797
  0
ARC
  5
36C
330
1F
100
AcDbEntity
  8
0-5
  6
Continuous
 62
     2
370
    13
100
AcDbCircle
 10
-352.4114514559452
 20
-860.8719630482005
 30
0.0
 40
4.363022327423096
100
AcDbArc
 50
55.84651184082032
 51
90.0001678466797
  0
ARC
  5
36D
330
1F
100
AcDbEntity
  8
0-5
  6
Continuous
 62
     2
370
    13
100
AcDbCircle
 10
-352.4114514559452
 20
-858.6458714248943
 30
0.0
 40
4.363022327423096
100
AcDbArc
 50
269.9998321533203
 51
304.1534881591797
  0
ARC
  5
36E
330
1F
100
AcDbEntity
  8
0-5
  6
Continuous
 62
     2
370
    13
100
AcDbCircle
 10
-352.4592395991032
 20
-855.9591424705792
 30
0.0
 40
0.5
100
AcDbArc
 50
299.9996795654297
 51
0.0000000000000127
  0
ARC
  5
36F
330
1F
100
AcDbEntity
  8
0-5
  6
Continuous
 62
     2
370
    13
100
AcDbCircle
 10
-346.2092477053347
 20
-854.5089304687787
 30
0.0
 40
6.499999046325684
100
AcDbArc
 50
27.79579162597656
 51
152.2042083740235
  0
LINE
  5
370
330
1F
100
AcDbEntity
  8
0-5
  6
Continuous
 62
     2
370
    13
100
AcDbLine
 10
-352.4114762514773
 20
-863.0089199783612
 30
0.0
 11
-353.7147823542301
 21
-862.2564515712071
 31
0.0
  0
LINE
  5
371
330
1F
100
AcDbEntity
  8
0-5
  6
Continuous
 62
     2
370
    13
100
AcDbLine
 10
-353.7147823542301
 20
-857.2613833191201
 30
0.0
 11
-353.7147823542301
 21
-862.2564515712071
 31
0.0
  0
LINE
  5
372
330
1F
100
AcDbEntity
  8
0-5
  6
Continuous
 62
     2
370
    13
100
AcDbLine
 10
-340.0069943636599
 20
-863.0089199783612
 30
0.0
 11
-338.7036887377444
 21
-862.2564515712071
 31
0.0
  0
LINE
  5
373
330
1F
100
AcDbEntity
  8
0-5
  6
Continuous
 62
     2
370
    13
100
AcDbLine
 10
-338.7036887377444
 20
-857.2613833191201
 30
0.0
 11
-338.7036887377444
 21
-862.2564515712071
 31
0.0
  0
LINE
  5
374
330
1F
100
AcDbEntity
  8
0-5
  6
JWW_DASHED1
 62
     2
370
    13
100
AcDbLine
 10
-349.9620245665254
 20
-858.289468074064
 30
0.0
 11
-349.9620245665254
 21
-862.2564445262725
 31
0.0
  0
LINE
  5
375
330
1F
100
AcDbEntity
  8
0-5
  6
Continuous
 62
     2
370
    13
100
AcDbLine
 10
-342.4564682215395
 20
-857.2613833191201
 30
0.0
 11
-342.4564682215395
 21
-862.2564434305042
 31
0.0
  0
LINE
  5
376
330
1F
100
AcDbEntity
  8
0-9
  6
Continuous
 62
     2
370
    13
100
AcDbLine
 10
-346.4589366031088
 20
-863.008911395292
 30
0.0
 11
-346.9948349879711
 21
-865.0089113952924
 31
0.0
  0
LINE
  5
377
330
1F
100
AcDbEntity
  8
0-9
  6
Continuous
 62
     2
370
    13
100
AcDbLine
 10
-345.4236604226985
 20
-863.008911395292
 30
0.0
 11
-345.9595588075608
 21
-865.0089113952924
 31
0.0
  0
LINE
  5
378
330
1F
100
AcDbEntity
  8
0-9
  6
Continuous
 62
     2
370
    13
100
AcDbLine
 10
-434.7093503965432
 20
-865.0089113952924
 30
0.0
 11
-434.7093503965432
 21
-866.6089060547159
 31
0.0
  0
LINE
  5
379
330
1F
100
AcDbEntity
  8
0-9
  6
Continuous
 62
     2
370
    13
100
AcDbLine
 10
-434.7093503965432
 20
-866.6089060547159
 30
0.0
 11
-417.7093446744973
 21
-866.6089060547159
 31
0.0
  0
LINE
  5
37A
330
1F
100
AcDbEntity
  8
0-9
  6
Continuous
 62
     2
370
    13
100
AcDbLine
 10
-417.7093446744973
 20
-865.0089113952924
 30
0.0
 11
-417.7093446744973
 21
-866.6089060547159
 31
0.0
  0
LINE
  5
37B
330
1F
100
AcDbEntity
  8
0-9
  6
Continuous
 62
     2
370
    13
100
AcDbLine
 10
-434.7093503965432
 20
-865.0089113952924
 30
0.0
 11
-417.7093446744973
 21
-865.0089113952924
 31
0.0
  0
LINE
  5
37C
330
1F
100
AcDbEntity
  8
0-9
  6
JWW_HOJO
 62
     2
370
    13
100
AcDbLine
 10
-430.4093416227396
 20
-865.0089113952924
 30
0.0
 11
-430.4093416227396
 21
-866.6089060547159
 31
0.0
  0
LINE
  5
37D
330
1F
100
AcDbEntity
  8
0-9
  6
JWW_HOJO
 62
     2
370
    13
100
AcDbLine
 10
-422.0093534483011
 20
-865.0089113952924
 30
0.0
 11
-422.0093534483011
 21
-866.6089060547159
 31
0.0
  0
LINE
  5
37E
330
1F
100
AcDbEntity
  8
0-9
  6
Continuous
 62
     2
370
    13
100
AcDbLine
 10
-433.9093475355203
 20
-863.008911395292
 30
0.0
 11
-433.9093475355203
 21
-865.0089113952924
 31
0.0
  0
LINE
  5
37F
330
1F
100
AcDbEntity
  8
0-9
  6
Continuous
 62
     2
370
    13
100
AcDbLine
 10
-433.9093475355203
 20
-863.008911395292
 30
0.0
 11
-418.5093475355202
 21
-863.008911395292
 31
0.0
  0
LINE
  5
380
330
1F
100
AcDbEntity
  8
0-9
  6
Continuous
 62
     2
370
    13
100
AcDbLine
 10
-418.5093475355202
 20
-863.008911395292
 30
0.0
 11
-418.5093475355202
 21
-865.0089113952924
 31
0.0
  0
LINE
  5
381
330
1F
100
AcDbEntity
  8
0-5
  6
Continuous
 62
     2
370
    13
100
AcDbLine
 10
-420.2093446744973
 20
-856.3921573402689
 30
0.0
 11
-418.70378856793
 21
-857.2613833191201
 31
0.0
  0
LINE
  5
382
330
1F
100
AcDbEntity
  8
0-5
  6
Continuous
 62
     2
370
    13
100
AcDbLine
 10
-432.2093256010111
 20
-856.3921573402689
 30
0.0
 11
-432.2224061979348
 21
-856.3996885063455
 31
0.0
  0
LINE
  5
383
330
1F
100
AcDbEntity
  8
0-5
  6
Continuous
 62
     2
370
    13
100
AcDbLine
 10
-432.2224061979348
 20
-856.3996885063455
 30
0.0
 11
-433.7148821844156
 21
-857.2613833191201
 31
0.0
  0
LINE
  5
384
330
1F
100
AcDbEntity
  8
0-5
  6
Continuous
 62
     2
370
    13
100
AcDbLine
 10
-420.4593580259377
 20
-855.9591424705792
 30
0.0
 11
-420.4593580259377
 21
-851.4778254272744
 31
0.0
  0
LINE
  5
385
330
1F
100
AcDbEntity
  8
0-5
  6
Continuous
 62
     2
370
    13
100
AcDbLine
 10
-431.9593370451028
 20
-851.4778254272744
 30
0.0
 11
-431.9593370451028
 21
-855.9591424705792
 31
0.0
  0
LINE
  5
386
330
1F
100
AcDbEntity
  8
0-5
  6
Continuous
 62
     2
370
    13
100
AcDbLine
 10
-429.9621024622018
 20
-857.2613833191201
 30
0.0
 11
-429.9621024622018
 21
-862.2564515712071
 31
0.0
  0
LINE
  5
387
330
1F
100
AcDbEntity
  8
0-5
  6
Continuous
 62
     2
370
    13
100
AcDbLine
 10
-420.0071189893778
 20
-856.5089147331526
 30
0.0
 11
-432.411600877195
 21
-856.5089147331526
 31
0.0
  0
ARC
  5
388
330
1F
100
AcDbEntity
  8
0-5
  6
Continuous
 62
     2
370
    13
100
AcDbCircle
 10
-426.2093475355202
 20
-866.2432658912945
 30
0.0
 40
9.734342575073242
100
AcDbArc
 50
67.32403564453125
 51
112.6759643554688
  0
ARC
  5
389
330
1F
100
AcDbEntity
  8
0-5
  6
Continuous
 62
     2
370
    13
100
AcDbCircle
 10
-420.0071189893778
 20
-860.8719630482005
 30
0.0
 40
4.363022327423096
100
AcDbArc
 50
89.99983215332031
 51
124.1534881591797
  0
ARC
  5
38A
330
1F
100
AcDbEntity
  8
0-5
  6
Continuous
 62
     2
370
    13
100
AcDbCircle
 10
-419.9593308462197
 20
-855.9591424705792
 30
0.0
 40
0.5
100
AcDbArc
 50
180.0
 51
240.0003204345703
  0
ARC
  5
38B
330
1F
100
AcDbEntity
  8
0-5
  6
Continuous
 62
     2
370
    13
100
AcDbCircle
 10
-426.2093475355202
 20
-853.2745688202192
 30
0.0
 40
9.734342575073242
100
AcDbArc
 50
247.3240356445312
 51
292.6759643554688
  0
ARC
  5
38C
330
1F
100
AcDbEntity
  8
0-5
  6
Continuous
 62
     2
370
    13
100
AcDbCircle
 10
-420.0071189893778
 20
-858.6458714248943
 30
0.0
 40
4.363022327423096
100
AcDbArc
 50
235.8465118408203
 51
270.0001678466797
  0
ARC
  5
38D
330
1F
100
AcDbEntity
  8
0-5
  6
Continuous
 62
     2
370
    13
100
AcDbCircle
 10
-432.4115512861307
 20
-860.8719630482005
 30
0.0
 40
4.363022327423096
100
AcDbArc
 50
55.84651184082032
 51
90.0001678466797
  0
ARC
  5
38E
330
1F
100
AcDbEntity
  8
0-5
  6
Continuous
 62
     2
370
    13
100
AcDbCircle
 10
-432.4115512861307
 20
-858.6458714248943
 30
0.0
 40
4.363022327423096
100
AcDbArc
 50
269.9998321533203
 51
304.1534881591797
  0
ARC
  5
38F
330
1F
100
AcDbEntity
  8
0-5
  6
Continuous
 62
     2
370
    13
100
AcDbCircle
 10
-432.4593394292885
 20
-855.9591424705792
 30
0.0
 40
0.5
100
AcDbArc
 50
299.9996795654297
 51
0.0000000000000127
  0
ARC
  5
390
330
1F
100
AcDbEntity
  8
0-5
  6
Continuous
 62
     2
370
    13
100
AcDbCircle
 10
-426.2093475355202
 20
-854.5089304687787
 30
0.0
 40
6.499999046325684
100
AcDbArc
 50
27.79579162597656
 51
152.2042083740235
  0
LINE
  5
391
330
1F
100
AcDbEntity
  8
0-5
  6
Continuous
 62
     2
370
    13
100
AcDbLine
 10
-432.4115760816629
 20
-863.0089199783612
 30
0.0
 11
-433.7148821844156
 21
-862.2564515712071
 31
0.0
  0
LINE
  5
392
330
1F
100
AcDbEntity
  8
0-5
  6
Continuous
 62
     2
370
    13
100
AcDbLine
 10
-433.7148821844156
 20
-857.2613833191201
 30
0.0
 11
-433.7148821844156
 21
-862.2564515712071
 31
0.0
  0
LINE
  5
393
330
1F
100
AcDbEntity
  8
0-5
  6
Continuous
 62
     2
370
    13
100
AcDbLine
 10
-420.0070941938455
 20
-863.0089199783612
 30
0.0
 11
-418.70378856793
 21
-862.2564515712071
 31
0.0
  0
LINE
  5
394
330
1F
100
AcDbEntity
  8
0-5
  6
Continuous
 62
     2
370
    13
100
AcDbLine
 10
-418.70378856793
 20
-857.2613833191201
 30
0.0
 11
-418.70378856793
 21
-862.2564515712071
 31
0.0
  0
LINE
  5
395
330
1F
100
AcDbEntity
  8
0-5
  6
JWW_DASHED1
 62
     2
370
    13
100
AcDbLine
 10
-429.9621243967111
 20
-858.289468074064
 30
0.0
 11
-429.9621243967111
 21
-862.2564445262725
 31
0.0
  0
LINE
  5
396
330
1F
100
AcDbEntity
  8
0-5
  6
Continuous
 62
     2
370
    13
100
AcDbLine
 10
-422.4565680517252
 20
-857.2613833191201
 30
0.0
 11
-422.4565680517252
 21
-862.2564434305042
 31
0.0
  0
LINE
  5
397
330
1F
100
AcDbEntity
  8
0-9
  6
Continuous
 62
     2
370
    13
100
AcDbLine
 10
-426.4590364332942
 20
-863.008911395292
 30
0.0
 11
-426.9949348181565
 21
-865.0089113952924
 31
0.0
  0
LINE
  5
398
330
1F
100
AcDbEntity
  8
0-9
  6
Continuous
 62
     2
370
    13
100
AcDbLine
 10
-425.4237602528842
 20
-863.008911395292
 30
0.0
 11
-425.9596586377464
 21
-865.0089113952924
 31
0.0
  0
LINE
  5
399
330
1F
100
AcDbEntity
  8
0-B
  6
Continuous
 62
     2
370
    13
100
AcDbLine
 10
-422.4567538525206
 20
860.68533702867
 30
0.0
 11
-429.9622882629973
 21
860.68533702867
 31
0.0
  0
LINE
  5
39A
330
1F
100
AcDbEntity
  8
0-B
  6
Continuous
 62
     2
370
    13
100
AcDbLine
 10
-422.4567538525206
 20
847.6853770829911
 30
0.0
 11
-418.7039743687255
 21
854.185356102156
 31
0.0
  0
LINE
  5
39B
330
1F
100
AcDbEntity
  8
0-B
  6
Continuous
 62
     2
370
    13
100
AcDbLine
 10
-418.7039743687255
 20
854.185356102156
 30
0.0
 11
-422.4567538525206
 21
860.68533702867
 31
0.0
  0
LINE
  5
39C
330
1F
100
AcDbEntity
  8
0-B
  6
Continuous
 62
     2
370
    13
100
AcDbLine
 10
-429.9622882629973
 20
860.68533702867
 30
0.0
 11
-433.7150679852111
 21
854.185356102156
 31
0.0
  0
LINE
  5
39D
330
1F
100
AcDbEntity
  8
0-B
  6
Continuous
 62
     2
370
    13
100
AcDbLine
 10
-433.7150679852111
 20
854.185356102156
 30
0.0
 11
-429.9622882629973
 21
847.6853770829911
 31
0.0
  0
LINE
  5
39E
330
1F
100
AcDbEntity
  8
0-B
  6
Continuous
 62
     2
370
    13
100
AcDbLine
 10
-429.9622882629973
 20
847.6853770829911
 30
0.0
 11
-422.4567538525206
 21
847.6853770829911
 31
0.0
  0
CIRCLE
  5
39F
330
1F
100
AcDbEntity
  8
0-B
  6
Continuous
 62
     2
370
    13
100
AcDbCircle
 10
-426.2095333363158
 20
854.185356102156
 30
0.0
 40
6.499996662139893
  0
CIRCLE
  5
3A0
330
1F
100
AcDbEntity
  8
0-B
  6
JWW_DASHED1
 62
     2
370
    13
100
AcDbCircle
 10
-426.2095333363158
 20
854.185356102156
 30
0.0
 40
4.0
  0
LINE
  5
3A1
330
1F
100
AcDbEntity
  8
0-B
  6
Continuous
 62
     2
370
    13
100
AcDbLine
 10
-422.4567538525206
 20
767.6855002137603
 30
0.0
 11
-418.7039743687255
 21
774.185479232925
 31
0.0
  0
LINE
  5
3A2
330
1F
100
AcDbEntity
  8
0-B
  6
Continuous
 62
     2
370
    13
100
AcDbLine
 10
-418.7039743687255
 20
774.185479232925
 30
0.0
 11
-422.4567538525206
 21
780.6854601594387
 31
0.0
  0
LINE
  5
3A3
330
1F
100
AcDbEntity
  8
0-B
  6
Continuous
 62
     2
370
    13
100
AcDbLine
 10
-422.4567538525206
 20
780.6854601594387
 30
0.0
 11
-429.9622882629973
 21
780.6854601594387
 31
0.0
  0
LINE
  5
3A4
330
1F
100
AcDbEntity
  8
0-B
  6
Continuous
 62
     2
370
    13
100
AcDbLine
 10
-429.9622882629973
 20
780.6854601594387
 30
0.0
 11
-433.7150679852111
 21
774.185479232925
 31
0.0
  0
LINE
  5
3A5
330
1F
100
AcDbEntity
  8
0-B
  6
Continuous
 62
     2
370
    13
100
AcDbLine
 10
-433.7150679852111
 20
774.185479232925
 30
0.0
 11
-429.9622882629973
 21
767.6855002137603
 31
0.0
  0
LINE
  5
3A6
330
1F
100
AcDbEntity
  8
0-B
  6
Continuous
 62
     2
370
    13
100
AcDbLine
 10
-429.9622882629973
 20
767.6855002137603
 30
0.0
 11
-422.4567538525206
 21
767.6855002137603
 31
0.0
  0
CIRCLE
  5
3A7
330
1F
100
AcDbEntity
  8
0-B
  6
Continuous
 62
     2
370
    13
100
AcDbCircle
 10
-426.2095333363158
 20
774.185479232925
 30
0.0
 40
6.499996662139893
  0
CIRCLE
  5
3A8
330
1F
100
AcDbEntity
  8
0-B
  6
JWW_DASHED1
 62
     2
370
    13
100
AcDbCircle
 10
-426.2095333363158
 20
774.185479232925
 30
0.0
 40
4.0
  0
LINE
  5
3A9
330
1F
100
AcDbEntity
  8
0-B
  6
Continuous
 62
     2
370
    13
100
AcDbLine
 10
-342.456728342653
 20
767.6855002137603
 30
0.0
 11
-338.703948858858
 21
774.185479232925
 31
0.0
  0
LINE
  5
3AA
330
1F
100
AcDbEntity
  8
0-B
  6
Continuous
 62
     2
370
    13
100
AcDbLine
 10
-338.703948858858
 20
774.185479232925
 30
0.0
 11
-342.456728342653
 21
780.6854601594387
 31
0.0
  0
LINE
  5
3AB
330
1F
100
AcDbEntity
  8
0-B
  6
Continuous
 62
     2
370
    13
100
AcDbLine
 10
-342.456728342653
 20
780.6854601594387
 30
0.0
 11
-349.9622627531299
 21
780.6854601594387
 31
0.0
  0
LINE
  5
3AC
330
1F
100
AcDbEntity
  8
0-B
  6
Continuous
 62
     2
370
    13
100
AcDbLine
 10
-349.9622627531299
 20
780.6854601594387
 30
0.0
 11
-353.7150424753436
 21
774.185479232925
 31
0.0
  0
LINE
  5
3AD
330
1F
100
AcDbEntity
  8
0-B
  6
Continuous
 62
     2
370
    13
100
AcDbLine
 10
-353.7150424753436
 20
774.185479232925
 30
0.0
 11
-349.9622627531299
 21
767.6855002137603
 31
0.0
  0
LINE
  5
3AE
330
1F
100
AcDbEntity
  8
0-B
  6
Continuous
 62
     2
370
    13
100
AcDbLine
 10
-349.9622627531299
 20
767.6855002137603
 30
0.0
 11
-342.456728342653
 21
767.6855002137603
 31
0.0
  0
CIRCLE
  5
3AF
330
1F
100
AcDbEntity
  8
0-B
  6
Continuous
 62
     2
370
    13
100
AcDbCircle
 10
-346.2095078264483
 20
774.185479232925
 30
0.0
 40
6.499996662139893
  0
CIRCLE
  5
3B0
330
1F
100
AcDbEntity
  8
0-B
  6
JWW_DASHED1
 62
     2
370
    13
100
AcDbCircle
 10
-346.2095078264483
 20
774.185479232925
 30
0.0
 40
4.0
  0
CIRCLE
  5
3B1
330
1F
100
AcDbEntity
  8
0-9
  6
Continuous
 62
     2
370
    13
100
AcDbCircle
 10
-426.2095333363156
 20
854.1853561021566
 30
0.0
 40
8.5
  0
CIRCLE
  5
3B2
330
1F
100
AcDbEntity
  8
0-9
  6
Continuous
 62
     2
370
    13
100
AcDbCircle
 10
-426.2095333363156
 20
854.185356102156
 30
0.0
 40
7.7
  0
CIRCLE
  5
3B3
330
1F
100
AcDbEntity
  8
0-9
  6
Continuous
 62
     2
370
    13
100
AcDbCircle
 10
-426.2095333363156
 20
774.185479232925
 30
0.0
 40
8.5
  0
CIRCLE
  5
3B4
330
1F
100
AcDbEntity
  8
0-9
  6
Continuous
 62
     2
370
    13
100
AcDbCircle
 10
-426.2095333363156
 20
774.185479232925
 30
0.0
 40
7.7
  0
CIRCLE
  5
3B5
330
1F
100
AcDbEntity
  8
0-9
  6
Continuous
 62
     2
370
    13
100
AcDbCircle
 10
-346.2095078264483
 20
774.185479232925
 30
0.0
 40
8.5
  0
CIRCLE
  5
3B6
330
1F
100
AcDbEntity
  8
0-9
  6
Continuous
 62
     2
370
    13
100
AcDbCircle
 10
-346.2095078264483
 20
774.185479232925
 30
0.0
 40
7.7
  0
LINE
  5
3B7
330
1F
100
AcDbEntity
  8
0-B
  6
Continuous
 62
     2
370
    13
100
AcDbLine
 10
402.5429239454819
 20
847.6855257236266
 30
0.0
 11
406.2957034292771
 21
854.1855047427919
 31
0.0
  0
LINE
  5
3B8
330
1F
100
AcDbEntity
  8
0-B
  6
Continuous
 62
     2
370
    13
100
AcDbLine
 10
406.2957034292771
 20
854.1855047427919
 30
0.0
 11
402.5429239454819
 21
860.6854856693053
 31
0.0
  0
LINE
  5
3B9
330
1F
100
AcDbEntity
  8
0-B
  6
Continuous
 62
     2
370
    13
100
AcDbLine
 10
402.5429239454819
 20
860.6854856693053
 30
0.0
 11
395.0373895350052
 21
860.6854856693053
 31
0.0
  0
LINE
  5
3BA
330
1F
100
AcDbEntity
  8
0-B
  6
Continuous
 62
     2
370
    13
100
AcDbLine
 10
395.0373895350052
 20
860.6854856693053
 30
0.0
 11
391.2846098127915
 21
854.1855047427919
 31
0.0
  0
LINE
  5
3BB
330
1F
100
AcDbEntity
  8
0-B
  6
Continuous
 62
     2
370
    13
100
AcDbLine
 10
391.2846098127915
 20
854.1855047427919
 30
0.0
 11
395.0373895350052
 21
847.6855257236266
 31
0.0
  0
LINE
  5
3BC
330
1F
100
AcDbEntity
  8
0-B
  6
Continuous
 62
     2
370
    13
100
AcDbLine
 10
395.0373895350052
 20
847.6855257236266
 30
0.0
 11
402.5429239454819
 21
847.6855257236266
 31
0.0
  0
CIRCLE
  5
3BD
330
1F
100
AcDbEntity
  8
0-B
  6
Continuous
 62
     2
370
    13
100
AcDbCircle
 10
398.7901444616867
 20
854.1855047427919
 30
0.0
 40
6.499996662139893
  0
CIRCLE
  5
3BE
330
1F
100
AcDbEntity
  8
0-B
  6
JWW_DASHED1
 62
     2
370
    13
100
AcDbCircle
 10
398.7901444616867
 20
854.1855047427919
 30
0.0
 40
4.0
  0
CIRCLE
  5
3BF
330
1F
100
AcDbEntity
  8
0-9
  6
Continuous
 62
     2
370
    13
100
AcDbCircle
 10
398.7901444616867
 20
854.1855047427919
 30
0.0
 40
8.5
  0
CIRCLE
  5
3C0
330
1F
100
AcDbEntity
  8
0-9
  6
Continuous
 62
     2
370
    13
100
AcDbCircle
 10
398.7901444616867
 20
854.1855047427919
 30
0.0
 40
7.7
  0
LINE
  5
3C1
330
1F
100
AcDbEntity
  8
0-B
  6
Continuous
 62
     2
370
    13
100
AcDbLine
 10
402.5429239454819
 20
767.6856488543956
 30
0.0
 11
406.2957034292771
 21
774.1856278735602
 31
0.0
  0
LINE
  5
3C2
330
1F
100
AcDbEntity
  8
0-B
  6
Continuous
 62
     2
370
    13
100
AcDbLine
 10
406.2957034292771
 20
774.1856278735602
 30
0.0
 11
402.5429239454819
 21
780.685608800074
 31
0.0
  0
LINE
  5
3C3
330
1F
100
AcDbEntity
  8
0-B
  6
Continuous
 62
     2
370
    13
100
AcDbLine
 10
402.5429239454819
 20
780.685608800074
 30
0.0
 11
395.0373895350052
 21
780.685608800074
 31
0.0
  0
LINE
  5
3C4
330
1F
100
AcDbEntity
  8
0-B
  6
Continuous
 62
     2
370
    13
100
AcDbLine
 10
395.0373895350052
 20
780.685608800074
 30
0.0
 11
391.2846098127915
 21
774.1856278735602
 31
0.0
  0
LINE
  5
3C5
330
1F
100
AcDbEntity
  8
0-B
  6
Continuous
 62
     2
370
    13
100
AcDbLine
 10
391.2846098127915
 20
774.1856278735602
 30
0.0
 11
395.0373895350052
 21
767.6856488543956
 31
0.0
  0
LINE
  5
3C6
330
1F
100
AcDbEntity
  8
0-B
  6
Continuous
 62
     2
370
    13
100
AcDbLine
 10
395.0373895350052
 20
767.6856488543956
 30
0.0
 11
402.5429239454819
 21
767.6856488543956
 31
0.0
  0
CIRCLE
  5
3C7
330
1F
100
AcDbEntity
  8
0-B
  6
Continuous
 62
     2
370
    13
100
AcDbCircle
 10
398.7901444616867
 20
774.1856278735602
 30
0.0
 40
6.499996662139893
  0
CIRCLE
  5
3C8
330
1F
100
AcDbEntity
  8
0-B
  6
JWW_DASHED1
 62
     2
370
    13
100
AcDbCircle
 10
398.7901444616867
 20
774.1856278735602
 30
0.0
 40
4.0
  0
CIRCLE
  5
3C9
330
1F
100
AcDbEntity
  8
0-9
  6
Continuous
 62
     2
370
    13
100
AcDbCircle
 10
398.7901444616867
 20
774.1856278735602
 30
0.0
 40
8.5
  0
CIRCLE
  5
3CA
330
1F
100
AcDbEntity
  8
0-9
  6
Continuous
 62
     2
370
    13
100
AcDbCircle
 10
398.7901444616867
 20
774.1856278735602
 30
0.0
 40
7.7
  0
LINE
  5
3CB
330
1F
100
AcDbEntity
  8
0-B
  6
Continuous
 62
     2
370
    13
100
AcDbLine
 10
322.5428241152964
 20
767.6856488543956
 30
0.0
 11
326.2956035990916
 21
774.1856278735602
 31
0.0
  0
LINE
  5
3CC
330
1F
100
AcDbEntity
  8
0-B
  6
Continuous
 62
     2
370
    13
100
AcDbLine
 10
326.2956035990916
 20
774.1856278735602
 30
0.0
 11
322.5428241152964
 21
780.685608800074
 31
0.0
  0
LINE
  5
3CD
330
1F
100
AcDbEntity
  8
0-B
  6
Continuous
 62
     2
370
    13
100
AcDbLine
 10
322.5428241152964
 20
780.685608800074
 30
0.0
 11
315.0372897048198
 21
780.685608800074
 31
0.0
  0
LINE
  5
3CE
330
1F
100
AcDbEntity
  8
0-B
  6
Continuous
 62
     2
370
    13
100
AcDbLine
 10
315.0372897048198
 20
780.685608800074
 30
0.0
 11
311.284509982606
 21
774.1856278735602
 31
0.0
  0
LINE
  5
3CF
330
1F
100
AcDbEntity
  8
0-B
  6
Continuous
 62
     2
370
    13
100
AcDbLine
 10
311.284509982606
 20
774.1856278735602
 30
0.0
 11
315.0372897048198
 21
767.6856488543956
 31
0.0
  0
LINE
  5
3D0
330
1F
100
AcDbEntity
  8
0-B
  6
Continuous
 62
     2
370
    13
100
AcDbLine
 10
315.0372897048198
 20
767.6856488543956
 30
0.0
 11
322.5428241152964
 21
767.6856488543956
 31
0.0
  0
CIRCLE
  5
3D1
330
1F
100
AcDbEntity
  8
0-B
  6
Continuous
 62
     2
370
    13
100
AcDbCircle
 10
318.7900446315013
 20
774.1856278735602
 30
0.0
 40
6.499996662139893
  0
CIRCLE
  5
3D2
330
1F
100
AcDbEntity
  8
0-B
  6
JWW_DASHED1
 62
     2
370
    13
100
AcDbCircle
 10
318.7900446315013
 20
774.1856278735602
 30
0.0
 40
4.0
  0
CIRCLE
  5
3D3
330
1F
100
AcDbEntity
  8
0-9
  6
Continuous
 62
     2
370
    13
100
AcDbCircle
 10
318.7900446315013
 20
774.1856278735602
 30
0.0
 40
8.5
  0
CIRCLE
  5
3D4
330
1F
100
AcDbEntity
  8
0-9
  6
Continuous
 62
     2
370
    13
100
AcDbCircle
 10
318.7900446315013
 20
774.1856278735602
 30
0.0
 40
7.7
  0
ENDSEC
  0
SECTION
  2
OBJECTS
  0
DICTIONARY
  5
C
330
0
100
AcDbDictionary
281
     1
  3
ACAD_GROUP
350
D
  3
ACAD_LAYOUT
350
1A
  3
ACAD_MLEADERSTYLE
350
3D6
  3
ACAD_MLINESTYLE
350
17
  3
ACAD_PLOTSETTINGS
350
19
  3
ACAD_PLOTSTYLENAME
350
E
  3
ACAD_TABLESTYLE
350
3D5
  3
ACAD_VISUALSTYLE
350
2A
  0
DICTIONARY
  5
D
102
{ACAD_REACTORS
330
C
102
}
330
C
100
AcDbDictionary
281
     1
  0
DICTIONARY
  5
1A
102
{ACAD_REACTORS
330
C
102
}
330
C
100
AcDbDictionary
281
     1
  3
Layout1
350
1E
  3
Layout2
350
26
  3
Model
350
22
  0
DICTIONARY
  5
3D6
102
{ACAD_REACTORS
330
C
102
}
330
C
100
AcDbDictionary
281
     1
  0
DICTIONARY
  5
17
102
{ACAD_REACTORS
330
C
102
}
330
C
100
AcDbDictionary
281
     1
  3
Standard
350
18
  0
DICTIONARY
  5
19
102
{ACAD_REACTORS
330
C
102
}
330
C
100
AcDbDictionary
281
     1
  0
ACDBDICTIONARYWDFLT
  5
E
102
{ACAD_REACTORS
330
C
102
}
330
C
100
AcDbDictionary
281
     1
  3
Normal
350
F
100
AcDbDictionaryWithDefault
340
F
  0
DICTIONARY
  5
3D5
102
{ACAD_REACTORS
330
C
102
}
330
C
100
AcDbDictionary
281
     1
  0
DICTIONARY
  5
2A
102
{ACAD_REACTORS
330
C
102
}
330
C
100
AcDbDictionary
281
     1
  3
2dWireframe
350
2F
  3
3D Hidden
350
31
  3
3dWireframe
350
30
  3
Basic
350
32
  3
Brighten
350
36
  3
ColorChange
350
3A
  3
Conceptual
350
34
  3
Dim
350
35
  3
Facepattern
350
39
  3
Flat
350
2B
  3
FlatWithEdges
350
2C
  3
Gouraud
350
2D
  3
GouraudWithEdges
350
2E
  3
Linepattern
350
38
  3
Realistic
350
33
  3
Thicken
350
37
  0
LAYOUT
  5
1E
102
{ACAD_REACTORS
330
1A
102
}
330
1A
100
AcDbPlotSettings
  1

  2
none_device
  4

  6

 40
0.0
 41
0.0
 42
0.0
 43
0.0
 44
0.0
 45
0.0
 46
0.0
 47
0.0
 48
0.0
 49
0.0
140
0.0
141
0.0
142
1.0
143
1.0
 70
   688
 72
     0
 73
     0
 74
     5
  7

 75
    16
 76
     0
 77
     5
 78
   300
147
1.0
148
0.0
149
0.0
100
AcDbLayout
  1
Layout1
 70
     1
 71
     1
 10
0.0
 20
0.0
 11
420.0
 21
297.0
 12
0.0
 22
0.0
 32
0.0
 14
1.000000000000000E+20
 24
1.000000000000000E+20
 34
1.000000000000000E+20
 15
-1.000000000000000E+20
 25
-1.000000000000000E+20
 35
-1.000000000000000E+20
146
0.0
 13
0.0
 23
0.0
 33
0.0
 16
1.0
 26
0.0
 36
0.0
 17
0.0
 27
1.0
 37
0.0
 76
     0
330
1B
  0
LAYOUT
  5
26
102
{ACAD_REACTORS
330
1A
102
}
330
1A
100
AcDbPlotSettings
  1

  2
none_device
  4

  6

 40
0.0
 41
0.0
 42
0.0
 43
0.0
 44
0.0
 45
0.0
 46
0.0
 47
0.0
 48
0.0
 49
0.0
140
0.0
141
0.0
142
1.0
143
1.0
 70
   688
 72
     0
 73
     0
 74
     5
  7

 75
    16
 76
     0
 77
     5
 78
   300
147
1.0
148
0.0
149
0.0
100
AcDbLayout
  1
Layout2
 70
     1
 71
     2
 10
0.0
 20
0.0
 11
0.0
 21
0.0
 12
0.0
 22
0.0
 32
0.0
 14
0.0
 24
0.0
 34
0.0
 15
0.0
 25
0.0
 35
0.0
146
0.0
 13
0.0
 23
0.0
 33
0.0
 16
1.0
 26
0.0
 36
0.0
 17
0.0
 27
1.0
 37
0.0
 76
     0
330
23
  0
LAYOUT
  5
22
102
{ACAD_REACTORS
330
1A
102
}
330
1A
100
AcDbPlotSettings
  1

  2
none_device
  4

  6

 40
0.0
 41
0.0
 42
0.0
 43
0.0
 44
0.0
 45
0.0
 46
0.0
 47
0.0
 48
0.0
 49
0.0
140
0.0
141
0.0
142
1.0
143
1.0
 70
  1712
 72
     0
 73
     0
 74
     0
  7

 75
     0
 76
     0
 77
     5
 78
   300
147
1.0
148
0.0
149
0.0
100
AcDbLayout
  1
Model
 70
     1
 71
     0
 10
-2100.0
 20
-1485.0
 11
2100.0
 21
1485.0
 12
0.0
 22
0.0
 32
0.0
 14
-2100.0
 24
-1485.0
 34
0.0
 15
2100.0
 25
1485.0
 35
0.0
146
0.0
 13
0.0
 23
0.0
 33
0.0
 16
1.0
 26
0.0
 36
0.0
 17
0.0
 27
1.0
 37
0.0
 76
     0
330
1F
331
29
  0
MLINESTYLE
  5
18
102
{ACAD_REACTORS
330
17
102
}
330
17
100
AcDbMlineStyle
  2
Standard
 70
     0
  3

 62
   256
 51
90.0
 52
90.0
 71
     2
 49
0.5
 62
   256
  6
BYLAYER
 49
-0.5
 62
   256
  6
BYLAYER
  0
ACDBPLACEHOLDER
  5
F
102
{ACAD_REACTORS
330
E
102
}
330
E
  0
VISUALSTYLE
  5
2F
102
{ACAD_REACTORS
330
2A
102
}
330
2A
100
AcDbVisualStyle
  2
2dWireframe
 70
     4
 71
     0
 72
     2
 73
     0
 90
        0
 40
-0.6
 41
-30.0
 62
     5
 63
     7
421
 16777215
 74
     1
 91
        4
 64
     7
 65
   257
 75
     1
175
     1
 42
1.0
 92
        0
 66
   257
 43
1.0
 76
     1
 77
     6
 78
     2
 67
     7
 79
     5
170
     0
171
     0
290
     0
174
     0
 93
        1
 44
0.0
173
     0
291
     0
 45
0.0
1001
ACAD
1000
AcDbSavedByObjectVersion
1070
     0
  0
VISUALSTYLE
  5
31
102
{ACAD_REACTORS
330
2A
102
}
330
2A
100
AcDbVisualStyle
  2
3D Hidden
 70
     6
 71
     1
 72
     2
 73
     2
 90
        0
 40
-0.6
 41
-30.0
 62
     5
 63
     7
421
 16777215
 74
     2
 91
        2
 64
     7
 65
   257
 75
     2
175
     1
 42
40.0
 92
        0
 66
   257
 43
1.0
 76
     1
 77
     6
 78
     2
 67
     7
 79
     3
170
     0
171
     0
290
     0
174
     0
 93
        1
 44
0.0
173
     0
291
     0
 45
0.0
1001
ACAD
1000
AcDbSavedByObjectVersion
1070
     0
  0
VISUALSTYLE
  5
30
102
{ACAD_REACTORS
330
2A
102
}
330
2A
100
AcDbVisualStyle
  2
3dWireframe
 70
     5
 71
     0
 72
     2
 73
     0
 90
        0
 40
-0.6
 41
-30.0
 62
     5
 63
     7
421
 16777215
 74
     1
 91
        4
 64
     7
 65
   257
 75
     1
175
     1
 42
1.0
 92
        0
 66
   257
 43
1.0
 76
     1
 77
     6
 78
     2
 67
     7
 79
     5
170
     0
171
     0
290
     0
174
     0
 93
        1
 44
0.0
173
     0
291
     0
 45
0.0
1001
ACAD
1000
AcDbSavedByObjectVersion
1070
     0
  0
VISUALSTYLE
  5
32
102
{ACAD_REACTORS
330
2A
102
}
330
2A
100
AcDbVisualStyle
  2
Basic
 70
     7
 71
     1
 72
     0
 73
     1
 90
        0
 40
-0.6
 41
-30.0
 62
     5
 63
     7
421
 16777215
 74
     0
 91
        4
 64
     7
 65
   257
 75
     1
175
     1
 42
1.0
 92
        8
 66
     7
 43
1.0
 76
     1
 77
     6
 78
     2
 67
     7
 79
     5
170
     0
171
     0
290
     0
174
     0
 93
        1
 44
0.0
173
     0
291
     1
 45
0.0
1001
ACAD
1000
AcDbSavedByObjectVersion
1070
     0
  0
VISUALSTYLE
  5
36
102
{ACAD_REACTORS
330
2A
102
}
330
2A
100
AcDbVisualStyle
  2
Brighten
 70
    12
 71
     2
 72
     2
 73
     0
 90
        0
 40
-0.6
 41
-30.0
 62
     5
 63
     7
421
 16777215
 74
     1
 91
        4
 64
     7
 65
   257
 75
     1
175
     1
 42
1.0
 92
        8
 66
     7
 43
1.0
 76
     1
 77
     6
 78
     2
 67
     7
 79
     5
170
     0
171
     0
290
     0
174
     0
 93
        1
 44
50.0
173
     0
291
     1
 45
0.0
1001
ACAD
1000
AcDbSavedByObjectVersion
1070
     0
  0
VISUALSTYLE
  5
3A
102
{ACAD_REACTORS
330
2A
102
}
330
2A
100
AcDbVisualStyle
  2
ColorChange
 70
    16
 71
     2
 72
     2
 73
     3
 90
        0
 40
-0.6
 41
-30.0
 62
     5
 63
     8
421
  8421504
 74
     1
 91
        4
 64
     7
 65
   257
 75
     1
175
     1
 42
1.0
 92
        8
 66
     8
424
  8421504
 43
1.0
 76
     1
 77
     6
 78
     2
 67
     7
 79
     5
170
     0
171
     0
290
     0
174
     0
 93
        1
 44
0.0
173
     0
291
     1
 45
0.0
1001
ACAD
1000
AcDbSavedByObjectVersion
1070
     0
  0
VISUALSTYLE
  5
34
102
{ACAD_REACTORS
330
2A
102
}
330
2A
100
AcDbVisualStyle
  2
Conceptual
 70
     9
 71
     3
 72
     2
 73
     0
 90
        0
 40
-0.6
 41
-30.0
 62
     5
 63
     7
421
 16777215
 74
     2
 91
        2
 64
     7
 65
   257
 75
     1
175
     1
 42
40.0
 92
        8
 66
     7
 43
1.0
 76
     1
 77
     6
 78
     2
 67
     7
 79
     3
170
     0
171
     0
290
     0
174
     0
 93
        1
 44
0.0
173
     0
291
     0
 45
0.0
1001
ACAD
1000
AcDbSavedByObjectVersion
1070
     0
  0
VISUALSTYLE
  5
35
102
{ACAD_REACTORS
330
2A
102
}
330
2A
100
AcDbVisualStyle
  2
Dim
 70
    11
 71
     2
 72
     2
 73
     0
 90
        0
 40
-0.6
 41
-30.0
 62
     5
 63
     7
421
 16777215
 74
     1
 91
        4
 64
     7
 65
   257
 75
     1
175
     1
 42
1.0
 92
        8
 66
     7
 43
1.0
 76
     1
 77
     6
 78
     2
 67
     7
 79
     5
170
     0
171
     0
290
     0
174
     0
 93
        1
 44
-50.0
173
     0
291
     1
 45
0.0
1001
ACAD
1000
AcDbSavedByObjectVersion
1070
     0
  0
VISUALSTYLE
  5
39
102
{ACAD_REACTORS
330
2A
102
}
330
2A
100
AcDbVisualStyle
  2
Facepattern
 70
    15
 71
     2
 72
     2
 73
     0
 90
        0
 40
-0.6
 41
-30.0
 62
     5
 63
     7
421
 16777215
 74
     1
 91
        4
 64
     7
 65
   257
 75
     1
175
     1
 42
1.0
 92
        8
 66
     7
 43
1.0
 76
     1
 77
     6
 78
     2
 67
     7
 79
     5
170
     0
171
     0
290
     0
174
     0
 93
        1
 44
0.0
173
     0
291
     1
 45
0.0
1001
ACAD
1000
AcDbSavedByObjectVersion
1070
     0
  0
VISUALSTYLE
  5
2B
102
{ACAD_REACTORS
330
2A
102
}
330
2A
100
AcDbVisualStyle
  2
Flat
 70
     0
 71
     2
 72
     1
 73
     1
 90
        2
 40
-0.6
 41
30.0
 62
     5
 63
     7
421
 16777215
 74
     0
 91
        4
 64
     7
 65
   257
 75
     1
175
     1
 42
1.0
 92
        8
 66
     7
 43
1.0
 76
     1
 77
     6
 78
     2
 67
     7
 79
     5
170
     0
171
     0
290
     0
174
     0
 93
       13
 44
0.0
173
     0
291
     1
 45
0.0
1001
ACAD
1000
AcDbSavedByObjectVersion
1070
     0
  0
VISUALSTYLE
  5
2C
102
{ACAD_REACTORS
330
2A
102
}
330
2A
100
AcDbVisualStyle
  2
FlatWithEdges
 70
     1
 71
     2
 72
     1
 73
     1
 90
        2
 40
-0.6
 41
30.0
 62
     5
 63
     7
421
 16777215
 74
     1
 91
        4
 64
     7
 65
   257
 75
     1
175
     1
 42
1.0
 92
        0
 66
   257
 43
1.0
 76
     1
 77
     6
 78
     2
 67
     7
 79
     5
170
     0
171
     0
290
     0
174
     0
 93
       13
 44
0.0
173
     0
291
     1
 45
0.0
1001
ACAD
1000
AcDbSavedByObjectVersion
1070
     0
  0
VISUALSTYLE
  5
2D
102
{ACAD_REACTORS
330
2A
102
}
330
2A
100
AcDbVisualStyle
  2
Gouraud
 70
     2
 71
     2
 72
     2
 73
     1
 90
        2
 40
-0.6
 41
30.0
 62
     5
 63
     7
421
 16777215
 74
     0
 91
        4
 64
     7
 65
   257
 75
     1
175
     1
 42
1.0
 92
        0
 66
     7
 43
1.0
 76
     1
 77
     6
 78
     2
 67
     7
 79
     5
170
     0
171
     0
290
     0
174
     0
 93
       13
 44
0.0
173
     0
291
     1
 45
0.0
1001
ACAD
1000
AcDbSavedByObjectVersion
1070
     0
  0
VISUALSTYLE
  5
2E
102
{ACAD_REACTORS
330
2A
102
}
330
2A
100
AcDbVisualStyle
  2
GouraudWithEdges
 70
     3
 71
     2
 72
     2
 73
     1
 90
        2
 40
-0.6
 41
30.0
 62
     5
 63
     7
421
 16777215
 74
     1
 91
        4
 64
     7
 65
   257
 75
     1
175
     1
 42
1.0
 92
        0
 66
   257
 43
1.0
 76
     1
 77
     6
 78
     2
 67
     7
 79
     5
170
     0
171
     0
290
     0
174
     0
 93
       13
 44
0.0
173
     0
291
     1
 45
0.0
1001
ACAD
1000
AcDbSavedByObjectVersion
1070
     0
  0
VISUALSTYLE
  5
38
102
{ACAD_REACTORS
330
2A
102
}
330
2A
100
AcDbVisualStyle
  2
Linepattern
 70
    14
 71
     2
 72
     2
 73
     0
 90
        0
 40
-0.6
 41
-30.0
 62
     5
 63
     7
421
 16777215
 74
     1
 91
        4
 64
     7
 65
   257
 75
     7
175
     7
 42
1.0
 92
        8
 66
     7
 43
1.0
 76
     1
 77
     6
 78
     2
 67
     7
 79
     5
170
     0
171
     0
290
     0
174
     0
 93
        1
 44
0.0
173
     0
291
     1
 45
0.0
1001
ACAD
1000
AcDbSavedByObjectVersion
1070
     0
  0
VISUALSTYLE
  5
33
102
{ACAD_REACTORS
330
2A
102
}
330
2A
100
AcDbVisualStyle
  2
Realistic
 70
     8
 71
     2
 72
     2
 73
     0
 90
        0
 40
-0.6
 41
-30.0
 62
     5
 63
     7
421
 16777215
 74
     1
 91
        0
 64
     7
 65
   257
 75
     1
175
     1
 42
1.0
 92
        8
 66
     8
424
  7895160
 43
1.0
 76
     1
 77
     6
 78
     2
 67
     7
 79
     5
170
     0
171
     0
290
     0
174
     0
 93
       13
 44
0.0
173
     0
291
     0
 45
0.0
1001
ACAD
1000
AcDbSavedByObjectVersion
1070
     0
  0
VISUALSTYLE
  5
37
102
{ACAD_REACTORS
330
2A
102
}
330
2A
100
AcDbVisualStyle
  2
Thicken
 70
    13
 71
     2
 72
     2
 73
     0
 90
        0
 40
-0.6
 41
-30.0
 62
     5
 63
     7
421
 16777215
 74
     1
 91
        4
 64
     7
 65
   257
 75
     1
175
     1
 42
1.0
 92
       12
 66
     7
 43
1.0
 76
     1
 77
     6
 78
     2
 67
     7
 79
     5
170
     0
171
     0
290
     0
174
     0
 93
        1
 44
0.0
173
     0
291
     1
 45
0.0
1001
ACAD
1000
AcDbSavedByObjectVersion
1070
     0
  0
ENDSEC
  0
EOF
