  0
SECTION
  2
HEADER
  9
$ACADVER
  1
AC1032
  9
$ACADMAINTVER
 90
        4
  9
$DWGCODEPAGE
  3
ANSI_932
  9
$LASTSAVEDBY
  1
m.murai
  9
$REQUIREDVERSIONS
160
                 0
  9
$INSBASE
 10
0.0
 20
0.0
 30
0.0
  9
$EXTMIN
 10
-2100.0
 20
-1485.0
 30
0.0
  9
$EXTMAX
 10
2100.0
 20
1485.0
 30
0.0
  9
$LIMMIN
 10
-2100.0
 20
-1485.0
  9
$LIMMAX
 10
2100.0
 20
1485.0
  9
$ORTHOMODE
 70
     0
  9
$REGENMODE
 70
     1
  9
$FILLMODE
 70
     1
  9
$QTEXTMODE
 70
     0
  9
$MIRRTEXT
 70
     1
  9
$LTSCALE
 40
10.0
  9
$ATTMODE
 70
     1
  9
$TEXTSIZE
 40
2.5
  9
$TRACEWID
 40
1.0
  9
$TEXTSTYLE
  7
Standard
  9
$CLAYER
  8
0
  9
$CELTYPE
  6
ByLayer
  9
$CECOLOR
 62
   256
  9
$CELTSCALE
 40
1.0
  9
$DISPSILH
 70
     0
  9
$DIMSCALE
 40
1.0
  9
$DIMASZ
 40
2.5
  9
$DIMEXO
 40
0.625
  9
$DIMDLI
 40
3.75
  9
$DIMRND
 40
0.0
  9
$DIMDLE
 40
0.0
  9
$DIMEXE
 40
1.25
  9
$DIMTP
 40
0.0
  9
$DIMTM
 40
0.0
  9
$DIMTXT
 40
2.5
  9
$DIMCEN
 40
2.5
  9
$DIMTSZ
 40
0.0
  9
$DIMTOL
 70
     0
  9
$DIMLIM
 70
     0
  9
$DIMTIH
 70
     0
  9
$DIMTOH
 70
     0
  9
$DIMSE1
 70
     0
  9
$DIMSE2
 70
     0
  9
$DIMTAD
 70
     1
  9
$DIMZIN
 70
     8
  9
$DIMBLK
  1

  9
$DIMASO
 70
     1
  9
$DIMSHO
 70
     1
  9
$DIMPOST
  1

  9
$DIMAPOST
  1

  9
$DIMALT
 70
     0
  9
$DIMALTD
 70
     3
  9
$DIMALTF
 40
0.03937007874016
  9
$DIMLFAC
 40
1.0
  9
$DIMTOFL
 70
     1
  9
$DIMTVP
 40
0.0
  9
$DIMTIX
 70
     0
  9
$DIMSOXD
 70
     0
  9
$DIMSAH
 70
     0
  9
$DIMBLK1
  1

  9
$DIMBLK2
  1

  9
$DIMSTYLE
  2
ISO-25
  9
$DIMCLRD
 70
     0
  9
$DIMCLRE
 70
     0
  9
$DIMCLRT
 70
     0
  9
$DIMTFAC
 40
1.0
  9
$DIMGAP
 40
0.625
  9
$DIMJUST
 70
     0
  9
$DIMSD1
 70
     0
  9
$DIMSD2
 70
     0
  9
$DIMTOLJ
 70
     0
  9
$DIMTZIN
 70
     8
  9
$DIMALTZ
 70
     0
  9
$DIMALTTZ
 70
     0
  9
$DIMUPT
 70
     0
  9
$DIMDEC
 70
     2
  9
$DIMTDEC
 70
     2
  9
$DIMALTU
 70
     2
  9
$DIMALTTD
 70
     3
  9
$DIMTXSTY
  7
Standard
  9
$DIMAUNIT
 70
     0
  9
$DIMADEC
 70
     0
  9
$DIMALTRND
 40
0.0
  9
$DIMAZIN
 70
     0
  9
$DIMDSEP
 70
    44
  9
$DIMATFIT
 70
     3
  9
$DIMFRAC
 70
     0
  9
$DIMLDRBLK
  1

  9
$DIMLUNIT
 70
     2
  9
$DIMLWD
 70
    -2
  9
$DIMLWE
 70
    -2
  9
$DIMTMOVE
 70
     0
  9
$DIMFXL
 40
1.0
  9
$DIMFXLON
 70
     0
  9
$DIMJOGANG
 40
0.7853981633974483
  9
$DIMTFILL
 70
     0
  9
$DIMTFILLCLR
 70
     0
  9
$DIMARCSYM
 70
     0
  9
$DIMLTYPE
  6

  9
$DIMLTEX1
  6

  9
$DIMLTEX2
  6

  9
$DIMTXTDIRECTION
 70
     0
  9
$LUNITS
 70
     2
  9
$LUPREC
 70
     4
  9
$SKETCHINC
 40
1.0
  9
$FILLETRAD
 40
10.0
  9
$AUNITS
 70
     0
  9
$AUPREC
 70
     0
  9
$MENU
  1
.
  9
$ELEVATION
 40
0.0
  9
$PELEVATION
 40
0.0
  9
$THICKNESS
 40
0.0
  9
$LIMCHECK
 70
     0
  9
$CHAMFERA
 40
0.0
  9
$CHAMFERB
 40
0.0
  9
$CHAMFERC
 40
0.0
  9
$CHAMFERD
 40
0.0
  9
$SKPOLY
 70
     0
  9
$TDCREATE
 40
2459992.709123368
  9
$TDUCREATE
 40
2459992.334123368
  9
$TDUPDATE
 40
2459992.709123553
  9
$TDUUPDATE
 40
2459992.334123553
  9
$TDINDWG
 40
0.0000000116
  9
$TDUSRTIMER
 40
0.0000000116
  9
$USRTIMER
 70
     1
  9
$ANGBASE
 50
0.0
  9
$ANGDIR
 70
     0
  9
$PDMODE
 70
     0
  9
$PDSIZE
 40
0.0
  9
$PLINEWID
 40
0.0
  9
$SPLFRAME
 70
     0
  9
$SPLINETYPE
 70
     6
  9
$SPLINESEGS
 70
     8
  9
$HANDSEED
  5
448
  9
$SURFTAB1
 70
     6
  9
$SURFTAB2
 70
     6
  9
$SURFTYPE
 70
     6
  9
$SURFU
 70
     6
  9
$SURFV
 70
     6
  9
$UCSBASE
  2

  9
$UCSNAME
  2

  9
$UCSORG
 10
0.0
 20
0.0
 30
0.0
  9
$UCSXDIR
 10
1.0
 20
0.0
 30
0.0
  9
$UCSYDIR
 10
0.0
 20
1.0
 30
0.0
  9
$UCSORTHOREF
  2

  9
$UCSORTHOVIEW
 70
     0
  9
$UCSORGTOP
 10
0.0
 20
0.0
 30
0.0
  9
$UCSORGBOTTOM
 10
0.0
 20
0.0
 30
0.0
  9
$UCSORGLEFT
 10
0.0
 20
0.0
 30
0.0
  9
$UCSORGRIGHT
 10
0.0
 20
0.0
 30
0.0
  9
$UCSORGFRONT
 10
0.0
 20
0.0
 30
0.0
  9
$UCSORGBACK
 10
0.0
 20
0.0
 30
0.0
  9
$PUCSBASE
  2

  9
$PUCSNAME
  2

  9
$PUCSORG
 10
0.0
 20
0.0
 30
0.0
  9
$PUCSXDIR
 10
1.0
 20
0.0
 30
0.0
  9
$PUCSYDIR
 10
0.0
 20
1.0
 30
0.0
  9
$PUCSORTHOREF
  2

  9
$PUCSORTHOVIEW
 70
     0
  9
$PUCSORGTOP
 10
0.0
 20
0.0
 30
0.0
  9
$PUCSORGBOTTOM
 10
0.0
 20
0.0
 30
0.0
  9
$PUCSORGLEFT
 10
0.0
 20
0.0
 30
0.0
  9
$PUCSORGRIGHT
 10
0.0
 20
0.0
 30
0.0
  9
$PUCSORGFRONT
 10
0.0
 20
0.0
 30
0.0
  9
$PUCSORGBACK
 10
0.0
 20
0.0
 30
0.0
  9
$USERI1
 70
     0
  9
$USERI2
 70
     0
  9
$USERI3
 70
     0
  9
$USERI4
 70
     0
  9
$USERI5
 70
     0
  9
$USERR1
 40
0.0
  9
$USERR2
 40
0.0
  9
$USERR3
 40
0.0
  9
$USERR4
 40
0.0
  9
$USERR5
 40
0.0
  9
$WORLDVIEW
 70
     1
  9
$SHADEDGE
 70
     3
  9
$SHADEDIF
 70
    70
  9
$TILEMODE
 70
     1
  9
$MAXACTVP
 70
    64
  9
$PINSBASE
 10
0.0
 20
0.0
 30
0.0
  9
$PLIMCHECK
 70
     0
  9
$PEXTMIN
 10
1.000000000000000E+20
 20
1.000000000000000E+20
 30
1.000000000000000E+20
  9
$PEXTMAX
 10
-1.000000000000000E+20
 20
-1.000000000000000E+20
 30
-1.000000000000000E+20
  9
$PLIMMIN
 10
0.0
 20
0.0
  9
$PLIMMAX
 10
420.0
 20
297.0
  9
$UNITMODE
 70
     0
  9
$VISRETAIN
 70
     1
  9
$PLINEGEN
 70
     0
  9
$PSLTSCALE
 70
     1
  9
$TREEDEPTH
 70
  3020
  9
$CMLSTYLE
  2
Standard
  9
$CMLJUST
 70
     0
  9
$CMLSCALE
 40
20.0
  9
$PROXYGRAPHICS
 70
     1
  9
$MEASUREMENT
 70
     1
  9
$CELWEIGHT
370
    -1
  9
$ENDCAPS
280
     0
  9
$JOINSTYLE
280
     0
  9
$LWDISPLAY
290
     0
  9
$INSUNITS
 70
     4
  9
$HYPERLINKBASE
  1

  9
$STYLESHEET
  1

  9
$XEDIT
290
     1
  9
$CEPSNTYPE
380
     0
  9
$PSTYLEMODE
290
     1
  9
$FINGERPRINTGUID
  2
{181ccf3e-2b60-4312-8249-6d586cc727e2}
  9
$VERSIONGUID
  2
{FAEB1C32-E019-11D5-929B-00C0DF256EC4}
  9
$EXTNAMES
290
     1
  9
$PSVPSCALE
 40
0.0
  9
$OLESTARTUP
290
     0
  9
$SORTENTS
280
   127
  9
$INDEXCTL
280
     0
  9
$HIDETEXT
280
     1
  9
$XCLIPFRAME
280
     2
  9
$HALOGAP
280
     0
  9
$OBSCOLOR
 70
   257
  9
$OBSLTYPE
280
     0
  9
$INTERSECTIONDISPLAY
280
     0
  9
$INTERSECTIONCOLOR
 70
   257
  9
$DIMASSOC
280
     2
  9
$PROJECTNAME
  1

  9
$CAMERADISPLAY
290
     0
  9
$LENSLENGTH
 40
50.0
  9
$CAMERAHEIGHT
 40
0.0
  9
$STEPSPERSEC
 40
2.0
  9
$STEPSIZE
 40
6.0
  9
$3DDWFPREC
 40
2.0
  9
$PSOLWIDTH
 40
5.0
  9
$PSOLHEIGHT
 40
80.0
  9
$LOFTANG1
 40
1.570796326794897
  9
$LOFTANG2
 40
1.570796326794897
  9
$LOFTMAG1
 40
0.0
  9
$LOFTMAG2
 40
0.0
  9
$LOFTPARAM
 70
     7
  9
$LOFTNORMALS
280
     1
  9
$LATITUDE
 40
37.795
  9
$LONGITUDE
 40
-122.394
  9
$NORTHDIRECTION
 40
0.0
  9
$TIMEZONE
 70
 -8000
  9
$LIGHTGLYPHDISPLAY
280
     1
  9
$TILEMODELIGHTSYNCH
280
     1
  9
$CMATERIAL
347
44
  9
$SOLIDHIST
280
     0
  9
$SHOWHIST
280
     1
  9
$DWFFRAME
280
     2
  9
$DGNFRAME
280
     2
  9
$REALWORLDSCALE
290
     1
  9
$INTERFERECOLOR
 62
   256
  9
$CSHADOW
280
     0
  9
$SHADOWPLANELOCATION
 40
0.0
  0
ENDSEC
  0
SECTION
  2
CLASSES
  0
CLASS
  1
ACDBDICTIONARYWDFLT
  2
AcDbDictionaryWithDefault
  3
ObjectDBX Classes
 90
        0
 91
        3
280
     0
281
     0
  0
CLASS
  1
VISUALSTYLE
  2
AcDbVisualStyle
  3
ObjectDBX Classes
 90
     4095
 91
        3
280
     0
281
     0
  0
CLASS
  1
MATERIAL
  2
AcDbMaterial
  3
ObjectDBX Classes
 90
     1153
 91
        3
280
     0
281
     0
  0
CLASS
  1
SCALE
  2
AcDbScale
  3
ObjectDBX Classes
 90
     1153
 91
        3
280
     0
281
     0
  0
CLASS
  1
TABLESTYLE
  2
AcDbTableStyle
  3
ObjectDBX Classes
 90
     4095
 91
        3
280
     0
281
     0
  0
CLASS
  1
MLEADERSTYLE
  2
AcDbMLeaderStyle
  3
ACDB_MLEADERSTYLE_CLASS
 90
     4095
 91
        3
280
     0
281
     0
  0
CLASS
  1
SUN
  2
AcDbSun
  3
SCENEOE
 90
     1153
 91
        3
280
     0
281
     0
  0
CLASS
  1
DICTIONARYVAR
  2
AcDbDictionaryVar
  3
ObjectDBX Classes
 90
        0
 91
        3
280
     0
281
     0
  0
CLASS
  1
CELLSTYLEMAP
  2
AcDbCellStyleMap
  3
ObjectDBX Classes
 90
     1152
 91
        3
280
     0
281
     0
  0
ENDSEC
  0
SECTION
  2
TABLES
  0
TABLE
  2
VPORT
  5
8
330
0
100
AcDbSymbolTable
 70
     1
  0
VPORT
  5
29
330
8
100
AcDbSymbolTableRecord
100
AcDbViewportTableRecord
  2
*Active
 70
     0
 10
0.0
 20
0.0
 11
1.0
 21
1.0
 12
0.0
 22
0.0
 13
0.0
 23
0.0
 14
10.0
 24
10.0
 15
10.0
 25
10.0
 16
0.0
 26
0.0
 36
1.0
 17
0.0
 27
0.0
 37
0.0
 40
3267.0
 41
1.414141414141414
 42
50.0
 43
0.0
 44
0.0
 50
0.0
 51
0.0
 71
     0
 72
 10000
 73
     1
 74
     3
 75
     0
 76
     0
 77
     0
 78
     0
281
     0
 65
     1
110
0.0
120
0.0
130
0.0
111
1.0
121
0.0
131
0.0
112
0.0
122
1.0
132
0.0
 79
     0
146
0.0
348
2F
 60
     3
 61
     5
292
     1
282
     1
141
0.0
142
0.0
 63
   250
361
6D
  0
ENDTAB
  0
TABLE
  2
LTYPE
  5
5
330
0
100
AcDbSymbolTable
 70
     4
  0
LTYPE
  5
14
330
5
100
AcDbSymbolTableRecord
100
AcDbLinetypeTableRecord
  2
ByBlock
 70
     0
  3

 72
    65
 73
     0
 40
0.0
  0
LTYPE
  5
15
330
5
100
AcDbSymbolTableRecord
100
AcDbLinetypeTableRecord
  2
ByLayer
 70
     0
  3

 72
    65
 73
     0
 40
0.0
  0
LTYPE
  5
16
330
5
100
AcDbSymbolTableRecord
100
AcDbLinetypeTableRecord
  2
Continuous
 70
     0
  3
Solid line
 72
    65
 73
     0
 40
0.0
  0
LTYPE
  5
6F
330
5
100
AcDbSymbolTableRecord
100
AcDbLinetypeTableRecord
  2
JWW_CENTER2
 70
     0
  3
-------------  --  -------------
 72
    65
 73
     4
 40
13.54666666666667
 49
11.00666666666667
 74
     0
 49
-0.8466666666666667
 74
     0
 49
0.8466666666666667
 74
     0
 49
-0.8466666666666667
 74
     0
  0
LTYPE
  5
70
330
5
100
AcDbSymbolTableRecord
100
AcDbLinetypeTableRecord
  2
JWW_DASHED1
 70
     0
  3
-  --  --  --  --  --  --  --  -
 72
    65
 73
    12
 40
10.16
 49
0.8466666666666667
 74
     0
 49
-0.8466666666666667
 74
     0
 49
0.8466666666666667
 74
     0
 49
-0.8466666666666667
 74
     0
 49
0.8466666666666667
 74
     0
 49
-0.8466666666666667
 74
     0
 49
0.8466666666666667
 74
     0
 49
-0.8466666666666667
 74
     0
 49
0.8466666666666667
 74
     0
 49
-0.8466666666666667
 74
     0
 49
0.8466666666666667
 74
     0
 49
-0.8466666666666667
 74
     0
  0
LTYPE
  5
71
330
5
100
AcDbSymbolTableRecord
100
AcDbLinetypeTableRecord
  2
JWW_PHANTOM1
 70
     0
  3
----  -  -  --------  -  -  ----
 72
    65
 73
    12
 40
13.54666666666667
 49
3.386666666666667
 74
     0
 49
-0.8466666666666667
 74
     0
 49
0.4233333333333333
 74
     0
 49
-0.8466666666666667
 74
     0
 49
0.4233333333333333
 74
     0
 49
-0.8466666666666667
 74
     0
 49
3.386666666666667
 74
     0
 49
-0.8466666666666667
 74
     0
 49
0.4233333333333333
 74
     0
 49
-0.8466666666666667
 74
     0
 49
0.4233333333333333
 74
     0
 49
-0.8466666666666667
 74
     0
  0
ENDTAB
  0
TABLE
  2
LAYER
  5
2
330
0
100
AcDbSymbolTable
 70
     7
  0
LAYER
  5
10
330
2
100
AcDbSymbolTableRecord
100
AcDbLayerTableRecord
  2
0
 70
     0
 62
     7
  6
Continuous
370
    -3
390
F
347
46
348
0
  0
LAYER
  5
72
330
2
100
AcDbSymbolTableRecord
100
AcDbLayerTableRecord
  2
通り芯
 70
     0
 62
     7
  6
Continuous
370
    -3
390
F
347
46
348
0
  0
LAYER
  5
73
330
2
100
AcDbSymbolTableRecord
100
AcDbLayerTableRecord
  2
寸法
 70
     0
 62
     7
  6
Continuous
370
    -3
390
F
347
46
348
0
  0
LAYER
  5
74
330
2
100
AcDbSymbolTableRecord
100
AcDbLayerTableRecord
  2
その他
 70
     0
 62
     7
  6
Continuous
370
    -3
390
F
347
46
348
0
  0
LAYER
  5
75
330
2
100
AcDbSymbolTableRecord
100
AcDbLayerTableRecord
  2
0-E
 70
     0
 62
     7
  6
Continuous
370
    -3
390
F
347
46
348
0
  0
LAYER
  5
76
330
2
100
AcDbSymbolTableRecord
100
AcDbLayerTableRecord
  2
建具
 70
     0
 62
     7
  6
Continuous
370
    -3
390
F
347
46
348
0
  0
LAYER
  5
77
330
2
100
AcDbSymbolTableRecord
100
AcDbLayerTableRecord
  2
仕上
 70
     0
 62
     7
  6
Continuous
370
    -3
390
F
347
46
348
0
  0
ENDTAB
  0
TABLE
  2
STYLE
  5
3
330
0
100
AcDbSymbolTable
 70
     2
  0
STYLE
  5
11
330
3
100
AcDbSymbolTableRecord
100
AcDbTextStyleTableRecord
  2
Standard
 70
     0
 40
0.0
 41
1.0
 50
0.0
 71
     0
 42
2.5
  3
txt
  4

  0
STYLE
  5
6E
330
3
100
AcDbSymbolTableRecord
100
AcDbTextStyleTableRecord
  2
ＭＳ ゴシック
 70
     0
 40
0.0
 41
1.0
 50
0.0
 71
     0
 42
2.5
  3
msgothic.ttc
  4

1001
ACAD
1000
MS Gothic
1071
    32817
  0
ENDTAB
  0
TABLE
  2
VIEW
  5
6
330
0
100
AcDbSymbolTable
 70
     0
  0
ENDTAB
  0
TABLE
  2
UCS
  5
7
330
0
100
AcDbSymbolTable
 70
     0
  0
ENDTAB
  0
TABLE
  2
APPID
  5
9
330
0
100
AcDbSymbolTable
 70
     1
  0
APPID
  5
12
330
9
100
AcDbSymbolTableRecord
100
AcDbRegAppTableRecord
  2
ACAD
 70
     0
  0
ENDTAB
  0
TABLE
  2
DIMSTYLE
  5
A
330
0
100
AcDbSymbolTable
 70
     2
100
AcDbDimStyleTable
  0
DIMSTYLE
105
27
330
A
100
AcDbSymbolTableRecord
100
AcDbDimStyleTableRecord
  2
ISO-25
 70
     0
 41
2.5
 42
0.625
 43
3.75
 44
1.25
 73
     0
 74
     0
 77
     1
 78
     8
140
2.5
141
2.5
143
0.03937007874016
147
0.625
171
     3
172
     1
178
     0
271
     2
272
     2
274
     3
278
    44
283
     0
284
     8
340
11
  0
DIMSTYLE
105
96
330
A
100
AcDbSymbolTableRecord
100
AcDbDimStyleTableRecord
  2
JWAC_DIMSTYLE
 70
     0
  3
x
  4
mm
 41
0.0
 42
0.625
 43
3.75
 44
1.25
 73
     0
 74
     0
 75
     1
 76
     1
 77
     1
 78
     8
140
2.5
141
2.5
143
0.03937007874016
147
0.625
171
     3
172
     1
173
     1
178
     0
271
     2
272
     2
274
     3
278
    32
283
     0
284
     8
340
11
371
     0
372
     0
  0
ENDTAB
  0
TABLE
  2
BLOCK_RECORD
  5
1
330
0
100
AcDbSymbolTable
 70
    11
  0
BLOCK_RECORD
  5
1F
330
1
100
AcDbSymbolTableRecord
100
AcDbBlockTableRecord
  2
*Model_Space
340
22
 70
     0
280
     1
281
     0
  0
BLOCK_RECORD
  5
1B
330
1
100
AcDbSymbolTableRecord
100
AcDbBlockTableRecord
  2
*Paper_Space
340
1E
 70
     0
280
     1
281
     0
  0
BLOCK_RECORD
  5
23
330
1
100
AcDbSymbolTableRecord
100
AcDbBlockTableRecord
  2
*Paper_Space0
340
26
 70
     0
280
     1
281
     0
  0
BLOCK_RECORD
  5
78
330
1
100
AcDbSymbolTableRecord
100
AcDbBlockTableRecord
  2
SW_CENTERMARKSYMBOL_37@@SfigorgFlag@@4_0-3_
340
0
102
{BLKREFS
331
197
102
}
 70
     0
280
     1
281
     0
  0
BLOCK_RECORD
  5
7B
330
1
100
AcDbSymbolTableRecord
100
AcDbBlockTableRecord
  2
SW_CENTERMARKSYMBOL_39@@SfigorgFlag@@4_0-3_
340
0
102
{BLKREFS
331
198
102
}
 70
     0
280
     1
281
     0
  0
BLOCK_RECORD
  5
7E
330
1
100
AcDbSymbolTableRecord
100
AcDbBlockTableRecord
  2
SW_CENTERMARKSYMBOL_36@@SfigorgFlag@@4_0-3_
340
0
102
{BLKREFS
331
199
102
}
 70
     0
280
     1
281
     0
  0
BLOCK_RECORD
  5
81
330
1
100
AcDbSymbolTableRecord
100
AcDbBlockTableRecord
  2
SW_CENTERMARKSYMBOL_38@@SfigorgFlag@@4_0-3_
340
0
102
{BLKREFS
331
19A
102
}
 70
     0
280
     1
281
     0
  0
BLOCK_RECORD
  5
84
330
1
100
AcDbSymbolTableRecord
100
AcDbBlockTableRecord
  2
SW_CENTERMARKSYMBOL_13@@SfigorgFlag@@4_0-3_
340
0
102
{BLKREFS
331
223
102
}
 70
     0
280
     1
281
     0
  0
BLOCK_RECORD
  5
87
330
1
100
AcDbSymbolTableRecord
100
AcDbBlockTableRecord
  2
SW_CENTERMARKSYMBOL_12@@SfigorgFlag@@4_0-3_
340
0
102
{BLKREFS
331
224
102
}
 70
     0
280
     1
281
     0
  0
BLOCK_RECORD
  5
8A
330
1
100
AcDbSymbolTableRecord
100
AcDbBlockTableRecord
  2
SW_CENTERMARKSYMBOL_11@@SfigorgFlag@@4_0-3_
340
0
102
{BLKREFS
331
225
102
}
 70
     0
280
     1
281
     0
  0
BLOCK_RECORD
  5
8D
330
1
100
AcDbSymbolTableRecord
100
AcDbBlockTableRecord
  2
SW_CENTERMARKSYMBOL_10@@SfigorgFlag@@4_0-3_
340
0
102
{BLKREFS
331
226
102
}
 70
     0
280
     1
281
     0
  0
BLOCK_RECORD
  5
90
330
1
100
AcDbSymbolTableRecord
100
AcDbBlockTableRecord
  2
SW_CENTERMARKSYMBOL_8@@SfigorgFlag@@4_0-3_
340
0
102
{BLKREFS
331
274
102
}
 70
     0
280
     1
281
     0
  0
BLOCK_RECORD
  5
93
330
1
100
AcDbSymbolTableRecord
100
AcDbBlockTableRecord
  2
SW_CENTERMARKSYMBOL_9@@SfigorgFlag@@4_0-3_
340
0
102
{BLKREFS
331
275
102
}
 70
     0
280
     1
281
     0
  0
ENDTAB
  0
ENDSEC
  0
SECTION
  2
BLOCKS
  0
BLOCK
  5
20
330
1F
100
AcDbEntity
  8
0
100
AcDbBlockBegin
  2
*Model_Space
 70
     0
 10
0.0
 20
0.0
 30
0.0
  3
*Model_Space
  1

  0
ENDBLK
  5
21
330
1F
100
AcDbEntity
  8
0
100
AcDbBlockEnd
  0
BLOCK
  5
1C
330
1B
100
AcDbEntity
 67
     1
  8
0
100
AcDbBlockBegin
  2
*Paper_Space
 70
     0
 10
0.0
 20
0.0
 30
0.0
  3
*Paper_Space
  1

  0
ENDBLK
  5
1D
330
1B
100
AcDbEntity
 67
     1
  8
0
100
AcDbBlockEnd
  0
BLOCK
  5
24
330
23
100
AcDbEntity
  8
0
100
AcDbBlockBegin
  2
*Paper_Space0
 70
     0
 10
0.0
 20
0.0
 30
0.0
  3
*Paper_Space0
  1

  0
ENDBLK
  5
25
330
23
100
AcDbEntity
  8
0
100
AcDbBlockEnd
  0
BLOCK
  5
79
330
78
100
AcDbEntity
  8
0
100
AcDbBlockBegin
  2
SW_CENTERMARKSYMBOL_37@@SfigorgFlag@@4_0-3_
 70
     0
 10
0.0
 20
0.0
 30
0.0
  3
SW_CENTERMARKSYMBOL_37@@SfigorgFlag@@4_0-3_
  1

  0
LINE
  5
3ED
330
78
100
AcDbEntity
  8
建具
  6
Continuous
 62
     7
370
     9
100
AcDbLine
 10
0.0
 20
0.0
 30
0.0
 11
0.0
 21
2.5
 31
0.0
  0
LINE
  5
3EE
330
78
100
AcDbEntity
  8
建具
  6
Continuous
 62
     7
370
     9
100
AcDbLine
 10
0.0
 20
0.0
 30
0.0
 11
-2.5
 21
0.0
 31
0.0
  0
LINE
  5
3EF
330
78
100
AcDbEntity
  8
建具
  6
Continuous
 62
     7
370
     9
100
AcDbLine
 10
0.0
 20
0.0
 30
0.0
 11
0.0
 21
-2.5
 31
0.0
  0
LINE
  5
3F0
330
78
100
AcDbEntity
  8
建具
  6
Continuous
 62
     7
370
     9
100
AcDbLine
 10
0.0
 20
0.0
 30
0.0
 11
2.5
 21
0.0
 31
0.0
  0
LINE
  5
3F1
330
78
100
AcDbEntity
  8
建具
  6
Continuous
 62
     7
370
     9
100
AcDbLine
 10
0.0
 20
5.0
 30
0.0
 11
0.0
 21
7.7
 31
0.0
  0
LINE
  5
3F2
330
78
100
AcDbEntity
  8
建具
  6
Continuous
 62
     7
370
     9
100
AcDbLine
 10
-5.0
 20
0.0
 30
0.0
 11
-7.7
 21
0.0
 31
0.0
  0
LINE
  5
3F3
330
78
100
AcDbEntity
  8
建具
  6
Continuous
 62
     7
370
     9
100
AcDbLine
 10
0.0
 20
-5.0
 30
0.0
 11
0.0
 21
-7.7
 31
0.0
  0
LINE
  5
3F4
330
78
100
AcDbEntity
  8
建具
  6
Continuous
 62
     7
370
     9
100
AcDbLine
 10
5.0
 20
0.0
 30
0.0
 11
7.7
 21
0.0
 31
0.0
  0
ENDBLK
  5
7A
330
78
100
AcDbEntity
  8
0
100
AcDbBlockEnd
  0
BLOCK
  5
7C
330
7B
100
AcDbEntity
  8
0
100
AcDbBlockBegin
  2
SW_CENTERMARKSYMBOL_39@@SfigorgFlag@@4_0-3_
 70
     0
 10
0.0
 20
0.0
 30
0.0
  3
SW_CENTERMARKSYMBOL_39@@SfigorgFlag@@4_0-3_
  1

  0
LINE
  5
3F5
330
7B
100
AcDbEntity
  8
建具
  6
Continuous
 62
     7
370
     9
100
AcDbLine
 10
0.0
 20
0.0
 30
0.0
 11
0.0
 21
2.5
 31
0.0
  0
LINE
  5
3F6
330
7B
100
AcDbEntity
  8
建具
  6
Continuous
 62
     7
370
     9
100
AcDbLine
 10
0.0
 20
0.0
 30
0.0
 11
-2.5
 21
0.0
 31
0.0
  0
LINE
  5
3F7
330
7B
100
AcDbEntity
  8
建具
  6
Continuous
 62
     7
370
     9
100
AcDbLine
 10
0.0
 20
0.0
 30
0.0
 11
0.0
 21
-2.5
 31
0.0
  0
LINE
  5
3F8
330
7B
100
AcDbEntity
  8
建具
  6
Continuous
 62
     7
370
     9
100
AcDbLine
 10
0.0
 20
0.0
 30
0.0
 11
2.5
 21
0.0
 31
0.0
  0
LINE
  5
3F9
330
7B
100
AcDbEntity
  8
建具
  6
Continuous
 62
     7
370
     9
100
AcDbLine
 10
0.0
 20
5.0
 30
0.0
 11
0.0
 21
7.7
 31
0.0
  0
LINE
  5
3FA
330
7B
100
AcDbEntity
  8
建具
  6
Continuous
 62
     7
370
     9
100
AcDbLine
 10
-5.0
 20
0.0
 30
0.0
 11
-7.7
 21
0.0
 31
0.0
  0
LINE
  5
3FB
330
7B
100
AcDbEntity
  8
建具
  6
Continuous
 62
     7
370
     9
100
AcDbLine
 10
0.0
 20
-5.0
 30
0.0
 11
0.0
 21
-7.7
 31
0.0
  0
LINE
  5
3FC
330
7B
100
AcDbEntity
  8
建具
  6
Continuous
 62
     7
370
     9
100
AcDbLine
 10
5.0
 20
0.0
 30
0.0
 11
7.7
 21
0.0
 31
0.0
  0
ENDBLK
  5
7D
330
7B
100
AcDbEntity
  8
0
100
AcDbBlockEnd
  0
BLOCK
  5
7F
330
7E
100
AcDbEntity
  8
0
100
AcDbBlockBegin
  2
SW_CENTERMARKSYMBOL_36@@SfigorgFlag@@4_0-3_
 70
     0
 10
0.0
 20
0.0
 30
0.0
  3
SW_CENTERMARKSYMBOL_36@@SfigorgFlag@@4_0-3_
  1

  0
LINE
  5
3FD
330
7E
100
AcDbEntity
  8
建具
  6
Continuous
 62
     7
370
     9
100
AcDbLine
 10
0.0
 20
0.0
 30
0.0
 11
0.0
 21
2.5
 31
0.0
  0
LINE
  5
3FE
330
7E
100
AcDbEntity
  8
建具
  6
Continuous
 62
     7
370
     9
100
AcDbLine
 10
0.0
 20
0.0
 30
0.0
 11
-2.5
 21
0.0
 31
0.0
  0
LINE
  5
3FF
330
7E
100
AcDbEntity
  8
建具
  6
Continuous
 62
     7
370
     9
100
AcDbLine
 10
0.0
 20
0.0
 30
0.0
 11
0.0
 21
-2.5
 31
0.0
  0
LINE
  5
400
330
7E
100
AcDbEntity
  8
建具
  6
Continuous
 62
     7
370
     9
100
AcDbLine
 10
0.0
 20
0.0
 30
0.0
 11
2.5
 21
0.0
 31
0.0
  0
LINE
  5
401
330
7E
100
AcDbEntity
  8
建具
  6
Continuous
 62
     7
370
     9
100
AcDbLine
 10
0.0
 20
5.0
 30
0.0
 11
0.0
 21
7.7
 31
0.0
  0
LINE
  5
402
330
7E
100
AcDbEntity
  8
建具
  6
Continuous
 62
     7
370
     9
100
AcDbLine
 10
-5.0
 20
0.0
 30
0.0
 11
-7.7
 21
0.0
 31
0.0
  0
LINE
  5
403
330
7E
100
AcDbEntity
  8
建具
  6
Continuous
 62
     7
370
     9
100
AcDbLine
 10
0.0
 20
-5.0
 30
0.0
 11
0.0
 21
-7.7
 31
0.0
  0
LINE
  5
404
330
7E
100
AcDbEntity
  8
建具
  6
Continuous
 62
     7
370
     9
100
AcDbLine
 10
5.0
 20
0.0
 30
0.0
 11
7.7
 21
0.0
 31
0.0
  0
ENDBLK
  5
80
330
7E
100
AcDbEntity
  8
0
100
AcDbBlockEnd
  0
BLOCK
  5
82
330
81
100
AcDbEntity
  8
0
100
AcDbBlockBegin
  2
SW_CENTERMARKSYMBOL_38@@SfigorgFlag@@4_0-3_
 70
     0
 10
0.0
 20
0.0
 30
0.0
  3
SW_CENTERMARKSYMBOL_38@@SfigorgFlag@@4_0-3_
  1

  0
LINE
  5
405
330
81
100
AcDbEntity
  8
建具
  6
Continuous
 62
     7
370
     9
100
AcDbLine
 10
0.0
 20
0.0
 30
0.0
 11
0.0
 21
2.5
 31
0.0
  0
LINE
  5
406
330
81
100
AcDbEntity
  8
建具
  6
Continuous
 62
     7
370
     9
100
AcDbLine
 10
0.0
 20
0.0
 30
0.0
 11
-2.5
 21
0.0
 31
0.0
  0
LINE
  5
407
330
81
100
AcDbEntity
  8
建具
  6
Continuous
 62
     7
370
     9
100
AcDbLine
 10
0.0
 20
0.0
 30
0.0
 11
0.0
 21
-2.5
 31
0.0
  0
LINE
  5
408
330
81
100
AcDbEntity
  8
建具
  6
Continuous
 62
     7
370
     9
100
AcDbLine
 10
0.0
 20
0.0
 30
0.0
 11
2.5
 21
0.0
 31
0.0
  0
LINE
  5
409
330
81
100
AcDbEntity
  8
建具
  6
Continuous
 62
     7
370
     9
100
AcDbLine
 10
0.0
 20
5.0
 30
0.0
 11
0.0
 21
7.7
 31
0.0
  0
LINE
  5
40A
330
81
100
AcDbEntity
  8
建具
  6
Continuous
 62
     7
370
     9
100
AcDbLine
 10
-5.0
 20
0.0
 30
0.0
 11
-7.7
 21
0.0
 31
0.0
  0
LINE
  5
40B
330
81
100
AcDbEntity
  8
建具
  6
Continuous
 62
     7
370
     9
100
AcDbLine
 10
0.0
 20
-5.0
 30
0.0
 11
0.0
 21
-7.7
 31
0.0
  0
LINE
  5
40C
330
81
100
AcDbEntity
  8
建具
  6
Continuous
 62
     7
370
     9
100
AcDbLine
 10
5.0
 20
0.0
 30
0.0
 11
7.7
 21
0.0
 31
0.0
  0
ENDBLK
  5
83
330
81
100
AcDbEntity
  8
0
100
AcDbBlockEnd
  0
BLOCK
  5
85
330
84
100
AcDbEntity
  8
0
100
AcDbBlockBegin
  2
SW_CENTERMARKSYMBOL_13@@SfigorgFlag@@4_0-3_
 70
     0
 10
0.0
 20
0.0
 30
0.0
  3
SW_CENTERMARKSYMBOL_13@@SfigorgFlag@@4_0-3_
  1

  0
LINE
  5
40D
330
84
100
AcDbEntity
  8
建具
  6
Continuous
 62
     7
370
     9
100
AcDbLine
 10
0.0
 20
0.0
 30
0.0
 11
0.0
 21
2.5
 31
0.0
  0
LINE
  5
40E
330
84
100
AcDbEntity
  8
建具
  6
Continuous
 62
     7
370
     9
100
AcDbLine
 10
0.0
 20
0.0
 30
0.0
 11
-2.5
 21
0.0
 31
0.0
  0
LINE
  5
40F
330
84
100
AcDbEntity
  8
建具
  6
Continuous
 62
     7
370
     9
100
AcDbLine
 10
0.0
 20
0.0
 30
0.0
 11
0.0
 21
-2.5
 31
0.0
  0
LINE
  5
410
330
84
100
AcDbEntity
  8
建具
  6
Continuous
 62
     7
370
     9
100
AcDbLine
 10
0.0
 20
0.0
 30
0.0
 11
2.5
 21
0.0
 31
0.0
  0
LINE
  5
411
330
84
100
AcDbEntity
  8
建具
  6
Continuous
 62
     7
370
     9
100
AcDbLine
 10
0.0
 20
5.0
 30
0.0
 11
0.0
 21
10.5
 31
0.0
  0
LINE
  5
412
330
84
100
AcDbEntity
  8
建具
  6
Continuous
 62
     7
370
     9
100
AcDbLine
 10
-5.0
 20
0.0
 30
0.0
 11
-10.5
 21
0.0
 31
0.0
  0
LINE
  5
413
330
84
100
AcDbEntity
  8
建具
  6
Continuous
 62
     7
370
     9
100
AcDbLine
 10
0.0
 20
-5.0
 30
0.0
 11
0.0
 21
-10.5
 31
0.0
  0
LINE
  5
414
330
84
100
AcDbEntity
  8
建具
  6
Continuous
 62
     7
370
     9
100
AcDbLine
 10
5.0
 20
0.0
 30
0.0
 11
10.5
 21
0.0
 31
0.0
  0
ENDBLK
  5
86
330
84
100
AcDbEntity
  8
0
100
AcDbBlockEnd
  0
BLOCK
  5
88
330
87
100
AcDbEntity
  8
0
100
AcDbBlockBegin
  2
SW_CENTERMARKSYMBOL_12@@SfigorgFlag@@4_0-3_
 70
     0
 10
0.0
 20
0.0
 30
0.0
  3
SW_CENTERMARKSYMBOL_12@@SfigorgFlag@@4_0-3_
  1

  0
LINE
  5
415
330
87
100
AcDbEntity
  8
建具
  6
Continuous
 62
     7
370
     9
100
AcDbLine
 10
0.0
 20
0.0
 30
0.0
 11
0.0
 21
2.5
 31
0.0
  0
LINE
  5
416
330
87
100
AcDbEntity
  8
建具
  6
Continuous
 62
     7
370
     9
100
AcDbLine
 10
0.0
 20
0.0
 30
0.0
 11
-2.5
 21
0.0
 31
0.0
  0
LINE
  5
417
330
87
100
AcDbEntity
  8
建具
  6
Continuous
 62
     7
370
     9
100
AcDbLine
 10
0.0
 20
0.0
 30
0.0
 11
0.0
 21
-2.5
 31
0.0
  0
LINE
  5
418
330
87
100
AcDbEntity
  8
建具
  6
Continuous
 62
     7
370
     9
100
AcDbLine
 10
0.0
 20
0.0
 30
0.0
 11
2.5
 21
0.0
 31
0.0
  0
LINE
  5
419
330
87
100
AcDbEntity
  8
建具
  6
Continuous
 62
     7
370
     9
100
AcDbLine
 10
0.0
 20
5.0
 30
0.0
 11
0.0
 21
6.5
 31
0.0
  0
LINE
  5
41A
330
87
100
AcDbEntity
  8
建具
  6
Continuous
 62
     7
370
     9
100
AcDbLine
 10
-5.0
 20
0.0
 30
0.0
 11
-6.5
 21
0.0
 31
0.0
  0
LINE
  5
41B
330
87
100
AcDbEntity
  8
建具
  6
Continuous
 62
     7
370
     9
100
AcDbLine
 10
0.0
 20
-5.0
 30
0.0
 11
0.0
 21
-6.5
 31
0.0
  0
LINE
  5
41C
330
87
100
AcDbEntity
  8
建具
  6
Continuous
 62
     7
370
     9
100
AcDbLine
 10
5.0
 20
0.0
 30
0.0
 11
6.5
 21
0.0
 31
0.0
  0
ENDBLK
  5
89
330
87
100
AcDbEntity
  8
0
100
AcDbBlockEnd
  0
BLOCK
  5
8B
330
8A
100
AcDbEntity
  8
0
100
AcDbBlockBegin
  2
SW_CENTERMARKSYMBOL_11@@SfigorgFlag@@4_0-3_
 70
     0
 10
0.0
 20
0.0
 30
0.0
  3
SW_CENTERMARKSYMBOL_11@@SfigorgFlag@@4_0-3_
  1

  0
LINE
  5
41D
330
8A
100
AcDbEntity
  8
建具
  6
Continuous
 62
     7
370
     9
100
AcDbLine
 10
0.0
 20
0.0
 30
0.0
 11
0.0
 21
2.5
 31
0.0
  0
LINE
  5
41E
330
8A
100
AcDbEntity
  8
建具
  6
Continuous
 62
     7
370
     9
100
AcDbLine
 10
0.0
 20
0.0
 30
0.0
 11
-2.5
 21
0.0
 31
0.0
  0
LINE
  5
41F
330
8A
100
AcDbEntity
  8
建具
  6
Continuous
 62
     7
370
     9
100
AcDbLine
 10
0.0
 20
0.0
 30
0.0
 11
0.0
 21
-2.5
 31
0.0
  0
LINE
  5
420
330
8A
100
AcDbEntity
  8
建具
  6
Continuous
 62
     7
370
     9
100
AcDbLine
 10
0.0
 20
0.0
 30
0.0
 11
2.5
 21
0.0
 31
0.0
  0
LINE
  5
421
330
8A
100
AcDbEntity
  8
建具
  6
Continuous
 62
     7
370
     9
100
AcDbLine
 10
0.0
 20
5.0
 30
0.0
 11
0.0
 21
6.5
 31
0.0
  0
LINE
  5
422
330
8A
100
AcDbEntity
  8
建具
  6
Continuous
 62
     7
370
     9
100
AcDbLine
 10
-5.0
 20
0.0
 30
0.0
 11
-6.5
 21
0.0
 31
0.0
  0
LINE
  5
423
330
8A
100
AcDbEntity
  8
建具
  6
Continuous
 62
     7
370
     9
100
AcDbLine
 10
0.0
 20
-5.0
 30
0.0
 11
0.0
 21
-6.5
 31
0.0
  0
LINE
  5
424
330
8A
100
AcDbEntity
  8
建具
  6
Continuous
 62
     7
370
     9
100
AcDbLine
 10
5.0
 20
0.0
 30
0.0
 11
6.5
 21
0.0
 31
0.0
  0
ENDBLK
  5
8C
330
8A
100
AcDbEntity
  8
0
100
AcDbBlockEnd
  0
BLOCK
  5
8E
330
8D
100
AcDbEntity
  8
0
100
AcDbBlockBegin
  2
SW_CENTERMARKSYMBOL_10@@SfigorgFlag@@4_0-3_
 70
     0
 10
0.0
 20
0.0
 30
0.0
  3
SW_CENTERMARKSYMBOL_10@@SfigorgFlag@@4_0-3_
  1

  0
LINE
  5
425
330
8D
100
AcDbEntity
  8
建具
  6
Continuous
 62
     7
370
     9
100
AcDbLine
 10
0.0
 20
0.0
 30
0.0
 11
0.0
 21
2.5
 31
0.0
  0
LINE
  5
426
330
8D
100
AcDbEntity
  8
建具
  6
Continuous
 62
     7
370
     9
100
AcDbLine
 10
0.0
 20
0.0
 30
0.0
 11
-2.5
 21
0.0
 31
0.0
  0
LINE
  5
427
330
8D
100
AcDbEntity
  8
建具
  6
Continuous
 62
     7
370
     9
100
AcDbLine
 10
0.0
 20
0.0
 30
0.0
 11
0.0
 21
-2.5
 31
0.0
  0
LINE
  5
428
330
8D
100
AcDbEntity
  8
建具
  6
Continuous
 62
     7
370
     9
100
AcDbLine
 10
0.0
 20
0.0
 30
0.0
 11
2.5
 21
0.0
 31
0.0
  0
LINE
  5
429
330
8D
100
AcDbEntity
  8
建具
  6
Continuous
 62
     7
370
     9
100
AcDbLine
 10
0.0
 20
5.0
 30
0.0
 11
0.0
 21
10.5
 31
0.0
  0
LINE
  5
42A
330
8D
100
AcDbEntity
  8
建具
  6
Continuous
 62
     7
370
     9
100
AcDbLine
 10
-5.0
 20
0.0
 30
0.0
 11
-10.5
 21
0.0
 31
0.0
  0
LINE
  5
42B
330
8D
100
AcDbEntity
  8
建具
  6
Continuous
 62
     7
370
     9
100
AcDbLine
 10
0.0
 20
-5.0
 30
0.0
 11
0.0
 21
-10.5
 31
0.0
  0
LINE
  5
42C
330
8D
100
AcDbEntity
  8
建具
  6
Continuous
 62
     7
370
     9
100
AcDbLine
 10
5.0
 20
0.0
 30
0.0
 11
10.5
 21
0.0
 31
0.0
  0
ENDBLK
  5
8F
330
8D
100
AcDbEntity
  8
0
100
AcDbBlockEnd
  0
BLOCK
  5
91
330
90
100
AcDbEntity
  8
0
100
AcDbBlockBegin
  2
SW_CENTERMARKSYMBOL_8@@SfigorgFlag@@4_0-3_
 70
     0
 10
0.0
 20
0.0
 30
0.0
  3
SW_CENTERMARKSYMBOL_8@@SfigorgFlag@@4_0-3_
  1

  0
LINE
  5
42D
330
90
100
AcDbEntity
  8
建具
  6
Continuous
 62
     7
370
     9
100
AcDbLine
 10
0.0
 20
0.0
 30
0.0
 11
0.0
 21
2.5
 31
0.0
  0
LINE
  5
42E
330
90
100
AcDbEntity
  8
建具
  6
Continuous
 62
     7
370
     9
100
AcDbLine
 10
0.0
 20
0.0
 30
0.0
 11
-2.5
 21
0.0
 31
0.0
  0
LINE
  5
42F
330
90
100
AcDbEntity
  8
建具
  6
Continuous
 62
     7
370
     9
100
AcDbLine
 10
0.0
 20
0.0
 30
0.0
 11
0.0
 21
-2.5
 31
0.0
  0
LINE
  5
430
330
90
100
AcDbEntity
  8
建具
  6
Continuous
 62
     7
370
     9
100
AcDbLine
 10
0.0
 20
0.0
 30
0.0
 11
2.5
 21
0.0
 31
0.0
  0
LINE
  5
431
330
90
100
AcDbEntity
  8
建具
  6
Continuous
 62
     7
370
     9
100
AcDbLine
 10
0.0
 20
5.0
 30
0.0
 11
0.0
 21
10.5
 31
0.0
  0
LINE
  5
432
330
90
100
AcDbEntity
  8
建具
  6
Continuous
 62
     7
370
     9
100
AcDbLine
 10
-5.0
 20
0.0
 30
0.0
 11
-10.5
 21
0.0
 31
0.0
  0
LINE
  5
433
330
90
100
AcDbEntity
  8
建具
  6
Continuous
 62
     7
370
     9
100
AcDbLine
 10
0.0
 20
-5.0
 30
0.0
 11
0.0
 21
-10.5
 31
0.0
  0
LINE
  5
434
330
90
100
AcDbEntity
  8
建具
  6
Continuous
 62
     7
370
     9
100
AcDbLine
 10
5.0
 20
0.0
 30
0.0
 11
10.5
 21
0.0
 31
0.0
  0
ENDBLK
  5
92
330
90
100
AcDbEntity
  8
0
100
AcDbBlockEnd
  0
BLOCK
  5
94
330
93
100
AcDbEntity
  8
0
100
AcDbBlockBegin
  2
SW_CENTERMARKSYMBOL_9@@SfigorgFlag@@4_0-3_
 70
     0
 10
0.0
 20
0.0
 30
0.0
  3
SW_CENTERMARKSYMBOL_9@@SfigorgFlag@@4_0-3_
  1

  0
LINE
  5
435
330
93
100
AcDbEntity
  8
建具
  6
Continuous
 62
     7
370
     9
100
AcDbLine
 10
0.0
 20
0.0
 30
0.0
 11
0.0
 21
2.5
 31
0.0
  0
LINE
  5
436
330
93
100
AcDbEntity
  8
建具
  6
Continuous
 62
     7
370
     9
100
AcDbLine
 10
0.0
 20
0.0
 30
0.0
 11
-2.5
 21
0.0
 31
0.0
  0
LINE
  5
437
330
93
100
AcDbEntity
  8
建具
  6
Continuous
 62
     7
370
     9
100
AcDbLine
 10
0.0
 20
0.0
 30
0.0
 11
0.0
 21
-2.5
 31
0.0
  0
LINE
  5
438
330
93
100
AcDbEntity
  8
建具
  6
Continuous
 62
     7
370
     9
100
AcDbLine
 10
0.0
 20
0.0
 30
0.0
 11
2.5
 21
0.0
 31
0.0
  0
LINE
  5
439
330
93
100
AcDbEntity
  8
建具
  6
Continuous
 62
     7
370
     9
100
AcDbLine
 10
0.0
 20
5.0
 30
0.0
 11
0.0
 21
10.5
 31
0.0
  0
LINE
  5
43A
330
93
100
AcDbEntity
  8
建具
  6
Continuous
 62
     7
370
     9
100
AcDbLine
 10
-5.0
 20
0.0
 30
0.0
 11
-10.5
 21
0.0
 31
0.0
  0
LINE
  5
43B
330
93
100
AcDbEntity
  8
建具
  6
Continuous
 62
     7
370
     9
100
AcDbLine
 10
0.0
 20
-5.0
 30
0.0
 11
0.0
 21
-10.5
 31
0.0
  0
LINE
  5
43C
330
93
100
AcDbEntity
  8
建具
  6
Continuous
 62
     7
370
     9
100
AcDbLine
 10
5.0
 20
0.0
 30
0.0
 11
10.5
 21
0.0
 31
0.0
  0
ENDBLK
  5
95
330
93
100
AcDbEntity
  8
0
100
AcDbBlockEnd
  0
ENDSEC
  0
SECTION
  2
ENTITIES
  0
TEXT
  5
97
330
1F
100
AcDbEntity
  8
通り芯
  6
Continuous
 62
     7
370
     9
100
AcDbText
 10
-823.429494772297
 20
-1322.950232686142
 30
0.0
 40
22.86
  1
自動ドアガード　ステンレス製　フラットバータイプ　強化ガラスパネル
 41
1.161616161616162
  7
ＭＳ ゴシック
100
AcDbText
  0
TEXT
  5
98
330
1F
100
AcDbEntity
  8
通り芯
  6
Continuous
 62
     7
370
     9
100
AcDbText
 10
-823.429494772297
 20
-1363.956326652577
 30
0.0
 40
22.86
  1
先付タイプ　ＤＡ４－４Ｈ７Ａ－ＫＧ
 41
1.156862745098039
  7
ＭＳ ゴシック
100
AcDbText
  0
LINE
  5
99
330
1F
100
AcDbEntity
  8
通り芯
  6
Continuous
 62
     4
370
     9
100
AcDbLine
 10
1155.052370987045
 20
312.2131424419421
 30
0.0
 11
1155.052370987045
 21
-785.786858720358
 31
0.0
  0
LINE
  5
9A
330
1F
100
AcDbEntity
  8
寸法
  6
Continuous
 62
     7
370
     9
100
AcDbLine
 10
1147.352371434085
 20
-695.786859465418
 30
0.0
 11
1265.20025702127
 21
-971.3457376027875
 31
0.0
  0
LINE
  5
9B
330
1F
100
AcDbEntity
  8
その他
  6
Continuous
 62
     7
370
     9
100
AcDbLine
 10
1115.052371434085
 20
406.0856130165469
 30
0.0
 11
1155.052371434085
 21
406.0856130165469
 31
0.0
  0
LWPOLYLINE
  5
9C
330
1F
100
AcDbEntity
  8
その他
  6
Continuous
 62
     7
370
     9
100
AcDbPolyline
 90
        4
 70
     1
 43
2.0
 10
1116.052371434085
 20
406.0856130165469
 42
0.4142135623731
 10
1115.052371434085
 20
407.0856130165469
 42
0.4142135623731
 10
1114.052371434085
 20
406.0856130165469
 42
0.4142135623731
 10
1115.052371434085
 20
405.0856130165469
 42
0.4142135623731
  0
LWPOLYLINE
  5
9D
330
1F
100
AcDbEntity
  8
その他
  6
Continuous
 62
     7
370
     9
100
AcDbPolyline
 90
        4
 70
     1
 43
2.0
 10
1156.052371434085
 20
406.0856130165469
 42
0.4142135623731
 10
1155.052371434085
 20
407.0856130165469
 42
0.4142135623731
 10
1154.052371434085
 20
406.0856130165469
 42
0.4142135623731
 10
1155.052371434085
 20
405.0856130165469
 42
0.4142135623731
  0
LINE
  5
9E
330
1F
100
AcDbEntity
  8
その他
  6
Continuous
 62
     7
370
     9
100
AcDbLine
 10
1115.052371434085
 20
409.0856130165464
 30
0.0
 11
1115.052371434085
 21
332.2131405345813
 31
0.0
  0
LINE
  5
9F
330
1F
100
AcDbEntity
  8
その他
  6
Continuous
 62
     7
370
     9
100
AcDbLine
 10
1155.052371434085
 20
409.0856130165464
 30
0.0
 11
1155.052371434085
 21
332.2131405345813
 31
0.0
  0
TEXT
  5
A0
330
1F
100
AcDbEntity
  8
その他
  6
Continuous
 62
     2
370
   211
100
AcDbText
 10
1113.802371434085
 20
417.7256130165471
 30
0.0
 40
30.48
  1
40
 41
1.0625
  7
ＭＳ ゴシック
100
AcDbText
  0
LINE
  5
A1
330
1F
100
AcDbEntity
  8
通り芯
  6
Continuous
 62
     7
370
     0
100
AcDbLine
 10
1115.052371881125
 20
-785.7868611247964
 30
0.0
 11
1115.052371881125
 21
-785.7968611247984
 31
0.0
  0
LINE
  5
A2
330
1F
100
AcDbEntity
  8
通り芯
  6
Continuous
 62
     7
370
     0
100
AcDbLine
 10
1115.052371881125
 20
-785.7868611247964
 30
0.0
 11
1115.052371881125
 21
-785.7968611247984
 31
0.0
  0
LINE
  5
A3
330
1F
100
AcDbEntity
  8
寸法
  6
Continuous
 62
     7
370
     9
100
AcDbLine
 10
1147.352371434085
 20
-695.786859465418
 30
0.0
 11
1160.099010672493
 21
-717.2932117392431
 31
0.0
  0
LINE
  5
A4
330
1F
100
AcDbEntity
  8
寸法
  6
Continuous
 62
     7
370
     9
100
AcDbLine
 10
1147.352371434085
 20
-695.786859465418
 30
0.0
 11
1154.098425913703
 21
-719.859473551928
 31
0.0
  0
TEXT
  5
A5
330
1F
100
AcDbEntity
  8
寸法
  6
Continuous
 62
     7
370
     9
100
AcDbText
 10
1268.292788780266
 20
-960.9527434976453
 30
0.0
 40
22.86
  1
六角穴付き皿ボルト：Ｍ５×２０
 41
1.155555555555555
  7
ＭＳ ゴシック
100
AcDbText
  0
LINE
  5
A6
330
1F
100
AcDbEntity
  8
0-E
  6
Continuous
 62
     7
370
     9
100
AcDbLine
 10
1035.052369943965
 20
-835.786858720358
 30
0.0
 11
1261.951383774721
 21
-835.786858720358
 31
0.0
  0
LINE
  5
A7
330
1F
100
AcDbEntity
  8
0-E
  6
Continuous
 62
     7
370
     0
100
AcDbLine
 10
1035.052369943965
 20
-785.786858720358
 30
0.0
 11
1115.052371881125
 21
-785.786858720358
 31
0.0
  0
LINE
  5
A8
330
1F
100
AcDbEntity
  8
0-E
  6
Continuous
 62
     7
370
     0
100
AcDbLine
 10
1155.052370987045
 20
-785.786858720358
 30
0.0
 11
1263.187063183203
 21
-785.786858720358
 31
0.0
  0
LINE
  5
A9
330
1F
100
AcDbEntity
  8
0-E
  6
Continuous
 62
     7
370
     9
100
AcDbLine
 10
1110.052371881125
 20
-800.7768341334385
 30
0.0
 11
1110.052371881125
 21
-785.7968611247984
 31
0.0
  0
LINE
  5
AA
330
1F
100
AcDbEntity
  8
0-E
  6
Continuous
 62
     7
370
     0
100
AcDbLine
 10
1035.052369943965
 20
-800.7768341334385
 30
0.0
 11
1110.052371881125
 21
-800.7768341334385
 31
0.0
  0
LINE
  5
AB
330
1F
100
AcDbEntity
  8
0-E
  6
Continuous
 62
     7
370
     0
100
AcDbLine
 10
1160.052370987045
 20
-800.7768341334385
 30
0.0
 11
1263.187063183203
 21
-800.7768341334385
 31
0.0
  0
LINE
  5
AC
330
1F
100
AcDbEntity
  8
0-E
  6
Continuous
 62
     7
370
     9
100
AcDbLine
 10
1102.107626268741
 20
-785.786858720358
 30
0.0
 11
1087.11765085566
 21
-800.7768341334385
 31
0.0
  0
LINE
  5
AD
330
1F
100
AcDbEntity
  8
0-E
  6
Continuous
 62
     7
370
     9
100
AcDbLine
 10
1054.10762626873
 20
-785.786858720358
 30
0.0
 11
1039.11765085565
 21
-800.7768341334385
 31
0.0
  0
LINE
  5
AE
330
1F
100
AcDbEntity
  8
0-E
  6
Continuous
 62
     7
370
     9
100
AcDbLine
 10
1078.107626268736
 20
-785.786858720358
 30
0.0
 11
1063.117650855647
 21
-800.7768341334385
 31
0.0
  0
LINE
  5
AF
330
1F
100
AcDbEntity
  8
0-E
  6
Continuous
 62
     7
370
     9
100
AcDbLine
 10
1252.107626268741
 20
-785.786858720358
 30
0.0
 11
1237.11765085566
 21
-800.7768341334385
 31
0.0
  0
LINE
  5
B0
330
1F
100
AcDbEntity
  8
0-E
  6
Continuous
 62
     7
370
     9
100
AcDbLine
 10
1160.052370987045
 20
-785.7968611247984
 30
0.0
 11
1160.052370987045
 21
-800.7768341334385
 31
0.0
  0
LINE
  5
B1
330
1F
100
AcDbEntity
  8
0-E
  6
Continuous
 62
     7
370
     9
100
AcDbLine
 10
1228.107626268736
 20
-785.786858720358
 30
0.0
 11
1213.117650855647
 21
-800.7768341334385
 31
0.0
  0
LINE
  5
B2
330
1F
100
AcDbEntity
  8
0-E
  6
Continuous
 62
     7
370
     9
100
AcDbLine
 10
1204.10762626873
 20
-785.786858720358
 30
0.0
 11
1189.11765085565
 21
-800.7768341334385
 31
0.0
  0
LINE
  5
B3
330
1F
100
AcDbEntity
  8
0-E
  6
Continuous
 62
     7
370
     9
100
AcDbLine
 10
1180.107626268725
 20
-785.786858720358
 30
0.0
 11
1165.117650855636
 21
-800.7768341334385
 31
0.0
  0
LINE
  5
B4
330
1F
100
AcDbEntity
  8
0-E
  6
Continuous
 62
     7
370
     9
100
AcDbLine
 10
1086.500342783577
 20
-835.786858720358
 30
0.0
 11
1036.619928911707
 21
-885.6672725922277
 31
0.0
  0
LINE
  5
B5
330
1F
100
AcDbEntity
  8
0-E
  6
Continuous
 62
     7
370
     9
100
AcDbLine
 10
1101.500342783577
 20
-835.786858720358
 30
0.0
 11
1051.619928911707
 21
-885.6672725922277
 31
0.0
  0
LINE
  5
B6
330
1F
100
AcDbEntity
  8
0-E
  6
Continuous
 62
     7
370
     9
100
AcDbLine
 10
1229.525034141602
 20
-835.786858720358
 30
0.0
 11
1179.644620269732
 21
-885.6672725922277
 31
0.0
  0
LINE
  5
B7
330
1F
100
AcDbEntity
  8
0-E
  6
Continuous
 62
     7
370
     9
100
AcDbLine
 10
1244.525034141602
 20
-835.786858720358
 30
0.0
 11
1194.644620269732
 21
-885.6672725922277
 31
0.0
  0
LINE
  5
B8
330
1F
100
AcDbEntity
  8
0-E
  6
Continuous
 62
     7
370
     9
100
AcDbLine
 10
1259.525034141602
 20
-835.786858720358
 30
0.0
 11
1209.644620269732
 21
-885.6672725922277
 31
0.0
  0
LINE
  5
B9
330
1F
100
AcDbEntity
  8
0-E
  6
Continuous
 62
     7
370
     9
100
AcDbLine
 10
1071.500342783577
 20
-835.786858720358
 30
0.0
 11
1035.052369943965
 21
-872.2348315599698
 31
0.0
  0
LWPOLYLINE
  5
BA
330
1F
100
AcDbEntity
  8
0-E
  6
Continuous
 62
     7
370
     9
100
AcDbPolyline
 90
        4
 70
     1
 43
2.0
 10
1053.582736931971
 20
-820.0499998718344
 42
0.4142135623731
 10
1052.582736931971
 20
-819.0499998718344
 42
0.4142135623731
 10
1051.582736931971
 20
-820.0499998718344
 42
0.4142135623731
 10
1052.582736931971
 20
-821.0499998718343
 42
0.4142135623731
  0
LWPOLYLINE
  5
BB
330
1F
100
AcDbEntity
  8
0-E
  6
Continuous
 62
     7
370
     9
100
AcDbPolyline
 90
        4
 70
     1
 43
2.0
 10
1084.152989724446
 20
-822.4015577789478
 42
0.4142135623731
 10
1083.152989724447
 20
-821.4015577789479
 42
0.4142135623731
 10
1082.152989724447
 20
-822.4015577789478
 42
0.4142135623731
 10
1083.152989724447
 20
-823.4015577789478
 42
0.4142135623731
  0
LWPOLYLINE
  5
BC
330
1F
100
AcDbEntity
  8
0-E
  6
Continuous
 62
     7
370
     9
100
AcDbPolyline
 90
        4
 70
     1
 43
2.0
 10
1207.257046161836
 20
-818.9330098659555
 42
0.4142135623731
 10
1206.257046161836
 20
-817.9330098659556
 42
0.4142135623731
 10
1205.257046161836
 20
-818.9330098659555
 42
0.4142135623731
 10
1206.257046161836
 20
-819.9330098659555
 42
0.4142135623731
  0
LWPOLYLINE
  5
BD
330
1F
100
AcDbEntity
  8
0-E
  6
Continuous
 62
     7
370
     9
100
AcDbPolyline
 90
        4
 70
     1
 43
2.0
 10
1235.358163151842
 20
-828.4568193897651
 42
0.4142135623731
 10
1234.358163151842
 20
-827.4568193897652
 42
0.4142135623731
 10
1233.358163151842
 20
-828.4568193897651
 42
0.4142135623731
 10
1234.358163151842
 20
-829.4568193897651
 42
0.4142135623731
  0
ARC
  5
BE
330
1F
100
AcDbEntity
  8
通り芯
  6
Continuous
 62
     4
370
     9
100
AcDbCircle
 10
1153.052371434085
 20
312.213140534582
 30
0.0
 40
2.000000000000365
100
AcDbArc
 50
0.0
 51
90.0
  0
LINE
  5
BF
330
1F
100
AcDbEntity
  8
通り芯
  6
Continuous
 62
     4
370
     9
100
AcDbLine
 10
1117.052372208945
 20
314.2131166927221
 30
0.0
 11
1153.052370659225
 21
314.2131166927221
 31
0.0
  0
ARC
  5
C0
330
1F
100
AcDbEntity
  8
通り芯
  6
Continuous
 62
     4
370
     9
100
AcDbCircle
 10
1117.052371434085
 20
312.213140534582
 30
0.0
 40
2.0
100
AcDbArc
 50
90.0
 51
180.0
  0
LINE
  5
C1
330
1F
100
AcDbEntity
  8
通り芯
  6
Continuous
 62
     4
370
     9
100
AcDbLine
 10
1115.052371881125
 20
-785.786858720358
 30
0.0
 11
1115.052371881125
 21
312.2131424419421
 31
0.0
  0
LINE
  5
C2
330
1F
100
AcDbEntity
  8
通り芯
  6
Continuous
 62
     4
370
     9
100
AcDbLine
 10
1097.552371881125
 20
-826.7868833072775
 30
0.0
 11
1097.552371881125
 21
-835.7868833072773
 31
0.0
  0
LINE
  5
C3
330
1F
100
AcDbEntity
  8
通り芯
  6
Continuous
 62
     4
370
     9
100
AcDbLine
 10
1097.552371881125
 20
-826.7868833072775
 30
0.0
 11
1172.552371881125
 21
-826.7868833072775
 31
0.0
  0
LINE
  5
C4
330
1F
100
AcDbEntity
  8
通り芯
  6
Continuous
 62
     4
370
     9
100
AcDbLine
 10
1172.552371881125
 20
-826.7868833072775
 30
0.0
 11
1172.552371881125
 21
-835.7868833072773
 31
0.0
  0
LINE
  5
C5
330
1F
100
AcDbEntity
  8
通り芯
  6
Continuous
 62
     4
370
     9
100
AcDbLine
 10
1097.552371881125
 20
-835.7868833072773
 30
0.0
 11
1172.552371881125
 21
-835.7868833072773
 31
0.0
  0
LINE
  5
C6
330
1F
100
AcDbEntity
  8
通り芯
  6
Continuous
 62
     4
370
     9
100
AcDbLine
 10
1115.052371881125
 20
-826.7868833072775
 30
0.0
 11
1115.052371881125
 21
-785.7968611247984
 31
0.0
  0
LINE
  5
C7
330
1F
100
AcDbEntity
  8
通り芯
  6
Continuous
 62
     4
370
     9
100
AcDbLine
 10
1155.052370987045
 20
-785.7968611247984
 30
0.0
 11
1155.052370987045
 21
-826.7868833072775
 31
0.0
  0
LINE
  5
C8
330
1F
100
AcDbEntity
  8
通り芯
  6
Continuous
 62
     4
370
     9
100
AcDbLine
 10
1097.552371881125
 20
-835.7768833072753
 30
0.0
 11
1097.552371881125
 21
-835.7868833072773
 31
0.0
  0
LINE
  5
C9
330
1F
100
AcDbEntity
  8
通り芯
  6
Continuous
 62
     4
370
     9
100
AcDbLine
 10
1097.552371881125
 20
-835.7768833072753
 30
0.0
 11
1097.552371881125
 21
-835.7868833072773
 31
0.0
  0
LINE
  5
CA
330
1F
100
AcDbEntity
  8
建具
  6
Continuous
 62
     2
370
     9
100
AcDbLine
 10
1161.552371881125
 20
-816.886883307278
 30
0.0
 11
1160.552371881125
 21
-815.8868833072778
 31
0.0
  0
LINE
  5
CB
330
1F
100
AcDbEntity
  8
建具
  6
Continuous
 62
     2
370
     9
100
AcDbLine
 10
1161.552371881125
 20
-837.8868833072777
 30
0.0
 11
1161.252371881125
 21
-835.8868833072778
 31
0.0
  0
LINE
  5
CC
330
1F
100
AcDbEntity
  8
建具
  6
Continuous
 62
     2
370
     9
100
AcDbLine
 10
1161.252371881125
 20
-835.8868833072778
 30
0.0
 11
1161.352371881125
 21
-835.7868833072773
 31
0.0
  0
LINE
  5
CD
330
1F
100
AcDbEntity
  8
建具
  6
Continuous
 62
     2
370
     9
100
AcDbLine
 10
1161.552371881125
 20
-848.6868833072775
 30
0.0
 11
1161.552371881125
 21
-837.8868833072777
 31
0.0
  0
LINE
  5
CE
330
1F
100
AcDbEntity
  8
建具
  6
Continuous
 62
     2
370
     9
100
AcDbLine
 10
1161.552371881125
 20
-818.3868833072778
 30
0.0
 11
1161.552371881125
 21
-816.886883307278
 31
0.0
  0
LINE
  5
CF
330
1F
100
AcDbEntity
  8
建具
  6
Continuous
 62
     2
370
     9
100
AcDbLine
 10
1108.551893766325
 20
-816.886883307278
 30
0.0
 11
1108.551893766325
 21
-818.3868833072778
 31
0.0
  0
LINE
  5
D0
330
1F
100
AcDbEntity
  8
建具
  6
Continuous
 62
     2
370
     9
100
AcDbLine
 10
1108.751893766325
 20
-835.7868833072773
 30
0.0
 11
1108.851893766325
 21
-835.8868833072778
 31
0.0
  0
LINE
  5
D1
330
1F
100
AcDbEntity
  8
建具
  6
Continuous
 62
     2
370
     9
100
AcDbLine
 10
1116.251893766325
 20
-835.8868833072778
 30
0.0
 11
1116.351893766325
 21
-835.7868833072773
 31
0.0
  0
LINE
  5
D2
330
1F
100
AcDbEntity
  8
建具
  6
Continuous
 62
     2
370
     9
100
AcDbLine
 10
1108.551893766325
 20
-837.8868833072777
 30
0.0
 11
1108.551893766325
 21
-848.6868833072775
 31
0.0
  0
LINE
  5
D3
330
1F
100
AcDbEntity
  8
建具
  6
Continuous
 62
     2
370
     9
100
AcDbLine
 10
1116.551893766325
 20
-848.6868833072775
 30
0.0
 11
1116.551893766325
 21
-837.8868833072777
 31
0.0
  0
LINE
  5
D4
330
1F
100
AcDbEntity
  8
建具
  6
Continuous
 62
     2
370
     9
100
AcDbLine
 10
1116.551893766325
 20
-837.8868833072777
 30
0.0
 11
1116.251893766325
 21
-835.8868833072778
 31
0.0
  0
LINE
  5
D5
330
1F
100
AcDbEntity
  8
建具
  6
Continuous
 62
     2
370
     9
100
AcDbLine
 10
1108.851893766325
 20
-835.8868833072778
 30
0.0
 11
1108.551893766325
 21
-837.8868833072777
 31
0.0
  0
LINE
  5
D6
330
1F
100
AcDbEntity
  8
建具
  6
Continuous
 62
     2
370
     9
100
AcDbLine
 10
1109.551893766325
 20
-815.8868833072778
 30
0.0
 11
1108.551893766325
 21
-816.886883307278
 31
0.0
  0
LINE
  5
D7
330
1F
100
AcDbEntity
  8
建具
  6
Continuous
 62
     2
370
     9
100
AcDbLine
 10
1116.552371881125
 20
-848.6868833072775
 30
0.0
 11
1116.552371881125
 21
-837.8868833072777
 31
0.0
  0
LINE
  5
D8
330
1F
100
AcDbEntity
  8
建具
  6
Continuous
 62
     2
370
     9
100
AcDbLine
 10
1116.252371881125
 20
-835.8868833072778
 30
0.0
 11
1116.352371881125
 21
-835.7868833072773
 31
0.0
  0
LINE
  5
D9
330
1F
100
AcDbEntity
  8
建具
  6
Continuous
 62
     2
370
     9
100
AcDbLine
 10
1116.552371881125
 20
-837.8868833072777
 30
0.0
 11
1116.252371881125
 21
-835.8868833072778
 31
0.0
  0
LINE
  5
DA
330
1F
100
AcDbEntity
  8
建具
  6
Continuous
 62
     2
370
     9
100
AcDbLine
 10
1161.551893766325
 20
-818.3868833072778
 30
0.0
 11
1161.551893766325
 21
-816.886883307278
 31
0.0
  0
LINE
  5
DB
330
1F
100
AcDbEntity
  8
建具
  6
Continuous
 62
     2
370
     9
100
AcDbLine
 10
1161.551893766325
 20
-816.886883307278
 30
0.0
 11
1160.551893766325
 21
-815.8868833072778
 31
0.0
  0
LINE
  5
DC
330
1F
100
AcDbEntity
  8
建具
  6
Continuous
 62
     2
370
     9
100
AcDbLine
 10
1153.551893766325
 20
-837.8868833072777
 30
0.0
 11
1153.551893766325
 21
-848.6868833072775
 31
0.0
  0
LINE
  5
DD
330
1F
100
AcDbEntity
  8
建具
  6
Continuous
 62
     2
370
     9
100
AcDbLine
 10
1161.551893766325
 20
-848.6868833072775
 30
0.0
 11
1161.551893766325
 21
-837.8868833072777
 31
0.0
  0
LINE
  5
DE
330
1F
100
AcDbEntity
  8
建具
  6
Continuous
 62
     2
370
     9
100
AcDbLine
 10
1161.551893766325
 20
-837.8868833072777
 30
0.0
 11
1161.251893766325
 21
-835.8868833072778
 31
0.0
  0
LINE
  5
DF
330
1F
100
AcDbEntity
  8
建具
  6
Continuous
 62
     2
370
     9
100
AcDbLine
 10
1153.851893766325
 20
-835.8868833072778
 30
0.0
 11
1153.551893766325
 21
-837.8868833072777
 31
0.0
  0
LINE
  5
E0
330
1F
100
AcDbEntity
  8
建具
  6
Continuous
 62
     2
370
     9
100
AcDbLine
 10
1153.751893766325
 20
-835.7868833072773
 30
0.0
 11
1153.851893766325
 21
-835.8868833072778
 31
0.0
  0
LINE
  5
E1
330
1F
100
AcDbEntity
  8
建具
  6
Continuous
 62
     2
370
     9
100
AcDbLine
 10
1161.251893766325
 20
-835.8868833072778
 30
0.0
 11
1161.351893766325
 21
-835.7868833072773
 31
0.0
  0
LINE
  5
E2
330
1F
100
AcDbEntity
  8
建具
  6
Continuous
 62
     2
370
     9
100
AcDbLine
 10
1115.052371881125
 20
-814.2268833072778
 30
0.0
 11
1114.302371881125
 21
-813.3868833072778
 31
0.0
  0
LINE
  5
E3
330
1F
100
AcDbEntity
  8
建具
  6
Continuous
 62
     2
370
     9
100
AcDbLine
 10
1160.552371881125
 20
-814.7868833072777
 30
0.0
 11
1159.302371881125
 21
-813.3868833072778
 31
0.0
  0
LINE
  5
E4
330
1F
100
AcDbEntity
  8
建具
  6
Continuous
 62
     2
370
     9
100
AcDbLine
 10
1160.552371881125
 20
-815.6868833072774
 30
0.0
 11
1160.552371881125
 21
-814.7868833072777
 31
0.0
  0
ARC
  5
E5
330
1F
100
AcDbEntity
  8
建具
  6
Continuous
 62
     2
370
     9
100
AcDbCircle
 10
1160.352371881125
 20
-815.6868833072774
 30
0.0
 40
0.1999999999998181
100
AcDbArc
 50
270.0
 51
0.0
  0
ARC
  5
E6
330
1F
100
AcDbEntity
  8
建具
  6
Continuous
 62
     2
370
     9
100
AcDbCircle
 10
1160.351893766325
 20
-815.6868833072774
 30
0.0
 40
0.1999999999998181
100
AcDbArc
 50
270.0
 51
0.0
  0
LINE
  5
E7
330
1F
100
AcDbEntity
  8
建具
  6
Continuous
 62
     2
370
     9
100
AcDbLine
 10
1160.551893766325
 20
-815.6868833072774
 30
0.0
 11
1160.551893766325
 21
-814.7868833072777
 31
0.0
  0
LINE
  5
E8
330
1F
100
AcDbEntity
  8
建具
  6
Continuous
 62
     2
370
     9
100
AcDbLine
 10
1160.551893766325
 20
-814.7868833072777
 30
0.0
 11
1159.301893766325
 21
-813.3868833072778
 31
0.0
  0
LINE
  5
E9
330
1F
100
AcDbEntity
  8
建具
  6
Continuous
 62
     2
370
     9
100
AcDbLine
 10
1155.801893766325
 20
-813.3868833072778
 30
0.0
 11
1155.052371881125
 21
-814.2263478187776
 31
0.0
  0
ARC
  5
EA
330
1F
100
AcDbEntity
  8
建具
  6
Continuous
 62
     2
370
     9
100
AcDbCircle
 10
1109.751893766325
 20
-815.6868833072774
 30
0.0
 40
0.1999999999998181
100
AcDbArc
 50
180.0
 51
270.0
  0
LINE
  5
EB
330
1F
100
AcDbEntity
  8
建具
  6
Continuous
 62
     2
370
     9
100
AcDbLine
 10
1115.052371881125
 20
-814.2274187958781
 30
0.0
 11
1114.301893766325
 21
-813.3868833072778
 31
0.0
  0
LINE
  5
EC
330
1F
100
AcDbEntity
  8
建具
  6
Continuous
 62
     2
370
     9
100
AcDbLine
 10
1110.801893766325
 20
-813.3868833072778
 30
0.0
 11
1109.551893766325
 21
-814.7868833072777
 31
0.0
  0
LINE
  5
ED
330
1F
100
AcDbEntity
  8
建具
  6
Continuous
 62
     2
370
     9
100
AcDbLine
 10
1109.551893766325
 20
-814.7868833072777
 30
0.0
 11
1109.551893766325
 21
-815.6868833072774
 31
0.0
  0
LINE
  5
EE
330
1F
100
AcDbEntity
  8
建具
  6
Continuous
 62
     2
370
     9
100
AcDbLine
 10
1165.057925380525
 20
-818.9674398908777
 30
0.0
 11
1164.052371881125
 21
-818.3868833072778
 31
0.0
  0
LINE
  5
EF
330
1F
100
AcDbEntity
  8
建具
  6
Continuous
 62
     2
370
     9
100
AcDbLine
 10
1106.052371881125
 20
-818.3868833072778
 30
0.0
 11
1105.046818381625
 21
-818.9674398908777
 31
0.0
  0
LINE
  5
F0
330
1F
100
AcDbEntity
  8
建具
  6
Continuous
 62
     2
370
     9
100
AcDbLine
 10
1104.552371881125
 20
-825.1868833072779
 30
0.0
 11
1104.552371881125
 21
-826.7868833072775
 31
0.0
  0
LINE
  5
F1
330
1F
100
AcDbEntity
  8
建具
  6
Continuous
 62
     2
370
     9
100
AcDbLine
 10
1165.552371881125
 20
-826.7868833072775
 30
0.0
 11
1165.552371881125
 21
-825.1868833072779
 31
0.0
  0
LINE
  5
F2
330
1F
100
AcDbEntity
  8
建具
  6
Continuous
 62
     2
370
     9
100
AcDbLine
 10
1115.052371881125
 20
-816.886883307278
 30
0.0
 11
1108.551893766325
 21
-816.886883307278
 31
0.0
  0
LINE
  5
F3
330
1F
100
AcDbEntity
  8
建具
  6
Continuous
 62
     2
370
     9
100
AcDbLine
 10
1116.251893766325
 20
-835.8868833072778
 30
0.0
 11
1108.851893766325
 21
-835.8868833072778
 31
0.0
  0
LINE
  5
F4
330
1F
100
AcDbEntity
  8
建具
  6
Continuous
 62
     2
370
     9
100
AcDbLine
 10
1116.551893766325
 20
-837.8868833072777
 30
0.0
 11
1108.551893766325
 21
-837.8868833072777
 31
0.0
  0
LINE
  5
F5
330
1F
100
AcDbEntity
  8
建具
  6
Continuous
 62
     2
370
     9
100
AcDbLine
 10
1116.551893766325
 20
-848.6868833072775
 30
0.0
 11
1108.551893766325
 21
-848.6868833072775
 31
0.0
  0
LINE
  5
F6
330
1F
100
AcDbEntity
  8
建具
  6
Continuous
 62
     2
370
     9
100
AcDbLine
 10
1109.551893766325
 20
-815.8868833072778
 30
0.0
 11
1115.052371881125
 21
-815.8868833072778
 31
0.0
  0
LINE
  5
F7
330
1F
100
AcDbEntity
  8
建具
  6
Continuous
 62
     2
370
     9
100
AcDbLine
 10
1161.551893766325
 20
-816.886883307278
 30
0.0
 11
1155.052371881125
 21
-816.886883307278
 31
0.0
  0
LINE
  5
F8
330
1F
100
AcDbEntity
  8
建具
  6
Continuous
 62
     2
370
     9
100
AcDbLine
 10
1155.052371881125
 20
-815.8868833072778
 30
0.0
 11
1160.551893766325
 21
-815.8868833072778
 31
0.0
  0
LINE
  5
F9
330
1F
100
AcDbEntity
  8
建具
  6
Continuous
 62
     2
370
     9
100
AcDbLine
 10
1161.551893766325
 20
-848.6868833072775
 30
0.0
 11
1153.551893766325
 21
-848.6868833072775
 31
0.0
  0
LINE
  5
FA
330
1F
100
AcDbEntity
  8
建具
  6
Continuous
 62
     2
370
     9
100
AcDbLine
 10
1161.551893766325
 20
-837.8868833072777
 30
0.0
 11
1153.551893766325
 21
-837.8868833072777
 31
0.0
  0
LINE
  5
FB
330
1F
100
AcDbEntity
  8
建具
  6
Continuous
 62
     2
370
     9
100
AcDbLine
 10
1161.251893766325
 20
-835.8868833072778
 30
0.0
 11
1153.851893766325
 21
-835.8868833072778
 31
0.0
  0
LINE
  5
FC
330
1F
100
AcDbEntity
  8
建具
  6
Continuous
 62
     2
370
     9
100
AcDbLine
 10
1116.531843514725
 20
-861.7868833072775
 30
0.0
 11
1112.951893766325
 21
-861.7868833072775
 31
0.0
  0
LINE
  5
FD
330
1F
100
AcDbEntity
  8
建具
  6
Continuous
 62
     2
370
     9
100
AcDbLine
 10
1112.951893766325
 20
-861.7868833072775
 30
0.0
 11
1112.951893766325
 21
-860.0368833072774
 31
0.0
  0
LINE
  5
FE
330
1F
100
AcDbEntity
  8
建具
  6
Continuous
 62
     2
370
     9
100
AcDbLine
 10
1116.531843514725
 20
-860.0368833072774
 30
0.0
 11
1112.951893766325
 21
-860.0368833072774
 31
0.0
  0
ARC
  5
FF
330
1F
100
AcDbEntity
  8
建具
  6
Continuous
 62
     2
370
     9
100
AcDbCircle
 10
1118.861085125625
 20
-860.9118833072778
 30
0.0
 40
2.488170308033943
100
AcDbArc
 50
159.4108715015
 51
200.5891284985
  0
LINE
  5
100
330
1F
100
AcDbEntity
  8
建具
  6
Continuous
 62
     2
370
     9
100
AcDbLine
 10
1116.531843514725
 20
-858.2868833072773
 30
0.0
 11
1112.951893766325
 21
-858.2868833072773
 31
0.0
  0
LINE
  5
101
330
1F
100
AcDbEntity
  8
建具
  6
Continuous
 62
     2
370
     9
100
AcDbLine
 10
1112.951893766325
 20
-858.2868833072773
 30
0.0
 11
1112.951893766325
 21
-856.5368833072778
 31
0.0
  0
LINE
  5
102
330
1F
100
AcDbEntity
  8
建具
  6
Continuous
 62
     2
370
     9
100
AcDbLine
 10
1116.531843514725
 20
-856.5368833072778
 30
0.0
 11
1112.951893766325
 21
-856.5368833072778
 31
0.0
  0
ARC
  5
103
330
1F
100
AcDbEntity
  8
建具
  6
Continuous
 62
     2
370
     9
100
AcDbCircle
 10
1118.861085125625
 20
-857.4118833072775
 30
0.0
 40
2.48817030803538
100
AcDbArc
 50
159.4108715015
 51
200.5891284985
  0
LINE
  5
104
330
1F
100
AcDbEntity
  8
建具
  6
Continuous
 62
     2
370
     9
100
AcDbLine
 10
1116.531843514725
 20
-854.7868833072777
 30
0.0
 11
1112.951893766325
 21
-854.7868833072777
 31
0.0
  0
LINE
  5
105
330
1F
100
AcDbEntity
  8
建具
  6
Continuous
 62
     2
370
     9
100
AcDbLine
 10
1116.531843514725
 20
-853.0368833072775
 30
0.0
 11
1112.951893766325
 21
-853.0368833072775
 31
0.0
  0
ARC
  5
106
330
1F
100
AcDbEntity
  8
建具
  6
Continuous
 62
     2
370
     9
100
AcDbCircle
 10
1118.861085125625
 20
-853.9118833072773
 30
0.0
 40
2.488170308037668
100
AcDbArc
 50
159.4108715015
 51
200.5891284985
  0
LINE
  5
107
330
1F
100
AcDbEntity
  8
建具
  6
Continuous
 62
     2
370
     9
100
AcDbLine
 10
1112.951893766325
 20
-854.7868833072777
 30
0.0
 11
1112.951893766325
 21
-853.0368833072775
 31
0.0
  0
LINE
  5
108
330
1F
100
AcDbEntity
  8
建具
  6
Continuous
 62
     2
370
     9
100
AcDbLine
 10
1116.531843514725
 20
-860.0368833072774
 30
0.0
 11
1116.531843514725
 21
-858.2868833072773
 31
0.0
  0
LINE
  5
109
330
1F
100
AcDbEntity
  8
建具
  6
Continuous
 62
     2
370
     9
100
AcDbLine
 10
1112.951893766325
 20
-858.2868833072773
 30
0.0
 11
1112.951893766325
 21
-860.0368833072774
 31
0.0
  0
LINE
  5
10A
330
1F
100
AcDbEntity
  8
建具
  6
Continuous
 62
     2
370
     9
100
AcDbLine
 10
1116.531843514725
 20
-853.0368833072775
 30
0.0
 11
1116.531843514725
 21
-848.6868833072775
 31
0.0
  0
LINE
  5
10B
330
1F
100
AcDbEntity
  8
建具
  6
Continuous
 62
     2
370
     9
100
AcDbLine
 10
1116.531843514725
 20
-848.6868833072775
 30
0.0
 11
1112.951893766325
 21
-848.6868833072775
 31
0.0
  0
LINE
  5
10C
330
1F
100
AcDbEntity
  8
建具
  6
Continuous
 62
     2
370
     9
100
AcDbLine
 10
1112.951893766325
 20
-848.6868833072775
 30
0.0
 11
1112.951893766325
 21
-853.0368833072775
 31
0.0
  0
LINE
  5
10D
330
1F
100
AcDbEntity
  8
建具
  6
Continuous
 62
     2
370
     9
100
AcDbLine
 10
1116.531843514725
 20
-863.7868833072774
 30
0.0
 11
1116.531843514725
 21
-861.7868833072775
 31
0.0
  0
LINE
  5
10E
330
1F
100
AcDbEntity
  8
建具
  6
Continuous
 62
     2
370
     9
100
AcDbLine
 10
1116.531843514725
 20
-863.7868833072774
 30
0.0
 11
1112.951893766325
 21
-863.7868833072774
 31
0.0
  0
LINE
  5
10F
330
1F
100
AcDbEntity
  8
建具
  6
Continuous
 62
     2
370
     9
100
AcDbLine
 10
1112.951893766325
 20
-861.7868833072775
 30
0.0
 11
1112.951893766325
 21
-863.7868833072774
 31
0.0
  0
LINE
  5
110
330
1F
100
AcDbEntity
  8
建具
  6
Continuous
 62
     2
370
     9
100
AcDbLine
 10
1116.531843514725
 20
-856.5368833072778
 30
0.0
 11
1116.531843514725
 21
-854.7868833072777
 31
0.0
  0
LINE
  5
111
330
1F
100
AcDbEntity
  8
建具
  6
Continuous
 62
     2
370
     9
100
AcDbLine
 10
1112.951893766325
 20
-854.7868833072777
 30
0.0
 11
1112.951893766325
 21
-856.5368833072778
 31
0.0
  0
LINE
  5
112
330
1F
100
AcDbEntity
  8
建具
  6
Continuous
 62
     2
370
     9
100
AcDbLine
 10
1161.531843514725
 20
-854.7868833072777
 30
0.0
 11
1157.951893766325
 21
-854.7868833072777
 31
0.0
  0
LINE
  5
113
330
1F
100
AcDbEntity
  8
建具
  6
Continuous
 62
     2
370
     9
100
AcDbLine
 10
1157.951893766325
 20
-854.7868833072777
 30
0.0
 11
1157.951893766325
 21
-853.0368833072775
 31
0.0
  0
LINE
  5
114
330
1F
100
AcDbEntity
  8
建具
  6
Continuous
 62
     2
370
     9
100
AcDbLine
 10
1161.531843514725
 20
-853.0368833072775
 30
0.0
 11
1157.951893766325
 21
-853.0368833072775
 31
0.0
  0
ARC
  5
115
330
1F
100
AcDbEntity
  8
建具
  6
Continuous
 62
     2
370
     9
100
AcDbCircle
 10
1163.861085125625
 20
-853.9118833072773
 30
0.0
 40
2.488170308037668
100
AcDbArc
 50
159.4108715015
 51
200.5891284985
  0
LINE
  5
116
330
1F
100
AcDbEntity
  8
建具
  6
Continuous
 62
     2
370
     9
100
AcDbLine
 10
1161.531843514725
 20
-861.7868833072775
 30
0.0
 11
1157.951893766325
 21
-861.7868833072775
 31
0.0
  0
LINE
  5
117
330
1F
100
AcDbEntity
  8
建具
  6
Continuous
 62
     2
370
     9
100
AcDbLine
 10
1161.531843514725
 20
-860.0368833072774
 30
0.0
 11
1157.951893766325
 21
-860.0368833072774
 31
0.0
  0
ARC
  5
118
330
1F
100
AcDbEntity
  8
建具
  6
Continuous
 62
     2
370
     9
100
AcDbCircle
 10
1163.861085125625
 20
-860.9118833072778
 30
0.0
 40
2.488170308033517
100
AcDbArc
 50
159.4108715015
 51
200.5891284985
  0
LINE
  5
119
330
1F
100
AcDbEntity
  8
建具
  6
Continuous
 62
     2
370
     9
100
AcDbLine
 10
1157.951893766325
 20
-861.7868833072775
 30
0.0
 11
1157.951893766325
 21
-860.0368833072774
 31
0.0
  0
LINE
  5
11A
330
1F
100
AcDbEntity
  8
建具
  6
Continuous
 62
     2
370
     9
100
AcDbLine
 10
1161.531843514725
 20
-858.2868833072773
 30
0.0
 11
1157.951893766325
 21
-858.2868833072773
 31
0.0
  0
LINE
  5
11B
330
1F
100
AcDbEntity
  8
建具
  6
Continuous
 62
     2
370
     9
100
AcDbLine
 10
1161.531843514725
 20
-856.5368833072778
 30
0.0
 11
1157.951893766325
 21
-856.5368833072778
 31
0.0
  0
ARC
  5
11C
330
1F
100
AcDbEntity
  8
建具
  6
Continuous
 62
     2
370
     9
100
AcDbCircle
 10
1163.861085125625
 20
-857.4118833072775
 30
0.0
 40
2.488170308035805
100
AcDbArc
 50
159.4108715015
 51
200.5891284985
  0
LINE
  5
11D
330
1F
100
AcDbEntity
  8
建具
  6
Continuous
 62
     2
370
     9
100
AcDbLine
 10
1157.951893766325
 20
-858.2868833072773
 30
0.0
 11
1157.951893766325
 21
-856.5368833072778
 31
0.0
  0
LINE
  5
11E
330
1F
100
AcDbEntity
  8
建具
  6
Continuous
 62
     2
370
     9
100
AcDbLine
 10
1161.531843514725
 20
-856.5368833072778
 30
0.0
 11
1161.531843514725
 21
-854.7868833072777
 31
0.0
  0
LINE
  5
11F
330
1F
100
AcDbEntity
  8
建具
  6
Continuous
 62
     2
370
     9
100
AcDbLine
 10
1157.951893766325
 20
-854.7868833072777
 30
0.0
 11
1157.951893766325
 21
-856.5368833072778
 31
0.0
  0
LINE
  5
120
330
1F
100
AcDbEntity
  8
建具
  6
Continuous
 62
     2
370
     9
100
AcDbLine
 10
1161.531843514725
 20
-848.6868833072775
 30
0.0
 11
1157.951893766325
 21
-848.6868833072775
 31
0.0
  0
LINE
  5
121
330
1F
100
AcDbEntity
  8
建具
  6
Continuous
 62
     2
370
     9
100
AcDbLine
 10
1161.531843514725
 20
-853.0368833072775
 30
0.0
 11
1161.531843514725
 21
-848.6868833072775
 31
0.0
  0
LINE
  5
122
330
1F
100
AcDbEntity
  8
建具
  6
Continuous
 62
     2
370
     9
100
AcDbLine
 10
1157.951893766325
 20
-848.6868833072775
 30
0.0
 11
1157.951893766325
 21
-853.0368833072775
 31
0.0
  0
LINE
  5
123
330
1F
100
AcDbEntity
  8
建具
  6
Continuous
 62
     2
370
     9
100
AcDbLine
 10
1161.531843514725
 20
-860.0368833072774
 30
0.0
 11
1161.531843514725
 21
-858.2868833072773
 31
0.0
  0
LINE
  5
124
330
1F
100
AcDbEntity
  8
建具
  6
Continuous
 62
     2
370
     9
100
AcDbLine
 10
1157.951893766325
 20
-858.2868833072773
 30
0.0
 11
1157.951893766325
 21
-860.0368833072774
 31
0.0
  0
LINE
  5
125
330
1F
100
AcDbEntity
  8
建具
  6
Continuous
 62
     2
370
     9
100
AcDbLine
 10
1161.531843514725
 20
-863.7868833072774
 30
0.0
 11
1161.531843514725
 21
-861.7868833072775
 31
0.0
  0
LINE
  5
126
330
1F
100
AcDbEntity
  8
建具
  6
Continuous
 62
     2
370
     9
100
AcDbLine
 10
1161.531843514725
 20
-863.7868833072774
 30
0.0
 11
1157.951893766325
 21
-863.7868833072774
 31
0.0
  0
LINE
  5
127
330
1F
100
AcDbEntity
  8
建具
  6
Continuous
 62
     2
370
     9
100
AcDbLine
 10
1157.951893766325
 20
-861.7868833072775
 30
0.0
 11
1157.951893766325
 21
-863.7868833072774
 31
0.0
  0
LINE
  5
128
330
1F
100
AcDbEntity
  8
建具
  6
Continuous
 62
     2
370
     9
100
AcDbLine
 10
1161.532321629525
 20
-863.7868833072774
 30
0.0
 11
1161.532321629525
 21
-861.7868833072775
 31
0.0
  0
LINE
  5
129
330
1F
100
AcDbEntity
  8
建具
  6
Continuous
 62
     2
370
     9
100
AcDbLine
 10
1161.532321629525
 20
-860.0368833072774
 30
0.0
 11
1161.532321629525
 21
-858.2868833072773
 31
0.0
  0
LINE
  5
12A
330
1F
100
AcDbEntity
  8
建具
  6
Continuous
 62
     2
370
     9
100
AcDbLine
 10
1161.532321629525
 20
-853.0368833072775
 30
0.0
 11
1161.532321629525
 21
-848.6868833072775
 31
0.0
  0
LINE
  5
12B
330
1F
100
AcDbEntity
  8
建具
  6
Continuous
 62
     2
370
     9
100
AcDbLine
 10
1161.532321629525
 20
-856.5368833072778
 30
0.0
 11
1161.532321629525
 21
-854.7868833072777
 31
0.0
  0
LINE
  5
12C
330
1F
100
AcDbEntity
  8
建具
  6
Continuous
 62
     2
370
     9
100
AcDbLine
 10
1116.532321629525
 20
-856.5368833072778
 30
0.0
 11
1116.532321629525
 21
-854.7868833072777
 31
0.0
  0
LINE
  5
12D
330
1F
100
AcDbEntity
  8
建具
  6
Continuous
 62
     2
370
     9
100
AcDbLine
 10
1116.532321629525
 20
-860.0368833072774
 30
0.0
 11
1116.532321629525
 21
-858.2868833072773
 31
0.0
  0
LINE
  5
12E
330
1F
100
AcDbEntity
  8
建具
  6
Continuous
 62
     2
370
     9
100
AcDbLine
 10
1116.532321629525
 20
-853.0368833072775
 30
0.0
 11
1116.532321629525
 21
-848.6868833072775
 31
0.0
  0
LINE
  5
12F
330
1F
100
AcDbEntity
  8
建具
  6
Continuous
 62
     2
370
     9
100
AcDbLine
 10
1116.532321629525
 20
-863.7868833072774
 30
0.0
 11
1116.532321629525
 21
-861.7868833072775
 31
0.0
  0
LINE
  5
130
330
1F
100
AcDbEntity
  8
建具
  6
Continuous
 62
     2
370
     9
100
AcDbLine
 10
1112.151893766325
 20
-861.7868833072775
 30
0.0
 11
1108.571944017925
 21
-861.7868833072775
 31
0.0
  0
ARC
  5
131
330
1F
100
AcDbEntity
  8
建具
  6
Continuous
 62
     2
370
     9
100
AcDbCircle
 10
1106.242817063925
 20
-860.9118833072778
 30
0.0
 40
2.48806297505798
100
AcDbArc
 50
339.4099429856999
 51
20.59005701429995
  0
LINE
  5
132
330
1F
100
AcDbEntity
  8
建具
  6
Continuous
 62
     2
370
     9
100
AcDbLine
 10
1112.151893766325
 20
-860.0368833072774
 30
0.0
 11
1108.571944017925
 21
-860.0368833072774
 31
0.0
  0
LINE
  5
133
330
1F
100
AcDbEntity
  8
建具
  6
Continuous
 62
     2
370
     9
100
AcDbLine
 10
1112.151893766325
 20
-860.0368833072774
 30
0.0
 11
1112.151893766325
 21
-861.7868833072775
 31
0.0
  0
LINE
  5
134
330
1F
100
AcDbEntity
  8
建具
  6
Continuous
 62
     2
370
     9
100
AcDbLine
 10
1112.151893766325
 20
-854.7868833072777
 30
0.0
 11
1108.571944017925
 21
-854.7868833072777
 31
0.0
  0
ARC
  5
135
330
1F
100
AcDbEntity
  8
建具
  6
Continuous
 62
     2
370
     9
100
AcDbCircle
 10
1106.242817063925
 20
-853.9118833072773
 30
0.0
 40
2.48806297505798
100
AcDbArc
 50
339.4099429856999
 51
20.59005701429995
  0
LINE
  5
136
330
1F
100
AcDbEntity
  8
建具
  6
Continuous
 62
     2
370
     9
100
AcDbLine
 10
1112.151893766325
 20
-853.0368833072775
 30
0.0
 11
1108.571944017925
 21
-853.0368833072775
 31
0.0
  0
LINE
  5
137
330
1F
100
AcDbEntity
  8
建具
  6
Continuous
 62
     2
370
     9
100
AcDbLine
 10
1112.151893766325
 20
-853.0368833072775
 30
0.0
 11
1112.151893766325
 21
-854.7868833072777
 31
0.0
  0
LINE
  5
138
330
1F
100
AcDbEntity
  8
建具
  6
Continuous
 62
     2
370
     9
100
AcDbLine
 10
1112.151893766325
 20
-858.2868833072773
 30
0.0
 11
1108.571944017925
 21
-858.2868833072773
 31
0.0
  0
ARC
  5
139
330
1F
100
AcDbEntity
  8
建具
  6
Continuous
 62
     2
370
     9
100
AcDbCircle
 10
1106.242817063925
 20
-857.4118833072775
 30
0.0
 40
2.488062975056277
100
AcDbArc
 50
339.4099429856999
 51
20.59005701429995
  0
LINE
  5
13A
330
1F
100
AcDbEntity
  8
建具
  6
Continuous
 62
     2
370
     9
100
AcDbLine
 10
1112.151893766325
 20
-856.5368833072778
 30
0.0
 11
1108.571944017925
 21
-856.5368833072778
 31
0.0
  0
LINE
  5
13B
330
1F
100
AcDbEntity
  8
建具
  6
Continuous
 62
     2
370
     9
100
AcDbLine
 10
1112.151893766325
 20
-856.5368833072778
 30
0.0
 11
1112.151893766325
 21
-858.2868833072773
 31
0.0
  0
LINE
  5
13C
330
1F
100
AcDbEntity
  8
建具
  6
Continuous
 62
     2
370
     9
100
AcDbLine
 10
1108.571944017925
 20
-854.7868833072777
 30
0.0
 11
1108.571944017925
 21
-856.5368833072778
 31
0.0
  0
LINE
  5
13D
330
1F
100
AcDbEntity
  8
建具
  6
Continuous
 62
     2
370
     9
100
AcDbLine
 10
1112.151893766325
 20
-856.5368833072778
 30
0.0
 11
1112.151893766325
 21
-854.7868833072777
 31
0.0
  0
LINE
  5
13E
330
1F
100
AcDbEntity
  8
建具
  6
Continuous
 62
     2
370
     9
100
AcDbLine
 10
1108.571944017925
 20
-858.2868833072773
 30
0.0
 11
1108.571944017925
 21
-860.0368833072774
 31
0.0
  0
LINE
  5
13F
330
1F
100
AcDbEntity
  8
建具
  6
Continuous
 62
     2
370
     9
100
AcDbLine
 10
1112.151893766325
 20
-860.0368833072774
 30
0.0
 11
1112.151893766325
 21
-858.2868833072773
 31
0.0
  0
LINE
  5
140
330
1F
100
AcDbEntity
  8
建具
  6
Continuous
 62
     2
370
     9
100
AcDbLine
 10
1108.571944017925
 20
-848.6868833072775
 30
0.0
 11
1108.571944017925
 21
-853.0368833072775
 31
0.0
  0
LINE
  5
141
330
1F
100
AcDbEntity
  8
建具
  6
Continuous
 62
     2
370
     9
100
AcDbLine
 10
1112.151893766325
 20
-848.6868833072775
 30
0.0
 11
1108.571944017925
 21
-848.6868833072775
 31
0.0
  0
LINE
  5
142
330
1F
100
AcDbEntity
  8
建具
  6
Continuous
 62
     2
370
     9
100
AcDbLine
 10
1112.151893766325
 20
-853.0368833072775
 30
0.0
 11
1112.151893766325
 21
-848.6868833072775
 31
0.0
  0
LINE
  5
143
330
1F
100
AcDbEntity
  8
建具
  6
Continuous
 62
     2
370
     9
100
AcDbLine
 10
1108.571944017925
 20
-861.7868833072775
 30
0.0
 11
1108.571944017925
 21
-863.7868833072774
 31
0.0
  0
LINE
  5
144
330
1F
100
AcDbEntity
  8
建具
  6
Continuous
 62
     2
370
     9
100
AcDbLine
 10
1112.151893766325
 20
-863.7868833072774
 30
0.0
 11
1108.571944017925
 21
-863.7868833072774
 31
0.0
  0
LINE
  5
145
330
1F
100
AcDbEntity
  8
建具
  6
Continuous
 62
     2
370
     9
100
AcDbLine
 10
1112.151893766325
 20
-863.7868833072774
 30
0.0
 11
1112.151893766325
 21
-861.7868833072775
 31
0.0
  0
LINE
  5
146
330
1F
100
AcDbEntity
  8
建具
  6
Continuous
 62
     2
370
     9
100
AcDbLine
 10
1157.151893766325
 20
-861.7868833072775
 30
0.0
 11
1153.571944017925
 21
-861.7868833072775
 31
0.0
  0
ARC
  5
147
330
1F
100
AcDbEntity
  8
建具
  6
Continuous
 62
     2
370
     9
100
AcDbCircle
 10
1151.242817063925
 20
-860.9118833072778
 30
0.0
 40
2.48806297505798
100
AcDbArc
 50
339.4099429856999
 51
20.59005701429995
  0
LINE
  5
148
330
1F
100
AcDbEntity
  8
建具
  6
Continuous
 62
     2
370
     9
100
AcDbLine
 10
1157.151893766325
 20
-860.0368833072774
 30
0.0
 11
1153.571944017925
 21
-860.0368833072774
 31
0.0
  0
LINE
  5
149
330
1F
100
AcDbEntity
  8
建具
  6
Continuous
 62
     2
370
     9
100
AcDbLine
 10
1157.151893766325
 20
-860.0368833072774
 30
0.0
 11
1157.151893766325
 21
-861.7868833072775
 31
0.0
  0
LINE
  5
14A
330
1F
100
AcDbEntity
  8
建具
  6
Continuous
 62
     2
370
     9
100
AcDbLine
 10
1157.151893766325
 20
-858.2868833072773
 30
0.0
 11
1153.571944017925
 21
-858.2868833072773
 31
0.0
  0
ARC
  5
14B
330
1F
100
AcDbEntity
  8
建具
  6
Continuous
 62
     2
370
     9
100
AcDbCircle
 10
1151.242817063925
 20
-857.4118833072775
 30
0.0
 40
2.488062975056702
100
AcDbArc
 50
339.4099429856999
 51
20.59005701429995
  0
LINE
  5
14C
330
1F
100
AcDbEntity
  8
建具
  6
Continuous
 62
     2
370
     9
100
AcDbLine
 10
1157.151893766325
 20
-856.5368833072778
 30
0.0
 11
1153.571944017925
 21
-856.5368833072778
 31
0.0
  0
LINE
  5
14D
330
1F
100
AcDbEntity
  8
建具
  6
Continuous
 62
     2
370
     9
100
AcDbLine
 10
1157.151893766325
 20
-856.5368833072778
 30
0.0
 11
1157.151893766325
 21
-858.2868833072773
 31
0.0
  0
LINE
  5
14E
330
1F
100
AcDbEntity
  8
建具
  6
Continuous
 62
     2
370
     9
100
AcDbLine
 10
1157.151893766325
 20
-854.7868833072777
 30
0.0
 11
1153.571944017925
 21
-854.7868833072777
 31
0.0
  0
ARC
  5
14F
330
1F
100
AcDbEntity
  8
建具
  6
Continuous
 62
     2
370
     9
100
AcDbCircle
 10
1151.242817063925
 20
-853.9118833072773
 30
0.0
 40
2.48806297505798
100
AcDbArc
 50
339.4099429856999
 51
20.59005701429995
  0
LINE
  5
150
330
1F
100
AcDbEntity
  8
建具
  6
Continuous
 62
     2
370
     9
100
AcDbLine
 10
1157.151893766325
 20
-853.0368833072775
 30
0.0
 11
1153.571944017925
 21
-853.0368833072775
 31
0.0
  0
LINE
  5
151
330
1F
100
AcDbEntity
  8
建具
  6
Continuous
 62
     2
370
     9
100
AcDbLine
 10
1157.151893766325
 20
-853.0368833072775
 30
0.0
 11
1157.151893766325
 21
-854.7868833072777
 31
0.0
  0
LINE
  5
152
330
1F
100
AcDbEntity
  8
建具
  6
Continuous
 62
     2
370
     9
100
AcDbLine
 10
1153.571944017925
 20
-848.6868833072775
 30
0.0
 11
1153.571944017925
 21
-853.0368833072775
 31
0.0
  0
LINE
  5
153
330
1F
100
AcDbEntity
  8
建具
  6
Continuous
 62
     2
370
     9
100
AcDbLine
 10
1157.151893766325
 20
-848.6868833072775
 30
0.0
 11
1153.571944017925
 21
-848.6868833072775
 31
0.0
  0
LINE
  5
154
330
1F
100
AcDbEntity
  8
建具
  6
Continuous
 62
     2
370
     9
100
AcDbLine
 10
1157.151893766325
 20
-853.0368833072775
 30
0.0
 11
1157.151893766325
 21
-848.6868833072775
 31
0.0
  0
LINE
  5
155
330
1F
100
AcDbEntity
  8
建具
  6
Continuous
 62
     2
370
     9
100
AcDbLine
 10
1153.571944017925
 20
-861.7868833072775
 30
0.0
 11
1153.571944017925
 21
-863.7868833072774
 31
0.0
  0
LINE
  5
156
330
1F
100
AcDbEntity
  8
建具
  6
Continuous
 62
     2
370
     9
100
AcDbLine
 10
1157.151893766325
 20
-863.7868833072774
 30
0.0
 11
1153.571944017925
 21
-863.7868833072774
 31
0.0
  0
LINE
  5
157
330
1F
100
AcDbEntity
  8
建具
  6
Continuous
 62
     2
370
     9
100
AcDbLine
 10
1157.151893766325
 20
-863.7868833072774
 30
0.0
 11
1157.151893766325
 21
-861.7868833072775
 31
0.0
  0
LINE
  5
158
330
1F
100
AcDbEntity
  8
建具
  6
Continuous
 62
     2
370
     9
100
AcDbLine
 10
1153.571944017925
 20
-854.7868833072777
 30
0.0
 11
1153.571944017925
 21
-856.5368833072778
 31
0.0
  0
LINE
  5
159
330
1F
100
AcDbEntity
  8
建具
  6
Continuous
 62
     2
370
     9
100
AcDbLine
 10
1157.151893766325
 20
-856.5368833072778
 30
0.0
 11
1157.151893766325
 21
-854.7868833072777
 31
0.0
  0
LINE
  5
15A
330
1F
100
AcDbEntity
  8
建具
  6
Continuous
 62
     2
370
     9
100
AcDbLine
 10
1153.571944017925
 20
-858.2868833072773
 30
0.0
 11
1153.571944017925
 21
-860.0368833072774
 31
0.0
  0
LINE
  5
15B
330
1F
100
AcDbEntity
  8
建具
  6
Continuous
 62
     2
370
     9
100
AcDbLine
 10
1157.151893766325
 20
-860.0368833072774
 30
0.0
 11
1157.151893766325
 21
-858.2868833072773
 31
0.0
  0
LINE
  5
15C
330
1F
100
AcDbEntity
  8
建具
  6
Continuous
 62
     2
370
     9
100
AcDbLine
 10
1112.152371881125
 20
-853.0368833072775
 30
0.0
 11
1112.152371881125
 21
-848.6868833072775
 31
0.0
  0
LINE
  5
15D
330
1F
100
AcDbEntity
  8
建具
  6
Continuous
 62
     2
370
     9
100
AcDbLine
 10
1112.152371881125
 20
-863.7868833072774
 30
0.0
 11
1112.152371881125
 21
-861.7868833072775
 31
0.0
  0
LINE
  5
15E
330
1F
100
AcDbEntity
  8
建具
  6
Continuous
 62
     2
370
     9
100
AcDbLine
 10
1112.152371881125
 20
-856.5368833072778
 30
0.0
 11
1112.152371881125
 21
-854.7868833072777
 31
0.0
  0
LINE
  5
15F
330
1F
100
AcDbEntity
  8
建具
  6
Continuous
 62
     2
370
     9
100
AcDbLine
 10
1112.152371881125
 20
-860.0368833072774
 30
0.0
 11
1112.152371881125
 21
-858.2868833072773
 31
0.0
  0
LINE
  5
160
330
1F
100
AcDbEntity
  8
建具
  6
Continuous
 62
     2
370
     9
100
AcDbLine
 10
1157.152371881125
 20
-863.7868833072774
 30
0.0
 11
1157.152371881125
 21
-861.7868833072775
 31
0.0
  0
LINE
  5
161
330
1F
100
AcDbEntity
  8
建具
  6
Continuous
 62
     2
370
     9
100
AcDbLine
 10
1157.152371881125
 20
-853.0368833072775
 30
0.0
 11
1157.152371881125
 21
-848.6868833072775
 31
0.0
  0
LINE
  5
162
330
1F
100
AcDbEntity
  8
建具
  6
Continuous
 62
     2
370
     9
100
AcDbLine
 10
1157.152371881125
 20
-860.0368833072774
 30
0.0
 11
1157.152371881125
 21
-858.2868833072773
 31
0.0
  0
LINE
  5
163
330
1F
100
AcDbEntity
  8
建具
  6
Continuous
 62
     2
370
     9
100
AcDbLine
 10
1157.152371881125
 20
-856.5368833072778
 30
0.0
 11
1157.152371881125
 21
-854.7868833072777
 31
0.0
  0
LINE
  5
164
330
1F
100
AcDbEntity
  8
建具
  6
Continuous
 62
     2
370
     9
100
AcDbLine
 10
1114.301893766325
 20
-813.3868833072778
 30
0.0
 11
1114.302371881125
 21
-813.3868833072778
 31
0.0
  0
LINE
  5
165
330
1F
100
AcDbEntity
  8
建具
  6
Continuous
 62
     2
370
     9
100
AcDbLine
 10
1159.301893766325
 20
-813.3868833072778
 30
0.0
 11
1159.302371881125
 21
-813.3868833072778
 31
0.0
  0
LINE
  5
166
330
1F
100
AcDbEntity
  8
建具
  6
Continuous
 62
     2
370
     9
100
AcDbLine
 10
1160.551893766325
 20
-814.7868833072777
 30
0.0
 11
1155.052371881125
 21
-814.7868833072777
 31
0.0
  0
LINE
  5
167
330
1F
100
AcDbEntity
  8
建具
  6
Continuous
 62
     2
370
     9
100
AcDbLine
 10
1155.801893766325
 20
-813.3868833072778
 30
0.0
 11
1159.301893766325
 21
-813.3868833072778
 31
0.0
  0
LINE
  5
168
330
1F
100
AcDbEntity
  8
建具
  6
Continuous
 62
     2
370
     9
100
AcDbLine
 10
1110.801893766325
 20
-813.3868833072778
 30
0.0
 11
1114.301893766325
 21
-813.3868833072778
 31
0.0
  0
LINE
  5
169
330
1F
100
AcDbEntity
  8
建具
  6
Continuous
 62
     2
370
     9
100
AcDbLine
 10
1115.052371881125
 20
-814.7868833072777
 30
0.0
 11
1109.551893766325
 21
-814.7868833072777
 31
0.0
  0
LINE
  5
16A
330
1F
100
AcDbEntity
  8
建具
  6
Continuous
 62
     2
370
     9
100
AcDbLine
 10
1163.181537005725
 20
-818.3868833072778
 30
0.0
 11
1163.048128113526
 21
-818.390043712278
 31
0.0
  0
LINE
  5
16B
330
1F
100
AcDbEntity
  8
建具
  6
Continuous
 62
     2
370
     9
100
AcDbLine
 10
1163.048128113526
 20
-818.390043712278
 30
0.0
 11
1161.305148630825
 21
-818.9674398908777
 31
0.0
  0
LINE
  5
16C
330
1F
100
AcDbEntity
  8
建具
  6
Continuous
 62
     2
370
     9
100
AcDbLine
 10
1157.552371881125
 20
-818.3868833072778
 30
0.0
 11
1158.573652512625
 21
-818.432922782278
 31
0.0
  0
LINE
  5
16D
330
1F
100
AcDbEntity
  8
建具
  6
Continuous
 62
     2
370
     9
100
AcDbLine
 10
1158.573652512625
 20
-818.432922782278
 30
0.0
 11
1161.305148630825
 21
-818.9674398908777
 31
0.0
  0
LINE
  5
16E
330
1F
100
AcDbEntity
  8
建具
  6
Continuous
 62
     2
370
     9
100
AcDbLine
 10
1157.552371881125
 20
-818.3868833072778
 30
0.0
 11
1163.181537005725
 21
-818.3868833072778
 31
0.0
  0
LINE
  5
16F
330
1F
100
AcDbEntity
  8
建具
  6
Continuous
 62
     2
370
     9
100
AcDbLine
 10
1155.052371881125
 20
-818.684978329478
 30
0.0
 11
1157.552371881125
 21
-818.3868833072778
 31
0.0
  0
LINE
  5
170
330
1F
100
AcDbEntity
  8
建具
  6
Continuous
 62
     2
370
     9
100
AcDbLine
 10
1157.552371881125
 20
-818.3868833072778
 30
0.0
 11
1155.052371881125
 21
-818.3868833072778
 31
0.0
  0
LINE
  5
171
330
1F
100
AcDbEntity
  8
建具
  6
Continuous
 62
     2
370
     9
100
AcDbLine
 10
1161.305148630825
 20
-825.1868833072779
 30
0.0
 11
1161.305148630825
 21
-818.9674398908777
 31
0.0
  0
LINE
  5
172
330
1F
100
AcDbEntity
  8
建具
  6
Continuous
 62
     2
370
     9
100
AcDbLine
 10
1165.057925380525
 20
-818.9674398908777
 30
0.0
 11
1163.181537005725
 21
-818.3868833072778
 31
0.0
  0
LINE
  5
173
330
1F
100
AcDbEntity
  8
建具
  6
Continuous
 62
     2
370
     9
100
AcDbLine
 10
1165.057925380525
 20
-825.1868833072779
 30
0.0
 11
1165.057925380525
 21
-818.9674398908777
 31
0.0
  0
LINE
  5
174
330
1F
100
AcDbEntity
  8
建具
  6
Continuous
 62
     2
370
     9
100
AcDbLine
 10
1164.052371881125
 20
-818.3868833072778
 30
0.0
 11
1163.181537005725
 21
-818.3868833072778
 31
0.0
  0
LINE
  5
175
330
1F
100
AcDbEntity
  8
建具
  6
Continuous
 62
     2
370
     9
100
AcDbLine
 10
1112.552371881125
 20
-818.3868833072778
 30
0.0
 11
1113.573652512625
 21
-818.432922782278
 31
0.0
  0
LINE
  5
176
330
1F
100
AcDbEntity
  8
建具
  6
Continuous
 62
     2
370
     9
100
AcDbLine
 10
1113.573652512625
 20
-818.432922782278
 30
0.0
 11
1115.052371881125
 21
-818.7222883047774
 31
0.0
  0
LINE
  5
177
330
1F
100
AcDbEntity
  8
建具
  6
Continuous
 62
     2
370
     9
100
AcDbLine
 10
1112.552371881125
 20
-818.3868833072778
 30
0.0
 11
1115.052371881125
 21
-818.3868833072778
 31
0.0
  0
LINE
  5
178
330
1F
100
AcDbEntity
  8
建具
  6
Continuous
 62
     2
370
     9
100
AcDbLine
 10
1108.799595131325
 20
-825.1868833072779
 30
0.0
 11
1108.799595131325
 21
-818.9674398908777
 31
0.0
  0
LINE
  5
179
330
1F
100
AcDbEntity
  8
建具
  6
Continuous
 62
     2
370
     9
100
AcDbLine
 10
1108.799595131325
 20
-818.9674398908777
 30
0.0
 11
1109.747911149525
 21
-818.7212816208778
 31
0.0
  0
LINE
  5
17A
330
1F
100
AcDbEntity
  8
建具
  6
Continuous
 62
     2
370
     9
100
AcDbLine
 10
1109.747911149525
 20
-818.7212816208778
 30
0.0
 11
1112.552371881125
 21
-818.3868833072778
 31
0.0
  0
LINE
  5
17B
330
1F
100
AcDbEntity
  8
建具
  6
Continuous
 62
     2
370
     9
100
AcDbLine
 10
1105.046818381625
 20
-825.1868833072779
 30
0.0
 11
1105.046818381625
 21
-818.9674398908777
 31
0.0
  0
LINE
  5
17C
330
1F
100
AcDbEntity
  8
建具
  6
Continuous
 62
     2
370
     9
100
AcDbLine
 10
1106.923206756525
 20
-818.3868833072778
 30
0.0
 11
1106.789797864425
 21
-818.390043712278
 31
0.0
  0
LINE
  5
17D
330
1F
100
AcDbEntity
  8
建具
  6
Continuous
 62
     2
370
     9
100
AcDbLine
 10
1106.789797864425
 20
-818.390043712278
 30
0.0
 11
1105.046818381625
 21
-818.9674398908777
 31
0.0
  0
LINE
  5
17E
330
1F
100
AcDbEntity
  8
建具
  6
Continuous
 62
     2
370
     9
100
AcDbLine
 10
1108.799595131325
 20
-818.9674398908777
 30
0.0
 11
1106.923206756525
 21
-818.3868833072778
 31
0.0
  0
LINE
  5
17F
330
1F
100
AcDbEntity
  8
建具
  6
Continuous
 62
     2
370
     9
100
AcDbLine
 10
1112.552371881125
 20
-818.3868833072778
 30
0.0
 11
1106.923206756525
 21
-818.3868833072778
 31
0.0
  0
LINE
  5
180
330
1F
100
AcDbEntity
  8
建具
  6
Continuous
 62
     2
370
     9
100
AcDbLine
 10
1106.923206756525
 20
-818.3868833072778
 30
0.0
 11
1106.052371881125
 21
-818.3868833072778
 31
0.0
  0
LINE
  5
181
330
1F
100
AcDbEntity
  8
建具
  6
Continuous
 62
     2
370
     9
100
AcDbLine
 10
1104.552371881125
 20
-825.1868833072779
 30
0.0
 11
1115.052371881125
 21
-825.1868833072779
 31
0.0
  0
LINE
  5
182
330
1F
100
AcDbEntity
  8
建具
  6
Continuous
 62
     2
370
     9
100
AcDbLine
 10
1155.052371881125
 20
-825.1868833072779
 30
0.0
 11
1165.552371881125
 21
-825.1868833072779
 31
0.0
  0
LINE
  5
183
330
1F
100
AcDbEntity
  8
建具
  6
JWW_CENTER2
 62
     2
370
     9
100
AcDbLine
 10
1112.551893766325
 20
-871.4721159400777
 30
0.0
 11
1112.551893766325
 21
-809.0444439541777
 31
0.0
  0
LINE
  5
184
330
1F
100
AcDbEntity
  8
建具
  6
JWW_CENTER2
 62
     2
370
     9
100
AcDbLine
 10
1157.551893766325
 20
-869.5898745736774
 30
0.0
 11
1157.551893766325
 21
-806.534788798878
 31
0.0
  0
LINE
  5
185
330
1F
100
AcDbEntity
  8
建具
  6
Continuous
 62
     2
370
     9
100
AcDbLine
 10
1106.552371881126
 20
-835.7768833072753
 30
0.0
 11
1106.552371881126
 21
-835.7868833072773
 31
0.0
  0
LINE
  5
186
330
1F
100
AcDbEntity
  8
建具
  6
Continuous
 62
     2
370
     9
100
AcDbLine
 10
1106.552371881126
 20
-835.7768833072753
 30
0.0
 11
1106.552371881126
 21
-835.7868833072773
 31
0.0
  0
CIRCLE
  5
187
330
1F
100
AcDbEntity
  8
建具
  6
Continuous
 62
     7
370
     0
100
AcDbCircle
 10
1147.352371434085
 20
304.2131405345821
 30
0.0
 40
4.999999999999637
  0
LINE
  5
188
330
1F
100
AcDbEntity
  8
建具
  6
Continuous
 62
     7
370
     0
100
AcDbLine
 10
1147.352371028765
 20
305.9452372066421
 30
0.0
 11
1145.852371714225
 21
305.0791817180621
 31
0.0
  0
LINE
  5
189
330
1F
100
AcDbEntity
  8
建具
  6
Continuous
 62
     7
370
     0
100
AcDbLine
 10
1145.852371714225
 20
305.0791817180621
 30
0.0
 11
1145.852371714225
 21
303.3470707408821
 31
0.0
  0
LINE
  5
18A
330
1F
100
AcDbEntity
  8
建具
  6
Continuous
 62
     7
370
     0
100
AcDbLine
 10
1145.852371714225
 20
303.3470707408821
 30
0.0
 11
1147.352371028765
 21
302.481134461582
 31
0.0
  0
LINE
  5
18B
330
1F
100
AcDbEntity
  8
建具
  6
Continuous
 62
     7
370
     0
100
AcDbLine
 10
1147.352371028765
 20
302.481134461582
 30
0.0
 11
1148.852371274645
 21
303.3470707408821
 31
0.0
  0
LINE
  5
18C
330
1F
100
AcDbEntity
  8
建具
  6
Continuous
 62
     7
370
     0
100
AcDbLine
 10
1148.852371274645
 20
303.3470707408821
 30
0.0
 11
1148.852371274645
 21
305.0791817180621
 31
0.0
  0
LINE
  5
18D
330
1F
100
AcDbEntity
  8
建具
  6
Continuous
 62
     7
370
     0
100
AcDbLine
 10
1148.852371274645
 20
305.0791817180621
 30
0.0
 11
1147.352371028765
 21
305.9452372066421
 31
0.0
  0
CIRCLE
  5
18E
330
1F
100
AcDbEntity
  8
建具
  6
Continuous
 62
     7
370
     0
100
AcDbCircle
 10
1122.752371434085
 20
304.2131405345821
 30
0.0
 40
4.999999999999637
  0
LINE
  5
18F
330
1F
100
AcDbEntity
  8
建具
  6
Continuous
 62
     7
370
     0
100
AcDbLine
 10
1122.752371839385
 20
305.9452372066421
 30
0.0
 11
1121.252371593525
 21
305.0791817180621
 31
0.0
  0
LINE
  5
190
330
1F
100
AcDbEntity
  8
建具
  6
Continuous
 62
     7
370
     0
100
AcDbLine
 10
1121.252371593525
 20
305.0791817180621
 30
0.0
 11
1121.252371593525
 21
303.3470707408821
 31
0.0
  0
LINE
  5
191
330
1F
100
AcDbEntity
  8
建具
  6
Continuous
 62
     7
370
     0
100
AcDbLine
 10
1121.252371593525
 20
303.3470707408821
 30
0.0
 11
1122.752371839385
 21
302.481134461582
 31
0.0
  0
LINE
  5
192
330
1F
100
AcDbEntity
  8
建具
  6
Continuous
 62
     7
370
     0
100
AcDbLine
 10
1122.752371839385
 20
302.481134461582
 30
0.0
 11
1124.252371153945
 21
303.3470707408821
 31
0.0
  0
LINE
  5
193
330
1F
100
AcDbEntity
  8
建具
  6
Continuous
 62
     7
370
     0
100
AcDbLine
 10
1124.252371153945
 20
303.3470707408821
 30
0.0
 11
1124.252371153945
 21
305.0791817180621
 31
0.0
  0
LINE
  5
194
330
1F
100
AcDbEntity
  8
建具
  6
Continuous
 62
     7
370
     0
100
AcDbLine
 10
1124.252371153945
 20
305.0791817180621
 30
0.0
 11
1122.752371839385
 21
305.9452372066421
 31
0.0
  0
CIRCLE
  5
195
330
1F
100
AcDbEntity
  8
建具
  6
Continuous
 62
     7
370
     0
100
AcDbCircle
 10
1147.352371434085
 20
304.2131405345821
 30
0.0
 40
5.200000000000183
  0
CIRCLE
  5
196
330
1F
100
AcDbEntity
  8
建具
  6
Continuous
 62
     7
370
     0
100
AcDbCircle
 10
1122.752371434085
 20
304.2131405345821
 30
0.0
 40
5.200000000000183
  0
INSERT
  5
197
330
1F
100
AcDbEntity
  8
建具
  6
Continuous
 62
     7
370
     9
100
AcDbBlockReference
  2
SW_CENTERMARKSYMBOL_37@@SfigorgFlag@@4_0-3_
 10
1147.352371434085
 20
304.2131405345821
 30
0.0
 41
1.0
 42
1.0
  0
INSERT
  5
198
330
1F
100
AcDbEntity
  8
建具
  6
Continuous
 62
     7
370
     9
100
AcDbBlockReference
  2
SW_CENTERMARKSYMBOL_39@@SfigorgFlag@@4_0-3_
 10
1122.752371434085
 20
304.2131405345821
 30
0.0
 41
1.0
 42
1.0
  0
INSERT
  5
199
330
1F
100
AcDbEntity
  8
建具
  6
Continuous
 62
     7
370
     9
100
AcDbBlockReference
  2
SW_CENTERMARKSYMBOL_36@@SfigorgFlag@@4_0-3_
 10
1147.352371434085
 20
-695.786859465418
 30
0.0
 41
1.0
 42
1.0
  0
INSERT
  5
19A
330
1F
100
AcDbEntity
  8
建具
  6
Continuous
 62
     7
370
     9
100
AcDbBlockReference
  2
SW_CENTERMARKSYMBOL_38@@SfigorgFlag@@4_0-3_
 10
1122.752371434085
 20
-695.786859465418
 30
0.0
 41
1.0
 42
1.0
  0
LINE
  5
19B
330
1F
100
AcDbEntity
  8
通り芯
  6
JWW_DASHED1
 62
     4
370
     9
100
AcDbLine
 10
1153.052371434085
 20
-705.7868594654183
 30
0.0
 11
1116.413948486513
 21
-705.7868594654183
 31
0.0
  0
LINE
  5
19C
330
1F
100
AcDbEntity
  8
通り芯
  6
JWW_DASHED1
 62
     4
370
     9
100
AcDbLine
 10
1153.052371434085
 20
-685.7868594654183
 30
0.0
 11
1116.413948486513
 21
-685.7868594654183
 31
0.0
  0
ARC
  5
19D
330
1F
100
AcDbEntity
  8
通り芯
  6
JWW_DASHED1
 62
     4
370
     9
100
AcDbCircle
 10
1153.052371434086
 20
-687.7868594654182
 30
0.0
 40
2.0
100
AcDbArc
 50
0.0000000000000127
 51
90.0
  0
ARC
  5
19E
330
1F
100
AcDbEntity
  8
通り芯
  6
JWW_DASHED1
 62
     4
370
     9
100
AcDbCircle
 10
1153.052371434086
 20
-703.7868594654184
 30
0.0
 40
2.0
100
AcDbArc
 50
270.0
 51
0.0
  0
ARC
  5
19F
330
1F
100
AcDbEntity
  8
通り芯
  6
JWW_DASHED1
 62
     4
370
     9
100
AcDbCircle
 10
1117.052371434086
 20
-703.7868594654184
 30
0.0
 40
2.0
100
AcDbArc
 50
180.0
 51
251.3847551281358
  0
ARC
  5
1A0
330
1F
100
AcDbEntity
  8
通り芯
  6
JWW_DASHED1
 62
     4
370
     9
100
AcDbCircle
 10
1117.052371434086
 20
-687.7868594654182
 30
0.0
 40
2.0
100
AcDbArc
 50
108.6152448718642
 51
180.0
  0
CIRCLE
  5
1A1
330
1F
100
AcDbEntity
  8
建具
  6
Continuous
 62
     7
370
     0
100
AcDbCircle
 10
1122.752370987045
 20
-695.786859465418
 30
0.0
 40
5.000000000000001
  0
LINE
  5
1A2
330
1F
100
AcDbEntity
  8
建具
  6
Continuous
 62
     7
370
     0
100
AcDbLine
 10
1122.752371392345
 20
-694.0548074968381
 30
0.0
 11
1121.252371146485
 21
-694.9208331830981
 31
0.0
  0
LINE
  5
1A3
330
1F
100
AcDbEntity
  8
建具
  6
Continuous
 62
     7
370
     0
100
AcDbLine
 10
1121.252371146485
 20
-694.9208331830981
 30
0.0
 11
1121.252371146485
 21
-696.6528845556381
 31
0.0
  0
LINE
  5
1A4
330
1F
100
AcDbEntity
  8
建具
  6
Continuous
 62
     7
370
     0
100
AcDbLine
 10
1121.252371146485
 20
-696.6528845556381
 30
0.0
 11
1122.752371392345
 21
-697.5189102418982
 31
0.0
  0
LINE
  5
1A5
330
1F
100
AcDbEntity
  8
建具
  6
Continuous
 62
     7
370
     0
100
AcDbLine
 10
1122.752371392345
 20
-697.5189102418982
 30
0.0
 11
1124.252370706905
 21
-696.6528845556381
 31
0.0
  0
LINE
  5
1A6
330
1F
100
AcDbEntity
  8
建具
  6
Continuous
 62
     7
370
     0
100
AcDbLine
 10
1124.252370706905
 20
-696.6528845556381
 30
0.0
 11
1124.252370706905
 21
-694.9208331830981
 31
0.0
  0
LINE
  5
1A7
330
1F
100
AcDbEntity
  8
建具
  6
Continuous
 62
     7
370
     0
100
AcDbLine
 10
1124.252370706905
 20
-694.9208331830981
 30
0.0
 11
1122.752371392345
 21
-694.0548074968381
 31
0.0
  0
CIRCLE
  5
1A8
330
1F
100
AcDbEntity
  8
建具
  6
Continuous
 62
     7
370
     0
100
AcDbCircle
 10
1147.352370987045
 20
-695.786859465418
 30
0.0
 40
5.000000000000001
  0
LINE
  5
1A9
330
1F
100
AcDbEntity
  8
建具
  6
Continuous
 62
     7
370
     0
100
AcDbLine
 10
1147.352370581725
 20
-694.0548074968381
 30
0.0
 11
1145.852371267185
 21
-694.9208331830981
 31
0.0
  0
LINE
  5
1AA
330
1F
100
AcDbEntity
  8
建具
  6
Continuous
 62
     7
370
     0
100
AcDbLine
 10
1145.852371267185
 20
-694.9208331830981
 30
0.0
 11
1145.852371267185
 21
-696.6528845556381
 31
0.0
  0
LINE
  5
1AB
330
1F
100
AcDbEntity
  8
建具
  6
Continuous
 62
     7
370
     0
100
AcDbLine
 10
1145.852371267185
 20
-696.6528845556381
 30
0.0
 11
1147.352370581725
 21
-697.5189102418982
 31
0.0
  0
LINE
  5
1AC
330
1F
100
AcDbEntity
  8
建具
  6
Continuous
 62
     7
370
     0
100
AcDbLine
 10
1147.352370581725
 20
-697.5189102418982
 30
0.0
 11
1148.852370827605
 21
-696.6528845556381
 31
0.0
  0
LINE
  5
1AD
330
1F
100
AcDbEntity
  8
建具
  6
Continuous
 62
     7
370
     0
100
AcDbLine
 10
1148.852370827605
 20
-696.6528845556381
 30
0.0
 11
1148.852370827605
 21
-694.9208331830981
 31
0.0
  0
LINE
  5
1AE
330
1F
100
AcDbEntity
  8
建具
  6
Continuous
 62
     7
370
     0
100
AcDbLine
 10
1148.852370827605
 20
-694.9208331830981
 30
0.0
 11
1147.352370581725
 21
-694.0548074968381
 31
0.0
  0
CIRCLE
  5
1AF
330
1F
100
AcDbEntity
  8
建具
  6
Continuous
 62
     7
370
     0
100
AcDbCircle
 10
1147.352370987045
 20
-695.786859465418
 30
0.0
 40
5.200000000000001
  0
CIRCLE
  5
1B0
330
1F
100
AcDbEntity
  8
建具
  6
Continuous
 62
     7
370
     0
100
AcDbCircle
 10
1122.752370987045
 20
-695.786859465418
 30
0.0
 40
5.199999999999819
  0
LINE
  5
1B1
330
1F
100
AcDbEntity
  8
通り芯
  6
JWW_DASHED1
 62
     4
370
     9
100
AcDbLine
 10
1153.052371434084
 20
294.2131405345817
 30
0.0
 11
1116.413948486512
 21
294.2131405345817
 31
0.0
  0
ARC
  5
1B2
330
1F
100
AcDbEntity
  8
通り芯
  6
JWW_DASHED1
 62
     4
370
     0
100
AcDbCircle
 10
1153.052371434085
 20
296.213140534582
 30
0.0
 40
2.0
100
AcDbArc
 50
270.0
 51
0.0
  0
ARC
  5
1B3
330
1F
100
AcDbEntity
  8
通り芯
  6
JWW_DASHED1
 62
     4
370
     0
100
AcDbCircle
 10
1117.052371434084
 20
296.213140534582
 30
0.0
 40
2.0
100
AcDbArc
 50
180.0
 51
251.3847551281358
  0
ARC
  5
1B4
330
1F
100
AcDbEntity
  8
通り芯
  6
JWW_DASHED1
 62
     4
370
     0
100
AcDbCircle
 10
1117.052371434084
 20
296.213140534582
 30
0.0
 40
2.0
100
AcDbArc
 50
251.3847551281358
 51
270.0
  0
ARC
  5
1B5
330
1F
100
AcDbEntity
  8
通り芯
  6
JWW_DASHED1
 62
     4
370
     0
100
AcDbCircle
 10
1117.052371434086
 20
-703.7868594654184
 30
0.0
 40
2.0
100
AcDbArc
 50
251.3847551281358
 51
270.0
  0
ARC
  5
1B6
330
1F
100
AcDbEntity
  8
通り芯
  6
JWW_DASHED1
 62
     4
370
     0
100
AcDbCircle
 10
1117.052371434086
 20
-687.7868594654182
 30
0.0
 40
2.0
100
AcDbArc
 50
90.00000000000001
 51
108.6152448718642
  0
TEXT
  5
1B7
330
1F
100
AcDbEntity
  8
寸法
  6
Continuous
 62
     7
370
     9
100
AcDbText
 10
1268.292788780266
 20
-1008.54278268122
 30
0.0
 40
22.86
  1
ＳＵＳ３０４
 41
1.138888888888887
  7
ＭＳ ゴシック
100
AcDbText
  0
LINE
  5
1B8
330
1F
100
AcDbEntity
  8
寸法
  6
Continuous
 62
     7
370
     9
100
AcDbLine
 10
1265.20025702127
 20
-971.3457376027875
 30
0.0
 11
1787.329994905185
 21
-971.3457376027875
 31
0.0
  0
LINE
  5
1B9
330
1F
100
AcDbEntity
  8
0-E
  6
Continuous
 62
     7
370
     9
100
AcDbLine
 10
-506.9721973851067
 20
1004.314267225226
 30
0.0
 11
-610.1282834630925
 21
901.1581811472412
 31
0.0
  0
LINE
  5
1BA
330
1F
100
AcDbEntity
  8
0-E
  6
Continuous
 62
     7
370
     9
100
AcDbLine
 10
-412.8647525780262
 20
1112.563818551094
 30
0.0
 11
-483.9208744182075
 21
1041.507696710912
 31
0.0
  0
LINE
  5
1BB
330
1F
100
AcDbEntity
  8
その他
  6
Continuous
 62
     7
370
     9
100
AcDbLine
 10
348.0278026148934
 20
706.0549958763194
 30
0.0
 11
348.0278026148934
 21
854.0077552211558
 31
0.0
  0
LINE
  5
1BC
330
1F
100
AcDbEntity
  8
その他
  6
Continuous
 62
     7
370
     9
100
AcDbLine
 10
-411.9721973851067
 20
706.0549958763194
 30
0.0
 11
-411.9721973851067
 21
854.0077552211558
 31
0.0
  0
LINE
  5
1BD
330
1F
100
AcDbEntity
  8
0-E
  6
Continuous
 62
     7
370
     9
100
AcDbLine
 10
-341.9724326085421
 20
981.5077552211552
 30
0.0
 11
-341.9724326085421
 21
1031.507756009466
 31
0.0
  0
LINE
  5
1BE
330
1F
100
AcDbEntity
  8
0-E
  6
Continuous
 62
     7
370
     9
100
AcDbLine
 10
-506.9721973851067
 20
801.0495233387884
 30
0.0
 11
-506.9721973851067
 21
1041.507696710912
 31
0.0
  0
LINE
  5
1BF
330
1F
100
AcDbEntity
  8
0-E
  6
Continuous
 62
     7
370
     9
100
AcDbLine
 10
430.3270783518072
 20
1031.507756009466
 30
0.0
 11
-341.9724326085421
 21
1031.507756009466
 31
0.0
  0
LINE
  5
1C0
330
1F
100
AcDbEntity
  8
0-E
  6
Continuous
 62
     7
370
     9
100
AcDbLine
 10
430.3270783518072
 20
1041.507696710912
 30
0.0
 11
-506.9721973851067
 21
1041.507696710912
 31
0.0
  0
LINE
  5
1C1
330
1F
100
AcDbEntity
  8
0-E
  6
Continuous
 62
     7
370
     9
100
AcDbLine
 10
430.3270783518072
 20
1091.507697499223
 30
0.0
 11
-391.972433396853
 21
1091.507697499223
 31
0.0
  0
LINE
  5
1C2
330
1F
100
AcDbEntity
  8
0-E
  6
Continuous
 62
     7
370
     9
100
AcDbLine
 10
430.3270783518072
 20
981.5077552211552
 30
0.0
 11
-341.9724326085421
 21
981.5077552211552
 31
0.0
  0
LINE
  5
1C3
330
1F
100
AcDbEntity
  8
0-E
  6
Continuous
 62
     7
370
     9
100
AcDbLine
 10
430.3270783518072
 20
981.5077552211552
 30
0.0
 11
430.3270783518072
 21
1031.507756009466
 31
0.0
  0
LINE
  5
1C4
330
1F
100
AcDbEntity
  8
0-E
  6
Continuous
 62
     7
370
     9
100
AcDbLine
 10
430.3270783518072
 20
1041.507696710912
 30
0.0
 11
430.3270783518072
 21
1091.507697499223
 31
0.0
  0
LINE
  5
1C5
330
1F
100
AcDbEntity
  8
0-E
  6
Continuous
 62
     7
370
     9
100
AcDbLine
 10
-361.9724626519733
 20
1059.007741578983
 30
0.0
 11
-361.9724626519733
 21
1074.007652631153
 31
0.0
  0
LINE
  5
1C6
330
1F
100
AcDbEntity
  8
0-E
  6
Continuous
 62
     7
370
     9
100
AcDbLine
 10
-341.9724326085421
 20
1041.507696710912
 30
0.0
 11
-341.9724326085421
 21
1059.007741578983
 31
0.0
  0
LINE
  5
1C7
330
1F
100
AcDbEntity
  8
0-E
  6
Continuous
 62
     7
370
     9
100
AcDbLine
 10
-341.9724326085421
 20
1074.007652631153
 30
0.0
 11
-341.9724326085421
 21
1091.507697499223
 31
0.0
  0
LINE
  5
1C8
330
1F
100
AcDbEntity
  8
0-E
  6
Continuous
 62
     7
370
     9
100
AcDbLine
 10
380.3270775634965
 20
1041.507696710912
 30
0.0
 11
380.3270775634965
 21
1059.007741578983
 31
0.0
  0
LINE
  5
1C9
330
1F
100
AcDbEntity
  8
0-E
  6
Continuous
 62
     7
370
     9
100
AcDbLine
 10
380.3270775634965
 20
1074.007652631153
 30
0.0
 11
380.3270775634965
 21
1091.507697499223
 31
0.0
  0
LINE
  5
1CA
330
1F
100
AcDbEntity
  8
0-E
  6
Continuous
 62
     7
370
     9
100
AcDbLine
 10
-361.9724626519733
 20
1074.007652631153
 30
0.0
 11
400.3271076069282
 21
1074.007652631153
 31
0.0
  0
LINE
  5
1CB
330
1F
100
AcDbEntity
  8
0-E
  6
Continuous
 62
     7
370
     9
100
AcDbLine
 10
400.3271076069282
 20
1059.007741578983
 30
0.0
 11
400.3271076069282
 21
1074.007652631153
 31
0.0
  0
LINE
  5
1CC
330
1F
100
AcDbEntity
  8
0-E
  6
Continuous
 62
     7
370
     9
100
AcDbLine
 10
-361.9724626519733
 20
1059.007741578983
 30
0.0
 11
400.3271076069282
 21
1059.007741578983
 31
0.0
  0
LINE
  5
1CD
330
1F
100
AcDbEntity
  8
0-E
  6
Continuous
 62
     7
370
     9
100
AcDbLine
 10
-311.9724618636642
 20
999.0078000892244
 30
0.0
 11
-311.9724618636642
 21
1014.007711141396
 31
0.0
  0
LINE
  5
1CE
330
1F
100
AcDbEntity
  8
0-E
  6
Continuous
 62
     7
370
     9
100
AcDbLine
 10
-291.9724318202325
 20
981.5077552211552
 30
0.0
 11
-291.9724318202325
 21
999.0078000892244
 31
0.0
  0
LINE
  5
1CF
330
1F
100
AcDbEntity
  8
0-E
  6
Continuous
 62
     7
370
     9
100
AcDbLine
 10
-291.9724318202325
 20
1014.007711141396
 30
0.0
 11
-291.9724318202325
 21
1031.507756009466
 31
0.0
  0
LINE
  5
1D0
330
1F
100
AcDbEntity
  8
0-E
  6
Continuous
 62
     7
370
     9
100
AcDbLine
 10
380.3270775634965
 20
981.5077552211552
 30
0.0
 11
380.3270775634965
 21
999.0078000892244
 31
0.0
  0
LINE
  5
1D1
330
1F
100
AcDbEntity
  8
0-E
  6
Continuous
 62
     7
370
     9
100
AcDbLine
 10
380.3270775634965
 20
1014.007711141396
 30
0.0
 11
380.3270775634965
 21
1031.507756009466
 31
0.0
  0
LINE
  5
1D2
330
1F
100
AcDbEntity
  8
0-E
  6
Continuous
 62
     7
370
     9
100
AcDbLine
 10
-311.9724618636642
 20
1014.007711141396
 30
0.0
 11
400.3271076069282
 21
1014.007711141396
 31
0.0
  0
LINE
  5
1D3
330
1F
100
AcDbEntity
  8
0-E
  6
Continuous
 62
     7
370
     9
100
AcDbLine
 10
400.3271076069282
 20
999.0078000892244
 30
0.0
 11
400.3271076069282
 21
1014.007711141396
 31
0.0
  0
LINE
  5
1D4
330
1F
100
AcDbEntity
  8
0-E
  6
Continuous
 62
     7
370
     9
100
AcDbLine
 10
-311.9724618636642
 20
999.0078000892244
 30
0.0
 11
400.3271076069282
 21
999.0078000892244
 31
0.0
  0
LINE
  5
1D5
330
1F
100
AcDbEntity
  8
0-E
  6
Continuous
 62
     7
370
     9
100
AcDbLine
 10
-506.9721973851067
 20
851.3909514383421
 30
0.0
 11
-557.3136254846614
 21
801.0495233387884
 31
0.0
  0
LINE
  5
1D6
330
1F
100
AcDbEntity
  8
0-E
  6
Continuous
 62
     7
370
     9
100
AcDbLine
 10
-506.9721973851067
 20
837.2488449195567
 30
0.0
 11
-543.171518965875
 21
801.0495233387884
 31
0.0
  0
LINE
  5
1D7
330
1F
100
AcDbEntity
  8
0-E
  6
Continuous
 62
     7
370
     9
100
AcDbLine
 10
-506.9721973851067
 20
823.1067384007714
 30
0.0
 11
-529.0294124470902
 21
801.0495233387884
 31
0.0
  0
LINE
  5
1D8
330
1F
100
AcDbEntity
  8
0-E
  6
Continuous
 62
     7
370
     9
100
AcDbLine
 10
-506.9721973851067
 20
1018.456373744012
 30
0.0
 11
-610.1282834630925
 21
915.3002876660265
 31
0.0
  0
LINE
  5
1D9
330
1F
100
AcDbEntity
  8
0-E
  6
Continuous
 62
     7
370
     9
100
AcDbLine
 10
-391.972433396853
 20
1105.171924694696
 30
0.0
 11
-455.6366613806351
 21
1041.507696710912
 31
0.0
  0
LINE
  5
1DA
330
1F
100
AcDbEntity
  8
0-E
  6
Continuous
 62
     7
370
     9
100
AcDbLine
 10
-506.9721973851067
 20
990.1721607064406
 30
0.0
 11
-610.1282834630925
 21
887.0160746284558
 31
0.0
  0
LINE
  5
1DB
330
1F
100
AcDbEntity
  8
0-E
  6
Continuous
 62
     7
370
     9
100
AcDbLine
 10
-567.2386513559528
 20
1112.563818551094
 30
0.0
 11
-610.1282834630925
 21
1069.674186443954
 31
0.0
  0
LINE
  5
1DC
330
1F
100
AcDbEntity
  8
0-E
  6
Continuous
 62
     7
370
     9
100
AcDbLine
 10
-581.3807578747393
 20
1112.563818551094
 30
0.0
 11
-610.1282834630925
 21
1083.81629296274
 31
0.0
  0
LINE
  5
1DD
330
1F
100
AcDbEntity
  8
0-E
  6
Continuous
 62
     7
370
     9
100
AcDbLine
 10
-595.5228643935252
 20
1112.563818551094
 30
0.0
 11
-610.1282834630925
 21
1097.958399481526
 31
0.0
  0
LINE
  5
1DE
330
1F
100
AcDbEntity
  8
0-E
  6
Continuous
 62
     7
370
     9
100
AcDbLine
 10
-391.972433396853
 20
1041.507696710912
 30
0.0
 11
-391.972433396853
 21
1112.563818551094
 31
0.0
  0
LINE
  5
1DF
330
1F
100
AcDbEntity
  8
0-E
  6
Continuous
 62
     7
370
     9
100
AcDbLine
 10
-398.7226460592403
 20
1112.563818551094
 30
0.0
 11
-469.7787678994216
 21
1041.507696710912
 31
0.0
  0
LINE
  5
1E0
330
1F
100
AcDbEntity
  8
0-E
  6
JWW_PHANTOM1
 62
     7
370
     9
100
AcDbLine
 10
542.3272005542399
 20
1031.507756009466
 30
0.0
 11
444.9630329033052
 21
1031.507756009466
 31
0.0
  0
LINE
  5
1E1
330
1F
100
AcDbEntity
  8
0-E
  6
JWW_PHANTOM1
 62
     7
370
     9
100
AcDbLine
 10
542.3272005542399
 20
981.5077552211552
 30
0.0
 11
444.9630329033052
 21
981.5077552211552
 31
0.0
  0
LINE
  5
1E2
330
1F
100
AcDbEntity
  8
0-E
  6
JWW_PHANTOM1
 62
     7
370
     9
100
AcDbLine
 10
542.3272005542399
 20
981.5077552211552
 30
0.0
 11
542.3272005542399
 21
1031.507756009466
 31
0.0
  0
LINE
  5
1E3
330
1F
100
AcDbEntity
  8
0-E
  6
JWW_PHANTOM1
 62
     7
370
     9
100
AcDbLine
 10
492.327199765929
 20
981.5077552211552
 30
0.0
 11
492.327199765929
 21
999.0078000892244
 31
0.0
  0
LINE
  5
1E4
330
1F
100
AcDbEntity
  8
0-E
  6
JWW_PHANTOM1
 62
     7
370
     9
100
AcDbLine
 10
492.327199765929
 20
1014.007711141396
 30
0.0
 11
492.327199765929
 21
1031.507756009466
 31
0.0
  0
LINE
  5
1E5
330
1F
100
AcDbEntity
  8
0-E
  6
JWW_PHANTOM1
 62
     7
370
     9
100
AcDbLine
 10
444.9630329033052
 20
1014.007711141396
 30
0.0
 11
512.3272298093607
 21
1014.007711141396
 31
0.0
  0
LINE
  5
1E6
330
1F
100
AcDbEntity
  8
0-E
  6
JWW_PHANTOM1
 62
     7
370
     9
100
AcDbLine
 10
512.3272298093607
 20
999.0078000892244
 30
0.0
 11
512.3272298093607
 21
1014.007711141396
 31
0.0
  0
LINE
  5
1E7
330
1F
100
AcDbEntity
  8
0-E
  6
JWW_PHANTOM1
 62
     7
370
     9
100
AcDbLine
 10
444.9630329033052
 20
999.0078000892244
 30
0.0
 11
512.3272298093607
 21
999.0078000892244
 31
0.0
  0
LINE
  5
1E8
330
1F
100
AcDbEntity
  8
その他
  6
Continuous
 62
     7
370
     9
100
AcDbLine
 10
634.2390937719838
 20
981.5077552211552
 30
0.0
 11
562.3272005542399
 21
981.5077552211552
 31
0.0
  0
LINE
  5
1E9
330
1F
100
AcDbEntity
  8
その他
  6
Continuous
 62
     7
370
     9
100
AcDbLine
 10
-506.9721973851067
 20
1187.792332274907
 30
0.0
 11
-406.9721973851067
 21
1187.792332274907
 31
0.0
  0
LWPOLYLINE
  5
1EA
330
1F
100
AcDbEntity
  8
その他
  6
Continuous
 62
     7
370
     9
100
AcDbPolyline
 90
        4
 70
     1
 43
2.0
 10
-505.9721973851067
 20
1187.792332274907
 42
0.4142135623731
 10
-506.9721973851067
 20
1188.792332274906
 42
0.4142135623731
 10
-507.9721973851067
 20
1187.792332274907
 42
0.4142135623731
 10
-506.9721973851067
 20
1186.792332274907
 42
0.4142135623731
  0
LWPOLYLINE
  5
1EB
330
1F
100
AcDbEntity
  8
その他
  6
Continuous
 62
     7
370
     9
100
AcDbPolyline
 90
        4
 70
     1
 43
2.0
 10
-405.9721973851067
 20
1187.792332274907
 42
0.4142135623731
 10
-406.9721973851067
 20
1188.792332274906
 42
0.4142135623731
 10
-407.9721973851067
 20
1187.792332274907
 42
0.4142135623731
 10
-406.9721973851067
 20
1186.792332274907
 42
0.4142135623731
  0
LINE
  5
1EC
330
1F
100
AcDbEntity
  8
その他
  6
Continuous
 62
     7
370
     9
100
AcDbLine
 10
-506.9721973851067
 20
1190.792332274906
 30
0.0
 11
-506.9721973851067
 21
1061.507696710912
 31
0.0
  0
LINE
  5
1ED
330
1F
100
AcDbEntity
  8
その他
  6
Continuous
 62
     7
370
     9
100
AcDbLine
 10
-406.9721973851067
 20
1190.792332274906
 30
0.0
 11
-406.9721973851067
 21
959.5077552211548
 31
0.0
  0
LWPOLYLINE
  5
1EE
330
1F
100
AcDbEntity
  8
その他
  6
Continuous
 62
     7
370
     9
100
AcDbPolyline
 90
        4
 70
     1
 43
2.0
 10
632.2390937719832
 20
981.5077552211552
 42
0.4142135623731
 10
631.2390937719831
 20
982.5077552211552
 42
0.4142135623731
 10
630.2390937719831
 20
981.5077552211552
 42
0.4142135623731
 10
631.2390937719831
 20
980.5077552211553
 42
0.4142135623731
  0
LINE
  5
1EF
330
1F
100
AcDbEntity
  8
その他
  6
Continuous
 62
     7
370
     9
100
AcDbLine
 10
695.6438198014532
 20
936.921067700098
 30
0.0
 11
631.2390937719831
 21
960.9133450686592
 31
0.0
  0
TEXT
  5
1F0
330
1F
100
AcDbEntity
  8
その他
  6
Continuous
 62
     2
370
   211
100
AcDbText
 10
-560.3614058028459
 20
1199.432332274906
 30
0.0
 40
30.48
  1
100mm以上
 41
1.097222222222222
  7
ＭＳ ゴシック
100
AcDbText
  0
LINE
  5
1F1
330
1F
100
AcDbEntity
  8
その他
  6
Continuous
 62
     7
370
     9
100
AcDbLine
 10
348.0278026148934
 20
769.4116488255646
 30
0.0
 11
308.0278026148934
 21
769.4116488255646
 31
0.0
  0
LWPOLYLINE
  5
1F2
330
1F
100
AcDbEntity
  8
その他
  6
Continuous
 62
     7
370
     9
100
AcDbPolyline
 90
        4
 70
     1
 43
2.0
 10
349.0278026148934
 20
769.4116488255646
 42
0.4142135623731
 10
348.0278026148934
 20
770.4116488255646
 42
0.4142135623731
 10
347.0278026148934
 20
769.4116488255646
 42
0.4142135623731
 10
348.0278026148934
 20
768.4116488255647
 42
0.4142135623731
  0
LWPOLYLINE
  5
1F3
330
1F
100
AcDbEntity
  8
その他
  6
Continuous
 62
     7
370
     9
100
AcDbPolyline
 90
        4
 70
     1
 43
2.0
 10
309.0278026148934
 20
769.4116488255646
 42
0.4142135623731
 10
308.0278026148934
 20
770.4116488255646
 42
0.4142135623731
 10
307.0278026148934
 20
769.4116488255646
 42
0.4142135623731
 10
308.0278026148934
 20
768.4116488255647
 42
0.4142135623731
  0
LINE
  5
1F4
330
1F
100
AcDbEntity
  8
その他
  6
Continuous
 62
     7
370
     9
100
AcDbLine
 10
348.0278026148934
 20
766.4116488255645
 30
0.0
 11
348.0278026148934
 21
854.0077552211558
 31
0.0
  0
LINE
  5
1F5
330
1F
100
AcDbEntity
  8
その他
  6
Continuous
 62
     7
370
     9
100
AcDbLine
 10
308.0278026148934
 20
766.4116488255645
 30
0.0
 11
308.0278026148934
 21
854.0077552211558
 31
0.0
  0
TEXT
  5
1F6
330
1F
100
AcDbEntity
  8
その他
  6
Continuous
 62
     2
370
   211
100
AcDbText
 10
306.7778026148934
 20
781.0516488255648
 30
0.0
 40
30.48
  1
40
 41
1.0625
  7
ＭＳ ゴシック
100
AcDbText
  0
LINE
  5
1F7
330
1F
100
AcDbEntity
  8
その他
  6
Continuous
 62
     7
370
     9
100
AcDbLine
 10
348.0278026148934
 20
709.0549958763189
 30
0.0
 11
-411.9721973851067
 21
709.0549958763189
 31
0.0
  0
LWPOLYLINE
  5
1F8
330
1F
100
AcDbEntity
  8
その他
  6
Continuous
 62
     7
370
     9
100
AcDbPolyline
 90
        4
 70
     1
 43
2.0
 10
349.0278026148934
 20
709.0549958763189
 42
0.4142135623731
 10
348.0278026148934
 20
710.0549958763189
 42
0.4142135623731
 10
347.0278026148934
 20
709.0549958763189
 42
0.4142135623731
 10
348.0278026148934
 20
708.054995876319
 42
0.4142135623731
  0
LWPOLYLINE
  5
1F9
330
1F
100
AcDbEntity
  8
その他
  6
Continuous
 62
     7
370
     9
100
AcDbPolyline
 90
        4
 70
     1
 43
2.0
 10
-410.9721973851067
 20
709.0549958763189
 42
0.4142135623731
 10
-411.9721973851067
 20
710.0549958763189
 42
0.4142135623731
 10
-412.9721973851067
 20
709.0549958763189
 42
0.4142135623731
 10
-411.9721973851067
 20
708.054995876319
 42
0.4142135623731
  0
TEXT
  5
1FA
330
1F
100
AcDbEntity
  8
その他
  6
Continuous
 62
     2
370
   211
100
AcDbText
 10
-64.47219738510665
 20
720.6949958763191
 30
0.0
 40
30.48
  1
760
 41
1.083333333333333
  7
ＭＳ ゴシック
100
AcDbText
  0
LWPOLYLINE
  5
1FB
330
1F
100
AcDbEntity
  8
その他
  6
Continuous
 62
     7
370
     9
100
AcDbPolyline
 90
        4
 70
     1
 43
2.0
 10
632.2390937719832
 20
931.5077552211552
 42
0.4142135623731
 10
631.2390937719831
 20
932.5077552211552
 42
0.4142135623731
 10
630.2390937719831
 20
931.5077552211552
 42
0.4142135623731
 10
631.2390937719831
 20
930.5077552211553
 42
0.4142135623731
  0
LINE
  5
1FC
330
1F
100
AcDbEntity
  8
その他
  6
Continuous
 62
     7
370
     9
100
AcDbLine
 10
634.2390937719838
 20
931.5077552211552
 30
0.0
 11
408.5278026148907
 21
931.5077552211552
 31
0.0
  0
LINE
  5
1FD
330
1F
100
AcDbEntity
  8
その他
  6
Continuous
 62
     7
370
     9
100
AcDbLine
 10
631.2390937719831
 20
981.5077552211552
 30
0.0
 11
631.2390937719831
 21
931.5077552211552
 31
0.0
  0
TEXT
  5
1FE
330
1F
100
AcDbEntity
  8
その他
  6
Continuous
 62
     2
370
   211
100
AcDbText
 10
683.6682044447444
 20
798.6017315000016
 30
0.0
 40
30.48
  1
50㎜以上
 50
90.0
 41
0.7687500000000006
  7
ＭＳ ゴシック
100
AcDbText
  0
LINE
  5
1FF
330
1F
100
AcDbEntity
  8
その他
  6
Continuous
 62
     7
370
     9
100
AcDbLine
 10
-456.2164995417149
 20
949.0077552211558
 30
0.0
 11
-456.2164995417149
 21
874.0077552211558
 31
0.0
  0
LWPOLYLINE
  5
200
330
1F
100
AcDbEntity
  8
その他
  6
Continuous
 62
     7
370
     9
100
AcDbPolyline
 90
        4
 70
     1
 43
2.0
 10
-455.2164995417149
 20
949.0077552211558
 42
0.4142135623731
 10
-456.2164995417149
 20
950.0077552211558
 42
0.4142135623731
 10
-457.2164995417149
 20
949.0077552211558
 42
0.4142135623731
 10
-456.2164995417149
 20
948.0077552211559
 42
0.4142135623731
  0
LWPOLYLINE
  5
201
330
1F
100
AcDbEntity
  8
その他
  6
Continuous
 62
     7
370
     9
100
AcDbPolyline
 90
        4
 70
     1
 43
2.0
 10
-455.2164995417149
 20
874.0077552211558
 42
0.4142135623731
 10
-456.2164995417149
 20
875.0077552211558
 42
0.4142135623731
 10
-457.2164995417149
 20
874.0077552211558
 42
0.4142135623731
 10
-456.2164995417149
 20
873.0077552211559
 42
0.4142135623731
  0
LINE
  5
202
330
1F
100
AcDbEntity
  8
その他
  6
Continuous
 62
     7
370
     9
100
AcDbLine
 10
-459.2164995417148
 20
949.0077552211558
 30
0.0
 11
-431.9721973851067
 21
949.0077552211558
 31
0.0
  0
LINE
  5
203
330
1F
100
AcDbEntity
  8
その他
  6
Continuous
 62
     7
370
     9
100
AcDbLine
 10
-459.2164995417148
 20
874.0077552211558
 30
0.0
 11
-431.9721973851067
 21
874.0077552211558
 31
0.0
  0
TEXT
  5
204
330
1F
100
AcDbEntity
  8
その他
  6
Continuous
 62
     2
370
   211
100
AcDbText
 10
-467.8564995417149
 20
890.2577552211558
 30
0.0
 40
30.48
  1
75
 50
90.0
 41
1.0625
  7
ＭＳ ゴシック
100
AcDbText
  0
LINE
  5
205
330
1F
100
AcDbEntity
  8
通り芯
  6
Continuous
 62
     4
370
     0
100
AcDbLine
 10
308.0278026148934
 20
892.0077552211559
 30
0.0
 11
308.0278026148934
 21
874.0077552211558
 31
0.0
  0
LINE
  5
206
330
1F
100
AcDbEntity
  8
通り芯
  6
Continuous
 62
     4
370
     0
100
AcDbLine
 10
308.0278026148934
 20
949.0077552211558
 30
0.0
 11
308.0278026148934
 21
931.0077552211557
 31
0.0
  0
LINE
  5
207
330
1F
100
AcDbEntity
  8
通り芯
  6
Continuous
 62
     4
370
     0
100
AcDbLine
 10
348.0278026148934
 20
949.0077552211558
 30
0.0
 11
308.0278026148934
 21
949.0077552211558
 31
0.0
  0
LINE
  5
208
330
1F
100
AcDbEntity
  8
通り芯
  6
Continuous
 62
     4
370
     0
100
AcDbLine
 10
308.0278026148934
 20
874.0077552211558
 30
0.0
 11
348.0278026148934
 21
874.0077552211558
 31
0.0
  0
LINE
  5
209
330
1F
100
AcDbEntity
  8
通り芯
  6
Continuous
 62
     4
370
     0
100
AcDbLine
 10
348.0278026148934
 20
874.0077552211558
 30
0.0
 11
348.0278026148934
 21
949.0077552211558
 31
0.0
  0
LINE
  5
20A
330
1F
100
AcDbEntity
  8
通り芯
  6
Continuous
 62
     4
370
     0
100
AcDbLine
 10
334.0277992770344
 20
892.0077552658553
 30
0.0
 11
-397.9721977725267
 21
892.0077552658553
 31
0.0
  0
LINE
  5
20B
330
1F
100
AcDbEntity
  8
通り芯
  6
Continuous
 62
     4
370
     0
100
AcDbLine
 10
-397.9721977725267
 20
931.0077560705157
 30
0.0
 11
334.0277992770344
 21
931.0077560705157
 31
0.0
  0
LINE
  5
20C
330
1F
100
AcDbEntity
  8
通り芯
  6
Continuous
 62
     4
370
     0
100
AcDbLine
 10
334.0277992770344
 20
928.6077564221956
 30
0.0
 11
334.0277992770344
 21
894.4077549141953
 31
0.0
  0
LINE
  5
20D
330
1F
100
AcDbEntity
  8
通り芯
  6
Continuous
 62
     4
370
     0
100
AcDbLine
 10
-397.9721977725267
 20
928.6077564221956
 30
0.0
 11
-397.9721977725267
 21
894.4077549141953
 31
0.0
  0
LINE
  5
20E
330
1F
100
AcDbEntity
  8
通り芯
  6
Continuous
 62
     4
370
     0
100
AcDbLine
 10
-406.9721973851067
 20
931.5077552211552
 30
0.0
 11
-397.9721977725267
 21
931.5077552211552
 31
0.0
  0
LINE
  5
20F
330
1F
100
AcDbEntity
  8
通り芯
  6
Continuous
 62
     4
370
     0
100
AcDbLine
 10
-397.9721977725267
 20
931.5077552211552
 30
0.0
 11
-397.9721977725267
 21
929.5077548933353
 31
0.0
  0
LINE
  5
210
330
1F
100
AcDbEntity
  8
通り芯
  6
Continuous
 62
     4
370
     0
100
AcDbLine
 10
-406.9721973851067
 20
929.5077548933353
 30
0.0
 11
-406.9721973851067
 21
931.5077552211552
 31
0.0
  0
LINE
  5
211
330
1F
100
AcDbEntity
  8
通り芯
  6
Continuous
 62
     4
370
     0
100
AcDbLine
 10
-397.9721977725267
 20
891.5077561152357
 30
0.0
 11
-406.9721973851067
 21
891.5077561152357
 31
0.0
  0
LINE
  5
212
330
1F
100
AcDbEntity
  8
通り芯
  6
Continuous
 62
     4
370
     0
100
AcDbLine
 10
-397.9721977725267
 20
893.5077564430555
 30
0.0
 11
-397.9721977725267
 21
891.5077561152357
 31
0.0
  0
LINE
  5
213
330
1F
100
AcDbEntity
  8
通り芯
  6
Continuous
 62
     4
370
     0
100
AcDbLine
 10
-406.9721973851067
 20
891.5077561152357
 30
0.0
 11
-406.9721973851067
 21
893.5077564430555
 31
0.0
  0
LINE
  5
214
330
1F
100
AcDbEntity
  8
通り芯
  6
Continuous
 62
     4
370
     0
100
AcDbLine
 10
-397.9721977725267
 20
929.5077548933353
 30
0.0
 11
-397.9721977725267
 21
893.5077564430555
 31
0.0
  0
LINE
  5
215
330
1F
100
AcDbEntity
  8
通り芯
  6
Continuous
 62
     4
370
     0
100
AcDbLine
 10
-406.9721973851067
 20
929.5077548933353
 30
0.0
 11
-406.9721973851067
 21
893.5077564430555
 31
0.0
  0
LINE
  5
216
330
1F
100
AcDbEntity
  8
通り芯
  6
Continuous
 62
     4
370
     0
100
AcDbLine
 10
343.0278026148945
 20
891.5077561152357
 30
0.0
 11
334.0277992770344
 21
891.5077561152357
 31
0.0
  0
LINE
  5
217
330
1F
100
AcDbEntity
  8
通り芯
  6
Continuous
 62
     4
370
     0
100
AcDbLine
 10
334.0277992770344
 20
891.5077561152357
 30
0.0
 11
334.0277992770344
 21
893.5077564430555
 31
0.0
  0
LINE
  5
218
330
1F
100
AcDbEntity
  8
通り芯
  6
Continuous
 62
     4
370
     0
100
AcDbLine
 10
343.0278026148945
 20
893.5077564430555
 30
0.0
 11
343.0278026148945
 21
891.5077561152357
 31
0.0
  0
LINE
  5
219
330
1F
100
AcDbEntity
  8
通り芯
  6
Continuous
 62
     4
370
     0
100
AcDbLine
 10
334.0277992770344
 20
893.5077564430555
 30
0.0
 11
334.0277992770344
 21
929.5077548933353
 31
0.0
  0
LINE
  5
21A
330
1F
100
AcDbEntity
  8
通り芯
  6
Continuous
 62
     4
370
     0
100
AcDbLine
 10
343.0278026148945
 20
893.5077564430555
 30
0.0
 11
343.0278026148945
 21
929.5077548933353
 31
0.0
  0
LINE
  5
21B
330
1F
100
AcDbEntity
  8
通り芯
  6
Continuous
 62
     4
370
     0
100
AcDbLine
 10
334.0277992770344
 20
931.5077552211552
 30
0.0
 11
343.0278026148945
 21
931.5077552211552
 31
0.0
  0
LINE
  5
21C
330
1F
100
AcDbEntity
  8
通り芯
  6
Continuous
 62
     4
370
     0
100
AcDbLine
 10
334.0277992770344
 20
929.5077548933353
 30
0.0
 11
334.0277992770344
 21
931.5077552211552
 31
0.0
  0
LINE
  5
21D
330
1F
100
AcDbEntity
  8
通り芯
  6
Continuous
 62
     4
370
     0
100
AcDbLine
 10
343.0278026148945
 20
931.5077552211552
 30
0.0
 11
343.0278026148945
 21
929.5077548933353
 31
0.0
  0
LINE
  5
21E
330
1F
100
AcDbEntity
  8
通り芯
  6
Continuous
 62
     4
370
     0
100
AcDbLine
 10
-371.9721973851066
 20
874.0077552211558
 30
0.0
 11
-371.9721973851066
 21
892.0077552211559
 31
0.0
  0
LINE
  5
21F
330
1F
100
AcDbEntity
  8
通り芯
  6
Continuous
 62
     4
370
     0
100
AcDbLine
 10
-371.9721973851066
 20
931.0077552211557
 30
0.0
 11
-371.9721973851066
 21
949.0077552211558
 31
0.0
  0
LINE
  5
220
330
1F
100
AcDbEntity
  8
通り芯
  6
Continuous
 62
     4
370
     0
100
AcDbLine
 10
-411.9721973851067
 20
874.0077552211558
 30
0.0
 11
-371.9721973851066
 21
874.0077552211558
 31
0.0
  0
LINE
  5
221
330
1F
100
AcDbEntity
  8
通り芯
  6
Continuous
 62
     4
370
     0
100
AcDbLine
 10
-411.9721973851067
 20
949.0077552211558
 30
0.0
 11
-411.9721973851067
 21
874.0077552211558
 31
0.0
  0
LINE
  5
222
330
1F
100
AcDbEntity
  8
通り芯
  6
Continuous
 62
     4
370
     0
100
AcDbLine
 10
-371.9721973851066
 20
949.0077552211558
 30
0.0
 11
-411.9721973851067
 21
949.0077552211558
 31
0.0
  0
INSERT
  5
223
330
1F
100
AcDbEntity
  8
建具
  6
Continuous
 62
     2
370
     9
100
AcDbBlockReference
  2
SW_CENTERMARKSYMBOL_13@@SfigorgFlag@@4_0-3_
 10
320.0278026148933
 20
934.0077552211558
 30
0.0
  0
INSERT
  5
224
330
1F
100
AcDbEntity
  8
建具
  6
Continuous
 62
     2
370
     9
100
AcDbBlockReference
  2
SW_CENTERMARKSYMBOL_12@@SfigorgFlag@@4_0-3_
 10
320.0278026148933
 20
934.007277106456
 30
0.0
  0
INSERT
  5
225
330
1F
100
AcDbEntity
  8
建具
  6
Continuous
 62
     2
370
     9
100
AcDbBlockReference
  2
SW_CENTERMARKSYMBOL_11@@SfigorgFlag@@4_0-3_
 10
320.0278026148933
 20
889.007277106456
 30
0.0
  0
INSERT
  5
226
330
1F
100
AcDbEntity
  8
建具
  6
Continuous
 62
     2
370
     9
100
AcDbBlockReference
  2
SW_CENTERMARKSYMBOL_10@@SfigorgFlag@@4_0-3_
 10
320.0278026148933
 20
889.0077552211558
 30
0.0
  0
ARC
  5
227
330
1F
100
AcDbEntity
  8
建具
  6
Continuous
 62
     2
370
     9
100
AcDbCircle
 10
320.0278026148933
 20
934.0077552211558
 30
0.0
 40
8.0
100
AcDbArc
 50
337.9756871629
 51
89.99999999999999
  0
ARC
  5
228
330
1F
100
AcDbEntity
  8
建具
  6
Continuous
 62
     2
370
     9
100
AcDbCircle
 10
320.0278026148933
 20
934.0077552211558
 30
0.0
 40
8.0
100
AcDbArc
 50
90.0
 51
202.0243128371
  0
ARC
  5
229
330
1F
100
AcDbEntity
  8
建具
  6
Continuous
 62
     2
370
     9
100
AcDbCircle
 10
320.0278026148933
 20
889.0077552211558
 30
0.0
 40
8.0000000000001
100
AcDbArc
 50
157.975687163
 51
22.02431283699997
  0
LINE
  5
22A
330
1F
100
AcDbEntity
  8
建具
  6
Continuous
 62
     2
370
     9
100
AcDbLine
 10
320.0278026148933
 20
881.5022017217559
 30
0.0
 11
316.7778026148934
 21
883.3785900965559
 31
0.0
  0
LINE
  5
22B
330
1F
100
AcDbEntity
  8
建具
  6
Continuous
 62
     2
370
     9
100
AcDbLine
 10
323.2778026148934
 20
883.3785900965559
 30
0.0
 11
320.0278026148933
 21
881.5022017217559
 31
0.0
  0
LINE
  5
22C
330
1F
100
AcDbEntity
  8
建具
  6
Continuous
 62
     2
370
     9
100
AcDbLine
 10
326.5278026148933
 20
885.2549784714558
 30
0.0
 11
326.5278026148933
 21
889.0077552211558
 31
0.0
  0
LINE
  5
22D
330
1F
100
AcDbEntity
  8
建具
  6
Continuous
 62
     2
370
     9
100
AcDbLine
 10
326.5278026148933
 20
885.2549784714558
 30
0.0
 11
323.2778026148934
 21
883.3785900965559
 31
0.0
  0
ARC
  5
22E
330
1F
100
AcDbEntity
  8
建具
  6
Continuous
 62
     2
370
     9
100
AcDbCircle
 10
320.0278026148933
 20
889.0077552211558
 30
0.0
 40
4.0
100
AcDbArc
 50
131.4096221094
 51
0.0
  0
ARC
  5
22F
330
1F
100
AcDbEntity
  8
建具
  6
Continuous
 62
     2
370
     9
100
AcDbCircle
 10
320.0278026148933
 20
889.0077552211558
 30
0.0
 40
4.0
100
AcDbArc
 50
0.0
 51
48.5903778906
  0
ARC
  5
230
330
1F
100
AcDbEntity
  8
建具
  6
Continuous
 62
     2
370
     9
100
AcDbCircle
 10
320.0278026148933
 20
889.0077552211558
 30
0.0
 40
6.500000000000141
100
AcDbArc
 50
240.0
 51
300.0
  0
ARC
  5
231
330
1F
100
AcDbEntity
  8
建具
  6
Continuous
 62
     2
370
     9
100
AcDbCircle
 10
320.0278026148933
 20
889.0077552211558
 30
0.0
 40
6.500000000000141
100
AcDbArc
 50
300.0
 51
0.0000000000000127
  0
LINE
  5
232
330
1F
100
AcDbEntity
  8
建具
  6
Continuous
 62
     2
370
     9
100
AcDbLine
 10
313.5278026148934
 20
885.2549784714558
 30
0.0
 11
313.5278026148934
 21
889.0077552211558
 31
0.0
  0
ARC
  5
233
330
1F
100
AcDbEntity
  8
建具
  6
Continuous
 62
     2
370
     9
100
AcDbCircle
 10
320.0278026148933
 20
889.0077552211558
 30
0.0
 40
6.500000000000141
100
AcDbArc
 50
180.0
 51
240.0
  0
LINE
  5
234
330
1F
100
AcDbEntity
  8
建具
  6
Continuous
 62
     2
370
     9
100
AcDbLine
 10
316.7778026148934
 20
883.3785900965559
 30
0.0
 11
313.5278026148934
 21
885.2549784714558
 31
0.0
  0
LINE
  5
235
330
1F
100
AcDbEntity
  8
建具
  6
Continuous
 62
     2
370
     9
100
AcDbLine
 10
313.5278026148934
 20
889.0077552211558
 30
0.0
 11
313.5278026148934
 21
892.0077552211559
 31
0.0
  0
ARC
  5
236
330
1F
100
AcDbEntity
  8
建具
  6
Continuous
 62
     2
370
     9
100
AcDbCircle
 10
320.0278026148933
 20
889.0077552211558
 30
0.0
 40
6.5
100
AcDbArc
 50
152.5135737497
 51
180.0
  0
ARC
  5
237
330
1F
100
AcDbEntity
  8
建具
  6
Continuous
 62
     2
370
     9
100
AcDbCircle
 10
320.0278026148933
 20
889.0077552211558
 30
0.0
 40
6.500000000000387
100
AcDbArc
 50
0.0
 51
27.4864262503
  0
LINE
  5
238
330
1F
100
AcDbEntity
  8
建具
  6
Continuous
 62
     2
370
     9
100
AcDbLine
 10
326.5278026148933
 20
889.0077552211558
 30
0.0
 11
326.5278026148933
 21
892.0077552211559
 31
0.0
  0
ARC
  5
239
330
1F
100
AcDbEntity
  8
建具
  6
Continuous
 62
     2
370
     9
100
AcDbCircle
 10
320.0278026148933
 20
934.0077552211558
 30
0.0
 40
4.000000000000074
100
AcDbArc
 50
79.6591574987
 51
110.1314655352
  0
LINE
  5
23A
330
1F
100
AcDbEntity
  8
建具
  6
Continuous
 62
     2
370
     9
100
AcDbLine
 10
324.0278026148933
 20
934.0077552211558
 30
0.0
 11
323.9593716347934
 21
934.7444811144557
 31
0.0
  0
LINE
  5
23B
330
1F
100
AcDbEntity
  8
建具
  6
Continuous
 62
     2
370
     9
100
AcDbLine
 10
313.5278026148934
 20
931.0077552211557
 30
0.0
 11
313.5278026148934
 21
934.0077552211558
 31
0.0
  0
ARC
  5
23C
330
1F
100
AcDbEntity
  8
建具
  6
Continuous
 62
     2
370
     9
100
AcDbCircle
 10
320.0278026148933
 20
934.0077552211558
 30
0.0
 40
6.5
100
AcDbArc
 50
180.0
 51
207.4864262504
  0
LINE
  5
23D
330
1F
100
AcDbEntity
  8
建具
  6
Continuous
 62
     2
370
     9
100
AcDbLine
 10
326.5278026148933
 20
931.0077552211557
 30
0.0
 11
326.5278026148933
 21
934.0077552211558
 31
0.0
  0
ARC
  5
23E
330
1F
100
AcDbEntity
  8
建具
  6
Continuous
 62
     2
370
     9
100
AcDbCircle
 10
320.0278026148933
 20
934.0077552211558
 30
0.0
 40
6.500000000000341
100
AcDbArc
 50
332.5135737496
 51
0.0000000000000064
  0
ARC
  5
23F
330
1F
100
AcDbEntity
  8
建具
  6
Continuous
 62
     2
370
     9
100
AcDbCircle
 10
320.0278026148933
 20
934.0077552211558
 30
0.0
 40
6.499999999999942
100
AcDbArc
 50
60.0
 51
120.0
  0
LINE
  5
240
330
1F
100
AcDbEntity
  8
建具
  6
Continuous
 62
     2
370
     9
100
AcDbLine
 10
320.0278026148933
 20
941.5133087206557
 30
0.0
 11
323.2778026148934
 21
939.6369203457557
 31
0.0
  0
LINE
  5
241
330
1F
100
AcDbEntity
  8
建具
  6
Continuous
 62
     2
370
     9
100
AcDbLine
 10
316.7778026148934
 20
939.6369203457557
 30
0.0
 11
320.0278026148933
 21
941.5133087206557
 31
0.0
  0
LINE
  5
242
330
1F
100
AcDbEntity
  8
建具
  6
Continuous
 62
     2
370
     9
100
AcDbLine
 10
313.5278026148934
 20
934.0077552211558
 30
0.0
 11
313.5278026148934
 21
937.7605319709558
 31
0.0
  0
ARC
  5
243
330
1F
100
AcDbEntity
  8
建具
  6
Continuous
 62
     2
370
     9
100
AcDbCircle
 10
320.0278026148933
 20
934.0077552211558
 30
0.0
 40
6.5
100
AcDbArc
 50
120.0
 51
180.0
  0
LINE
  5
244
330
1F
100
AcDbEntity
  8
建具
  6
Continuous
 62
     2
370
     9
100
AcDbLine
 10
313.5278026148934
 20
937.7605319709558
 30
0.0
 11
316.7778026148934
 21
939.6369203457557
 31
0.0
  0
ARC
  5
245
330
1F
100
AcDbEntity
  8
建具
  6
Continuous
 62
     2
370
     9
100
AcDbCircle
 10
320.0278026148933
 20
934.0077552211558
 30
0.0
 40
6.5
100
AcDbArc
 50
0.0
 51
60.0
  0
LINE
  5
246
330
1F
100
AcDbEntity
  8
建具
  6
Continuous
 62
     2
370
     9
100
AcDbLine
 10
326.5278026148933
 20
934.0077552211558
 30
0.0
 11
326.5278026148933
 21
937.7605319709558
 31
0.0
  0
LINE
  5
247
330
1F
100
AcDbEntity
  8
建具
  6
Continuous
 62
     2
370
     9
100
AcDbLine
 10
323.2778026148934
 20
939.6369203457557
 30
0.0
 11
326.5278026148933
 21
937.7605319709558
 31
0.0
  0
CIRCLE
  5
248
330
1F
100
AcDbEntity
  8
建具
  6
Continuous
 62
     2
370
     9
100
AcDbCircle
 10
320.0278026148933
 20
889.007277106456
 30
0.0
 40
3.000000000000227
  0
CIRCLE
  5
249
330
1F
100
AcDbEntity
  8
建具
  6
Continuous
 62
     2
370
     9
100
AcDbCircle
 10
320.0278026148933
 20
889.007277106456
 30
0.0
 40
1.75
  0
ARC
  5
24A
330
1F
100
AcDbEntity
  8
建具
  6
Continuous
 62
     2
370
     9
100
AcDbCircle
 10
320.0278026148933
 20
934.007277106456
 30
0.0
 40
3.000000000000227
100
AcDbArc
 50
90.0
 51
268.9770630866
  0
ARC
  5
24B
330
1F
100
AcDbEntity
  8
建具
  6
Continuous
 62
     2
370
     9
100
AcDbCircle
 10
320.0278026148933
 20
934.007277106456
 30
0.0
 40
3.000000000000227
100
AcDbArc
 50
271.0229369134
 51
90.0
  0
CIRCLE
  5
24C
330
1F
100
AcDbEntity
  8
建具
  6
Continuous
 62
     2
370
     9
100
AcDbCircle
 10
320.0278026148933
 20
934.007277106456
 30
0.0
 40
1.750000000000227
  0
ARC
  5
24D
330
1F
100
AcDbEntity
  8
建具
  6
Continuous
 62
     2
370
     9
100
AcDbCircle
 10
320.0278026148933
 20
934.007277106456
 30
0.0
 40
4.0
100
AcDbArc
 50
90.0
 51
228.5800250082
  0
ARC
  5
24E
330
1F
100
AcDbEntity
  8
建具
  6
Continuous
 62
     2
370
     9
100
AcDbCircle
 10
320.0278026148933
 20
934.007277106456
 30
0.0
 40
4.0000000000003
100
AcDbArc
 50
311.4199749918
 51
90.0
  0
ARC
  5
24F
330
1F
100
AcDbEntity
  8
建具
  6
Continuous
 62
     2
370
     9
100
AcDbCircle
 10
320.0278026148933
 20
889.007277106456
 30
0.0
 40
4.000000000000242
100
AcDbArc
 50
131.3992671051
 51
48.60073289479999
  0
ARC
  5
250
330
1F
100
AcDbEntity
  8
建具
  6
Continuous
 62
     2
370
     9
100
AcDbCircle
 10
-383.9721973851067
 20
934.0077552211558
 30
0.0
 40
4.000000000000163
100
AcDbArc
 50
311.4096221091999
 51
228.5903778908001
  0
ARC
  5
251
330
1F
100
AcDbEntity
  8
建具
  6
Continuous
 62
     2
370
     9
100
AcDbCircle
 10
-383.9721973851067
 20
889.0077552211558
 30
0.0
 40
4.0000000000003
100
AcDbArc
 50
131.4096221094
 51
270.0
  0
ARC
  5
252
330
1F
100
AcDbEntity
  8
建具
  6
Continuous
 62
     2
370
     9
100
AcDbCircle
 10
-383.9721973851067
 20
889.0077552211558
 30
0.0
 40
4.0
100
AcDbArc
 50
270.0
 51
48.59037789059999
  0
CIRCLE
  5
253
330
1F
100
AcDbEntity
  8
建具
  6
Continuous
 62
     2
370
     9
100
AcDbCircle
 10
-383.9721973851067
 20
889.0077552211558
 30
0.0
 40
1.750000000000227
  0
CIRCLE
  5
254
330
1F
100
AcDbEntity
  8
建具
  6
Continuous
 62
     2
370
     9
100
AcDbCircle
 10
-383.9721973851067
 20
889.0077552211558
 30
0.0
 40
3.0
  0
CIRCLE
  5
255
330
1F
100
AcDbEntity
  8
建具
  6
Continuous
 62
     2
370
     9
100
AcDbCircle
 10
-383.9721973851067
 20
934.0077552211558
 30
0.0
 40
1.75
  0
CIRCLE
  5
256
330
1F
100
AcDbEntity
  8
建具
  6
Continuous
 62
     2
370
     9
100
AcDbCircle
 10
-383.9721973851067
 20
934.0077552211558
 30
0.0
 40
3.0
  0
ARC
  5
257
330
1F
100
AcDbEntity
  8
建具
  6
Continuous
 62
     2
370
     9
100
AcDbCircle
 10
-383.9721973851067
 20
889.0077552211558
 30
0.0
 40
6.5
100
AcDbArc
 50
152.5135737497
 51
180.0
  0
LINE
  5
258
330
1F
100
AcDbEntity
  8
建具
  6
Continuous
 62
     2
370
     9
100
AcDbLine
 10
-390.4721973851067
 20
889.0077552211558
 30
0.0
 11
-390.4721973851067
 21
892.0077552211559
 31
0.0
  0
LINE
  5
259
330
1F
100
AcDbEntity
  8
建具
  6
Continuous
 62
     2
370
     9
100
AcDbLine
 10
-377.4721973851067
 20
889.0077552211558
 30
0.0
 11
-377.4721973851067
 21
892.0077552211559
 31
0.0
  0
ARC
  5
25A
330
1F
100
AcDbEntity
  8
建具
  6
Continuous
 62
     2
370
     9
100
AcDbCircle
 10
-383.9721973851067
 20
889.0077552211558
 30
0.0
 40
6.5
100
AcDbArc
 50
0.0
 51
27.4864262503
  0
LINE
  5
25B
330
1F
100
AcDbEntity
  8
建具
  6
Continuous
 62
     2
370
     9
100
AcDbLine
 10
-387.2221973851067
 20
883.3785900965559
 30
0.0
 11
-390.4721973851067
 21
885.2549784714558
 31
0.0
  0
ARC
  5
25C
330
1F
100
AcDbEntity
  8
建具
  6
Continuous
 62
     2
370
     9
100
AcDbCircle
 10
-383.9721973851067
 20
889.0077552211558
 30
0.0
 40
6.500000000000141
100
AcDbArc
 50
180.0
 51
240.0
  0
LINE
  5
25D
330
1F
100
AcDbEntity
  8
建具
  6
Continuous
 62
     2
370
     9
100
AcDbLine
 10
-390.4721973851067
 20
885.2549784714558
 30
0.0
 11
-390.4721973851067
 21
889.0077552211558
 31
0.0
  0
LINE
  5
25E
330
1F
100
AcDbEntity
  8
建具
  6
Continuous
 62
     2
370
     9
100
AcDbLine
 10
-377.4721973851067
 20
885.2549784714558
 30
0.0
 11
-380.7221973851066
 21
883.3785900965559
 31
0.0
  0
ARC
  5
25F
330
1F
100
AcDbEntity
  8
建具
  6
Continuous
 62
     2
370
     9
100
AcDbCircle
 10
-383.9721973851067
 20
889.0077552211558
 30
0.0
 40
6.500000000000141
100
AcDbArc
 50
300.0
 51
0.0000000000000127
  0
LINE
  5
260
330
1F
100
AcDbEntity
  8
建具
  6
Continuous
 62
     2
370
     9
100
AcDbLine
 10
-377.4721973851067
 20
885.2549784714558
 30
0.0
 11
-377.4721973851067
 21
889.0077552211558
 31
0.0
  0
ARC
  5
261
330
1F
100
AcDbEntity
  8
建具
  6
Continuous
 62
     2
370
     9
100
AcDbCircle
 10
-383.9721973851067
 20
889.0077552211558
 30
0.0
 40
6.500000000000141
100
AcDbArc
 50
240.0
 51
300.0
  0
LINE
  5
262
330
1F
100
AcDbEntity
  8
建具
  6
Continuous
 62
     2
370
     9
100
AcDbLine
 10
-380.7221973851066
 20
883.3785900965559
 30
0.0
 11
-383.9721973851067
 21
881.5022017217559
 31
0.0
  0
LINE
  5
263
330
1F
100
AcDbEntity
  8
建具
  6
Continuous
 62
     2
370
     9
100
AcDbLine
 10
-383.9721973851067
 20
881.5022017217559
 30
0.0
 11
-387.2221973851067
 21
883.3785900965559
 31
0.0
  0
LINE
  5
264
330
1F
100
AcDbEntity
  8
建具
  6
Continuous
 62
     2
370
     9
100
AcDbLine
 10
-390.4721973851067
 20
937.7605319709558
 30
0.0
 11
-387.2221973851067
 21
939.6369203457557
 31
0.0
  0
ARC
  5
265
330
1F
100
AcDbEntity
  8
建具
  6
Continuous
 62
     2
370
     9
100
AcDbCircle
 10
-383.9721973851067
 20
934.0077552211558
 30
0.0
 40
6.5
100
AcDbArc
 50
120.0
 51
180.0
  0
LINE
  5
266
330
1F
100
AcDbEntity
  8
建具
  6
Continuous
 62
     2
370
     9
100
AcDbLine
 10
-390.4721973851067
 20
934.0077552211558
 30
0.0
 11
-390.4721973851067
 21
937.7605319709558
 31
0.0
  0
LINE
  5
267
330
1F
100
AcDbEntity
  8
建具
  6
Continuous
 62
     2
370
     9
100
AcDbLine
 10
-380.7221973851066
 20
939.6369203457557
 30
0.0
 11
-377.4721973851067
 21
937.7605319709558
 31
0.0
  0
LINE
  5
268
330
1F
100
AcDbEntity
  8
建具
  6
Continuous
 62
     2
370
     9
100
AcDbLine
 10
-377.4721973851067
 20
934.0077552211558
 30
0.0
 11
-377.4721973851067
 21
937.7605319709558
 31
0.0
  0
ARC
  5
269
330
1F
100
AcDbEntity
  8
建具
  6
Continuous
 62
     2
370
     9
100
AcDbCircle
 10
-383.9721973851067
 20
934.0077552211558
 30
0.0
 40
6.5
100
AcDbArc
 50
0.0
 51
60.0
  0
LINE
  5
26A
330
1F
100
AcDbEntity
  8
建具
  6
Continuous
 62
     2
370
     9
100
AcDbLine
 10
-387.2221973851067
 20
939.6369203457557
 30
0.0
 11
-383.9721973851067
 21
941.5133087206557
 31
0.0
  0
ARC
  5
26B
330
1F
100
AcDbEntity
  8
建具
  6
Continuous
 62
     2
370
     9
100
AcDbCircle
 10
-383.9721973851067
 20
934.0077552211558
 30
0.0
 40
6.499999999999942
100
AcDbArc
 50
60.0
 51
120.0
  0
LINE
  5
26C
330
1F
100
AcDbEntity
  8
建具
  6
Continuous
 62
     2
370
     9
100
AcDbLine
 10
-383.9721973851067
 20
941.5133087206557
 30
0.0
 11
-380.7221973851066
 21
939.6369203457557
 31
0.0
  0
ARC
  5
26D
330
1F
100
AcDbEntity
  8
建具
  6
Continuous
 62
     2
370
     9
100
AcDbCircle
 10
-383.9721973851067
 20
934.0077552211558
 30
0.0
 40
6.5
100
AcDbArc
 50
332.5135737496
 51
0.0000000000000064
  0
LINE
  5
26E
330
1F
100
AcDbEntity
  8
建具
  6
Continuous
 62
     2
370
     9
100
AcDbLine
 10
-377.4721973851067
 20
931.0077552211557
 30
0.0
 11
-377.4721973851067
 21
934.0077552211558
 31
0.0
  0
ARC
  5
26F
330
1F
100
AcDbEntity
  8
建具
  6
Continuous
 62
     2
370
     9
100
AcDbCircle
 10
-383.9721973851067
 20
934.0077552211558
 30
0.0
 40
6.5
100
AcDbArc
 50
180.0
 51
207.4864262504
  0
LINE
  5
270
330
1F
100
AcDbEntity
  8
建具
  6
Continuous
 62
     2
370
     9
100
AcDbLine
 10
-390.4721973851067
 20
931.0077552211557
 30
0.0
 11
-390.4721973851067
 21
934.0077552211558
 31
0.0
  0
ARC
  5
271
330
1F
100
AcDbEntity
  8
建具
  6
Continuous
 62
     2
370
     9
100
AcDbCircle
 10
-383.9721973851067
 20
889.0077552211558
 30
0.0
 40
8.000000000000435
100
AcDbArc
 50
270.0
 51
22.024312837
  0
ARC
  5
272
330
1F
100
AcDbEntity
  8
建具
  6
Continuous
 62
     2
370
     9
100
AcDbCircle
 10
-383.9721973851067
 20
889.0077552211558
 30
0.0
 40
8.0
100
AcDbArc
 50
157.975687163
 51
270.0
  0
ARC
  5
273
330
1F
100
AcDbEntity
  8
建具
  6
Continuous
 62
     2
370
     9
100
AcDbCircle
 10
-383.9721973851067
 20
934.0077552211558
 30
0.0
 40
8.000000000000387
100
AcDbArc
 50
337.9756871629
 51
202.0243128371
  0
INSERT
  5
274
330
1F
100
AcDbEntity
  8
建具
  6
Continuous
 62
     2
370
     9
100
AcDbBlockReference
  2
SW_CENTERMARKSYMBOL_8@@SfigorgFlag@@4_0-3_
 10
-383.9721973851067
 20
889.0077552211558
 30
0.0
  0
INSERT
  5
275
330
1F
100
AcDbEntity
  8
建具
  6
Continuous
 62
     2
370
     9
100
AcDbBlockReference
  2
SW_CENTERMARKSYMBOL_9@@SfigorgFlag@@4_0-3_
 10
-383.9721973851067
 20
934.0077552211558
 30
0.0
  0
LINE
  5
276
330
1F
100
AcDbEntity
  8
通り芯
  6
Continuous
 62
     4
370
     9
100
AcDbLine
 10
334.0278026148933
 20
-785.7868833072773
 30
0.0
 11
334.0278026148933
 21
312.2131166927222
 31
0.0
  0
LINE
  5
277
330
1F
100
AcDbEntity
  8
仕上
  6
Continuous
 62
     3
370
     9
100
AcDbLine
 10
322.0278026148934
 20
-683.9868833072778
 30
0.0
 11
322.0278026148934
 21
292.413116692722
 31
0.0
  0
LINE
  5
278
330
1F
100
AcDbEntity
  8
仕上
  6
Continuous
 62
     3
370
     9
100
AcDbLine
 10
-397.9721973851067
 20
-683.9868833072778
 30
0.0
 11
334.0278026148933
 21
-683.9868833072778
 31
0.0
  0
LINE
  5
279
330
1F
100
AcDbEntity
  8
その他
  6
Continuous
 62
     7
370
     9
100
AcDbLine
 10
-406.9721973851066
 20
424.0586114629479
 30
0.0
 11
343.0278026148945
 21
424.0586114629479
 31
0.0
  0
LWPOLYLINE
  5
27A
330
1F
100
AcDbEntity
  8
その他
  6
Continuous
 62
     7
370
     9
100
AcDbPolyline
 90
        4
 70
     1
 43
2.0
 10
-405.9721973851066
 20
424.0586114629479
 42
0.4142135623731
 10
-406.9721973851066
 20
425.0586114629479
 42
0.4142135623731
 10
-407.9721973851066
 20
424.0586114629479
 42
0.4142135623731
 10
-406.9721973851066
 20
423.0586114629478
 42
0.4142135623731
  0
LWPOLYLINE
  5
27B
330
1F
100
AcDbEntity
  8
その他
  6
Continuous
 62
     7
370
     9
100
AcDbPolyline
 90
        4
 70
     1
 43
2.0
 10
344.0278026148945
 20
424.0586114629479
 42
0.4142135623731
 10
343.0278026148945
 20
425.0586114629479
 42
0.4142135623731
 10
342.0278026148945
 20
424.0586114629479
 42
0.4142135623731
 10
343.0278026148945
 20
423.0586114629478
 42
0.4142135623731
  0
LINE
  5
27C
330
1F
100
AcDbEntity
  8
その他
  6
Continuous
 62
     7
370
     9
100
AcDbLine
 10
-406.9721973851066
 20
427.058611462948
 30
0.0
 11
-406.9721973851066
 21
334.2131166927221
 31
0.0
  0
LINE
  5
27D
330
1F
100
AcDbEntity
  8
その他
  6
Continuous
 62
     7
370
     9
100
AcDbLine
 10
343.0278026148945
 20
427.058611462948
 30
0.0
 11
343.0278026148945
 21
334.2131166927221
 31
0.0
  0
TEXT
  5
27E
330
1F
100
AcDbEntity
  8
その他
  6
Continuous
 62
     2
370
   211
100
AcDbText
 10
-64.47219738510606
 20
435.6986114629479
 30
0.0
 40
30.48
  1
750
 41
1.083333333333333
  7
ＭＳ ゴシック
100
AcDbText
  0
LWPOLYLINE
  5
27F
330
1F
100
AcDbEntity
  8
その他
  6
Continuous
 62
     7
370
     9
100
AcDbPolyline
 90
        4
 70
     1
 43
2.0
 10
344.0278026148945
 20
-6.237602964370552
 42
0.4142135623731
 10
343.0278026148945
 20
-5.237602964370552
 42
0.4142135623731
 10
342.0278026148945
 20
-6.237602964370552
 42
0.4142135623731
 10
343.0278026148945
 20
-7.237602964370552
 42
0.4142135623731
  0
LWPOLYLINE
  5
280
330
1F
100
AcDbEntity
  8
その他
  6
Continuous
 62
     7
370
     9
100
AcDbPolyline
 90
        4
 70
     1
 43
2.0
 10
335.0278026148936
 20
-6.237602964370552
 42
0.4142135623731
 10
334.0278026148936
 20
-5.237602964370552
 42
0.4142135623731
 10
333.0278026148936
 20
-6.237602964370552
 42
0.4142135623731
 10
334.0278026148936
 20
-7.237602964370552
 42
0.4142135623731
  0
LWPOLYLINE
  5
281
330
1F
100
AcDbEntity
  8
その他
  6
Continuous
 62
     7
370
     9
100
AcDbPolyline
 90
        4
 70
     1
 43
2.0
 10
335.0278026148936
 20
-148.3555972814405
 42
0.4142135623731
 10
334.0278026148936
 20
-147.3555972814405
 42
0.4142135623731
 10
333.0278026148936
 20
-148.3555972814405
 42
0.4142135623731
 10
334.0278026148936
 20
-149.3555972814405
 42
0.4142135623731
  0
LWPOLYLINE
  5
282
330
1F
100
AcDbEntity
  8
その他
  6
Continuous
 62
     7
370
     9
100
AcDbPolyline
 90
        4
 70
     1
 43
2.0
 10
323.0278026148943
 20
-148.3555972814405
 42
0.4142135623731
 10
322.0278026148943
 20
-147.3555972814405
 42
0.4142135623731
 10
321.0278026148943
 20
-148.3555972814405
 42
0.4142135623731
 10
322.0278026148943
 20
-149.3555972814405
 42
0.4142135623731
  0
TEXT
  5
283
330
1F
100
AcDbEntity
  8
その他
  6
Continuous
 62
     2
370
   211
100
AcDbText
 10
224.8692047406049
 20
-136.7155972814402
 30
0.0
 40
30.48
  1
(12)
 41
1.09375
  7
ＭＳ ゴシック
100
AcDbText
  0
LINE
  5
284
330
1F
100
AcDbEntity
  8
その他
  6
Continuous
 62
     7
370
     9
100
AcDbLine
 10
334.0278026148936
 20
-148.3555972814405
 30
0.0
 11
222.215128706899
 21
-148.3555972814405
 31
0.0
  0
TEXT
  5
285
330
1F
100
AcDbEntity
  8
その他
  6
Continuous
 62
     2
370
   211
100
AcDbText
 10
357.7504347360323
 20
5.402397035629107
 30
0.0
 40
30.48
  1
9
 41
0.9999999999999998
  7
ＭＳ ゴシック
100
AcDbText
  0
LINE
  5
286
330
1F
100
AcDbEntity
  8
その他
  6
Continuous
 62
     7
370
     9
100
AcDbLine
 10
390.3253906443214
 20
-6.237602964370552
 30
0.0
 11
334.0278026148936
 21
-6.237602964370552
 31
0.0
  0
LINE
  5
287
330
1F
100
AcDbEntity
  8
通り芯
  6
Continuous
 62
     7
370
     0
100
AcDbLine
 10
-406.9721973851066
 20
-785.7868833072756
 30
0.0
 11
-406.9721973851066
 21
-785.7968833072777
 31
0.0
  0
LINE
  5
288
330
1F
100
AcDbEntity
  8
通り芯
  6
Continuous
 62
     7
370
     0
100
AcDbLine
 10
-397.9721973851057
 20
-785.7868833072756
 30
0.0
 11
-397.9721973851057
 21
-785.7968833072777
 31
0.0
  0
LINE
  5
289
330
1F
100
AcDbEntity
  8
通り芯
  6
Continuous
 62
     7
370
     0
100
AcDbLine
 10
-406.9721973851066
 20
-785.7868833072756
 30
0.0
 11
-406.9721973851066
 21
-785.7968833072777
 31
0.0
  0
LINE
  5
28A
330
1F
100
AcDbEntity
  8
通り芯
  6
Continuous
 62
     7
370
     0
100
AcDbLine
 10
-397.9721973851057
 20
-785.7868833072756
 30
0.0
 11
-397.9721973851057
 21
-785.7968833072777
 31
0.0
  0
LINE
  5
28B
330
1F
100
AcDbEntity
  8
その他
  6
Continuous
 62
     7
370
     9
100
AcDbLine
 10
-513.5497446223752
 20
314.2131166927221
 30
0.0
 11
-426.9721973851066
 21
314.2131166927221
 31
0.0
  0
LINE
  5
28C
330
1F
100
AcDbEntity
  8
その他
  6
Continuous
 62
     7
370
     9
100
AcDbLine
 10
-570.1358620901183
 20
-785.7968833072777
 30
0.0
 11
-570.1358620901183
 21
-705.7868833072773
 31
0.0
  0
LWPOLYLINE
  5
28D
330
1F
100
AcDbEntity
  8
その他
  6
Continuous
 62
     7
370
     9
100
AcDbPolyline
 90
        4
 70
     1
 43
2.0
 10
-569.1358620901183
 20
-785.7968833072777
 42
0.4142135623731
 10
-570.1358620901183
 20
-784.7968833072777
 42
0.4142135623731
 10
-571.1358620901183
 20
-785.7968833072777
 42
0.4142135623731
 10
-570.1358620901183
 20
-786.7968833072775
 42
0.4142135623731
  0
LWPOLYLINE
  5
28E
330
1F
100
AcDbEntity
  8
その他
  6
Continuous
 62
     7
370
     9
100
AcDbPolyline
 90
        4
 70
     1
 43
2.0
 10
-569.1358620901183
 20
-705.7868833072773
 42
0.4142135623731
 10
-570.1358620901183
 20
-704.7868833072773
 42
0.4142135623731
 10
-571.1358620901183
 20
-705.7868833072773
 42
0.4142135623731
 10
-570.1358620901183
 20
-706.7868833072772
 42
0.4142135623731
  0
LINE
  5
28F
330
1F
100
AcDbEntity
  8
その他
  6
Continuous
 62
     7
370
     9
100
AcDbLine
 10
-573.1358620901183
 20
-785.7968833072777
 30
0.0
 11
-502.8887937494523
 21
-785.7968833072777
 31
0.0
  0
LINE
  5
290
330
1F
100
AcDbEntity
  8
その他
  6
Continuous
 62
     7
370
     9
100
AcDbLine
 10
-573.1358620901183
 20
-705.7868833072773
 30
0.0
 11
-417.9721973851067
 21
-705.7868833072773
 31
0.0
  0
LINE
  5
291
330
1F
100
AcDbEntity
  8
その他
  6
Continuous
 62
     7
370
     9
100
AcDbLine
 10
-570.1358620901183
 20
-705.7868833072773
 30
0.0
 11
-570.1358620901183
 21
-685.7868833072773
 31
0.0
  0
LWPOLYLINE
  5
292
330
1F
100
AcDbEntity
  8
その他
  6
Continuous
 62
     7
370
     9
100
AcDbPolyline
 90
        4
 70
     1
 43
2.0
 10
-569.1358620901183
 20
-685.7868833072773
 42
0.4142135623731
 10
-570.1358620901183
 20
-684.7868833072773
 42
0.4142135623731
 10
-571.1358620901183
 20
-685.7868833072773
 42
0.4142135623731
 10
-570.1358620901183
 20
-686.7868833072772
 42
0.4142135623731
  0
LINE
  5
293
330
1F
100
AcDbEntity
  8
その他
  6
Continuous
 62
     7
370
     9
100
AcDbLine
 10
-573.1358620901183
 20
-685.7868833072773
 30
0.0
 11
-417.9721973851067
 21
-685.7868833072773
 31
0.0
  0
TEXT
  5
294
330
1F
100
AcDbEntity
  8
その他
  6
Continuous
 62
     2
370
   211
100
AcDbText
 10
-581.7758620901183
 20
-717.0368833072773
 30
0.0
 40
30.48
  1
20
 50
90.0
 41
1.0625
  7
ＭＳ ゴシック
100
AcDbText
  0
LINE
  5
295
330
1F
100
AcDbEntity
  8
その他
  6
Continuous
 62
     7
370
     9
100
AcDbLine
 10
-570.1358620901183
 20
-685.7868833072773
 30
0.0
 11
-570.1358620901182
 21
294.2131166927221
 31
0.0
  0
LWPOLYLINE
  5
296
330
1F
100
AcDbEntity
  8
その他
  6
Continuous
 62
     7
370
     9
100
AcDbPolyline
 90
        4
 70
     1
 43
2.0
 10
-569.1358620901182
 20
294.2131166927221
 42
0.4142135623731
 10
-570.1358620901182
 20
295.2131166927222
 42
0.4142135623731
 10
-571.1358620901182
 20
294.2131166927221
 42
0.4142135623731
 10
-570.1358620901182
 20
293.2131166927221
 42
0.4142135623731
  0
LINE
  5
297
330
1F
100
AcDbEntity
  8
その他
  6
Continuous
 62
     7
370
     9
100
AcDbLine
 10
-573.1358620901182
 20
294.2131166927221
 30
0.0
 11
-417.9721973851067
 21
294.2131166927221
 31
0.0
  0
TEXT
  5
298
330
1F
100
AcDbEntity
  8
その他
  6
Continuous
 62
     2
370
   211
100
AcDbText
 10
-581.7758620901182
 20
-228.2868833072776
 30
0.0
 40
30.48
  1
980
 50
90.0
 41
1.083333333333333
  7
ＭＳ ゴシック
100
AcDbText
  0
LINE
  5
299
330
1F
100
AcDbEntity
  8
その他
  6
Continuous
 62
     7
370
     9
100
AcDbLine
 10
-570.1358620901182
 20
294.2131166927221
 30
0.0
 11
-570.1358620901182
 21
314.2131166927221
 31
0.0
  0
LWPOLYLINE
  5
29A
330
1F
100
AcDbEntity
  8
その他
  6
Continuous
 62
     7
370
     9
100
AcDbPolyline
 90
        4
 70
     1
 43
2.0
 10
-569.1358620901182
 20
314.2131166927221
 42
0.4142135623731
 10
-570.1358620901182
 20
315.2131166927222
 42
0.4142135623731
 10
-571.1358620901182
 20
314.2131166927221
 42
0.4142135623731
 10
-570.1358620901182
 20
313.2131166927221
 42
0.4142135623731
  0
LINE
  5
29B
330
1F
100
AcDbEntity
  8
その他
  6
Continuous
 62
     7
370
     9
100
AcDbLine
 10
-573.1358620901182
 20
314.2131166927221
 30
0.0
 11
-426.9721973851066
 21
314.2131166927221
 31
0.0
  0
LINE
  5
29C
330
1F
100
AcDbEntity
  8
その他
  6
Continuous
 62
     7
370
     9
100
AcDbLine
 10
-629.4403017443519
 20
314.2131166927221
 30
0.0
 11
-629.4403017443519
 21
-785.7968833072777
 31
0.0
  0
LWPOLYLINE
  5
29D
330
1F
100
AcDbEntity
  8
その他
  6
Continuous
 62
     7
370
     9
100
AcDbPolyline
 90
        4
 70
     1
 43
2.0
 10
-628.4403017443519
 20
314.2131166927221
 42
0.4142135623731
 10
-629.4403017443519
 20
315.2131166927222
 42
0.4142135623731
 10
-630.4403017443519
 20
314.2131166927221
 42
0.4142135623731
 10
-629.4403017443519
 20
313.2131166927221
 42
0.4142135623731
  0
LWPOLYLINE
  5
29E
330
1F
100
AcDbEntity
  8
その他
  6
Continuous
 62
     7
370
     9
100
AcDbPolyline
 90
        4
 70
     1
 43
2.0
 10
-628.4403017443519
 20
-785.7968833072777
 42
0.4142135623731
 10
-629.4403017443519
 20
-784.7968833072777
 42
0.4142135623731
 10
-630.440301744352
 20
-785.7968833072777
 42
0.4142135623731
 10
-629.4403017443519
 20
-786.7968833072775
 42
0.4142135623731
  0
LINE
  5
29F
330
1F
100
AcDbEntity
  8
その他
  6
Continuous
 62
     7
370
     9
100
AcDbLine
 10
-632.4403017443519
 20
314.2131166927221
 30
0.0
 11
-426.9721973851066
 21
314.2131166927221
 31
0.0
  0
LINE
  5
2A0
330
1F
100
AcDbEntity
  8
その他
  6
Continuous
 62
     7
370
     9
100
AcDbLine
 10
-632.4403017443519
 20
-785.7968833072777
 30
0.0
 11
-502.8887937494523
 21
-785.7968833072777
 31
0.0
  0
TEXT
  5
2A1
330
1F
100
AcDbEntity
  8
その他
  6
Continuous
 62
     2
370
   211
100
AcDbText
 10
-641.0803017443519
 20
-279.5418833072778
 30
0.0
 40
30.48
  1
1100
 50
90.0
 41
1.09375
  7
ＭＳ ゴシック
100
AcDbText
  0
TEXT
  5
2A2
330
1F
100
AcDbEntity
  8
その他
  6
Continuous
 62
     2
370
   211
100
AcDbText
 10
-581.7758620901182
 20
262.7143561021583
 30
0.0
 40
30.48
  1
20
 50
90.0
 41
1.0625
  7
ＭＳ ゴシック
100
AcDbText
  0
TEXT
  5
2A3
330
1F
100
AcDbEntity
  8
その他
  6
Continuous
 62
     2
370
   211
100
AcDbText
 10
-581.7758620901183
 20
-776.4978719989585
 30
0.0
 40
30.48
  1
80
 50
90.0
 41
1.0625
  7
ＭＳ ゴシック
100
AcDbText
  0
LINE
  5
2A4
330
1F
100
AcDbEntity
  8
その他
  6
Continuous
 62
     7
370
     9
100
AcDbLine
 10
-629.4403017443519
 20
-785.7968833072777
 30
0.0
 11
-629.4403017443519
 21
-835.786858720358
 31
0.0
  0
LWPOLYLINE
  5
2A5
330
1F
100
AcDbEntity
  8
その他
  6
Continuous
 62
     7
370
     9
100
AcDbPolyline
 90
        4
 70
     1
 43
2.0
 10
-628.4403017443519
 20
-785.7968833072777
 42
0.4142135623731
 10
-629.4403017443519
 20
-784.7968833072777
 42
0.4142135623731
 10
-630.440301744352
 20
-785.7968833072777
 42
0.4142135623731
 10
-629.4403017443519
 20
-786.7968833072775
 42
0.4142135623731
  0
LWPOLYLINE
  5
2A6
330
1F
100
AcDbEntity
  8
その他
  6
Continuous
 62
     7
370
     9
100
AcDbPolyline
 90
        4
 70
     1
 43
2.0
 10
-628.4403017443519
 20
-835.786858720358
 42
0.4142135623731
 10
-629.4403017443519
 20
-834.7868587203582
 42
0.4142135623731
 10
-630.440301744352
 20
-835.786858720358
 42
0.4142135623731
 10
-629.4403017443519
 20
-836.7868587203579
 42
0.4142135623731
  0
LINE
  5
2A7
330
1F
100
AcDbEntity
  8
その他
  6
Continuous
 62
     7
370
     9
100
AcDbLine
 10
-632.4403017443519
 20
-785.7968833072777
 30
0.0
 11
-502.8887937494523
 21
-785.7968833072777
 31
0.0
  0
LINE
  5
2A8
330
1F
100
AcDbEntity
  8
その他
  6
Continuous
 62
     7
370
     9
100
AcDbLine
 10
-632.4403017443519
 20
-835.786858720358
 30
0.0
 11
-502.8887937494523
 21
-835.786858720358
 31
0.0
  0
TEXT
  5
2A9
330
1F
100
AcDbEntity
  8
その他
  6
Continuous
 62
     2
370
   211
100
AcDbText
 10
-641.080301744352
 20
-832.0418710138177
 30
0.0
 40
30.48
  1
50
 50
90.0
 41
1.0625
  7
ＭＳ ゴシック
100
AcDbText
  0
TEXT
  5
2AA
330
1F
100
AcDbEntity
  8
寸法
  6
Continuous
 62
     7
370
     9
100
AcDbText
 10
428.3741019960274
 20
-37.49367548796089
 30
0.0
 40
22.86
  1
強化ガラス（板厚６ｍｍ）
 41
1.152777777777778
  7
ＭＳ ゴシック
100
AcDbText
  0
TEXT
  5
2AB
330
1F
100
AcDbEntity
  8
寸法
  6
Continuous
 62
     7
370
     9
100
AcDbText
 10
431.8471275811507
 20
4.352482552121852
 30
0.0
 40
22.86
  1
パネル
 41
1.111111111111111
  7
ＭＳ ゴシック
100
AcDbText
  0
LINE
  5
2AC
330
1F
100
AcDbEntity
  8
0-E
  6
Continuous
 62
     7
370
     0
100
AcDbLine
 10
-397.9721973851067
 20
-785.786858720358
 30
0.0
 11
334.0278026148933
 21
-785.786858720358
 31
0.0
  0
LINE
  5
2AD
330
1F
100
AcDbEntity
  8
0-E
  6
Continuous
 62
     7
370
     0
100
AcDbLine
 10
-406.9721973851066
 20
-785.7968833072777
 30
0.0
 11
-482.8887937494523
 21
-785.7968833072777
 31
0.0
  0
LINE
  5
2AE
330
1F
100
AcDbEntity
  8
0-E
  6
Continuous
 62
     7
370
     9
100
AcDbLine
 10
-385.9169429975127
 20
-785.7968833072777
 30
0.0
 11
-392.9721973851067
 21
-792.8521376948718
 31
0.0
  0
LINE
  5
2AF
330
1F
100
AcDbEntity
  8
0-E
  6
Continuous
 62
     7
370
     0
100
AcDbLine
 10
343.0278026148934
 20
-785.786858720358
 30
0.0
 11
439.3358115562245
 21
-785.786858720358
 31
0.0
  0
LINE
  5
2B0
330
1F
100
AcDbEntity
  8
0-E
  6
Continuous
 62
     7
370
     0
100
AcDbLine
 10
-482.8887937494523
 20
-800.776858720356
 30
0.0
 11
-411.9721973851066
 21
-800.776858720356
 31
0.0
  0
LINE
  5
2B1
330
1F
100
AcDbEntity
  8
0-E
  6
Continuous
 62
     7
370
     9
100
AcDbLine
 10
-466.4169429974962
 20
-785.7868833072756
 30
0.0
 11
-481.406918410585
 21
-800.776858720356
 31
0.0
  0
LINE
  5
2B2
330
1F
100
AcDbEntity
  8
0-E
  6
Continuous
 62
     7
370
     9
100
AcDbLine
 10
-392.9721973851067
 20
-785.7968833072777
 30
0.0
 11
-392.9721973851067
 21
-800.776858720356
 31
0.0
  0
LINE
  5
2B3
330
1F
100
AcDbEntity
  8
0-E
  6
Continuous
 62
     7
370
     9
100
AcDbLine
 10
-418.4169429974854
 20
-785.7868833072756
 30
0.0
 11
-433.4069184105658
 21
-800.776858720356
 31
0.0
  0
LINE
  5
2B4
330
1F
100
AcDbEntity
  8
0-E
  6
Continuous
 62
     7
370
     9
100
AcDbLine
 10
-442.4169429974909
 20
-785.7868833072756
 30
0.0
 11
-457.4069184105713
 21
-800.776858720356
 31
0.0
  0
LINE
  5
2B5
330
1F
100
AcDbEntity
  8
0-E
  6
Continuous
 62
     7
370
     0
100
AcDbLine
 10
-411.9721973851066
 20
-785.7868833072756
 30
0.0
 11
-411.9721973851066
 21
-800.776858720356
 31
0.0
  0
LINE
  5
2B6
330
1F
100
AcDbEntity
  8
0-E
  6
Continuous
 62
     7
370
     9
100
AcDbLine
 10
-361.9169429975072
 20
-785.7968833072777
 30
0.0
 11
-376.9069184105958
 21
-800.786858720358
 31
0.0
  0
LINE
  5
2B7
330
1F
100
AcDbEntity
  8
0-E
  6
Continuous
 62
     7
370
     9
100
AcDbLine
 10
329.0278026148933
 20
-800.786858720358
 30
0.0
 11
329.0278026148933
 21
-785.7968833072777
 31
0.0
  0
LINE
  5
2B8
330
1F
100
AcDbEntity
  8
0-E
  6
Continuous
 62
     7
370
     9
100
AcDbLine
 10
329.0278026148933
 20
-790.8521376948989
 30
0.0
 11
319.0930815894342
 21
-800.786858720358
 31
0.0
  0
LINE
  5
2B9
330
1F
100
AcDbEntity
  8
0-E
  6
Continuous
 62
     7
370
     9
100
AcDbLine
 10
-337.9169429975018
 20
-785.7968833072777
 30
0.0
 11
-352.9069184105822
 21
-800.786858720358
 31
0.0
  0
LINE
  5
2BA
330
1F
100
AcDbEntity
  8
0-E
  6
Continuous
 62
     7
370
     9
100
AcDbLine
 10
34.08305700251463
 20
-785.7968833072777
 30
0.0
 11
19.0930815894342
 21
-800.786858720358
 31
0.0
  0
LINE
  5
2BB
330
1F
100
AcDbEntity
  8
0-E
  6
Continuous
 62
     7
370
     9
100
AcDbLine
 10
10.08305700250917
 20
-785.7968833072777
 30
0.0
 11
-4.906918410571257
 21
-800.786858720358
 31
0.0
  0
LINE
  5
2BC
330
1F
100
AcDbEntity
  8
0-E
  6
Continuous
 62
     7
370
     9
100
AcDbLine
 10
-13.91694299749629
 20
-785.7968833072777
 30
0.0
 11
-28.90691841058492
 21
-800.786858720358
 31
0.0
  0
LINE
  5
2BD
330
1F
100
AcDbEntity
  8
0-E
  6
Continuous
 62
     7
370
     9
100
AcDbLine
 10
-37.91694299750174
 20
-785.7968833072777
 30
0.0
 11
-52.90691841058218
 21
-800.786858720358
 31
0.0
  0
LINE
  5
2BE
330
1F
100
AcDbEntity
  8
0-E
  6
Continuous
 62
     7
370
     9
100
AcDbLine
 10
-61.91694299750721
 20
-785.7968833072777
 30
0.0
 11
-76.90691841059584
 21
-800.786858720358
 31
0.0
  0
LINE
  5
2BF
330
1F
100
AcDbEntity
  8
0-E
  6
Continuous
 62
     7
370
     9
100
AcDbLine
 10
-85.91694299751266
 20
-785.7968833072777
 30
0.0
 11
-100.9069184105931
 21
-800.786858720358
 31
0.0
  0
LINE
  5
2C0
330
1F
100
AcDbEntity
  8
0-E
  6
Continuous
 62
     7
370
     9
100
AcDbLine
 10
-115.9169429974854
 20
-785.7968833072777
 30
0.0
 11
-130.9069184105658
 21
-800.786858720358
 31
0.0
  0
LINE
  5
2C1
330
1F
100
AcDbEntity
  8
0-E
  6
Continuous
 62
     7
370
     9
100
AcDbLine
 10
-139.9169429974908
 20
-785.7968833072777
 30
0.0
 11
-154.9069184105713
 21
-800.786858720358
 31
0.0
  0
LINE
  5
2C2
330
1F
100
AcDbEntity
  8
0-E
  6
Continuous
 62
     7
370
     9
100
AcDbLine
 10
-163.9169429974963
 20
-785.7968833072777
 30
0.0
 11
-178.9069184105849
 21
-800.786858720358
 31
0.0
  0
LINE
  5
2C3
330
1F
100
AcDbEntity
  8
0-E
  6
Continuous
 62
     7
370
     9
100
AcDbLine
 10
-187.9169429975017
 20
-785.7968833072777
 30
0.0
 11
-202.9069184105822
 21
-800.786858720358
 31
0.0
  0
LINE
  5
2C4
330
1F
100
AcDbEntity
  8
0-E
  6
Continuous
 62
     7
370
     9
100
AcDbLine
 10
-211.9169429975072
 20
-785.7968833072777
 30
0.0
 11
-226.9069184105958
 21
-800.786858720358
 31
0.0
  0
LINE
  5
2C5
330
1F
100
AcDbEntity
  8
0-E
  6
Continuous
 62
     7
370
     9
100
AcDbLine
 10
-235.9169429975126
 20
-785.7968833072777
 30
0.0
 11
-250.9069184105931
 21
-800.786858720358
 31
0.0
  0
LINE
  5
2C6
330
1F
100
AcDbEntity
  8
0-E
  6
Continuous
 62
     7
370
     9
100
AcDbLine
 10
-265.9169429974854
 20
-785.7968833072777
 30
0.0
 11
-280.9069184105658
 21
-800.786858720358
 31
0.0
  0
LINE
  5
2C7
330
1F
100
AcDbEntity
  8
0-E
  6
Continuous
 62
     7
370
     9
100
AcDbLine
 10
-289.9169429974908
 20
-785.7968833072777
 30
0.0
 11
-304.9069184105712
 21
-800.786858720358
 31
0.0
  0
LINE
  5
2C8
330
1F
100
AcDbEntity
  8
0-E
  6
Continuous
 62
     7
370
     9
100
AcDbLine
 10
-313.9169429974963
 20
-785.7968833072777
 30
0.0
 11
-328.9069184105849
 21
-800.786858720358
 31
0.0
  0
LINE
  5
2C9
330
1F
100
AcDbEntity
  8
0-E
  6
Continuous
 62
     7
370
     9
100
AcDbLine
 10
184.0830570025147
 20
-785.7968833072777
 30
0.0
 11
169.0930815894342
 21
-800.786858720358
 31
0.0
  0
LINE
  5
2CA
330
1F
100
AcDbEntity
  8
0-E
  6
Continuous
 62
     7
370
     9
100
AcDbLine
 10
160.0830570025092
 20
-785.7968833072777
 30
0.0
 11
145.0930815894287
 21
-800.786858720358
 31
0.0
  0
LINE
  5
2CB
330
1F
100
AcDbEntity
  8
0-E
  6
Continuous
 62
     7
370
     9
100
AcDbLine
 10
136.0830570025037
 20
-785.7968833072777
 30
0.0
 11
121.0930815894151
 21
-800.786858720358
 31
0.0
  0
LINE
  5
2CC
330
1F
100
AcDbEntity
  8
0-E
  6
Continuous
 62
     7
370
     9
100
AcDbLine
 10
112.0830570024983
 20
-785.7968833072777
 30
0.0
 11
97.09308158941782
 21
-800.786858720358
 31
0.0
  0
LINE
  5
2CD
330
1F
100
AcDbEntity
  8
0-E
  6
Continuous
 62
     7
370
     9
100
AcDbLine
 10
88.0830570024928
 20
-785.7968833072777
 30
0.0
 11
73.09308158940416
 21
-800.786858720358
 31
0.0
  0
LINE
  5
2CE
330
1F
100
AcDbEntity
  8
0-E
  6
Continuous
 62
     7
370
     9
100
AcDbLine
 10
64.08305700248734
 20
-785.7968833072777
 30
0.0
 11
49.09308158940691
 21
-800.786858720358
 31
0.0
  0
LINE
  5
2CF
330
1F
100
AcDbEntity
  8
0-E
  6
Continuous
 62
     7
370
     9
100
AcDbLine
 10
310.0830570025092
 20
-785.7968833072777
 30
0.0
 11
295.0930815894288
 21
-800.786858720358
 31
0.0
  0
LINE
  5
2D0
330
1F
100
AcDbEntity
  8
0-E
  6
Continuous
 62
     7
370
     9
100
AcDbLine
 10
286.0830570025038
 20
-785.7968833072777
 30
0.0
 11
271.093081589415
 21
-800.786858720358
 31
0.0
  0
LINE
  5
2D1
330
1F
100
AcDbEntity
  8
0-E
  6
Continuous
 62
     7
370
     9
100
AcDbLine
 10
262.0830570024983
 20
-785.7968833072777
 30
0.0
 11
247.0930815894179
 21
-800.786858720358
 31
0.0
  0
LINE
  5
2D2
330
1F
100
AcDbEntity
  8
0-E
  6
Continuous
 62
     7
370
     9
100
AcDbLine
 10
238.0830570024929
 20
-785.7968833072777
 30
0.0
 11
223.0930815894041
 21
-800.786858720358
 31
0.0
  0
LINE
  5
2D3
330
1F
100
AcDbEntity
  8
0-E
  6
Continuous
 62
     7
370
     9
100
AcDbLine
 10
214.0830570024874
 20
-785.7968833072777
 30
0.0
 11
199.0930815894069
 21
-800.786858720358
 31
0.0
  0
LINE
  5
2D4
330
1F
100
AcDbEntity
  8
0-E
  6
Continuous
 62
     7
370
     0
100
AcDbLine
 10
-259.4721973851066
 20
-785.7968833072777
 30
0.0
 11
-259.4721973851066
 21
-800.786858720358
 31
0.0
  0
LINE
  5
2D5
330
1F
100
AcDbEntity
  8
0-E
  6
Continuous
 62
     7
370
     0
100
AcDbLine
 10
-392.9721973851067
 20
-800.786858720358
 30
0.0
 11
-259.4721973851066
 21
-800.786858720358
 31
0.0
  0
LINE
  5
2D6
330
1F
100
AcDbEntity
  8
0-E
  6
Continuous
 62
     7
370
     0
100
AcDbLine
 10
-254.4721973851066
 20
-785.7968833072777
 30
0.0
 11
-254.4721973851066
 21
-800.786858720358
 31
0.0
  0
LINE
  5
2D7
330
1F
100
AcDbEntity
  8
0-E
  6
Continuous
 62
     7
370
     0
100
AcDbLine
 10
-109.4721973851066
 20
-785.7968833072777
 30
0.0
 11
-109.4721973851066
 21
-800.786858720358
 31
0.0
  0
LINE
  5
2D8
330
1F
100
AcDbEntity
  8
0-E
  6
Continuous
 62
     7
370
     0
100
AcDbLine
 10
-254.4721973851066
 20
-800.786858720358
 30
0.0
 11
-109.4721973851066
 21
-800.786858720358
 31
0.0
  0
LINE
  5
2D9
330
1F
100
AcDbEntity
  8
0-E
  6
Continuous
 62
     7
370
     0
100
AcDbLine
 10
-104.4721973851066
 20
-785.7968833072777
 30
0.0
 11
-104.4721973851066
 21
-800.786858720358
 31
0.0
  0
LINE
  5
2DA
330
1F
100
AcDbEntity
  8
0-E
  6
Continuous
 62
     7
370
     0
100
AcDbLine
 10
40.52780261489337
 20
-785.7968833072777
 30
0.0
 11
40.52780261489337
 21
-800.786858720358
 31
0.0
  0
LINE
  5
2DB
330
1F
100
AcDbEntity
  8
0-E
  6
Continuous
 62
     7
370
     0
100
AcDbLine
 10
-104.4721973851066
 20
-800.786858720358
 30
0.0
 11
40.52780261489337
 21
-800.786858720358
 31
0.0
  0
LINE
  5
2DC
330
1F
100
AcDbEntity
  8
0-E
  6
Continuous
 62
     7
370
     0
100
AcDbLine
 10
45.52780261489337
 20
-785.7968833072777
 30
0.0
 11
45.52780261489337
 21
-800.786858720358
 31
0.0
  0
LINE
  5
2DD
330
1F
100
AcDbEntity
  8
0-E
  6
Continuous
 62
     7
370
     0
100
AcDbLine
 10
190.5278026148934
 20
-785.7968833072777
 30
0.0
 11
190.5278026148934
 21
-800.786858720358
 31
0.0
  0
LINE
  5
2DE
330
1F
100
AcDbEntity
  8
0-E
  6
Continuous
 62
     7
370
     0
100
AcDbLine
 10
45.52780261489337
 20
-800.786858720358
 30
0.0
 11
190.5278026148934
 21
-800.786858720358
 31
0.0
  0
LINE
  5
2DF
330
1F
100
AcDbEntity
  8
0-E
  6
Continuous
 62
     7
370
     0
100
AcDbLine
 10
195.5278026148934
 20
-785.7968833072777
 30
0.0
 11
195.5278026148934
 21
-800.786858720358
 31
0.0
  0
LINE
  5
2E0
330
1F
100
AcDbEntity
  8
0-E
  6
Continuous
 62
     7
370
     0
100
AcDbLine
 10
195.5278026148934
 20
-800.786858720358
 30
0.0
 11
329.0278026148933
 21
-800.786858720358
 31
0.0
  0
LINE
  5
2E1
330
1F
100
AcDbEntity
  8
0-E
  6
Continuous
 62
     7
370
     0
100
AcDbLine
 10
348.0278026148924
 20
-800.786858720358
 30
0.0
 11
439.3358115562245
 21
-800.786858720358
 31
0.0
  0
LINE
  5
2E2
330
1F
100
AcDbEntity
  8
0-E
  6
Continuous
 62
     7
370
     9
100
AcDbLine
 10
427.0830570025029
 20
-785.7968833072777
 30
0.0
 11
412.0930815894141
 21
-800.786858720358
 31
0.0
  0
LINE
  5
2E3
330
1F
100
AcDbEntity
  8
0-E
  6
Continuous
 62
     7
370
     9
100
AcDbLine
 10
348.0278026148924
 20
-785.7968833072777
 30
0.0
 11
348.0278026148924
 21
-800.786858720358
 31
0.0
  0
LINE
  5
2E4
330
1F
100
AcDbEntity
  8
0-E
  6
Continuous
 62
     7
370
     9
100
AcDbLine
 10
403.0830570024974
 20
-785.7968833072777
 30
0.0
 11
388.093081589417
 21
-800.786858720358
 31
0.0
  0
LINE
  5
2E5
330
1F
100
AcDbEntity
  8
0-E
  6
Continuous
 62
     7
370
     9
100
AcDbLine
 10
379.083057002492
 20
-785.7968833072777
 30
0.0
 11
364.0930815894032
 21
-800.786858720358
 31
0.0
  0
LINE
  5
2E6
330
1F
100
AcDbEntity
  8
0-E
  6
Continuous
 62
     7
370
     9
100
AcDbLine
 10
355.0830570024865
 20
-785.7968833072777
 30
0.0
 11
348.0278026148924
 21
-792.8521376948718
 31
0.0
  0
LINE
  5
2E7
330
1F
100
AcDbEntity
  8
0-E
  6
Continuous
 62
     7
370
     9
100
AcDbLine
 10
-482.8887937494523
 20
-835.786858720358
 30
0.0
 11
439.3358115562244
 21
-835.786858720358
 31
0.0
  0
LINE
  5
2E8
330
1F
100
AcDbEntity
  8
0-E
  6
Continuous
 62
     7
370
     9
100
AcDbLine
 10
-446.4894534920871
 20
-835.786858720358
 30
0.0
 11
-496.3698673639568
 21
-885.6672725922277
 31
0.0
  0
LINE
  5
2E9
330
1F
100
AcDbEntity
  8
0-E
  6
Continuous
 62
     7
370
     9
100
AcDbLine
 10
-431.4894534920871
 20
-835.786858720358
 30
0.0
 11
-481.3698673639568
 21
-885.6672725922277
 31
0.0
  0
LINE
  5
2EA
330
1F
100
AcDbEntity
  8
0-E
  6
Continuous
 62
     7
370
     9
100
AcDbLine
 10
-416.4894534920871
 20
-835.786858720358
 30
0.0
 11
-466.3698673639568
 21
-885.6672725922277
 31
0.0
  0
LINE
  5
2EB
330
1F
100
AcDbEntity
  8
0-E
  6
Continuous
 62
     7
370
     9
100
AcDbLine
 10
-146.4894534920871
 20
-835.786858720358
 30
0.0
 11
-196.3698673639568
 21
-885.6672725922277
 31
0.0
  0
LINE
  5
2EC
330
1F
100
AcDbEntity
  8
0-E
  6
Continuous
 62
     7
370
     9
100
AcDbLine
 10
-131.4894534920871
 20
-835.786858720358
 30
0.0
 11
-181.3698673639568
 21
-885.6672725922277
 31
0.0
  0
LINE
  5
2ED
330
1F
100
AcDbEntity
  8
0-E
  6
Continuous
 62
     7
370
     9
100
AcDbLine
 10
-116.4894534920871
 20
-835.786858720358
 30
0.0
 11
-166.3698673639568
 21
-885.6672725922277
 31
0.0
  0
LINE
  5
2EE
330
1F
100
AcDbEntity
  8
0-E
  6
Continuous
 62
     7
370
     9
100
AcDbLine
 10
153.5105465079129
 20
-835.786858720358
 30
0.0
 11
103.6301326360432
 21
-885.6672725922277
 31
0.0
  0
LINE
  5
2EF
330
1F
100
AcDbEntity
  8
0-E
  6
Continuous
 62
     7
370
     9
100
AcDbLine
 10
168.5105465079129
 20
-835.786858720358
 30
0.0
 11
118.6301326360432
 21
-885.6672725922277
 31
0.0
  0
LINE
  5
2F0
330
1F
100
AcDbEntity
  8
0-E
  6
Continuous
 62
     7
370
     9
100
AcDbLine
 10
183.5105465079129
 20
-835.786858720358
 30
0.0
 11
133.6301326360432
 21
-885.6672725922277
 31
0.0
  0
LINE
  5
2F1
330
1F
100
AcDbEntity
  8
0-E
  6
Continuous
 62
     7
370
     9
100
AcDbLine
 10
399.4384077648359
 20
-835.786858720358
 30
0.0
 11
349.5579938929662
 21
-885.6672725922277
 31
0.0
  0
LINE
  5
2F2
330
1F
100
AcDbEntity
  8
0-E
  6
Continuous
 62
     7
370
     9
100
AcDbLine
 10
414.4384077648359
 20
-835.786858720358
 30
0.0
 11
364.5579938929662
 21
-885.6672725922277
 31
0.0
  0
LINE
  5
2F3
330
1F
100
AcDbEntity
  8
0-E
  6
Continuous
 62
     7
370
     9
100
AcDbLine
 10
429.4384077648359
 20
-835.786858720358
 30
0.0
 11
379.5579938929662
 21
-885.6672725922277
 31
0.0
  0
LWPOLYLINE
  5
2F4
330
1F
100
AcDbEntity
  8
0-E
  6
Continuous
 62
     7
370
     9
100
AcDbPolyline
 90
        4
 70
     1
 43
2.0
 10
-337.9971287158113
 20
-823.1070251510819
 42
0.4142135623731
 10
-338.9971287158113
 20
-822.107025151082
 42
0.4142135623731
 10
-339.9971287158113
 20
-823.1070251510819
 42
0.4142135623731
 10
-338.9971287158113
 20
-824.1070251510819
 42
0.4142135623731
  0
LWPOLYLINE
  5
2F5
330
1F
100
AcDbEntity
  8
0-E
  6
Continuous
 62
     7
370
     9
100
AcDbPolyline
 90
        4
 70
     1
 43
2.0
 10
-287.2034779221605
 20
-815.3468840576074
 42
0.4142135623731
 10
-288.2034779221605
 20
-814.3468840576076
 42
0.4142135623731
 10
-289.2034779221605
 20
-815.3468840576074
 42
0.4142135623731
 10
-288.2034779221605
 20
-816.3468840576074
 42
0.4142135623731
  0
LWPOLYLINE
  5
2F6
330
1F
100
AcDbEntity
  8
0-E
  6
Continuous
 62
     7
370
     9
100
AcDbPolyline
 90
        4
 70
     1
 43
2.0
 10
-224.4168818022311
 20
-816.7578188018756
 42
0.4142135623731
 10
-225.4168818022311
 20
-815.7578188018756
 42
0.4142135623731
 10
-226.4168818022311
 20
-816.7578188018756
 42
0.4142135623731
 10
-225.4168818022311
 20
-817.7578188018755
 42
0.4142135623731
  0
LWPOLYLINE
  5
2F7
330
1F
100
AcDbEntity
  8
0-E
  6
Continuous
 62
     7
370
     9
100
AcDbPolyline
 90
        4
 70
     1
 43
2.0
 10
-158.1029488216315
 20
-816.7578188018756
 42
0.4142135623731
 10
-159.1029488216315
 20
-815.7578188018756
 42
0.4142135623731
 10
-160.1029488216315
 20
-816.7578188018756
 42
0.4142135623731
 10
-159.1029488216315
 20
-817.7578188018755
 42
0.4142135623731
  0
LWPOLYLINE
  5
2F8
330
1F
100
AcDbEntity
  8
0-E
  6
Continuous
 62
     7
370
     9
100
AcDbPolyline
 90
        4
 70
     1
 43
2.0
 10
-102.3710264230424
 20
-829.4562315002884
 42
0.4142135623731
 10
-103.3710264230424
 20
-828.4562315002884
 42
0.4142135623731
 10
-104.3710264230424
 20
-829.4562315002884
 42
0.4142135623731
 10
-103.3710264230424
 20
-830.4562315002884
 42
0.4142135623731
  0
LWPOLYLINE
  5
2F9
330
1F
100
AcDbEntity
  8
0-E
  6
Continuous
 62
     7
370
     9
100
AcDbPolyline
 90
        4
 70
     1
 43
2.0
 10
-14.18760490628752
 20
-815.3468840576074
 42
0.4142135623731
 10
-15.18760490628752
 20
-814.3468840576076
 42
0.4142135623731
 10
-16.18760490628752
 20
-815.3468840576074
 42
0.4142135623731
 10
-15.18760490628752
 20
-816.3468840576074
 42
0.4142135623731
  0
LWPOLYLINE
  5
2FA
330
1F
100
AcDbEntity
  8
0-E
  6
Continuous
 62
     7
370
     9
100
AcDbPolyline
 90
        4
 70
     1
 43
2.0
 10
43.66071960870361
 20
-826.6343620117522
 42
0.4142135623731
 10
42.66071960870362
 20
-825.6343620117523
 42
0.4142135623731
 10
41.66071960870362
 20
-826.6343620117522
 42
0.4142135623731
 10
42.66071960870362
 20
-827.634362011752
 42
0.4142135623731
  0
LWPOLYLINE
  5
2FB
330
1F
100
AcDbEntity
  8
0-E
  6
Continuous
 62
     7
370
     9
100
AcDbPolyline
 90
        4
 70
     1
 43
2.0
 10
123.2021658168165
 20
-815.6996177436745
 42
0.4142135623731
 10
122.2021658168165
 20
-814.6996177436745
 42
0.4142135623731
 10
121.2021658168165
 20
-815.6996177436745
 42
0.4142135623731
 10
122.2021658168165
 20
-816.6996177436744
 42
0.4142135623731
  0
LWPOLYLINE
  5
2FC
330
1F
100
AcDbEntity
  8
0-E
  6
Continuous
 62
     7
370
     9
100
AcDbPolyline
 90
        4
 70
     1
 43
2.0
 10
179.6395555875397
 20
-831.9253673027573
 42
0.4142135623731
 10
178.6395555875396
 20
-830.9253673027574
 42
0.4142135623731
 10
177.6395555875396
 20
-831.9253673027573
 42
0.4142135623731
 10
178.6395555875396
 20
-832.9253673027573
 42
0.4142135623731
  0
LWPOLYLINE
  5
2FD
330
1F
100
AcDbEntity
  8
0-E
  6
Continuous
 62
     7
370
     9
100
AcDbPolyline
 90
        4
 70
     1
 43
2.0
 10
214.7953462988859
 20
-813.9359493133394
 42
0.4142135623731
 10
213.7953462988859
 20
-812.9359493133394
 42
0.4142135623731
 10
212.7953462988859
 20
-813.9359493133394
 42
0.4142135623731
 10
213.7953462988859
 20
-814.9359493133393
 42
0.4142135623731
  0
LWPOLYLINE
  5
2FE
330
1F
100
AcDbEntity
  8
0-E
  6
Continuous
 62
     7
370
     9
100
AcDbPolyline
 90
        4
 70
     1
 43
2.0
 10
258.0640117897736
 20
-826.1640504303294
 42
0.4142135623731
 10
257.0640117897736
 20
-825.1640504303294
 42
0.4142135623731
 10
256.0640117897736
 20
-826.1640504303294
 42
0.4142135623731
 10
257.0640117897736
 20
-827.1640504303293
 42
0.4142135623731
  0
LWPOLYLINE
  5
2FF
330
1F
100
AcDbEntity
  8
0-E
  6
Continuous
 62
     7
370
     9
100
AcDbPolyline
 90
        4
 70
     1
 43
2.0
 10
371.4091029126425
 20
-812.5250145690712
 42
0.4142135623731
 10
370.4091029126425
 20
-811.5250145690713
 42
0.4142135623731
 10
369.4091029126424
 20
-812.5250145690712
 42
0.4142135623731
 10
370.4091029126425
 20
-813.5250145690712
 42
0.4142135623731
  0
LWPOLYLINE
  5
300
330
1F
100
AcDbEntity
  8
0-E
  6
Continuous
 62
     7
370
     9
100
AcDbPolyline
 90
        4
 70
     1
 43
2.0
 10
-469.2140599327425
 20
-814.6414166854736
 42
0.4142135623731
 10
-470.2140599327425
 20
-813.6414166854736
 42
0.4142135623731
 10
-471.2140599327425
 20
-814.6414166854736
 42
0.4142135623731
 10
-470.2140599327425
 20
-815.6414166854735
 42
0.4142135623731
  0
LINE
  5
301
330
1F
100
AcDbEntity
  8
通り芯
  6
Continuous
 62
     4
370
     9
100
AcDbLine
 10
-397.9721973851067
 20
312.2131166927222
 30
0.0
 11
-397.9721973851067
 21
-785.7868833072773
 31
0.0
  0
LINE
  5
302
330
1F
100
AcDbEntity
  8
通り芯
  6
Continuous
 62
     4
370
     9
100
AcDbLine
 10
334.0278026148933
 20
312.2131166927222
 30
0.0
 11
334.0278026148933
 21
314.2131166927221
 31
0.0
  0
LINE
  5
303
330
1F
100
AcDbEntity
  8
通り芯
  6
Continuous
 62
     4
370
     9
100
AcDbLine
 10
334.0278026148933
 20
-826.7868833072775
 30
0.0
 11
334.0278026148933
 21
-785.7968833072777
 31
0.0
  0
LINE
  5
304
330
1F
100
AcDbEntity
  8
通り芯
  6
Continuous
 62
     4
370
     9
100
AcDbLine
 10
343.0278026148934
 20
-826.7868833072775
 30
0.0
 11
343.0278026148934
 21
-785.7968833072777
 31
0.0
  0
LINE
  5
305
330
1F
100
AcDbEntity
  8
通り芯
  6
Continuous
 62
     4
370
     9
100
AcDbLine
 10
-397.9721973851067
 20
314.2131166927221
 30
0.0
 11
-397.9721973851067
 21
312.2131166927222
 31
0.0
  0
LINE
  5
306
330
1F
100
AcDbEntity
  8
通り芯
  6
Continuous
 62
     4
370
     9
100
AcDbLine
 10
-406.9721973851066
 20
-785.7968833072777
 30
0.0
 11
-406.9721973851066
 21
-826.7868833072775
 31
0.0
  0
LINE
  5
307
330
1F
100
AcDbEntity
  8
通り芯
  6
Continuous
 62
     4
370
     9
100
AcDbLine
 10
-397.9721973851067
 20
-785.7968833072777
 30
0.0
 11
-397.9721973851067
 21
-826.7868833072775
 31
0.0
  0
LINE
  5
308
330
1F
100
AcDbEntity
  8
通り芯
  6
Continuous
 62
     4
370
     9
100
AcDbLine
 10
-411.9721973851066
 20
-826.7868833072775
 30
0.0
 11
-411.9721973851066
 21
-835.7868833072773
 31
0.0
  0
LINE
  5
309
330
1F
100
AcDbEntity
  8
通り芯
  6
Continuous
 62
     4
370
     9
100
AcDbLine
 10
-411.9721973851066
 20
-835.7868833072773
 30
0.0
 11
-371.9721973851066
 21
-835.7868833072773
 31
0.0
  0
LINE
  5
30A
330
1F
100
AcDbEntity
  8
通り芯
  6
Continuous
 62
     4
370
     9
100
AcDbLine
 10
-371.9721973851066
 20
-826.7868833072775
 30
0.0
 11
-371.9721973851066
 21
-835.7868833072773
 31
0.0
  0
LINE
  5
30B
330
1F
100
AcDbEntity
  8
通り芯
  6
Continuous
 62
     4
370
     9
100
AcDbLine
 10
-411.9721973851066
 20
-826.7868833072775
 30
0.0
 11
-371.9721973851066
 21
-826.7868833072775
 31
0.0
  0
LINE
  5
30C
330
1F
100
AcDbEntity
  8
通り芯
  6
Continuous
 62
     4
370
     9
100
AcDbLine
 10
308.0278026148934
 20
-826.7868833072775
 30
0.0
 11
348.0278026148934
 21
-826.7868833072775
 31
0.0
  0
LINE
  5
30D
330
1F
100
AcDbEntity
  8
通り芯
  6
Continuous
 62
     4
370
     9
100
AcDbLine
 10
308.0278026148934
 20
-835.7868833072773
 30
0.0
 11
348.0278026148934
 21
-835.7868833072773
 31
0.0
  0
LINE
  5
30E
330
1F
100
AcDbEntity
  8
通り芯
  6
Continuous
 62
     4
370
     9
100
AcDbLine
 10
348.0278026148934
 20
-826.7868833072775
 30
0.0
 11
348.0278026148934
 21
-835.7868833072773
 31
0.0
  0
LINE
  5
30F
330
1F
100
AcDbEntity
  8
通り芯
  6
Continuous
 62
     4
370
     9
100
AcDbLine
 10
-397.9721973851067
 20
314.2131166927221
 30
0.0
 11
334.0278026148933
 21
314.2131166927221
 31
0.0
  0
LINE
  5
310
330
1F
100
AcDbEntity
  8
通り芯
  6
Continuous
 62
     4
370
     9
100
AcDbLine
 10
334.0278026148933
 20
294.2131166927221
 30
0.0
 11
-397.9721973851067
 21
294.2131166927221
 31
0.0
  0
LINE
  5
311
330
1F
100
AcDbEntity
  8
通り芯
  6
Continuous
 62
     4
370
     9
100
AcDbLine
 10
-411.9721973851066
 20
-835.776858720356
 30
0.0
 11
-411.9721973851066
 21
-835.786858720358
 31
0.0
  0
LINE
  5
312
330
1F
100
AcDbEntity
  8
通り芯
  6
Continuous
 62
     4
370
     9
100
AcDbLine
 10
-402.9721973851057
 20
-835.776858720356
 30
0.0
 11
-402.9721973851057
 21
-835.786858720358
 31
0.0
  0
LINE
  5
313
330
1F
100
AcDbEntity
  8
通り芯
  6
Continuous
 62
     4
370
     9
100
AcDbLine
 10
-411.9721973851066
 20
-835.776858720356
 30
0.0
 11
-411.9721973851066
 21
-835.786858720358
 31
0.0
  0
LINE
  5
314
330
1F
100
AcDbEntity
  8
通り芯
  6
Continuous
 62
     4
370
     9
100
AcDbLine
 10
-402.9721973851057
 20
-835.776858720356
 30
0.0
 11
-402.9721973851057
 21
-835.786858720358
 31
0.0
  0
LINE
  5
315
330
1F
100
AcDbEntity
  8
通り芯
  6
Continuous
 62
     4
370
     9
100
AcDbLine
 10
334.0278026148933
 20
-705.7868833072773
 30
0.0
 11
-397.9721973851067
 21
-705.7868833072773
 31
0.0
  0
LINE
  5
316
330
1F
100
AcDbEntity
  8
通り芯
  6
Continuous
 62
     4
370
     9
100
AcDbLine
 10
-397.9721973851067
 20
-685.7868833072773
 30
0.0
 11
334.0278026148933
 21
-685.7868833072773
 31
0.0
  0
LINE
  5
317
330
1F
100
AcDbEntity
  8
仕上
  6
Continuous
 62
     3
370
     9
100
AcDbLine
 10
334.0278026148933
 20
292.413116692722
 30
0.0
 11
-397.9721973851067
 21
292.413116692722
 31
0.0
  0
LINE
  5
318
330
1F
100
AcDbEntity
  8
仕上
  6
Continuous
 62
     3
370
     9
100
AcDbLine
 10
-385.9721973851067
 20
292.413116692722
 30
0.0
 11
-385.9721973851067
 21
-683.9868833072778
 31
0.0
  0
LINE
  5
319
330
1F
100
AcDbEntity
  8
建具
  6
Continuous
 62
     2
370
     9
100
AcDbLine
 10
316.0278026148933
 20
-837.8868833072777
 30
0.0
 11
316.0278026148933
 21
-848.6868833072775
 31
0.0
  0
LINE
  5
31A
330
1F
100
AcDbEntity
  8
建具
  6
Continuous
 62
     2
370
     9
100
AcDbLine
 10
324.0278026148933
 20
-848.6868833072775
 30
0.0
 11
324.0278026148933
 21
-837.8868833072777
 31
0.0
  0
LINE
  5
31B
330
1F
100
AcDbEntity
  8
建具
  6
Continuous
 62
     2
370
     9
100
AcDbLine
 10
316.2278026148941
 20
-835.7868833072773
 30
0.0
 11
316.3278026148935
 21
-835.8868833072778
 31
0.0
  0
LINE
  5
31C
330
1F
100
AcDbEntity
  8
建具
  6
Continuous
 62
     2
370
     9
100
AcDbLine
 10
323.7278026148941
 20
-835.8868833072778
 30
0.0
 11
323.8278026148935
 21
-835.7868833072773
 31
0.0
  0
LINE
  5
31D
330
1F
100
AcDbEntity
  8
建具
  6
Continuous
 62
     2
370
     9
100
AcDbLine
 10
316.0278026148933
 20
-816.886883307278
 30
0.0
 11
316.0278026148933
 21
-818.3868833072778
 31
0.0
  0
LINE
  5
31E
330
1F
100
AcDbEntity
  8
建具
  6
Continuous
 62
     2
370
     9
100
AcDbLine
 10
324.0278026148933
 20
-818.3868833072778
 30
0.0
 11
324.0278026148933
 21
-816.886883307278
 31
0.0
  0
LINE
  5
31F
330
1F
100
AcDbEntity
  8
建具
  6
Continuous
 62
     2
370
     9
100
AcDbLine
 10
324.0278026148933
 20
-837.8868833072777
 30
0.0
 11
323.7278026148941
 21
-835.8868833072778
 31
0.0
  0
LINE
  5
320
330
1F
100
AcDbEntity
  8
建具
  6
Continuous
 62
     2
370
     9
100
AcDbLine
 10
316.3278026148935
 20
-835.8868833072778
 30
0.0
 11
316.0278026148933
 21
-837.8868833072777
 31
0.0
  0
LINE
  5
321
330
1F
100
AcDbEntity
  8
建具
  6
Continuous
 62
     2
370
     9
100
AcDbLine
 10
324.0278026148933
 20
-816.886883307278
 30
0.0
 11
323.0278026148934
 21
-815.8868833072778
 31
0.0
  0
LINE
  5
322
330
1F
100
AcDbEntity
  8
建具
  6
Continuous
 62
     2
370
     9
100
AcDbLine
 10
317.0278026148934
 20
-815.8868833072778
 30
0.0
 11
316.0278026148933
 21
-816.886883307278
 31
0.0
  0
LINE
  5
323
330
1F
100
AcDbEntity
  8
建具
  6
Continuous
 62
     2
370
     9
100
AcDbLine
 10
-387.7721973851069
 20
-835.7868833072773
 30
0.0
 11
-387.6721973851065
 21
-835.8868833072778
 31
0.0
  0
LINE
  5
324
330
1F
100
AcDbEntity
  8
建具
  6
Continuous
 62
     2
370
     9
100
AcDbLine
 10
-380.2721973851069
 20
-835.8868833072778
 30
0.0
 11
-380.1721973851065
 21
-835.7868833072773
 31
0.0
  0
LINE
  5
325
330
1F
100
AcDbEntity
  8
建具
  6
Continuous
 62
     2
370
     9
100
AcDbLine
 10
-387.9721973851067
 20
-837.8868833072777
 30
0.0
 11
-387.9721973851067
 21
-848.6868833072775
 31
0.0
  0
LINE
  5
326
330
1F
100
AcDbEntity
  8
建具
  6
Continuous
 62
     2
370
     9
100
AcDbLine
 10
-379.9721973851067
 20
-848.6868833072775
 30
0.0
 11
-379.9721973851067
 21
-837.8868833072777
 31
0.0
  0
LINE
  5
327
330
1F
100
AcDbEntity
  8
建具
  6
Continuous
 62
     2
370
     9
100
AcDbLine
 10
-387.9721973851067
 20
-816.886883307278
 30
0.0
 11
-387.9721973851067
 21
-818.3868833072778
 31
0.0
  0
LINE
  5
328
330
1F
100
AcDbEntity
  8
建具
  6
Continuous
 62
     2
370
     9
100
AcDbLine
 10
-379.9721973851067
 20
-818.3868833072778
 30
0.0
 11
-379.9721973851067
 21
-816.886883307278
 31
0.0
  0
LINE
  5
329
330
1F
100
AcDbEntity
  8
建具
  6
Continuous
 62
     2
370
     9
100
AcDbLine
 10
-379.9721973851067
 20
-816.886883307278
 30
0.0
 11
-380.9721973851067
 21
-815.8868833072778
 31
0.0
  0
LINE
  5
32A
330
1F
100
AcDbEntity
  8
建具
  6
Continuous
 62
     2
370
     9
100
AcDbLine
 10
-386.9721973851066
 20
-815.8868833072778
 30
0.0
 11
-387.9721973851067
 21
-816.886883307278
 31
0.0
  0
LINE
  5
32B
330
1F
100
AcDbEntity
  8
建具
  6
Continuous
 62
     2
370
     9
100
AcDbLine
 10
-379.9721973851067
 20
-837.8868833072777
 30
0.0
 11
-380.2721973851069
 21
-835.8868833072778
 31
0.0
  0
LINE
  5
32C
330
1F
100
AcDbEntity
  8
建具
  6
Continuous
 62
     2
370
     9
100
AcDbLine
 10
-387.6721973851065
 20
-835.8868833072778
 30
0.0
 11
-387.9721973851067
 21
-837.8868833072777
 31
0.0
  0
LINE
  5
32D
330
1F
100
AcDbEntity
  8
建具
  6
Continuous
 62
     2
370
     9
100
AcDbLine
 10
-380.9721973851067
 20
-814.7868833072777
 30
0.0
 11
-382.2221973851067
 21
-813.3868833072778
 31
0.0
  0
LINE
  5
32E
330
1F
100
AcDbEntity
  8
建具
  6
Continuous
 62
     2
370
     9
100
AcDbLine
 10
-385.7221973851066
 20
-813.3868833072778
 30
0.0
 11
-386.9721973851066
 21
-814.7868833072777
 31
0.0
  0
ARC
  5
32F
330
1F
100
AcDbEntity
  8
建具
  6
Continuous
 62
     2
370
     9
100
AcDbCircle
 10
-386.7721973851068
 20
-815.6868833072774
 30
0.0
 40
0.1999999999998181
100
AcDbArc
 50
180.0
 51
270.0
  0
ARC
  5
330
330
1F
100
AcDbEntity
  8
建具
  6
Continuous
 62
     2
370
     9
100
AcDbCircle
 10
-381.1721973851065
 20
-815.6868833072774
 30
0.0
 40
0.1999999999998181
100
AcDbArc
 50
270.0
 51
0.0
  0
LINE
  5
331
330
1F
100
AcDbEntity
  8
建具
  6
Continuous
 62
     2
370
     9
100
AcDbLine
 10
-380.9721973851067
 20
-815.6868833072774
 30
0.0
 11
-380.9721973851067
 21
-814.7868833072777
 31
0.0
  0
LINE
  5
332
330
1F
100
AcDbEntity
  8
建具
  6
Continuous
 62
     2
370
     9
100
AcDbLine
 10
-386.9721973851066
 20
-814.7868833072777
 30
0.0
 11
-386.9721973851066
 21
-815.6868833072774
 31
0.0
  0
LINE
  5
333
330
1F
100
AcDbEntity
  8
建具
  6
Continuous
 62
     2
370
     9
100
AcDbLine
 10
323.0278026148934
 20
-815.6868833072774
 30
0.0
 11
323.0278026148934
 21
-814.7868833072777
 31
0.0
  0
LINE
  5
334
330
1F
100
AcDbEntity
  8
建具
  6
Continuous
 62
     2
370
     9
100
AcDbLine
 10
317.0278026148934
 20
-814.7868833072777
 30
0.0
 11
317.0278026148934
 21
-815.6868833072774
 31
0.0
  0
LINE
  5
335
330
1F
100
AcDbEntity
  8
建具
  6
Continuous
 62
     2
370
     9
100
AcDbLine
 10
323.0278026148934
 20
-814.7868833072777
 30
0.0
 11
321.7778026148934
 21
-813.3868833072778
 31
0.0
  0
LINE
  5
336
330
1F
100
AcDbEntity
  8
建具
  6
Continuous
 62
     2
370
     9
100
AcDbLine
 10
318.2778026148934
 20
-813.3868833072778
 30
0.0
 11
317.0278026148934
 21
-814.7868833072777
 31
0.0
  0
ARC
  5
337
330
1F
100
AcDbEntity
  8
建具
  6
Continuous
 62
     2
370
     9
100
AcDbCircle
 10
317.2278026148941
 20
-815.6868833072774
 30
0.0
 40
0.1999999999998181
100
AcDbArc
 50
180.0
 51
270.0
  0
ARC
  5
338
330
1F
100
AcDbEntity
  8
建具
  6
Continuous
 62
     2
370
     9
100
AcDbCircle
 10
322.8278026148936
 20
-815.6868833072774
 30
0.0
 40
0.1999999999998181
100
AcDbArc
 50
270.0
 51
0.0
  0
LINE
  5
339
330
1F
100
AcDbEntity
  8
建具
  6
Continuous
 62
     2
370
     9
100
AcDbLine
 10
328.0278026148934
 20
-826.7868833072775
 30
0.0
 11
328.0278026148934
 21
-825.1868833072779
 31
0.0
  0
LINE
  5
33A
330
1F
100
AcDbEntity
  8
建具
  6
Continuous
 62
     2
370
     9
100
AcDbLine
 10
312.0278026148934
 20
-825.1868833072779
 30
0.0
 11
312.0278026148934
 21
-826.7868833072775
 31
0.0
  0
LINE
  5
33B
330
1F
100
AcDbEntity
  8
建具
  6
Continuous
 62
     2
370
     9
100
AcDbLine
 10
-375.9721973851067
 20
-826.7868833072775
 30
0.0
 11
-375.9721973851067
 21
-825.1868833072779
 31
0.0
  0
LINE
  5
33C
330
1F
100
AcDbEntity
  8
建具
  6
Continuous
 62
     2
370
     9
100
AcDbLine
 10
-391.9721973851066
 20
-825.1868833072779
 30
0.0
 11
-391.9721973851066
 21
-826.7868833072775
 31
0.0
  0
LINE
  5
33D
330
1F
100
AcDbEntity
  8
建具
  6
Continuous
 62
     2
370
     9
100
AcDbLine
 10
320.0278026148933
 20
-848.6868833072775
 30
0.0
 11
316.0278026148933
 21
-848.6868833072775
 31
0.0
  0
LINE
  5
33E
330
1F
100
AcDbEntity
  8
建具
  6
Continuous
 62
     2
370
     9
100
AcDbLine
 10
324.0278026148933
 20
-848.6868833072775
 30
0.0
 11
320.0278026148933
 21
-848.6868833072775
 31
0.0
  0
LINE
  5
33F
330
1F
100
AcDbEntity
  8
建具
  6
Continuous
 62
     2
370
     9
100
AcDbLine
 10
320.0278026148933
 20
-837.8868833072777
 30
0.0
 11
316.0278026148933
 21
-837.8868833072777
 31
0.0
  0
LINE
  5
340
330
1F
100
AcDbEntity
  8
建具
  6
Continuous
 62
     2
370
     9
100
AcDbLine
 10
324.0278026148933
 20
-837.8868833072777
 30
0.0
 11
320.0278026148933
 21
-837.8868833072777
 31
0.0
  0
LINE
  5
341
330
1F
100
AcDbEntity
  8
建具
  6
Continuous
 62
     2
370
     9
100
AcDbLine
 10
320.0278026148933
 20
-835.8868833072778
 30
0.0
 11
316.3278026148935
 21
-835.8868833072778
 31
0.0
  0
LINE
  5
342
330
1F
100
AcDbEntity
  8
建具
  6
Continuous
 62
     2
370
     9
100
AcDbLine
 10
323.7278026148941
 20
-835.8868833072778
 30
0.0
 11
320.0278026148933
 21
-835.8868833072778
 31
0.0
  0
LINE
  5
343
330
1F
100
AcDbEntity
  8
建具
  6
Continuous
 62
     2
370
     9
100
AcDbLine
 10
324.0278026148933
 20
-816.886883307278
 30
0.0
 11
316.0278026148933
 21
-816.886883307278
 31
0.0
  0
LINE
  5
344
330
1F
100
AcDbEntity
  8
建具
  6
Continuous
 62
     2
370
     9
100
AcDbLine
 10
317.0278026148934
 20
-815.8868833072778
 30
0.0
 11
323.0278026148934
 21
-815.8868833072778
 31
0.0
  0
LINE
  5
345
330
1F
100
AcDbEntity
  8
建具
  6
Continuous
 62
     2
370
     9
100
AcDbLine
 10
-380.2721973851069
 20
-835.8868833072778
 30
0.0
 11
-387.6721973851065
 21
-835.8868833072778
 31
0.0
  0
LINE
  5
346
330
1F
100
AcDbEntity
  8
建具
  6
Continuous
 62
     2
370
     9
100
AcDbLine
 10
-379.9721973851067
 20
-848.6868833072775
 30
0.0
 11
-387.9721973851067
 21
-848.6868833072775
 31
0.0
  0
LINE
  5
347
330
1F
100
AcDbEntity
  8
建具
  6
Continuous
 62
     2
370
     9
100
AcDbLine
 10
-379.9721973851067
 20
-837.8868833072777
 30
0.0
 11
-387.9721973851067
 21
-837.8868833072777
 31
0.0
  0
LINE
  5
348
330
1F
100
AcDbEntity
  8
建具
  6
Continuous
 62
     2
370
     9
100
AcDbLine
 10
-383.9721973851067
 20
-816.886883307278
 30
0.0
 11
-387.9721973851067
 21
-816.886883307278
 31
0.0
  0
LINE
  5
349
330
1F
100
AcDbEntity
  8
建具
  6
Continuous
 62
     2
370
     9
100
AcDbLine
 10
-379.9721973851067
 20
-816.886883307278
 30
0.0
 11
-383.9721973851067
 21
-816.886883307278
 31
0.0
  0
LINE
  5
34A
330
1F
100
AcDbEntity
  8
建具
  6
Continuous
 62
     2
370
     9
100
AcDbLine
 10
-383.9721973851067
 20
-815.8868833072778
 30
0.0
 11
-380.9721973851067
 21
-815.8868833072778
 31
0.0
  0
LINE
  5
34B
330
1F
100
AcDbEntity
  8
建具
  6
Continuous
 62
     2
370
     9
100
AcDbLine
 10
-386.9721973851066
 20
-815.8868833072778
 30
0.0
 11
-383.9721973851067
 21
-815.8868833072778
 31
0.0
  0
LINE
  5
34C
330
1F
100
AcDbEntity
  8
建具
  6
Continuous
 62
     2
370
     9
100
AcDbLine
 10
-384.3721973851063
 20
-854.7868833072777
 30
0.0
 11
-387.9521471336067
 21
-854.7868833072777
 31
0.0
  0
ARC
  5
34D
330
1F
100
AcDbEntity
  8
建具
  6
Continuous
 62
     2
370
     9
100
AcDbCircle
 10
-390.2813887444065
 20
-853.9118833072773
 30
0.0
 40
2.488170308052833
100
AcDbArc
 50
339.4108715016
 51
20.58912849839998
  0
LINE
  5
34E
330
1F
100
AcDbEntity
  8
建具
  6
Continuous
 62
     2
370
     9
100
AcDbLine
 10
-384.3721973851063
 20
-853.0368833072775
 30
0.0
 11
-387.9521471336067
 21
-853.0368833072775
 31
0.0
  0
LINE
  5
34F
330
1F
100
AcDbEntity
  8
建具
  6
Continuous
 62
     2
370
     9
100
AcDbLine
 10
-384.3721973851063
 20
-853.0368833072775
 30
0.0
 11
-384.3721973851063
 21
-854.7868833072777
 31
0.0
  0
LINE
  5
350
330
1F
100
AcDbEntity
  8
建具
  6
Continuous
 62
     2
370
     9
100
AcDbLine
 10
-384.3721973851063
 20
-858.2868833072773
 30
0.0
 11
-387.9521471336067
 21
-858.2868833072773
 31
0.0
  0
ARC
  5
351
330
1F
100
AcDbEntity
  8
建具
  6
Continuous
 62
     2
370
     9
100
AcDbCircle
 10
-390.2813887444065
 20
-857.4118833072775
 30
0.0
 40
2.48817030805113
100
AcDbArc
 50
339.4108715016
 51
20.58912849839998
  0
LINE
  5
352
330
1F
100
AcDbEntity
  8
建具
  6
Continuous
 62
     2
370
     9
100
AcDbLine
 10
-384.3721973851063
 20
-856.5368833072778
 30
0.0
 11
-387.9521471336067
 21
-856.5368833072778
 31
0.0
  0
LINE
  5
353
330
1F
100
AcDbEntity
  8
建具
  6
Continuous
 62
     2
370
     9
100
AcDbLine
 10
-384.3721973851063
 20
-856.5368833072778
 30
0.0
 11
-384.3721973851063
 21
-858.2868833072773
 31
0.0
  0
LINE
  5
354
330
1F
100
AcDbEntity
  8
建具
  6
Continuous
 62
     2
370
     9
100
AcDbLine
 10
-384.3721973851063
 20
-861.7868833072775
 30
0.0
 11
-387.9521471336067
 21
-861.7868833072775
 31
0.0
  0
ARC
  5
355
330
1F
100
AcDbEntity
  8
建具
  6
Continuous
 62
     2
370
     9
100
AcDbCircle
 10
-390.2813887444065
 20
-860.9118833072778
 30
0.0
 40
2.48817030805113
100
AcDbArc
 50
339.4108715016
 51
20.58912849839998
  0
LINE
  5
356
330
1F
100
AcDbEntity
  8
建具
  6
Continuous
 62
     2
370
     9
100
AcDbLine
 10
-384.3721973851063
 20
-860.0368833072774
 30
0.0
 11
-387.9521471336067
 21
-860.0368833072774
 31
0.0
  0
LINE
  5
357
330
1F
100
AcDbEntity
  8
建具
  6
Continuous
 62
     2
370
     9
100
AcDbLine
 10
-384.3721973851063
 20
-860.0368833072774
 30
0.0
 11
-384.3721973851063
 21
-861.7868833072775
 31
0.0
  0
LINE
  5
358
330
1F
100
AcDbEntity
  8
建具
  6
Continuous
 62
     2
370
     9
100
AcDbLine
 10
-387.9521471336067
 20
-848.6868833072775
 30
0.0
 11
-387.9521471336067
 21
-853.0368833072775
 31
0.0
  0
LINE
  5
359
330
1F
100
AcDbEntity
  8
建具
  6
Continuous
 62
     2
370
     9
100
AcDbLine
 10
-384.3721973851063
 20
-848.6868833072775
 30
0.0
 11
-387.9521471336067
 21
-848.6868833072775
 31
0.0
  0
LINE
  5
35A
330
1F
100
AcDbEntity
  8
建具
  6
Continuous
 62
     2
370
     9
100
AcDbLine
 10
-384.3721973851063
 20
-853.0368833072775
 30
0.0
 11
-384.3721973851063
 21
-848.6868833072775
 31
0.0
  0
LINE
  5
35B
330
1F
100
AcDbEntity
  8
建具
  6
Continuous
 62
     2
370
     9
100
AcDbLine
 10
-387.9521471336067
 20
-854.7868833072777
 30
0.0
 11
-387.9521471336067
 21
-856.5368833072778
 31
0.0
  0
LINE
  5
35C
330
1F
100
AcDbEntity
  8
建具
  6
Continuous
 62
     2
370
     9
100
AcDbLine
 10
-384.3721973851063
 20
-856.5368833072778
 30
0.0
 11
-384.3721973851063
 21
-854.7868833072777
 31
0.0
  0
LINE
  5
35D
330
1F
100
AcDbEntity
  8
建具
  6
Continuous
 62
     2
370
     9
100
AcDbLine
 10
-387.9521471336067
 20
-858.2868833072773
 30
0.0
 11
-387.9521471336067
 21
-860.0368833072774
 31
0.0
  0
LINE
  5
35E
330
1F
100
AcDbEntity
  8
建具
  6
Continuous
 62
     2
370
     9
100
AcDbLine
 10
-384.3721973851063
 20
-860.0368833072774
 30
0.0
 11
-384.3721973851063
 21
-858.2868833072773
 31
0.0
  0
LINE
  5
35F
330
1F
100
AcDbEntity
  8
建具
  6
Continuous
 62
     2
370
     9
100
AcDbLine
 10
-387.9521471336067
 20
-861.7868833072775
 30
0.0
 11
-387.9521471336067
 21
-863.7868833072774
 31
0.0
  0
LINE
  5
360
330
1F
100
AcDbEntity
  8
建具
  6
Continuous
 62
     2
370
     9
100
AcDbLine
 10
-384.3721973851063
 20
-863.7868833072774
 30
0.0
 11
-387.9521471336067
 21
-863.7868833072774
 31
0.0
  0
LINE
  5
361
330
1F
100
AcDbEntity
  8
建具
  6
Continuous
 62
     2
370
     9
100
AcDbLine
 10
-384.3721973851063
 20
-863.7868833072774
 30
0.0
 11
-384.3721973851063
 21
-861.7868833072775
 31
0.0
  0
LINE
  5
362
330
1F
100
AcDbEntity
  8
建具
  6
Continuous
 62
     2
370
     9
100
AcDbLine
 10
319.6278026148937
 20
-860.0368833072774
 30
0.0
 11
316.0478528663933
 21
-860.0368833072774
 31
0.0
  0
LINE
  5
363
330
1F
100
AcDbEntity
  8
建具
  6
Continuous
 62
     2
370
     9
100
AcDbLine
 10
319.6278026148937
 20
-860.0368833072774
 30
0.0
 11
319.6278026148937
 21
-861.7868833072775
 31
0.0
  0
LINE
  5
364
330
1F
100
AcDbEntity
  8
建具
  6
Continuous
 62
     2
370
     9
100
AcDbLine
 10
319.6278026148937
 20
-861.7868833072775
 30
0.0
 11
316.0478528663933
 21
-861.7868833072775
 31
0.0
  0
ARC
  5
365
330
1F
100
AcDbEntity
  8
建具
  6
Continuous
 62
     2
370
     9
100
AcDbCircle
 10
313.7184852897934
 20
-860.9118833072778
 30
0.0
 40
2.488288228321439
100
AcDbArc
 50
339.411891507
 51
20.58810849299997
  0
LINE
  5
366
330
1F
100
AcDbEntity
  8
建具
  6
Continuous
 62
     2
370
     9
100
AcDbLine
 10
319.6278026148937
 20
-853.0368833072775
 30
0.0
 11
316.0478528663933
 21
-853.0368833072775
 31
0.0
  0
LINE
  5
367
330
1F
100
AcDbEntity
  8
建具
  6
Continuous
 62
     2
370
     9
100
AcDbLine
 10
319.6278026148937
 20
-853.0368833072775
 30
0.0
 11
319.6278026148937
 21
-854.7868833072777
 31
0.0
  0
LINE
  5
368
330
1F
100
AcDbEntity
  8
建具
  6
Continuous
 62
     2
370
     9
100
AcDbLine
 10
319.6278026148937
 20
-854.7868833072777
 30
0.0
 11
316.0478528663933
 21
-854.7868833072777
 31
0.0
  0
ARC
  5
369
330
1F
100
AcDbEntity
  8
建具
  6
Continuous
 62
     2
370
     9
100
AcDbCircle
 10
313.7184852897934
 20
-853.9118833072773
 30
0.0
 40
2.488288228323887
100
AcDbArc
 50
339.411891507
 51
20.58810849299997
  0
LINE
  5
36A
330
1F
100
AcDbEntity
  8
建具
  6
Continuous
 62
     2
370
     9
100
AcDbLine
 10
319.6278026148937
 20
-856.5368833072778
 30
0.0
 11
316.0478528663933
 21
-856.5368833072778
 31
0.0
  0
LINE
  5
36B
330
1F
100
AcDbEntity
  8
建具
  6
Continuous
 62
     2
370
     9
100
AcDbLine
 10
319.6278026148937
 20
-858.2868833072773
 30
0.0
 11
316.0478528663933
 21
-858.2868833072773
 31
0.0
  0
ARC
  5
36C
330
1F
100
AcDbEntity
  8
建具
  6
Continuous
 62
     2
370
     9
100
AcDbCircle
 10
313.7184852897934
 20
-857.4118833072775
 30
0.0
 40
2.48828822832841
100
AcDbArc
 50
339.4118915071
 51
20.58810849289999
  0
LINE
  5
36D
330
1F
100
AcDbEntity
  8
建具
  6
Continuous
 62
     2
370
     9
100
AcDbLine
 10
319.6278026148937
 20
-856.5368833072778
 30
0.0
 11
319.6278026148937
 21
-858.2868833072773
 31
0.0
  0
LINE
  5
36E
330
1F
100
AcDbEntity
  8
建具
  6
Continuous
 62
     2
370
     9
100
AcDbLine
 10
316.0478528663933
 20
-848.6868833072775
 30
0.0
 11
316.0478528663933
 21
-853.0368833072775
 31
0.0
  0
LINE
  5
36F
330
1F
100
AcDbEntity
  8
建具
  6
Continuous
 62
     2
370
     9
100
AcDbLine
 10
319.6278026148937
 20
-848.6868833072775
 30
0.0
 11
316.0478528663933
 21
-848.6868833072775
 31
0.0
  0
LINE
  5
370
330
1F
100
AcDbEntity
  8
建具
  6
Continuous
 62
     2
370
     9
100
AcDbLine
 10
319.6278026148937
 20
-853.0368833072775
 30
0.0
 11
319.6278026148937
 21
-848.6868833072775
 31
0.0
  0
LINE
  5
371
330
1F
100
AcDbEntity
  8
建具
  6
Continuous
 62
     2
370
     9
100
AcDbLine
 10
316.0478528663933
 20
-858.2868833072773
 30
0.0
 11
316.0478528663933
 21
-860.0368833072774
 31
0.0
  0
LINE
  5
372
330
1F
100
AcDbEntity
  8
建具
  6
Continuous
 62
     2
370
     9
100
AcDbLine
 10
319.6278026148937
 20
-860.0368833072774
 30
0.0
 11
319.6278026148937
 21
-858.2868833072773
 31
0.0
  0
LINE
  5
373
330
1F
100
AcDbEntity
  8
建具
  6
Continuous
 62
     2
370
     9
100
AcDbLine
 10
316.0478528663933
 20
-854.7868833072777
 30
0.0
 11
316.0478528663933
 21
-856.5368833072778
 31
0.0
  0
LINE
  5
374
330
1F
100
AcDbEntity
  8
建具
  6
Continuous
 62
     2
370
     9
100
AcDbLine
 10
319.6278026148937
 20
-856.5368833072778
 30
0.0
 11
319.6278026148937
 21
-854.7868833072777
 31
0.0
  0
LINE
  5
375
330
1F
100
AcDbEntity
  8
建具
  6
Continuous
 62
     2
370
     9
100
AcDbLine
 10
316.0478528663933
 20
-861.7868833072775
 30
0.0
 11
316.0478528663933
 21
-863.7868833072774
 31
0.0
  0
LINE
  5
376
330
1F
100
AcDbEntity
  8
建具
  6
Continuous
 62
     2
370
     9
100
AcDbLine
 10
319.6278026148937
 20
-863.7868833072774
 30
0.0
 11
316.0478528663933
 21
-863.7868833072774
 31
0.0
  0
LINE
  5
377
330
1F
100
AcDbEntity
  8
建具
  6
Continuous
 62
     2
370
     9
100
AcDbLine
 10
319.6278026148937
 20
-863.7868833072774
 30
0.0
 11
319.6278026148937
 21
-861.7868833072775
 31
0.0
  0
LINE
  5
378
330
1F
100
AcDbEntity
  8
建具
  6
Continuous
 62
     2
370
     9
100
AcDbLine
 10
324.0077523632934
 20
-861.7868833072775
 30
0.0
 11
320.427802614893
 21
-861.7868833072775
 31
0.0
  0
LINE
  5
379
330
1F
100
AcDbEntity
  8
建具
  6
Continuous
 62
     2
370
     9
100
AcDbLine
 10
320.427802614893
 20
-861.7868833072775
 30
0.0
 11
320.427802614893
 21
-860.0368833072774
 31
0.0
  0
LINE
  5
37A
330
1F
100
AcDbEntity
  8
建具
  6
Continuous
 62
     2
370
     9
100
AcDbLine
 10
324.0077523632934
 20
-860.0368833072774
 30
0.0
 11
320.427802614893
 21
-860.0368833072774
 31
0.0
  0
ARC
  5
37B
330
1F
100
AcDbEntity
  8
建具
  6
Continuous
 62
     2
370
     9
100
AcDbCircle
 10
326.3371199399933
 20
-860.9118833072778
 30
0.0
 40
2.488288228322025
100
AcDbArc
 50
159.411891507
 51
200.588108493
  0
LINE
  5
37C
330
1F
100
AcDbEntity
  8
建具
  6
Continuous
 62
     2
370
     9
100
AcDbLine
 10
324.0077523632934
 20
-858.2868833072773
 30
0.0
 11
320.427802614893
 21
-858.2868833072773
 31
0.0
  0
LINE
  5
37D
330
1F
100
AcDbEntity
  8
建具
  6
Continuous
 62
     2
370
     9
100
AcDbLine
 10
320.427802614893
 20
-858.2868833072773
 30
0.0
 11
320.427802614893
 21
-856.5368833072778
 31
0.0
  0
LINE
  5
37E
330
1F
100
AcDbEntity
  8
建具
  6
Continuous
 62
     2
370
     9
100
AcDbLine
 10
324.0077523632934
 20
-856.5368833072778
 30
0.0
 11
320.427802614893
 21
-856.5368833072778
 31
0.0
  0
ARC
  5
37F
330
1F
100
AcDbEntity
  8
建具
  6
Continuous
 62
     2
370
     9
100
AcDbCircle
 10
326.3371199399933
 20
-857.4118833072775
 30
0.0
 40
2.488288228321439
100
AcDbArc
 50
159.411891507
 51
200.588108493
  0
LINE
  5
380
330
1F
100
AcDbEntity
  8
建具
  6
Continuous
 62
     2
370
     9
100
AcDbLine
 10
324.0077523632934
 20
-854.7868833072777
 30
0.0
 11
320.427802614893
 21
-854.7868833072777
 31
0.0
  0
LINE
  5
381
330
1F
100
AcDbEntity
  8
建具
  6
Continuous
 62
     2
370
     9
100
AcDbLine
 10
324.0077523632934
 20
-853.0368833072775
 30
0.0
 11
320.427802614893
 21
-853.0368833072775
 31
0.0
  0
ARC
  5
382
330
1F
100
AcDbEntity
  8
建具
  6
Continuous
 62
     2
370
     9
100
AcDbCircle
 10
326.3371199399933
 20
-853.9118833072773
 30
0.0
 40
2.488288228336073
100
AcDbArc
 50
159.4118915071
 51
200.5881084929
  0
LINE
  5
383
330
1F
100
AcDbEntity
  8
建具
  6
Continuous
 62
     2
370
     9
100
AcDbLine
 10
320.427802614893
 20
-854.7868833072777
 30
0.0
 11
320.427802614893
 21
-853.0368833072775
 31
0.0
  0
LINE
  5
384
330
1F
100
AcDbEntity
  8
建具
  6
Continuous
 62
     2
370
     9
100
AcDbLine
 10
324.0077523632934
 20
-860.0368833072774
 30
0.0
 11
324.0077523632934
 21
-858.2868833072773
 31
0.0
  0
LINE
  5
385
330
1F
100
AcDbEntity
  8
建具
  6
Continuous
 62
     2
370
     9
100
AcDbLine
 10
320.427802614893
 20
-858.2868833072773
 30
0.0
 11
320.427802614893
 21
-860.0368833072774
 31
0.0
  0
LINE
  5
386
330
1F
100
AcDbEntity
  8
建具
  6
Continuous
 62
     2
370
     9
100
AcDbLine
 10
324.0077523632934
 20
-863.7868833072774
 30
0.0
 11
324.0077523632934
 21
-861.7868833072775
 31
0.0
  0
LINE
  5
387
330
1F
100
AcDbEntity
  8
建具
  6
Continuous
 62
     2
370
     9
100
AcDbLine
 10
324.0077523632934
 20
-863.7868833072774
 30
0.0
 11
320.427802614893
 21
-863.7868833072774
 31
0.0
  0
LINE
  5
388
330
1F
100
AcDbEntity
  8
建具
  6
Continuous
 62
     2
370
     9
100
AcDbLine
 10
320.427802614893
 20
-861.7868833072775
 30
0.0
 11
320.427802614893
 21
-863.7868833072774
 31
0.0
  0
LINE
  5
389
330
1F
100
AcDbEntity
  8
建具
  6
Continuous
 62
     2
370
     9
100
AcDbLine
 10
324.0077523632934
 20
-853.0368833072775
 30
0.0
 11
324.0077523632934
 21
-848.6868833072775
 31
0.0
  0
LINE
  5
38A
330
1F
100
AcDbEntity
  8
建具
  6
Continuous
 62
     2
370
     9
100
AcDbLine
 10
324.0077523632934
 20
-848.6868833072775
 30
0.0
 11
320.427802614893
 21
-848.6868833072775
 31
0.0
  0
LINE
  5
38B
330
1F
100
AcDbEntity
  8
建具
  6
Continuous
 62
     2
370
     9
100
AcDbLine
 10
320.427802614893
 20
-848.6868833072775
 30
0.0
 11
320.427802614893
 21
-853.0368833072775
 31
0.0
  0
LINE
  5
38C
330
1F
100
AcDbEntity
  8
建具
  6
Continuous
 62
     2
370
     9
100
AcDbLine
 10
324.0077523632934
 20
-856.5368833072778
 30
0.0
 11
324.0077523632934
 21
-854.7868833072777
 31
0.0
  0
LINE
  5
38D
330
1F
100
AcDbEntity
  8
建具
  6
Continuous
 62
     2
370
     9
100
AcDbLine
 10
320.427802614893
 20
-854.7868833072777
 30
0.0
 11
320.427802614893
 21
-856.5368833072778
 31
0.0
  0
LINE
  5
38E
330
1F
100
AcDbEntity
  8
建具
  6
Continuous
 62
     2
370
     9
100
AcDbLine
 10
-379.9922476367066
 20
-858.2868833072773
 30
0.0
 11
-383.5721973851062
 21
-858.2868833072773
 31
0.0
  0
LINE
  5
38F
330
1F
100
AcDbEntity
  8
建具
  6
Continuous
 62
     2
370
     9
100
AcDbLine
 10
-379.9922476367066
 20
-856.5368833072778
 30
0.0
 11
-383.5721973851062
 21
-856.5368833072778
 31
0.0
  0
ARC
  5
390
330
1F
100
AcDbEntity
  8
建具
  6
Continuous
 62
     2
370
     9
100
AcDbCircle
 10
-377.6630060258059
 20
-857.4118833072775
 30
0.0
 40
2.488170308034954
100
AcDbArc
 50
159.4108715015
 51
200.5891284985
  0
LINE
  5
391
330
1F
100
AcDbEntity
  8
建具
  6
Continuous
 62
     2
370
     9
100
AcDbLine
 10
-383.5721973851062
 20
-858.2868833072773
 30
0.0
 11
-383.5721973851062
 21
-856.5368833072778
 31
0.0
  0
LINE
  5
392
330
1F
100
AcDbEntity
  8
建具
  6
Continuous
 62
     2
370
     9
100
AcDbLine
 10
-379.9922476367066
 20
-861.7868833072775
 30
0.0
 11
-383.5721973851062
 21
-861.7868833072775
 31
0.0
  0
LINE
  5
393
330
1F
100
AcDbEntity
  8
建具
  6
Continuous
 62
     2
370
     9
100
AcDbLine
 10
-379.9922476367066
 20
-860.0368833072774
 30
0.0
 11
-383.5721973851062
 21
-860.0368833072774
 31
0.0
  0
ARC
  5
394
330
1F
100
AcDbEntity
  8
建具
  6
Continuous
 62
     2
370
     9
100
AcDbCircle
 10
-377.6630060258059
 20
-860.9118833072778
 30
0.0
 40
2.488170308032239
100
AcDbArc
 50
159.4108715014
 51
200.5891284986
  0
LINE
  5
395
330
1F
100
AcDbEntity
  8
建具
  6
Continuous
 62
     2
370
     9
100
AcDbLine
 10
-383.5721973851062
 20
-861.7868833072775
 30
0.0
 11
-383.5721973851062
 21
-860.0368833072774
 31
0.0
  0
LINE
  5
396
330
1F
100
AcDbEntity
  8
建具
  6
Continuous
 62
     2
370
     9
100
AcDbLine
 10
-379.9922476367066
 20
-854.7868833072777
 30
0.0
 11
-383.5721973851062
 21
-854.7868833072777
 31
0.0
  0
LINE
  5
397
330
1F
100
AcDbEntity
  8
建具
  6
Continuous
 62
     2
370
     9
100
AcDbLine
 10
-379.9922476367066
 20
-853.0368833072775
 30
0.0
 11
-383.5721973851062
 21
-853.0368833072775
 31
0.0
  0
ARC
  5
398
330
1F
100
AcDbEntity
  8
建具
  6
Continuous
 62
     2
370
     9
100
AcDbCircle
 10
-377.6630060258059
 20
-853.9118833072773
 30
0.0
 40
2.488170308036817
100
AcDbArc
 50
159.4108715015
 51
200.5891284985
  0
LINE
  5
399
330
1F
100
AcDbEntity
  8
建具
  6
Continuous
 62
     2
370
     9
100
AcDbLine
 10
-383.5721973851062
 20
-854.7868833072777
 30
0.0
 11
-383.5721973851062
 21
-853.0368833072775
 31
0.0
  0
LINE
  5
39A
330
1F
100
AcDbEntity
  8
建具
  6
Continuous
 62
     2
370
     9
100
AcDbLine
 10
-379.9922476367066
 20
-848.6868833072775
 30
0.0
 11
-383.5721973851062
 21
-848.6868833072775
 31
0.0
  0
LINE
  5
39B
330
1F
100
AcDbEntity
  8
建具
  6
Continuous
 62
     2
370
     9
100
AcDbLine
 10
-379.9922476367066
 20
-853.0368833072775
 30
0.0
 11
-379.9922476367066
 21
-848.6868833072775
 31
0.0
  0
LINE
  5
39C
330
1F
100
AcDbEntity
  8
建具
  6
Continuous
 62
     2
370
     9
100
AcDbLine
 10
-383.5721973851062
 20
-848.6868833072775
 30
0.0
 11
-383.5721973851062
 21
-853.0368833072775
 31
0.0
  0
LINE
  5
39D
330
1F
100
AcDbEntity
  8
建具
  6
Continuous
 62
     2
370
     9
100
AcDbLine
 10
-379.9922476367066
 20
-860.0368833072774
 30
0.0
 11
-379.9922476367066
 21
-858.2868833072773
 31
0.0
  0
LINE
  5
39E
330
1F
100
AcDbEntity
  8
建具
  6
Continuous
 62
     2
370
     9
100
AcDbLine
 10
-383.5721973851062
 20
-858.2868833072773
 30
0.0
 11
-383.5721973851062
 21
-860.0368833072774
 31
0.0
  0
LINE
  5
39F
330
1F
100
AcDbEntity
  8
建具
  6
Continuous
 62
     2
370
     9
100
AcDbLine
 10
-379.9922476367066
 20
-856.5368833072778
 30
0.0
 11
-379.9922476367066
 21
-854.7868833072777
 31
0.0
  0
LINE
  5
3A0
330
1F
100
AcDbEntity
  8
建具
  6
Continuous
 62
     2
370
     9
100
AcDbLine
 10
-383.5721973851062
 20
-854.7868833072777
 30
0.0
 11
-383.5721973851062
 21
-856.5368833072778
 31
0.0
  0
LINE
  5
3A1
330
1F
100
AcDbEntity
  8
建具
  6
Continuous
 62
     2
370
     9
100
AcDbLine
 10
-379.9922476367066
 20
-863.7868833072774
 30
0.0
 11
-379.9922476367066
 21
-861.7868833072775
 31
0.0
  0
LINE
  5
3A2
330
1F
100
AcDbEntity
  8
建具
  6
Continuous
 62
     2
370
     9
100
AcDbLine
 10
-379.9922476367066
 20
-863.7868833072774
 30
0.0
 11
-383.5721973851062
 21
-863.7868833072774
 31
0.0
  0
LINE
  5
3A3
330
1F
100
AcDbEntity
  8
建具
  6
Continuous
 62
     2
370
     9
100
AcDbLine
 10
-383.5721973851062
 20
-861.7868833072775
 30
0.0
 11
-383.5721973851062
 21
-863.7868833072774
 31
0.0
  0
LINE
  5
3A4
330
1F
100
AcDbEntity
  8
建具
  6
Continuous
 62
     2
370
     9
100
AcDbLine
 10
-383.9721973851067
 20
-813.3868833072778
 30
0.0
 11
-382.2221973851067
 21
-813.3868833072778
 31
0.0
  0
LINE
  5
3A5
330
1F
100
AcDbEntity
  8
建具
  6
Continuous
 62
     2
370
     9
100
AcDbLine
 10
-385.7221973851066
 20
-813.3868833072778
 30
0.0
 11
-383.9721973851067
 21
-813.3868833072778
 31
0.0
  0
LINE
  5
3A6
330
1F
100
AcDbEntity
  8
建具
  6
Continuous
 62
     2
370
     9
100
AcDbLine
 10
-383.9721973851067
 20
-814.7868833072777
 30
0.0
 11
-386.9721973851066
 21
-814.7868833072777
 31
0.0
  0
LINE
  5
3A7
330
1F
100
AcDbEntity
  8
建具
  6
Continuous
 62
     2
370
     9
100
AcDbLine
 10
-380.9721973851067
 20
-814.7868833072777
 30
0.0
 11
-383.9721973851067
 21
-814.7868833072777
 31
0.0
  0
LINE
  5
3A8
330
1F
100
AcDbEntity
  8
建具
  6
Continuous
 62
     2
370
     9
100
AcDbLine
 10
323.0278026148934
 20
-814.7868833072777
 30
0.0
 11
317.0278026148934
 21
-814.7868833072777
 31
0.0
  0
LINE
  5
3A9
330
1F
100
AcDbEntity
  8
建具
  6
Continuous
 62
     2
370
     9
100
AcDbLine
 10
318.2778026148934
 20
-813.3868833072778
 30
0.0
 11
321.7778026148934
 21
-813.3868833072778
 31
0.0
  0
LINE
  5
3AA
330
1F
100
AcDbEntity
  8
建具
  6
Continuous
 62
     2
370
     9
100
AcDbLine
 10
-390.4721973851067
 20
-825.1868833072779
 30
0.0
 11
-390.4721973851067
 21
-818.9674398908777
 31
0.0
  0
LINE
  5
3AB
330
1F
100
AcDbEntity
  8
建具
  6
Continuous
 62
     2
370
     9
100
AcDbLine
 10
-387.2221973851067
 20
-818.3868833072778
 30
0.0
 11
-387.4532683645068
 21
-818.390043712278
 31
0.0
  0
LINE
  5
3AC
330
1F
100
AcDbEntity
  8
建具
  6
Continuous
 62
     2
370
     9
100
AcDbLine
 10
-387.4532683645068
 20
-818.390043712278
 30
0.0
 11
-390.4721973851067
 21
-818.9674398908777
 31
0.0
  0
LINE
  5
3AD
330
1F
100
AcDbEntity
  8
建具
  6
Continuous
 62
     2
370
     9
100
AcDbLine
 10
-383.9721973851067
 20
-818.9674398908777
 30
0.0
 11
-387.2221973851067
 21
-818.3868833072778
 31
0.0
  0
LINE
  5
3AE
330
1F
100
AcDbEntity
  8
建具
  6
Continuous
 62
     2
370
     9
100
AcDbLine
 10
-383.9721973851067
 20
-825.1868833072779
 30
0.0
 11
-383.9721973851067
 21
-818.9674398908777
 31
0.0
  0
LINE
  5
3AF
330
1F
100
AcDbEntity
  8
建具
  6
Continuous
 62
     2
370
     9
100
AcDbLine
 10
-380.7221973851066
 20
-818.3868833072778
 30
0.0
 11
-380.9532683645068
 21
-818.390043712278
 31
0.0
  0
LINE
  5
3B0
330
1F
100
AcDbEntity
  8
建具
  6
Continuous
 62
     2
370
     9
100
AcDbLine
 10
-380.9532683645068
 20
-818.390043712278
 30
0.0
 11
-383.9721973851067
 21
-818.9674398908777
 31
0.0
  0
LINE
  5
3B1
330
1F
100
AcDbEntity
  8
建具
  6
Continuous
 62
     2
370
     9
100
AcDbLine
 10
-377.4721973851067
 20
-818.9674398908777
 30
0.0
 11
-380.7221973851066
 21
-818.3868833072778
 31
0.0
  0
LINE
  5
3B2
330
1F
100
AcDbEntity
  8
建具
  6
Continuous
 62
     2
370
     9
100
AcDbLine
 10
-377.4721973851067
 20
-825.1868833072779
 30
0.0
 11
-377.4721973851067
 21
-818.9674398908777
 31
0.0
  0
LINE
  5
3B3
330
1F
100
AcDbEntity
  8
建具
  6
Continuous
 62
     2
370
     9
100
AcDbLine
 10
-380.7221973851066
 20
-818.3868833072778
 30
0.0
 11
-387.2221973851067
 21
-818.3868833072778
 31
0.0
  0
LINE
  5
3B4
330
1F
100
AcDbEntity
  8
建具
  6
Continuous
 62
     2
370
     9
100
AcDbLine
 10
-390.4721973851067
 20
-818.9674398908777
 30
0.0
 11
-390.4721973851067
 21
-818.3868833072778
 31
0.0
  0
LINE
  5
3B5
330
1F
100
AcDbEntity
  8
建具
  6
Continuous
 62
     2
370
     9
100
AcDbLine
 10
-387.2221973851067
 20
-818.3868833072778
 30
0.0
 11
-390.4721973851067
 21
-818.3868833072778
 31
0.0
  0
LINE
  5
3B6
330
1F
100
AcDbEntity
  8
建具
  6
Continuous
 62
     2
370
     9
100
AcDbLine
 10
-377.4721973851067
 20
-818.9674398908777
 30
0.0
 11
-377.4721973851067
 21
-818.3868833072778
 31
0.0
  0
LINE
  5
3B7
330
1F
100
AcDbEntity
  8
建具
  6
Continuous
 62
     2
370
     9
100
AcDbLine
 10
-377.4721973851067
 20
-818.3868833072778
 30
0.0
 11
-380.7221973851066
 21
-818.3868833072778
 31
0.0
  0
LINE
  5
3B8
330
1F
100
AcDbEntity
  8
建具
  6
Continuous
 62
     2
370
     9
100
AcDbLine
 10
313.5278026148933
 20
-825.1868833072779
 30
0.0
 11
313.5278026148933
 21
-818.9674398908777
 31
0.0
  0
LINE
  5
3B9
330
1F
100
AcDbEntity
  8
建具
  6
Continuous
 62
     2
370
     9
100
AcDbLine
 10
316.7778026148934
 20
-818.3868833072778
 30
0.0
 11
316.5467316354932
 21
-818.390043712278
 31
0.0
  0
LINE
  5
3BA
330
1F
100
AcDbEntity
  8
建具
  6
Continuous
 62
     2
370
     9
100
AcDbLine
 10
316.5467316354932
 20
-818.390043712278
 30
0.0
 11
313.5278026148933
 21
-818.9674398908777
 31
0.0
  0
LINE
  5
3BB
330
1F
100
AcDbEntity
  8
建具
  6
Continuous
 62
     2
370
     9
100
AcDbLine
 10
320.0278026148933
 20
-818.9674398908777
 30
0.0
 11
316.7778026148934
 21
-818.3868833072778
 31
0.0
  0
LINE
  5
3BC
330
1F
100
AcDbEntity
  8
建具
  6
Continuous
 62
     2
370
     9
100
AcDbLine
 10
320.0278026148933
 20
-825.1868833072779
 30
0.0
 11
320.0278026148933
 21
-818.9674398908777
 31
0.0
  0
LINE
  5
3BD
330
1F
100
AcDbEntity
  8
建具
  6
Continuous
 62
     2
370
     9
100
AcDbLine
 10
323.2778026148934
 20
-818.3868833072778
 30
0.0
 11
323.0467316354932
 21
-818.390043712278
 31
0.0
  0
LINE
  5
3BE
330
1F
100
AcDbEntity
  8
建具
  6
Continuous
 62
     2
370
     9
100
AcDbLine
 10
323.0467316354932
 20
-818.390043712278
 30
0.0
 11
320.0278026148933
 21
-818.9674398908777
 31
0.0
  0
LINE
  5
3BF
330
1F
100
AcDbEntity
  8
建具
  6
Continuous
 62
     2
370
     9
100
AcDbLine
 10
326.5278026148933
 20
-818.9674398908777
 30
0.0
 11
323.2778026148934
 21
-818.3868833072778
 31
0.0
  0
LINE
  5
3C0
330
1F
100
AcDbEntity
  8
建具
  6
Continuous
 62
     2
370
     9
100
AcDbLine
 10
326.5278026148933
 20
-825.1868833072779
 30
0.0
 11
326.5278026148933
 21
-818.9674398908777
 31
0.0
  0
LINE
  5
3C1
330
1F
100
AcDbEntity
  8
建具
  6
Continuous
 62
     2
370
     9
100
AcDbLine
 10
323.2778026148934
 20
-818.3868833072778
 30
0.0
 11
316.7778026148934
 21
-818.3868833072778
 31
0.0
  0
LINE
  5
3C2
330
1F
100
AcDbEntity
  8
建具
  6
Continuous
 62
     2
370
     9
100
AcDbLine
 10
326.5278026148933
 20
-818.9674398908777
 30
0.0
 11
326.5278026148933
 21
-818.3868833072778
 31
0.0
  0
LINE
  5
3C3
330
1F
100
AcDbEntity
  8
建具
  6
Continuous
 62
     2
370
     9
100
AcDbLine
 10
326.5278026148933
 20
-818.3868833072778
 30
0.0
 11
323.2778026148934
 21
-818.3868833072778
 31
0.0
  0
LINE
  5
3C4
330
1F
100
AcDbEntity
  8
建具
  6
Continuous
 62
     2
370
     9
100
AcDbLine
 10
313.5278026148933
 20
-818.9674398908777
 30
0.0
 11
313.5278026148933
 21
-818.3868833072778
 31
0.0
  0
LINE
  5
3C5
330
1F
100
AcDbEntity
  8
建具
  6
Continuous
 62
     2
370
     9
100
AcDbLine
 10
316.7778026148934
 20
-818.3868833072778
 30
0.0
 11
313.5278026148933
 21
-818.3868833072778
 31
0.0
  0
LINE
  5
3C6
330
1F
100
AcDbEntity
  8
建具
  6
Continuous
 62
     2
370
     9
100
AcDbLine
 10
312.0278026148934
 20
-825.1868833072779
 30
0.0
 11
328.0278026148934
 21
-825.1868833072779
 31
0.0
  0
LINE
  5
3C7
330
1F
100
AcDbEntity
  8
建具
  6
Continuous
 62
     2
370
     9
100
AcDbLine
 10
-383.9721973851067
 20
-825.1868833072779
 30
0.0
 11
-375.9721973851067
 21
-825.1868833072779
 31
0.0
  0
LINE
  5
3C8
330
1F
100
AcDbEntity
  8
建具
  6
Continuous
 62
     2
370
     9
100
AcDbLine
 10
-391.9721973851066
 20
-825.1868833072779
 30
0.0
 11
-383.9721973851067
 21
-825.1868833072779
 31
0.0
  0
LINE
  5
3C9
330
1F
100
AcDbEntity
  8
建具
  6
JWW_CENTER2
 62
     2
370
     9
100
AcDbLine
 10
320.0278026148933
 20
-869.8074667968779
 30
0.0
 11
320.0278026148933
 21
-808.5145669908779
 31
0.0
  0
LINE
  5
3CA
330
1F
100
AcDbEntity
  8
建具
  6
JWW_CENTER2
 62
     2
370
     9
100
AcDbLine
 10
-383.9721973851067
 20
-867.4620865268774
 30
0.0
 11
-383.9721973851067
 21
-808.6348695175774
 31
0.0
  0
LINE
  5
3CB
330
1F
100
AcDbEntity
  8
通り芯
  6
Continuous
 62
     4
370
     9
100
AcDbLine
 10
308.0278026148934
 20
-826.7868833072775
 30
0.0
 11
308.0278026148934
 21
-835.7868833072773
 31
0.0
  0
LINE
  5
3CC
330
1F
100
AcDbEntity
  8
通り芯
  6
Continuous
 62
     4
370
     9
100
AcDbLine
 10
334.0278026148933
 20
314.2131166927221
 30
0.0
 11
343.0278026148934
 21
314.2131166927221
 31
0.0
  0
LINE
  5
3CD
330
1F
100
AcDbEntity
  8
通り芯
  6
Continuous
 62
     4
370
     9
100
AcDbLine
 10
343.0278026148934
 20
-785.7868833072773
 30
0.0
 11
343.0278026148934
 21
314.2131166927221
 31
0.0
  0
LINE
  5
3CE
330
1F
100
AcDbEntity
  8
通り芯
  6
Continuous
 62
     4
370
     9
100
AcDbLine
 10
-397.9721973851067
 20
314.2131166927221
 30
0.0
 11
-406.9721973851066
 21
314.2131166927221
 31
0.0
  0
LINE
  5
3CF
330
1F
100
AcDbEntity
  8
通り芯
  6
Continuous
 62
     4
370
     9
100
AcDbLine
 10
-406.9721973851066
 20
-785.7868833072773
 30
0.0
 11
-406.9721973851066
 21
314.2131166927221
 31
0.0
  0
LINE
  5
3D0
330
1F
100
AcDbEntity
  8
寸法
  6
Continuous
 62
     7
370
     9
100
AcDbLine
 10
397.8889061882557
 20
129.5199789674525
 30
0.0
 11
343.0278026148945
 21
86.40393823320167
 31
0.0
  0
LINE
  5
3D1
330
1F
100
AcDbEntity
  8
寸法
  6
Continuous
 62
     7
370
     9
100
AcDbLine
 10
343.0278026148945
 20
86.40393823320167
 30
0.0
 11
360.4993432858654
 21
104.2853606202105
 31
0.0
  0
LINE
  5
3D2
330
1F
100
AcDbEntity
  8
寸法
  6
Continuous
 62
     7
370
     9
100
AcDbLine
 10
343.0278026148945
 20
86.40393823320167
 30
0.0
 11
364.5320676413256
 21
99.15409845466634
 31
0.0
  0
LINE
  5
3D3
330
1F
100
AcDbEntity
  8
寸法
  6
Continuous
 62
     7
370
     9
100
AcDbLine
 10
426.8890552707477
 20
-5.956397408590846
 30
0.0
 11
322.0278026148946
 21
-88.36821711706123
 31
0.0
  0
LINE
  5
3D4
330
1F
100
AcDbEntity
  8
寸法
  6
Continuous
 62
     7
370
     9
100
AcDbLine
 10
322.0278026148946
 20
-88.36821711706123
 30
0.0
 11
339.4993407192674
 21
-70.48679222228691
 31
0.0
  0
LINE
  5
3D5
330
1F
100
AcDbEntity
  8
寸法
  6
Continuous
 62
     7
370
     9
100
AcDbLine
 10
322.0278026148946
 20
-88.36821711706123
 30
0.0
 11
343.5320658112398
 21
-75.61805380899659
 31
0.0
  0
LINE
  5
3D6
330
1F
100
AcDbEntity
  8
寸法
  6
Continuous
 62
     7
370
     9
100
AcDbLine
 10
426.8890552707477
 20
-5.956397408590846
 30
0.0
 11
827.8899280935422
 21
-5.956397408590846
 31
0.0
  0
LINE
  5
3D7
330
1F
100
AcDbEntity
  8
その他
  6
Continuous
 62
     7
370
     9
100
AcDbLine
 10
695.6438198014532
 20
936.921067700098
 30
0.0
 11
695.6438198014532
 21
791.2122961863133
 31
0.0
  0
TEXT
  5
3D8
330
1F
100
AcDbEntity
  8
寸法
  6
Continuous
 62
     7
370
     9
100
AcDbText
 10
396.2409570304399
 20
143.7892793941331
 30
0.0
 40
22.86
  1
フレーム
 41
1.125
  7
ＭＳ ゴシック
100
AcDbText
  0
LINE
  5
3D9
330
1F
100
AcDbEntity
  8
寸法
  6
Continuous
 62
     7
370
     9
100
AcDbLine
 10
260.9879526326915
 20
-683.9868833072778
 30
0.0
 11
282.4922158290367
 21
-671.2367199992132
 31
0.0
  0
LINE
  5
3DA
330
1F
100
AcDbEntity
  8
寸法
  6
Continuous
 62
     7
370
     9
100
AcDbLine
 10
260.9879526326915
 20
-683.9868833072778
 30
0.0
 11
278.4594907370643
 21
-666.1054584125034
 31
0.0
  0
LINE
  5
3DB
330
1F
100
AcDbEntity
  8
寸法
  6
Continuous
 62
     7
370
     9
100
AcDbLine
 10
260.9879526326915
 20
-683.9868833072778
 30
0.0
 11
420.0584711042569
 21
-558.9712978818845
 31
0.0
  0
TEXT
  5
3DC
330
1F
100
AcDbEntity
  8
寸法
  6
Continuous
 62
     7
370
     9
100
AcDbText
 10
431.8471275811496
 20
-548.6624179211718
 30
0.0
 40
22.86
  1
ガラス用ガスケット
 41
1.148148148148148
  7
ＭＳ ゴシック
100
AcDbText
  0
TEXT
  5
3DD
330
1F
100
AcDbEntity
  8
寸法
  6
Continuous
 62
     7
370
     9
100
AcDbText
 10
428.3741019960262
 20
-590.5085759612547
 30
0.0
 40
22.86
  1
軟質ＰＶＣ
 41
1.133333333333333
  7
ＭＳ ゴシック
100
AcDbText
  0
LINE
  5
3DE
330
1F
100
AcDbEntity
  8
寸法
  6
Continuous
 62
     7
370
     9
100
AcDbLine
 10
749.7618225571857
 20
-558.9712978818845
 30
0.0
 11
420.0584711042568
 21
-558.9712978818845
 31
0.0
  0
LINE
  5
3DF
330
1F
100
AcDbEntity
  8
寸法
  6
Continuous
 62
     7
370
     9
100
AcDbLine
 10
326.5278026148933
 20
-818.3868833072778
 30
0.0
 11
348.0320658112386
 21
-805.6367199992131
 31
0.0
  0
LINE
  5
3E0
330
1F
100
AcDbEntity
  8
寸法
  6
Continuous
 62
     7
370
     9
100
AcDbLine
 10
326.5278026148933
 20
-818.3868833072778
 30
0.0
 11
343.9993407192662
 21
-800.5054584125035
 31
0.0
  0
TEXT
  5
3E1
330
1F
100
AcDbEntity
  8
寸法
  6
Continuous
 62
     7
370
     9
100
AcDbText
 10
459.7760778001351
 20
-759.2655466833361
 30
0.0
 40
22.86
  1
ＳＵＳ３０４
 41
1.138888888888889
  7
ＭＳ ゴシック
100
AcDbText
  0
TEXT
  5
3E2
330
1F
100
AcDbEntity
  8
寸法
  6
Continuous
 62
     7
370
     9
100
AcDbText
 10
459.7760778001351
 20
-709.2596980220623
 30
0.0
 40
22.86
  1
フランジ付ナット：Ｍ８
 41
1.151515151515152
  7
ＭＳ ゴシック
100
AcDbText
  0
LINE
  5
3E3
330
1F
100
AcDbEntity
  8
寸法
  6
Continuous
 62
     7
370
     9
100
AcDbLine
 10
326.5278026148933
 20
-818.3868833072778
 30
0.0
 11
452.1577305030252
 21
-719.6526921272056
 31
0.0
  0
LINE
  5
3E4
330
1F
100
AcDbEntity
  8
寸法
  6
Continuous
 62
     7
370
     9
100
AcDbLine
 10
844.2210973932412
 20
-719.6526921272056
 30
0.0
 11
452.1577305030252
 21
-719.6526921272056
 31
0.0
  0
LINE
  5
3E5
330
1F
100
AcDbEntity
  8
寸法
  6
Continuous
 62
     7
370
     9
100
AcDbLine
 10
324.0077523633165
 20
-853.0368833072757
 30
0.0
 11
345.5120155596618
 21
-865.7870466153404
 31
0.0
  0
LINE
  5
3E6
330
1F
100
AcDbEntity
  8
寸法
  6
Continuous
 62
     7
370
     9
100
AcDbLine
 10
324.0077523633165
 20
-853.0368833072757
 30
0.0
 11
341.4792904676893
 21
-870.9183082020501
 31
0.0
  0
TEXT
  5
3E7
330
1F
100
AcDbEntity
  8
寸法
  6
Continuous
 62
     7
370
     9
100
AcDbText
 10
455.2502622620198
 20
-943.358620588708
 30
0.0
 40
22.86
  1
アンカーボルト：Ｍ８×６０
 41
1.153846153846154
  7
ＭＳ ゴシック
100
AcDbText
  0
TEXT
  5
3E8
330
1F
100
AcDbEntity
  8
寸法
  6
Continuous
 62
     7
370
     9
100
AcDbText
 10
455.2502622620198
 20
-993.3644692499819
 30
0.0
 40
22.86
  1
ＳＵＳ３０４
 41
1.13888888888889
  7
ＭＳ ゴシック
100
AcDbText
  0
LINE
  5
3E9
330
1F
100
AcDbEntity
  8
寸法
  6
Continuous
 62
     7
370
     9
100
AcDbLine
 10
324.0077523633165
 20
-853.0368833072757
 30
0.0
 11
452.1577305030252
 21
-953.7516146938514
 31
0.0
  0
LINE
  5
3EA
330
1F
100
AcDbEntity
  8
寸法
  6
Continuous
 62
     7
370
     9
100
AcDbLine
 10
906.6392160042724
 20
-953.7516146938514
 30
0.0
 11
452.1577305030252
 21
-953.7516146938514
 31
0.0
  0
TEXT
  5
3EB
330
1F
100
AcDbEntity
  8
寸法
  6
Continuous
 62
     7
370
     9
100
AcDbText
 10
394.8172085162651
 20
93.56249012437408
 30
0.0
 40
22.86
  1
ＳＵＳ３０４，ヘアライン仕上
 41
1.154761904761905
  7
ＭＳ ゴシック
100
AcDbText
  0
LINE
  5
3EC
330
1F
100
AcDbEntity
  8
寸法
  6
Continuous
 62
     7
370
     9
100
AcDbLine
 10
397.8888856209937
 20
129.5199628033789
 30
0.0
 11
883.4697986178924
 21
129.5199628033789
 31
0.0
  0
ENDSEC
  0
SECTION
  2
OBJECTS
  0
DICTIONARY
  5
C
330
0
100
AcDbDictionary
281
     1
  3
ACAD_DETAILVIEWSTYLE
350
444
  3
ACAD_GROUP
350
D
  3
ACAD_LAYOUT
350
1A
  3
ACAD_MATERIAL
350
43
  3
ACAD_MLEADERSTYLE
350
6B
  3
ACAD_MLINESTYLE
350
17
  3
ACAD_PLOTSETTINGS
350
19
  3
ACAD_PLOTSTYLENAME
350
E
  3
ACAD_SCALELIST
350
47
  3
ACAD_SECTIONVIEWSTYLE
350
445
  3
ACAD_TABLESTYLE
350
69
  3
ACAD_VISUALSTYLE
350
2A
  3
ACDB_RECOMPOSE_DATA
350
441
  3
AcDbVariableDictionary
350
43D
  0
SUN
  5
6D
330
29
100
AcDbSun
 90
        1
290
     0
 63
     7
421
 16777215
 40
1.0
291
     1
 91
  2455826
 92
 54000000
292
     0
 70
     2
 71
   256
280
     1
  0
DICTIONARY
  5
444
102
{ACAD_REACTORS
330
C
102
}
330
C
100
AcDbDictionary
281
     1
  0
DICTIONARY
  5
D
102
{ACAD_REACTORS
330
C
102
}
330
C
100
AcDbDictionary
281
     1
  0
DICTIONARY
  5
1A
102
{ACAD_REACTORS
330
C
102
}
330
C
100
AcDbDictionary
281
     1
  3
Layout1
350
1E
  3
Layout2
350
26
  3
Model
350
22
  0
DICTIONARY
  5
43
102
{ACAD_REACTORS
330
C
102
}
330
C
100
AcDbDictionary
281
     1
  3
ByBlock
350
45
  3
ByLayer
350
44
  3
Global
350
46
  0
DICTIONARY
  5
6B
102
{ACAD_REACTORS
330
C
102
}
330
C
100
AcDbDictionary
281
     1
  3
Standard
350
6C
  0
DICTIONARY
  5
17
102
{ACAD_REACTORS
330
C
102
}
330
C
100
AcDbDictionary
281
     1
  3
Standard
350
18
  0
DICTIONARY
  5
19
102
{ACAD_REACTORS
330
C
102
}
330
C
100
AcDbDictionary
281
     1
  0
ACDBDICTIONARYWDFLT
  5
E
102
{ACAD_REACTORS
330
C
102
}
330
C
100
AcDbDictionary
281
     1
  3
Normal
350
F
100
AcDbDictionaryWithDefault
340
F
  0
DICTIONARY
  5
47
102
{ACAD_REACTORS
330
C
102
}
330
C
100
AcDbDictionary
281
     1
  3
A0
350
48
  3
A1
350
49
  3
A2
350
4A
  3
A3
350
4B
  3
A4
350
4C
  3
A5
350
4D
  3
A6
350
4E
  3
A7
350
4F
  3
A8
350
50
  3
A9
350
51
  3
B0
350
52
  3
B1
350
53
  3
B2
350
54
  3
B3
350
55
  3
B4
350
56
  3
B5
350
57
  3
B6
350
58
  3
B7
350
59
  3
B8
350
5A
  3
B9
350
5B
  3
C0
350
5C
  3
C1
350
5D
  3
C2
350
5E
  3
C3
350
5F
  3
C4
350
60
  3
C5
350
61
  3
C6
350
62
  3
C7
350
63
  3
C8
350
64
  3
C9
350
65
  3
D0
350
66
  3
D1
350
67
  3
D2
350
68
  0
DICTIONARY
  5
445
102
{ACAD_REACTORS
330
C
102
}
330
C
100
AcDbDictionary
281
     1
  0
DICTIONARY
  5
69
102
{ACAD_REACTORS
330
C
102
}
330
C
100
AcDbDictionary
281
     1
  3
Standard
350
6A
  0
DICTIONARY
  5
2A
102
{ACAD_REACTORS
330
C
102
}
330
C
100
AcDbDictionary
281
     1
  3
2dWireframe
350
2F
  3
Basic
350
32
  3
Brighten
350
36
  3
ColorChange
350
3A
  3
Conceptual
350
34
  3
Dim
350
35
  3
EdgeColorOff
350
3D
  3
Facepattern
350
39
  3
Flat
350
2B
  3
FlatWithEdges
350
2C
  3
Gouraud
350
2D
  3
GouraudWithEdges
350
2E
  3
Hidden
350
31
  3
JitterOff
350
3B
  3
Linepattern
350
38
  3
OverhangOff
350
3C
  3
Realistic
350
33
  3
Shaded
350
42
  3
Shaded with edges
350
41
  3
Shades of Gray
350
3E
  3
Sketchy
350
3F
  3
Thicken
350
37
  3
Wireframe
350
30
  3
X-Ray
350
40
  0
XRECORD
  5
441
102
{ACAD_REACTORS
330
C
102
}
330
C
100
AcDbXrecord
280
     1
 90
        1
330
6A
  0
DICTIONARY
  5
43D
102
{ACAD_REACTORS
330
C
102
}
330
C
100
AcDbDictionary
281
     1
  3
CANNOSCALE
350
43E
  3
CENTEREXE
350
446
  3
CENTERLTYPEFILE
350
447
  3
CMLEADERSTYLE
350
443
  3
CTABLESTYLE
350
442
  0
LAYOUT
  5
1E
102
{ACAD_REACTORS
330
1A
102
}
330
1A
100
AcDbPlotSettings
  1

  2
none_device
  4

  6

 40
0.0
 41
0.0
 42
0.0
 43
0.0
 44
0.0
 45
0.0
 46
0.0
 47
0.0
 48
0.0
 49
0.0
140
0.0
141
0.0
142
1.0
143
1.0
 70
   688
 72
     1
 73
     0
 74
     5
  7

 75
    16
 76
     0
 77
     5
 78
   300
147
1.0
148
0.0
149
0.0
100
AcDbLayout
  1
Layout1
 70
     1
 71
     1
 10
0.0
 20
0.0
 11
420.0
 21
297.0
 12
0.0
 22
0.0
 32
0.0
 14
1.000000000000000E+20
 24
1.000000000000000E+20
 34
1.000000000000000E+20
 15
-1.000000000000000E+20
 25
-1.000000000000000E+20
 35
-1.000000000000000E+20
146
0.0
 13
0.0
 23
0.0
 33
0.0
 16
1.0
 26
0.0
 36
0.0
 17
0.0
 27
1.0
 37
0.0
 76
     0
330
1B
  0
LAYOUT
  5
26
102
{ACAD_REACTORS
330
1A
102
}
330
1A
100
AcDbPlotSettings
  1

  2
none_device
  4

  6

 40
0.0
 41
0.0
 42
0.0
 43
0.0
 44
0.0
 45
0.0
 46
0.0
 47
0.0
 48
0.0
 49
0.0
140
0.0
141
0.0
142
1.0
143
1.0
 70
   688
 72
     1
 73
     0
 74
     5
  7

 75
    16
 76
     0
 77
     5
 78
   300
147
1.0
148
0.0
149
0.0
100
AcDbLayout
  1
Layout2
 70
     1
 71
     2
 10
0.0
 20
0.0
 11
0.0
 21
0.0
 12
0.0
 22
0.0
 32
0.0
 14
0.0
 24
0.0
 34
0.0
 15
0.0
 25
0.0
 35
0.0
146
0.0
 13
0.0
 23
0.0
 33
0.0
 16
1.0
 26
0.0
 36
0.0
 17
0.0
 27
1.0
 37
0.0
 76
     0
330
23
  0
LAYOUT
  5
22
102
{ACAD_REACTORS
330
1A
102
}
330
1A
100
AcDbPlotSettings
  1

  2
none_device
  4
Letter_(8.50_x_11.00_Inches)
  6

 40
6.35
 41
6.35
 42
6.35000508
 43
6.35000508
 44
215.9
 45
279.4
 46
0.0
 47
0.0
 48
0.0
 49
0.0
140
0.0
141
0.0
142
1.0
143
1.0
 70
  1712
 72
     1
 73
     0
 74
     0
  7

 75
     0
 76
     0
 77
     5
 78
   300
147
1.0
148
0.0
149
0.0
100
AcDbLayout
  1
Model
 70
     1
 71
     0
 10
-2100.0
 20
-1485.0
 11
2100.0
 21
1485.0
 12
0.0
 22
0.0
 32
0.0
 14
-2100.0
 24
-1485.0
 34
0.0
 15
2100.0
 25
1485.0
 35
0.0
146
0.0
 13
0.0
 23
0.0
 33
0.0
 16
1.0
 26
0.0
 36
0.0
 17
0.0
 27
1.0
 37
0.0
 76
     0
330
1F
331
29
  0
MATERIAL
  5
45
102
{ACAD_REACTORS
330
43
102
}
330
43
100
AcDbMaterial
  1
ByBlock
 72
     1
 94
      127
  0
MATERIAL
  5
44
102
{ACAD_REACTORS
330
43
102
}
330
43
100
AcDbMaterial
  1
ByLayer
 72
     1
 94
      127
  0
MATERIAL
  5
46
102
{ACAD_REACTORS
330
43
102
}
330
43
100
AcDbMaterial
  1
Global
 72
     1
 94
      127
  0
MLEADERSTYLE
  5
6C
102
{ACAD_REACTORS
330
6B
102
}
330
6B
100
AcDbMLeaderStyle
179
     2
170
     2
171
     1
172
     0
 90
        2
 40
0.0
 41
0.0
173
     1
 91
-1056964608
340
14
 92
       -2
290
     1
 42
2.0
291
     1
 43
8.0
  3
Standard
341
0
 44
4.0
300

342
11
174
     1
178
     6
175
     1
176
     0
 93
-1056964608
 45
4.0
292
     0
297
     0
 46
4.0
343
0
 94
-1056964608
 47
1.0
 49
1.0
140
1.0
293
     1
141
0.0
294
     1
177
     0
142
1.0
295
     0
296
     0
143
3.75
271
     0
272
     9
273
     9
298
     0
  0
MLINESTYLE
  5
18
102
{ACAD_REACTORS
330
17
102
}
330
17
100
AcDbMlineStyle
  2
Standard
 70
     0
  3

 62
   256
 51
90.0
 52
90.0
 71
     2
 49
0.5
 62
   256
  6
BYLAYER
 49
-0.5
 62
   256
  6
BYLAYER
  0
ACDBPLACEHOLDER
  5
F
102
{ACAD_REACTORS
330
E
102
}
330
E
  0
SCALE
  5
48
102
{ACAD_REACTORS
330
47
102
}
330
47
100
AcDbScale
 70
     0
300
1:1
140
1.0
141
1.0
290
     1
  0
SCALE
  5
49
102
{ACAD_REACTORS
330
47
102
}
330
47
100
AcDbScale
 70
     0
300
1:2
140
1.0
141
2.0
290
     0
  0
SCALE
  5
4A
102
{ACAD_REACTORS
330
47
102
}
330
47
100
AcDbScale
 70
     0
300
1:4
140
1.0
141
4.0
290
     0
  0
SCALE
  5
4B
102
{ACAD_REACTORS
330
47
102
}
330
47
100
AcDbScale
 70
     0
300
1:5
140
1.0
141
5.0
290
     0
  0
SCALE
  5
4C
102
{ACAD_REACTORS
330
47
102
}
330
47
100
AcDbScale
 70
     0
300
1:8
140
1.0
141
8.0
290
     0
  0
SCALE
  5
4D
102
{ACAD_REACTORS
330
47
102
}
330
47
100
AcDbScale
 70
     0
300
1:10
140
1.0
141
10.0
290
     0
  0
SCALE
  5
4E
102
{ACAD_REACTORS
330
47
102
}
330
47
100
AcDbScale
 70
     0
300
1:16
140
1.0
141
16.0
290
     0
  0
SCALE
  5
4F
102
{ACAD_REACTORS
330
47
102
}
330
47
100
AcDbScale
 70
     0
300
1:20
140
1.0
141
20.0
290
     0
  0
SCALE
  5
50
102
{ACAD_REACTORS
330
47
102
}
330
47
100
AcDbScale
 70
     0
300
1:30
140
1.0
141
30.0
290
     0
  0
SCALE
  5
51
102
{ACAD_REACTORS
330
47
102
}
330
47
100
AcDbScale
 70
     0
300
1:40
140
1.0
141
40.0
290
     0
  0
SCALE
  5
52
102
{ACAD_REACTORS
330
47
102
}
330
47
100
AcDbScale
 70
     0
300
1:50
140
1.0
141
50.0
290
     0
  0
SCALE
  5
53
102
{ACAD_REACTORS
330
47
102
}
330
47
100
AcDbScale
 70
     0
300
1:100
140
1.0
141
100.0
290
     0
  0
SCALE
  5
54
102
{ACAD_REACTORS
330
47
102
}
330
47
100
AcDbScale
 70
     0
300
2:1
140
2.0
141
1.0
290
     0
  0
SCALE
  5
55
102
{ACAD_REACTORS
330
47
102
}
330
47
100
AcDbScale
 70
     0
300
4:1
140
4.0
141
1.0
290
     0
  0
SCALE
  5
56
102
{ACAD_REACTORS
330
47
102
}
330
47
100
AcDbScale
 70
     0
300
8:1
140
8.0
141
1.0
290
     0
  0
SCALE
  5
57
102
{ACAD_REACTORS
330
47
102
}
330
47
100
AcDbScale
 70
     0
300
10:1
140
10.0
141
1.0
290
     0
  0
SCALE
  5
58
102
{ACAD_REACTORS
330
47
102
}
330
47
100
AcDbScale
 70
     0
300
100:1
140
100.0
141
1.0
290
     0
  0
SCALE
  5
59
102
{ACAD_REACTORS
330
47
102
}
330
47
100
AcDbScale
 70
     0
300
1/128" = 1'-0"
140
0.0078125
141
12.0
290
     0
  0
SCALE
  5
5A
102
{ACAD_REACTORS
330
47
102
}
330
47
100
AcDbScale
 70
     0
300
1/64" = 1'-0"
140
0.015625
141
12.0
290
     0
  0
SCALE
  5
5B
102
{ACAD_REACTORS
330
47
102
}
330
47
100
AcDbScale
 70
     0
300
1/32" = 1'-0"
140
0.03125
141
12.0
290
     0
  0
SCALE
  5
5C
102
{ACAD_REACTORS
330
47
102
}
330
47
100
AcDbScale
 70
     0
300
1/16" = 1'-0"
140
0.0625
141
12.0
290
     0
  0
SCALE
  5
5D
102
{ACAD_REACTORS
330
47
102
}
330
47
100
AcDbScale
 70
     0
300
3/32" = 1'-0"
140
0.09375
141
12.0
290
     0
  0
SCALE
  5
5E
102
{ACAD_REACTORS
330
47
102
}
330
47
100
AcDbScale
 70
     0
300
1/8" = 1'-0"
140
0.125
141
12.0
290
     0
  0
SCALE
  5
5F
102
{ACAD_REACTORS
330
47
102
}
330
47
100
AcDbScale
 70
     0
300
3/16" = 1'-0"
140
0.1875
141
12.0
290
     0
  0
SCALE
  5
60
102
{ACAD_REACTORS
330
47
102
}
330
47
100
AcDbScale
 70
     0
300
1/4" = 1'-0"
140
0.25
141
12.0
290
     0
  0
SCALE
  5
61
102
{ACAD_REACTORS
330
47
102
}
330
47
100
AcDbScale
 70
     0
300
3/8" = 1'-0"
140
0.375
141
12.0
290
     0
  0
SCALE
  5
62
102
{ACAD_REACTORS
330
47
102
}
330
47
100
AcDbScale
 70
     0
300
1/2" = 1'-0"
140
0.5
141
12.0
290
     0
  0
SCALE
  5
63
102
{ACAD_REACTORS
330
47
102
}
330
47
100
AcDbScale
 70
     0
300
3/4" = 1'-0"
140
0.75
141
12.0
290
     0
  0
SCALE
  5
64
102
{ACAD_REACTORS
330
47
102
}
330
47
100
AcDbScale
 70
     0
300
1" = 1'-0"
140
1.0
141
12.0
290
     0
  0
SCALE
  5
65
102
{ACAD_REACTORS
330
47
102
}
330
47
100
AcDbScale
 70
     0
300
1-1/2" = 1'-0"
140
1.5
141
12.0
290
     0
  0
SCALE
  5
66
102
{ACAD_REACTORS
330
47
102
}
330
47
100
AcDbScale
 70
     0
300
3" = 1'-0"
140
3.0
141
12.0
290
     0
  0
SCALE
  5
67
102
{ACAD_REACTORS
330
47
102
}
330
47
100
AcDbScale
 70
     0
300
6" = 1'-0"
140
6.0
141
12.0
290
     0
  0
SCALE
  5
68
102
{ACAD_REACTORS
330
47
102
}
330
47
100
AcDbScale
 70
     0
300
1'-0" = 1'-0"
140
12.0
141
12.0
290
     0
  0
TABLESTYLE
  5
6A
102
{ACAD_REACTORS
330
69
102
}
102
{ACAD_XDICTIONARY
360
43F
102
}
330
69
100
AcDbTableStyle
  3
Standard
 70
     0
 71
     0
 40
0.06
 41
0.06
280
     0
281
     0
  7
Standard
140
4.5
170
     2
 62
     0
 63
   257
283
     0
 90
        4
 91
        0
  1

274
    -2
284
     1
 64
     0
275
    -2
285
     1
 65
     0
276
    -2
286
     1
 66
     0
277
    -2
287
     1
 67
     0
278
    -2
288
     1
 68
     0
279
    -2
289
     1
 69
     0
  7
Standard
140
6.0
170
     5
 62
     0
 63
   257
283
     0
 90
        4
 91
        0
  1

274
    -2
284
     1
 64
     0
275
    -2
285
     1
 65
     0
276
    -2
286
     1
 66
     0
277
    -2
287
     1
 67
     0
278
    -2
288
     1
 68
     0
279
    -2
289
     1
 69
     0
  7
Standard
140
4.5
170
     5
 62
     0
 63
   257
283
     0
 90
        4
 91
        0
  1

274
    -2
284
     1
 64
     0
275
    -2
285
     1
 65
     0
276
    -2
286
     1
 66
     0
277
    -2
287
     1
 67
     0
278
    -2
288
     1
 68
     0
279
    -2
289
     1
 69
     0
  0
VISUALSTYLE
  5
2F
102
{ACAD_REACTORS
330
2A
102
}
330
2A
100
AcDbVisualStyle
  2
2dWireframe
 70
     4
177
     3
291
     0
 70
    58
 90
        0
176
     1
 90
        2
176
     1
 90
        0
176
     1
 90
        0
176
     1
 40
0.6
176
     1
 40
30.0
176
     1
 62
     7
420
 16777215
176
     1
 90
        1
176
     1
 90
        4
176
     1
 62
     7
176
     1
 62
   257
176
     1
 90
        1
176
     1
 90
        1
176
     1
 40
1.0
176
     1
 90
        0
176
     1
 62
   257
176
     1
 40
1.0
176
     1
 90
        1
176
     1
 90
        6
176
     1
 90
        2
176
     1
 62
     7
176
     1
 90
        5
176
     1
 90
        0
176
     1
 90
        0
176
     1
290
     0
176
     1
 90
        1
176
     1
 40
0.0
176
     1
 90
        0
176
     1
290
     1
176
     1
290
     1
176
     1
290
     0
176
     1
290
     0
176
     1
290
     0
176
     1
290
     0
176
     1
290
     0
176
     1
290
     0
176
     1
290
     0
176
     1
 90
       50
176
     1
 40
0.0
176
     1
 40
1.0
176
     1
 90
        0
176
     1
 62
    18
420
        0
176
     1
 90
       50
176
     1
 90
        3
176
     1
 62
     5
420
      255
176
     1
290
     0
176
     1
 90
       50
176
     1
 90
       50
176
     1
 90
       50
176
     1
290
     0
176
     1
 90
       50
176
     1
 62
   256
176
     0
 40
1.0
176
     0
 90
        2
176
     1
  1
strokes_ogs.tif
176
     1
290
     0
176
     1
 40
1.0
176
     1
 40
1.0
176
     1
  0
VISUALSTYLE
  5
32
102
{ACAD_REACTORS
330
2A
102
}
330
2A
100
AcDbVisualStyle
  2
Basic
 70
     7
177
     3
291
     1
 70
    58
 90
        1
176
     1
 90
        0
176
     1
 90
        1
176
     1
 90
        0
176
     1
 40
0.6
176
     1
 40
30.0
176
     1
 62
     7
420
 16777215
176
     1
 90
        0
176
     1
 90
        4
176
     1
 62
     7
176
     1
 62
   257
176
     1
 90
        1
176
     1
 90
        1
176
     1
 40
1.0
176
     1
 90
        8
176
     1
 62
     7
176
     1
 40
1.0
176
     1
 90
        1
176
     1
 90
        6
176
     1
 90
        2
176
     1
 62
     7
176
     1
 90
        5
176
     1
 90
        0
176
     1
 90
        0
176
     1
290
     0
176
     1
 90
        1
176
     1
 40
0.0
176
     1
 90
        0
176
     1
290
     0
176
     1
290
     1
176
     1
290
     1
176
     1
290
     0
176
     1
290
     0
176
     1
290
     0
176
     1
290
     0
176
     1
290
     0
176
     1
290
     0
176
     1
 90
       50
176
     1
 40
0.0
176
     1
 40
1.0
176
     1
 90
        0
176
     1
 62
    18
420
        0
176
     1
 90
       50
176
     1
 90
        3
176
     1
 62
     5
420
      255
176
     1
290
     0
176
     1
 90
       50
176
     1
 90
       50
176
     1
 90
       50
176
     1
290
     0
176
     1
 90
       50
176
     1
 62
   256
176
     0
 40
1.0
176
     0
 90
        2
176
     1
  1
strokes_ogs.tif
176
     1
290
     0
176
     1
 40
1.0
176
     1
 40
1.0
176
     1
  0
VISUALSTYLE
  5
36
102
{ACAD_REACTORS
330
2A
102
}
330
2A
100
AcDbVisualStyle
  2
Brighten
 70
    12
177
     3
291
     1
 70
    58
 90
        2
176
     1
 90
        2
176
     1
 90
        0
176
     1
 90
        0
176
     1
 40
0.6
176
     1
 40
30.0
176
     1
 62
     7
420
 16777215
176
     1
 90
        1
176
     1
 90
        4
176
     1
 62
     7
176
     1
 62
   257
176
     1
 90
        1
176
     1
 90
        1
176
     1
 40
1.0
176
     1
 90
        8
176
     1
 62
     7
176
     1
 40
1.0
176
     1
 90
        1
176
     1
 90
        6
176
     1
 90
        2
176
     1
 62
     7
176
     1
 90
        5
176
     1
 90
        0
176
     1
 90
        0
176
     1
290
     0
176
     1
 90
        1
176
     1
 40
50.0
176
     1
 90
        0
176
     1
290
     0
176
     1
290
     1
176
     1
290
     1
176
     1
290
     0
176
     1
290
     0
176
     1
290
     0
176
     1
290
     0
176
     1
290
     0
176
     1
290
     0
176
     1
 90
       50
176
     1
 40
0.0
176
     1
 40
1.0
176
     1
 90
        0
176
     1
 62
    18
420
        0
176
     1
 90
       50
176
     1
 90
        3
176
     1
 62
     5
420
      255
176
     1
290
     0
176
     1
 90
       50
176
     1
 90
       50
176
     1
 90
       50
176
     1
290
     0
176
     1
 90
       50
176
     1
 62
   256
176
     0
 40
1.0
176
     0
 90
        2
176
     1
  1
strokes_ogs.tif
176
     1
290
     0
176
     1
 40
1.0
176
     1
 40
1.0
176
     1
  0
VISUALSTYLE
  5
3A
102
{ACAD_REACTORS
330
2A
102
}
330
2A
100
AcDbVisualStyle
  2
ColorChange
 70
    16
177
     3
291
     1
 70
    58
 90
        2
176
     1
 90
        2
176
     1
 90
        3
176
     1
 90
        0
176
     1
 40
0.6
176
     1
 40
30.0
176
     1
 62
     8
420
  8421504
176
     1
 90
        1
176
     1
 90
        4
176
     1
 62
     7
176
     1
 62
   257
176
     1
 90
        1
176
     1
 90
        1
176
     1
 40
1.0
176
     1
 90
        8
176
     1
 62
     8
420
  8421504
176
     1
 40
1.0
176
     1
 90
        1
176
     1
 90
        6
176
     1
 90
        2
176
     1
 62
     7
176
     1
 90
        5
176
     1
 90
        0
176
     1
 90
        0
176
     1
290
     0
176
     1
 90
        1
176
     1
 40
0.0
176
     1
 90
        0
176
     1
290
     0
176
     1
290
     1
176
     1
290
     1
176
     1
290
     0
176
     1
290
     0
176
     1
290
     0
176
     1
290
     0
176
     1
290
     0
176
     1
290
     0
176
     1
 90
       50
176
     1
 40
0.0
176
     1
 40
1.0
176
     1
 90
        0
176
     1
 62
    18
420
        0
176
     1
 90
       50
176
     1
 90
        3
176
     1
 62
     5
420
      255
176
     1
290
     0
176
     1
 90
       50
176
     1
 90
       50
176
     1
 90
       50
176
     1
290
     0
176
     1
 90
       50
176
     1
 62
   256
176
     0
 40
1.0
176
     0
 90
        2
176
     1
  1
strokes_ogs.tif
176
     1
290
     0
176
     1
 40
1.0
176
     1
 40
1.0
176
     1
  0
VISUALSTYLE
  5
34
102
{ACAD_REACTORS
330
2A
102
}
330
2A
100
AcDbVisualStyle
  2
Conceptual
 70
     9
177
     3
291
     0
 70
    58
 90
        3
176
     1
 90
        2
176
     1
 90
        0
176
     1
 90
        0
176
     1
 40
0.6
176
     1
 40
30.0
176
     1
 62
     7
420
 16777215
176
     1
 90
        2
176
     1
 90
        2
176
     1
 62
     7
176
     1
 62
   257
176
     1
 90
        1
176
     1
 90
        1
176
     1
 40
179.0
176
     1
 90
        8
176
     1
 62
     7
176
     1
 40
1.0
176
     1
 90
        1
176
     1
 90
        6
176
     1
 90
        2
176
     1
 62
     7
176
     1
 90
        3
176
     1
 90
        0
176
     1
 90
        0
176
     1
290
     0
176
     1
 90
        1
176
     1
 40
0.0
176
     1
 90
        0
176
     1
290
     0
176
     1
290
     1
176
     1
290
     1
176
     1
290
     0
176
     1
290
     0
176
     1
290
     0
176
     1
290
     0
176
     1
290
     0
176
     1
290
     0
176
     1
 90
       50
176
     1
 40
0.0
176
     1
 40
1.0
176
     1
 90
        0
176
     1
 62
    18
420
        0
176
     1
 90
       50
176
     1
 90
        3
176
     1
 62
     5
420
      255
176
     1
290
     0
176
     1
 90
       50
176
     1
 90
       50
176
     1
 90
       50
176
     1
290
     0
176
     1
 90
       50
176
     1
 62
   256
176
     0
 40
1.0
176
     0
 90
        2
176
     1
  1
strokes_ogs.tif
176
     1
290
     0
176
     1
 40
1.0
176
     1
 40
1.0
176
     1
  0
VISUALSTYLE
  5
35
102
{ACAD_REACTORS
330
2A
102
}
330
2A
100
AcDbVisualStyle
  2
Dim
 70
    11
177
     3
291
     1
 70
    58
 90
        2
176
     1
 90
        2
176
     1
 90
        0
176
     1
 90
        0
176
     1
 40
0.6
176
     1
 40
30.0
176
     1
 62
     7
420
 16777215
176
     1
 90
        1
176
     1
 90
        4
176
     1
 62
     7
176
     1
 62
   257
176
     1
 90
        1
176
     1
 90
        1
176
     1
 40
1.0
176
     1
 90
        8
176
     1
 62
     7
176
     1
 40
1.0
176
     1
 90
        1
176
     1
 90
        6
176
     1
 90
        2
176
     1
 62
     7
176
     1
 90
        5
176
     1
 90
        0
176
     1
 90
        0
176
     1
290
     0
176
     1
 90
        1
176
     1
 40
-50.0
176
     1
 90
        0
176
     1
290
     0
176
     1
290
     1
176
     1
290
     1
176
     1
290
     0
176
     1
290
     0
176
     1
290
     0
176
     1
290
     0
176
     1
290
     0
176
     1
290
     0
176
     1
 90
       50
176
     1
 40
0.0
176
     1
 40
1.0
176
     1
 90
        0
176
     1
 62
    18
420
        0
176
     1
 90
       50
176
     1
 90
        3
176
     1
 62
     5
420
      255
176
     1
290
     0
176
     1
 90
       50
176
     1
 90
       50
176
     1
 90
       50
176
     1
290
     0
176
     1
 90
       50
176
     1
 62
   256
176
     0
 40
1.0
176
     0
 90
        2
176
     1
  1
strokes_ogs.tif
176
     1
290
     0
176
     1
 40
1.0
176
     1
 40
1.0
176
     1
  0
VISUALSTYLE
  5
3D
102
{ACAD_REACTORS
330
2A
102
}
330
2A
100
AcDbVisualStyle
  2
EdgeColorOff
 70
    22
177
     3
291
     1
 70
    58
 90
        2
176
     0
 90
        2
176
     0
 90
        0
176
     0
 90
        0
176
     0
 40
0.6
176
     0
 40
30.0
176
     0
 62
     7
420
 16777215
176
     0
 90
        1
176
     0
 90
        4
176
     0
 62
     7
176
     0
 62
   257
176
     0
 90
        1
176
     0
 90
        1
176
     0
 40
1.0
176
     0
 90
        8
176
     2
 62
     7
176
     0
 40
1.0
176
     0
 90
        1
176
     0
 90
        6
176
     0
 90
        2
176
     0
 62
     7
176
     0
 90
        5
176
     0
 90
        0
176
     0
 90
        0
176
     0
290
     0
176
     0
 90
        1
176
     0
 40
0.0
176
     0
 90
        0
176
     0
290
     0
176
     0
290
     1
176
     0
290
     1
176
     0
290
     0
176
     0
290
     0
176
     0
290
     0
176
     0
290
     0
176
     0
290
     0
176
     0
290
     0
176
     0
 90
       50
176
     0
 40
0.0
176
     0
 40
1.0
176
     0
 90
        0
176
     0
 62
    18
420
        0
176
     0
 90
       50
176
     0
 90
        3
176
     0
 62
     5
420
      255
176
     0
290
     0
176
     0
 90
       50
176
     0
 90
       50
176
     0
 90
       50
176
     0
290
     0
176
     0
 90
       50
176
     0
 62
   256
176
     0
 40
1.0
176
     0
 90
        2
176
     0
  1
strokes_ogs.tif
176
     0
290
     0
176
     0
 40
1.0
176
     0
 40
1.0
176
     0
  0
VISUALSTYLE
  5
39
102
{ACAD_REACTORS
330
2A
102
}
330
2A
100
AcDbVisualStyle
  2
Facepattern
 70
    15
177
     3
291
     1
 70
    58
 90
        2
176
     1
 90
        2
176
     1
 90
        0
176
     1
 90
        0
176
     1
 40
0.6
176
     1
 40
30.0
176
     1
 62
     7
420
 16777215
176
     1
 90
        1
176
     1
 90
        4
176
     1
 62
     7
176
     1
 62
   257
176
     1
 90
        1
176
     1
 90
        1
176
     1
 40
1.0
176
     1
 90
        8
176
     1
 62
     7
176
     1
 40
1.0
176
     1
 90
        1
176
     1
 90
        6
176
     1
 90
        2
176
     1
 62
     7
176
     1
 90
        5
176
     1
 90
        0
176
     1
 90
        0
176
     1
290
     0
176
     1
 90
        1
176
     1
 40
0.0
176
     1
 90
        0
176
     1
290
     0
176
     1
290
     1
176
     1
290
     1
176
     1
290
     0
176
     1
290
     0
176
     1
290
     0
176
     1
290
     0
176
     1
290
     0
176
     1
290
     0
176
     1
 90
       50
176
     1
 40
0.0
176
     1
 40
1.0
176
     1
 90
        0
176
     1
 62
    18
420
        0
176
     1
 90
       50
176
     1
 90
        3
176
     1
 62
     5
420
      255
176
     1
290
     0
176
     1
 90
       50
176
     1
 90
       50
176
     1
 90
       50
176
     1
290
     0
176
     1
 90
       50
176
     1
 62
   256
176
     0
 40
1.0
176
     0
 90
        2
176
     1
  1
strokes_ogs.tif
176
     1
290
     0
176
     1
 40
1.0
176
     1
 40
1.0
176
     1
  0
VISUALSTYLE
  5
2B
102
{ACAD_REACTORS
330
2A
102
}
330
2A
100
AcDbVisualStyle
  2
Flat
 70
     0
177
     3
291
     1
 70
    58
 90
        2
176
     1
 90
        1
176
     1
 90
        1
176
     1
 90
        2
176
     1
 40
0.6
176
     1
 40
30.0
176
     1
 62
     7
420
 16777215
176
     1
 90
        0
176
     1
 90
        0
176
     1
 62
     7
176
     1
 62
   257
176
     1
 90
        1
176
     1
 90
        1
176
     1
 40
1.0
176
     1
 90
        8
176
     1
 62
     7
176
     1
 40
1.0
176
     1
 90
        1
176
     1
 90
        6
176
     1
 90
        2
176
     1
 62
     7
176
     1
 90
        5
176
     1
 90
        0
176
     1
 90
        0
176
     1
290
     0
176
     1
 90
       13
176
     1
 40
0.0
176
     1
 90
        0
176
     1
290
     0
176
     1
290
     1
176
     1
290
     1
176
     1
290
     0
176
     1
290
     0
176
     1
290
     0
176
     1
290
     0
176
     1
290
     0
176
     1
290
     0
176
     1
 90
       50
176
     1
 40
0.0
176
     1
 40
1.0
176
     1
 90
        0
176
     1
 62
    18
420
        0
176
     1
 90
       50
176
     1
 90
        3
176
     1
 62
     5
420
      255
176
     1
290
     0
176
     1
 90
       50
176
     1
 90
       50
176
     1
 90
       50
176
     1
290
     0
176
     1
 90
       50
176
     1
 62
   256
176
     0
 40
1.0
176
     0
 90
        2
176
     1
  1
strokes_ogs.tif
176
     1
290
     0
176
     1
 40
1.0
176
     1
 40
1.0
176
     1
  0
VISUALSTYLE
  5
2C
102
{ACAD_REACTORS
330
2A
102
}
330
2A
100
AcDbVisualStyle
  2
FlatWithEdges
 70
     1
177
     3
291
     1
 70
    58
 90
        2
176
     1
 90
        1
176
     1
 90
        1
176
     1
 90
        2
176
     1
 40
0.6
176
     1
 40
30.0
176
     1
 62
     7
420
 16777215
176
     1
 90
        1
176
     1
 90
        0
176
     1
 62
     7
176
     1
 62
   257
176
     1
 90
        1
176
     1
 90
        1
176
     1
 40
1.0
176
     1
 90
        0
176
     1
 62
   257
176
     1
 40
1.0
176
     1
 90
        1
176
     1
 90
        6
176
     1
 90
        2
176
     1
 62
     7
176
     1
 90
        5
176
     1
 90
        0
176
     1
 90
        0
176
     1
290
     0
176
     1
 90
       13
176
     1
 40
0.0
176
     1
 90
        0
176
     1
290
     0
176
     1
290
     1
176
     1
290
     1
176
     1
290
     0
176
     1
290
     0
176
     1
290
     0
176
     1
290
     0
176
     1
290
     0
176
     1
290
     0
176
     1
 90
       50
176
     1
 40
0.0
176
     1
 40
1.0
176
     1
 90
        0
176
     1
 62
    18
420
        0
176
     1
 90
       50
176
     1
 90
        3
176
     1
 62
     5
420
      255
176
     1
290
     0
176
     1
 90
       50
176
     1
 90
       50
176
     1
 90
       50
176
     1
290
     0
176
     1
 90
       50
176
     1
 62
   256
176
     0
 40
1.0
176
     0
 90
        2
176
     1
  1
strokes_ogs.tif
176
     1
290
     0
176
     1
 40
1.0
176
     1
 40
1.0
176
     1
  0
VISUALSTYLE
  5
2D
102
{ACAD_REACTORS
330
2A
102
}
330
2A
100
AcDbVisualStyle
  2
Gouraud
 70
     2
177
     3
291
     1
 70
    58
 90
        2
176
     1
 90
        2
176
     1
 90
        1
176
     1
 90
        2
176
     1
 40
0.6
176
     1
 40
30.0
176
     1
 62
     7
420
 16777215
176
     1
 90
        0
176
     1
 90
        0
176
     1
 62
     7
176
     1
 62
   257
176
     1
 90
        1
176
     1
 90
        1
176
     1
 40
1.0
176
     1
 90
        0
176
     1
 62
     7
176
     1
 40
1.0
176
     1
 90
        1
176
     1
 90
        6
176
     1
 90
        2
176
     1
 62
     7
176
     1
 90
        5
176
     1
 90
        0
176
     1
 90
        0
176
     1
290
     0
176
     1
 90
       13
176
     1
 40
0.0
176
     1
 90
        0
176
     1
290
     0
176
     1
290
     1
176
     1
290
     1
176
     1
290
     0
176
     1
290
     0
176
     1
290
     0
176
     1
290
     0
176
     1
290
     0
176
     1
290
     0
176
     1
 90
       50
176
     1
 40
0.0
176
     1
 40
1.0
176
     1
 90
        0
176
     1
 62
    18
420
        0
176
     1
 90
       50
176
     1
 90
        3
176
     1
 62
     5
420
      255
176
     1
290
     0
176
     1
 90
       50
176
     1
 90
       50
176
     1
 90
       50
176
     1
290
     0
176
     1
 90
       50
176
     1
 62
   256
176
     0
 40
1.0
176
     0
 90
        2
176
     1
  1
strokes_ogs.tif
176
     1
290
     0
176
     1
 40
1.0
176
     1
 40
1.0
176
     1
  0
VISUALSTYLE
  5
2E
102
{ACAD_REACTORS
330
2A
102
}
330
2A
100
AcDbVisualStyle
  2
GouraudWithEdges
 70
     3
177
     3
291
     1
 70
    58
 90
        2
176
     1
 90
        2
176
     1
 90
        1
176
     1
 90
        2
176
     1
 40
0.6
176
     1
 40
30.0
176
     1
 62
     7
420
 16777215
176
     1
 90
        1
176
     1
 90
        0
176
     1
 62
     7
176
     1
 62
   257
176
     1
 90
        1
176
     1
 90
        1
176
     1
 40
1.0
176
     1
 90
        0
176
     1
 62
   257
176
     1
 40
1.0
176
     1
 90
        1
176
     1
 90
        6
176
     1
 90
        2
176
     1
 62
     7
176
     1
 90
        5
176
     1
 90
        0
176
     1
 90
        0
176
     1
290
     0
176
     1
 90
       13
176
     1
 40
0.0
176
     1
 90
        0
176
     1
290
     0
176
     1
290
     1
176
     1
290
     1
176
     1
290
     0
176
     1
290
     0
176
     1
290
     0
176
     1
290
     0
176
     1
290
     0
176
     1
290
     0
176
     1
 90
       50
176
     1
 40
0.0
176
     1
 40
1.0
176
     1
 90
        0
176
     1
 62
    18
420
        0
176
     1
 90
       50
176
     1
 90
        3
176
     1
 62
     5
420
      255
176
     1
290
     0
176
     1
 90
       50
176
     1
 90
       50
176
     1
 90
       50
176
     1
290
     0
176
     1
 90
       50
176
     1
 62
   256
176
     0
 40
1.0
176
     0
 90
        2
176
     1
  1
strokes_ogs.tif
176
     1
290
     0
176
     1
 40
1.0
176
     1
 40
1.0
176
     1
  0
VISUALSTYLE
  5
31
102
{ACAD_REACTORS
330
2A
102
}
330
2A
100
AcDbVisualStyle
  2
Hidden
 70
     6
177
     3
291
     0
 70
    58
 90
        1
176
     1
 90
        2
176
     1
 90
        2
176
     1
 90
        0
176
     1
 40
0.6
176
     1
 40
30.0
176
     1
 62
     7
420
 16777215
176
     1
 90
        2
176
     1
 90
        2
176
     1
 62
     7
176
     1
 62
   257
176
     1
 90
        2
176
     1
 90
        1
176
     1
 40
40.0
176
     1
 90
        0
176
     1
 62
   257
176
     1
 40
1.0
176
     1
 90
        1
176
     1
 90
        6
176
     1
 90
        2
176
     1
 62
     7
176
     1
 90
        3
176
     1
 90
        0
176
     1
 90
        0
176
     1
290
     0
176
     1
 90
        1
176
     1
 40
0.0
176
     1
 90
        0
176
     1
290
     0
176
     1
290
     1
176
     1
290
     1
176
     1
290
     0
176
     1
290
     0
176
     1
290
     0
176
     1
290
     0
176
     1
290
     0
176
     1
290
     0
176
     1
 90
       50
176
     1
 40
0.0
176
     1
 40
1.0
176
     1
 90
        0
176
     1
 62
    18
420
        0
176
     1
 90
       50
176
     1
 90
        3
176
     1
 62
     5
420
      255
176
     1
290
     0
176
     1
 90
       50
176
     1
 90
       50
176
     1
 90
       50
176
     1
290
     0
176
     1
 90
       50
176
     1
 62
   256
176
     0
 40
1.0
176
     0
 90
        2
176
     1
  1
strokes_ogs.tif
176
     1
290
     0
176
     1
 40
1.0
176
     1
 40
1.0
176
     1
  0
VISUALSTYLE
  5
3B
102
{ACAD_REACTORS
330
2A
102
}
330
2A
100
AcDbVisualStyle
  2
JitterOff
 70
    20
177
     3
291
     1
 70
    58
 90
        2
176
     0
 90
        2
176
     0
 90
        0
176
     0
 90
        0
176
     0
 40
0.6
176
     0
 40
30.0
176
     0
 62
     7
420
 16777215
176
     0
 90
        1
176
     0
 90
        4
176
     0
 62
     7
176
     0
 62
   257
176
     0
 90
        1
176
     0
 90
        1
176
     0
 40
1.0
176
     0
 90
       10
176
     2
 62
     7
176
     0
 40
1.0
176
     0
 90
        1
176
     0
 90
        6
176
     0
 90
        2
176
     0
 62
     7
176
     0
 90
        5
176
     0
 90
        0
176
     0
 90
        0
176
     0
290
     0
176
     0
 90
        1
176
     0
 40
0.0
176
     0
 90
        0
176
     0
290
     0
176
     0
290
     1
176
     0
290
     1
176
     0
290
     0
176
     0
290
     0
176
     0
290
     0
176
     0
290
     0
176
     0
290
     0
176
     0
290
     0
176
     0
 90
       50
176
     0
 40
0.0
176
     0
 40
1.0
176
     0
 90
        0
176
     0
 62
    18
420
        0
176
     0
 90
       50
176
     0
 90
        3
176
     0
 62
     5
420
      255
176
     0
290
     0
176
     0
 90
       50
176
     0
 90
       50
176
     0
 90
       50
176
     0
290
     0
176
     0
 90
       50
176
     0
 62
   256
176
     0
 40
1.0
176
     0
 90
        2
176
     0
  1
strokes_ogs.tif
176
     0
290
     0
176
     0
 40
1.0
176
     0
 40
1.0
176
     0
  0
VISUALSTYLE
  5
38
102
{ACAD_REACTORS
330
2A
102
}
330
2A
100
AcDbVisualStyle
  2
Linepattern
 70
    14
177
     3
291
     1
 70
    58
 90
        2
176
     1
 90
        2
176
     1
 90
        0
176
     1
 90
        0
176
     1
 40
0.6
176
     1
 40
30.0
176
     1
 62
     7
420
 16777215
176
     1
 90
        1
176
     1
 90
        4
176
     1
 62
     7
176
     1
 62
   257
176
     1
 90
        7
176
     1
 90
        7
176
     1
 40
1.0
176
     1
 90
        8
176
     1
 62
     7
176
     1
 40
1.0
176
     1
 90
        1
176
     1
 90
        6
176
     1
 90
        2
176
     1
 62
     7
176
     1
 90
        5
176
     1
 90
        0
176
     1
 90
        0
176
     1
290
     0
176
     1
 90
        1
176
     1
 40
0.0
176
     1
 90
        0
176
     1
290
     0
176
     1
290
     1
176
     1
290
     1
176
     1
290
     0
176
     1
290
     0
176
     1
290
     0
176
     1
290
     0
176
     1
290
     0
176
     1
290
     0
176
     1
 90
       50
176
     1
 40
0.0
176
     1
 40
1.0
176
     1
 90
        0
176
     1
 62
    18
420
        0
176
     1
 90
       50
176
     1
 90
        3
176
     1
 62
     5
420
      255
176
     1
290
     0
176
     1
 90
       50
176
     1
 90
       50
176
     1
 90
       50
176
     1
290
     0
176
     1
 90
       50
176
     1
 62
   256
176
     0
 40
1.0
176
     0
 90
        2
176
     1
  1
strokes_ogs.tif
176
     1
290
     0
176
     1
 40
1.0
176
     1
 40
1.0
176
     1
  0
VISUALSTYLE
  5
3C
102
{ACAD_REACTORS
330
2A
102
}
330
2A
100
AcDbVisualStyle
  2
OverhangOff
 70
    21
177
     3
291
     1
 70
    58
 90
        2
176
     0
 90
        2
176
     0
 90
        0
176
     0
 90
        0
176
     0
 40
0.6
176
     0
 40
30.0
176
     0
 62
     7
420
 16777215
176
     0
 90
        1
176
     0
 90
        4
176
     0
 62
     7
176
     0
 62
   257
176
     0
 90
        1
176
     0
 90
        1
176
     0
 40
1.0
176
     0
 90
        9
176
     2
 62
     7
176
     0
 40
1.0
176
     0
 90
        1
176
     0
 90
        6
176
     0
 90
        2
176
     0
 62
     7
176
     0
 90
        5
176
     0
 90
        0
176
     0
 90
        0
176
     0
290
     0
176
     0
 90
        1
176
     0
 40
0.0
176
     0
 90
        0
176
     0
290
     0
176
     0
290
     1
176
     0
290
     1
176
     0
290
     0
176
     0
290
     0
176
     0
290
     0
176
     0
290
     0
176
     0
290
     0
176
     0
290
     0
176
     0
 90
       50
176
     0
 40
0.0
176
     0
 40
1.0
176
     0
 90
        0
176
     0
 62
    18
420
        0
176
     0
 90
       50
176
     0
 90
        3
176
     0
 62
     5
420
      255
176
     0
290
     0
176
     0
 90
       50
176
     0
 90
       50
176
     0
 90
       50
176
     0
290
     0
176
     0
 90
       50
176
     0
 62
   256
176
     0
 40
1.0
176
     0
 90
        2
176
     0
  1
strokes_ogs.tif
176
     0
290
     0
176
     0
 40
1.0
176
     0
 40
1.0
176
     0
  0
VISUALSTYLE
  5
33
102
{ACAD_REACTORS
330
2A
102
}
330
2A
100
AcDbVisualStyle
  2
Realistic
 70
     8
177
     3
291
     0
 70
    58
 90
        2
176
     1
 90
        3
176
     1
 90
        0
176
     1
 90
        2
176
     1
 40
0.6
176
     1
 40
30.0
176
     1
 62
     7
420
 16777215
176
     1
 90
        0
176
     1
 90
        0
176
     1
 62
     7
176
     1
 62
   257
176
     1
 90
        1
176
     1
 90
        1
176
     1
 40
1.0
176
     1
 90
        8
176
     1
 62
   257
176
     1
 40
1.0
176
     1
 90
        1
176
     1
 90
        6
176
     1
 90
        2
176
     1
 62
     7
176
     1
 90
        3
176
     1
 90
        0
176
     1
 90
        0
176
     1
290
     0
176
     1
 90
       13
176
     1
 40
0.0
176
     1
 90
        0
176
     1
290
     0
176
     1
290
     1
176
     1
290
     1
176
     1
290
     0
176
     1
290
     0
176
     1
290
     0
176
     1
290
     0
176
     1
290
     0
176
     1
290
     0
176
     1
 90
       50
176
     1
 40
0.0
176
     1
 40
1.0
176
     1
 90
        0
176
     1
 62
    18
420
        0
176
     1
 90
       50
176
     1
 90
        3
176
     1
 62
     5
420
      255
176
     1
290
     0
176
     1
 90
       50
176
     1
 90
       50
176
     1
 90
       50
176
     1
290
     0
176
     1
 90
       50
176
     1
 62
   256
176
     0
 40
1.0
176
     0
 90
        2
176
     1
  1
strokes_ogs.tif
176
     1
290
     0
176
     1
 40
1.0
176
     1
 40
1.0
176
     1
  0
VISUALSTYLE
  5
42
102
{ACAD_REACTORS
330
2A
102
}
330
2A
100
AcDbVisualStyle
  2
Shaded
 70
    27
177
     3
291
     0
 70
    58
 90
        2
176
     1
 90
        2
176
     1
 90
        1
176
     1
 90
        2
176
     1
 40
0.6
176
     1
 40
30.0
176
     1
 62
     7
420
 16777215
176
     1
 90
        0
176
     1
 90
        4
176
     1
 62
     7
176
     1
 62
   257
176
     1
 90
        1
176
     1
 90
        1
176
     1
 40
1.0
176
     1
 90
        8
176
     1
 62
   257
176
     1
 40
1.0
176
     1
 90
        1
176
     1
 90
        6
176
     1
 90
        2
176
     1
 62
     8
420
  7895160
176
     1
 90
        3
176
     1
 90
        0
176
     1
 90
        0
176
     1
290
     0
176
     1
 90
        5
176
     1
 40
0.0
176
     1
 90
        0
176
     1
290
     0
176
     1
290
     1
176
     1
290
     1
176
     1
290
     0
176
     1
290
     0
176
     1
290
     0
176
     1
290
     0
176
     1
290
     0
176
     1
290
     0
176
     1
 90
       50
176
     1
 40
0.0
176
     1
 40
1.0
176
     1
 90
        0
176
     1
 62
    18
420
        0
176
     1
 90
       50
176
     1
 90
        3
176
     1
 62
     5
420
      255
176
     1
290
     0
176
     1
 90
       50
176
     1
 90
       50
176
     1
 90
       50
176
     1
290
     0
176
     1
 90
       50
176
     1
 62
   256
176
     0
 40
1.0
176
     0
 90
        2
176
     1
  1
strokes_ogs.tif
176
     1
290
     0
176
     1
 40
1.0
176
     1
 40
1.0
176
     1
  0
VISUALSTYLE
  5
41
102
{ACAD_REACTORS
330
2A
102
}
330
2A
100
AcDbVisualStyle
  2
Shaded with edges
 70
    26
177
     3
291
     0
 70
    58
 90
        2
176
     1
 90
        2
176
     1
 90
        1
176
     1
 90
        2
176
     1
 40
0.6
176
     1
 40
30.0
176
     1
 62
     7
420
 16777215
176
     1
 90
        1
176
     1
 90
       10
176
     1
 62
     7
176
     1
 62
   257
176
     1
 90
        2
176
     1
 90
        1
176
     1
 40
1.0
176
     1
 90
        8
176
     1
 62
   257
176
     1
 40
1.0
176
     1
 90
        1
176
     1
 90
        6
176
     1
 90
        2
176
     1
 62
     7
176
     1
 90
        3
176
     1
 90
        0
176
     1
 90
        0
176
     1
290
     0
176
     1
 90
        5
176
     1
 40
0.0
176
     1
 90
        0
176
     1
290
     0
176
     1
290
     1
176
     1
290
     1
176
     1
290
     0
176
     1
290
     0
176
     1
290
     0
176
     1
290
     0
176
     1
290
     0
176
     1
290
     0
176
     1
 90
       50
176
     1
 40
0.0
176
     1
 40
1.0
176
     1
 90
        0
176
     1
 62
    18
420
        0
176
     1
 90
       50
176
     1
 90
        3
176
     1
 62
     5
420
      255
176
     1
290
     0
176
     1
 90
       50
176
     1
 90
       50
176
     1
 90
       50
176
     1
290
     0
176
     1
 90
       50
176
     1
 62
   256
176
     0
 40
1.0
176
     0
 90
        2
176
     1
  1
strokes_ogs.tif
176
     1
290
     0
176
     1
 40
1.0
176
     1
 40
1.0
176
     1
  0
VISUALSTYLE
  5
3E
102
{ACAD_REACTORS
330
2A
102
}
330
2A
100
AcDbVisualStyle
  2
Shades of Gray
 70
    23
177
     3
291
     0
 70
    58
 90
        2
176
     1
 90
        2
176
     1
 90
        3
176
     1
 90
        0
176
     1
 40
0.6
176
     1
 40
30.0
176
     1
 62
     7
420
 16777215
176
     1
 90
        2
176
     1
 90
        2
176
     1
 62
     7
176
     1
 62
     7
176
     1
 90
        1
176
     1
 90
        1
176
     1
 40
40.0
176
     1
 90
        8
176
     1
 62
     7
176
     1
 40
1.0
176
     1
 90
        1
176
     1
 90
        6
176
     1
 90
        2
176
     1
 62
     7
176
     1
 90
        3
176
     1
 90
        0
176
     1
 90
        0
176
     1
290
     0
176
     1
 90
        1
176
     1
 40
0.0
176
     1
 90
        0
176
     1
290
     0
176
     1
290
     1
176
     1
290
     1
176
     1
290
     0
176
     1
290
     0
176
     1
290
     0
176
     1
290
     0
176
     1
290
     0
176
     1
290
     0
176
     1
 90
       50
176
     1
 40
0.0
176
     1
 40
1.0
176
     1
 90
        0
176
     1
 62
    18
420
        0
176
     1
 90
       50
176
     1
 90
        3
176
     1
 62
     5
420
      255
176
     1
290
     0
176
     1
 90
       50
176
     1
 90
       50
176
     1
 90
       50
176
     1
290
     0
176
     1
 90
       50
176
     1
 62
   256
176
     0
 40
1.0
176
     0
 90
        2
176
     1
  1
strokes_ogs.tif
176
     1
290
     0
176
     1
 40
1.0
176
     1
 40
1.0
176
     1
  0
VISUALSTYLE
  5
3F
102
{ACAD_REACTORS
330
2A
102
}
330
2A
100
AcDbVisualStyle
  2
Sketchy
 70
    24
177
     3
291
     0
 70
    58
 90
        1
176
     1
 90
        2
176
     1
 90
        2
176
     1
 90
        0
176
     1
 40
0.6
176
     1
 40
30.0
176
     1
 62
     7
420
 16777215
176
     1
 90
        2
176
     1
 90
        2
176
     1
 62
     7
176
     1
 62
     7
176
     1
 90
        1
176
     1
 90
        1
176
     1
 40
40.0
176
     1
 90
       11
176
     1
 62
     7
176
     1
 40
1.0
176
     1
 90
        1
176
     1
 90
        6
176
     1
 90
        2
176
     1
 62
     7
176
     1
 90
        6
176
     1
 90
        0
176
     1
 90
        0
176
     1
290
     0
176
     1
 90
        1
176
     1
 40
0.0
176
     1
 90
        0
176
     1
290
     0
176
     1
290
     1
176
     1
290
     1
176
     1
290
     0
176
     1
290
     0
176
     1
290
     0
176
     1
290
     0
176
     1
290
     0
176
     1
290
     0
176
     1
 90
       50
176
     1
 40
0.0
176
     1
 40
1.0
176
     1
 90
        0
176
     1
 62
    18
420
        0
176
     1
 90
       50
176
     1
 90
        3
176
     1
 62
     5
420
      255
176
     1
290
     0
176
     1
 90
       50
176
     1
 90
       50
176
     1
 90
       50
176
     1
290
     0
176
     1
 90
       50
176
     1
 62
   256
176
     0
 40
1.0
176
     0
 90
        2
176
     1
  1
strokes_ogs.tif
176
     1
290
     0
176
     1
 40
1.0
176
     1
 40
1.0
176
     1
  0
VISUALSTYLE
  5
37
102
{ACAD_REACTORS
330
2A
102
}
330
2A
100
AcDbVisualStyle
  2
Thicken
 70
    13
177
     3
291
     1
 70
    58
 90
        2
176
     1
 90
        2
176
     1
 90
        0
176
     1
 90
        0
176
     1
 40
0.6
176
     1
 40
30.0
176
     1
 62
     7
420
 16777215
176
     1
 90
        1
176
     1
 90
        4
176
     1
 62
     7
176
     1
 62
   257
176
     1
 90
        1
176
     1
 90
        1
176
     1
 40
1.0
176
     1
 90
       12
176
     1
 62
     7
176
     1
 40
1.0
176
     1
 90
        1
176
     1
 90
        6
176
     1
 90
        2
176
     1
 62
     7
176
     1
 90
        5
176
     1
 90
        0
176
     1
 90
        0
176
     1
290
     0
176
     1
 90
        1
176
     1
 40
0.0
176
     1
 90
        0
176
     1
290
     0
176
     1
290
     1
176
     1
290
     1
176
     1
290
     0
176
     1
290
     0
176
     1
290
     0
176
     1
290
     0
176
     1
290
     0
176
     1
290
     0
176
     1
 90
       50
176
     1
 40
0.0
176
     1
 40
1.0
176
     1
 90
        0
176
     1
 62
    18
420
        0
176
     1
 90
       50
176
     1
 90
        3
176
     1
 62
     5
420
      255
176
     1
290
     0
176
     1
 90
       50
176
     1
 90
       50
176
     1
 90
       50
176
     1
290
     0
176
     1
 90
       50
176
     1
 62
   256
176
     0
 40
1.0
176
     0
 90
        2
176
     1
  1
strokes_ogs.tif
176
     1
290
     0
176
     1
 40
1.0
176
     1
 40
1.0
176
     1
  0
VISUALSTYLE
  5
30
102
{ACAD_REACTORS
330
2A
102
}
330
2A
100
AcDbVisualStyle
  2
Wireframe
 70
     5
177
     3
291
     0
 70
    58
 90
        0
176
     1
 90
        2
176
     1
 90
        0
176
     1
 90
        0
176
     1
 40
0.6
176
     1
 40
30.0
176
     1
 62
     7
420
 16777215
176
     1
 90
        1
176
     1
 90
        4
176
     1
 62
     7
176
     1
 62
   257
176
     1
 90
        1
176
     1
 90
        1
176
     1
 40
1.0
176
     1
 90
        0
176
     1
 62
   257
176
     1
 40
1.0
176
     1
 90
        1
176
     1
 90
        6
176
     1
 90
        2
176
     1
 62
     7
176
     1
 90
        3
176
     1
 90
        0
176
     1
 90
        0
176
     1
290
     0
176
     1
 90
        1
176
     1
 40
0.0
176
     1
 90
        0
176
     1
290
     0
176
     1
290
     1
176
     1
290
     1
176
     1
290
     0
176
     1
290
     0
176
     1
290
     0
176
     1
290
     0
176
     1
290
     0
176
     1
290
     0
176
     1
 90
       50
176
     1
 40
0.0
176
     1
 40
1.0
176
     1
 90
        0
176
     1
 62
    18
420
        0
176
     1
 90
       50
176
     1
 90
        3
176
     1
 62
     5
420
      255
176
     1
290
     0
176
     1
 90
       50
176
     1
 90
       50
176
     1
 90
       50
176
     1
290
     0
176
     1
 90
       50
176
     1
 62
   256
176
     0
 40
1.0
176
     0
 90
        2
176
     1
  1
strokes_ogs.tif
176
     1
290
     0
176
     1
 40
1.0
176
     1
 40
1.0
176
     1
  0
VISUALSTYLE
  5
40
102
{ACAD_REACTORS
330
2A
102
}
330
2A
100
AcDbVisualStyle
  2
X-Ray
 70
    25
177
     3
291
     0
 70
    58
 90
        2
176
     1
 90
        2
176
     1
 90
        1
176
     1
 90
        1
176
     1
 40
0.5
176
     1
 40
30.0
176
     1
 62
     7
420
 16777215
176
     1
 90
        1
176
     1
 90
        0
176
     1
 62
     7
176
     1
 62
   257
176
     1
 90
        1
176
     1
 90
        1
176
     1
 40
1.0
176
     1
 90
        8
176
     1
 62
     7
176
     1
 40
1.0
176
     1
 90
        1
176
     1
 90
        6
176
     1
 90
        2
176
     1
 62
     7
176
     1
 90
        3
176
     1
 90
        0
176
     1
 90
        0
176
     1
290
     0
176
     1
 90
       13
176
     1
 40
0.0
176
     1
 90
        0
176
     1
290
     0
176
     1
290
     1
176
     1
290
     1
176
     1
290
     0
176
     1
290
     0
176
     1
290
     0
176
     1
290
     0
176
     1
290
     0
176
     1
290
     0
176
     1
 90
       50
176
     1
 40
0.0
176
     1
 40
1.0
176
     1
 90
        0
176
     1
 62
    18
420
        0
176
     1
 90
       50
176
     1
 90
        3
176
     1
 62
     5
420
      255
176
     1
290
     0
176
     1
 90
       50
176
     1
 90
       50
176
     1
 90
       50
176
     1
290
     0
176
     1
 90
       50
176
     1
 62
   256
176
     0
 40
1.0
176
     0
 90
        2
176
     1
  1
strokes_ogs.tif
176
     1
290
     0
176
     1
 40
1.0
176
     1
 40
1.0
176
     1
  0
DICTIONARYVAR
  5
43E
102
{ACAD_REACTORS
330
43D
102
}
330
43D
100
DictionaryVariables
280
     0
  1
1:1
  0
DICTIONARYVAR
  5
446
102
{ACAD_REACTORS
330
43D
102
}
330
43D
100
DictionaryVariables
280
     0
  1
3.500000
  0
DICTIONARYVAR
  5
447
102
{ACAD_REACTORS
330
43D
102
}
330
43D
100
DictionaryVariables
280
     0
  1
acadiso.lin
  0
DICTIONARYVAR
  5
443
102
{ACAD_REACTORS
330
43D
102
}
330
43D
100
DictionaryVariables
280
     0
  1
Standard
  0
DICTIONARYVAR
  5
442
102
{ACAD_REACTORS
330
43D
102
}
330
43D
100
DictionaryVariables
280
     0
  1
Standard
  0
DICTIONARY
  5
43F
330
6A
100
AcDbDictionary
280
     1
281
     1
  3
ACAD_ROUNDTRIP_2008_TABLESTYLE_CELLSTYLEMAP
360
440
  0
CELLSTYLEMAP
  5
440
102
{ACAD_REACTORS
330
43F
102
}
330
43F
100
AcDbCellStyleMap
 90
        3
300
CELLSTYLE
  1
TABLEFORMAT_BEGIN
 90
        5
170
     1
 91
        0
 92
    32768
 62
   257
 93
        1
300
CONTENTFORMAT
  1
CONTENTFORMAT_BEGIN
 90
        0
 91
        0
 92
        4
 93
        0
300

 40
0.0
140
1.0
 94
        5
 62
     0
340
11
144
6.0
309
CONTENTFORMAT_END
171
     1
301
MARGIN
  1
CELLMARGIN_BEGIN
 40
1.5
 40
1.5
 40
1.5
 40
1.5
 40
1.5
 40
1.5
309
CELLMARGIN_END
 94
        6
 95
        1
302
GRIDFORMAT
  1
GRIDFORMAT_BEGIN
 90
        0
 91
        1
 62
     0
 92
       -2
340
14
 93
        0
 40
0.045
309
GRIDFORMAT_END
 95
        2
302
GRIDFORMAT
  1
GRIDFORMAT_BEGIN
 90
        0
 91
        1
 62
     0
 92
       -2
340
14
 93
        0
 40
0.045
309
GRIDFORMAT_END
 95
        4
302
GRIDFORMAT
  1
GRIDFORMAT_BEGIN
 90
        0
 91
        1
 62
     0
 92
       -2
340
14
 93
        0
 40
0.045
309
GRIDFORMAT_END
 95
        8
302
GRIDFORMAT
  1
GRIDFORMAT_BEGIN
 90
        0
 91
        1
 62
     0
 92
       -2
340
14
 93
        0
 40
0.045
309
GRIDFORMAT_END
 95
       16
302
GRIDFORMAT
  1
GRIDFORMAT_BEGIN
 90
        0
 91
        1
 62
     0
 92
       -2
340
14
 93
        0
 40
0.045
309
GRIDFORMAT_END
 95
       32
302
GRIDFORMAT
  1
GRIDFORMAT_BEGIN
 90
        0
 91
        1
 62
     0
 92
       -2
340
14
 93
        0
 40
0.045
309
GRIDFORMAT_END
309
TABLEFORMAT_END
  1
CELLSTYLE_BEGIN
 90
        1
 91
        1
300
_TITLE
309
CELLSTYLE_END
300
CELLSTYLE
  1
TABLEFORMAT_BEGIN
 90
        5
170
     1
 91
        0
 92
        0
 62
   257
 93
        1
300
CONTENTFORMAT
  1
CONTENTFORMAT_BEGIN
 90
        0
 91
        0
 92
        4
 93
        0
300

 40
0.0
140
1.0
 94
        5
 62
     0
340
11
144
4.5
309
CONTENTFORMAT_END
171
     1
301
MARGIN
  1
CELLMARGIN_BEGIN
 40
1.5
 40
1.5
 40
1.5
 40
1.5
 40
1.5
 40
1.5
309
CELLMARGIN_END
 94
        6
 95
        1
302
GRIDFORMAT
  1
GRIDFORMAT_BEGIN
 90
        0
 91
        1
 62
     0
 92
       -2
340
14
 93
        0
 40
0.045
309
GRIDFORMAT_END
 95
        2
302
GRIDFORMAT
  1
GRIDFORMAT_BEGIN
 90
        0
 91
        1
 62
     0
 92
       -2
340
14
 93
        0
 40
0.045
309
GRIDFORMAT_END
 95
        4
302
GRIDFORMAT
  1
GRIDFORMAT_BEGIN
 90
        0
 91
        1
 62
     0
 92
       -2
340
14
 93
        0
 40
0.045
309
GRIDFORMAT_END
 95
        8
302
GRIDFORMAT
  1
GRIDFORMAT_BEGIN
 90
        0
 91
        1
 62
     0
 92
       -2
340
14
 93
        0
 40
0.045
309
GRIDFORMAT_END
 95
       16
302
GRIDFORMAT
  1
GRIDFORMAT_BEGIN
 90
        0
 91
        1
 62
     0
 92
       -2
340
14
 93
        0
 40
0.045
309
GRIDFORMAT_END
 95
       32
302
GRIDFORMAT
  1
GRIDFORMAT_BEGIN
 90
        0
 91
        1
 62
     0
 92
       -2
340
14
 93
        0
 40
0.045
309
GRIDFORMAT_END
309
TABLEFORMAT_END
  1
CELLSTYLE_BEGIN
 90
        2
 91
        1
300
_HEADER
309
CELLSTYLE_END
300
CELLSTYLE
  1
TABLEFORMAT_BEGIN
 90
        5
170
     1
 91
        0
 92
        0
 62
   257
 93
        1
300
CONTENTFORMAT
  1
CONTENTFORMAT_BEGIN
 90
        0
 91
        0
 92
        4
 93
        0
300

 40
0.0
140
1.0
 94
        2
 62
     0
340
11
144
4.5
309
CONTENTFORMAT_END
171
     1
301
MARGIN
  1
CELLMARGIN_BEGIN
 40
1.5
 40
1.5
 40
1.5
 40
1.5
 40
1.5
 40
1.5
309
CELLMARGIN_END
 94
        6
 95
        1
302
GRIDFORMAT
  1
GRIDFORMAT_BEGIN
 90
        0
 91
        1
 62
     0
 92
       -2
340
14
 93
        0
 40
0.045
309
GRIDFORMAT_END
 95
        2
302
GRIDFORMAT
  1
GRIDFORMAT_BEGIN
 90
        0
 91
        1
 62
     0
 92
       -2
340
14
 93
        0
 40
0.045
309
GRIDFORMAT_END
 95
        4
302
GRIDFORMAT
  1
GRIDFORMAT_BEGIN
 90
        0
 91
        1
 62
     0
 92
       -2
340
14
 93
        0
 40
0.045
309
GRIDFORMAT_END
 95
        8
302
GRIDFORMAT
  1
GRIDFORMAT_BEGIN
 90
        0
 91
        1
 62
     0
 92
       -2
340
14
 93
        0
 40
0.045
309
GRIDFORMAT_END
 95
       16
302
GRIDFORMAT
  1
GRIDFORMAT_BEGIN
 90
        0
 91
        1
 62
     0
 92
       -2
340
14
 93
        0
 40
0.045
309
GRIDFORMAT_END
 95
       32
302
GRIDFORMAT
  1
GRIDFORMAT_BEGIN
 90
        0
 91
        1
 62
     0
 92
       -2
340
14
 93
        0
 40
0.045
309
GRIDFORMAT_END
309
TABLEFORMAT_END
  1
CELLSTYLE_BEGIN
 90
        3
 91
        2
300
_DATA
309
CELLSTYLE_END
  0
ENDSEC
  0
EOF
