  0
SECTION
  2
HEADER
  9
$ACADVER
  1
AC1018
  9
$ACADMAINTVER
 70
     0
  9
$DWGCODEPAGE
  3
ANSI_932
  9
$INSBASE
 10
0.0
 20
0.0
 30
0.0
  9
$EXTMIN
 10
-2100.0
 20
-1485.0
 30
0.0
  9
$EXTMAX
 10
2100.0
 20
1485.0
 30
0.0
  9
$LIMMIN
 10
-2100.0
 20
-1485.0
  9
$LIMMAX
 10
2100.0
 20
1485.0
  9
$ORTHOMODE
 70
     0
  9
$REGENMODE
 70
     1
  9
$FILLMODE
 70
     1
  9
$QTEXTMODE
 70
     0
  9
$MIRRTEXT
 70
     1
  9
$LTSCALE
 40
10.0
  9
$ATTMODE
 70
     1
  9
$TEXTSIZE
 40
2.5
  9
$TRACEWID
 40
1.0
  9
$TEXTSTYLE
  7
Standard
  9
$CLAYER
  8
0
  9
$CELTYPE
  6
ByLayer
  9
$CECOLOR
 62
   256
  9
$CELTSCALE
 40
1.0
  9
$DISPSILH
 70
     0
  9
$DIMSCALE
 40
1.0
  9
$DIMASZ
 40
2.5
  9
$DIMEXO
 40
0.625
  9
$DIMDLI
 40
3.75
  9
$DIMRND
 40
0.0
  9
$DIMDLE
 40
0.0
  9
$DIMEXE
 40
1.25
  9
$DIMTP
 40
0.0
  9
$DIMTM
 40
0.0
  9
$DIMTXT
 40
2.5
  9
$DIMCEN
 40
2.5
  9
$DIMTSZ
 40
0.0
  9
$DIMTOL
 70
     0
  9
$DIMLIM
 70
     0
  9
$DIMTIH
 70
     0
  9
$DIMTOH
 70
     0
  9
$DIMSE1
 70
     0
  9
$DIMSE2
 70
     0
  9
$DIMTAD
 70
     1
  9
$DIMZIN
 70
     8
  9
$DIMBLK
  1

  9
$DIMASO
 70
     1
  9
$DIMSHO
 70
     1
  9
$DIMPOST
  1

  9
$DIMAPOST
  1

  9
$DIMALT
 70
     0
  9
$DIMALTD
 70
     3
  9
$DIMALTF
 40
0.03937007874016
  9
$DIMLFAC
 40
1.0
  9
$DIMTOFL
 70
     1
  9
$DIMTVP
 40
0.0
  9
$DIMTIX
 70
     0
  9
$DIMSOXD
 70
     0
  9
$DIMSAH
 70
     0
  9
$DIMBLK1
  1

  9
$DIMBLK2
  1

  9
$DIMSTYLE
  2
ISO-25
  9
$DIMCLRD
 70
     0
  9
$DIMCLRE
 70
     0
  9
$DIMCLRT
 70
     0
  9
$DIMTFAC
 40
1.0
  9
$DIMGAP
 40
0.625
  9
$DIMJUST
 70
     0
  9
$DIMSD1
 70
     0
  9
$DIMSD2
 70
     0
  9
$DIMTOLJ
 70
     0
  9
$DIMTZIN
 70
     8
  9
$DIMALTZ
 70
     0
  9
$DIMALTTZ
 70
     0
  9
$DIMUPT
 70
     0
  9
$DIMDEC
 70
     2
  9
$DIMTDEC
 70
     2
  9
$DIMALTU
 70
     2
  9
$DIMALTTD
 70
     3
  9
$DIMTXSTY
  7
Standard
  9
$DIMAUNIT
 70
     0
  9
$DIMADEC
 70
     0
  9
$DIMALTRND
 40
0.0
  9
$DIMAZIN
 70
     0
  9
$DIMDSEP
 70
    44
  9
$DIMATFIT
 70
     3
  9
$DIMFRAC
 70
     0
  9
$DIMLDRBLK
  1

  9
$DIMLUNIT
 70
     2
  9
$DIMLWD
 70
    -2
  9
$DIMLWE
 70
    -2
  9
$DIMTMOVE
 70
     0
  9
$LUNITS
 70
     2
  9
$LUPREC
 70
     4
  9
$SKETCHINC
 40
1.0
  9
$FILLETRAD
 40
10.0
  9
$AUNITS
 70
     0
  9
$AUPREC
 70
     0
  9
$MENU
  1
.
  9
$ELEVATION
 40
0.0
  9
$PELEVATION
 40
0.0
  9
$THICKNESS
 40
0.0
  9
$LIMCHECK
 70
     0
  9
$CHAMFERA
 40
10.0
  9
$CHAMFERB
 40
10.0
  9
$CHAMFERC
 40
20.0
  9
$CHAMFERD
 40
0.0
  9
$SKPOLY
 70
     0
  9
$TDCREATE
 40
2457186.649857616
  9
$TDUCREATE
 40
2457186.274857616
  9
$TDUPDATE
 40
2457186.649857627
  9
$TDUUPDATE
 40
2457186.274857627
  9
$TDINDWG
 40
0.0000000116
  9
$TDUSRTIMER
 40
0.0000000116
  9
$USRTIMER
 70
     1
  9
$ANGBASE
 50
0.0
  9
$ANGDIR
 70
     0
  9
$PDMODE
 70
     0
  9
$PDSIZE
 40
0.0
  9
$PLINEWID
 40
0.0
  9
$SPLFRAME
 70
     0
  9
$SPLINETYPE
 70
     6
  9
$SPLINESEGS
 70
     8
  9
$HANDSEED
  5
4F6
  9
$SURFTAB1
 70
     6
  9
$SURFTAB2
 70
     6
  9
$SURFTYPE
 70
     6
  9
$SURFU
 70
     6
  9
$SURFV
 70
     6
  9
$UCSBASE
  2

  9
$UCSNAME
  2

  9
$UCSORG
 10
0.0
 20
0.0
 30
0.0
  9
$UCSXDIR
 10
1.0
 20
0.0
 30
0.0
  9
$UCSYDIR
 10
0.0
 20
1.0
 30
0.0
  9
$UCSORTHOREF
  2

  9
$UCSORTHOVIEW
 70
     0
  9
$UCSORGTOP
 10
0.0
 20
0.0
 30
0.0
  9
$UCSORGBOTTOM
 10
0.0
 20
0.0
 30
0.0
  9
$UCSORGLEFT
 10
0.0
 20
0.0
 30
0.0
  9
$UCSORGRIGHT
 10
0.0
 20
0.0
 30
0.0
  9
$UCSORGFRONT
 10
0.0
 20
0.0
 30
0.0
  9
$UCSORGBACK
 10
0.0
 20
0.0
 30
0.0
  9
$PUCSBASE
  2

  9
$PUCSNAME
  2

  9
$PUCSORG
 10
0.0
 20
0.0
 30
0.0
  9
$PUCSXDIR
 10
1.0
 20
0.0
 30
0.0
  9
$PUCSYDIR
 10
0.0
 20
1.0
 30
0.0
  9
$PUCSORTHOREF
  2

  9
$PUCSORTHOVIEW
 70
     0
  9
$PUCSORGTOP
 10
0.0
 20
0.0
 30
0.0
  9
$PUCSORGBOTTOM
 10
0.0
 20
0.0
 30
0.0
  9
$PUCSORGLEFT
 10
0.0
 20
0.0
 30
0.0
  9
$PUCSORGRIGHT
 10
0.0
 20
0.0
 30
0.0
  9
$PUCSORGFRONT
 10
0.0
 20
0.0
 30
0.0
  9
$PUCSORGBACK
 10
0.0
 20
0.0
 30
0.0
  9
$USERI1
 70
     0
  9
$USERI2
 70
     0
  9
$USERI3
 70
     0
  9
$USERI4
 70
     0
  9
$USERI5
 70
     0
  9
$USERR1
 40
0.0
  9
$USERR2
 40
0.0
  9
$USERR3
 40
0.0
  9
$USERR4
 40
0.0
  9
$USERR5
 40
0.0
  9
$WORLDVIEW
 70
     1
  9
$SHADEDGE
 70
     3
  9
$SHADEDIF
 70
    70
  9
$TILEMODE
 70
     1
  9
$MAXACTVP
 70
    64
  9
$PINSBASE
 10
0.0
 20
0.0
 30
0.0
  9
$PLIMCHECK
 70
     0
  9
$PEXTMIN
 10
1.000000000000000E+20
 20
1.000000000000000E+20
 30
1.000000000000000E+20
  9
$PEXTMAX
 10
-1.000000000000000E+20
 20
-1.000000000000000E+20
 30
-1.000000000000000E+20
  9
$PLIMMIN
 10
0.0
 20
0.0
  9
$PLIMMAX
 10
420.0
 20
297.0
  9
$UNITMODE
 70
     0
  9
$VISRETAIN
 70
     1
  9
$PLINEGEN
 70
     0
  9
$PSLTSCALE
 70
     1
  9
$TREEDEPTH
 70
  3020
  9
$CMLSTYLE
  2
Standard
  9
$CMLJUST
 70
     0
  9
$CMLSCALE
 40
20.0
  9
$PROXYGRAPHICS
 70
     1
  9
$MEASUREMENT
 70
     1
  9
$CELWEIGHT
370
    -1
  9
$ENDCAPS
280
     0
  9
$JOINSTYLE
280
     0
  9
$LWDISPLAY
290
     0
  9
$INSUNITS
 70
     4
  9
$HYPERLINKBASE
  1

  9
$STYLESHEET
  1

  9
$XEDIT
290
     1
  9
$CEPSNTYPE
380
     0
  9
$PSTYLEMODE
290
     1
  9
$FINGERPRINTGUID
  2
{8B8FA97F-DDB3-4675-8566-6674BD463337}
  9
$VERSIONGUID
  2
{FAEB1C32-E019-11D5-929B-00C0DF256EC4}
  9
$EXTNAMES
290
     1
  9
$PSVPSCALE
 40
0.0
  9
$OLESTARTUP
290
     0
  9
$SORTENTS
280
   127
  9
$INDEXCTL
280
     0
  9
$HIDETEXT
280
     1
  9
$XCLIPFRAME
290
     0
  9
$HALOGAP
280
     0
  9
$OBSCOLOR
 70
   257
  9
$OBSLTYPE
280
     0
  9
$INTERSECTIONDISPLAY
280
     0
  9
$INTERSECTIONCOLOR
 70
   257
  9
$DIMASSOC
280
     2
  9
$PROJECTNAME
  1

  0
ENDSEC
  0
SECTION
  2
CLASSES
  0
CLASS
  1
ACDBDICTIONARYWDFLT
  2
AcDbDictionaryWithDefault
  3
ObjectDBX Classes
 90
        0
 91
        4
280
     0
281
     0
  0
CLASS
  1
VISUALSTYLE
  2
AcDbVisualStyle
  3
ObjectDBX Classes
 90
     4095
 91
        4
280
     0
281
     0
  0
ENDSEC
  0
SECTION
  2
TABLES
  0
TABLE
  2
VPORT
  5
8
330
0
100
AcDbSymbolTable
 70
     1
  0
VPORT
  5
29
330
8
100
AcDbSymbolTableRecord
100
AcDbViewportTableRecord
  2
*Active
 70
     0
 10
0.0
 20
0.0
 11
1.0
 21
1.0
 12
0.0
 22
0.0
 13
0.0
 23
0.0
 14
10.0
 24
10.0
 15
10.0
 25
10.0
 16
0.0
 26
0.0
 36
1.0
 17
0.0
 27
0.0
 37
0.0
 40
3267.0
 41
1.414141414141414
 42
50.0
 43
0.0
 44
0.0
 50
0.0
 51
0.0
 71
     0
 72
 10000
 73
     1
 74
     3
 75
     0
 76
     0
 77
     0
 78
     0
281
     0
 65
     1
110
0.0
120
0.0
130
0.0
111
1.0
121
0.0
131
0.0
112
0.0
122
1.0
132
0.0
 79
     0
146
0.0
  0
ENDTAB
  0
TABLE
  2
LTYPE
  5
5
330
0
100
AcDbSymbolTable
 70
     5
  0
LTYPE
  5
14
330
5
100
AcDbSymbolTableRecord
100
AcDbLinetypeTableRecord
  2
ByBlock
 70
     0
  3

 72
    65
 73
     0
 40
0.0
  0
LTYPE
  5
15
330
5
100
AcDbSymbolTableRecord
100
AcDbLinetypeTableRecord
  2
ByLayer
 70
     0
  3

 72
    65
 73
     0
 40
0.0
  0
LTYPE
  5
16
330
5
100
AcDbSymbolTableRecord
100
AcDbLinetypeTableRecord
  2
Continuous
 70
     0
  3
Solid line
 72
    65
 73
     0
 40
0.0
  0
LTYPE
  5
3C
330
5
100
AcDbSymbolTableRecord
100
AcDbLinetypeTableRecord
  2
JWW_DASHED3
 70
     0
  3
---  ------  ------  ------  ---
 72
    65
 73
     2
 40
3.386666666666667
 49
2.54
 74
     0
 49
-0.8466666666666667
 74
     0
  0
LTYPE
  5
3D
330
5
100
AcDbSymbolTableRecord
100
AcDbLinetypeTableRecord
  2
JWW_CENTER2
 70
     0
  3
-------------  --  -------------
 72
    65
 73
     4
 40
13.54666666666667
 49
11.00666666666667
 74
     0
 49
-0.8466666666666667
 74
     0
 49
0.8466666666666667
 74
     0
 49
-0.8466666666666667
 74
     0
  0
LTYPE
  5
3E
330
5
100
AcDbSymbolTableRecord
100
AcDbLinetypeTableRecord
  2
JWW_CENTER1
 70
     0
  3
-----  --  ----------  --  -----
 72
    65
 73
     4
 40
6.773333333333333
 49
4.233333333333333
 74
     0
 49
-0.8466666666666667
 74
     0
 49
0.8466666666666667
 74
     0
 49
-0.8466666666666667
 74
     0
  0
LTYPE
  5
3F
330
5
100
AcDbSymbolTableRecord
100
AcDbLinetypeTableRecord
  2
JWW_DASHED2
 70
     0
  3
--    ----    ----    ----    --
 72
    65
 73
     2
 40
3.386666666666667
 49
1.693333333333333
 74
     0
 49
-1.693333333333333
 74
     0
  0
ENDTAB
  0
TABLE
  2
LAYER
  5
2
330
0
100
AcDbSymbolTable
 70
    16
  0
LAYER
  5
10
330
2
100
AcDbSymbolTableRecord
100
AcDbLayerTableRecord
  2
0
 70
     0
 62
     7
  6
Continuous
370
    -3
390
F
  0
LAYER
  5
40
330
2
100
AcDbSymbolTableRecord
100
AcDbLayerTableRecord
  2
C-4
 70
     0
 62
     7
  6
Continuous
370
    -3
390
F
  0
LAYER
  5
41
330
2
100
AcDbSymbolTableRecord
100
AcDbLayerTableRecord
  2
C-5
 70
     0
 62
     7
  6
Continuous
370
    -3
390
F
  0
LAYER
  5
42
330
2
100
AcDbSymbolTableRecord
100
AcDbLayerTableRecord
  2
C-2
 70
     0
 62
     7
  6
Continuous
370
    -3
390
F
  0
LAYER
  5
43
330
2
100
AcDbSymbolTableRecord
100
AcDbLayerTableRecord
  2
C-A
 70
     0
 62
     7
  6
Continuous
370
    -3
390
F
  0
LAYER
  5
44
330
2
100
AcDbSymbolTableRecord
100
AcDbLayerTableRecord
  2
C-1
 70
     0
 62
     7
  6
Continuous
370
    -3
390
F
  0
LAYER
  5
45
330
2
100
AcDbSymbolTableRecord
100
AcDbLayerTableRecord
  2
F-5
 70
     0
 62
     7
  6
Continuous
370
    -3
390
F
  0
LAYER
  5
46
330
2
100
AcDbSymbolTableRecord
100
AcDbLayerTableRecord
  2
D-4
 70
     0
 62
     7
  6
Continuous
370
    -3
390
F
  0
LAYER
  5
47
330
2
100
AcDbSymbolTableRecord
100
AcDbLayerTableRecord
  2
D-6
 70
     0
 62
     7
  6
Continuous
370
    -3
390
F
  0
LAYER
  5
48
330
2
100
AcDbSymbolTableRecord
100
AcDbLayerTableRecord
  2
D-5
 70
     0
 62
     7
  6
Continuous
370
    -3
390
F
  0
LAYER
  5
49
330
2
100
AcDbSymbolTableRecord
100
AcDbLayerTableRecord
  2
D-0
 70
     0
 62
     7
  6
Continuous
370
    -3
390
F
  0
LAYER
  5
4A
330
2
100
AcDbSymbolTableRecord
100
AcDbLayerTableRecord
  2
D-9
 70
     0
 62
     7
  6
Continuous
370
    -3
390
F
  0
LAYER
  5
4B
330
2
100
AcDbSymbolTableRecord
100
AcDbLayerTableRecord
  2
D-1
 70
     0
 62
     7
  6
Continuous
370
    -3
390
F
  0
LAYER
  5
4C
330
2
100
AcDbSymbolTableRecord
100
AcDbLayerTableRecord
  2
D-3
 70
     0
 62
     7
  6
Continuous
370
    -3
390
F
  0
LAYER
  5
4D
330
2
100
AcDbSymbolTableRecord
100
AcDbLayerTableRecord
  2
D-A
 70
     0
 62
     7
  6
Continuous
370
    -3
390
F
  0
LAYER
  5
4E
330
2
100
AcDbSymbolTableRecord
100
AcDbLayerTableRecord
  2
D-2
 70
     0
 62
     7
  6
Continuous
370
    -3
390
F
  0
ENDTAB
  0
TABLE
  2
STYLE
  5
3
330
0
100
AcDbSymbolTable
 70
     2
  0
STYLE
  5
11
330
3
100
AcDbSymbolTableRecord
100
AcDbTextStyleTableRecord
  2
Standard
 70
     0
 40
0.0
 41
1.0
 50
0.0
 71
     0
 42
2.5
  3
txt
  4

1001
ACAD
1000

1071
        0
  0
STYLE
  5
3B
330
3
100
AcDbSymbolTableRecord
100
AcDbTextStyleTableRecord
  2
ＭＳ ゴシック
 70
     0
 40
1.0
 41
1.0
 50
0.0
 71
     0
 42
10.0
  3

  4

1001
ACAD
1000
MS Gothic
1071
    32817
  0
ENDTAB
  0
TABLE
  2
VIEW
  5
6
330
0
100
AcDbSymbolTable
 70
     0
  0
ENDTAB
  0
TABLE
  2
UCS
  5
7
330
0
100
AcDbSymbolTable
 70
     0
  0
ENDTAB
  0
TABLE
  2
APPID
  5
9
330
0
100
AcDbSymbolTable
 70
     1
  0
APPID
  5
12
330
9
100
AcDbSymbolTableRecord
100
AcDbRegAppTableRecord
  2
ACAD
 70
     0
  0
ENDTAB
  0
TABLE
  2
DIMSTYLE
  5
A
330
0
100
AcDbSymbolTable
 70
     1
100
AcDbDimStyleTable
  0
DIMSTYLE
105
27
330
A
100
AcDbSymbolTableRecord
100
AcDbDimStyleTableRecord
  2
ISO-25
 70
     0
 41
2.5
 42
0.625
 43
3.75
 44
1.25
 73
     0
 74
     0
 77
     1
 78
     8
140
2.5
141
2.5
143
0.03937007874016
147
0.625
171
     3
172
     1
271
     2
272
     2
274
     3
278
    44
283
     0
284
     8
340
11
  0
ENDTAB
  0
TABLE
  2
BLOCK_RECORD
  5
1
330
0
100
AcDbSymbolTable
 70
     1
  0
BLOCK_RECORD
  5
1F
330
1
100
AcDbSymbolTableRecord
100
AcDbBlockTableRecord
  2
*Model_Space
340
22
  0
BLOCK_RECORD
  5
1B
330
1
100
AcDbSymbolTableRecord
100
AcDbBlockTableRecord
  2
*Paper_Space
340
1E
  0
BLOCK_RECORD
  5
23
330
1
100
AcDbSymbolTableRecord
100
AcDbBlockTableRecord
  2
*Paper_Space0
340
26
  0
ENDTAB
  0
ENDSEC
  0
SECTION
  2
BLOCKS
  0
BLOCK
  5
20
330
1F
100
AcDbEntity
  8
0
100
AcDbBlockBegin
  2
*Model_Space
 70
     0
 10
0.0
 20
0.0
 30
0.0
  3
*Model_Space
  1

  0
ENDBLK
  5
21
330
1F
100
AcDbEntity
  8
0
100
AcDbBlockEnd
  0
BLOCK
  5
1C
330
1B
100
AcDbEntity
 67
     1
  8
0
100
AcDbBlockBegin
  2
*Paper_Space
 70
     0
 10
0.0
 20
0.0
 30
0.0
  3
*Paper_Space
  1

  0
ENDBLK
  5
1D
330
1B
100
AcDbEntity
 67
     1
  8
0
100
AcDbBlockEnd
  0
BLOCK
  5
24
330
23
100
AcDbEntity
  8
0
100
AcDbBlockBegin
  2
*Paper_Space0
 70
     0
 10
0.0
 20
0.0
 30
0.0
  3
*Paper_Space0
  1

  0
ENDBLK
  5
25
330
23
100
AcDbEntity
  8
0
100
AcDbBlockEnd
  0
ENDSEC
  0
SECTION
  2
ENTITIES
  0
TEXT
  5
4F
330
1F
100
AcDbEntity
  8
C-4
  6
Continuous
 62
     2
370
     9
100
AcDbText
 10
442.9196122226204
 20
465.0730580107
 30
0.0
 40
30.48
  1
15
 50
90.00000250447789
 41
1.062500000000001
  7
ＭＳ ゴシック
100
AcDbText
  0
TEXT
  5
50
330
1F
100
AcDbEntity
  8
C-4
  6
Continuous
 62
     2
370
     9
100
AcDbText
 10
249.5169486484016
 20
660.4652250052786
 30
0.0
 40
30.48
  1
15
 41
1.0625
  7
ＭＳ ゴシック
100
AcDbText
  0
TEXT
  5
51
330
1F
100
AcDbEntity
  8
C-4
  6
Continuous
 62
     2
370
     9
100
AcDbText
 10
174.5168876132453
 20
660.4652250052786
 30
0.0
 40
30.48
  1
15
 41
1.0625
  7
ＭＳ ゴシック
100
AcDbText
  0
TEXT
  5
52
330
1F
100
AcDbEntity
  8
C-4
  6
Continuous
 62
     2
370
     9
100
AcDbText
 10
313.2669486484016
 20
597.3479459525445
 30
0.0
 40
30.48
  1
6
 41
0.9999999999999998
  7
ＭＳ ゴシック
100
AcDbText
  0
TEXT
  5
53
330
1F
100
AcDbEntity
  8
C-4
  6
Continuous
 62
     2
370
     9
100
AcDbText
 10
275.7668876132453
 20
597.3479459525445
 30
0.0
 40
30.48
  1
9
 41
0.9999999999999998
  7
ＭＳ ゴシック
100
AcDbText
  0
TEXT
  5
54
330
1F
100
AcDbEntity
  8
C-4
  6
Continuous
 62
     2
370
     9
100
AcDbText
 10
238.266826578089
 20
597.3479459525445
 30
0.0
 40
30.48
  1
6
 41
0.9999999999999998
  7
ＭＳ ゴシック
100
AcDbText
  0
TEXT
  5
55
330
1F
100
AcDbEntity
  8
C-4
  6
Continuous
 62
     2
370
     9
100
AcDbText
 10
200.766826578089
 20
597.3479459525445
 30
0.0
 40
30.48
  1
9
 41
0.9999999999999998
  7
ＭＳ ゴシック
100
AcDbText
  0
TEXT
  5
56
330
1F
100
AcDbEntity
  8
C-4
  6
Continuous
 62
     2
370
     9
100
AcDbText
 10
163.266765542933
 20
597.3479459525445
 30
0.0
 40
30.48
  1
6
 41
0.9999999999999998
  7
ＭＳ ゴシック
100
AcDbText
  0
TEXT
  5
57
330
1F
100
AcDbEntity
  8
C-4
  6
Continuous
 62
     2
370
     9
100
AcDbText
 10
269.1142386874643
 20
1261.542678618561
 30
0.0
 40
30.48
  1
6
 41
0.9999999999999998
  7
ＭＳ ゴシック
100
AcDbText
  0
TEXT
  5
58
330
1F
100
AcDbEntity
  8
C-4
  6
Continuous
 62
     2
370
     9
100
AcDbText
 10
385.5280806952804
 20
999.2889565349726
 30
0.0
 40
30.48
  1
0.5
 50
73.30064077628266
 41
1.083333333333341
  7
ＭＳ ゴシック
100
AcDbText
  0
TEXT
  5
59
330
1F
100
AcDbEntity
  8
C-4
  6
Continuous
 62
     2
370
     9
100
AcDbText
 10
166.7612259921514
 20
1128.285307766559
 30
0.0
 40
30.48
  1
4
 50
90.00000250447768
 41
1.000000000000001
  7
ＭＳ ゴシック
100
AcDbText
  0
TEXT
  5
5A
330
1F
100
AcDbEntity
  8
C-4
  6
Continuous
 62
     2
370
     9
100
AcDbText
 10
166.7612259921514
 20
1068.285490872028
 30
0.0
 40
30.48
  1
8
 50
90.00000250447768
 41
1.000000000000001
  7
ＭＳ ゴシック
100
AcDbText
  0
TEXT
  5
5B
330
1F
100
AcDbEntity
  8
C-4
  6
Continuous
 62
     2
370
     9
100
AcDbText
 10
166.7612259921514
 20
1023.285551907184
 30
0.0
 40
30.48
  1
1
 50
90.00000250447768
 41
1.000000000000001
  7
ＭＳ ゴシック
100
AcDbText
  0
TEXT
  5
5C
330
1F
100
AcDbEntity
  8
C-4
  6
Continuous
 62
     2
370
     9
100
AcDbText
 10
166.7612259921514
 20
978.2855519071842
 30
0.0
 40
30.48
  1
8
 50
90.00000250447768
 41
1.000000000000001
  7
ＭＳ ゴシック
100
AcDbText
  0
TEXT
  5
5D
330
1F
100
AcDbEntity
  8
C-4
  6
Continuous
 62
     2
370
     9
100
AcDbText
 10
166.7612259921514
 20
918.285307766559
 30
0.0
 40
30.48
  1
4
 50
90.00000250447768
 41
1.000000000000001
  7
ＭＳ ゴシック
100
AcDbText
  0
TEXT
  5
5E
330
1F
100
AcDbEntity
  8
C-5
  6
Continuous
 62
     7
370
     9
100
AcDbText
 10
343.0535697421516
 20
1147.44078408731
 30
0.0
 40
22.86
  1
デルタパターン
 41
1.142857142857143
  7
ＭＳ ゴシック
100
AcDbText
  0
TEXT
  5
5F
330
1F
100
AcDbEntity
  8
C-5
  6
Continuous
 62
     7
370
     9
100
AcDbText
 10
56.80833048433911
 20
800.0165897513727
 30
0.0
 40
22.86
  1
メインバー表面　Ｓ＝１：１
 41
1.153846153846154
  7
ＭＳ ゴシック
100
AcDbText
  0
TEXT
  5
60
330
1F
100
AcDbEntity
  8
C-5
  6
Continuous
 62
     7
370
     9
100
AcDbText
 10
-81.7574043789422
 20
741.335254302154
 30
0.0
 40
22.86
  1
※デルタパターンの配列は一定ではありません。
 41
1.159090909090909
  7
ＭＳ ゴシック
100
AcDbText
  0
TEXT
  5
61
330
1F
100
AcDbEntity
  8
C-5
  6
Continuous
 62
     2
370
     9
100
AcDbText
 10
67.54764933199525
 20
352.8261659385064
 30
0.0
 40
30.48
  1
Ａ断面図　Ｓ＝１：２
 41
1.1125
  7
ＭＳ ゴシック
100
AcDbText
  0
TEXT
  5
62
330
1F
100
AcDbEntity
  8
C-5
  6
Continuous
 62
     2
370
     9
100
AcDbText
 10
-284.6380196133171
 20
606.9263456107476
 30
0.0
 40
30.48
  1
Ａ
 41
0.9999999999999998
  7
ＭＳ ゴシック
100
AcDbText
  0
TEXT
  5
63
330
1F
100
AcDbEntity
  8
C-5
  6
Continuous
 62
     2
370
     9
100
AcDbText
 10
-653.3782825985468
 20
349.3559024573663
 30
0.0
 40
30.48
  1
平面詳細図　Ｓ＝１：１０
 41
1.114583333333333
  7
ＭＳ ゴシック
100
AcDbText
  0
LWPOLYLINE
  5
64
330
1F
100
AcDbEntity
  8
C-4
  6
Continuous
 62
     7
370
     9
100
AcDbPolyline
 90
        4
 70
     1
 43
1.0
 10
308.7671927890266
 20
649.8254386283259
 42
0.4142135623731
 10
308.2671927890266
 20
650.3254386283259
 42
0.4142135623731
 10
307.7671927890266
 20
649.8254386283259
 42
0.4142135623731
 10
308.2671927890266
 20
649.3254386283259
 42
0.4142135623731
  0
LWPOLYLINE
  5
65
330
1F
100
AcDbEntity
  8
C-4
  6
Continuous
 62
     7
370
     9
100
AcDbPolyline
 90
        4
 70
     1
 43
1.0
 10
233.7670707187143
 20
649.8254386283259
 42
0.4142135623731
 10
233.2670707187143
 20
650.3254386283259
 42
0.4142135623731
 10
232.7670707187143
 20
649.8254386283259
 42
0.4142135623731
 10
233.2670707187143
 20
649.3254386283259
 42
0.4142135623731
  0
LWPOLYLINE
  5
66
330
1F
100
AcDbEntity
  8
C-4
  6
Continuous
 62
     7
370
     9
100
AcDbPolyline
 90
        4
 70
     1
 43
1.0
 10
158.7670096835577
 20
649.8254386283259
 42
0.4142135623731
 10
158.2670096835577
 20
650.3254386283259
 42
0.4142135623731
 10
157.7670096835577
 20
649.8254386283259
 42
0.4142135623731
 10
158.2670096835577
 20
649.3254386283259
 42
0.4142135623731
  0
LWPOLYLINE
  5
67
330
1F
100
AcDbEntity
  8
C-4
  6
Continuous
 62
     7
370
     9
100
AcDbPolyline
 90
        4
 70
     1
 43
1.0
 10
338.766826578089
 20
586.7081595755911
 42
0.4142135623731
 10
338.266826578089
 20
587.2081595755911
 42
0.4142135623731
 10
337.7668265780891
 20
586.7081595755911
 42
0.4142135623731
 10
338.266826578089
 20
586.2081595755911
 42
0.4142135623731
  0
LWPOLYLINE
  5
68
330
1F
100
AcDbEntity
  8
C-4
  6
Continuous
 62
     7
370
     9
100
AcDbPolyline
 90
        4
 70
     1
 43
1.0
 10
308.7671927890266
 20
586.7081595755911
 42
0.4142135623731
 10
308.2671927890266
 20
587.2081595755911
 42
0.4142135623731
 10
307.7671927890266
 20
586.7081595755911
 42
0.4142135623731
 10
308.2671927890266
 20
586.2081595755911
 42
0.4142135623731
  0
LWPOLYLINE
  5
69
330
1F
100
AcDbEntity
  8
C-4
  6
Continuous
 62
     7
370
     9
100
AcDbPolyline
 90
        4
 70
     1
 43
1.0
 10
263.7667045077764
 20
586.7081595755911
 42
0.4142135623731
 10
263.2667045077764
 20
587.2081595755911
 42
0.4142135623731
 10
262.7667045077764
 20
586.7081595755911
 42
0.4142135623731
 10
263.2667045077764
 20
586.2081595755911
 42
0.4142135623731
  0
LWPOLYLINE
  5
6A
330
1F
100
AcDbEntity
  8
C-4
  6
Continuous
 62
     7
370
     9
100
AcDbPolyline
 90
        4
 70
     1
 43
1.0
 10
233.7670707187143
 20
586.7081595755911
 42
0.4142135623731
 10
233.2670707187143
 20
587.2081595755911
 42
0.4142135623731
 10
232.7670707187143
 20
586.7081595755911
 42
0.4142135623731
 10
233.2670707187143
 20
586.2081595755911
 42
0.4142135623731
  0
LWPOLYLINE
  5
6B
330
1F
100
AcDbEntity
  8
C-4
  6
Continuous
 62
     7
370
     9
100
AcDbPolyline
 90
        4
 70
     1
 43
1.0
 10
188.7666434726204
 20
586.7081595755911
 42
0.4142135623731
 10
188.2666434726204
 20
587.2081595755911
 42
0.4142135623731
 10
187.7666434726204
 20
586.7081595755911
 42
0.4142135623731
 10
188.2666434726204
 20
586.2081595755911
 42
0.4142135623731
  0
LWPOLYLINE
  5
6C
330
1F
100
AcDbEntity
  8
C-4
  6
Continuous
 62
     7
370
     9
100
AcDbPolyline
 90
        4
 70
     1
 43
1.0
 10
158.7670096835577
 20
586.7081595755911
 42
0.4142135623731
 10
158.2670096835577
 20
587.2081595755911
 42
0.4142135623731
 10
157.7670096835577
 20
586.7081595755911
 42
0.4142135623731
 10
158.2670096835577
 20
586.2081595755911
 42
0.4142135623731
  0
LWPOLYLINE
  5
6D
330
1F
100
AcDbEntity
  8
C-4
  6
Continuous
 62
     7
370
     9
100
AcDbPolyline
 90
        4
 70
     1
 43
1.0
 10
454.0599784335576
 20
523.8232718802789
 42
0.4142135623731
 10
453.5599784335577
 20
524.3232718802789
 42
0.4142135623731
 10
453.0599784335577
 20
523.8232718802789
 42
0.4142135623731
 10
453.5599784335577
 20
523.3232718802789
 42
0.4142135623731
  0
LWPOLYLINE
  5
6E
330
1F
100
AcDbEntity
  8
C-4
  6
Continuous
 62
     7
370
     9
100
AcDbPolyline
 90
        4
 70
     1
 43
1.0
 10
454.0599784335576
 20
448.8231650687555
 42
0.4142135623731
 10
453.5599784335577
 20
449.3231650687555
 42
0.4142135623731
 10
453.0599784335577
 20
448.8231650687555
 42
0.4142135623731
 10
453.5599784335577
 20
448.3231650687555
 42
0.4142135623731
  0
LWPOLYLINE
  5
6F
330
1F
100
AcDbEntity
  8
C-4
  6
Continuous
 62
     7
370
     9
100
AcDbPolyline
 90
        4
 70
     1
 43
1.0
 10
309.613933511683
 20
1250.902434477935
 42
0.4142135623731
 10
309.113933511683
 20
1251.402434477935
 42
0.4142135623731
 10
308.613933511683
 20
1250.902434477935
 42
0.4142135623731
 10
309.113933511683
 20
1250.402434477935
 42
0.4142135623731
  0
LWPOLYLINE
  5
70
330
1F
100
AcDbEntity
  8
C-4
  6
Continuous
 62
     7
370
     9
100
AcDbPolyline
 90
        4
 70
     1
 43
1.0
 10
249.6146659335578
 20
1250.902434477935
 42
0.4142135623731
 10
249.1146659335578
 20
1251.402434477935
 42
0.4142135623731
 10
248.6146659335578
 20
1250.902434477935
 42
0.4142135623731
 10
249.1146659335578
 20
1250.402434477935
 42
0.4142135623731
  0
LWPOLYLINE
  5
71
330
1F
100
AcDbEntity
  8
C-4
  6
Continuous
 62
     7
370
     9
100
AcDbPolyline
 90
        4
 70
     1
 43
1.0
 10
393.5027274569951
 20
986.6183768607476
 42
0.4142135623731
 10
393.0027274569952
 20
987.1183768607476
 42
0.4142135623731
 10
392.5027274569952
 20
986.6183768607476
 42
0.4142135623731
 10
393.0027274569952
 20
986.1183768607476
 42
0.4142135623731
  0
LWPOLYLINE
  5
72
330
1F
100
AcDbEntity
  8
C-4
  6
Continuous
 62
     7
370
     9
100
AcDbPolyline
 90
        4
 70
     1
 43
1.0
 10
392.0658378085578
 20
981.8291922904353
 42
0.4142135623731
 10
391.5658378085578
 20
982.3291922904353
 42
0.4142135623731
 10
391.0658378085578
 20
981.8291922904353
 42
0.4142135623731
 10
391.5658378085578
 20
981.3291922904353
 42
0.4142135623731
  0
LWPOLYLINE
  5
73
330
1F
100
AcDbEntity
  8
C-4
  6
Continuous
 62
     7
370
     9
100
AcDbPolyline
 90
        4
 70
     1
 43
1.0
 10
177.9009818515268
 20
1158.285430083404
 42
0.4142135623731
 10
177.4009818515268
 20
1158.785430083404
 42
0.4142135623731
 10
176.9009818515268
 20
1158.285430083404
 42
0.4142135623731
 10
177.4009818515268
 20
1157.785430083404
 42
0.4142135623731
  0
LWPOLYLINE
  5
74
330
1F
100
AcDbEntity
  8
C-4
  6
Continuous
 62
     7
370
     9
100
AcDbPolyline
 90
        4
 70
     1
 43
1.0
 10
177.9009818515268
 20
1118.285246977935
 42
0.4142135623731
 10
177.4009818515268
 20
1118.785246977935
 42
0.4142135623731
 10
176.9009818515268
 20
1118.285246977935
 42
0.4142135623731
 10
177.4009818515268
 20
1117.785246977935
 42
0.4142135623731
  0
LWPOLYLINE
  5
75
330
1F
100
AcDbEntity
  8
C-4
  6
Continuous
 62
     7
370
     9
100
AcDbPolyline
 90
        4
 70
     1
 43
1.0
 10
177.9009818515268
 20
1038.285369048247
 42
0.4142135623731
 10
177.4009818515268
 20
1038.785369048247
 42
0.4142135623731
 10
176.9009818515268
 20
1038.285369048247
 42
0.4142135623731
 10
177.4009818515268
 20
1037.785369048247
 42
0.4142135623731
  0
LWPOLYLINE
  5
76
330
1F
100
AcDbEntity
  8
C-4
  6
Continuous
 62
     7
370
     9
100
AcDbPolyline
 90
        4
 70
     1
 43
1.0
 10
177.9009818515268
 20
1028.285796294342
 42
0.4142135623731
 10
177.4009818515268
 20
1028.785796294341
 42
0.4142135623731
 10
176.9009818515268
 20
1028.285796294342
 42
0.4142135623731
 10
177.4009818515268
 20
1027.785796294342
 42
0.4142135623731
  0
LWPOLYLINE
  5
77
330
1F
100
AcDbEntity
  8
C-4
  6
Continuous
 62
     7
370
     9
100
AcDbPolyline
 90
        4
 70
     1
 43
1.0
 10
177.9009818515268
 20
948.2854300834043
 42
0.4142135623731
 10
177.4009818515268
 20
948.7854300834043
 42
0.4142135623731
 10
176.9009818515268
 20
948.2854300834043
 42
0.4142135623731
 10
177.4009818515268
 20
947.7854300834043
 42
0.4142135623731
  0
LWPOLYLINE
  5
78
330
1F
100
AcDbEntity
  8
C-4
  6
Continuous
 62
     7
370
     9
100
AcDbPolyline
 90
        4
 70
     1
 43
1.0
 10
177.9009818515268
 20
908.2852469779351
 42
0.4142135623731
 10
177.4009818515268
 20
908.7852469779351
 42
0.4142135623731
 10
176.9009818515268
 20
908.2852469779351
 42
0.4142135623731
 10
177.4009818515268
 20
907.7852469779351
 42
0.4142135623731
  0
ARC
  5
79
330
1F
100
AcDbEntity
  8
C-2
  6
Continuous
 62
     3
370
     9
100
AcDbCircle
 10
333.268047281214
 20
508.8239432669974
 30
0.0
 40
5.0
100
AcDbArc
 50
90.0
 51
180.0
  0
ARC
  5
7A
330
1F
100
AcDbEntity
  8
C-2
  6
Continuous
 62
     3
370
     9
100
AcDbCircle
 10
313.2674369296515
 20
508.8239432669974
 30
0.0
 40
5.0
100
AcDbArc
 50
359.9943237304688
 51
90.0
  0
ARC
  5
7B
330
1F
100
AcDbEntity
  8
C-2
  6
Continuous
 62
     3
370
     9
100
AcDbCircle
 10
258.2679252109014
 20
508.8239432669974
 30
0.0
 40
5.0
100
AcDbArc
 50
90.0
 51
180.0
  0
ARC
  5
7C
330
1F
100
AcDbEntity
  8
C-2
  6
Continuous
 62
     3
370
     9
100
AcDbCircle
 10
238.2673758944955
 20
508.8239432669974
 30
0.0
 40
5.0
100
AcDbArc
 50
359.9943237304688
 51
90.0
  0
ARC
  5
7D
330
1F
100
AcDbEntity
  8
C-2
  6
Continuous
 62
     3
370
     9
100
AcDbCircle
 10
183.2673148593389
 20
508.8239432669974
 30
0.0
 40
5.0
100
AcDbArc
 50
90.0
 51
180.0
  0
ARC
  5
7E
330
1F
100
AcDbEntity
  8
C-2
  6
Continuous
 62
     3
370
     9
100
AcDbCircle
 10
163.2672538241829
 20
508.8239432669974
 30
0.0
 40
5.0
100
AcDbArc
 50
359.9943237304688
 51
90.0
  0
ARC
  5
7F
330
1F
100
AcDbEntity
  8
C-2
  6
Continuous
 62
     3
370
     9
100
AcDbCircle
 10
301.6145438632455
 20
888.7890311576228
 30
0.0
 40
37.50014114379883
100
AcDbArc
 50
233.1300964355469
 51
306.8699035644532
  0
ARC
  5
80
330
1F
100
AcDbEntity
  8
C-2
  6
Continuous
 62
     3
370
     9
100
AcDbCircle
 10
256.6140555819953
 20
828.7887564994196
 30
0.0
 40
37.50014114379883
100
AcDbArc
 50
53.13009643554687
 51
126.8699035644531
  0
ARC
  5
81
330
1F
100
AcDbEntity
  8
C-2
  6
Continuous
 62
     3
370
     9
100
AcDbCircle
 10
301.6145438632455
 20
1228.145049224029
 30
0.0
 40
37.50014114379883
100
AcDbArc
 50
233.1300964355469
 51
306.8699035644532
  0
ARC
  5
82
330
1F
100
AcDbEntity
  8
C-2
  6
Continuous
 62
     3
370
     9
100
AcDbCircle
 10
256.6140555819953
 20
1168.144744048248
 30
0.0
 40
37.50014114379883
100
AcDbArc
 50
53.13009643554687
 51
126.8699035644531
  0
LINE
  5
83
330
1F
100
AcDbEntity
  8
C-A
  6
Continuous
 62
     3
370
     9
100
AcDbLine
 10
-390.8776436367548
 20
575.680373320709
 30
0.0
 11
-389.4133186855828
 21
575.680373320709
 31
0.0
  0
LINE
  5
84
330
1F
100
AcDbEntity
  8
C-A
  6
Continuous
 62
     3
370
     9
100
AcDbLine
 10
-390.8776436367548
 20
579.2159110404356
 30
0.0
 11
-385.8777962246454
 21
579.2159110404356
 31
0.0
  0
LINE
  5
85
330
1F
100
AcDbEntity
  8
C-A
  6
Continuous
 62
     3
370
     9
100
AcDbLine
 10
-390.8776436367548
 20
582.7514335013728
 30
0.0
 11
-382.3422432461297
 21
582.7514335013728
 31
0.0
  0
LINE
  5
86
330
1F
100
AcDbEntity
  8
C-A
  6
Continuous
 62
     3
370
     9
100
AcDbLine
 10
-285.8776436367546
 20
682.7514335013728
 30
0.0
 11
-282.342060140661
 21
682.7514335013728
 31
0.0
  0
LINE
  5
87
330
1F
100
AcDbEntity
  8
C-A
  6
Continuous
 62
     3
370
     9
100
AcDbLine
 10
-225.8777046719109
 20
782.7514335013728
 30
0.0
 11
-216.8780098476921
 21
782.7514335013728
 31
0.0
  0
LINE
  5
88
330
1F
100
AcDbEntity
  8
C-A
  6
Continuous
 62
     3
370
     9
100
AcDbLine
 10
-225.8777046719109
 20
779.2159110404356
 30
0.0
 11
-216.8780098476921
 21
779.2159110404356
 31
0.0
  0
LINE
  5
89
330
1F
100
AcDbEntity
  8
C-A
  6
Continuous
 62
     3
370
     9
100
AcDbLine
 10
-225.8777046719109
 20
775.6803580619197
 30
0.0
 11
-216.8780098476921
 21
775.6803580619197
 31
0.0
  0
LINE
  5
8A
330
1F
100
AcDbEntity
  8
C-A
  6
Continuous
 62
     3
370
     9
100
AcDbLine
 10
-240.8776741543329
 20
782.7514335013728
 30
0.0
 11
-231.8779488125359
 21
782.7514335013728
 31
0.0
  0
LINE
  5
8B
330
1F
100
AcDbEntity
  8
C-A
  6
Continuous
 62
     3
370
     9
100
AcDbLine
 10
-240.8776741543329
 20
779.2159110404356
 30
0.0
 11
-231.8779488125359
 21
779.2159110404356
 31
0.0
  0
LINE
  5
8C
330
1F
100
AcDbEntity
  8
C-A
  6
Continuous
 62
     3
370
     9
100
AcDbLine
 10
-240.8776741543329
 20
775.6803580619197
 30
0.0
 11
-231.8779488125359
 21
775.6803580619197
 31
0.0
  0
LINE
  5
8D
330
1F
100
AcDbEntity
  8
C-A
  6
Continuous
 62
     3
370
     9
100
AcDbLine
 10
-255.8776741543329
 20
782.7514335013728
 30
0.0
 11
-246.8779488125359
 21
782.7514335013728
 31
0.0
  0
LINE
  5
8E
330
1F
100
AcDbEntity
  8
C-A
  6
Continuous
 62
     3
370
     9
100
AcDbLine
 10
-255.8776741543329
 20
779.2159110404356
 30
0.0
 11
-246.8779488125359
 21
779.2159110404356
 31
0.0
  0
LINE
  5
8F
330
1F
100
AcDbEntity
  8
C-A
  6
Continuous
 62
     3
370
     9
100
AcDbLine
 10
-255.8776741543329
 20
775.6803580619197
 30
0.0
 11
-246.8779488125359
 21
775.6803580619197
 31
0.0
  0
LINE
  5
90
330
1F
100
AcDbEntity
  8
C-A
  6
Continuous
 62
     3
370
     9
100
AcDbLine
 10
-270.8776741543329
 20
782.7514335013728
 30
0.0
 11
-261.8779488125359
 21
782.7514335013728
 31
0.0
  0
LINE
  5
91
330
1F
100
AcDbEntity
  8
C-A
  6
Continuous
 62
     3
370
     9
100
AcDbLine
 10
-270.8776741543329
 20
779.2159110404356
 30
0.0
 11
-261.8779488125359
 21
779.2159110404356
 31
0.0
  0
LINE
  5
92
330
1F
100
AcDbEntity
  8
C-A
  6
Continuous
 62
     3
370
     9
100
AcDbLine
 10
-270.8776741543329
 20
775.6803580619197
 30
0.0
 11
-261.8779488125359
 21
775.6803580619197
 31
0.0
  0
LINE
  5
93
330
1F
100
AcDbEntity
  8
C-A
  6
Continuous
 62
     3
370
     9
100
AcDbLine
 10
-546.877933553747
 20
582.7514335013728
 30
0.0
 11
-554.878093771032
 21
582.7514335013728
 31
0.0
  0
LINE
  5
94
330
1F
100
AcDbEntity
  8
C-A
  6
Continuous
 62
     3
370
     9
100
AcDbLine
 10
-546.877933553747
 20
579.2159110404356
 30
0.0
 11
-554.878093771032
 21
579.2159110404356
 31
0.0
  0
LINE
  5
95
330
1F
100
AcDbEntity
  8
C-A
  6
Continuous
 62
     3
370
     9
100
AcDbLine
 10
-546.877933553747
 20
575.680373320709
 30
0.0
 11
-554.878093771032
 21
575.680373320709
 31
0.0
  0
LINE
  5
96
330
1F
100
AcDbEntity
  8
C-A
  6
Continuous
 62
     3
370
     9
100
AcDbLine
 10
-405.8776436367548
 20
582.7514335013728
 30
0.0
 11
-396.8779182949578
 21
582.7514335013728
 31
0.0
  0
LINE
  5
97
330
1F
100
AcDbEntity
  8
C-A
  6
Continuous
 62
     3
370
     9
100
AcDbLine
 10
-405.8776436367548
 20
579.2159110404356
 30
0.0
 11
-396.8779182949578
 21
579.2159110404356
 31
0.0
  0
LINE
  5
98
330
1F
100
AcDbEntity
  8
C-A
  6
Continuous
 62
     3
370
     9
100
AcDbLine
 10
-405.8776436367548
 20
575.680373320709
 30
0.0
 11
-396.8779182949578
 21
575.680373320709
 31
0.0
  0
LINE
  5
99
330
1F
100
AcDbEntity
  8
C-A
  6
Continuous
 62
     3
370
     9
100
AcDbLine
 10
-420.8776283779656
 20
582.7514335013728
 30
0.0
 11
-411.8779182949578
 21
582.7514335013728
 31
0.0
  0
LINE
  5
9A
330
1F
100
AcDbEntity
  8
C-A
  6
Continuous
 62
     3
370
     9
100
AcDbLine
 10
-420.8776283779656
 20
579.2159110404356
 30
0.0
 11
-411.8779182949578
 21
579.2159110404356
 31
0.0
  0
LINE
  5
9B
330
1F
100
AcDbEntity
  8
C-A
  6
Continuous
 62
     3
370
     9
100
AcDbLine
 10
-420.8776283779656
 20
575.680373320709
 30
0.0
 11
-411.8779182949578
 21
575.680373320709
 31
0.0
  0
LINE
  5
9C
330
1F
100
AcDbEntity
  8
C-A
  6
Continuous
 62
     3
370
     9
100
AcDbLine
 10
-435.8776283779656
 20
582.7514335013728
 30
0.0
 11
-426.877933553747
 21
582.7514335013728
 31
0.0
  0
LINE
  5
9D
330
1F
100
AcDbEntity
  8
C-A
  6
Continuous
 62
     3
370
     9
100
AcDbLine
 10
-435.8776283779656
 20
579.2159110404356
 30
0.0
 11
-426.877933553747
 21
579.2159110404356
 31
0.0
  0
LINE
  5
9E
330
1F
100
AcDbEntity
  8
C-A
  6
Continuous
 62
     3
370
     9
100
AcDbLine
 10
-435.8776283779656
 20
575.680373320709
 30
0.0
 11
-426.877933553747
 21
575.680373320709
 31
0.0
  0
LINE
  5
9F
330
1F
100
AcDbEntity
  8
C-A
  6
Continuous
 62
     3
370
     9
100
AcDbLine
 10
-450.8776283779656
 20
582.7514335013728
 30
0.0
 11
-441.877933553747
 21
582.7514335013728
 31
0.0
  0
LINE
  5
A0
330
1F
100
AcDbEntity
  8
C-A
  6
Continuous
 62
     3
370
     9
100
AcDbLine
 10
-450.8776283779656
 20
579.2159110404356
 30
0.0
 11
-441.877933553747
 21
579.2159110404356
 31
0.0
  0
LINE
  5
A1
330
1F
100
AcDbEntity
  8
C-A
  6
Continuous
 62
     3
370
     9
100
AcDbLine
 10
-450.8776283779656
 20
575.680373320709
 30
0.0
 11
-441.877933553747
 21
575.680373320709
 31
0.0
  0
LINE
  5
A2
330
1F
100
AcDbEntity
  8
C-A
  6
Continuous
 62
     3
370
     9
100
AcDbLine
 10
-465.8776283779656
 20
582.7514335013728
 30
0.0
 11
-456.877933553747
 21
582.7514335013728
 31
0.0
  0
LINE
  5
A3
330
1F
100
AcDbEntity
  8
C-A
  6
Continuous
 62
     3
370
     9
100
AcDbLine
 10
-465.8776283779656
 20
579.2159110404356
 30
0.0
 11
-456.877933553747
 21
579.2159110404356
 31
0.0
  0
LINE
  5
A4
330
1F
100
AcDbEntity
  8
C-A
  6
Continuous
 62
     3
370
     9
100
AcDbLine
 10
-465.8776283779656
 20
575.680373320709
 30
0.0
 11
-456.877933553747
 21
575.680373320709
 31
0.0
  0
LINE
  5
A5
330
1F
100
AcDbEntity
  8
C-A
  6
Continuous
 62
     3
370
     9
100
AcDbLine
 10
-480.8776283779656
 20
582.7514335013728
 30
0.0
 11
-471.877933553747
 21
582.7514335013728
 31
0.0
  0
LINE
  5
A6
330
1F
100
AcDbEntity
  8
C-A
  6
Continuous
 62
     3
370
     9
100
AcDbLine
 10
-480.8776283779656
 20
579.2159110404356
 30
0.0
 11
-471.877933553747
 21
579.2159110404356
 31
0.0
  0
LINE
  5
A7
330
1F
100
AcDbEntity
  8
C-A
  6
Continuous
 62
     3
370
     9
100
AcDbLine
 10
-480.8776283779656
 20
575.680373320709
 30
0.0
 11
-471.877933553747
 21
575.680373320709
 31
0.0
  0
LINE
  5
A8
330
1F
100
AcDbEntity
  8
C-A
  6
Continuous
 62
     3
370
     9
100
AcDbLine
 10
-495.8776283779656
 20
582.7514335013728
 30
0.0
 11
-486.877933553747
 21
582.7514335013728
 31
0.0
  0
LINE
  5
A9
330
1F
100
AcDbEntity
  8
C-A
  6
Continuous
 62
     3
370
     9
100
AcDbLine
 10
-495.8776283779656
 20
579.2159110404356
 30
0.0
 11
-486.877933553747
 21
579.2159110404356
 31
0.0
  0
LINE
  5
AA
330
1F
100
AcDbEntity
  8
C-A
  6
Continuous
 62
     3
370
     9
100
AcDbLine
 10
-495.8776283779656
 20
575.680373320709
 30
0.0
 11
-486.877933553747
 21
575.680373320709
 31
0.0
  0
LINE
  5
AB
330
1F
100
AcDbEntity
  8
C-A
  6
Continuous
 62
     3
370
     9
100
AcDbLine
 10
-510.8776283779656
 20
582.7514335013728
 30
0.0
 11
-501.877933553747
 21
582.7514335013728
 31
0.0
  0
LINE
  5
AC
330
1F
100
AcDbEntity
  8
C-A
  6
Continuous
 62
     3
370
     9
100
AcDbLine
 10
-510.8776283779656
 20
579.2159110404356
 30
0.0
 11
-501.877933553747
 21
579.2159110404356
 31
0.0
  0
LINE
  5
AD
330
1F
100
AcDbEntity
  8
C-A
  6
Continuous
 62
     3
370
     9
100
AcDbLine
 10
-510.8776283779656
 20
575.680373320709
 30
0.0
 11
-501.877933553747
 21
575.680373320709
 31
0.0
  0
LINE
  5
AE
330
1F
100
AcDbEntity
  8
C-A
  6
Continuous
 62
     3
370
     9
100
AcDbLine
 10
-525.8776283779656
 20
582.7514335013728
 30
0.0
 11
-516.877933553747
 21
582.7514335013728
 31
0.0
  0
LINE
  5
AF
330
1F
100
AcDbEntity
  8
C-A
  6
Continuous
 62
     3
370
     9
100
AcDbLine
 10
-525.8776283779656
 20
579.2159110404356
 30
0.0
 11
-516.877933553747
 21
579.2159110404356
 31
0.0
  0
LINE
  5
B0
330
1F
100
AcDbEntity
  8
C-A
  6
Continuous
 62
     3
370
     9
100
AcDbLine
 10
-525.8776283779656
 20
575.680373320709
 30
0.0
 11
-516.877933553747
 21
575.680373320709
 31
0.0
  0
LINE
  5
B1
330
1F
100
AcDbEntity
  8
C-A
  6
Continuous
 62
     3
370
     9
100
AcDbLine
 10
-540.8776283779656
 20
582.7514335013728
 30
0.0
 11
-531.877933553747
 21
582.7514335013728
 31
0.0
  0
LINE
  5
B2
330
1F
100
AcDbEntity
  8
C-A
  6
Continuous
 62
     3
370
     9
100
AcDbLine
 10
-540.8776283779656
 20
579.2159110404356
 30
0.0
 11
-531.877933553747
 21
579.2159110404356
 31
0.0
  0
LINE
  5
B3
330
1F
100
AcDbEntity
  8
C-A
  6
Continuous
 62
     3
370
     9
100
AcDbLine
 10
-540.8776283779656
 20
575.680373320709
 30
0.0
 11
-531.877933553747
 21
575.680373320709
 31
0.0
  0
LINE
  5
B4
330
1F
100
AcDbEntity
  8
C-A
  6
Continuous
 62
     3
370
     9
100
AcDbLine
 10
-546.877933553747
 20
782.7514335013728
 30
0.0
 11
-554.878093771032
 21
782.7514335013728
 31
0.0
  0
LINE
  5
B5
330
1F
100
AcDbEntity
  8
C-A
  6
Continuous
 62
     3
370
     9
100
AcDbLine
 10
-546.877933553747
 20
779.2159110404356
 30
0.0
 11
-554.878093771032
 21
779.2159110404356
 31
0.0
  0
LINE
  5
B6
330
1F
100
AcDbEntity
  8
C-A
  6
Continuous
 62
     3
370
     9
100
AcDbLine
 10
-546.877933553747
 20
775.6803580619197
 30
0.0
 11
-554.878093771032
 21
775.6803580619197
 31
0.0
  0
LINE
  5
B7
330
1F
100
AcDbEntity
  8
C-A
  6
Continuous
 62
     3
370
     9
100
AcDbLine
 10
-285.8776436367546
 20
782.7514335013728
 30
0.0
 11
-276.8779182949578
 21
782.7514335013728
 31
0.0
  0
LINE
  5
B8
330
1F
100
AcDbEntity
  8
C-A
  6
Continuous
 62
     3
370
     9
100
AcDbLine
 10
-285.8776436367546
 20
779.2159110404356
 30
0.0
 11
-276.8779182949578
 21
779.2159110404356
 31
0.0
  0
LINE
  5
B9
330
1F
100
AcDbEntity
  8
C-A
  6
Continuous
 62
     3
370
     9
100
AcDbLine
 10
-285.8776436367546
 20
775.6803580619197
 30
0.0
 11
-276.8779182949578
 21
775.6803580619197
 31
0.0
  0
LINE
  5
BA
330
1F
100
AcDbEntity
  8
C-A
  6
Continuous
 62
     3
370
     9
100
AcDbLine
 10
-300.8776436367546
 20
782.7514335013728
 30
0.0
 11
-291.8779182949578
 21
782.7514335013728
 31
0.0
  0
LINE
  5
BB
330
1F
100
AcDbEntity
  8
C-A
  6
Continuous
 62
     3
370
     9
100
AcDbLine
 10
-300.8776436367546
 20
779.2159110404356
 30
0.0
 11
-291.8779182949578
 21
779.2159110404356
 31
0.0
  0
LINE
  5
BC
330
1F
100
AcDbEntity
  8
C-A
  6
Continuous
 62
     3
370
     9
100
AcDbLine
 10
-300.8776436367546
 20
775.6803580619197
 30
0.0
 11
-291.8779182949578
 21
775.6803580619197
 31
0.0
  0
LINE
  5
BD
330
1F
100
AcDbEntity
  8
C-A
  6
Continuous
 62
     3
370
     9
100
AcDbLine
 10
-315.8776436367546
 20
782.7514335013728
 30
0.0
 11
-306.8779182949578
 21
782.7514335013728
 31
0.0
  0
LINE
  5
BE
330
1F
100
AcDbEntity
  8
C-A
  6
Continuous
 62
     3
370
     9
100
AcDbLine
 10
-315.8776436367546
 20
779.2159110404356
 30
0.0
 11
-306.8779182949578
 21
779.2159110404356
 31
0.0
  0
LINE
  5
BF
330
1F
100
AcDbEntity
  8
C-A
  6
Continuous
 62
     3
370
     9
100
AcDbLine
 10
-315.8776436367546
 20
775.6803580619197
 30
0.0
 11
-306.8779182949578
 21
775.6803580619197
 31
0.0
  0
LINE
  5
C0
330
1F
100
AcDbEntity
  8
C-A
  6
Continuous
 62
     3
370
     9
100
AcDbLine
 10
-330.8776436367546
 20
782.7514335013728
 30
0.0
 11
-321.8779182949578
 21
782.7514335013728
 31
0.0
  0
LINE
  5
C1
330
1F
100
AcDbEntity
  8
C-A
  6
Continuous
 62
     3
370
     9
100
AcDbLine
 10
-330.8776436367546
 20
779.2159110404356
 30
0.0
 11
-321.8779182949578
 21
779.2159110404356
 31
0.0
  0
LINE
  5
C2
330
1F
100
AcDbEntity
  8
C-A
  6
Continuous
 62
     3
370
     9
100
AcDbLine
 10
-330.8776436367546
 20
775.6803580619197
 30
0.0
 11
-321.8779182949578
 21
775.6803580619197
 31
0.0
  0
LINE
  5
C3
330
1F
100
AcDbEntity
  8
C-A
  6
Continuous
 62
     3
370
     9
100
AcDbLine
 10
-345.8776436367546
 20
782.7514335013728
 30
0.0
 11
-336.8779182949578
 21
782.7514335013728
 31
0.0
  0
LINE
  5
C4
330
1F
100
AcDbEntity
  8
C-A
  6
Continuous
 62
     3
370
     9
100
AcDbLine
 10
-345.8776436367546
 20
779.2159110404356
 30
0.0
 11
-336.8779182949578
 21
779.2159110404356
 31
0.0
  0
LINE
  5
C5
330
1F
100
AcDbEntity
  8
C-A
  6
Continuous
 62
     3
370
     9
100
AcDbLine
 10
-345.8776436367546
 20
775.6803580619197
 30
0.0
 11
-336.8779182949578
 21
775.6803580619197
 31
0.0
  0
LINE
  5
C6
330
1F
100
AcDbEntity
  8
C-A
  6
Continuous
 62
     3
370
     9
100
AcDbLine
 10
-360.8776436367548
 20
782.7514335013728
 30
0.0
 11
-351.8779182949578
 21
782.7514335013728
 31
0.0
  0
LINE
  5
C7
330
1F
100
AcDbEntity
  8
C-A
  6
Continuous
 62
     3
370
     9
100
AcDbLine
 10
-360.8776436367548
 20
779.2159110404356
 30
0.0
 11
-351.8779182949578
 21
779.2159110404356
 31
0.0
  0
LINE
  5
C8
330
1F
100
AcDbEntity
  8
C-A
  6
Continuous
 62
     3
370
     9
100
AcDbLine
 10
-360.8776436367548
 20
775.6803580619197
 30
0.0
 11
-351.8779182949578
 21
775.6803580619197
 31
0.0
  0
LINE
  5
C9
330
1F
100
AcDbEntity
  8
C-A
  6
Continuous
 62
     3
370
     9
100
AcDbLine
 10
-375.8776436367548
 20
782.7514335013728
 30
0.0
 11
-366.8779182949578
 21
782.7514335013728
 31
0.0
  0
LINE
  5
CA
330
1F
100
AcDbEntity
  8
C-A
  6
Continuous
 62
     3
370
     9
100
AcDbLine
 10
-375.8776436367548
 20
779.2159110404356
 30
0.0
 11
-366.8779182949578
 21
779.2159110404356
 31
0.0
  0
LINE
  5
CB
330
1F
100
AcDbEntity
  8
C-A
  6
Continuous
 62
     3
370
     9
100
AcDbLine
 10
-375.8776436367548
 20
775.6803580619197
 30
0.0
 11
-366.8779182949578
 21
775.6803580619197
 31
0.0
  0
LINE
  5
CC
330
1F
100
AcDbEntity
  8
C-A
  6
Continuous
 62
     3
370
     9
100
AcDbLine
 10
-390.8776436367548
 20
782.7514335013728
 30
0.0
 11
-381.8779182949578
 21
782.7514335013728
 31
0.0
  0
LINE
  5
CD
330
1F
100
AcDbEntity
  8
C-A
  6
Continuous
 62
     3
370
     9
100
AcDbLine
 10
-390.8776436367548
 20
779.2159110404356
 30
0.0
 11
-381.8779182949578
 21
779.2159110404356
 31
0.0
  0
LINE
  5
CE
330
1F
100
AcDbEntity
  8
C-A
  6
Continuous
 62
     3
370
     9
100
AcDbLine
 10
-390.8776436367548
 20
775.6803580619197
 30
0.0
 11
-381.8779182949578
 21
775.6803580619197
 31
0.0
  0
LINE
  5
CF
330
1F
100
AcDbEntity
  8
C-A
  6
Continuous
 62
     3
370
     9
100
AcDbLine
 10
-405.8776436367548
 20
782.7514335013728
 30
0.0
 11
-396.8779182949578
 21
782.7514335013728
 31
0.0
  0
LINE
  5
D0
330
1F
100
AcDbEntity
  8
C-A
  6
Continuous
 62
     3
370
     9
100
AcDbLine
 10
-405.8776436367548
 20
779.2159110404356
 30
0.0
 11
-396.8779182949578
 21
779.2159110404356
 31
0.0
  0
LINE
  5
D1
330
1F
100
AcDbEntity
  8
C-A
  6
Continuous
 62
     3
370
     9
100
AcDbLine
 10
-405.8776436367548
 20
775.6803580619197
 30
0.0
 11
-396.8779182949578
 21
775.6803580619197
 31
0.0
  0
LINE
  5
D2
330
1F
100
AcDbEntity
  8
C-A
  6
Continuous
 62
     3
370
     9
100
AcDbLine
 10
-420.8776283779656
 20
782.7514335013728
 30
0.0
 11
-411.8779182949578
 21
782.7514335013728
 31
0.0
  0
LINE
  5
D3
330
1F
100
AcDbEntity
  8
C-A
  6
Continuous
 62
     3
370
     9
100
AcDbLine
 10
-420.8776283779656
 20
779.2159110404356
 30
0.0
 11
-411.8779182949578
 21
779.2159110404356
 31
0.0
  0
LINE
  5
D4
330
1F
100
AcDbEntity
  8
C-A
  6
Continuous
 62
     3
370
     9
100
AcDbLine
 10
-420.8776283779656
 20
775.6803580619197
 30
0.0
 11
-411.8779182949578
 21
775.6803580619197
 31
0.0
  0
LINE
  5
D5
330
1F
100
AcDbEntity
  8
C-A
  6
Continuous
 62
     3
370
     9
100
AcDbLine
 10
-435.8776283779656
 20
782.7514335013728
 30
0.0
 11
-426.877933553747
 21
782.7514335013728
 31
0.0
  0
LINE
  5
D6
330
1F
100
AcDbEntity
  8
C-A
  6
Continuous
 62
     3
370
     9
100
AcDbLine
 10
-435.8776283779656
 20
779.2159110404356
 30
0.0
 11
-426.877933553747
 21
779.2159110404356
 31
0.0
  0
LINE
  5
D7
330
1F
100
AcDbEntity
  8
C-A
  6
Continuous
 62
     3
370
     9
100
AcDbLine
 10
-435.8776283779656
 20
775.6803580619197
 30
0.0
 11
-426.877933553747
 21
775.6803580619197
 31
0.0
  0
LINE
  5
D8
330
1F
100
AcDbEntity
  8
C-A
  6
Continuous
 62
     3
370
     9
100
AcDbLine
 10
-450.8776283779656
 20
782.7514335013728
 30
0.0
 11
-441.877933553747
 21
782.7514335013728
 31
0.0
  0
LINE
  5
D9
330
1F
100
AcDbEntity
  8
C-A
  6
Continuous
 62
     3
370
     9
100
AcDbLine
 10
-450.8776283779656
 20
779.2159110404356
 30
0.0
 11
-441.877933553747
 21
779.2159110404356
 31
0.0
  0
LINE
  5
DA
330
1F
100
AcDbEntity
  8
C-A
  6
Continuous
 62
     3
370
     9
100
AcDbLine
 10
-450.8776283779656
 20
775.6803580619197
 30
0.0
 11
-441.877933553747
 21
775.6803580619197
 31
0.0
  0
LINE
  5
DB
330
1F
100
AcDbEntity
  8
C-A
  6
Continuous
 62
     3
370
     9
100
AcDbLine
 10
-465.8776283779656
 20
782.7514335013728
 30
0.0
 11
-456.877933553747
 21
782.7514335013728
 31
0.0
  0
LINE
  5
DC
330
1F
100
AcDbEntity
  8
C-A
  6
Continuous
 62
     3
370
     9
100
AcDbLine
 10
-465.8776283779656
 20
779.2159110404356
 30
0.0
 11
-456.877933553747
 21
779.2159110404356
 31
0.0
  0
LINE
  5
DD
330
1F
100
AcDbEntity
  8
C-A
  6
Continuous
 62
     3
370
     9
100
AcDbLine
 10
-465.8776283779656
 20
775.6803580619197
 30
0.0
 11
-456.877933553747
 21
775.6803580619197
 31
0.0
  0
LINE
  5
DE
330
1F
100
AcDbEntity
  8
C-A
  6
Continuous
 62
     3
370
     9
100
AcDbLine
 10
-480.8776283779656
 20
782.7514335013728
 30
0.0
 11
-471.877933553747
 21
782.7514335013728
 31
0.0
  0
LINE
  5
DF
330
1F
100
AcDbEntity
  8
C-A
  6
Continuous
 62
     3
370
     9
100
AcDbLine
 10
-480.8776283779656
 20
779.2159110404356
 30
0.0
 11
-471.877933553747
 21
779.2159110404356
 31
0.0
  0
LINE
  5
E0
330
1F
100
AcDbEntity
  8
C-A
  6
Continuous
 62
     3
370
     9
100
AcDbLine
 10
-480.8776283779656
 20
775.6803580619197
 30
0.0
 11
-471.877933553747
 21
775.6803580619197
 31
0.0
  0
LINE
  5
E1
330
1F
100
AcDbEntity
  8
C-A
  6
Continuous
 62
     3
370
     9
100
AcDbLine
 10
-495.8776283779656
 20
782.7514335013728
 30
0.0
 11
-486.877933553747
 21
782.7514335013728
 31
0.0
  0
LINE
  5
E2
330
1F
100
AcDbEntity
  8
C-A
  6
Continuous
 62
     3
370
     9
100
AcDbLine
 10
-495.8776283779656
 20
779.2159110404356
 30
0.0
 11
-486.877933553747
 21
779.2159110404356
 31
0.0
  0
LINE
  5
E3
330
1F
100
AcDbEntity
  8
C-A
  6
Continuous
 62
     3
370
     9
100
AcDbLine
 10
-495.8776283779656
 20
775.6803580619197
 30
0.0
 11
-486.877933553747
 21
775.6803580619197
 31
0.0
  0
LINE
  5
E4
330
1F
100
AcDbEntity
  8
C-A
  6
Continuous
 62
     3
370
     9
100
AcDbLine
 10
-510.8776283779656
 20
782.7514335013728
 30
0.0
 11
-501.877933553747
 21
782.7514335013728
 31
0.0
  0
LINE
  5
E5
330
1F
100
AcDbEntity
  8
C-A
  6
Continuous
 62
     3
370
     9
100
AcDbLine
 10
-510.8776283779656
 20
779.2159110404356
 30
0.0
 11
-501.877933553747
 21
779.2159110404356
 31
0.0
  0
LINE
  5
E6
330
1F
100
AcDbEntity
  8
C-A
  6
Continuous
 62
     3
370
     9
100
AcDbLine
 10
-510.8776283779656
 20
775.6803580619197
 30
0.0
 11
-501.877933553747
 21
775.6803580619197
 31
0.0
  0
LINE
  5
E7
330
1F
100
AcDbEntity
  8
C-A
  6
Continuous
 62
     3
370
     9
100
AcDbLine
 10
-525.8776283779656
 20
782.7514335013728
 30
0.0
 11
-516.877933553747
 21
782.7514335013728
 31
0.0
  0
LINE
  5
E8
330
1F
100
AcDbEntity
  8
C-A
  6
Continuous
 62
     3
370
     9
100
AcDbLine
 10
-525.8776283779656
 20
779.2159110404356
 30
0.0
 11
-516.877933553747
 21
779.2159110404356
 31
0.0
  0
LINE
  5
E9
330
1F
100
AcDbEntity
  8
C-A
  6
Continuous
 62
     3
370
     9
100
AcDbLine
 10
-525.8776283779656
 20
775.6803580619197
 30
0.0
 11
-516.877933553747
 21
775.6803580619197
 31
0.0
  0
LINE
  5
EA
330
1F
100
AcDbEntity
  8
C-A
  6
Continuous
 62
     3
370
     9
100
AcDbLine
 10
-540.8776283779656
 20
782.7514335013728
 30
0.0
 11
-531.877933553747
 21
782.7514335013728
 31
0.0
  0
LINE
  5
EB
330
1F
100
AcDbEntity
  8
C-A
  6
Continuous
 62
     3
370
     9
100
AcDbLine
 10
-540.8776283779656
 20
779.2159110404356
 30
0.0
 11
-531.877933553747
 21
779.2159110404356
 31
0.0
  0
LINE
  5
EC
330
1F
100
AcDbEntity
  8
C-A
  6
Continuous
 62
     3
370
     9
100
AcDbLine
 10
-540.8776283779656
 20
775.6803580619197
 30
0.0
 11
-531.877933553747
 21
775.6803580619197
 31
0.0
  0
LINE
  5
ED
330
1F
100
AcDbEntity
  8
C-A
  6
Continuous
 62
     3
370
     9
100
AcDbLine
 10
-554.878093771032
 20
507.2161399222711
 30
0.0
 11
-554.878093771032
 21
851.2156668998102
 31
0.0
  0
LINE
  5
EE
330
1F
100
AcDbEntity
  8
C-A
  6
Continuous
 62
     3
370
     9
100
AcDbLine
 10
-546.877933553747
 20
682.7514335013728
 30
0.0
 11
-554.878093771032
 21
682.7514335013728
 31
0.0
  0
LINE
  5
EF
330
1F
100
AcDbEntity
  8
C-A
  6
Continuous
 62
     3
370
     9
100
AcDbLine
 10
-546.877933553747
 20
679.2159110404356
 30
0.0
 11
-554.878093771032
 21
679.2159110404356
 31
0.0
  0
LINE
  5
F0
330
1F
100
AcDbEntity
  8
C-A
  6
Continuous
 62
     3
370
     9
100
AcDbLine
 10
-546.877933553747
 20
675.6803580619197
 30
0.0
 11
-554.878093771032
 21
675.6803580619197
 31
0.0
  0
LINE
  5
F1
330
1F
100
AcDbEntity
  8
C-A
  6
Continuous
 62
     3
370
     9
100
AcDbLine
 10
-300.8776436367546
 20
682.7514335013728
 30
0.0
 11
-291.8779182949578
 21
682.7514335013728
 31
0.0
  0
LINE
  5
F2
330
1F
100
AcDbEntity
  8
C-A
  6
Continuous
 62
     3
370
     9
100
AcDbLine
 10
-300.8776436367546
 20
679.2159110404356
 30
0.0
 11
-291.8779182949578
 21
679.2159110404356
 31
0.0
  0
LINE
  5
F3
330
1F
100
AcDbEntity
  8
C-A
  6
Continuous
 62
     3
370
     9
100
AcDbLine
 10
-300.8776436367546
 20
675.6803580619197
 30
0.0
 11
-291.8779182949578
 21
675.6803580619197
 31
0.0
  0
LINE
  5
F4
330
1F
100
AcDbEntity
  8
C-A
  6
Continuous
 62
     3
370
     9
100
AcDbLine
 10
-315.8776436367546
 20
682.7514335013728
 30
0.0
 11
-306.8779182949578
 21
682.7514335013728
 31
0.0
  0
LINE
  5
F5
330
1F
100
AcDbEntity
  8
C-A
  6
Continuous
 62
     3
370
     9
100
AcDbLine
 10
-315.8776436367546
 20
679.2159110404356
 30
0.0
 11
-306.8779182949578
 21
679.2159110404356
 31
0.0
  0
LINE
  5
F6
330
1F
100
AcDbEntity
  8
C-A
  6
Continuous
 62
     3
370
     9
100
AcDbLine
 10
-315.8776436367546
 20
675.6803580619197
 30
0.0
 11
-306.8779182949578
 21
675.6803580619197
 31
0.0
  0
LINE
  5
F7
330
1F
100
AcDbEntity
  8
C-A
  6
Continuous
 62
     3
370
     9
100
AcDbLine
 10
-330.8776436367546
 20
682.7514335013728
 30
0.0
 11
-321.8779182949578
 21
682.7514335013728
 31
0.0
  0
LINE
  5
F8
330
1F
100
AcDbEntity
  8
C-A
  6
Continuous
 62
     3
370
     9
100
AcDbLine
 10
-330.8776436367546
 20
679.2159110404356
 30
0.0
 11
-321.8779182949578
 21
679.2159110404356
 31
0.0
  0
LINE
  5
F9
330
1F
100
AcDbEntity
  8
C-A
  6
Continuous
 62
     3
370
     9
100
AcDbLine
 10
-330.8776436367546
 20
675.6803580619197
 30
0.0
 11
-321.8779182949578
 21
675.6803580619197
 31
0.0
  0
LINE
  5
FA
330
1F
100
AcDbEntity
  8
C-A
  6
Continuous
 62
     3
370
     9
100
AcDbLine
 10
-345.8776436367546
 20
682.7514335013728
 30
0.0
 11
-336.8779182949578
 21
682.7514335013728
 31
0.0
  0
LINE
  5
FB
330
1F
100
AcDbEntity
  8
C-A
  6
Continuous
 62
     3
370
     9
100
AcDbLine
 10
-345.8776436367546
 20
679.2159110404356
 30
0.0
 11
-336.8779182949578
 21
679.2159110404356
 31
0.0
  0
LINE
  5
FC
330
1F
100
AcDbEntity
  8
C-A
  6
Continuous
 62
     3
370
     9
100
AcDbLine
 10
-345.8776436367546
 20
675.6803580619197
 30
0.0
 11
-336.8779182949578
 21
675.6803580619197
 31
0.0
  0
LINE
  5
FD
330
1F
100
AcDbEntity
  8
C-A
  6
Continuous
 62
     3
370
     9
100
AcDbLine
 10
-360.8776436367548
 20
682.7514335013728
 30
0.0
 11
-351.8779182949578
 21
682.7514335013728
 31
0.0
  0
LINE
  5
FE
330
1F
100
AcDbEntity
  8
C-A
  6
Continuous
 62
     3
370
     9
100
AcDbLine
 10
-360.8776436367548
 20
679.2159110404356
 30
0.0
 11
-351.8779182949578
 21
679.2159110404356
 31
0.0
  0
LINE
  5
FF
330
1F
100
AcDbEntity
  8
C-A
  6
Continuous
 62
     3
370
     9
100
AcDbLine
 10
-360.8776436367548
 20
675.6803580619197
 30
0.0
 11
-351.8779182949578
 21
675.6803580619197
 31
0.0
  0
LINE
  5
100
330
1F
100
AcDbEntity
  8
C-A
  6
Continuous
 62
     3
370
     9
100
AcDbLine
 10
-375.8776436367548
 20
682.7514335013728
 30
0.0
 11
-366.8779182949578
 21
682.7514335013728
 31
0.0
  0
LINE
  5
101
330
1F
100
AcDbEntity
  8
C-A
  6
Continuous
 62
     3
370
     9
100
AcDbLine
 10
-375.8776436367548
 20
679.2159110404356
 30
0.0
 11
-366.8779182949578
 21
679.2159110404356
 31
0.0
  0
LINE
  5
102
330
1F
100
AcDbEntity
  8
C-A
  6
Continuous
 62
     3
370
     9
100
AcDbLine
 10
-375.8776436367548
 20
675.6803580619197
 30
0.0
 11
-366.8779182949578
 21
675.6803580619197
 31
0.0
  0
LINE
  5
103
330
1F
100
AcDbEntity
  8
C-A
  6
Continuous
 62
     3
370
     9
100
AcDbLine
 10
-390.8776436367548
 20
682.7514335013728
 30
0.0
 11
-381.8779182949578
 21
682.7514335013728
 31
0.0
  0
LINE
  5
104
330
1F
100
AcDbEntity
  8
C-A
  6
Continuous
 62
     3
370
     9
100
AcDbLine
 10
-390.8776436367548
 20
679.2159110404356
 30
0.0
 11
-381.8779182949578
 21
679.2159110404356
 31
0.0
  0
LINE
  5
105
330
1F
100
AcDbEntity
  8
C-A
  6
Continuous
 62
     3
370
     9
100
AcDbLine
 10
-390.8776436367548
 20
675.6803580619197
 30
0.0
 11
-381.8779182949578
 21
675.6803580619197
 31
0.0
  0
LINE
  5
106
330
1F
100
AcDbEntity
  8
C-A
  6
Continuous
 62
     3
370
     9
100
AcDbLine
 10
-405.8776436367548
 20
682.7514335013728
 30
0.0
 11
-396.8779182949578
 21
682.7514335013728
 31
0.0
  0
LINE
  5
107
330
1F
100
AcDbEntity
  8
C-A
  6
Continuous
 62
     3
370
     9
100
AcDbLine
 10
-405.8776436367548
 20
679.2159110404356
 30
0.0
 11
-396.8779182949578
 21
679.2159110404356
 31
0.0
  0
LINE
  5
108
330
1F
100
AcDbEntity
  8
C-A
  6
Continuous
 62
     3
370
     9
100
AcDbLine
 10
-405.8776436367548
 20
675.6803580619197
 30
0.0
 11
-396.8779182949578
 21
675.6803580619197
 31
0.0
  0
LINE
  5
109
330
1F
100
AcDbEntity
  8
C-A
  6
Continuous
 62
     3
370
     9
100
AcDbLine
 10
-420.8776283779656
 20
682.7514335013728
 30
0.0
 11
-411.8779182949578
 21
682.7514335013728
 31
0.0
  0
LINE
  5
10A
330
1F
100
AcDbEntity
  8
C-A
  6
Continuous
 62
     3
370
     9
100
AcDbLine
 10
-420.8776283779656
 20
679.2159110404356
 30
0.0
 11
-411.8779182949578
 21
679.2159110404356
 31
0.0
  0
LINE
  5
10B
330
1F
100
AcDbEntity
  8
C-A
  6
Continuous
 62
     3
370
     9
100
AcDbLine
 10
-420.8776283779656
 20
675.6803580619197
 30
0.0
 11
-411.8779182949578
 21
675.6803580619197
 31
0.0
  0
LINE
  5
10C
330
1F
100
AcDbEntity
  8
C-A
  6
Continuous
 62
     3
370
     9
100
AcDbLine
 10
-435.8776283779656
 20
682.7514335013728
 30
0.0
 11
-426.877933553747
 21
682.7514335013728
 31
0.0
  0
LINE
  5
10D
330
1F
100
AcDbEntity
  8
C-A
  6
Continuous
 62
     3
370
     9
100
AcDbLine
 10
-435.8776283779656
 20
679.2159110404356
 30
0.0
 11
-426.877933553747
 21
679.2159110404356
 31
0.0
  0
LINE
  5
10E
330
1F
100
AcDbEntity
  8
C-A
  6
Continuous
 62
     3
370
     9
100
AcDbLine
 10
-435.8776283779656
 20
675.6803580619197
 30
0.0
 11
-426.877933553747
 21
675.6803580619197
 31
0.0
  0
LINE
  5
10F
330
1F
100
AcDbEntity
  8
C-A
  6
Continuous
 62
     3
370
     9
100
AcDbLine
 10
-450.8776283779656
 20
682.7514335013728
 30
0.0
 11
-441.877933553747
 21
682.7514335013728
 31
0.0
  0
LINE
  5
110
330
1F
100
AcDbEntity
  8
C-A
  6
Continuous
 62
     3
370
     9
100
AcDbLine
 10
-450.8776283779656
 20
679.2159110404356
 30
0.0
 11
-441.877933553747
 21
679.2159110404356
 31
0.0
  0
LINE
  5
111
330
1F
100
AcDbEntity
  8
C-A
  6
Continuous
 62
     3
370
     9
100
AcDbLine
 10
-450.8776283779656
 20
675.6803580619197
 30
0.0
 11
-441.877933553747
 21
675.6803580619197
 31
0.0
  0
LINE
  5
112
330
1F
100
AcDbEntity
  8
C-A
  6
Continuous
 62
     3
370
     9
100
AcDbLine
 10
-465.8776283779656
 20
682.7514335013728
 30
0.0
 11
-456.877933553747
 21
682.7514335013728
 31
0.0
  0
LINE
  5
113
330
1F
100
AcDbEntity
  8
C-A
  6
Continuous
 62
     3
370
     9
100
AcDbLine
 10
-465.8776283779656
 20
679.2159110404356
 30
0.0
 11
-456.877933553747
 21
679.2159110404356
 31
0.0
  0
LINE
  5
114
330
1F
100
AcDbEntity
  8
C-A
  6
Continuous
 62
     3
370
     9
100
AcDbLine
 10
-465.8776283779656
 20
675.6803580619197
 30
0.0
 11
-456.877933553747
 21
675.6803580619197
 31
0.0
  0
LINE
  5
115
330
1F
100
AcDbEntity
  8
C-A
  6
Continuous
 62
     3
370
     9
100
AcDbLine
 10
-480.8776283779656
 20
682.7514335013728
 30
0.0
 11
-471.877933553747
 21
682.7514335013728
 31
0.0
  0
LINE
  5
116
330
1F
100
AcDbEntity
  8
C-A
  6
Continuous
 62
     3
370
     9
100
AcDbLine
 10
-480.8776283779656
 20
679.2159110404356
 30
0.0
 11
-471.877933553747
 21
679.2159110404356
 31
0.0
  0
LINE
  5
117
330
1F
100
AcDbEntity
  8
C-A
  6
Continuous
 62
     3
370
     9
100
AcDbLine
 10
-480.8776283779656
 20
675.6803580619197
 30
0.0
 11
-471.877933553747
 21
675.6803580619197
 31
0.0
  0
LINE
  5
118
330
1F
100
AcDbEntity
  8
C-A
  6
Continuous
 62
     3
370
     9
100
AcDbLine
 10
-495.8776283779656
 20
682.7514335013728
 30
0.0
 11
-486.877933553747
 21
682.7514335013728
 31
0.0
  0
LINE
  5
119
330
1F
100
AcDbEntity
  8
C-A
  6
Continuous
 62
     3
370
     9
100
AcDbLine
 10
-495.8776283779656
 20
679.2159110404356
 30
0.0
 11
-486.877933553747
 21
679.2159110404356
 31
0.0
  0
LINE
  5
11A
330
1F
100
AcDbEntity
  8
C-A
  6
Continuous
 62
     3
370
     9
100
AcDbLine
 10
-495.8776283779656
 20
675.6803580619197
 30
0.0
 11
-486.877933553747
 21
675.6803580619197
 31
0.0
  0
LINE
  5
11B
330
1F
100
AcDbEntity
  8
C-A
  6
Continuous
 62
     3
370
     9
100
AcDbLine
 10
-510.8776283779656
 20
682.7514335013728
 30
0.0
 11
-501.877933553747
 21
682.7514335013728
 31
0.0
  0
LINE
  5
11C
330
1F
100
AcDbEntity
  8
C-A
  6
Continuous
 62
     3
370
     9
100
AcDbLine
 10
-510.8776283779656
 20
679.2159110404356
 30
0.0
 11
-501.877933553747
 21
679.2159110404356
 31
0.0
  0
LINE
  5
11D
330
1F
100
AcDbEntity
  8
C-A
  6
Continuous
 62
     3
370
     9
100
AcDbLine
 10
-510.8776283779656
 20
675.6803580619197
 30
0.0
 11
-501.877933553747
 21
675.6803580619197
 31
0.0
  0
LINE
  5
11E
330
1F
100
AcDbEntity
  8
C-A
  6
Continuous
 62
     3
370
     9
100
AcDbLine
 10
-525.8776283779656
 20
682.7514335013728
 30
0.0
 11
-516.877933553747
 21
682.7514335013728
 31
0.0
  0
LINE
  5
11F
330
1F
100
AcDbEntity
  8
C-A
  6
Continuous
 62
     3
370
     9
100
AcDbLine
 10
-525.8776283779656
 20
679.2159110404356
 30
0.0
 11
-516.877933553747
 21
679.2159110404356
 31
0.0
  0
LINE
  5
120
330
1F
100
AcDbEntity
  8
C-A
  6
Continuous
 62
     3
370
     9
100
AcDbLine
 10
-525.8776283779656
 20
675.6803580619197
 30
0.0
 11
-516.877933553747
 21
675.6803580619197
 31
0.0
  0
LINE
  5
121
330
1F
100
AcDbEntity
  8
C-A
  6
Continuous
 62
     3
370
     9
100
AcDbLine
 10
-531.877933553747
 20
851.2156668998102
 30
0.0
 11
-531.877933553747
 21
507.2161399222711
 31
0.0
  0
LINE
  5
122
330
1F
100
AcDbEntity
  8
C-A
  6
Continuous
 62
     3
370
     9
100
AcDbLine
 10
-540.8776283779656
 20
682.7514335013728
 30
0.0
 11
-531.877933553747
 21
682.7514335013728
 31
0.0
  0
LINE
  5
123
330
1F
100
AcDbEntity
  8
C-A
  6
Continuous
 62
     3
370
     9
100
AcDbLine
 10
-540.8776283779656
 20
679.2159110404356
 30
0.0
 11
-531.877933553747
 21
679.2159110404356
 31
0.0
  0
LINE
  5
124
330
1F
100
AcDbEntity
  8
C-A
  6
Continuous
 62
     3
370
     9
100
AcDbLine
 10
-540.8776283779656
 20
675.6803580619197
 30
0.0
 11
-531.877933553747
 21
675.6803580619197
 31
0.0
  0
LINE
  5
125
330
1F
100
AcDbEntity
  8
C-1
  6
JWW_DASHED3
 62
     2
370
     9
100
AcDbLine
 10
-535.8783607998407
 20
529.2154532767637
 30
0.0
 11
-535.8783607998407
 21
829.215850005279
 31
0.0
  0
LINE
  5
126
330
1F
100
AcDbEntity
  8
C-2
  6
Continuous
 62
     3
370
     9
100
AcDbLine
 10
362.614910074183
 20
468.6465293265684
 30
0.0
 11
328.2670096835577
 21
468.6465293265684
 31
0.0
  0
LINE
  5
127
330
1F
100
AcDbEntity
  8
C-2
  6
Continuous
 62
     3
370
     9
100
AcDbLine
 10
133.9183768710578
 20
468.6465293265684
 30
0.0
 11
168.2662772616828
 21
468.6465293265684
 31
0.0
  0
LINE
  5
128
330
1F
100
AcDbEntity
  8
C-2
  6
Continuous
 62
     3
370
     9
100
AcDbLine
 10
253.2674369296515
 20
468.6465293265684
 30
0.0
 11
318.2659720859016
 21
468.6465293265684
 31
0.0
  0
LINE
  5
129
330
1F
100
AcDbEntity
  8
C-2
  6
Continuous
 62
     3
370
     9
100
AcDbLine
 10
178.266826578089
 20
468.6465293265684
 30
0.0
 11
243.2658500155893
 21
468.6465293265684
 31
0.0
  0
LINE
  5
12A
330
1F
100
AcDbEntity
  8
C-2
  6
Continuous
 62
     3
370
     9
100
AcDbLine
 10
362.614910074183
 20
486.3242026664119
 30
0.0
 11
328.2670096835577
 21
486.3242026664119
 31
0.0
  0
LINE
  5
12B
330
1F
100
AcDbEntity
  8
C-2
  6
Continuous
 62
     3
370
     9
100
AcDbLine
 10
133.9183768710578
 20
486.3242026664119
 30
0.0
 11
168.2662772616828
 21
486.3242026664119
 31
0.0
  0
LINE
  5
12C
330
1F
100
AcDbEntity
  8
C-2
  6
Continuous
 62
     3
370
     9
100
AcDbLine
 10
253.2674369296515
 20
486.3242026664119
 30
0.0
 11
318.2659720859016
 21
486.3242026664119
 31
0.0
  0
LINE
  5
12D
330
1F
100
AcDbEntity
  8
C-2
  6
Continuous
 62
     3
370
     9
100
AcDbLine
 10
178.266826578089
 20
486.3242026664119
 30
0.0
 11
243.2658500155893
 21
486.3242026664119
 31
0.0
  0
LINE
  5
12E
330
1F
100
AcDbEntity
  8
C-2
  6
Continuous
 62
     3
370
     9
100
AcDbLine
 10
362.614910074183
 20
504.0018760062554
 30
0.0
 11
328.2670096835577
 21
504.0018760062554
 31
0.0
  0
LINE
  5
12F
330
1F
100
AcDbEntity
  8
C-2
  6
Continuous
 62
     3
370
     9
100
AcDbLine
 10
133.9183768710578
 20
504.0018760062554
 30
0.0
 11
168.2662772616828
 21
504.0018760062554
 31
0.0
  0
LINE
  5
130
330
1F
100
AcDbEntity
  8
C-2
  6
Continuous
 62
     3
370
     9
100
AcDbLine
 10
253.2674369296515
 20
504.0018760062554
 30
0.0
 11
318.2659720859016
 21
504.0018760062554
 31
0.0
  0
LINE
  5
131
330
1F
100
AcDbEntity
  8
C-2
  6
Continuous
 62
     3
370
     9
100
AcDbLine
 10
178.266826578089
 20
504.0018760062554
 30
0.0
 11
243.2658500155893
 21
504.0018760062554
 31
0.0
  0
LINE
  5
132
330
1F
100
AcDbEntity
  8
C-4
  6
Continuous
 62
     7
370
     9
100
AcDbLine
 10
131.4165458163703
 20
649.8254386283259
 30
0.0
 11
365.1182059726202
 21
649.8254386283259
 31
0.0
  0
LINE
  5
133
330
1F
100
AcDbEntity
  8
C-4
  6
Continuous
 62
     7
370
     9
100
AcDbLine
 10
131.4165458163703
 20
586.7081595755911
 30
0.0
 11
365.1182059726202
 21
586.7081595755911
 31
0.0
  0
LINE
  5
134
330
1F
100
AcDbEntity
  8
C-4
  6
Continuous
 62
     7
370
     9
100
AcDbLine
 10
338.266826578089
 20
534.2831107474666
 30
0.0
 11
338.266826578089
 21
589.7082206107478
 31
0.0
  0
LINE
  5
135
330
1F
100
AcDbEntity
  8
C-4
  6
Continuous
 62
     7
370
     9
100
AcDbLine
 10
308.2671927890266
 20
534.2831107474666
 30
0.0
 11
308.2671927890266
 21
652.825499663482
 31
0.0
  0
LINE
  5
136
330
1F
100
AcDbEntity
  8
C-4
  6
Continuous
 62
     7
370
     9
100
AcDbLine
 10
263.2667045077764
 20
534.2831107474666
 30
0.0
 11
263.2667045077764
 21
589.7082206107478
 31
0.0
  0
LINE
  5
137
330
1F
100
AcDbEntity
  8
C-4
  6
Continuous
 62
     7
370
     9
100
AcDbLine
 10
233.2670707187143
 20
534.2831107474666
 30
0.0
 11
233.2670707187143
 21
652.825499663482
 31
0.0
  0
LINE
  5
138
330
1F
100
AcDbEntity
  8
C-4
  6
Continuous
 62
     7
370
     9
100
AcDbLine
 10
188.2666434726204
 20
534.2831107474666
 30
0.0
 11
188.2666434726204
 21
589.7082206107478
 31
0.0
  0
LINE
  5
139
330
1F
100
AcDbEntity
  8
C-4
  6
Continuous
 62
     7
370
     9
100
AcDbLine
 10
158.2670096835577
 20
534.2831107474666
 30
0.0
 11
158.2670096835577
 21
652.825499663482
 31
0.0
  0
LINE
  5
13A
330
1F
100
AcDbEntity
  8
C-4
  6
Continuous
 62
     7
370
     9
100
AcDbLine
 10
376.7711600741828
 20
523.8232718802789
 30
0.0
 11
456.5594901523079
 21
523.8232718802789
 31
0.0
  0
LINE
  5
13B
330
1F
100
AcDbEntity
  8
C-4
  6
Continuous
 62
     7
370
     9
100
AcDbLine
 10
376.7711600741828
 20
448.8231650687555
 30
0.0
 11
456.5594901523079
 21
448.8231650687555
 31
0.0
  0
LINE
  5
13C
330
1F
100
AcDbEntity
  8
C-4
  6
Continuous
 62
     7
370
     9
100
AcDbLine
 10
453.5599784335577
 20
448.8231650687555
 30
0.0
 11
453.5599784335577
 21
523.8232718802789
 31
0.0
  0
LINE
  5
13D
330
1F
100
AcDbEntity
  8
C-2
  6
Continuous
 62
     3
370
     9
100
AcDbLine
 10
338.2673148593389
 20
521.3236228324274
 30
0.0
 11
338.2673148593389
 21
513.8237143851615
 31
0.0
  0
LINE
  5
13E
330
1F
100
AcDbEntity
  8
C-2
  6
Continuous
 62
     3
370
     9
100
AcDbLine
 10
338.2673148593389
 20
521.3236228324274
 30
0.0
 11
308.2676810702768
 21
521.3236228324274
 31
0.0
  0
LINE
  5
13F
330
1F
100
AcDbEntity
  8
C-2
  6
Continuous
 62
     3
370
     9
100
AcDbLine
 10
338.2673148593389
 20
521.3236228324274
 30
0.0
 11
335.7676810702768
 21
523.8237601615293
 31
0.0
  0
LINE
  5
140
330
1F
100
AcDbEntity
  8
C-2
  6
Continuous
 62
     3
370
     9
100
AcDbLine
 10
308.2676810702768
 20
513.8237143851615
 30
0.0
 11
308.2676810702768
 21
521.3236228324274
 31
0.0
  0
LINE
  5
141
330
1F
100
AcDbEntity
  8
C-2
  6
Continuous
 62
     3
370
     9
100
AcDbLine
 10
308.2676810702768
 20
521.3236228324274
 30
0.0
 11
310.7678031405891
 21
523.8237601615293
 31
0.0
  0
LINE
  5
142
330
1F
100
AcDbEntity
  8
C-2
  6
Continuous
 62
     3
370
     9
100
AcDbLine
 10
328.266765542933
 20
508.8239432669974
 30
0.0
 11
328.266765542933
 21
448.8231650687555
 31
0.0
  0
LINE
  5
143
330
1F
100
AcDbEntity
  8
C-2
  6
Continuous
 62
     3
370
     9
100
AcDbLine
 10
318.2672538241829
 20
508.8234397269588
 30
0.0
 11
318.2652396640268
 21
448.8231650687555
 31
0.0
  0
LINE
  5
144
330
1F
100
AcDbEntity
  8
C-2
  6
Continuous
 62
     3
370
     9
100
AcDbLine
 10
333.268047281214
 20
513.8237143851615
 30
0.0
 11
338.2673148593389
 21
513.8237143851615
 31
0.0
  0
LINE
  5
145
330
1F
100
AcDbEntity
  8
C-2
  6
Continuous
 62
     3
370
     9
100
AcDbLine
 10
313.2674369296515
 20
513.8237143851615
 30
0.0
 11
308.2676810702768
 21
513.8237143851615
 31
0.0
  0
LINE
  5
146
330
1F
100
AcDbEntity
  8
C-2
  6
Continuous
 62
     3
370
     9
100
AcDbLine
 10
263.2671927890266
 20
521.3236228324274
 30
0.0
 11
263.2671927890266
 21
513.8237143851615
 31
0.0
  0
LINE
  5
147
330
1F
100
AcDbEntity
  8
C-2
  6
Continuous
 62
     3
370
     9
100
AcDbLine
 10
263.2671927890266
 20
521.3236228324274
 30
0.0
 11
233.2675589999641
 21
521.3236228324274
 31
0.0
  0
LINE
  5
148
330
1F
100
AcDbEntity
  8
C-2
  6
Continuous
 62
     3
370
     9
100
AcDbLine
 10
263.2671927890266
 20
521.3236228324274
 30
0.0
 11
260.7670707187143
 21
523.8237601615293
 31
0.0
  0
LINE
  5
149
330
1F
100
AcDbEntity
  8
C-2
  6
Continuous
 62
     3
370
     9
100
AcDbLine
 10
233.2675589999641
 20
513.8237143851615
 30
0.0
 11
233.2675589999641
 21
521.3236228324274
 31
0.0
  0
LINE
  5
14A
330
1F
100
AcDbEntity
  8
C-2
  6
Continuous
 62
     3
370
     9
100
AcDbLine
 10
233.2675589999641
 20
521.3236228324274
 30
0.0
 11
235.7677421054328
 21
523.8237601615293
 31
0.0
  0
LINE
  5
14B
330
1F
100
AcDbEntity
  8
C-2
  6
Continuous
 62
     3
370
     9
100
AcDbLine
 10
253.2676810702768
 20
508.8239432669974
 30
0.0
 11
253.2676810702768
 21
448.8231650687555
 31
0.0
  0
LINE
  5
14C
330
1F
100
AcDbEntity
  8
C-2
  6
Continuous
 62
     3
370
     9
100
AcDbLine
 10
243.2671317538703
 20
508.8234397269588
 30
0.0
 11
243.2651175937141
 21
448.8231650687555
 31
0.0
  0
LINE
  5
14D
330
1F
100
AcDbEntity
  8
C-2
  6
Continuous
 62
     3
370
     9
100
AcDbLine
 10
258.2679252109014
 20
513.8237143851615
 30
0.0
 11
263.2671927890266
 21
513.8237143851615
 31
0.0
  0
LINE
  5
14E
330
1F
100
AcDbEntity
  8
C-2
  6
Continuous
 62
     3
370
     9
100
AcDbLine
 10
238.2673758944955
 20
513.8237143851615
 30
0.0
 11
233.2675589999641
 21
513.8237143851615
 31
0.0
  0
LINE
  5
14F
330
1F
100
AcDbEntity
  8
C-2
  6
Continuous
 62
     3
370
     9
100
AcDbLine
 10
188.2671317538703
 20
521.3236228324274
 30
0.0
 11
188.2671317538703
 21
513.8237143851615
 31
0.0
  0
LINE
  5
150
330
1F
100
AcDbEntity
  8
C-2
  6
Continuous
 62
     3
370
     9
100
AcDbLine
 10
188.2671317538703
 20
521.3236228324274
 30
0.0
 11
158.2674979648078
 21
521.3236228324274
 31
0.0
  0
LINE
  5
151
330
1F
100
AcDbEntity
  8
C-2
  6
Continuous
 62
     3
370
     9
100
AcDbLine
 10
188.2671317538703
 20
521.3236228324274
 30
0.0
 11
185.7670096835577
 21
523.8237601615293
 31
0.0
  0
LINE
  5
152
330
1F
100
AcDbEntity
  8
C-2
  6
Continuous
 62
     3
370
     9
100
AcDbLine
 10
158.2674979648078
 20
513.8237143851615
 30
0.0
 11
158.2674979648078
 21
521.3236228324274
 31
0.0
  0
LINE
  5
153
330
1F
100
AcDbEntity
  8
C-2
  6
Continuous
 62
     3
370
     9
100
AcDbLine
 10
158.2674979648078
 20
521.3236228324274
 30
0.0
 11
160.7676200351202
 21
523.8237601615293
 31
0.0
  0
LINE
  5
154
330
1F
100
AcDbEntity
  8
C-2
  6
Continuous
 62
     3
370
     9
100
AcDbLine
 10
131.4165458163703
 20
448.8231650687555
 30
0.0
 11
365.1138114413703
 21
448.8231650687555
 31
0.0
  0
LINE
  5
155
330
1F
100
AcDbEntity
  8
C-2
  6
Continuous
 62
     3
370
     9
100
AcDbLine
 10
365.1193046054328
 20
523.8237601615293
 30
0.0
 11
131.4165458163703
 21
523.8237601615293
 31
0.0
  0
LINE
  5
156
330
1F
100
AcDbEntity
  8
C-2
  6
Continuous
 62
     3
370
     9
100
AcDbLine
 10
365.1193046054328
 20
523.8168326712946
 30
0.0
 11
365.1188163241827
 21
513.8172751761778
 31
0.0
  0
LINE
  5
157
330
1F
100
AcDbEntity
  8
C-2
  6
Continuous
 62
     3
370
     9
100
AcDbLine
 10
365.1133231601202
 20
448.8172217704158
 30
0.0
 11
365.1138114413703
 21
458.816771636138
 31
0.0
  0
LINE
  5
158
330
1F
100
AcDbEntity
  8
C-2
  6
Continuous
 62
     3
370
     9
100
AcDbLine
 10
178.2675589999641
 20
508.8239432669974
 30
0.0
 11
178.2675589999641
 21
448.8231650687555
 31
0.0
  0
LINE
  5
159
330
1F
100
AcDbEntity
  8
C-2
  6
Continuous
 62
     3
370
     9
100
AcDbLine
 10
168.2670096835577
 20
508.8234397269588
 30
0.0
 11
168.2650565585578
 21
448.8231650687555
 31
0.0
  0
LINE
  5
15A
330
1F
100
AcDbEntity
  8
C-2
  6
Continuous
 62
     3
370
     9
100
AcDbLine
 10
183.2673148593389
 20
513.8237143851615
 30
0.0
 11
188.2671317538703
 21
513.8237143851615
 31
0.0
  0
LINE
  5
15B
330
1F
100
AcDbEntity
  8
C-2
  6
Continuous
 62
     3
370
     9
100
AcDbLine
 10
163.2672538241829
 20
513.8237143851615
 30
0.0
 11
158.2674979648078
 21
513.8237143851615
 31
0.0
  0
LINE
  5
15C
330
1F
100
AcDbEntity
  8
C-2
  6
Continuous
 62
     3
370
     9
100
AcDbLine
 10
131.4165458163703
 20
523.8237601615293
 30
0.0
 11
131.4165458163703
 21
513.8237143851615
 31
0.0
  0
LINE
  5
15D
330
1F
100
AcDbEntity
  8
C-2
  6
Continuous
 62
     3
370
     9
100
AcDbLine
 10
131.4165458163703
 20
448.8231650687555
 30
0.0
 11
131.4165458163703
 21
458.8237067557674
 31
0.0
  0
LINE
  5
15E
330
1F
100
AcDbEntity
  8
C-5
  6
Continuous
 62
     7
370
     9
100
AcDbLine
 10
283.767253824183
 20
1043.459014067778
 30
0.0
 11
298.9865531405891
 21
1063.293181548248
 31
0.0
  0
LINE
  5
15F
330
1F
100
AcDbEntity
  8
C-5
  6
Continuous
 62
     7
370
     9
100
AcDbLine
 10
283.767253824183
 20
1043.459014067778
 30
0.0
 11
293.3342704257453
 21
1066.556304106842
 31
0.0
  0
LINE
  5
160
330
1F
100
AcDbEntity
  8
C-5
  6
Continuous
 62
     7
370
     9
100
AcDbLine
 10
283.767253824183
 20
1043.459014067778
 30
0.0
 11
340.1476249179328
 21
1141.112456450591
 31
0.0
  0
LINE
  5
161
330
1F
100
AcDbEntity
  8
C-4
  6
Continuous
 62
     7
370
     9
100
AcDbLine
 10
309.113933511683
 20
1202.725493559967
 30
0.0
 11
309.113933511683
 21
1253.902495513092
 31
0.0
  0
LINE
  5
162
330
1F
100
AcDbEntity
  8
C-4
  6
Continuous
 62
     7
370
     9
100
AcDbLine
 10
249.1146659335578
 20
1211.627593169341
 30
0.0
 11
249.1146659335578
 21
1253.902495513092
 31
0.0
  0
LINE
  5
163
330
1F
100
AcDbEntity
  8
C-4
  6
Continuous
 62
     7
370
     9
100
AcDbLine
 10
249.1146659335578
 20
1250.902434477935
 30
0.0
 11
309.113933511683
 21
1250.902434477935
 31
0.0
  0
LINE
  5
164
330
1F
100
AcDbEntity
  8
C-4
  6
Continuous
 62
     7
370
     9
100
AcDbLine
 10
391.5658378085578
 20
981.8291922904353
 30
0.0
 11
413.4774589023078
 21
1054.866240630279
 31
0.0
  0
LINE
  5
165
330
1F
100
AcDbEntity
  8
C-4
  6
Continuous
 62
     7
370
     9
100
AcDbLine
 10
319.5702933749641
 20
1008.648406157623
 30
0.0
 11
395.8760184726205
 21
985.7562552787164
 31
0.0
  0
LINE
  5
166
330
1F
100
AcDbEntity
  8
C-4
  6
Continuous
 62
     7
370
     9
100
AcDbLine
 10
318.1334647616828
 20
1003.85922158731
 30
0.0
 11
394.4391288241829
 21
980.9670707084041
 31
0.0
  0
LINE
  5
167
330
1F
100
AcDbEntity
  8
C-4
  6
Continuous
 62
     7
370
     9
100
AcDbLine
 10
237.8640555819953
 20
1158.285430083404
 30
0.0
 11
174.4009208163703
 21
1158.285430083404
 31
0.0
  0
LINE
  5
168
330
1F
100
AcDbEntity
  8
C-4
  6
Continuous
 62
     7
370
     9
100
AcDbLine
 10
177.4009818515268
 20
1118.285246977935
 30
0.0
 11
177.4009818515268
 21
1158.285430083404
 31
0.0
  0
LINE
  5
169
330
1F
100
AcDbEntity
  8
C-4
  6
Continuous
 62
     7
370
     9
100
AcDbLine
 10
237.8640555819953
 20
1118.285246977935
 30
0.0
 11
174.4009208163703
 21
1118.285246977935
 31
0.0
  0
LINE
  5
16A
330
1F
100
AcDbEntity
  8
C-4
  6
Continuous
 62
     7
370
     9
100
AcDbLine
 10
177.4009818515268
 20
1038.285369048247
 30
0.0
 11
177.4009818515268
 21
1118.285246977935
 31
0.0
  0
LINE
  5
16B
330
1F
100
AcDbEntity
  8
C-4
  6
Continuous
 62
     7
370
     9
100
AcDbLine
 10
237.8640555819953
 20
1038.285369048247
 30
0.0
 11
174.4009208163703
 21
1038.285369048247
 31
0.0
  0
LINE
  5
16C
330
1F
100
AcDbEntity
  8
C-4
  6
Continuous
 62
     7
370
     9
100
AcDbLine
 10
177.4009818515268
 20
1028.285796294342
 30
0.0
 11
177.4009818515268
 21
1038.285369048247
 31
0.0
  0
LINE
  5
16D
330
1F
100
AcDbEntity
  8
C-4
  6
Continuous
 62
     7
370
     9
100
AcDbLine
 10
237.8640555819953
 20
1028.285796294342
 30
0.0
 11
174.4009208163703
 21
1028.285796294342
 31
0.0
  0
LINE
  5
16E
330
1F
100
AcDbEntity
  8
C-4
  6
Continuous
 62
     7
370
     9
100
AcDbLine
 10
177.4009818515268
 20
948.2854300834043
 30
0.0
 11
177.4009818515268
 21
1028.285796294342
 31
0.0
  0
LINE
  5
16F
330
1F
100
AcDbEntity
  8
C-4
  6
Continuous
 62
     7
370
     9
100
AcDbLine
 10
237.8640555819953
 20
948.2854300834043
 30
0.0
 11
174.4009208163703
 21
948.2854300834043
 31
0.0
  0
LINE
  5
170
330
1F
100
AcDbEntity
  8
C-4
  6
Continuous
 62
     7
370
     9
100
AcDbLine
 10
237.8640555819953
 20
908.2852469779351
 30
0.0
 11
174.4009208163703
 21
908.2852469779351
 31
0.0
  0
LINE
  5
171
330
1F
100
AcDbEntity
  8
C-4
  6
Continuous
 62
     7
370
     9
100
AcDbLine
 10
177.4009818515268
 20
908.2852469779351
 30
0.0
 11
177.4009818515268
 21
948.2854300834043
 31
0.0
  0
LINE
  5
172
330
1F
100
AcDbEntity
  8
C-2
  6
Continuous
 62
     3
370
     9
100
AcDbLine
 10
249.1146659335578
 20
1165.005950102935
 30
0.0
 11
309.113933511683
 21
1147.005095610748
 31
0.0
  0
LINE
  5
173
330
1F
100
AcDbEntity
  8
C-2
  6
Continuous
 62
     3
370
     9
100
AcDbLine
 10
309.113933511683
 20
1129.565581450591
 30
0.0
 11
249.1146659335578
 21
1111.564726958404
 31
0.0
  0
LINE
  5
174
330
1F
100
AcDbEntity
  8
C-2
  6
Continuous
 62
     3
370
     9
100
AcDbLine
 10
304.1141776523077
 20
1133.285552153716
 30
0.0
 11
254.1144217929329
 21
1118.285246977935
 31
0.0
  0
LINE
  5
175
330
1F
100
AcDbEntity
  8
C-2
  6
Continuous
 62
     3
370
     9
100
AcDbLine
 10
304.1141776523077
 20
1133.285552153716
 30
0.0
 11
304.1141776523077
 21
1143.285124907623
 31
0.0
  0
LINE
  5
176
330
1F
100
AcDbEntity
  8
C-2
  6
Continuous
 62
     3
370
     9
100
AcDbLine
 10
254.1144217929329
 20
1158.285430083404
 30
0.0
 11
304.1141776523077
 21
1143.285124907623
 31
0.0
  0
LINE
  5
177
330
1F
100
AcDbEntity
  8
C-2
  6
Continuous
 62
     3
370
     9
100
AcDbLine
 10
254.1144217929329
 20
1118.285246977935
 30
0.0
 11
254.1144217929329
 21
1158.285430083404
 31
0.0
  0
LINE
  5
178
330
1F
100
AcDbEntity
  8
C-2
  6
Continuous
 62
     3
370
     9
100
AcDbLine
 10
309.113933511683
 20
1060.00619424356
 30
0.0
 11
249.1146659335578
 21
1042.005339751373
 31
0.0
  0
LINE
  5
179
330
1F
100
AcDbEntity
  8
C-2
  6
Continuous
 62
     3
370
     9
100
AcDbLine
 10
249.1146659335578
 20
1024.565825591216
 30
0.0
 11
309.113933511683
 21
1006.564971099029
 31
0.0
  0
LINE
  5
17A
330
1F
100
AcDbEntity
  8
C-2
  6
Continuous
 62
     3
370
     9
100
AcDbLine
 10
254.1144217929329
 20
1028.285796294342
 30
0.0
 11
304.1141776523077
 21
1013.28549111856
 31
0.0
  0
LINE
  5
17B
330
1F
100
AcDbEntity
  8
C-2
  6
Continuous
 62
     3
370
     9
100
AcDbLine
 10
254.1144217929329
 20
1028.285796294342
 30
0.0
 11
254.1144217929329
 21
1038.285369048247
 31
0.0
  0
LINE
  5
17C
330
1F
100
AcDbEntity
  8
C-2
  6
Continuous
 62
     3
370
     9
100
AcDbLine
 10
304.1141776523077
 20
1053.285674224028
 30
0.0
 11
254.1144217929329
 21
1038.285369048247
 31
0.0
  0
LINE
  5
17D
330
1F
100
AcDbEntity
  8
C-2
  6
Continuous
 62
     3
370
     9
100
AcDbLine
 10
304.1141776523077
 20
1013.28549111856
 30
0.0
 11
304.1141776523077
 21
1053.285674224028
 31
0.0
  0
LINE
  5
17E
330
1F
100
AcDbEntity
  8
C-2
  6
Continuous
 62
     3
370
     9
100
AcDbLine
 10
249.1146659335578
 20
955.0059501029352
 30
0.0
 11
309.113933511683
 21
937.0050956107474
 31
0.0
  0
LINE
  5
17F
330
1F
100
AcDbEntity
  8
C-2
  6
Continuous
 62
     3
370
     9
100
AcDbLine
 10
309.113933511683
 20
919.5655814505915
 30
0.0
 11
249.1146659335578
 21
901.5647269584036
 31
0.0
  0
LINE
  5
180
330
1F
100
AcDbEntity
  8
C-2
  6
Continuous
 62
     3
370
     9
100
AcDbLine
 10
304.1141776523077
 20
923.2855521537164
 30
0.0
 11
254.1144217929329
 21
908.2852469779351
 31
0.0
  0
LINE
  5
181
330
1F
100
AcDbEntity
  8
C-2
  6
Continuous
 62
     3
370
     9
100
AcDbLine
 10
304.1141776523077
 20
923.2855521537164
 30
0.0
 11
304.1141776523077
 21
933.2851249076231
 31
0.0
  0
LINE
  5
182
330
1F
100
AcDbEntity
  8
C-2
  6
Continuous
 62
     3
370
     9
100
AcDbLine
 10
254.1144217929329
 20
948.2854300834043
 30
0.0
 11
304.1141776523077
 21
933.2851249076231
 31
0.0
  0
LINE
  5
183
330
1F
100
AcDbEntity
  8
C-2
  6
Continuous
 62
     3
370
     9
100
AcDbLine
 10
254.1144217929329
 20
908.2852469779351
 30
0.0
 11
254.1144217929329
 21
948.2854300834043
 31
0.0
  0
LINE
  5
184
330
1F
100
AcDbEntity
  8
C-2
  6
Continuous
 62
     3
370
     9
100
AcDbLine
 10
309.113933511683
 20
852.0465384818414
 30
0.0
 11
309.113933511683
 21
1191.402556548248
 31
0.0
  0
LINE
  5
185
330
1F
100
AcDbEntity
  8
C-2
  6
Continuous
 62
     3
370
     9
100
AcDbLine
 10
249.1146659335578
 20
865.5312186576231
 30
0.0
 11
249.1146659335578
 21
1204.887236724028
 31
0.0
  0
LINE
  5
186
330
1F
100
AcDbEntity
  8
C-5
  6
Continuous
 62
     7
370
     9
100
AcDbLine
 10
340.1476249179328
 20
1141.112456450591
 30
0.0
 11
585.857097574183
 21
1141.112456450591
 31
0.0
  0
LINE
  5
187
330
1F
100
AcDbEntity
  8
C-5
  6
Continuous
 62
     7
370
     9
100
AcDbLine
 10
60.36881632418286
 20
789.0853568412166
 30
0.0
 11
498.4038505038703
 21
789.0853568412166
 31
0.0
  0
LINE
  5
188
330
1F
100
AcDbEntity
  8
C-5
  6
Continuous
 62
     7
370
     9
100
AcDbLine
 10
526.6227225741827
 20
331.2162162162164
 30
0.0
 11
51.62229532808908
 21
331.2162162162164
 31
0.0
  0
LINE
  5
189
330
1F
100
AcDbEntity
  8
C-5
  6
Continuous
 62
     7
370
     9
100
AcDbLine
 10
526.6227225741827
 20
396.2157737113336
 30
0.0
 11
526.6227225741827
 21
331.2162162162164
 31
0.0
  0
LINE
  5
18A
330
1F
100
AcDbEntity
  8
C-5
  6
Continuous
 62
     7
370
     9
100
AcDbLine
 10
51.62229532808908
 20
396.2157737113336
 30
0.0
 11
526.6227225741827
 21
396.2157737113336
 31
0.0
  0
LINE
  5
18B
330
1F
100
AcDbEntity
  8
C-5
  6
Continuous
 62
     7
370
     9
100
AcDbLine
 10
51.62229532808908
 20
331.2162162162164
 30
0.0
 11
51.62229532808908
 21
396.2157737113336
 31
0.0
  0
LINE
  5
18C
330
1F
100
AcDbEntity
  8
C-A
  6
Continuous
 62
     6
370
     9
100
AcDbLine
 10
-554.878093771032
 20
752.7278739310606
 30
0.0
 11
-560.8782234707392
 21
750.9278251029349
 31
0.0
  0
LINE
  5
18D
330
1F
100
AcDbEntity
  8
C-A
  6
Continuous
 62
     6
370
     9
100
AcDbLine
 10
-560.8782234707392
 20
749.1837760306697
 30
0.0
 11
-554.878093771032
 21
747.3837272025446
 31
0.0
  0
LINE
  5
18E
330
1F
100
AcDbEntity
  8
C-A
  6
Continuous
 62
     6
370
     9
100
AcDbLine
 10
-560.3782921352899
 20
749.5558768607481
 30
0.0
 11
-555.3780251064813
 21
748.0556022025445
 31
0.0
  0
LINE
  5
18F
330
1F
100
AcDbEntity
  8
C-A
  6
Continuous
 62
     6
370
     9
100
AcDbLine
 10
-560.3782921352899
 20
749.5558768607481
 30
0.0
 11
-560.3782921352899
 21
750.5557242728571
 31
0.0
  0
LINE
  5
190
330
1F
100
AcDbEntity
  8
C-A
  6
Continuous
 62
     6
370
     9
100
AcDbLine
 10
-555.3780251064813
 20
752.0555106498102
 30
0.0
 11
-560.3782921352899
 21
750.5557242728571
 31
0.0
  0
LINE
  5
191
330
1F
100
AcDbEntity
  8
C-A
  6
Continuous
 62
     6
370
     9
100
AcDbLine
 10
-555.3780251064813
 20
748.0556022025445
 30
0.0
 11
-555.3780251064813
 21
752.0555106498102
 31
0.0
  0
LINE
  5
192
330
1F
100
AcDbEntity
  8
C-A
  6
Continuous
 62
     6
370
     9
100
AcDbLine
 10
-560.8782234707392
 20
742.2279044486385
 30
0.0
 11
-554.878093771032
 21
740.4278556205134
 31
0.0
  0
LINE
  5
193
330
1F
100
AcDbEntity
  8
C-A
  6
Continuous
 62
     6
370
     9
100
AcDbLine
 10
-554.878093771032
 20
738.6838065482476
 30
0.0
 11
-560.8782234707392
 21
736.8837577201231
 31
0.0
  0
LINE
  5
194
330
1F
100
AcDbEntity
  8
C-A
  6
Continuous
 62
     6
370
     9
100
AcDbLine
 10
-555.3780251064813
 20
739.055907378326
 30
0.0
 11
-560.3782921352899
 21
737.5556327201224
 31
0.0
  0
LINE
  5
195
330
1F
100
AcDbEntity
  8
C-A
  6
Continuous
 62
     6
370
     9
100
AcDbLine
 10
-555.3780251064813
 20
739.055907378326
 30
0.0
 11
-555.3780251064813
 21
740.0557547904356
 31
0.0
  0
LINE
  5
196
330
1F
100
AcDbEntity
  8
C-A
  6
Continuous
 62
     6
370
     9
100
AcDbLine
 10
-560.3782921352899
 20
741.5555411673887
 30
0.0
 11
-555.3780251064813
 21
740.0557547904356
 31
0.0
  0
LINE
  5
197
330
1F
100
AcDbEntity
  8
C-A
  6
Continuous
 62
     6
370
     9
100
AcDbLine
 10
-560.3782921352899
 20
737.5556327201224
 30
0.0
 11
-560.3782921352899
 21
741.5555411673887
 31
0.0
  0
LINE
  5
198
330
1F
100
AcDbEntity
  8
C-A
  6
Continuous
 62
     6
370
     9
100
AcDbLine
 10
-554.878093771032
 20
773.7278128959036
 30
0.0
 11
-560.8782234707392
 21
771.9277640677791
 31
0.0
  0
LINE
  5
199
330
1F
100
AcDbEntity
  8
C-A
  6
Continuous
 62
     6
370
     9
100
AcDbLine
 10
-560.8782234707392
 20
770.1837149955134
 30
0.0
 11
-554.878093771032
 21
768.3836966849668
 31
0.0
  0
LINE
  5
19A
330
1F
100
AcDbEntity
  8
C-A
  6
Continuous
 62
     6
370
     9
100
AcDbLine
 10
-560.3782921352899
 20
770.5558158255911
 30
0.0
 11
-555.3780251064813
 21
769.0555411673887
 31
0.0
  0
LINE
  5
19B
330
1F
100
AcDbEntity
  8
C-A
  6
Continuous
 62
     6
370
     9
100
AcDbLine
 10
-560.3782921352899
 20
770.5558158255911
 30
0.0
 11
-560.3782921352899
 21
771.5556937552793
 31
0.0
  0
LINE
  5
19C
330
1F
100
AcDbEntity
  8
C-A
  6
Continuous
 62
     6
370
     9
100
AcDbLine
 10
-555.3780251064813
 20
773.0554496146539
 30
0.0
 11
-560.3782921352899
 21
771.5556937552793
 31
0.0
  0
LINE
  5
19D
330
1F
100
AcDbEntity
  8
C-A
  6
Continuous
 62
     6
370
     9
100
AcDbLine
 10
-555.3780251064813
 20
769.0555411673887
 30
0.0
 11
-555.3780251064813
 21
773.0554496146539
 31
0.0
  0
LINE
  5
19E
330
1F
100
AcDbEntity
  8
C-A
  6
Continuous
 62
     6
370
     9
100
AcDbLine
 10
-560.8782234707392
 20
763.2278434134821
 30
0.0
 11
-554.878093771032
 21
761.427794585357
 31
0.0
  0
LINE
  5
19F
330
1F
100
AcDbEntity
  8
C-A
  6
Continuous
 62
     6
370
     9
100
AcDbLine
 10
-554.878093771032
 20
759.6837455130918
 30
0.0
 11
-560.8782234707392
 21
757.8837272025447
 31
0.0
  0
LINE
  5
1A0
330
1F
100
AcDbEntity
  8
C-A
  6
Continuous
 62
     6
370
     9
100
AcDbLine
 10
-555.3780251064813
 20
760.0558463431696
 30
0.0
 11
-560.3782921352899
 21
758.5555716849666
 31
0.0
  0
LINE
  5
1A1
330
1F
100
AcDbEntity
  8
C-A
  6
Continuous
 62
     6
370
     9
100
AcDbLine
 10
-555.3780251064813
 20
760.0558463431696
 30
0.0
 11
-555.3780251064813
 21
761.0556937552786
 31
0.0
  0
LINE
  5
1A2
330
1F
100
AcDbEntity
  8
C-A
  6
Continuous
 62
     6
370
     9
100
AcDbLine
 10
-560.3782921352899
 20
762.5554801322318
 30
0.0
 11
-555.3780251064813
 21
761.0556937552786
 31
0.0
  0
LINE
  5
1A3
330
1F
100
AcDbEntity
  8
C-A
  6
Continuous
 62
     6
370
     9
100
AcDbLine
 10
-560.3782921352899
 20
758.5555716849666
 30
0.0
 11
-560.3782921352899
 21
762.5554801322318
 31
0.0
  0
LINE
  5
1A4
330
1F
100
AcDbEntity
  8
C-A
  6
Continuous
 62
     6
370
     9
100
AcDbLine
 10
-554.878093771032
 20
794.7277518607478
 30
0.0
 11
-560.8782234707392
 21
792.9277335502007
 31
0.0
  0
LINE
  5
1A5
330
1F
100
AcDbEntity
  8
C-A
  6
Continuous
 62
     6
370
     9
100
AcDbLine
 10
-560.8782234707392
 20
791.1836844779356
 30
0.0
 11
-554.878093771032
 21
789.3836356498099
 31
0.0
  0
LINE
  5
1A6
330
1F
100
AcDbEntity
  8
C-A
  6
Continuous
 62
     6
370
     9
100
AcDbLine
 10
-560.3782921352899
 20
791.5557853080134
 30
0.0
 11
-555.3780251064813
 21
790.0554801322318
 31
0.0
  0
LINE
  5
1A7
330
1F
100
AcDbEntity
  8
C-A
  6
Continuous
 62
     6
370
     9
100
AcDbLine
 10
-560.3782921352899
 20
791.5557853080134
 30
0.0
 11
-560.3782921352899
 21
792.5556327201224
 31
0.0
  0
LINE
  5
1A8
330
1F
100
AcDbEntity
  8
C-A
  6
Continuous
 62
     6
370
     9
100
AcDbLine
 10
-555.3780251064813
 20
794.0554190970755
 30
0.0
 11
-560.3782921352899
 21
792.5556327201224
 31
0.0
  0
LINE
  5
1A9
330
1F
100
AcDbEntity
  8
C-A
  6
Continuous
 62
     6
370
     9
100
AcDbLine
 10
-555.3780251064813
 20
790.0554801322318
 30
0.0
 11
-555.3780251064813
 21
794.0554190970755
 31
0.0
  0
LINE
  5
1AA
330
1F
100
AcDbEntity
  8
C-A
  6
Continuous
 62
     6
370
     9
100
AcDbLine
 10
-560.8782234707392
 20
784.2277823783257
 30
0.0
 11
-554.878093771032
 21
782.4277640677786
 31
0.0
  0
LINE
  5
1AB
330
1F
100
AcDbEntity
  8
C-A
  6
Continuous
 62
     6
370
     9
100
AcDbLine
 10
-554.878093771032
 20
780.6837149955135
 30
0.0
 11
-560.8782234707392
 21
778.8836661673884
 31
0.0
  0
LINE
  5
1AC
330
1F
100
AcDbEntity
  8
C-A
  6
Continuous
 62
     6
370
     9
100
AcDbLine
 10
-555.3780251064813
 20
781.0557853080132
 30
0.0
 11
-560.3782921352899
 21
779.5555106498102
 31
0.0
  0
LINE
  5
1AD
330
1F
100
AcDbEntity
  8
C-A
  6
Continuous
 62
     6
370
     9
100
AcDbLine
 10
-555.3780251064813
 20
781.0557853080132
 30
0.0
 11
-555.3780251064813
 21
782.0556632377009
 31
0.0
  0
LINE
  5
1AE
330
1F
100
AcDbEntity
  8
C-A
  6
Continuous
 62
     6
370
     9
100
AcDbLine
 10
-560.3782921352899
 20
783.555449614654
 30
0.0
 11
-555.3780251064813
 21
782.0556632377009
 31
0.0
  0
LINE
  5
1AF
330
1F
100
AcDbEntity
  8
C-A
  6
Continuous
 62
     6
370
     9
100
AcDbLine
 10
-560.3782921352899
 20
779.5555106498102
 30
0.0
 11
-560.3782921352899
 21
783.555449614654
 31
0.0
  0
LINE
  5
1B0
330
1F
100
AcDbEntity
  8
C-A
  6
Continuous
 62
     6
370
     9
100
AcDbLine
 10
-554.878093771032
 20
815.7277213431695
 30
0.0
 11
-560.8782234707392
 21
813.927672515045
 31
0.0
  0
LINE
  5
1B1
330
1F
100
AcDbEntity
  8
C-A
  6
Continuous
 62
     6
370
     9
100
AcDbLine
 10
-560.8782234707392
 20
812.1836234427786
 30
0.0
 11
-554.878093771032
 21
810.3835746146541
 31
0.0
  0
LINE
  5
1B2
330
1F
100
AcDbEntity
  8
C-A
  6
Continuous
 62
     6
370
     9
100
AcDbLine
 10
-560.3782921352899
 20
812.555724272857
 30
0.0
 11
-555.3780251064813
 21
811.055449614654
 31
0.0
  0
LINE
  5
1B3
330
1F
100
AcDbEntity
  8
C-A
  6
Continuous
 62
     6
370
     9
100
AcDbLine
 10
-560.3782921352899
 20
812.555724272857
 30
0.0
 11
-560.3782921352899
 21
813.5555716849666
 31
0.0
  0
LINE
  5
1B4
330
1F
100
AcDbEntity
  8
C-A
  6
Continuous
 62
     6
370
     9
100
AcDbLine
 10
-555.3780251064813
 20
815.0553580619197
 30
0.0
 11
-560.3782921352899
 21
813.5555716849666
 31
0.0
  0
LINE
  5
1B5
330
1F
100
AcDbEntity
  8
C-A
  6
Continuous
 62
     6
370
     9
100
AcDbLine
 10
-555.3780251064813
 20
811.055449614654
 30
0.0
 11
-555.3780251064813
 21
815.0553580619197
 31
0.0
  0
LINE
  5
1B6
330
1F
100
AcDbEntity
  8
C-A
  6
Continuous
 62
     6
370
     9
100
AcDbLine
 10
-560.8782234707392
 20
805.2277518607474
 30
0.0
 11
-554.878093771032
 21
803.4277030326228
 31
0.0
  0
LINE
  5
1B7
330
1F
100
AcDbEntity
  8
C-A
  6
Continuous
 62
     6
370
     9
100
AcDbLine
 10
-554.878093771032
 20
801.6836539603571
 30
0.0
 11
-560.8782234707392
 21
799.883605132232
 31
0.0
  0
LINE
  5
1B8
330
1F
100
AcDbEntity
  8
C-A
  6
Continuous
 62
     6
370
     9
100
AcDbLine
 10
-555.3780251064813
 20
802.0557547904349
 30
0.0
 11
-560.3782921352899
 21
800.5554801322324
 31
0.0
  0
LINE
  5
1B9
330
1F
100
AcDbEntity
  8
C-A
  6
Continuous
 62
     6
370
     9
100
AcDbLine
 10
-555.3780251064813
 20
802.0557547904349
 30
0.0
 11
-555.3780251064813
 21
803.0556022025445
 31
0.0
  0
LINE
  5
1BA
330
1F
100
AcDbEntity
  8
C-A
  6
Continuous
 62
     6
370
     9
100
AcDbLine
 10
-560.3782921352899
 20
804.5553885794976
 30
0.0
 11
-555.3780251064813
 21
803.0556022025445
 31
0.0
  0
LINE
  5
1BB
330
1F
100
AcDbEntity
  8
C-A
  6
Continuous
 62
     6
370
     9
100
AcDbLine
 10
-560.3782921352899
 20
800.5554801322324
 30
0.0
 11
-560.3782921352899
 21
804.5553885794976
 31
0.0
  0
LINE
  5
1BC
330
1F
100
AcDbEntity
  8
C-A
  6
Continuous
 62
     6
370
     9
100
AcDbLine
 10
-560.8782234707392
 20
847.2276297904352
 30
0.0
 11
-554.878093771032
 21
845.4275809623101
 31
0.0
  0
LINE
  5
1BD
330
1F
100
AcDbEntity
  8
C-A
  6
Continuous
 62
     6
370
     9
100
AcDbLine
 10
-554.878093771032
 20
843.6835624076224
 30
0.0
 11
-560.8782234707392
 21
841.8835135794978
 31
0.0
  0
LINE
  5
1BE
330
1F
100
AcDbEntity
  8
C-A
  6
Continuous
 62
     6
370
     9
100
AcDbLine
 10
-555.3780251064813
 20
844.0556327201227
 30
0.0
 11
-560.3782921352899
 21
842.5553580619197
 31
0.0
  0
LINE
  5
1BF
330
1F
100
AcDbEntity
  8
C-A
  6
Continuous
 62
     6
370
     9
100
AcDbLine
 10
-555.3780251064813
 20
844.0556327201227
 30
0.0
 11
-555.3780251064813
 21
845.0555106498103
 31
0.0
  0
LINE
  5
1C0
330
1F
100
AcDbEntity
  8
C-A
  6
Continuous
 62
     6
370
     9
100
AcDbLine
 10
-560.3782921352899
 20
846.5552665091849
 30
0.0
 11
-555.3780251064813
 21
845.0555106498103
 31
0.0
  0
LINE
  5
1C1
330
1F
100
AcDbEntity
  8
C-A
  6
Continuous
 62
     6
370
     9
100
AcDbLine
 10
-560.3782921352899
 20
842.5553580619197
 30
0.0
 11
-560.3782921352899
 21
846.5552665091849
 31
0.0
  0
LINE
  5
1C2
330
1F
100
AcDbEntity
  8
C-A
  6
Continuous
 62
     6
370
     9
100
AcDbLine
 10
-554.878093771032
 20
836.7276603080137
 30
0.0
 11
-560.8782234707392
 21
834.927611479888
 31
0.0
  0
LINE
  5
1C3
330
1F
100
AcDbEntity
  8
C-A
  6
Continuous
 62
     6
370
     9
100
AcDbLine
 10
-560.8782234707392
 20
833.1835624076228
 30
0.0
 11
-554.878093771032
 21
831.3835440970757
 31
0.0
  0
LINE
  5
1C4
330
1F
100
AcDbEntity
  8
C-A
  6
Continuous
 62
     6
370
     9
100
AcDbLine
 10
-560.3782921352899
 20
833.5556632377012
 30
0.0
 11
-555.3780251064813
 21
832.0553885794976
 31
0.0
  0
LINE
  5
1C5
330
1F
100
AcDbEntity
  8
C-A
  6
Continuous
 62
     6
370
     9
100
AcDbLine
 10
-560.3782921352899
 20
833.5556632377012
 30
0.0
 11
-560.3782921352899
 21
834.5555411673882
 31
0.0
  0
LINE
  5
1C6
330
1F
100
AcDbEntity
  8
C-A
  6
Continuous
 62
     6
370
     9
100
AcDbLine
 10
-555.3780251064813
 20
836.0552970267634
 30
0.0
 11
-560.3782921352899
 21
834.5555411673882
 31
0.0
  0
LINE
  5
1C7
330
1F
100
AcDbEntity
  8
C-A
  6
Continuous
 62
     6
370
     9
100
AcDbLine
 10
-555.3780251064813
 20
832.0553885794976
 30
0.0
 11
-555.3780251064813
 21
836.0552970267634
 31
0.0
  0
LINE
  5
1C8
330
1F
100
AcDbEntity
  8
C-A
  6
Continuous
 62
     6
370
     9
100
AcDbLine
 10
-560.8782234707392
 20
826.2276908255916
 30
0.0
 11
-554.878093771032
 21
824.4276419974665
 31
0.0
  0
LINE
  5
1C9
330
1F
100
AcDbEntity
  8
C-A
  6
Continuous
 62
     6
370
     9
100
AcDbLine
 10
-554.878093771032
 20
822.6835929252007
 30
0.0
 11
-560.8782234707392
 21
820.8835746146536
 31
0.0
  0
LINE
  5
1CA
330
1F
100
AcDbEntity
  8
C-A
  6
Continuous
 62
     6
370
     9
100
AcDbLine
 10
-555.3780251064813
 20
823.0556937552791
 30
0.0
 11
-560.3782921352899
 21
821.5554190970755
 31
0.0
  0
LINE
  5
1CB
330
1F
100
AcDbEntity
  8
C-A
  6
Continuous
 62
     6
370
     9
100
AcDbLine
 10
-555.3780251064813
 20
823.0556937552791
 30
0.0
 11
-555.3780251064813
 21
824.0555411673887
 31
0.0
  0
LINE
  5
1CC
330
1F
100
AcDbEntity
  8
C-A
  6
Continuous
 62
     6
370
     9
100
AcDbLine
 10
-560.3782921352899
 20
825.5553275443418
 30
0.0
 11
-555.3780251064813
 21
824.0555411673887
 31
0.0
  0
LINE
  5
1CD
330
1F
100
AcDbEntity
  8
C-A
  6
Continuous
 62
     6
370
     9
100
AcDbLine
 10
-560.3782921352899
 20
821.5554190970755
 30
0.0
 11
-560.3782921352899
 21
825.5553275443418
 31
0.0
  0
LINE
  5
1CE
330
1F
100
AcDbEntity
  8
C-A
  6
Continuous
 62
     6
370
     9
100
AcDbLine
 10
-495.8776741543329
 20
828.2700187064512
 30
0.0
 11
-501.8777962246453
 21
826.4699698783255
 31
0.0
  0
LINE
  5
1CF
330
1F
100
AcDbEntity
  8
C-A
  6
Continuous
 62
     6
370
     9
100
AcDbLine
 10
-501.8777962246453
 20
824.7259208060603
 30
0.0
 11
-495.8776741543329
 21
822.9258719779352
 31
0.0
  0
LINE
  5
1D0
330
1F
100
AcDbEntity
  8
C-A
  6
Continuous
 62
     6
370
     9
100
AcDbLine
 10
-501.3773689785517
 20
825.0980216361387
 30
0.0
 11
-496.3775978603876
 21
823.5977469779351
 31
0.0
  0
LINE
  5
1D1
330
1F
100
AcDbEntity
  8
C-A
  6
Continuous
 62
     6
370
     9
100
AcDbLine
 10
-501.3773689785517
 20
825.0980216361387
 30
0.0
 11
-501.3773689785517
 21
826.0978690482477
 31
0.0
  0
LINE
  5
1D2
330
1F
100
AcDbEntity
  8
C-A
  6
Continuous
 62
     6
370
     9
100
AcDbLine
 10
-496.3775978603876
 20
827.5976554252009
 30
0.0
 11
-501.3773689785517
 21
826.0978690482477
 31
0.0
  0
LINE
  5
1D3
330
1F
100
AcDbEntity
  8
C-A
  6
Continuous
 62
     6
370
     9
100
AcDbLine
 10
-496.3775978603876
 20
823.5977469779351
 30
0.0
 11
-496.3775978603876
 21
827.5976554252009
 31
0.0
  0
LINE
  5
1D4
330
1F
100
AcDbEntity
  8
C-A
  6
Continuous
 62
     6
370
     9
100
AcDbLine
 10
-501.8777962246453
 20
817.7700492240291
 30
0.0
 11
-495.8776741543329
 21
815.970000395904
 31
0.0
  0
LINE
  5
1D5
330
1F
100
AcDbEntity
  8
C-A
  6
Continuous
 62
     6
370
     9
100
AcDbLine
 10
-495.8776741543329
 20
814.2259513236382
 30
0.0
 11
-501.8777962246453
 21
812.4259024955137
 31
0.0
  0
LINE
  5
1D6
330
1F
100
AcDbEntity
  8
C-A
  6
Continuous
 62
     6
370
     9
100
AcDbLine
 10
-496.3775978603876
 20
814.5980521537166
 30
0.0
 11
-501.3773689785517
 21
813.097777495513
 31
0.0
  0
LINE
  5
1D7
330
1F
100
AcDbEntity
  8
C-A
  6
Continuous
 62
     6
370
     9
100
AcDbLine
 10
-496.3775978603876
 20
814.5980521537166
 30
0.0
 11
-496.3775978603876
 21
815.5978995658262
 31
0.0
  0
LINE
  5
1D8
330
1F
100
AcDbEntity
  8
C-A
  6
Continuous
 62
     6
370
     9
100
AcDbLine
 10
-501.3773689785517
 20
817.0976859427793
 30
0.0
 11
-496.3775978603876
 21
815.5978995658262
 31
0.0
  0
LINE
  5
1D9
330
1F
100
AcDbEntity
  8
C-A
  6
Continuous
 62
     6
370
     9
100
AcDbLine
 10
-501.3773689785517
 20
813.097777495513
 30
0.0
 11
-501.3773689785517
 21
817.0976859427793
 31
0.0
  0
LINE
  5
1DA
330
1F
100
AcDbEntity
  8
C-A
  6
Continuous
 62
     6
370
     9
100
AcDbLine
 10
-495.8776741543329
 20
849.2699881888728
 30
0.0
 11
-501.8777962246453
 21
847.4699393607477
 31
0.0
  0
LINE
  5
1DB
330
1F
100
AcDbEntity
  8
C-A
  6
Continuous
 62
     6
370
     9
100
AcDbLine
 10
-501.8777962246453
 20
845.725859770904
 30
0.0
 11
-495.8776741543329
 21
843.9258109427789
 31
0.0
  0
LINE
  5
1DC
330
1F
100
AcDbEntity
  8
C-A
  6
Continuous
 62
     6
370
     9
100
AcDbLine
 10
-501.3773689785517
 20
846.0979911185603
 30
0.0
 11
-496.3775978603876
 21
844.5976859427793
 31
0.0
  0
LINE
  5
1DD
330
1F
100
AcDbEntity
  8
C-A
  6
Continuous
 62
     6
370
     9
100
AcDbLine
 10
-501.3773689785517
 20
846.0979911185603
 30
0.0
 11
-501.3773689785517
 21
847.0978080130914
 31
0.0
  0
LINE
  5
1DE
330
1F
100
AcDbEntity
  8
C-A
  6
Continuous
 62
     6
370
     9
100
AcDbLine
 10
-496.3775978603876
 20
848.5976249076231
 30
0.0
 11
-501.3773689785517
 21
847.0978080130914
 31
0.0
  0
LINE
  5
1DF
330
1F
100
AcDbEntity
  8
C-A
  6
Continuous
 62
     6
370
     9
100
AcDbLine
 10
-496.3775978603876
 20
844.5976859427793
 30
0.0
 11
-496.3775978603876
 21
848.5976249076231
 31
0.0
  0
LINE
  5
1E0
330
1F
100
AcDbEntity
  8
C-A
  6
Continuous
 62
     6
370
     9
100
AcDbLine
 10
-501.8777962246453
 20
838.7699881888727
 30
0.0
 11
-495.8776741543329
 21
836.9699393607476
 31
0.0
  0
LINE
  5
1E1
330
1F
100
AcDbEntity
  8
C-A
  6
Continuous
 62
     6
370
     9
100
AcDbLine
 10
-495.8776741543329
 20
835.2258902884824
 30
0.0
 11
-501.8777962246453
 21
833.4258719779353
 31
0.0
  0
LINE
  5
1E2
330
1F
100
AcDbEntity
  8
C-A
  6
Continuous
 62
     6
370
     9
100
AcDbLine
 10
-496.3775978603876
 20
835.5979911185602
 30
0.0
 11
-501.3773689785517
 21
834.0977164603572
 31
0.0
  0
LINE
  5
1E3
330
1F
100
AcDbEntity
  8
C-A
  6
Continuous
 62
     6
370
     9
100
AcDbLine
 10
-496.3775978603876
 20
835.5979911185602
 30
0.0
 11
-496.3775978603876
 21
836.5978385306693
 31
0.0
  0
LINE
  5
1E4
330
1F
100
AcDbEntity
  8
C-A
  6
Continuous
 62
     6
370
     9
100
AcDbLine
 10
-501.3773689785517
 20
838.0976249076224
 30
0.0
 11
-496.3775978603876
 21
836.5978385306693
 31
0.0
  0
LINE
  5
1E5
330
1F
100
AcDbEntity
  8
C-A
  6
Continuous
 62
     6
370
     9
100
AcDbLine
 10
-501.3773689785517
 20
834.0977164603572
 30
0.0
 11
-501.3773689785517
 21
838.0976249076224
 31
0.0
  0
LINE
  5
1E6
330
1F
100
AcDbEntity
  8
C-A
  6
Continuous
 62
     6
370
     9
100
AcDbLine
 10
-510.8774910488642
 20
796.1319266654351
 30
0.0
 11
-516.8776283779657
 21
794.3318778373106
 31
0.0
  0
LINE
  5
1E7
330
1F
100
AcDbEntity
  8
C-A
  6
Continuous
 62
     6
370
     9
100
AcDbLine
 10
-516.8776283779657
 20
792.5878287650443
 30
0.0
 11
-510.8774910488642
 21
790.7878104544977
 31
0.0
  0
LINE
  5
1E8
330
1F
100
AcDbEntity
  8
C-A
  6
Continuous
 62
     6
370
     9
100
AcDbLine
 10
-516.3776894131219
 20
792.9599295951226
 30
0.0
 11
-511.3779182949578
 21
791.4596549369196
 31
0.0
  0
LINE
  5
1E9
330
1F
100
AcDbEntity
  8
C-A
  6
Continuous
 62
     6
370
     9
100
AcDbLine
 10
-516.3776894131219
 20
792.9599295951226
 30
0.0
 11
-516.3776894131219
 21
793.9597770072322
 31
0.0
  0
LINE
  5
1EA
330
1F
100
AcDbEntity
  8
C-A
  6
Continuous
 62
     6
370
     9
100
AcDbLine
 10
-511.3779182949578
 20
795.4595633841853
 30
0.0
 11
-516.3776894131219
 21
793.9597770072322
 31
0.0
  0
LINE
  5
1EB
330
1F
100
AcDbEntity
  8
C-A
  6
Continuous
 62
     6
370
     9
100
AcDbLine
 10
-511.3779182949578
 20
791.4596549369196
 30
0.0
 11
-511.3779182949578
 21
795.4595633841853
 31
0.0
  0
LINE
  5
1EC
330
1F
100
AcDbEntity
  8
C-A
  6
Continuous
 62
     6
370
     9
100
AcDbLine
 10
-510.8774910488642
 20
817.1318656302793
 30
0.0
 11
-516.8776283779657
 21
815.3318473197322
 31
0.0
  0
LINE
  5
1ED
330
1F
100
AcDbEntity
  8
C-A
  6
Continuous
 62
     6
370
     9
100
AcDbLine
 10
-516.8776283779657
 20
813.5877982474665
 30
0.0
 11
-510.8774910488642
 21
811.7877494193414
 31
0.0
  0
LINE
  5
1EE
330
1F
100
AcDbEntity
  8
C-A
  6
Continuous
 62
     6
370
     9
100
AcDbLine
 10
-516.3776894131219
 20
813.9598685599668
 30
0.0
 11
-511.3779182949578
 21
812.4595939017632
 31
0.0
  0
LINE
  5
1EF
330
1F
100
AcDbEntity
  8
C-A
  6
Continuous
 62
     6
370
     9
100
AcDbLine
 10
-516.3776894131219
 20
813.9598685599668
 30
0.0
 11
-516.3776894131219
 21
814.9597464896539
 31
0.0
  0
LINE
  5
1F0
330
1F
100
AcDbEntity
  8
C-A
  6
Continuous
 62
     6
370
     9
100
AcDbLine
 10
-511.3779182949578
 20
816.459532866607
 30
0.0
 11
-516.3776894131219
 21
814.9597464896539
 31
0.0
  0
LINE
  5
1F1
330
1F
100
AcDbEntity
  8
C-A
  6
Continuous
 62
     6
370
     9
100
AcDbLine
 10
-511.3779182949578
 20
812.4595939017632
 30
0.0
 11
-511.3779182949578
 21
816.459532866607
 31
0.0
  0
LINE
  5
1F2
330
1F
100
AcDbEntity
  8
C-A
  6
Continuous
 62
     6
370
     9
100
AcDbLine
 10
-516.8776283779657
 20
806.6318961478572
 30
0.0
 11
-510.8774910488642
 21
804.8318473197321
 31
0.0
  0
LINE
  5
1F3
330
1F
100
AcDbEntity
  8
C-A
  6
Continuous
 62
     6
370
     9
100
AcDbLine
 10
-510.8774910488642
 20
803.0877982474664
 30
0.0
 11
-516.8776283779657
 21
801.2877799369193
 31
0.0
  0
LINE
  5
1F4
330
1F
100
AcDbEntity
  8
C-A
  6
Continuous
 62
     6
370
     9
100
AcDbLine
 10
-511.3779182949578
 20
803.4598990775447
 30
0.0
 11
-516.3776894131219
 21
801.9596244193411
 31
0.0
  0
LINE
  5
1F5
330
1F
100
AcDbEntity
  8
C-A
  6
Continuous
 62
     6
370
     9
100
AcDbLine
 10
-511.3779182949578
 20
803.4598990775447
 30
0.0
 11
-511.3779182949578
 21
804.4597770072318
 31
0.0
  0
LINE
  5
1F6
330
1F
100
AcDbEntity
  8
C-A
  6
Continuous
 62
     6
370
     9
100
AcDbLine
 10
-516.3776894131219
 20
805.9595328666074
 30
0.0
 11
-511.3779182949578
 21
804.4597770072318
 31
0.0
  0
LINE
  5
1F7
330
1F
100
AcDbEntity
  8
C-A
  6
Continuous
 62
     6
370
     9
100
AcDbLine
 10
-516.3776894131219
 20
801.9596244193411
 30
0.0
 11
-516.3776894131219
 21
805.9595328666074
 31
0.0
  0
LINE
  5
1F8
330
1F
100
AcDbEntity
  8
C-A
  6
Continuous
 62
     6
370
     9
100
AcDbLine
 10
-510.8774910488642
 20
838.131835112701
 30
0.0
 11
-516.8776283779657
 21
836.3317862845759
 31
0.0
  0
LINE
  5
1F9
330
1F
100
AcDbEntity
  8
C-A
  6
Continuous
 62
     6
370
     9
100
AcDbLine
 10
-516.8776283779657
 20
834.5877372123101
 30
0.0
 11
-510.8774910488642
 21
832.7876883841856
 31
0.0
  0
LINE
  5
1FA
330
1F
100
AcDbEntity
  8
C-A
  6
Continuous
 62
     6
370
     9
100
AcDbLine
 10
-516.3776894131219
 20
834.9598380423885
 30
0.0
 11
-511.3779182949578
 21
833.4595633841849
 31
0.0
  0
LINE
  5
1FB
330
1F
100
AcDbEntity
  8
C-A
  6
Continuous
 62
     6
370
     9
100
AcDbLine
 10
-516.3776894131219
 20
834.9598380423885
 30
0.0
 11
-516.3776894131219
 21
835.9596854544981
 31
0.0
  0
LINE
  5
1FC
330
1F
100
AcDbEntity
  8
C-A
  6
Continuous
 62
     6
370
     9
100
AcDbLine
 10
-511.3779182949578
 20
837.4594718314512
 30
0.0
 11
-516.3776894131219
 21
835.9596854544981
 31
0.0
  0
LINE
  5
1FD
330
1F
100
AcDbEntity
  8
C-A
  6
Continuous
 62
     6
370
     9
100
AcDbLine
 10
-511.3779182949578
 20
833.4595633841849
 30
0.0
 11
-511.3779182949578
 21
837.4594718314512
 31
0.0
  0
LINE
  5
1FE
330
1F
100
AcDbEntity
  8
C-A
  6
Continuous
 62
     6
370
     9
100
AcDbLine
 10
-516.8776283779657
 20
827.6318351127009
 30
0.0
 11
-510.8774910488642
 21
825.8318168021543
 31
0.0
  0
LINE
  5
1FF
330
1F
100
AcDbEntity
  8
C-A
  6
Continuous
 62
     6
370
     9
100
AcDbLine
 10
-510.8774910488642
 20
824.087767729888
 30
0.0
 11
-516.8776283779657
 21
822.2877189017635
 31
0.0
  0
LINE
  5
200
330
1F
100
AcDbEntity
  8
C-A
  6
Continuous
 62
     6
370
     9
100
AcDbLine
 10
-511.3779182949578
 20
824.4598685599664
 30
0.0
 11
-516.3776894131219
 21
822.9595633841853
 31
0.0
  0
LINE
  5
201
330
1F
100
AcDbEntity
  8
C-A
  6
Continuous
 62
     6
370
     9
100
AcDbLine
 10
-511.3779182949578
 20
824.4598685599664
 30
0.0
 11
-511.3779182949578
 21
825.459715972076
 31
0.0
  0
LINE
  5
202
330
1F
100
AcDbEntity
  8
C-A
  6
Continuous
 62
     6
370
     9
100
AcDbLine
 10
-516.3776894131219
 20
826.9595023490291
 30
0.0
 11
-511.3779182949578
 21
825.459715972076
 31
0.0
  0
LINE
  5
203
330
1F
100
AcDbEntity
  8
C-A
  6
Continuous
 62
     6
370
     9
100
AcDbLine
 10
-516.3776894131219
 20
822.9595633841853
 30
0.0
 11
-516.3776894131219
 21
826.9595023490291
 31
0.0
  0
LINE
  5
204
330
1F
100
AcDbEntity
  8
C-A
  6
Continuous
 62
     6
370
     9
100
AcDbLine
 10
-516.8776283779657
 20
848.6318045951231
 30
0.0
 11
-510.8774910488642
 21
846.8317557669974
 31
0.0
  0
LINE
  5
205
330
1F
100
AcDbEntity
  8
C-A
  6
Continuous
 62
     6
370
     9
100
AcDbLine
 10
-510.8774910488642
 20
845.0877372123102
 30
0.0
 11
-516.8776283779657
 21
843.2876883841851
 31
0.0
  0
LINE
  5
206
330
1F
100
AcDbEntity
  8
C-A
  6
Continuous
 62
     6
370
     9
100
AcDbLine
 10
-511.3779182949578
 20
845.4598075248106
 30
0.0
 11
-516.3776894131219
 21
843.959502349029
 31
0.0
  0
LINE
  5
207
330
1F
100
AcDbEntity
  8
C-A
  6
Continuous
 62
     6
370
     9
100
AcDbLine
 10
-511.3779182949578
 20
845.4598075248106
 30
0.0
 11
-511.3779182949578
 21
846.4596854544976
 31
0.0
  0
LINE
  5
208
330
1F
100
AcDbEntity
  8
C-A
  6
Continuous
 62
     6
370
     9
100
AcDbLine
 10
-516.3776894131219
 20
847.9594413138727
 30
0.0
 11
-511.3779182949578
 21
846.4596854544976
 31
0.0
  0
LINE
  5
209
330
1F
100
AcDbEntity
  8
C-A
  6
Continuous
 62
     6
370
     9
100
AcDbLine
 10
-516.3776894131219
 20
843.959502349029
 30
0.0
 11
-516.3776894131219
 21
847.9594413138727
 31
0.0
  0
LINE
  5
20A
330
1F
100
AcDbEntity
  8
C-A
  6
Continuous
 62
     6
370
     9
100
AcDbLine
 10
-525.8778114834344
 20
783.0599662162166
 30
0.0
 11
-531.877445272497
 21
781.2599173880915
 31
0.0
  0
LINE
  5
20B
330
1F
100
AcDbEntity
  8
C-A
  6
Continuous
 62
     6
370
     9
100
AcDbLine
 10
-531.877445272497
 20
779.5158683158257
 30
0.0
 11
-525.8778114834344
 21
777.7158500052786
 31
0.0
  0
LINE
  5
20C
330
1F
100
AcDbEntity
  8
C-A
  6
Continuous
 62
     6
370
     9
100
AcDbLine
 10
-531.3775215664423
 20
779.8879691459041
 30
0.0
 11
-526.377735189489
 21
778.3876944877005
 31
0.0
  0
LINE
  5
20D
330
1F
100
AcDbEntity
  8
C-A
  6
Continuous
 62
     6
370
     9
100
AcDbLine
 10
-531.3775215664423
 20
779.8879691459041
 30
0.0
 11
-531.3775215664423
 21
780.8878470755911
 31
0.0
  0
LINE
  5
20E
330
1F
100
AcDbEntity
  8
C-A
  6
Continuous
 62
     6
370
     9
100
AcDbLine
 10
-526.377735189489
 20
782.3876334525443
 30
0.0
 11
-531.3775215664423
 21
780.8878470755911
 31
0.0
  0
LINE
  5
20F
330
1F
100
AcDbEntity
  8
C-A
  6
Continuous
 62
     6
370
     9
100
AcDbLine
 10
-526.377735189489
 20
778.3876944877005
 30
0.0
 11
-526.377735189489
 21
782.3876334525443
 31
0.0
  0
LINE
  5
210
330
1F
100
AcDbEntity
  8
C-A
  6
Continuous
 62
     6
370
     9
100
AcDbLine
 10
-525.8778114834344
 20
804.0599051810602
 30
0.0
 11
-531.877445272497
 21
802.2598868705137
 31
0.0
  0
LINE
  5
211
330
1F
100
AcDbEntity
  8
C-A
  6
Continuous
 62
     6
370
     9
100
AcDbLine
 10
-531.877445272497
 20
800.5158377982474
 30
0.0
 11
-525.8778114834344
 21
798.7157889701228
 31
0.0
  0
LINE
  5
212
330
1F
100
AcDbEntity
  8
C-A
  6
Continuous
 62
     6
370
     9
100
AcDbLine
 10
-531.3775215664423
 20
800.8879386283257
 30
0.0
 11
-526.377735189489
 21
799.3876639701227
 31
0.0
  0
LINE
  5
213
330
1F
100
AcDbEntity
  8
C-A
  6
Continuous
 62
     6
370
     9
100
AcDbLine
 10
-531.3775215664423
 20
800.8879386283257
 30
0.0
 11
-531.3775215664423
 21
801.8877860404353
 31
0.0
  0
LINE
  5
214
330
1F
100
AcDbEntity
  8
C-A
  6
Continuous
 62
     6
370
     9
100
AcDbLine
 10
-526.377735189489
 20
803.3875724173885
 30
0.0
 11
-531.3775215664423
 21
801.8877860404353
 31
0.0
  0
LINE
  5
215
330
1F
100
AcDbEntity
  8
C-A
  6
Continuous
 62
     6
370
     9
100
AcDbLine
 10
-526.377735189489
 20
799.3876639701227
 30
0.0
 11
-526.377735189489
 21
803.3875724173885
 31
0.0
  0
LINE
  5
216
330
1F
100
AcDbEntity
  8
C-A
  6
Continuous
 62
     6
370
     9
100
AcDbLine
 10
-531.877445272497
 20
793.5599356986387
 30
0.0
 11
-525.8778114834344
 21
791.7599173880916
 31
0.0
  0
LINE
  5
217
330
1F
100
AcDbEntity
  8
C-A
  6
Continuous
 62
     6
370
     9
100
AcDbLine
 10
-525.8778114834344
 20
790.0158683158259
 30
0.0
 11
-531.877445272497
 21
788.2158194877007
 31
0.0
  0
LINE
  5
218
330
1F
100
AcDbEntity
  8
C-A
  6
Continuous
 62
     6
370
     9
100
AcDbLine
 10
-526.377735189489
 20
790.3879386283262
 30
0.0
 11
-531.3775215664423
 21
788.8876639701226
 31
0.0
  0
LINE
  5
219
330
1F
100
AcDbEntity
  8
C-A
  6
Continuous
 62
     6
370
     9
100
AcDbLine
 10
-526.377735189489
 20
790.3879386283262
 30
0.0
 11
-526.377735189489
 21
791.3878165580132
 31
0.0
  0
LINE
  5
21A
330
1F
100
AcDbEntity
  8
C-A
  6
Continuous
 62
     6
370
     9
100
AcDbLine
 10
-531.3775215664423
 20
792.8876029349664
 30
0.0
 11
-526.377735189489
 21
791.3878165580132
 31
0.0
  0
LINE
  5
21B
330
1F
100
AcDbEntity
  8
C-A
  6
Continuous
 62
     6
370
     9
100
AcDbLine
 10
-531.3775215664423
 20
788.8876639701226
 30
0.0
 11
-531.3775215664423
 21
792.8876029349664
 31
0.0
  0
LINE
  5
21C
330
1F
100
AcDbEntity
  8
C-A
  6
Continuous
 62
     6
370
     9
100
AcDbLine
 10
-525.8778114834344
 20
825.0598746634824
 30
0.0
 11
-531.877445272497
 21
823.2598258353568
 31
0.0
  0
LINE
  5
21D
330
1F
100
AcDbEntity
  8
C-A
  6
Continuous
 62
     6
370
     9
100
AcDbLine
 10
-531.877445272497
 20
821.5157767630916
 30
0.0
 11
-525.8778114834344
 21
819.7157279349665
 31
0.0
  0
LINE
  5
21E
330
1F
100
AcDbEntity
  8
C-A
  6
Continuous
 62
     6
370
     9
100
AcDbLine
 10
-531.3775215664423
 20
821.88787759317
 30
0.0
 11
-526.377735189489
 21
820.3876029349664
 31
0.0
  0
LINE
  5
21F
330
1F
100
AcDbEntity
  8
C-A
  6
Continuous
 62
     6
370
     9
100
AcDbLine
 10
-531.3775215664423
 20
821.88787759317
 30
0.0
 11
-531.3775215664423
 21
822.887725005279
 31
0.0
  0
LINE
  5
220
330
1F
100
AcDbEntity
  8
C-A
  6
Continuous
 62
     6
370
     9
100
AcDbLine
 10
-526.377735189489
 20
824.3875113822321
 30
0.0
 11
-531.3775215664423
 21
822.887725005279
 31
0.0
  0
LINE
  5
221
330
1F
100
AcDbEntity
  8
C-A
  6
Continuous
 62
     6
370
     9
100
AcDbLine
 10
-526.377735189489
 20
820.3876029349664
 30
0.0
 11
-526.377735189489
 21
824.3875113822321
 31
0.0
  0
LINE
  5
222
330
1F
100
AcDbEntity
  8
C-A
  6
Continuous
 62
     6
370
     9
100
AcDbLine
 10
-531.877445272497
 20
814.5599051810603
 30
0.0
 11
-525.8778114834344
 21
812.7598563529352
 31
0.0
  0
LINE
  5
223
330
1F
100
AcDbEntity
  8
C-A
  6
Continuous
 62
     6
370
     9
100
AcDbLine
 10
-525.8778114834344
 20
811.0158072806695
 30
0.0
 11
-531.877445272497
 21
809.215758452545
 31
0.0
  0
LINE
  5
224
330
1F
100
AcDbEntity
  8
C-A
  6
Continuous
 62
     6
370
     9
100
AcDbLine
 10
-526.377735189489
 20
811.3879081107478
 30
0.0
 11
-531.3775215664423
 21
809.8876334525443
 31
0.0
  0
LINE
  5
225
330
1F
100
AcDbEntity
  8
C-A
  6
Continuous
 62
     6
370
     9
100
AcDbLine
 10
-526.377735189489
 20
811.3879081107478
 30
0.0
 11
-526.377735189489
 21
812.3877555228574
 31
0.0
  0
LINE
  5
226
330
1F
100
AcDbEntity
  8
C-A
  6
Continuous
 62
     6
370
     9
100
AcDbLine
 10
-531.3775215664423
 20
813.8875418998106
 30
0.0
 11
-526.377735189489
 21
812.3877555228574
 31
0.0
  0
LINE
  5
227
330
1F
100
AcDbEntity
  8
C-A
  6
Continuous
 62
     6
370
     9
100
AcDbLine
 10
-531.3775215664423
 20
809.8876334525443
 30
0.0
 11
-531.3775215664423
 21
813.8875418998106
 31
0.0
  0
LINE
  5
228
330
1F
100
AcDbEntity
  8
C-A
  6
Continuous
 62
     6
370
     9
100
AcDbLine
 10
-525.8778114834344
 20
846.0598441459041
 30
0.0
 11
-531.877445272497
 21
844.259795317779
 31
0.0
  0
LINE
  5
229
330
1F
100
AcDbEntity
  8
C-A
  6
Continuous
 62
     6
370
     9
100
AcDbLine
 10
-531.877445272497
 20
842.5157157279352
 30
0.0
 11
-525.8778114834344
 21
840.7156974173887
 31
0.0
  0
LINE
  5
22A
330
1F
100
AcDbEntity
  8
C-A
  6
Continuous
 62
     6
370
     9
100
AcDbLine
 10
-531.3775215664423
 20
842.887816558013
 30
0.0
 11
-526.377735189489
 21
841.3875418998106
 31
0.0
  0
LINE
  5
22B
330
1F
100
AcDbEntity
  8
C-A
  6
Continuous
 62
     6
370
     9
100
AcDbLine
 10
-531.3775215664423
 20
842.887816558013
 30
0.0
 11
-531.3775215664423
 21
843.8876639701226
 31
0.0
  0
LINE
  5
22C
330
1F
100
AcDbEntity
  8
C-A
  6
Continuous
 62
     6
370
     9
100
AcDbLine
 10
-526.377735189489
 20
845.3874808646543
 30
0.0
 11
-531.3775215664423
 21
843.8876639701226
 31
0.0
  0
LINE
  5
22D
330
1F
100
AcDbEntity
  8
C-A
  6
Continuous
 62
     6
370
     9
100
AcDbLine
 10
-526.377735189489
 20
841.3875418998106
 30
0.0
 11
-526.377735189489
 21
845.3874808646543
 31
0.0
  0
LINE
  5
22E
330
1F
100
AcDbEntity
  8
C-A
  6
Continuous
 62
     6
370
     9
100
AcDbLine
 10
-531.877445272497
 20
835.559844145904
 30
0.0
 11
-525.8778114834344
 21
833.7597953177789
 31
0.0
  0
LINE
  5
22F
330
1F
100
AcDbEntity
  8
C-A
  6
Continuous
 62
     6
370
     9
100
AcDbLine
 10
-525.8778114834344
 20
832.0157462455137
 30
0.0
 11
-531.877445272497
 21
830.2157279349666
 31
0.0
  0
LINE
  5
230
330
1F
100
AcDbEntity
  8
C-A
  6
Continuous
 62
     6
370
     9
100
AcDbLine
 10
-526.377735189489
 20
832.3878470755915
 30
0.0
 11
-531.3775215664423
 21
830.8875724173885
 31
0.0
  0
LINE
  5
231
330
1F
100
AcDbEntity
  8
C-A
  6
Continuous
 62
     6
370
     9
100
AcDbLine
 10
-526.377735189489
 20
832.3878470755915
 30
0.0
 11
-526.377735189489
 21
833.3876944877005
 31
0.0
  0
LINE
  5
232
330
1F
100
AcDbEntity
  8
C-A
  6
Continuous
 62
     6
370
     9
100
AcDbLine
 10
-531.3775215664423
 20
834.8874808646536
 30
0.0
 11
-526.377735189489
 21
833.3876944877005
 31
0.0
  0
LINE
  5
233
330
1F
100
AcDbEntity
  8
C-A
  6
Continuous
 62
     6
370
     9
100
AcDbLine
 10
-531.3775215664423
 20
830.8875724173885
 30
0.0
 11
-531.3775215664423
 21
834.8874808646536
 31
0.0
  0
LINE
  5
234
330
1F
100
AcDbEntity
  8
C-A
  6
Continuous
 62
     6
370
     9
100
AcDbLine
 10
-540.8776283779656
 20
776.5222464896539
 30
0.0
 11
-546.8777657070672
 21
774.7222281791068
 31
0.0
  0
LINE
  5
235
330
1F
100
AcDbEntity
  8
C-A
  6
Continuous
 62
     6
370
     9
100
AcDbLine
 10
-546.8777657070672
 20
772.9781791068416
 30
0.0
 11
-540.8776283779656
 21
771.1781302787165
 31
0.0
  0
LINE
  5
236
330
1F
100
AcDbEntity
  8
C-A
  6
Continuous
 62
     6
370
     9
100
AcDbLine
 10
-546.3778343716181
 20
773.35027993692
 30
0.0
 11
-541.3775673428095
 21
771.8499747611384
 31
0.0
  0
LINE
  5
237
330
1F
100
AcDbEntity
  8
C-A
  6
Continuous
 62
     6
370
     9
100
AcDbLine
 10
-546.3778343716181
 20
773.35027993692
 30
0.0
 11
-546.3778343716181
 21
774.350127349029
 31
0.0
  0
LINE
  5
238
330
1F
100
AcDbEntity
  8
C-A
  6
Continuous
 62
     6
370
     9
100
AcDbLine
 10
-541.3775673428095
 20
775.8499137259821
 30
0.0
 11
-546.3778343716181
 21
774.350127349029
 31
0.0
  0
LINE
  5
239
330
1F
100
AcDbEntity
  8
C-A
  6
Continuous
 62
     6
370
     9
100
AcDbLine
 10
-541.3775673428095
 20
771.8499747611384
 30
0.0
 11
-541.3775673428095
 21
775.8499137259821
 31
0.0
  0
LINE
  5
23A
330
1F
100
AcDbEntity
  8
C-A
  6
Continuous
 62
     6
370
     9
100
AcDbLine
 10
-546.8777657070672
 20
766.0222770072318
 30
0.0
 11
-540.8776283779656
 21
764.2222586966852
 31
0.0
  0
LINE
  5
23B
330
1F
100
AcDbEntity
  8
C-A
  6
Continuous
 62
     6
370
     9
100
AcDbLine
 10
-540.8776283779656
 20
762.4782096244195
 30
0.0
 11
-546.8777657070672
 21
760.678160796295
 31
0.0
  0
LINE
  5
23C
330
1F
100
AcDbEntity
  8
C-A
  6
Continuous
 62
     6
370
     9
100
AcDbLine
 10
-541.3775673428095
 20
762.8502799369193
 30
0.0
 11
-546.3778343716181
 21
761.3500052787168
 31
0.0
  0
LINE
  5
23D
330
1F
100
AcDbEntity
  8
C-A
  6
Continuous
 62
     6
370
     9
100
AcDbLine
 10
-541.3775673428095
 20
762.8502799369193
 30
0.0
 11
-541.3775673428095
 21
763.8501578666074
 31
0.0
  0
LINE
  5
23E
330
1F
100
AcDbEntity
  8
C-A
  6
Continuous
 62
     6
370
     9
100
AcDbLine
 10
-546.3778343716181
 20
765.3499442435606
 30
0.0
 11
-541.3775673428095
 21
763.8501578666074
 31
0.0
  0
LINE
  5
23F
330
1F
100
AcDbEntity
  8
C-A
  6
Continuous
 62
     6
370
     9
100
AcDbLine
 10
-546.3778343716181
 20
761.3500052787168
 30
0.0
 11
-546.3778343716181
 21
765.3499442435606
 31
0.0
  0
LINE
  5
240
330
1F
100
AcDbEntity
  8
C-A
  6
Continuous
 62
     6
370
     9
100
AcDbLine
 10
-540.8776283779656
 20
797.5222159720755
 30
0.0
 11
-546.8777657070672
 21
795.722167143951
 31
0.0
  0
LINE
  5
241
330
1F
100
AcDbEntity
  8
C-A
  6
Continuous
 62
     6
370
     9
100
AcDbLine
 10
-546.8777657070672
 20
793.9781180716852
 30
0.0
 11
-540.8776283779656
 21
792.1780692435601
 31
0.0
  0
LINE
  5
242
330
1F
100
AcDbEntity
  8
C-A
  6
Continuous
 62
     6
370
     9
100
AcDbLine
 10
-546.3778343716181
 20
794.350218901763
 30
0.0
 11
-541.3775673428095
 21
792.8499442435606
 31
0.0
  0
LINE
  5
243
330
1F
100
AcDbEntity
  8
C-A
  6
Continuous
 62
     6
370
     9
100
AcDbLine
 10
-546.3778343716181
 20
794.350218901763
 30
0.0
 11
-546.3778343716181
 21
795.3500663138726
 31
0.0
  0
LINE
  5
244
330
1F
100
AcDbEntity
  8
C-A
  6
Continuous
 62
     6
370
     9
100
AcDbLine
 10
-541.3775673428095
 20
796.8498526908257
 30
0.0
 11
-546.3778343716181
 21
795.3500663138726
 31
0.0
  0
LINE
  5
245
330
1F
100
AcDbEntity
  8
C-A
  6
Continuous
 62
     6
370
     9
100
AcDbLine
 10
-541.3775673428095
 20
792.8499442435606
 30
0.0
 11
-541.3775673428095
 21
796.8498526908257
 31
0.0
  0
LINE
  5
246
330
1F
100
AcDbEntity
  8
C-A
  6
Continuous
 62
     6
370
     9
100
AcDbLine
 10
-546.8777657070672
 20
787.022246489654
 30
0.0
 11
-540.8776283779656
 21
785.2221976615289
 31
0.0
  0
LINE
  5
247
330
1F
100
AcDbEntity
  8
C-A
  6
Continuous
 62
     6
370
     9
100
AcDbLine
 10
-540.8776283779656
 20
783.4781485892637
 30
0.0
 11
-546.8777657070672
 21
781.678099761138
 31
0.0
  0
LINE
  5
248
330
1F
100
AcDbEntity
  8
C-A
  6
Continuous
 62
     6
370
     9
100
AcDbLine
 10
-541.3775673428095
 20
783.8502494193415
 30
0.0
 11
-546.3778343716181
 21
782.3499747611385
 31
0.0
  0
LINE
  5
249
330
1F
100
AcDbEntity
  8
C-A
  6
Continuous
 62
     6
370
     9
100
AcDbLine
 10
-541.3775673428095
 20
783.8502494193415
 30
0.0
 11
-541.3775673428095
 21
784.8500968314505
 31
0.0
  0
LINE
  5
24A
330
1F
100
AcDbEntity
  8
C-A
  6
Continuous
 62
     6
370
     9
100
AcDbLine
 10
-546.3778343716181
 20
786.3498832084036
 30
0.0
 11
-541.3775673428095
 21
784.8500968314505
 31
0.0
  0
LINE
  5
24B
330
1F
100
AcDbEntity
  8
C-A
  6
Continuous
 62
     6
370
     9
100
AcDbLine
 10
-546.3778343716181
 20
782.3499747611385
 30
0.0
 11
-546.3778343716181
 21
786.3498832084036
 31
0.0
  0
LINE
  5
24C
330
1F
100
AcDbEntity
  8
C-A
  6
Continuous
 62
     6
370
     9
100
AcDbLine
 10
-540.8776283779656
 20
818.5221549369197
 30
0.0
 11
-546.8777657070672
 21
816.7221061087946
 31
0.0
  0
LINE
  5
24D
330
1F
100
AcDbEntity
  8
C-A
  6
Continuous
 62
     6
370
     9
100
AcDbLine
 10
-546.8777657070672
 20
814.9780570365289
 30
0.0
 11
-540.8776283779656
 21
813.1780387259818
 31
0.0
  0
LINE
  5
24E
330
1F
100
AcDbEntity
  8
C-A
  6
Continuous
 62
     6
370
     9
100
AcDbLine
 10
-546.3778343716181
 20
815.3501578666072
 30
0.0
 11
-541.3775673428095
 21
813.8498832084036
 31
0.0
  0
LINE
  5
24F
330
1F
100
AcDbEntity
  8
C-A
  6
Continuous
 62
     6
370
     9
100
AcDbLine
 10
-546.3778343716181
 20
815.3501578666072
 30
0.0
 11
-546.3778343716181
 21
816.3500357962943
 31
0.0
  0
LINE
  5
250
330
1F
100
AcDbEntity
  8
C-A
  6
Continuous
 62
     6
370
     9
100
AcDbLine
 10
-541.3775673428095
 20
817.8498221732474
 30
0.0
 11
-546.3778343716181
 21
816.3500357962943
 31
0.0
  0
LINE
  5
251
330
1F
100
AcDbEntity
  8
C-A
  6
Continuous
 62
     6
370
     9
100
AcDbLine
 10
-541.3775673428095
 20
813.8498832084036
 30
0.0
 11
-541.3775673428095
 21
817.8498221732474
 31
0.0
  0
LINE
  5
252
330
1F
100
AcDbEntity
  8
C-A
  6
Continuous
 62
     6
370
     9
100
AcDbLine
 10
-546.8777657070672
 20
808.0221854544976
 30
0.0
 11
-540.8776283779656
 21
806.2221366263731
 31
0.0
  0
LINE
  5
253
330
1F
100
AcDbEntity
  8
C-A
  6
Continuous
 62
     6
370
     9
100
AcDbLine
 10
-540.8776283779656
 20
804.4780875541068
 30
0.0
 11
-546.8777657070672
 21
802.6780692435602
 31
0.0
  0
LINE
  5
254
330
1F
100
AcDbEntity
  8
C-A
  6
Continuous
 62
     6
370
     9
100
AcDbLine
 10
-541.3775673428095
 20
804.8501883841851
 30
0.0
 11
-546.3778343716181
 21
803.3499137259821
 31
0.0
  0
LINE
  5
255
330
1F
100
AcDbEntity
  8
C-A
  6
Continuous
 62
     6
370
     9
100
AcDbLine
 10
-541.3775673428095
 20
804.8501883841851
 30
0.0
 11
-541.3775673428095
 21
805.8500357962947
 31
0.0
  0
LINE
  5
256
330
1F
100
AcDbEntity
  8
C-A
  6
Continuous
 62
     6
370
     9
100
AcDbLine
 10
-546.3778343716181
 20
807.3498221732478
 30
0.0
 11
-541.3775673428095
 21
805.8500357962947
 31
0.0
  0
LINE
  5
257
330
1F
100
AcDbEntity
  8
C-A
  6
Continuous
 62
     6
370
     9
100
AcDbLine
 10
-546.3778343716181
 20
803.3499137259821
 30
0.0
 11
-546.3778343716181
 21
807.3498221732478
 31
0.0
  0
LINE
  5
258
330
1F
100
AcDbEntity
  8
C-A
  6
Continuous
 62
     6
370
     9
100
AcDbLine
 10
-540.8776283779656
 20
839.5220939017634
 30
0.0
 11
-546.8777657070672
 21
837.7220755912168
 31
0.0
  0
LINE
  5
259
330
1F
100
AcDbEntity
  8
C-A
  6
Continuous
 62
     6
370
     9
100
AcDbLine
 10
-546.8777657070672
 20
835.9780265189505
 30
0.0
 11
-540.8776283779656
 21
834.177977690826
 31
0.0
  0
LINE
  5
25A
330
1F
100
AcDbEntity
  8
C-A
  6
Continuous
 62
     6
370
     9
100
AcDbLine
 10
-546.3778343716181
 20
836.3501273490289
 30
0.0
 11
-541.3775673428095
 21
834.8498221732478
 31
0.0
  0
LINE
  5
25B
330
1F
100
AcDbEntity
  8
C-A
  6
Continuous
 62
     6
370
     9
100
AcDbLine
 10
-546.3778343716181
 20
836.3501273490289
 30
0.0
 11
-546.3778343716181
 21
837.3499747611385
 31
0.0
  0
LINE
  5
25C
330
1F
100
AcDbEntity
  8
C-A
  6
Continuous
 62
     6
370
     9
100
AcDbLine
 10
-541.3775673428095
 20
838.8497611380916
 30
0.0
 11
-546.3778343716181
 21
837.3499747611385
 31
0.0
  0
LINE
  5
25D
330
1F
100
AcDbEntity
  8
C-A
  6
Continuous
 62
     6
370
     9
100
AcDbLine
 10
-541.3775673428095
 20
834.8498221732478
 30
0.0
 11
-541.3775673428095
 21
838.8497611380916
 31
0.0
  0
LINE
  5
25E
330
1F
100
AcDbEntity
  8
C-A
  6
Continuous
 62
     6
370
     9
100
AcDbLine
 10
-546.8777657070672
 20
829.0221244193418
 30
0.0
 11
-540.8776283779656
 21
827.2221061087947
 31
0.0
  0
LINE
  5
25F
330
1F
100
AcDbEntity
  8
C-A
  6
Continuous
 62
     6
370
     9
100
AcDbLine
 10
-540.8776283779656
 20
825.478057036529
 30
0.0
 11
-546.8777657070672
 21
823.6780082084039
 31
0.0
  0
LINE
  5
260
330
1F
100
AcDbEntity
  8
C-A
  6
Continuous
 62
     6
370
     9
100
AcDbLine
 10
-541.3775673428095
 20
825.8501273490293
 30
0.0
 11
-546.3778343716181
 21
824.3498526908257
 31
0.0
  0
LINE
  5
261
330
1F
100
AcDbEntity
  8
C-A
  6
Continuous
 62
     6
370
     9
100
AcDbLine
 10
-541.3775673428095
 20
825.8501273490293
 30
0.0
 11
-541.3775673428095
 21
826.8500052787164
 31
0.0
  0
LINE
  5
262
330
1F
100
AcDbEntity
  8
C-A
  6
Continuous
 62
     6
370
     9
100
AcDbLine
 10
-546.3778343716181
 20
828.3497916556695
 30
0.0
 11
-541.3775673428095
 21
826.8500052787164
 31
0.0
  0
LINE
  5
263
330
1F
100
AcDbEntity
  8
C-A
  6
Continuous
 62
     6
370
     9
100
AcDbLine
 10
-546.3778343716181
 20
824.3498526908257
 30
0.0
 11
-546.3778343716181
 21
828.3497916556695
 31
0.0
  0
LINE
  5
264
330
1F
100
AcDbEntity
  8
C-A
  6
Continuous
 62
     6
370
     9
100
AcDbLine
 10
-546.8777657070672
 20
850.0220633841849
 30
0.0
 11
-540.8776283779656
 21
848.2220145560603
 31
0.0
  0
LINE
  5
265
330
1F
100
AcDbEntity
  8
C-A
  6
Continuous
 62
     6
370
     9
100
AcDbLine
 10
-540.8776283779656
 20
846.4779960013726
 30
0.0
 11
-546.8777657070672
 21
844.6779471732481
 31
0.0
  0
LINE
  5
266
330
1F
100
AcDbEntity
  8
C-A
  6
Continuous
 62
     6
370
     9
100
AcDbLine
 10
-541.3775673428095
 20
846.8500663138724
 30
0.0
 11
-546.3778343716181
 21
845.3498221732474
 31
0.0
  0
LINE
  5
267
330
1F
100
AcDbEntity
  8
C-A
  6
Continuous
 62
     6
370
     9
100
AcDbLine
 10
-541.3775673428095
 20
846.8500663138724
 30
0.0
 11
-541.3775673428095
 21
847.8499442435606
 31
0.0
  0
LINE
  5
268
330
1F
100
AcDbEntity
  8
C-A
  6
Continuous
 62
     6
370
     9
100
AcDbLine
 10
-546.3778343716181
 20
849.3497611380911
 30
0.0
 11
-541.3775673428095
 21
847.8499442435606
 31
0.0
  0
LINE
  5
269
330
1F
100
AcDbEntity
  8
C-A
  6
Continuous
 62
     6
370
     9
100
AcDbLine
 10
-546.3778343716181
 20
845.3498221732474
 30
0.0
 11
-546.3778343716181
 21
849.3497611380911
 31
0.0
  0
LINE
  5
26A
330
1F
100
AcDbEntity
  8
C-A
  6
Continuous
 62
     3
370
     9
100
AcDbLine
 10
-460.8782539883173
 20
504.215590605865
 30
0.0
 11
-210.8780708828485
 21
754.2152701712945
 31
0.0
  0
LINE
  5
26B
330
1F
100
AcDbEntity
  8
C-A
  6
Continuous
 62
     3
370
     9
100
AcDbLine
 10
-435.8778877773797
 20
851.2156668998102
 30
0.0
 11
-435.8778877773797
 21
529.2159568168023
 31
0.0
  0
LINE
  5
26C
330
1F
100
AcDbEntity
  8
C-A
  6
Continuous
 62
     3
370
     9
100
AcDbLine
 10
-441.8780098476923
 20
851.2156668998102
 30
0.0
 11
-441.8780098476923
 21
523.2158194877007
 31
0.0
  0
LINE
  5
26D
330
1F
100
AcDbEntity
  8
C-A
  6
Continuous
 62
     3
370
     9
100
AcDbLine
 10
-420.8775673428095
 20
851.2156668998102
 30
0.0
 11
-420.8775673428095
 21
544.2162619925836
 31
0.0
  0
LINE
  5
26E
330
1F
100
AcDbEntity
  8
C-A
  6
Continuous
 62
     3
370
     9
100
AcDbLine
 10
-426.877704671911
 20
851.2156668998102
 30
0.0
 11
-426.877704671911
 21
538.2161399222713
 31
0.0
  0
LINE
  5
26F
330
1F
100
AcDbEntity
  8
C-A
  6
Continuous
 62
     3
370
     9
100
AcDbLine
 10
-405.877735189489
 20
851.2156668998102
 30
0.0
 11
-405.877735189489
 21
559.2160941459036
 31
0.0
  0
LINE
  5
270
330
1F
100
AcDbEntity
  8
C-A
  6
Continuous
 62
     3
370
     9
100
AcDbLine
 10
-411.8778877773798
 20
851.2156668998102
 30
0.0
 11
-411.8778877773798
 21
553.2159568168021
 31
0.0
  0
LINE
  5
271
330
1F
100
AcDbEntity
  8
C-A
  6
Continuous
 62
     3
370
     9
100
AcDbLine
 10
-390.8774300137078
 20
851.2156668998102
 30
0.0
 11
-390.8774300137078
 21
574.2164145804742
 31
0.0
  0
LINE
  5
272
330
1F
100
AcDbEntity
  8
C-A
  6
Continuous
 62
     3
370
     9
100
AcDbLine
 10
-396.8775520840204
 20
851.2156668998102
 30
0.0
 11
-396.8775520840204
 21
568.2162772513726
 31
0.0
  0
LINE
  5
273
330
1F
100
AcDbEntity
  8
C-A
  6
Continuous
 62
     3
370
     9
100
AcDbLine
 10
-375.8776131191766
 20
851.2156668998102
 30
0.0
 11
-375.8776131191766
 21
589.2162162162168
 31
0.0
  0
LINE
  5
274
330
1F
100
AcDbEntity
  8
C-A
  6
Continuous
 62
     3
370
     9
100
AcDbLine
 10
-381.8777351894892
 20
851.2156668998102
 30
0.0
 11
-381.8777351894892
 21
583.2161094046927
 31
0.0
  0
LINE
  5
275
330
1F
100
AcDbEntity
  8
C-A
  6
Continuous
 62
     3
370
     9
100
AcDbLine
 10
-360.8777962246454
 20
851.2156668998102
 30
0.0
 11
-360.8777962246454
 21
604.2160636283262
 31
0.0
  0
LINE
  5
276
330
1F
100
AcDbEntity
  8
C-A
  6
Continuous
 62
     3
370
     9
100
AcDbLine
 10
-366.8779182949578
 20
851.2156668998102
 30
0.0
 11
-366.8779182949578
 21
598.2159110404353
 31
0.0
  0
LINE
  5
277
330
1F
100
AcDbEntity
  8
C-A
  6
Continuous
 62
     3
370
     9
100
AcDbLine
 10
-345.877460531286
 20
851.2156668998102
 30
0.0
 11
-345.877460531286
 21
619.2163688041074
 31
0.0
  0
LINE
  5
278
330
1F
100
AcDbEntity
  8
C-A
  6
Continuous
 62
     3
370
     9
100
AcDbLine
 10
-351.8775826015985
 20
851.2156668998102
 30
0.0
 11
-351.8775826015985
 21
613.2162467337946
 31
0.0
  0
LINE
  5
279
330
1F
100
AcDbEntity
  8
C-A
  6
Continuous
 62
     3
370
     9
100
AcDbLine
 10
-330.8776436367546
 20
851.2156668998102
 30
0.0
 11
-330.8776436367546
 21
634.2161856986382
 31
0.0
  0
LINE
  5
27A
330
1F
100
AcDbEntity
  8
C-A
  6
Continuous
 62
     3
370
     9
100
AcDbLine
 10
-336.8777657070672
 20
851.2156668998102
 30
0.0
 11
-336.8777657070672
 21
628.216063628326
 31
0.0
  0
LINE
  5
27B
330
1F
100
AcDbEntity
  8
C-A
  6
Continuous
 62
     3
370
     9
100
AcDbLine
 10
-315.8778267422235
 20
851.2156668998102
 30
0.0
 11
-315.8778267422235
 21
649.2155143119197
 31
0.0
  0
LINE
  5
27C
330
1F
100
AcDbEntity
  8
C-A
  6
Continuous
 62
     3
370
     9
100
AcDbLine
 10
-321.8779488125359
 20
851.2156668998102
 30
0.0
 11
-321.8779488125359
 21
643.2153922416074
 31
0.0
  0
LINE
  5
27D
330
1F
100
AcDbEntity
  8
C-A
  6
Continuous
 62
     3
370
     9
100
AcDbLine
 10
-300.8780098476922
 20
851.2156668998102
 30
0.0
 11
-300.8780098476922
 21
664.2153312064505
 31
0.0
  0
LINE
  5
27E
330
1F
100
AcDbEntity
  8
C-A
  6
Continuous
 62
     3
370
     9
100
AcDbLine
 10
-306.8781319180047
 20
851.2156668998102
 30
0.0
 11
-306.8781319180047
 21
658.2152091361382
 31
0.0
  0
LINE
  5
27F
330
1F
100
AcDbEntity
  8
C-A
  6
Continuous
 62
     3
370
     9
100
AcDbLine
 10
-285.8781929531609
 20
851.2156668998102
 30
0.0
 11
-285.8781929531609
 21
679.2151481009824
 31
0.0
  0
LINE
  5
280
330
1F
100
AcDbEntity
  8
C-A
  6
Continuous
 62
     3
370
     9
100
AcDbLine
 10
-291.8783150234734
 20
851.2156668998102
 30
0.0
 11
-291.8783150234734
 21
673.2150260306696
 31
0.0
  0
LINE
  5
281
330
1F
100
AcDbEntity
  8
C-A
  6
Continuous
 62
     3
370
     9
100
AcDbLine
 10
-270.8778572598015
 20
851.2156668998102
 30
0.0
 11
-270.8778572598015
 21
694.2154837943411
 31
0.0
  0
LINE
  5
282
330
1F
100
AcDbEntity
  8
C-A
  6
Continuous
 62
     3
370
     9
100
AcDbLine
 10
-276.8779793301141
 20
851.2156668998102
 30
0.0
 11
-276.8779793301141
 21
688.2153617240289
 31
0.0
  0
LINE
  5
283
330
1F
100
AcDbEntity
  8
C-A
  6
Continuous
 62
     3
370
     9
100
AcDbLine
 10
-255.8780403652703
 20
851.2156668998102
 30
0.0
 11
-255.8780403652703
 21
709.2153006888731
 31
0.0
  0
LINE
  5
284
330
1F
100
AcDbEntity
  8
C-A
  6
Continuous
 62
     3
370
     9
100
AcDbLine
 10
-261.8781624355827
 20
851.2156668998102
 30
0.0
 11
-261.8781624355827
 21
703.2151786185602
 31
0.0
  0
LINE
  5
285
330
1F
100
AcDbEntity
  8
C-A
  6
Continuous
 62
     3
370
     9
100
AcDbLine
 10
-240.8777351894891
 20
851.2156668998102
 30
0.0
 11
-240.8777351894891
 21
724.2156058646543
 31
0.0
  0
LINE
  5
286
330
1F
100
AcDbEntity
  8
C-A
  6
Continuous
 62
     3
370
     9
100
AcDbLine
 10
-246.8778572598015
 20
851.2156668998102
 30
0.0
 11
-246.8778572598015
 21
718.2154837943415
 31
0.0
  0
LINE
  5
287
330
1F
100
AcDbEntity
  8
C-A
  6
Continuous
 62
     3
370
     9
100
AcDbLine
 10
-225.8778877773797
 20
851.2156668998102
 30
0.0
 11
-225.8778877773797
 21
739.2154532767637
 31
0.0
  0
LINE
  5
288
330
1F
100
AcDbEntity
  8
C-A
  6
Continuous
 62
     3
370
     9
100
AcDbLine
 10
-231.8780403652704
 20
851.2156668998102
 30
0.0
 11
-231.8780403652704
 21
733.2153006888728
 31
0.0
  0
LINE
  5
289
330
1F
100
AcDbEntity
  8
C-A
  6
Continuous
 62
     3
370
     9
100
AcDbLine
 10
-216.878192953161
 20
851.2156668998102
 30
0.0
 11
-216.878192953161
 21
748.2151481009822
 31
0.0
  0
LINE
  5
28A
330
1F
100
AcDbEntity
  8
C-A
  6
Continuous
 62
     3
370
     9
100
AcDbLine
 10
-450.8777046719109
 20
851.2156668998102
 30
0.0
 11
-450.8777046719109
 21
514.2161246634822
 31
0.0
  0
LINE
  5
28B
330
1F
100
AcDbEntity
  8
C-A
  6
Continuous
 62
     3
370
     9
100
AcDbLine
 10
-456.8778420010125
 20
851.2156668998102
 30
0.0
 11
-456.8778420010125
 21
508.2160025931699
 31
0.0
  0
LINE
  5
28C
330
1F
100
AcDbEntity
  8
C-A
  6
Continuous
 62
     3
370
     9
100
AcDbLine
 10
-457.877689413122
 20
507.2161399222711
 30
0.0
 11
-560.8782234707392
 21
507.2161399222711
 31
0.0
  0
LINE
  5
28D
330
1F
100
AcDbEntity
  8
C-5
  6
Continuous
 62
     7
370
     9
100
AcDbLine
 10
-287.7262764492548
 20
591.6137992240289
 30
0.0
 11
-317.9924812832391
 21
591.6137992240289
 31
0.0
  0
LINE
  5
28E
330
1F
100
AcDbEntity
  8
C-5
  6
Continuous
 62
     7
370
     9
100
AcDbLine
 10
-307.725391439489
 20
641.6135550834036
 30
0.0
 11
-287.7262764492548
 21
591.6137992240289
 31
0.0
  0
LINE
  5
28F
330
1F
100
AcDbEntity
  8
C-5
  6
Continuous
 62
     7
370
     9
100
AcDbLine
 10
-307.725391439489
 20
551.8484641410208
 30
0.0
 11
-307.725391439489
 21
641.6135550834036
 31
0.0
  0
LINE
  5
290
330
1F
100
AcDbEntity
  8
C-5
  6
Continuous
 62
     7
370
     9
100
AcDbLine
 10
-507.7263069668328
 20
551.8484641410208
 30
0.0
 11
-307.725391439489
 21
551.8484641410208
 31
0.0
  0
LINE
  5
291
330
1F
100
AcDbEntity
  8
C-A
  6
Continuous
 62
     3
370
     9
100
AcDbLine
 10
-540.8776283779656
 20
851.2156668998102
 30
0.0
 11
-540.8776283779656
 21
507.2161399222711
 31
0.0
  0
LINE
  5
292
330
1F
100
AcDbEntity
  8
C-A
  6
Continuous
 62
     3
370
     9
100
AcDbLine
 10
-546.8777657070672
 20
851.2156668998102
 30
0.0
 11
-546.8777657070672
 21
507.2161399222711
 31
0.0
  0
LINE
  5
293
330
1F
100
AcDbEntity
  8
C-A
  6
Continuous
 62
     3
370
     9
100
AcDbLine
 10
-525.8778114834344
 20
851.2156668998102
 30
0.0
 11
-525.8778114834344
 21
507.2161399222711
 31
0.0
  0
LINE
  5
294
330
1F
100
AcDbEntity
  8
C-A
  6
Continuous
 62
     3
370
     9
100
AcDbLine
 10
-510.8774910488642
 20
851.2156668998102
 30
0.0
 11
-510.8774910488642
 21
507.2161399222711
 31
0.0
  0
LINE
  5
295
330
1F
100
AcDbEntity
  8
C-A
  6
Continuous
 62
     3
370
     9
100
AcDbLine
 10
-516.8776283779657
 20
851.2156668998102
 30
0.0
 11
-516.8776283779657
 21
507.2161399222711
 31
0.0
  0
LINE
  5
296
330
1F
100
AcDbEntity
  8
C-A
  6
Continuous
 62
     3
370
     9
100
AcDbLine
 10
-495.8776741543329
 20
851.2156668998102
 30
0.0
 11
-495.8776741543329
 21
507.2161399222711
 31
0.0
  0
LINE
  5
297
330
1F
100
AcDbEntity
  8
C-A
  6
Continuous
 62
     3
370
     9
100
AcDbLine
 10
-501.8777962246453
 20
851.2156668998102
 30
0.0
 11
-501.8777962246453
 21
507.2161399222711
 31
0.0
  0
LINE
  5
298
330
1F
100
AcDbEntity
  8
C-A
  6
Continuous
 62
     3
370
     9
100
AcDbLine
 10
-480.8778572598015
 20
851.2156668998102
 30
0.0
 11
-480.8778572598015
 21
507.2161399222711
 31
0.0
  0
LINE
  5
299
330
1F
100
AcDbEntity
  8
C-A
  6
Continuous
 62
     3
370
     9
100
AcDbLine
 10
-486.8779793301141
 20
851.2156668998102
 30
0.0
 11
-486.8779793301141
 21
507.2161399222711
 31
0.0
  0
LINE
  5
29A
330
1F
100
AcDbEntity
  8
C-A
  6
Continuous
 62
     3
370
     9
100
AcDbLine
 10
-465.8775368252313
 20
851.2156668998102
 30
0.0
 11
-465.8775368252313
 21
507.2161399222711
 31
0.0
  0
LINE
  5
29B
330
1F
100
AcDbEntity
  8
C-A
  6
Continuous
 62
     3
370
     9
100
AcDbLine
 10
-471.8776588955438
 20
851.2156668998102
 30
0.0
 11
-471.8776588955438
 21
507.2161399222711
 31
0.0
  0
LINE
  5
29C
330
1F
100
AcDbEntity
  8
C-A
  6
Continuous
 62
     3
370
     9
100
AcDbLine
 10
-560.8782234707392
 20
851.2156668998102
 30
0.0
 11
-210.8780708828485
 21
851.2156668998102
 31
0.0
  0
LINE
  5
29D
330
1F
100
AcDbEntity
  8
C-5
  6
Continuous
 62
     7
370
     9
100
AcDbLine
 10
-673.3783760586298
 20
331.2162162162164
 30
0.0
 11
-673.3783760586298
 21
396.2157737113336
 31
0.0
  0
LINE
  5
29E
330
1F
100
AcDbEntity
  8
C-5
  6
Continuous
 62
     7
370
     9
100
AcDbLine
 10
-673.3783760586298
 20
396.2157737113336
 30
0.0
 11
-98.37794881253586
 21
396.2157737113336
 31
0.0
  0
LINE
  5
29F
330
1F
100
AcDbEntity
  8
C-5
  6
Continuous
 62
     7
370
     9
100
AcDbLine
 10
-98.37794881253586
 20
331.2162162162164
 30
0.0
 11
-673.3783760586298
 21
331.2162162162164
 31
0.0
  0
LINE
  5
2A0
330
1F
100
AcDbEntity
  8
C-5
  6
Continuous
 62
     7
370
     9
100
AcDbLine
 10
-98.37794881253586
 20
396.2157737113336
 30
0.0
 11
-98.37794881253586
 21
331.2162162162164
 31
0.0
  0
LINE
  5
2A1
330
1F
100
AcDbEntity
  8
C-1
  6
Continuous
 62
     2
370
     9
100
AcDbLine
 10
-561.8785744228876
 20
503.2157279349661
 30
0.0
 11
-561.8785744228876
 21
855.215605864654
 31
0.0
  0
LINE
  5
2A2
330
1F
100
AcDbEntity
  8
C-1
  6
Continuous
 62
     2
370
     9
100
AcDbLine
 10
-209.8782234707392
 20
855.215605864654
 30
0.0
 11
-561.8785744228876
 21
855.215605864654
 31
0.0
  0
LINE
  5
2A3
330
1F
100
AcDbEntity
  8
C-2
  6
Continuous
 62
     3
370
     9
100
AcDbLine
 10
-210.8780708828485
 20
854.2157279349664
 30
0.0
 11
-560.8782234707392
 21
854.2157279349664
 31
0.0
  0
LINE
  5
2A4
330
1F
100
AcDbEntity
  8
C-2
  6
Continuous
 62
     3
370
     9
100
AcDbLine
 10
-560.8782234707392
 20
504.215590605865
 30
0.0
 11
-560.8782234707392
 21
854.2157279349664
 31
0.0
  0
LINE
  5
2A5
330
1F
100
AcDbEntity
  8
C-1
  6
Continuous
 62
     2
370
     9
100
AcDbLine
 10
-209.8782234707392
 20
503.2157279349661
 30
0.0
 11
-561.8785744228876
 21
503.2157279349661
 31
0.0
  0
LINE
  5
2A6
330
1F
100
AcDbEntity
  8
C-1
  6
Continuous
 62
     2
370
     9
100
AcDbLine
 10
-209.8782234707392
 20
855.215605864654
 30
0.0
 11
-209.8782234707392
 21
503.2157279349661
 31
0.0
  0
LINE
  5
2A7
330
1F
100
AcDbEntity
  8
C-1
  6
JWW_DASHED3
 62
     2
370
     9
100
AcDbLine
 10
-535.8783607998407
 20
829.215850005279
 30
0.0
 11
-235.8779488125359
 21
829.215850005279
 31
0.0
  0
LINE
  5
2A8
330
1F
100
AcDbEntity
  8
C-1
  6
JWW_DASHED3
 62
     2
370
     9
100
AcDbLine
 10
-235.8779488125359
 20
529.2154532767637
 30
0.0
 11
-535.8783607998407
 21
529.2154532767637
 31
0.0
  0
LINE
  5
2A9
330
1F
100
AcDbEntity
  8
C-1
  6
JWW_DASHED3
 62
     2
370
     9
100
AcDbLine
 10
-235.8779488125359
 20
829.215850005279
 30
0.0
 11
-235.8779488125359
 21
529.2154532767637
 31
0.0
  0
LINE
  5
2AA
330
1F
100
AcDbEntity
  8
C-2
  6
Continuous
 62
     3
370
     9
100
AcDbLine
 10
-210.8780708828485
 20
504.215590605865
 30
0.0
 11
-560.8782234707392
 21
504.215590605865
 31
0.0
  0
LINE
  5
2AB
330
1F
100
AcDbEntity
  8
C-2
  6
Continuous
 62
     3
370
     9
100
AcDbLine
 10
-210.8780708828485
 20
854.2157279349664
 30
0.0
 11
-210.8780708828485
 21
504.215590605865
 31
0.0
  0
LWPOLYLINE
  5
2AC
330
1F
100
AcDbEntity
  8
C-4
  6
Continuous
 62
     7
370
     9
100
AcDbPolyline
 90
        4
 70
     1
 43
1.0
 10
-561.3785744228876
 20
989.2151175834039
 42
0.4142135623731
 10
-561.8785744228876
 20
989.7151175834039
 42
0.4142135623731
 10
-562.3785744228876
 20
989.2151175834039
 42
0.4142135623731
 10
-561.8785744228876
 20
988.7151175834039
 42
0.4142135623731
  0
LINE
  5
2AD
330
1F
100
AcDbEntity
  8
C-4
  6
Continuous
 62
     7
370
     9
100
AcDbLine
 10
-561.8785744228876
 20
989.2151175834039
 30
0.0
 11
-560.8782234707392
 21
989.2151175834039
 31
0.0
  0
LWPOLYLINE
  5
2AE
330
1F
100
AcDbEntity
  8
C-4
  6
Continuous
 62
     7
370
     9
100
AcDbPolyline
 90
        4
 70
     1
 43
1.0
 10
-560.3782234707392
 20
989.2151175834039
 42
0.4142135623731
 10
-560.8782234707392
 20
989.7151175834039
 42
0.4142135623731
 10
-561.378223470739
 20
989.2151175834039
 42
0.4142135623731
 10
-560.8782234707392
 20
988.7151175834039
 42
0.4142135623731
  0
LINE
  5
2AF
330
1F
100
AcDbEntity
  8
C-4
  6
Continuous
 62
     7
370
     9
100
AcDbLine
 10
-560.8782234707392
 20
989.2151175834039
 30
0.0
 11
-210.8780708828485
 21
989.2151175834039
 31
0.0
  0
LWPOLYLINE
  5
2B0
330
1F
100
AcDbEntity
  8
C-4
  6
Continuous
 62
     7
370
     9
100
AcDbPolyline
 90
        4
 70
     1
 43
1.0
 10
-210.3780708828485
 20
989.2151175834039
 42
0.4142135623731
 10
-210.8780708828485
 20
989.7151175834039
 42
0.4142135623731
 10
-211.3780708828485
 20
989.2151175834039
 42
0.4142135623731
 10
-210.8780708828485
 20
988.7151175834039
 42
0.4142135623731
  0
TEXT
  5
2B1
330
1F
100
AcDbEntity
  8
C-4
  6
Continuous
 62
     2
370
   211
100
AcDbText
 10
-418.3781471767938
 20
1000.855117821822
 30
0.0
 40
30.48
  1
350
 41
1.083333333333333
  7
ＭＳ ゴシック
100
AcDbText
  0
LINE
  5
2B2
330
1F
100
AcDbEntity
  8
C-4
  6
Continuous
 62
     7
370
     9
100
AcDbLine
 10
-210.8780708828485
 20
989.2151175834039
 30
0.0
 11
-209.8782234707392
 21
989.2151175834039
 31
0.0
  0
LWPOLYLINE
  5
2B3
330
1F
100
AcDbEntity
  8
C-4
  6
Continuous
 62
     7
370
     9
100
AcDbPolyline
 90
        4
 70
     1
 43
1.0
 10
-209.3782234707392
 20
989.2151175834039
 42
0.4142135623731
 10
-209.8782234707392
 20
989.7151175834039
 42
0.4142135623731
 10
-210.3782234707392
 20
989.2151175834039
 42
0.4142135623731
 10
-209.8782234707392
 20
988.7151175834039
 42
0.4142135623731
  0
LINE
  5
2B4
330
1F
100
AcDbEntity
  8
C-4
  6
Continuous
 62
     7
370
     9
100
AcDbLine
 10
-560.8782234707392
 20
934.2156058646543
 30
0.0
 11
-535.8783607998407
 21
934.2156058646543
 31
0.0
  0
LWPOLYLINE
  5
2B5
330
1F
100
AcDbEntity
  8
C-4
  6
Continuous
 62
     7
370
     9
100
AcDbPolyline
 90
        4
 70
     1
 43
1.0
 10
-560.3782234707392
 20
934.2156058646543
 42
0.4142135623731
 10
-560.8782234707392
 20
934.7156058646543
 42
0.4142135623731
 10
-561.378223470739
 20
934.2156058646543
 42
0.4142135623731
 10
-560.8782234707392
 20
933.7156058646543
 42
0.4142135623731
  0
LWPOLYLINE
  5
2B6
330
1F
100
AcDbEntity
  8
C-4
  6
Continuous
 62
     7
370
     9
100
AcDbPolyline
 90
        4
 70
     1
 43
1.0
 10
-535.3783607998407
 20
934.2156058646543
 42
0.4142135623731
 10
-535.8783607998407
 20
934.7156058646543
 42
0.4142135623731
 10
-536.3783607998407
 20
934.2156058646543
 42
0.4142135623731
 10
-535.8783607998407
 20
933.7156058646543
 42
0.4142135623731
  0
LINE
  5
2B7
330
1F
100
AcDbEntity
  8
C-4
  6
Continuous
 62
     7
370
     9
100
AcDbLine
 10
-535.8783607998407
 20
934.2156058646543
 30
0.0
 11
-235.8779488125359
 21
934.2156058646543
 31
0.0
  0
LWPOLYLINE
  5
2B8
330
1F
100
AcDbEntity
  8
C-4
  6
Continuous
 62
     7
370
     9
100
AcDbPolyline
 90
        4
 70
     1
 43
1.0
 10
-235.3779488125359
 20
934.2156058646543
 42
0.4142135623731
 10
-235.8779488125359
 20
934.7156058646543
 42
0.4142135623731
 10
-236.3779488125359
 20
934.2156058646543
 42
0.4142135623731
 10
-235.8779488125359
 20
933.7156058646543
 42
0.4142135623731
  0
TEXT
  5
2B9
330
1F
100
AcDbEntity
  8
C-4
  6
Continuous
 62
     2
370
   211
100
AcDbText
 10
-418.3781548061883
 20
945.8556061030729
 30
0.0
 40
30.48
  1
300
 41
1.083333333333333
  7
ＭＳ ゴシック
100
AcDbText
  0
LINE
  5
2BA
330
1F
100
AcDbEntity
  8
C-4
  6
Continuous
 62
     7
370
     9
100
AcDbLine
 10
-235.8779488125359
 20
934.2156058646543
 30
0.0
 11
-210.8780708828485
 21
934.2156058646543
 31
0.0
  0
LWPOLYLINE
  5
2BB
330
1F
100
AcDbEntity
  8
C-4
  6
Continuous
 62
     7
370
     9
100
AcDbPolyline
 90
        4
 70
     1
 43
1.0
 10
-210.3780708828485
 20
934.2156058646543
 42
0.4142135623731
 10
-210.8780708828485
 20
934.7156058646543
 42
0.4142135623731
 10
-211.3780708828485
 20
934.2156058646543
 42
0.4142135623731
 10
-210.8780708828485
 20
933.7156058646543
 42
0.4142135623731
  0
LINE
  5
2BC
330
1F
100
AcDbEntity
  8
C-4
  6
Continuous
 62
     7
370
     9
100
AcDbLine
 10
-561.8785744228876
 20
992.2151177026132
 30
0.0
 11
-561.8785744228876
 21
882.2155448294978
 31
0.0
  0
LINE
  5
2BD
330
1F
100
AcDbEntity
  8
C-4
  6
Continuous
 62
     7
370
     9
100
AcDbLine
 10
-560.8782234707392
 20
992.2151177026132
 30
0.0
 11
-560.8782234707392
 21
882.2155448294978
 31
0.0
  0
LINE
  5
2BE
330
1F
100
AcDbEntity
  8
C-4
  6
Continuous
 62
     7
370
     9
100
AcDbLine
 10
-210.8780708828485
 20
992.2151177026132
 30
0.0
 11
-210.8780708828485
 21
882.2155448294978
 31
0.0
  0
LINE
  5
2BF
330
1F
100
AcDbEntity
  8
C-4
  6
Continuous
 62
     7
370
     9
100
AcDbLine
 10
-209.8782234707392
 20
992.2151177026132
 30
0.0
 11
-209.8782234707392
 21
882.2155448294978
 31
0.0
  0
LINE
  5
2C0
330
1F
100
AcDbEntity
  8
C-4
  6
Continuous
 62
     7
370
     9
100
AcDbLine
 10
-535.8783607998407
 20
937.2156059838636
 30
0.0
 11
-535.8783607998407
 21
882.2155448294978
 31
0.0
  0
LINE
  5
2C1
330
1F
100
AcDbEntity
  8
C-4
  6
Continuous
 62
     7
370
     9
100
AcDbLine
 10
-235.8779488125359
 20
937.2156059838636
 30
0.0
 11
-235.8779488125359
 21
882.2155448294978
 31
0.0
  0
TEXT
  5
2C2
330
1F
100
AcDbEntity
  8
C-4
  6
Continuous
 62
     2
370
   211
100
AcDbText
 10
-549.6282921352899
 20
945.8556061030729
 30
0.0
 40
30.48
  1
25
 41
1.0625
  7
ＭＳ ゴシック
100
AcDbText
  0
TEXT
  5
2C3
330
1F
100
AcDbEntity
  8
C-4
  6
Continuous
 62
     2
370
   211
100
AcDbText
 10
-264.6280098476922
 20
945.8556061030729
 30
0.0
 40
30.48
  1
25
 41
1.0625
  7
ＭＳ ゴシック
100
AcDbText
  0
TEXT
  5
2C4
330
1F
100
AcDbEntity
  8
C-4
  6
Continuous
 62
     2
370
   211
100
AcDbText
 10
-551.3783989468134
 20
1000.855117821822
 30
0.0
 40
30.48
  1
1
 41
0.9999999999999998
  7
ＭＳ ゴシック
100
AcDbText
  0
TEXT
  5
2C5
330
1F
100
AcDbEntity
  8
C-4
  6
Continuous
 62
     2
370
   211
100
AcDbText
 10
-240.3781471767938
 20
1000.855117821822
 30
0.0
 40
30.48
  1
1
 41
0.9999999999999998
  7
ＭＳ ゴシック
100
AcDbText
  0
TEXT
  5
2C6
330
1F
100
AcDbEntity
  8
F-5
  6
Continuous
 62
     2
370
     9
100
AcDbText
 10
-731.5901402992006
 20
-1326.310621578057
 30
0.0
 40
30.48
  1
ステンレス製　細目ノンスリップタイプ（デルタ模様）グレーチング（すきま9mm）
 41
0.7743333333333332
  7
ＭＳ ゴシック
100
AcDbText
  0
LINE
  5
2C7
330
1F
100
AcDbEntity
  8
C-1
  6
Continuous
 62
     2
370
     9
100
AcDbLine
 10
-566.8785744228876
 20
860.215605864654
 30
0.0
 11
-566.8785744228876
 21
498.2157279349661
 31
0.0
  0
LINE
  5
2C8
330
1F
100
AcDbEntity
  8
C-1
  6
Continuous
 62
     2
370
     9
100
AcDbLine
 10
-566.8785744228876
 20
498.2157279349661
 30
0.0
 11
-204.8782234707392
 21
498.2157279349661
 31
0.0
  0
LINE
  5
2C9
330
1F
100
AcDbEntity
  8
C-1
  6
Continuous
 62
     2
370
     9
100
AcDbLine
 10
-204.8782234707392
 20
860.215605864654
 30
0.0
 11
-566.8785744228876
 21
860.215605864654
 31
0.0
  0
LINE
  5
2CA
330
1F
100
AcDbEntity
  8
C-1
  6
Continuous
 62
     2
370
     9
100
AcDbLine
 10
-204.8782234707392
 20
498.2157279349661
 30
0.0
 11
-204.8782234707392
 21
860.215605864654
 31
0.0
  0
LWPOLYLINE
  5
2CB
330
1F
100
AcDbEntity
  8
C-4
  6
Continuous
 62
     7
370
     9
100
AcDbPolyline
 90
        4
 70
     1
 43
1.0
 10
-566.3785744228876
 20
1044.215117583404
 42
0.4142135623731
 10
-566.8785744228876
 20
1044.715117583404
 42
0.4142135623731
 10
-567.3785744228876
 20
1044.215117583404
 42
0.4142135623731
 10
-566.8785744228876
 20
1043.715117583404
 42
0.4142135623731
  0
LWPOLYLINE
  5
2CC
330
1F
100
AcDbEntity
  8
C-4
  6
Continuous
 62
     7
370
     9
100
AcDbPolyline
 90
        4
 70
     1
 43
1.0
 10
-566.3785744228876
 20
989.2151175834039
 42
0.4142135623731
 10
-566.8785744228876
 20
989.7151175834039
 42
0.4142135623731
 10
-567.3785744228876
 20
989.2151175834039
 42
0.4142135623731
 10
-566.8785744228876
 20
988.7151175834039
 42
0.4142135623731
  0
LINE
  5
2CD
330
1F
100
AcDbEntity
  8
C-4
  6
Continuous
 62
     7
370
     9
100
AcDbLine
 10
-566.8785744228876
 20
1047.215117702613
 30
0.0
 11
-566.8785744228876
 21
882.2155448294978
 31
0.0
  0
LINE
  5
2CE
330
1F
100
AcDbEntity
  8
C-4
  6
Continuous
 62
     7
370
     9
100
AcDbLine
 10
-566.8785744228876
 20
989.2151175834039
 30
0.0
 11
-616.8785744228876
 21
989.2151175834039
 31
0.0
  0
LWPOLYLINE
  5
2CF
330
1F
100
AcDbEntity
  8
C-4
  6
Continuous
 62
     7
370
     9
100
AcDbPolyline
 90
        4
 70
     1
 43
1.0
 10
-204.3782234707392
 20
1044.215117583404
 42
0.4142135623731
 10
-204.8782234707392
 20
1044.715117583404
 42
0.4142135623731
 10
-205.3782234707392
 20
1044.215117583404
 42
0.4142135623731
 10
-204.8782234707392
 20
1043.715117583404
 42
0.4142135623731
  0
LWPOLYLINE
  5
2D0
330
1F
100
AcDbEntity
  8
C-4
  6
Continuous
 62
     7
370
     9
100
AcDbPolyline
 90
        4
 70
     1
 43
1.0
 10
-204.3782234707392
 20
989.2151175834039
 42
0.4142135623731
 10
-204.8782234707392
 20
989.7151175834039
 42
0.4142135623731
 10
-205.3782234707392
 20
989.2151175834039
 42
0.4142135623731
 10
-204.8782234707392
 20
988.7151175834039
 42
0.4142135623731
  0
LINE
  5
2D1
330
1F
100
AcDbEntity
  8
C-4
  6
Continuous
 62
     7
370
     9
100
AcDbLine
 10
-204.8782234707392
 20
1047.215117702613
 30
0.0
 11
-204.8782234707392
 21
882.2155448294978
 31
0.0
  0
LINE
  5
2D2
330
1F
100
AcDbEntity
  8
C-4
  6
Continuous
 62
     7
370
     9
100
AcDbLine
 10
-204.8782234707392
 20
989.2151175834039
 30
0.0
 11
-154.8782234707392
 21
989.2151175834039
 31
0.0
  0
LINE
  5
2D3
330
1F
100
AcDbEntity
  8
C-4
  6
Continuous
 62
     7
370
     9
100
AcDbLine
 10
-566.8785744228876
 20
1044.215117583404
 30
0.0
 11
-204.8782234707392
 21
1044.215117583404
 31
0.0
  0
TEXT
  5
2D4
330
1F
100
AcDbEntity
  8
C-4
  6
Continuous
 62
     2
370
   211
100
AcDbText
 10
-418.3783989468134
 20
1055.855117821822
 30
0.0
 40
30.48
  1
362
 41
1.083333333333333
  7
ＭＳ ゴシック
100
AcDbText
  0
LINE
  5
2D5
330
1F
100
AcDbEntity
  8
C-4
  6
Continuous
 62
     7
370
     9
100
AcDbLine
 10
-566.8785744228876
 20
989.2151175834039
 30
0.0
 11
-561.8785744228876
 21
989.2151175834039
 31
0.0
  0
TEXT
  5
2D6
330
1F
100
AcDbEntity
  8
C-4
  6
Continuous
 62
     2
370
   211
100
AcDbText
 10
-603.3785820522821
 20
1000.855117821822
 30
0.0
 40
30.48
  1
5
 41
0.9999999999999998
  7
ＭＳ ゴシック
100
AcDbText
  0
LINE
  5
2D7
330
1F
100
AcDbEntity
  8
C-4
  6
Continuous
 62
     7
370
     9
100
AcDbLine
 10
-209.8782234707392
 20
989.2151175834039
 30
0.0
 11
-204.8782234707392
 21
989.2151175834039
 31
0.0
  0
TEXT
  5
2D8
330
1F
100
AcDbEntity
  8
C-4
  6
Continuous
 62
     2
370
   211
100
AcDbText
 10
-188.3782082119501
 20
1000.855117821822
 30
0.0
 40
30.48
  1
5
 41
0.9999999999999998
  7
ＭＳ ゴシック
100
AcDbText
  0
LWPOLYLINE
  5
2D9
330
1F
100
AcDbEntity
  8
C-4
  6
Continuous
 62
     7
370
     9
100
AcDbPolyline
 90
        4
 70
     1
 43
1.0
 10
-695.3780861416375
 20
503.2152549125055
 42
0.4142135623731
 10
-695.8780861416375
 20
503.7152549125055
 42
0.4142135623731
 10
-696.3780861416375
 20
503.2152549125055
 42
0.4142135623731
 10
-695.8780861416375
 20
502.7152549125055
 42
0.4142135623731
  0
LINE
  5
2DA
330
1F
100
AcDbEntity
  8
C-4
  6
Continuous
 62
     7
370
     9
100
AcDbLine
 10
-695.8780861416375
 20
503.2152549125055
 30
0.0
 11
-695.8780861416375
 21
504.215605864654
 31
0.0
  0
LWPOLYLINE
  5
2DB
330
1F
100
AcDbEntity
  8
C-4
  6
Continuous
 62
     7
370
     9
100
AcDbPolyline
 90
        4
 70
     1
 43
1.0
 10
-695.3780861416375
 20
504.215605864654
 42
0.4142135623731
 10
-695.8780861416375
 20
504.715605864654
 42
0.4142135623731
 10
-696.3780861416375
 20
504.215605864654
 42
0.4142135623731
 10
-695.8780861416375
 20
503.7156058646541
 42
0.4142135623731
  0
LINE
  5
2DC
330
1F
100
AcDbEntity
  8
C-4
  6
Continuous
 62
     7
370
     9
100
AcDbLine
 10
-695.8780861416375
 20
504.215605864654
 30
0.0
 11
-695.8780861416375
 21
854.2157584525446
 31
0.0
  0
LWPOLYLINE
  5
2DD
330
1F
100
AcDbEntity
  8
C-4
  6
Continuous
 62
     7
370
     9
100
AcDbPolyline
 90
        4
 70
     1
 43
1.0
 10
-695.3780861416375
 20
854.2157584525446
 42
0.4142135623731
 10
-695.8780861416375
 20
854.7157584525446
 42
0.4142135623731
 10
-696.3780861416375
 20
854.2157584525446
 42
0.4142135623731
 10
-695.8780861416375
 20
853.7157584525447
 42
0.4142135623731
  0
TEXT
  5
2DE
330
1F
100
AcDbEntity
  8
C-4
  6
Continuous
 62
     2
370
   211
100
AcDbText
 10
-707.518086380056
 20
646.7156821585993
 30
0.0
 40
30.48
  1
350
 50
90.0
 41
1.083333333333333
  7
ＭＳ ゴシック
100
AcDbText
  0
LINE
  5
2DF
330
1F
100
AcDbEntity
  8
C-4
  6
Continuous
 62
     7
370
     9
100
AcDbLine
 10
-695.8780861416375
 20
854.2157584525446
 30
0.0
 11
-695.8780861416375
 21
855.215605864654
 31
0.0
  0
LWPOLYLINE
  5
2E0
330
1F
100
AcDbEntity
  8
C-4
  6
Continuous
 62
     7
370
     9
100
AcDbPolyline
 90
        4
 70
     1
 43
1.0
 10
-695.3780861416375
 20
855.215605864654
 42
0.4142135623731
 10
-695.8780861416375
 20
855.715605864654
 42
0.4142135623731
 10
-696.3780861416375
 20
855.215605864654
 42
0.4142135623731
 10
-695.8780861416375
 20
854.715605864654
 42
0.4142135623731
  0
LINE
  5
2E1
330
1F
100
AcDbEntity
  8
C-4
  6
Continuous
 62
     7
370
     9
100
AcDbLine
 10
-640.8785744228879
 20
504.215605864654
 30
0.0
 11
-640.8785744228879
 21
529.2154685355524
 31
0.0
  0
LWPOLYLINE
  5
2E2
330
1F
100
AcDbEntity
  8
C-4
  6
Continuous
 62
     7
370
     9
100
AcDbPolyline
 90
        4
 70
     1
 43
1.0
 10
-640.3785744228879
 20
504.215605864654
 42
0.4142135623731
 10
-640.8785744228879
 20
504.715605864654
 42
0.4142135623731
 10
-641.3785744228879
 20
504.215605864654
 42
0.4142135623731
 10
-640.8785744228879
 20
503.7156058646541
 42
0.4142135623731
  0
LWPOLYLINE
  5
2E3
330
1F
100
AcDbEntity
  8
C-4
  6
Continuous
 62
     7
370
     9
100
AcDbPolyline
 90
        4
 70
     1
 43
1.0
 10
-640.3785744228879
 20
529.2154685355524
 42
0.4142135623731
 10
-640.8785744228879
 20
529.7154685355524
 42
0.4142135623731
 10
-641.3785744228879
 20
529.2154685355524
 42
0.4142135623731
 10
-640.8785744228879
 20
528.7154685355524
 42
0.4142135623731
  0
LINE
  5
2E4
330
1F
100
AcDbEntity
  8
C-4
  6
Continuous
 62
     7
370
     9
100
AcDbLine
 10
-640.8785744228879
 20
529.2154685355524
 30
0.0
 11
-640.8785744228879
 21
829.2158805228573
 31
0.0
  0
LWPOLYLINE
  5
2E5
330
1F
100
AcDbEntity
  8
C-4
  6
Continuous
 62
     7
370
     9
100
AcDbPolyline
 90
        4
 70
     1
 43
1.0
 10
-640.3785744228879
 20
829.2158805228573
 42
0.4142135623731
 10
-640.8785744228879
 20
829.7158805228572
 42
0.4142135623731
 10
-641.3785744228879
 20
829.2158805228573
 42
0.4142135623731
 10
-640.8785744228879
 20
828.7158805228573
 42
0.4142135623731
  0
TEXT
  5
2E6
330
1F
100
AcDbEntity
  8
C-4
  6
Continuous
 62
     2
370
   211
100
AcDbText
 10
-652.5185746613065
 20
646.7156745292049
 30
0.0
 40
30.48
  1
300
 50
90.0
 41
1.083333333333333
  7
ＭＳ ゴシック
100
AcDbText
  0
LINE
  5
2E7
330
1F
100
AcDbEntity
  8
C-4
  6
Continuous
 62
     7
370
     9
100
AcDbLine
 10
-640.8785744228879
 20
829.2158805228573
 30
0.0
 11
-640.8785744228879
 21
854.2157584525446
 31
0.0
  0
LWPOLYLINE
  5
2E8
330
1F
100
AcDbEntity
  8
C-4
  6
Continuous
 62
     7
370
     9
100
AcDbPolyline
 90
        4
 70
     1
 43
1.0
 10
-640.3785744228879
 20
854.2157584525446
 42
0.4142135623731
 10
-640.8785744228879
 20
854.7157584525446
 42
0.4142135623731
 10
-641.3785744228879
 20
854.2157584525446
 42
0.4142135623731
 10
-640.8785744228879
 20
853.7157584525447
 42
0.4142135623731
  0
LINE
  5
2E9
330
1F
100
AcDbEntity
  8
C-4
  6
Continuous
 62
     7
370
     9
100
AcDbLine
 10
-698.8780862608468
 20
503.2152549125055
 30
0.0
 11
-588.8785133877315
 21
503.2152549125055
 31
0.0
  0
LINE
  5
2EA
330
1F
100
AcDbEntity
  8
C-4
  6
Continuous
 62
     7
370
     9
100
AcDbLine
 10
-698.8780862608468
 20
504.215605864654
 30
0.0
 11
-588.8785133877315
 21
504.215605864654
 31
0.0
  0
LINE
  5
2EB
330
1F
100
AcDbEntity
  8
C-4
  6
Continuous
 62
     7
370
     9
100
AcDbLine
 10
-698.8780862608468
 20
854.2157584525446
 30
0.0
 11
-588.8785133877315
 21
854.2157584525446
 31
0.0
  0
LINE
  5
2EC
330
1F
100
AcDbEntity
  8
C-4
  6
Continuous
 62
     7
370
     9
100
AcDbLine
 10
-698.8780862608468
 20
855.215605864654
 30
0.0
 11
-588.8785133877315
 21
855.215605864654
 31
0.0
  0
LINE
  5
2ED
330
1F
100
AcDbEntity
  8
C-4
  6
Continuous
 62
     7
370
     9
100
AcDbLine
 10
-643.8785745420972
 20
529.2154685355524
 30
0.0
 11
-588.8785133877315
 21
529.2154685355524
 31
0.0
  0
LINE
  5
2EE
330
1F
100
AcDbEntity
  8
C-4
  6
Continuous
 62
     7
370
     9
100
AcDbLine
 10
-643.8785745420972
 20
829.2158805228573
 30
0.0
 11
-588.8785133877315
 21
829.2158805228573
 31
0.0
  0
TEXT
  5
2EF
330
1F
100
AcDbEntity
  8
C-4
  6
Continuous
 62
     2
370
   211
100
AcDbText
 10
-652.5185746613065
 20
515.4655372001032
 30
0.0
 40
30.48
  1
25
 50
90.0
 41
1.0625
  7
ＭＳ ゴシック
100
AcDbText
  0
TEXT
  5
2F0
330
1F
100
AcDbEntity
  8
C-4
  6
Continuous
 62
     2
370
   211
100
AcDbText
 10
-652.5185746613065
 20
800.465819487701
 30
0.0
 40
30.48
  1
25
 50
90.0
 41
1.0625
  7
ＭＳ ゴシック
100
AcDbText
  0
TEXT
  5
2F1
330
1F
100
AcDbEntity
  8
C-4
  6
Continuous
 62
     2
370
   211
100
AcDbText
 10
-707.518086380056
 20
513.7154303885798
 30
0.0
 40
30.48
  1
1
 50
90.0
 41
0.9999999999999998
  7
ＭＳ ゴシック
100
AcDbText
  0
TEXT
  5
2F2
330
1F
100
AcDbEntity
  8
C-4
  6
Continuous
 62
     2
370
   211
100
AcDbText
 10
-707.518086380056
 20
824.7156821585993
 30
0.0
 40
30.48
  1
1
 50
90.0
 41
0.9999999999999998
  7
ＭＳ ゴシック
100
AcDbText
  0
LWPOLYLINE
  5
2F3
330
1F
100
AcDbEntity
  8
C-4
  6
Continuous
 62
     7
370
     9
100
AcDbPolyline
 90
        4
 70
     1
 43
1.0
 10
-750.3780861416375
 20
498.2152549125055
 42
0.4142135623731
 10
-750.8780861416375
 20
498.7152549125055
 42
0.4142135623731
 10
-751.3780861416375
 20
498.2152549125055
 42
0.4142135623731
 10
-750.8780861416375
 20
497.7152549125055
 42
0.4142135623731
  0
LWPOLYLINE
  5
2F4
330
1F
100
AcDbEntity
  8
C-4
  6
Continuous
 62
     7
370
     9
100
AcDbPolyline
 90
        4
 70
     1
 43
1.0
 10
-695.3780861416375
 20
498.2152549125055
 42
0.4142135623731
 10
-695.8780861416375
 20
498.7152549125055
 42
0.4142135623731
 10
-696.3780861416375
 20
498.2152549125055
 42
0.4142135623731
 10
-695.8780861416375
 20
497.7152549125055
 42
0.4142135623731
  0
LINE
  5
2F5
330
1F
100
AcDbEntity
  8
C-4
  6
Continuous
 62
     7
370
     9
100
AcDbLine
 10
-753.8780862608468
 20
498.2152549125055
 30
0.0
 11
-588.8785133877315
 21
498.2152549125055
 31
0.0
  0
LINE
  5
2F6
330
1F
100
AcDbEntity
  8
C-4
  6
Continuous
 62
     7
370
     9
100
AcDbLine
 10
-695.8780861416375
 20
498.2152549125055
 30
0.0
 11
-695.8780861416375
 21
448.2152549125055
 31
0.0
  0
LWPOLYLINE
  5
2F7
330
1F
100
AcDbEntity
  8
C-4
  6
Continuous
 62
     7
370
     9
100
AcDbPolyline
 90
        4
 70
     1
 43
1.0
 10
-750.3780861416375
 20
860.215605864654
 42
0.4142135623731
 10
-750.8780861416375
 20
860.715605864654
 42
0.4142135623731
 10
-751.3780861416375
 20
860.215605864654
 42
0.4142135623731
 10
-750.8780861416375
 20
859.715605864654
 42
0.4142135623731
  0
LWPOLYLINE
  5
2F8
330
1F
100
AcDbEntity
  8
C-4
  6
Continuous
 62
     7
370
     9
100
AcDbPolyline
 90
        4
 70
     1
 43
1.0
 10
-695.3780861416375
 20
860.215605864654
 42
0.4142135623731
 10
-695.8780861416375
 20
860.715605864654
 42
0.4142135623731
 10
-696.3780861416375
 20
860.215605864654
 42
0.4142135623731
 10
-695.8780861416375
 20
859.715605864654
 42
0.4142135623731
  0
LINE
  5
2F9
330
1F
100
AcDbEntity
  8
C-4
  6
Continuous
 62
     7
370
     9
100
AcDbLine
 10
-753.8780862608468
 20
860.215605864654
 30
0.0
 11
-588.8785133877315
 21
860.215605864654
 31
0.0
  0
LINE
  5
2FA
330
1F
100
AcDbEntity
  8
C-4
  6
Continuous
 62
     7
370
     9
100
AcDbLine
 10
-695.8780861416375
 20
860.215605864654
 30
0.0
 11
-695.8780861416375
 21
910.215605864654
 31
0.0
  0
LINE
  5
2FB
330
1F
100
AcDbEntity
  8
C-4
  6
Continuous
 62
     7
370
     9
100
AcDbLine
 10
-750.8780861416375
 20
498.2152549125055
 30
0.0
 11
-750.8780861416375
 21
860.215605864654
 31
0.0
  0
TEXT
  5
2FC
330
1F
100
AcDbEntity
  8
C-4
  6
Continuous
 62
     2
370
   211
100
AcDbText
 10
-762.518086380056
 20
646.7154303885798
 30
0.0
 40
30.48
  1
362
 50
90.0
 41
1.083333333333333
  7
ＭＳ ゴシック
100
AcDbText
  0
LINE
  5
2FD
330
1F
100
AcDbEntity
  8
C-4
  6
Continuous
 62
     7
370
     9
100
AcDbLine
 10
-695.8780861416375
 20
498.2152549125055
 30
0.0
 11
-695.8780861416375
 21
503.2152549125055
 31
0.0
  0
TEXT
  5
2FE
330
1F
100
AcDbEntity
  8
C-4
  6
Continuous
 62
     2
370
   211
100
AcDbText
 10
-707.518086380056
 20
461.715247283111
 30
0.0
 40
30.48
  1
5
 50
90.0
 41
0.9999999999999998
  7
ＭＳ ゴシック
100
AcDbText
  0
LINE
  5
2FF
330
1F
100
AcDbEntity
  8
C-4
  6
Continuous
 62
     7
370
     9
100
AcDbLine
 10
-695.8780861416375
 20
855.215605864654
 30
0.0
 11
-695.8780861416375
 21
860.215605864654
 31
0.0
  0
TEXT
  5
300
330
1F
100
AcDbEntity
  8
C-4
  6
Continuous
 62
     2
370
   211
100
AcDbText
 10
-707.518086380056
 20
876.715621123443
 30
0.0
 40
30.48
  1
5
 50
90.0
 41
0.9999999999999998
  7
ＭＳ ゴシック
100
AcDbText
  0
LINE
  5
301
330
1F
100
AcDbEntity
  8
D-4
  6
Continuous
 62
     7
370
     9
100
AcDbLine
 10
-1296.973547530612
 20
-169.5361253878167
 30
0.0
 11
-724.3057676081262
 21
-169.5361253878167
 31
0.0
  0
LINE
  5
302
330
1F
100
AcDbEntity
  8
D-4
  6
Continuous
 62
     7
370
     9
100
AcDbLine
 10
-724.3057676081262
 20
-274.999624218612
 30
0.0
 11
-724.3057676081262
 21
-166.5355608126214
 31
0.0
  0
LINE
  5
303
330
1F
100
AcDbEntity
  8
D-4
  6
Continuous
 62
     7
370
     9
100
AcDbLine
 10
-724.3057676081262
 20
-169.5361253878167
 30
0.0
 11
-599.30592973276
 21
-169.5361253878167
 31
0.0
  0
LINE
  5
304
330
1F
100
AcDbEntity
  8
D-4
  6
Continuous
 62
     7
370
     9
100
AcDbLine
 10
-599.30592973276
 20
-274.999624218612
 30
0.0
 11
-599.30592973276
 21
-57.78413030114677
 31
0.0
  0
LINE
  5
305
330
1F
100
AcDbEntity
  8
D-4
  6
Continuous
 62
     7
370
     9
100
AcDbLine
 10
-594.3056591276727
 20
-274.999624218612
 30
0.0
 11
-594.3056591276727
 21
-57.78413030114677
 31
0.0
  0
LINE
  5
306
330
1F
100
AcDbEntity
  8
D-4
  6
Continuous
 62
     7
370
     9
100
AcDbLine
 10
-569.3067808870874
 20
-274.999624218612
 30
0.0
 11
-569.3067808870874
 21
52.91252878698799
 31
0.0
  0
LINE
  5
307
330
1F
100
AcDbEntity
  8
D-4
  6
Continuous
 62
     7
370
     9
100
AcDbLine
 10
-724.3057676081262
 20
-850.5381319185784
 30
0.0
 11
-324.3048997644981
 21
-850.5381319185784
 31
0.0
  0
LINE
  5
308
330
1F
100
AcDbEntity
  8
D-4
  6
Continuous
 62
     7
370
     9
100
AcDbLine
 10
-324.3048997644981
 20
-610.3289339205315
 30
0.0
 11
-324.3048997644981
 21
-853.5377046724847
 31
0.0
  0
LINE
  5
309
330
1F
100
AcDbEntity
  8
D-4
  6
Continuous
 62
     7
370
     9
100
AcDbLine
 10
-724.3057676081262
 20
-696.0737535616448
 30
0.0
 11
-574.306556773623
 21
-696.0737535616448
 31
0.0
  0
LINE
  5
30A
330
1F
100
AcDbEntity
  8
D-4
  6
Continuous
 62
     7
370
     9
100
AcDbLine
 10
-52.62055833383407
 20
-540.4549524447015
 30
0.0
 11
-52.62055833383407
 21
-290.455276693969
 31
0.0
  0
LINE
  5
30B
330
1F
100
AcDbEntity
  8
D-4
  6
Continuous
 62
     7
370
     9
100
AcDbLine
 10
-148.2757325892052
 20
-290.455276693969
 30
0.0
 11
-49.62098557992782
 21
-290.455276693969
 31
0.0
  0
LINE
  5
30C
330
1F
100
AcDbEntity
  8
D-6
  6
Continuous
 62
     6
370
     9
100
AcDbLine
 10
-574.306556773623
 20
-540.4549524447015
 30
0.0
 11
-574.306556773623
 21
-790.4546281954339
 31
0.0
  0
LINE
  5
30D
330
1F
100
AcDbEntity
  8
D-6
  6
JWW_DASHED3
 62
     6
370
     9
100
AcDbLine
 10
-480.8046670679649
 20
-667.9549333712151
 30
0.0
 11
-480.8046670679649
 21
-540.4549524447015
 31
0.0
  0
LINE
  5
30E
330
1F
100
AcDbEntity
  8
D-6
  6
JWW_DASHED3
 62
     6
370
     9
100
AcDbLine
 10
-435.8042093042931
 20
-540.4549524447015
 30
0.0
 11
-435.8042093042931
 21
-667.9549333712151
 31
0.0
  0
LINE
  5
30F
330
1F
100
AcDbEntity
  8
D-6
  6
Continuous
 62
     6
370
     9
100
AcDbLine
 10
-324.3058915857872
 20
-440.4554769655755
 30
0.0
 11
-159.3048997644981
 21
-440.4554769655755
 31
0.0
  0
LINE
  5
310
330
1F
100
AcDbEntity
  8
D-6
  6
Continuous
 62
     6
370
     9
100
AcDbLine
 10
-324.3058915857872
 20
-440.4554769655755
 30
0.0
 11
-324.3058915857872
 21
-540.4549524447015
 31
0.0
  0
LINE
  5
311
330
1F
100
AcDbEntity
  8
D-4
  6
Continuous
 62
     7
370
     9
100
AcDbLine
 10
-268.5270066980919
 20
-540.4549524447015
 30
0.0
 11
-49.62098557992782
 21
-540.4549524447015
 31
0.0
  0
LINE
  5
312
330
1F
100
AcDbEntity
  8
D-6
  6
Continuous
 62
     6
370
     9
100
AcDbLine
 10
-574.306556773623
 20
-540.4549524447015
 30
0.0
 11
-324.3058915857872
 21
-540.4549524447015
 31
0.0
  0
LINE
  5
313
330
1F
100
AcDbEntity
  8
D-6
  6
Continuous
 62
     6
370
     9
100
AcDbLine
 10
-480.8046670679649
 20
-342.9551479479363
 30
0.0
 11
-435.8042093042931
 21
-342.9551479479363
 31
0.0
  0
LINE
  5
314
330
1F
100
AcDbEntity
  8
D-6
  6
JWW_CENTER2
 62
     6
370
     9
100
AcDbLine
 10
-458.304438186129
 20
-338.8759538790276
 30
0.0
 11
-458.304438186129
 21
-667.9549333712151
 31
0.0
  0
LINE
  5
315
330
1F
100
AcDbEntity
  8
D-4
  6
Continuous
 62
     7
370
     9
100
AcDbLine
 10
-569.3067808870874
 20
-428.4225198885491
 30
0.0
 11
-569.3067808870874
 21
-499.7650644442132
 31
0.0
  0
LINE
  5
316
330
1F
100
AcDbEntity
  8
D-6
  6
Continuous
 62
     6
370
     9
100
AcDbLine
 10
-480.8046670679649
 20
-375.454923834472
 30
0.0
 11
-480.8046670679649
 21
-342.9551479479363
 31
0.0
  0
LINE
  5
317
330
1F
100
AcDbEntity
  8
D-6
  6
Continuous
 62
     6
370
     9
100
AcDbLine
 10
-435.8042093042931
 20
-375.454923834472
 30
0.0
 11
-435.8042093042931
 21
-342.9551479479363
 31
0.0
  0
LINE
  5
318
330
1F
100
AcDbEntity
  8
D-6
  6
Continuous
 62
     6
370
     9
100
AcDbLine
 10
-480.8046670679649
 20
-540.4549524447015
 30
0.0
 11
-480.8046670679649
 21
-425.4546663424065
 31
0.0
  0
LINE
  5
319
330
1F
100
AcDbEntity
  8
D-6
  6
Continuous
 62
     6
370
     9
100
AcDbLine
 10
-435.8042093042931
 20
-540.4549524447015
 30
0.0
 11
-435.8042093042931
 21
-425.4546663424065
 31
0.0
  0
LINE
  5
31A
330
1F
100
AcDbEntity
  8
D-4
  6
Continuous
 62
     7
370
     9
100
AcDbLine
 10
-869.7882791285119
 20
-415.4551145693353
 30
0.0
 11
-869.7882791285119
 21
-290.455276693969
 31
0.0
  0
LINE
  5
31B
330
1F
100
AcDbEntity
  8
D-4
  6
Continuous
 62
     7
370
     9
100
AcDbLine
 10
-597.4508946065507
 20
-290.455276693969
 30
0.0
 11
-872.7888437037072
 21
-290.455276693969
 31
0.0
  0
LINE
  5
31C
330
1F
100
AcDbEntity
  8
D-4
  6
Continuous
 62
     7
370
     9
100
AcDbLine
 10
-1296.973547530612
 20
49.91196421179268
 30
0.0
 11
-569.3067808870874
 21
49.91196421179268
 31
0.0
  0
LINE
  5
31D
330
1F
100
AcDbEntity
  8
D-4
  6
Continuous
 62
     7
370
     9
100
AcDbLine
 10
-1296.973547530612
 20
-60.78370305505302
 30
0.0
 11
-533.2203050379358
 21
-60.78370305505302
 31
0.0
  0
LINE
  5
31E
330
1F
100
AcDbEntity
  8
D-4
  6
Continuous
 62
     7
370
     9
100
AcDbLine
 10
-569.3067808870874
 20
-496.7645189425042
 30
0.0
 11
-424.3063493494591
 21
-496.7645189425042
 31
0.0
  0
LINE
  5
31F
330
1F
100
AcDbEntity
  8
D-5
  6
Continuous
 62
     2
370
     9
100
AcDbLine
 10
-1066.301092696627
 20
-986.3974306246331
 30
0.0
 11
-1066.301092696627
 21
-921.3978502413323
 31
0.0
  0
LINE
  5
320
330
1F
100
AcDbEntity
  8
D-5
  6
Continuous
 62
     2
370
     9
100
AcDbLine
 10
-1066.301092696627
 20
-921.3978502413323
 30
0.0
 11
-491.3006730799278
 21
-921.3978502413323
 31
0.0
  0
LINE
  5
321
330
1F
100
AcDbEntity
  8
D-5
  6
Continuous
 62
     2
370
     9
100
AcDbLine
 10
-491.3006730799278
 20
-921.3978502413323
 30
0.0
 11
-491.3006730799278
 21
-986.3974306246331
 31
0.0
  0
LINE
  5
322
330
1F
100
AcDbEntity
  8
D-5
  6
Continuous
 62
     2
370
     9
100
AcDbLine
 10
-491.3006730799278
 20
-986.3974306246331
 30
0.0
 11
-1066.301092696627
 21
-986.3974306246331
 31
0.0
  0
LINE
  5
323
330
1F
100
AcDbEntity
  8
D-4
  6
Continuous
 62
     7
370
     9
100
AcDbLine
 10
-724.3057676081262
 20
-815.4549715181878
 30
0.0
 11
-724.3057676081262
 21
-853.5377046724847
 31
0.0
  0
LINE
  5
324
330
1F
100
AcDbEntity
  8
D-5
  6
Continuous
 62
     7
370
     9
100
AcDbLine
 10
-384.9611802820763
 20
-182.4064180513909
 30
0.0
 11
-125.5783220057091
 21
-182.4064180513909
 31
0.0
  0
LINE
  5
325
330
1F
100
AcDbEntity
  8
D-5
  6
Continuous
 62
     7
370
     9
100
AcDbLine
 10
-576.2487955813012
 20
-290.455276693969
 30
0.0
 11
-562.4380989794336
 21
-269.6168515345147
 31
0.0
  0
LINE
  5
326
330
1F
100
AcDbEntity
  8
D-5
  6
Continuous
 62
     7
370
     9
100
AcDbLine
 10
-576.2487955813012
 20
-290.455276693969
 30
0.0
 11
-557.5151201014123
 21
-273.9011690279534
 31
0.0
  0
LINE
  5
327
330
1F
100
AcDbEntity
  8
D-5
  6
Continuous
 62
     7
370
     9
100
AcDbLine
 10
-434.4565339808067
 20
-127.5441476961663
 30
0.0
 11
-576.2487955813012
 21
-290.455276693969
 31
0.0
  0
LINE
  5
328
330
1F
100
AcDbEntity
  8
D-5
  6
Continuous
 62
     7
370
     9
100
AcDbLine
 10
-384.9611802820763
 20
-182.4064180513909
 30
0.0
 11
-599.7895072449646
 21
-429.2321130892327
 31
0.0
  0
LINE
  5
329
330
1F
100
AcDbEntity
  8
D-5
  6
Continuous
 62
     7
370
     9
100
AcDbLine
 10
-434.4565339808067
 20
-127.5441476961663
 30
0.0
 11
16.33383314565812
 21
-127.5441476961663
 31
0.0
  0
LINE
  5
32A
330
1F
100
AcDbEntity
  8
D-6
  6
Continuous
 62
     6
370
     9
100
AcDbLine
 10
-324.3058915857872
 20
-487.7950403353265
 30
0.0
 11
-276.9658418421349
 21
-440.454981054931
 31
0.0
  0
LINE
  5
32B
330
1F
100
AcDbEntity
  8
D-6
  6
Continuous
 62
     6
370
     9
100
AcDbLine
 10
-574.3055673365197
 20
-737.7927324434808
 30
0.0
 11
-376.9662996058067
 21
-540.4549524447015
 31
0.0
  0
LINE
  5
32C
330
1F
100
AcDbEntity
  8
D-6
  6
Continuous
 62
     6
370
     9
100
AcDbLine
 10
-574.3055673365197
 20
-751.9333955904534
 30
0.0
 11
-362.8256173853478
 21
-540.4549524447015
 31
0.0
  0
LINE
  5
32D
330
1F
100
AcDbEntity
  8
D-6
  6
Continuous
 62
     6
370
     9
100
AcDbLine
 10
-324.3058915857872
 20
-501.9357225557854
 30
0.0
 11
-262.8251405481896
 21
-440.454981054931
 31
0.0
  0
LINE
  5
32E
330
1F
100
AcDbEntity
  8
D-6
  6
Continuous
 62
     6
370
     9
100
AcDbLine
 10
-574.3055673365197
 20
-766.0740968843987
 30
0.0
 11
-348.6849351648888
 21
-540.4549524447015
 31
0.0
  0
LINE
  5
32F
330
1F
100
AcDbEntity
  8
D-6
  6
Continuous
 62
     6
370
     9
100
AcDbLine
 10
-324.3058915857872
 20
-516.0764047762444
 30
0.0
 11
-248.6844774012169
 21
-440.454981054931
 31
0.0
  0
LINE
  5
330
330
1F
100
AcDbEntity
  8
D-6
  6
Continuous
 62
     6
370
     9
100
AcDbLine
 10
-235.1334138636192
 20
-790.4546281954339
 30
0.0
 11
-159.3048997644981
 21
-714.6266100069573
 31
0.0
  0
LINE
  5
331
330
1F
100
AcDbEntity
  8
D-6
  6
Continuous
 62
     6
370
     9
100
AcDbLine
 10
-249.2740770105919
 20
-790.4546281954339
 30
0.0
 11
-159.3048997644981
 21
-700.485908713012
 31
0.0
  0
LINE
  5
332
330
1F
100
AcDbEntity
  8
D-6
  6
Continuous
 62
     6
370
     9
100
AcDbLine
 10
-220.9927125696739
 20
-790.4546281954339
 30
0.0
 11
-159.3048997644981
 21
-728.76727315393
 31
0.0
  0
LINE
  5
333
330
1F
100
AcDbEntity
  8
D-0
  6
Continuous
 62
     7
370
     9
100
AcDbLine
 10
-297.4603982691368
 20
-311.404688086181
 30
0.0
 11
-297.4603982691368
 21
-309.9044081827691
 31
0.0
  0
LINE
  5
334
330
1F
100
AcDbEntity
  8
D-0
  6
Continuous
 62
     7
370
     9
100
AcDbLine
 10
-297.4603982691368
 20
-309.9044081827691
 30
0.0
 11
-295.96063096567
 21
-309.9044081827691
 31
0.0
  0
LINE
  5
335
330
1F
100
AcDbEntity
  8
D-0
  6
Continuous
 62
     7
370
     9
100
AcDbLine
 10
-295.96063096567
 20
-309.9044081827691
 30
0.0
 11
-295.96063096567
 21
-311.404688086181
 31
0.0
  0
LINE
  5
336
330
1F
100
AcDbEntity
  8
D-0
  6
Continuous
 62
     7
370
     9
100
AcDbLine
 10
-295.96063096567
 20
-311.404688086181
 30
0.0
 11
-297.4603982691368
 21
-311.404688086181
 31
0.0
  0
LINE
  5
337
330
1F
100
AcDbEntity
  8
D-0
  6
Continuous
 62
     7
370
     9
100
AcDbLine
 10
-246.7045732264122
 20
-314.1119286676934
 30
0.0
 11
-246.7045732264122
 21
-312.6116487642815
 31
0.0
  0
LINE
  5
338
330
1F
100
AcDbEntity
  8
D-0
  6
Continuous
 62
     7
370
     9
100
AcDbLine
 10
-246.7045732264122
 20
-312.6116487642815
 30
0.0
 11
-245.2042909388146
 21
-312.6116487642815
 31
0.0
  0
LINE
  5
339
330
1F
100
AcDbEntity
  8
D-0
  6
Continuous
 62
     7
370
     9
100
AcDbLine
 10
-245.2042909388146
 20
-312.6116487642815
 30
0.0
 11
-245.2042909388146
 21
-314.1119286676934
 31
0.0
  0
LINE
  5
33A
330
1F
100
AcDbEntity
  8
D-0
  6
Continuous
 62
     7
370
     9
100
AcDbLine
 10
-245.2042909388146
 20
-314.1119286676934
 30
0.0
 11
-246.7045732264122
 21
-314.1119286676934
 31
0.0
  0
LINE
  5
33B
330
1F
100
AcDbEntity
  8
D-0
  6
Continuous
 62
     7
370
     9
100
AcDbLine
 10
-181.7367311243614
 20
-312.0814988276055
 30
0.0
 11
-181.7367311243614
 21
-310.5812189241936
 31
0.0
  0
LINE
  5
33C
330
1F
100
AcDbEntity
  8
D-0
  6
Continuous
 62
     7
370
     9
100
AcDbLine
 10
-181.7367311243614
 20
-310.5812189241936
 30
0.0
 11
-180.2369447474083
 21
-310.5812189241936
 31
0.0
  0
LINE
  5
33D
330
1F
100
AcDbEntity
  8
D-0
  6
Continuous
 62
     7
370
     9
100
AcDbLine
 10
-180.2369447474083
 20
-310.5812189241936
 30
0.0
 11
-180.2369447474083
 21
-312.0814988276055
 31
0.0
  0
LINE
  5
33E
330
1F
100
AcDbEntity
  8
D-0
  6
Continuous
 62
     7
370
     9
100
AcDbLine
 10
-180.2369447474083
 20
-312.0814988276055
 30
0.0
 11
-181.7367311243614
 21
-312.0814988276055
 31
0.0
  0
LINE
  5
33F
330
1F
100
AcDbEntity
  8
D-0
  6
Continuous
 62
     7
370
     9
100
AcDbLine
 10
-206.0999437098106
 20
-344.5654222628167
 30
0.0
 11
-206.0999437098106
 21
-343.065139975219
 31
0.0
  0
LINE
  5
340
330
1F
100
AcDbEntity
  8
D-0
  6
Continuous
 62
     7
370
     9
100
AcDbLine
 10
-206.0999437098106
 20
-343.065139975219
 30
0.0
 11
-204.599661422213
 21
-343.065139975219
 31
0.0
  0
LINE
  5
341
330
1F
100
AcDbEntity
  8
D-0
  6
Continuous
 62
     7
370
     9
100
AcDbLine
 10
-204.599661422213
 20
-343.065139975219
 30
0.0
 11
-204.599661422213
 21
-344.5654222628167
 31
0.0
  0
LINE
  5
342
330
1F
100
AcDbEntity
  8
D-0
  6
Continuous
 62
     7
370
     9
100
AcDbLine
 10
-204.599661422213
 20
-344.5654222628167
 30
0.0
 11
-206.0999437098106
 21
-344.5654222628167
 31
0.0
  0
LINE
  5
343
330
1F
100
AcDbEntity
  8
D-0
  6
Continuous
 62
     7
370
     9
100
AcDbLine
 10
-256.664976668795
 20
-348.4964725634148
 30
0.0
 11
-256.664976668795
 21
-346.9961902758172
 31
0.0
  0
LINE
  5
344
330
1F
100
AcDbEntity
  8
D-0
  6
Continuous
 62
     7
370
     9
100
AcDbLine
 10
-256.664976668795
 20
-346.9961902758172
 30
0.0
 11
-255.1652284388146
 21
-346.9961902758172
 31
0.0
  0
LINE
  5
345
330
1F
100
AcDbEntity
  8
D-0
  6
Continuous
 62
     7
370
     9
100
AcDbLine
 10
-255.1652284388146
 20
-346.9961902758172
 30
0.0
 11
-255.1652284388146
 21
-348.4964725634148
 31
0.0
  0
LINE
  5
346
330
1F
100
AcDbEntity
  8
D-0
  6
Continuous
 62
     7
370
     9
100
AcDbLine
 10
-255.1652284388146
 20
-348.4964725634148
 30
0.0
 11
-256.664976668795
 21
-348.4964725634148
 31
0.0
  0
LINE
  5
347
330
1F
100
AcDbEntity
  8
D-0
  6
Continuous
 62
     7
370
     9
100
AcDbLine
 10
-273.7745042566856
 20
-382.463333334594
 30
0.0
 11
-273.7745042566856
 21
-380.9630510469964
 31
0.0
  0
LINE
  5
348
330
1F
100
AcDbEntity
  8
D-0
  6
Continuous
 62
     7
370
     9
100
AcDbLine
 10
-273.7745042566856
 20
-380.9630510469964
 30
0.0
 11
-272.2742601160606
 21
-380.9630510469964
 31
0.0
  0
LINE
  5
349
330
1F
100
AcDbEntity
  8
D-0
  6
Continuous
 62
     7
370
     9
100
AcDbLine
 10
-272.2742601160606
 20
-380.9630510469964
 30
0.0
 11
-272.2742601160606
 21
-382.463333334594
 31
0.0
  0
LINE
  5
34A
330
1F
100
AcDbEntity
  8
D-0
  6
Continuous
 62
     7
370
     9
100
AcDbLine
 10
-272.2742601160606
 20
-382.463333334594
 30
0.0
 11
-273.7745042566856
 21
-382.463333334594
 31
0.0
  0
LINE
  5
34B
330
1F
100
AcDbEntity
  8
D-0
  6
Continuous
 62
     7
370
     9
100
AcDbLine
 10
-305.1307626490196
 20
-367.891595091491
 30
0.0
 11
-305.1307626490196
 21
-366.3913175722649
 31
0.0
  0
LINE
  5
34C
330
1F
100
AcDbEntity
  8
D-0
  6
Continuous
 62
     7
370
     9
100
AcDbLine
 10
-305.1307626490196
 20
-366.3913175722649
 30
0.0
 11
-303.6309762720665
 21
-366.3913175722649
 31
0.0
  0
LINE
  5
34D
330
1F
100
AcDbEntity
  8
D-0
  6
Continuous
 62
     7
370
     9
100
AcDbLine
 10
-303.6309762720665
 20
-366.3913175722649
 30
0.0
 11
-303.6309762720665
 21
-367.891595091491
 31
0.0
  0
LINE
  5
34E
330
1F
100
AcDbEntity
  8
D-0
  6
Continuous
 62
     7
370
     9
100
AcDbLine
 10
-303.6309762720665
 20
-367.891595091491
 30
0.0
 11
-305.1307626490196
 21
-367.891595091491
 31
0.0
  0
LINE
  5
34F
330
1F
100
AcDbEntity
  8
D-0
  6
Continuous
 62
     7
370
     9
100
AcDbLine
 10
-315.8551736597618
 20
-409.1116258760979
 30
0.0
 11
-315.8551736597618
 21
-407.6113435885003
 31
0.0
  0
LINE
  5
350
330
1F
100
AcDbEntity
  8
D-0
  6
Continuous
 62
     7
370
     9
100
AcDbLine
 10
-315.8551736597618
 20
-407.6113435885003
 30
0.0
 11
-314.3548913721642
 21
-407.6113435885003
 31
0.0
  0
LINE
  5
351
330
1F
100
AcDbEntity
  8
D-0
  6
Continuous
 62
     7
370
     9
100
AcDbLine
 10
-314.3548913721642
 20
-407.6113435885003
 30
0.0
 11
-314.3548913721642
 21
-409.1116258760979
 31
0.0
  0
LINE
  5
352
330
1F
100
AcDbEntity
  8
D-0
  6
Continuous
 62
     7
370
     9
100
AcDbLine
 10
-314.3548913721642
 20
-409.1116258760979
 30
0.0
 11
-315.8551736597618
 21
-409.1116258760979
 31
0.0
  0
LINE
  5
353
330
1F
100
AcDbEntity
  8
D-0
  6
Continuous
 62
     7
370
     9
100
AcDbLine
 10
-278.5117097620567
 20
-417.6540014406731
 30
0.0
 11
-278.5117097620567
 21
-416.1537191530755
 31
0.0
  0
LINE
  5
354
330
1F
100
AcDbEntity
  8
D-0
  6
Continuous
 62
     7
370
     9
100
AcDbLine
 10
-278.5117097620567
 20
-416.1537191530755
 30
0.0
 11
-277.0114274744591
 21
-416.1537191530755
 31
0.0
  0
LINE
  5
355
330
1F
100
AcDbEntity
  8
D-0
  6
Continuous
 62
     7
370
     9
100
AcDbLine
 10
-277.0114274744591
 20
-416.1537191530755
 30
0.0
 11
-277.0114274744591
 21
-417.6540014406731
 31
0.0
  0
LINE
  5
356
330
1F
100
AcDbEntity
  8
D-0
  6
Continuous
 62
     7
370
     9
100
AcDbLine
 10
-277.0114274744591
 20
-417.6540014406731
 30
0.0
 11
-278.5117097620567
 21
-417.6540014406731
 31
0.0
  0
LINE
  5
357
330
1F
100
AcDbEntity
  8
D-0
  6
Continuous
 62
     7
370
     9
100
AcDbLine
 10
-226.3066240076622
 20
-422.3787901064446
 30
0.0
 11
-226.3066240076622
 21
-420.8785173555901
 31
0.0
  0
LINE
  5
358
330
1F
100
AcDbEntity
  8
D-0
  6
Continuous
 62
     7
370
     9
100
AcDbLine
 10
-226.3066240076622
 20
-420.8785173555901
 30
0.0
 11
-224.8068376307091
 21
-420.8785173555901
 31
0.0
  0
LINE
  5
359
330
1F
100
AcDbEntity
  8
D-0
  6
Continuous
 62
     7
370
     9
100
AcDbLine
 10
-224.8068376307091
 20
-420.8785173555901
 30
0.0
 11
-224.8068376307091
 21
-422.3787901064446
 31
0.0
  0
LINE
  5
35A
330
1F
100
AcDbEntity
  8
D-0
  6
Continuous
 62
     7
370
     9
100
AcDbLine
 10
-224.8068376307091
 20
-422.3787901064446
 30
0.0
 11
-226.3066240076622
 21
-422.3787901064446
 31
0.0
  0
LINE
  5
35B
330
1F
100
AcDbEntity
  8
D-0
  6
Continuous
 62
     7
370
     9
100
AcDbLine
 10
-171.5855546717247
 20
-415.6235716005853
 30
0.0
 11
-171.5855546717247
 21
-414.1232893129876
 31
0.0
  0
LINE
  5
35C
330
1F
100
AcDbEntity
  8
D-0
  6
Continuous
 62
     7
370
     9
100
AcDbLine
 10
-171.5855546717247
 20
-414.1232893129876
 30
0.0
 11
-170.0858064417442
 21
-414.1232893129876
 31
0.0
  0
LINE
  5
35D
330
1F
100
AcDbEntity
  8
D-0
  6
Continuous
 62
     7
370
     9
100
AcDbLine
 10
-170.0858064417442
 20
-414.1232893129876
 30
0.0
 11
-170.0858064417442
 21
-415.6235716005853
 31
0.0
  0
LINE
  5
35E
330
1F
100
AcDbEntity
  8
D-0
  6
Continuous
 62
     7
370
     9
100
AcDbLine
 10
-170.0858064417442
 20
-415.6235716005853
 30
0.0
 11
-171.5855546717247
 21
-415.6235716005853
 31
0.0
  0
LINE
  5
35F
330
1F
100
AcDbEntity
  8
D-0
  6
Continuous
 62
     7
370
     9
100
AcDbLine
 10
-183.7671800379356
 20
-375.6957265993645
 30
0.0
 11
-183.7671800379356
 21
-374.1954443117669
 31
0.0
  0
LINE
  5
360
330
1F
100
AcDbEntity
  8
D-0
  6
Continuous
 62
     7
370
     9
100
AcDbLine
 10
-183.7671800379356
 20
-374.1954443117669
 30
0.0
 11
-182.266897750338
 21
-374.1954443117669
 31
0.0
  0
LINE
  5
361
330
1F
100
AcDbEntity
  8
D-0
  6
Continuous
 62
     7
370
     9
100
AcDbLine
 10
-182.266897750338
 20
-374.1954443117669
 30
0.0
 11
-182.266897750338
 21
-375.6957265993645
 31
0.0
  0
LINE
  5
362
330
1F
100
AcDbEntity
  8
D-0
  6
Continuous
 62
     7
370
     9
100
AcDbLine
 10
-182.266897750338
 20
-375.6957265993645
 30
0.0
 11
-183.7671800379356
 21
-375.6957265993645
 31
0.0
  0
LINE
  5
363
330
1F
100
AcDbEntity
  8
D-0
  6
Continuous
 62
     7
370
     9
100
AcDbLine
 10
-224.7959275965294
 20
-384.8133394381097
 30
0.0
 11
-224.7959275965294
 21
-383.313057150512
 31
0.0
  0
LINE
  5
364
330
1F
100
AcDbEntity
  8
D-0
  6
Continuous
 62
     7
370
     9
100
AcDbLine
 10
-224.7959275965294
 20
-383.313057150512
 30
0.0
 11
-223.2961793665489
 21
-383.313057150512
 31
0.0
  0
LINE
  5
365
330
1F
100
AcDbEntity
  8
D-0
  6
Continuous
 62
     7
370
     9
100
AcDbLine
 10
-223.2961793665489
 20
-383.313057150512
 30
0.0
 11
-223.2961793665489
 21
-384.8133394381097
 31
0.0
  0
LINE
  5
366
330
1F
100
AcDbEntity
  8
D-0
  6
Continuous
 62
     7
370
     9
100
AcDbLine
 10
-223.2961793665489
 20
-384.8133394381097
 30
0.0
 11
-224.7959275965294
 21
-384.8133394381097
 31
0.0
  0
LINE
  5
367
330
1F
100
AcDbEntity
  8
D-0
  6
Continuous
 62
     7
370
     9
100
AcDbLine
 10
-164.3111177210411
 20
-345.3249761721185
 30
0.0
 11
-164.3111177210411
 21
-343.8246938845208
 31
0.0
  0
LINE
  5
368
330
1F
100
AcDbEntity
  8
D-0
  6
Continuous
 62
     7
370
     9
100
AcDbLine
 10
-164.3111177210411
 20
-343.8246938845208
 30
0.0
 11
-162.8108354334435
 21
-343.8246938845208
 31
0.0
  0
LINE
  5
369
330
1F
100
AcDbEntity
  8
D-0
  6
Continuous
 62
     7
370
     9
100
AcDbLine
 10
-162.8108354334435
 20
-343.8246938845208
 30
0.0
 11
-162.8108354334435
 21
-345.3249761721185
 31
0.0
  0
LINE
  5
36A
330
1F
100
AcDbEntity
  8
D-0
  6
Continuous
 62
     7
370
     9
100
AcDbLine
 10
-162.8108354334435
 20
-345.3249761721185
 30
0.0
 11
-164.3111177210411
 21
-345.3249761721185
 31
0.0
  0
LINE
  5
36B
330
1F
100
AcDbEntity
  8
D-0
  6
Continuous
 62
     7
370
     9
100
AcDbLine
 10
-318.31170518442
 20
-334.4320938250115
 30
0.0
 11
-318.31170518442
 21
-332.9318163057854
 31
0.0
  0
LINE
  5
36C
330
1F
100
AcDbEntity
  8
D-0
  6
Continuous
 62
     7
370
     9
100
AcDbLine
 10
-318.31170518442
 20
-332.9318163057854
 30
0.0
 11
-316.8114419703087
 21
-332.9318163057854
 31
0.0
  0
LINE
  5
36D
330
1F
100
AcDbEntity
  8
D-0
  6
Continuous
 62
     7
370
     9
100
AcDbLine
 10
-316.8114419703087
 20
-332.9318163057854
 30
0.0
 11
-316.8114419703087
 21
-334.4320938250115
 31
0.0
  0
LINE
  5
36E
330
1F
100
AcDbEntity
  8
D-0
  6
Continuous
 62
     7
370
     9
100
AcDbLine
 10
-316.8114419703087
 20
-334.4320938250115
 30
0.0
 11
-318.31170518442
 21
-334.4320938250115
 31
0.0
  0
LINE
  5
36F
330
1F
100
AcDbEntity
  8
D-0
  6
Continuous
 62
     7
370
     9
100
AcDbLine
 10
-401.6614480738243
 20
-457.6824304720452
 30
0.0
 11
-401.6614480738243
 21
-456.1821481844476
 31
0.0
  0
LINE
  5
370
330
1F
100
AcDbEntity
  8
D-0
  6
Continuous
 62
     7
370
     9
100
AcDbLine
 10
-401.6614480738243
 20
-456.1821481844476
 30
0.0
 11
-400.1611657862267
 21
-456.1821481844476
 31
0.0
  0
LINE
  5
371
330
1F
100
AcDbEntity
  8
D-0
  6
Continuous
 62
     7
370
     9
100
AcDbLine
 10
-400.1611657862267
 20
-456.1821481844476
 30
0.0
 11
-400.1611657862267
 21
-457.6824304720452
 31
0.0
  0
LINE
  5
372
330
1F
100
AcDbEntity
  8
D-0
  6
Continuous
 62
     7
370
     9
100
AcDbLine
 10
-400.1611657862267
 20
-457.6824304720452
 30
0.0
 11
-401.6614480738243
 21
-457.6824304720452
 31
0.0
  0
LINE
  5
373
330
1F
100
AcDbEntity
  8
D-0
  6
Continuous
 62
     7
370
     9
100
AcDbLine
 10
-352.2969003443321
 20
-465.5807039400628
 30
0.0
 11
-352.2969003443321
 21
-464.0804216524651
 31
0.0
  0
LINE
  5
374
330
1F
100
AcDbEntity
  8
D-0
  6
Continuous
 62
     7
370
     9
100
AcDbLine
 10
-352.2969003443321
 20
-464.0804216524651
 30
0.0
 11
-350.7966371302208
 21
-464.0804216524651
 31
0.0
  0
LINE
  5
375
330
1F
100
AcDbEntity
  8
D-0
  6
Continuous
 62
     7
370
     9
100
AcDbLine
 10
-350.7966371302208
 20
-464.0804216524651
 30
0.0
 11
-350.7966371302208
 21
-465.5807039400628
 31
0.0
  0
LINE
  5
376
330
1F
100
AcDbEntity
  8
D-0
  6
Continuous
 62
     7
370
     9
100
AcDbLine
 10
-350.7966371302208
 20
-465.5807039400628
 30
0.0
 11
-352.2969003443321
 21
-465.5807039400628
 31
0.0
  0
LINE
  5
377
330
1F
100
AcDbEntity
  8
D-0
  6
Continuous
 62
     7
370
     9
100
AcDbLine
 10
-369.1780229334435
 20
-486.1614725252679
 30
0.0
 11
-369.1780229334435
 21
-484.6612093111565
 31
0.0
  0
LINE
  5
378
330
1F
100
AcDbEntity
  8
D-0
  6
Continuous
 62
     7
370
     9
100
AcDbLine
 10
-369.1780229334435
 20
-484.6612093111565
 30
0.0
 11
-367.6782365564903
 21
-484.6612093111565
 31
0.0
  0
LINE
  5
379
330
1F
100
AcDbEntity
  8
D-0
  6
Continuous
 62
     7
370
     9
100
AcDbLine
 10
-367.6782365564903
 20
-484.6612093111565
 30
0.0
 11
-367.6782365564903
 21
-486.1614725252679
 31
0.0
  0
LINE
  5
37A
330
1F
100
AcDbEntity
  8
D-0
  6
Continuous
 62
     7
370
     9
100
AcDbLine
 10
-367.6782365564903
 20
-486.1614725252679
 30
0.0
 11
-369.1780229334435
 21
-486.1614725252679
 31
0.0
  0
LINE
  5
37B
330
1F
100
AcDbEntity
  8
D-0
  6
Continuous
 62
     7
370
     9
100
AcDbLine
 10
-417.4579950098595
 20
-520.8695718905022
 30
0.0
 11
-417.4579950098595
 21
-519.3692896029046
 31
0.0
  0
LINE
  5
37C
330
1F
100
AcDbEntity
  8
D-0
  6
Continuous
 62
     7
370
     9
100
AcDbLine
 10
-417.4579950098595
 20
-519.3692896029046
 30
0.0
 11
-415.9582086329063
 21
-519.3692896029046
 31
0.0
  0
LINE
  5
37D
330
1F
100
AcDbEntity
  8
D-0
  6
Continuous
 62
     7
370
     9
100
AcDbLine
 10
-415.9582086329063
 20
-519.3692896029046
 30
0.0
 11
-415.9582086329063
 21
-520.8695718905022
 31
0.0
  0
LINE
  5
37E
330
1F
100
AcDbEntity
  8
D-0
  6
Continuous
 62
     7
370
     9
100
AcDbLine
 10
-415.9582086329063
 20
-520.8695718905022
 30
0.0
 11
-417.4579950098595
 21
-520.8695718905022
 31
0.0
  0
LINE
  5
37F
330
1F
100
AcDbEntity
  8
D-0
  6
Continuous
 62
     7
370
     9
100
AcDbLine
 10
-346.3730760340294
 20
-518.8946268221429
 30
0.0
 11
-346.3730760340294
 21
-517.3943445345452
 31
0.0
  0
LINE
  5
380
330
1F
100
AcDbEntity
  8
D-0
  6
Continuous
 62
     7
370
     9
100
AcDbLine
 10
-346.3730760340294
 20
-517.3943445345452
 30
0.0
 11
-344.8728128199181
 21
-517.3943445345452
 31
0.0
  0
LINE
  5
381
330
1F
100
AcDbEntity
  8
D-0
  6
Continuous
 62
     7
370
     9
100
AcDbLine
 10
-344.8728128199181
 20
-517.3943445345452
 30
0.0
 11
-344.8728128199181
 21
-518.8946268221429
 31
0.0
  0
LINE
  5
382
330
1F
100
AcDbEntity
  8
D-0
  6
Continuous
 62
     7
370
     9
100
AcDbLine
 10
-344.8728128199181
 20
-518.8946268221429
 30
0.0
 11
-346.3730760340294
 21
-518.8946268221429
 31
0.0
  0
LINE
  5
383
330
1F
100
AcDbEntity
  8
D-0
  6
Continuous
 62
     7
370
     9
100
AcDbLine
 10
-403.6358972315392
 20
-487.3015520235589
 30
0.0
 11
-403.6358972315392
 21
-485.8012697359612
 31
0.0
  0
LINE
  5
384
330
1F
100
AcDbEntity
  8
D-0
  6
Continuous
 62
     7
370
     9
100
AcDbLine
 10
-403.6358972315392
 20
-485.8012697359612
 30
0.0
 11
-402.136110854586
 21
-485.8012697359612
 31
0.0
  0
LINE
  5
385
330
1F
100
AcDbEntity
  8
D-0
  6
Continuous
 62
     7
370
     9
100
AcDbLine
 10
-402.136110854586
 20
-485.8012697359612
 30
0.0
 11
-402.136110854586
 21
-487.3015520235589
 31
0.0
  0
LINE
  5
386
330
1F
100
AcDbEntity
  8
D-0
  6
Continuous
 62
     7
370
     9
100
AcDbLine
 10
-402.136110854586
 20
-487.3015520235589
 30
0.0
 11
-403.6358972315392
 21
-487.3015520235589
 31
0.0
  0
LINE
  5
387
330
1F
100
AcDbEntity
  8
D-0
  6
Continuous
 62
     7
370
     9
100
AcDbLine
 10
-371.7688318018517
 20
-443.4228346010735
 30
0.0
 11
-371.7688318018517
 21
-441.922561850219
 31
0.0
  0
LINE
  5
388
330
1F
100
AcDbEntity
  8
D-0
  6
Continuous
 62
     7
370
     9
100
AcDbLine
 10
-371.7688318018517
 20
-441.922561850219
 30
0.0
 11
-370.268549514254
 21
-441.922561850219
 31
0.0
  0
LINE
  5
389
330
1F
100
AcDbEntity
  8
D-0
  6
Continuous
 62
     7
370
     9
100
AcDbLine
 10
-370.268549514254
 20
-441.922561850219
 30
0.0
 11
-370.268549514254
 21
-443.4228346010735
 31
0.0
  0
LINE
  5
38A
330
1F
100
AcDbEntity
  8
D-0
  6
Continuous
 62
     7
370
     9
100
AcDbLine
 10
-370.268549514254
 20
-443.4228346010735
 30
0.0
 11
-371.7688318018517
 21
-443.4228346010735
 31
0.0
  0
LINE
  5
38B
330
1F
100
AcDbEntity
  8
D-0
  6
Continuous
 62
     7
370
     9
100
AcDbLine
 10
-381.0524316553673
 20
-514.8624918123772
 30
0.0
 11
-381.0524316553673
 21
-513.3622285982659
 31
0.0
  0
LINE
  5
38C
330
1F
100
AcDbEntity
  8
D-0
  6
Continuous
 62
     7
370
     9
100
AcDbLine
 10
-381.0524316553673
 20
-513.3622285982659
 30
0.0
 11
-379.5521493677696
 21
-513.3622285982659
 31
0.0
  0
LINE
  5
38D
330
1F
100
AcDbEntity
  8
D-0
  6
Continuous
 62
     7
370
     9
100
AcDbLine
 10
-379.5521493677696
 20
-513.3622285982659
 30
0.0
 11
-379.5521493677696
 21
-514.8624918123772
 31
0.0
  0
LINE
  5
38E
330
1F
100
AcDbEntity
  8
D-0
  6
Continuous
 62
     7
370
     9
100
AcDbLine
 10
-379.5521493677696
 20
-514.8624918123772
 30
0.0
 11
-381.0524316553673
 21
-514.8624918123772
 31
0.0
  0
LINE
  5
38F
330
1F
100
AcDbEntity
  8
D-0
  6
Continuous
 62
     7
370
     9
100
AcDbLine
 10
-544.1780896906457
 20
-304.9863848349145
 30
0.0
 11
-544.1780896906457
 21
-303.4861049315026
 31
0.0
  0
LINE
  5
390
330
1F
100
AcDbEntity
  8
D-0
  6
Continuous
 62
     7
370
     9
100
AcDbLine
 10
-544.1780896906457
 20
-303.4861049315026
 30
0.0
 11
-542.6778121714196
 21
-303.4861049315026
 31
0.0
  0
LINE
  5
391
330
1F
100
AcDbEntity
  8
D-0
  6
Continuous
 62
     7
370
     9
100
AcDbLine
 10
-542.6778121714196
 20
-303.4861049315026
 30
0.0
 11
-542.6778121714196
 21
-304.9863848349145
 31
0.0
  0
LINE
  5
392
330
1F
100
AcDbEntity
  8
D-0
  6
Continuous
 62
     7
370
     9
100
AcDbLine
 10
-542.6778121714196
 20
-304.9863848349145
 30
0.0
 11
-544.1780896906457
 21
-304.9863848349145
 31
0.0
  0
LINE
  5
393
330
1F
100
AcDbEntity
  8
D-0
  6
Continuous
 62
     7
370
     9
100
AcDbLine
 10
-522.9333825831018
 20
-320.7849023005059
 30
0.0
 11
-522.9333825831018
 21
-319.284622397094
 31
0.0
  0
LINE
  5
394
330
1F
100
AcDbEntity
  8
D-0
  6
Continuous
 62
     7
370
     9
100
AcDbLine
 10
-522.9333825831018
 20
-319.284622397094
 30
0.0
 11
-521.4331002955041
 21
-319.284622397094
 31
0.0
  0
LINE
  5
395
330
1F
100
AcDbEntity
  8
D-0
  6
Continuous
 62
     7
370
     9
100
AcDbLine
 10
-521.4331002955041
 20
-319.284622397094
 30
0.0
 11
-521.4331002955041
 21
-320.7849023005059
 31
0.0
  0
LINE
  5
396
330
1F
100
AcDbEntity
  8
D-0
  6
Continuous
 62
     7
370
     9
100
AcDbLine
 10
-521.4331002955041
 20
-320.7849023005059
 30
0.0
 11
-522.9333825831018
 21
-320.7849023005059
 31
0.0
  0
LINE
  5
397
330
1F
100
AcDbEntity
  8
D-0
  6
Continuous
 62
     7
370
     9
100
AcDbLine
 10
-499.0671487574181
 20
-361.8652078768304
 30
0.0
 11
-499.0671487574181
 21
-360.3649303576043
 31
0.0
  0
LINE
  5
398
330
1F
100
AcDbEntity
  8
D-0
  6
Continuous
 62
     7
370
     9
100
AcDbLine
 10
-499.0671487574181
 20
-360.3649303576043
 30
0.0
 11
-497.5673623804649
 21
-360.3649303576043
 31
0.0
  0
LINE
  5
399
330
1F
100
AcDbEntity
  8
D-0
  6
Continuous
 62
     7
370
     9
100
AcDbLine
 10
-497.5673623804649
 20
-360.3649303576043
 30
0.0
 11
-497.5673623804649
 21
-361.8652078768304
 31
0.0
  0
LINE
  5
39A
330
1F
100
AcDbEntity
  8
D-0
  6
Continuous
 62
     7
370
     9
100
AcDbLine
 10
-497.5673623804649
 20
-361.8652078768304
 30
0.0
 11
-499.0671487574181
 21
-361.8652078768304
 31
0.0
  0
LINE
  5
39B
330
1F
100
AcDbEntity
  8
D-0
  6
Continuous
 62
     7
370
     9
100
AcDbLine
 10
-453.3026738886437
 20
-308.909011807113
 30
0.0
 11
-453.3026738886437
 21
-307.4087319037011
 31
0.0
  0
LINE
  5
39C
330
1F
100
AcDbEntity
  8
D-0
  6
Continuous
 62
     7
370
     9
100
AcDbLine
 10
-453.3026738886437
 20
-307.4087319037011
 30
0.0
 11
-451.8028970484337
 21
-307.4087319037011
 31
0.0
  0
LINE
  5
39D
330
1F
100
AcDbEntity
  8
D-0
  6
Continuous
 62
     7
370
     9
100
AcDbLine
 10
-451.8028970484337
 20
-307.4087319037011
 30
0.0
 11
-451.8028970484337
 21
-308.909011807113
 31
0.0
  0
LINE
  5
39E
330
1F
100
AcDbEntity
  8
D-0
  6
Continuous
 62
     7
370
     9
100
AcDbLine
 10
-451.8028970484337
 20
-308.909011807113
 30
0.0
 11
-453.3026738886437
 21
-308.909011807113
 31
0.0
  0
LINE
  5
39F
330
1F
100
AcDbEntity
  8
D-0
  6
Continuous
 62
     7
370
     9
100
AcDbLine
 10
-405.7446046595177
 20
-303.5108790060571
 30
0.0
 11
-405.7446046595177
 21
-302.0105991026452
 31
0.0
  0
LINE
  5
3A0
330
1F
100
AcDbEntity
  8
D-0
  6
Continuous
 62
     7
370
     9
100
AcDbLine
 10
-405.7446046595177
 20
-302.0105991026452
 30
0.0
 11
-404.2448182825646
 21
-302.0105991026452
 31
0.0
  0
LINE
  5
3A1
330
1F
100
AcDbEntity
  8
D-0
  6
Continuous
 62
     7
370
     9
100
AcDbLine
 10
-404.2448182825646
 20
-302.0105991026452
 30
0.0
 11
-404.2448182825646
 21
-303.5108790060571
 31
0.0
  0
LINE
  5
3A2
330
1F
100
AcDbEntity
  8
D-0
  6
Continuous
 62
     7
370
     9
100
AcDbLine
 10
-404.2448182825646
 20
-303.5108790060571
 30
0.0
 11
-405.7446046595177
 21
-303.5108790060571
 31
0.0
  0
LINE
  5
3A3
330
1F
100
AcDbEntity
  8
D-0
  6
Continuous
 62
     7
370
     9
100
AcDbLine
 10
-425.3582330469688
 20
-325.0855705400994
 30
0.0
 11
-425.3582330469688
 21
-323.5852930208733
 31
0.0
  0
LINE
  5
3A4
330
1F
100
AcDbEntity
  8
D-0
  6
Continuous
 62
     7
370
     9
100
AcDbLine
 10
-425.3582330469688
 20
-323.5852930208733
 30
0.0
 11
-423.8579507593712
 21
-323.5852930208733
 31
0.0
  0
LINE
  5
3A5
330
1F
100
AcDbEntity
  8
D-0
  6
Continuous
 62
     7
370
     9
100
AcDbLine
 10
-423.8579507593712
 20
-323.5852930208733
 30
0.0
 11
-423.8579507593712
 21
-325.0855705400994
 31
0.0
  0
LINE
  5
3A6
330
1F
100
AcDbEntity
  8
D-0
  6
Continuous
 62
     7
370
     9
100
AcDbLine
 10
-423.8579507593712
 20
-325.0855705400994
 30
0.0
 11
-425.3582330469688
 21
-325.0855705400994
 31
0.0
  0
LINE
  5
3A7
330
1F
100
AcDbEntity
  8
D-0
  6
Continuous
 62
     7
370
     9
100
AcDbLine
 10
-401.0004945520958
 20
-361.2116882463982
 30
0.0
 11
-401.0004945520958
 21
-359.7114059588006
 31
0.0
  0
LINE
  5
3A8
330
1F
100
AcDbEntity
  8
D-0
  6
Continuous
 62
     7
370
     9
100
AcDbLine
 10
-401.0004945520958
 20
-359.7114059588006
 30
0.0
 11
-399.5002122644981
 21
-359.7114059588006
 31
0.0
  0
LINE
  5
3A9
330
1F
100
AcDbEntity
  8
D-0
  6
Continuous
 62
     7
370
     9
100
AcDbLine
 10
-399.5002122644981
 20
-359.7114059588006
 30
0.0
 11
-399.5002122644981
 21
-361.2116882463982
 31
0.0
  0
LINE
  5
3AA
330
1F
100
AcDbEntity
  8
D-0
  6
Continuous
 62
     7
370
     9
100
AcDbLine
 10
-399.5002122644981
 20
-361.2116882463982
 30
0.0
 11
-401.0004945520958
 21
-361.2116882463982
 31
0.0
  0
LINE
  5
3AB
330
1F
100
AcDbEntity
  8
D-0
  6
Continuous
 62
     7
370
     9
100
AcDbLine
 10
-397.0773835901817
 20
-399.7844240328362
 30
0.0
 11
-397.0773835901817
 21
-398.2841417452386
 31
0.0
  0
LINE
  5
3AC
330
1F
100
AcDbEntity
  8
D-0
  6
Continuous
 62
     7
370
     9
100
AcDbLine
 10
-397.0773835901817
 20
-398.2841417452386
 30
0.0
 11
-395.5775972132286
 21
-398.2841417452386
 31
0.0
  0
LINE
  5
3AD
330
1F
100
AcDbEntity
  8
D-0
  6
Continuous
 62
     7
370
     9
100
AcDbLine
 10
-395.5775972132286
 20
-398.2841417452386
 30
0.0
 11
-395.5775972132286
 21
-399.7844240328362
 31
0.0
  0
LINE
  5
3AE
330
1F
100
AcDbEntity
  8
D-0
  6
Continuous
 62
     7
370
     9
100
AcDbLine
 10
-395.5775972132286
 20
-399.7844240328362
 30
0.0
 11
-397.0773835901817
 21
-399.7844240328362
 31
0.0
  0
LINE
  5
3AF
330
1F
100
AcDbEntity
  8
D-0
  6
Continuous
 62
     7
370
     9
100
AcDbLine
 10
-472.7463575129112
 20
-323.4103915354302
 30
0.0
 11
-472.7463575129112
 21
-321.9101116320184
 31
0.0
  0
LINE
  5
3B0
330
1F
100
AcDbEntity
  8
D-0
  6
Continuous
 62
     7
370
     9
100
AcDbLine
 10
-472.7463575129112
 20
-321.9101116320184
 30
0.0
 11
-471.2460752253136
 21
-321.9101116320184
 31
0.0
  0
LINE
  5
3B1
330
1F
100
AcDbEntity
  8
D-0
  6
Continuous
 62
     7
370
     9
100
AcDbLine
 10
-471.2460752253136
 20
-321.9101116320184
 30
0.0
 11
-471.2460752253136
 21
-323.4103915354302
 31
0.0
  0
LINE
  5
3B2
330
1F
100
AcDbEntity
  8
D-0
  6
Continuous
 62
     7
370
     9
100
AcDbLine
 10
-471.2460752253136
 20
-323.4103915354302
 30
0.0
 11
-472.7463575129112
 21
-323.4103915354302
 31
0.0
  0
LINE
  5
3B3
330
1F
100
AcDbEntity
  8
D-0
  6
Continuous
 62
     7
370
     9
100
AcDbLine
 10
-551.0284419779382
 20
-450.8494112154534
 30
0.0
 11
-551.0284419779382
 21
-449.3491384645989
 31
0.0
  0
LINE
  5
3B4
330
1F
100
AcDbEntity
  8
D-0
  6
Continuous
 62
     7
370
     9
100
AcDbLine
 10
-551.0284419779382
 20
-449.3491384645989
 30
0.0
 11
-549.5281644587121
 21
-449.3491384645989
 31
0.0
  0
LINE
  5
3B5
330
1F
100
AcDbEntity
  8
D-0
  6
Continuous
 62
     7
370
     9
100
AcDbLine
 10
-549.5281644587121
 20
-449.3491384645989
 30
0.0
 11
-549.5281644587121
 21
-450.8494112154534
 31
0.0
  0
LINE
  5
3B6
330
1F
100
AcDbEntity
  8
D-0
  6
Continuous
 62
     7
370
     9
100
AcDbLine
 10
-549.5281644587121
 20
-450.8494112154534
 30
0.0
 11
-551.0284419779382
 21
-450.8494112154534
 31
0.0
  0
LINE
  5
3B7
330
1F
100
AcDbEntity
  8
D-0
  6
Continuous
 62
     7
370
     9
100
AcDbLine
 10
-701.7995877985559
 20
-439.910957541137
 30
0.0
 11
-701.7995877985559
 21
-438.4106752535394
 31
0.0
  0
LINE
  5
3B8
330
1F
100
AcDbEntity
  8
D-0
  6
Continuous
 62
     7
370
     9
100
AcDbLine
 10
-701.7995877985559
 20
-438.4106752535394
 30
0.0
 11
-700.2993150477014
 21
-438.4106752535394
 31
0.0
  0
LINE
  5
3B9
330
1F
100
AcDbEntity
  8
D-0
  6
Continuous
 62
     7
370
     9
100
AcDbLine
 10
-700.2993150477014
 20
-438.4106752535394
 30
0.0
 11
-700.2993150477014
 21
-439.910957541137
 31
0.0
  0
LINE
  5
3BA
330
1F
100
AcDbEntity
  8
D-0
  6
Continuous
 62
     7
370
     9
100
AcDbLine
 10
-700.2993150477014
 20
-439.910957541137
 30
0.0
 11
-701.7995877985559
 21
-439.910957541137
 31
0.0
  0
LINE
  5
3BB
330
1F
100
AcDbEntity
  8
D-0
  6
Continuous
 62
     7
370
     9
100
AcDbLine
 10
-642.5613446955285
 20
-544.5643732210686
 30
0.0
 11
-642.5613446955285
 21
-543.064090933471
 31
0.0
  0
LINE
  5
3BC
330
1F
100
AcDbEntity
  8
D-0
  6
Continuous
 62
     7
370
     9
100
AcDbLine
 10
-642.5613446955285
 20
-543.064090933471
 30
0.0
 11
-641.061563086947
 21
-543.064090933471
 31
0.0
  0
LINE
  5
3BD
330
1F
100
AcDbEntity
  8
D-0
  6
Continuous
 62
     7
370
     9
100
AcDbLine
 10
-641.061563086947
 20
-543.064090933471
 30
0.0
 11
-641.061563086947
 21
-544.5643732210686
 31
0.0
  0
LINE
  5
3BE
330
1F
100
AcDbEntity
  8
D-0
  6
Continuous
 62
     7
370
     9
100
AcDbLine
 10
-641.061563086947
 20
-544.5643732210686
 30
0.0
 11
-642.5613446955285
 21
-544.5643732210686
 31
0.0
  0
LINE
  5
3BF
330
1F
100
AcDbEntity
  8
D-0
  6
Continuous
 62
     7
370
     9
100
AcDbLine
 10
-656.3839336161218
 20
-603.8021204134515
 30
0.0
 11
-656.3839336161218
 21
-602.3018381258538
 31
0.0
  0
LINE
  5
3C0
330
1F
100
AcDbEntity
  8
D-0
  6
Continuous
 62
     7
370
     9
100
AcDbLine
 10
-656.3839336161218
 20
-602.3018381258538
 30
0.0
 11
-654.8836513285241
 21
-602.3018381258538
 31
0.0
  0
LINE
  5
3C1
330
1F
100
AcDbEntity
  8
D-0
  6
Continuous
 62
     7
370
     9
100
AcDbLine
 10
-654.8836513285241
 20
-602.3018381258538
 30
0.0
 11
-654.8836513285241
 21
-603.8021204134515
 31
0.0
  0
LINE
  5
3C2
330
1F
100
AcDbEntity
  8
D-0
  6
Continuous
 62
     7
370
     9
100
AcDbLine
 10
-654.8836513285241
 20
-603.8021204134515
 30
0.0
 11
-656.3839336161218
 21
-603.8021204134515
 31
0.0
  0
LINE
  5
3C3
330
1F
100
AcDbEntity
  8
D-0
  6
Continuous
 62
     7
370
     9
100
AcDbLine
 10
-686.990027022799
 20
-614.6623155733636
 30
0.0
 11
-686.990027022799
 21
-613.1620332857659
 31
0.0
  0
LINE
  5
3C4
330
1F
100
AcDbEntity
  8
D-0
  6
Continuous
 62
     7
370
     9
100
AcDbLine
 10
-686.990027022799
 20
-613.1620332857659
 30
0.0
 11
-685.4897542719445
 21
-613.1620332857659
 31
0.0
  0
LINE
  5
3C5
330
1F
100
AcDbEntity
  8
D-0
  6
Continuous
 62
     7
370
     9
100
AcDbLine
 10
-685.4897542719445
 20
-613.1620332857659
 30
0.0
 11
-685.4897542719445
 21
-614.6623155733636
 31
0.0
  0
LINE
  5
3C6
330
1F
100
AcDbEntity
  8
D-0
  6
Continuous
 62
     7
370
     9
100
AcDbLine
 10
-685.4897542719445
 20
-614.6623155733636
 30
0.0
 11
-686.990027022799
 21
-614.6623155733636
 31
0.0
  0
LINE
  5
3C7
330
1F
100
AcDbEntity
  8
D-0
  6
Continuous
 62
     7
370
     9
100
AcDbLine
 10
-709.8435254816613
 20
-548.5137483736565
 30
0.0
 11
-709.8435254816613
 21
-547.0134660860589
 31
0.0
  0
LINE
  5
3C8
330
1F
100
AcDbEntity
  8
D-0
  6
Continuous
 62
     7
370
     9
100
AcDbLine
 10
-709.8435254816613
 20
-547.0134660860589
 30
0.0
 11
-708.3437391047082
 21
-547.0134660860589
 31
0.0
  0
LINE
  5
3C9
330
1F
100
AcDbEntity
  8
D-0
  6
Continuous
 62
     7
370
     9
100
AcDbLine
 10
-708.3437391047082
 20
-547.0134660860589
 30
0.0
 11
-708.3437391047082
 21
-548.5137483736565
 31
0.0
  0
LINE
  5
3CA
330
1F
100
AcDbEntity
  8
D-0
  6
Continuous
 62
     7
370
     9
100
AcDbLine
 10
-708.3437391047082
 20
-548.5137483736565
 30
0.0
 11
-709.8435254816613
 21
-548.5137483736565
 31
0.0
  0
LINE
  5
3CB
330
1F
100
AcDbEntity
  8
D-0
  6
Continuous
 62
     7
370
     9
100
AcDbLine
 10
-684.0281148676477
 20
-526.793396200805
 30
0.0
 11
-684.0281148676477
 21
-525.2931139132073
 31
0.0
  0
LINE
  5
3CC
330
1F
100
AcDbEntity
  8
D-0
  6
Continuous
 62
     7
370
     9
100
AcDbLine
 10
-684.0281148676477
 20
-525.2931139132073
 30
0.0
 11
-682.5278421167932
 21
-525.2931139132073
 31
0.0
  0
LINE
  5
3CD
330
1F
100
AcDbEntity
  8
D-0
  6
Continuous
 62
     7
370
     9
100
AcDbLine
 10
-682.5278421167932
 20
-525.2931139132073
 30
0.0
 11
-682.5278421167932
 21
-526.793396200805
 31
0.0
  0
LINE
  5
3CE
330
1F
100
AcDbEntity
  8
D-0
  6
Continuous
 62
     7
370
     9
100
AcDbLine
 10
-682.5278421167932
 20
-526.793396200805
 30
0.0
 11
-684.0281148676477
 21
-526.793396200805
 31
0.0
  0
LINE
  5
3CF
330
1F
100
AcDbEntity
  8
D-0
  6
Continuous
 62
     7
370
     9
100
AcDbLine
 10
-620.8409853701196
 20
-579.2863199373772
 30
0.0
 11
-620.8409853701196
 21
-577.7860376497796
 31
0.0
  0
LINE
  5
3D0
330
1F
100
AcDbEntity
  8
D-0
  6
Continuous
 62
     7
370
     9
100
AcDbLine
 10
-620.8409853701196
 20
-577.7860376497796
 30
0.0
 11
-619.3412013773523
 21
-577.7860376497796
 31
0.0
  0
LINE
  5
3D1
330
1F
100
AcDbEntity
  8
D-0
  6
Continuous
 62
     7
370
     9
100
AcDbLine
 10
-619.3412013773523
 20
-577.7860376497796
 30
0.0
 11
-619.3412013773523
 21
-579.2863199373772
 31
0.0
  0
LINE
  5
3D2
330
1F
100
AcDbEntity
  8
D-0
  6
Continuous
 62
     7
370
     9
100
AcDbLine
 10
-619.3412013773523
 20
-579.2863199373772
 30
0.0
 11
-620.8409853701196
 21
-579.2863199373772
 31
0.0
  0
LINE
  5
3D3
330
1F
100
AcDbEntity
  8
D-0
  6
Continuous
 62
     7
370
     9
100
AcDbLine
 10
-697.850212645968
 20
-717.1653673311761
 30
0.0
 11
-697.850212645968
 21
-715.6650850435784
 31
0.0
  0
LINE
  5
3D4
330
1F
100
AcDbEntity
  8
D-0
  6
Continuous
 62
     7
370
     9
100
AcDbLine
 10
-697.850212645968
 20
-715.6650850435784
 30
0.0
 11
-696.3504262690149
 21
-715.6650850435784
 31
0.0
  0
LINE
  5
3D5
330
1F
100
AcDbEntity
  8
D-0
  6
Continuous
 62
     7
370
     9
100
AcDbLine
 10
-696.3504262690149
 20
-715.6650850435784
 30
0.0
 11
-696.3504262690149
 21
-717.1653673311761
 31
0.0
  0
LINE
  5
3D6
330
1F
100
AcDbEntity
  8
D-0
  6
Continuous
 62
     7
370
     9
100
AcDbLine
 10
-696.3504262690149
 20
-717.1653673311761
 30
0.0
 11
-697.850212645968
 21
-717.1653673311761
 31
0.0
  0
LINE
  5
3D7
330
1F
100
AcDbEntity
  8
D-0
  6
Continuous
 62
     7
370
     9
100
AcDbLine
 10
-627.459952426394
 20
-720.8774110933831
 30
0.0
 11
-627.459952426394
 21
-719.3771288057854
 31
0.0
  0
LINE
  5
3D8
330
1F
100
AcDbEntity
  8
D-0
  6
Continuous
 62
     7
370
     9
100
AcDbLine
 10
-627.459952426394
 20
-719.3771288057854
 30
0.0
 11
-625.9601684336267
 21
-719.3771288057854
 31
0.0
  0
LINE
  5
3D9
330
1F
100
AcDbEntity
  8
D-0
  6
Continuous
 62
     7
370
     9
100
AcDbLine
 10
-625.9601684336267
 20
-719.3771288057854
 30
0.0
 11
-625.9601684336267
 21
-720.8774110933831
 31
0.0
  0
LINE
  5
3DA
330
1F
100
AcDbEntity
  8
D-0
  6
Continuous
 62
     7
370
     9
100
AcDbLine
 10
-625.9601684336267
 20
-720.8774110933831
 30
0.0
 11
-627.459952426394
 21
-720.8774110933831
 31
0.0
  0
LINE
  5
3DB
330
1F
100
AcDbEntity
  8
D-0
  6
Continuous
 62
     7
370
     9
100
AcDbLine
 10
-603.069510651072
 20
-746.7840120455315
 30
0.0
 11
-603.069510651072
 21
-745.2837297579339
 31
0.0
  0
LINE
  5
3DC
330
1F
100
AcDbEntity
  8
D-0
  6
Continuous
 62
     7
370
     9
100
AcDbLine
 10
-603.069510651072
 20
-745.2837297579339
 30
0.0
 11
-601.5697265092931
 21
-745.2837297579339
 31
0.0
  0
LINE
  5
3DD
330
1F
100
AcDbEntity
  8
D-0
  6
Continuous
 62
     7
370
     9
100
AcDbLine
 10
-601.5697265092931
 20
-745.2837297579339
 30
0.0
 11
-601.5697265092931
 21
-746.7840120455315
 31
0.0
  0
LINE
  5
3DE
330
1F
100
AcDbEntity
  8
D-0
  6
Continuous
 62
     7
370
     9
100
AcDbLine
 10
-601.5697265092931
 20
-746.7840120455315
 30
0.0
 11
-603.069510651072
 21
-746.7840120455315
 31
0.0
  0
LINE
  5
3DF
330
1F
100
AcDbEntity
  8
D-0
  6
Continuous
 62
     7
370
     9
100
AcDbLine
 10
-596.7909302239023
 20
-784.9960252901604
 30
0.0
 11
-596.7909302239023
 21
-783.4957430025628
 31
0.0
  0
LINE
  5
3E0
330
1F
100
AcDbEntity
  8
D-0
  6
Continuous
 62
     7
370
     9
100
AcDbLine
 10
-596.7909302239023
 20
-783.4957430025628
 30
0.0
 11
-595.2906509165368
 21
-783.4957430025628
 31
0.0
  0
LINE
  5
3E1
330
1F
100
AcDbEntity
  8
D-0
  6
Continuous
 62
     7
370
     9
100
AcDbLine
 10
-595.2906509165368
 20
-783.4957430025628
 30
0.0
 11
-595.2906509165368
 21
-784.9960252901604
 31
0.0
  0
LINE
  5
3E2
330
1F
100
AcDbEntity
  8
D-0
  6
Continuous
 62
     7
370
     9
100
AcDbLine
 10
-595.2906509165368
 20
-784.9960252901604
 30
0.0
 11
-596.7909302239023
 21
-784.9960252901604
 31
0.0
  0
LINE
  5
3E3
330
1F
100
AcDbEntity
  8
D-0
  6
Continuous
 62
     7
370
     9
100
AcDbLine
 10
-671.0195871119104
 20
-790.4546281954339
 30
0.0
 11
-671.0195871119104
 21
-788.9543459078362
 31
0.0
  0
LINE
  5
3E4
330
1F
100
AcDbEntity
  8
D-0
  6
Continuous
 62
     7
370
     9
100
AcDbLine
 10
-671.0195871119104
 20
-788.9543459078362
 30
0.0
 11
-669.5193048243127
 21
-788.9543459078362
 31
0.0
  0
LINE
  5
3E5
330
1F
100
AcDbEntity
  8
D-0
  6
Continuous
 62
     7
370
     9
100
AcDbLine
 10
-669.5193048243127
 20
-788.9543459078362
 30
0.0
 11
-669.5193048243127
 21
-790.4546281954339
 31
0.0
  0
LINE
  5
3E6
330
1F
100
AcDbEntity
  8
D-0
  6
Continuous
 62
     7
370
     9
100
AcDbLine
 10
-669.5193048243127
 20
-790.4546281954339
 30
0.0
 11
-671.0195871119104
 21
-790.4546281954339
 31
0.0
  0
LINE
  5
3E7
330
1F
100
AcDbEntity
  8
D-0
  6
Continuous
 62
     7
370
     9
100
AcDbLine
 10
-705.7484765772424
 20
-781.1581346651604
 30
0.0
 11
-705.7484765772424
 21
-779.6578523775628
 31
0.0
  0
LINE
  5
3E8
330
1F
100
AcDbEntity
  8
D-0
  6
Continuous
 62
     7
370
     9
100
AcDbLine
 10
-705.7484765772424
 20
-779.6578523775628
 30
0.0
 11
-704.2481942896447
 21
-779.6578523775628
 31
0.0
  0
LINE
  5
3E9
330
1F
100
AcDbEntity
  8
D-0
  6
Continuous
 62
     7
370
     9
100
AcDbLine
 10
-704.2481942896447
 20
-779.6578523775628
 30
0.0
 11
-704.2481942896447
 21
-781.1581346651604
 31
0.0
  0
LINE
  5
3EA
330
1F
100
AcDbEntity
  8
D-0
  6
Continuous
 62
     7
370
     9
100
AcDbLine
 10
-704.2481942896447
 20
-781.1581346651604
 30
0.0
 11
-705.7484765772424
 21
-781.1581346651604
 31
0.0
  0
LINE
  5
3EB
330
1F
100
AcDbEntity
  8
D-0
  6
Continuous
 62
     7
370
     9
100
AcDbLine
 10
-707.9597516779504
 20
-740.8601686617425
 30
0.0
 11
-707.9597516779504
 21
-739.3598863741448
 31
0.0
  0
LINE
  5
3EC
330
1F
100
AcDbEntity
  8
D-0
  6
Continuous
 62
     7
370
     9
100
AcDbLine
 10
-707.9597516779504
 20
-739.3598863741448
 30
0.0
 11
-706.4599748377404
 21
-739.3598863741448
 31
0.0
  0
LINE
  5
3ED
330
1F
100
AcDbEntity
  8
D-0
  6
Continuous
 62
     7
370
     9
100
AcDbLine
 10
-706.4599748377404
 20
-739.3598863741448
 30
0.0
 11
-706.4599748377404
 21
-740.8601686617425
 31
0.0
  0
LINE
  5
3EE
330
1F
100
AcDbEntity
  8
D-0
  6
Continuous
 62
     7
370
     9
100
AcDbLine
 10
-706.4599748377404
 20
-740.8601686617425
 30
0.0
 11
-707.9597516779504
 21
-740.8601686617425
 31
0.0
  0
LINE
  5
3EF
330
1F
100
AcDbEntity
  8
D-0
  6
Continuous
 62
     7
370
     9
100
AcDbLine
 10
-650.4601093058191
 20
-760.6061098238519
 30
0.0
 11
-650.4601093058191
 21
-759.1058275362542
 31
0.0
  0
LINE
  5
3F0
330
1F
100
AcDbEntity
  8
D-0
  6
Continuous
 62
     7
370
     9
100
AcDbLine
 10
-650.4601093058191
 20
-759.1058275362542
 30
0.0
 11
-648.9598270182214
 21
-759.1058275362542
 31
0.0
  0
LINE
  5
3F1
330
1F
100
AcDbEntity
  8
D-0
  6
Continuous
 62
     7
370
     9
100
AcDbLine
 10
-648.9598270182214
 20
-759.1058275362542
 30
0.0
 11
-648.9598270182214
 21
-760.6061098238519
 31
0.0
  0
LINE
  5
3F2
330
1F
100
AcDbEntity
  8
D-0
  6
Continuous
 62
     7
370
     9
100
AcDbLine
 10
-648.9598270182214
 20
-760.6061098238519
 30
0.0
 11
-650.4601093058191
 21
-760.6061098238519
 31
0.0
  0
LINE
  5
3F3
330
1F
100
AcDbEntity
  8
D-0
  6
Continuous
 62
     7
370
     9
100
AcDbLine
 10
-662.3077579264245
 20
-727.0380708834222
 30
0.0
 11
-662.3077579264245
 21
-725.5377885958245
 31
0.0
  0
LINE
  5
3F4
330
1F
100
AcDbEntity
  8
D-0
  6
Continuous
 62
     7
370
     9
100
AcDbLine
 10
-662.3077579264245
 20
-725.5377885958245
 30
0.0
 11
-660.8074756388269
 21
-725.5377885958245
 31
0.0
  0
LINE
  5
3F5
330
1F
100
AcDbEntity
  8
D-0
  6
Continuous
 62
     7
370
     9
100
AcDbLine
 10
-660.8074756388269
 20
-725.5377885958245
 30
0.0
 11
-660.8074756388269
 21
-727.0380708834222
 31
0.0
  0
LINE
  5
3F6
330
1F
100
AcDbEntity
  8
D-0
  6
Continuous
 62
     7
370
     9
100
AcDbLine
 10
-660.8074756388269
 20
-727.0380708834222
 30
0.0
 11
-662.3077579264245
 21
-727.0380708834222
 31
0.0
  0
LINE
  5
3F7
330
1F
100
AcDbEntity
  8
D-0
  6
Continuous
 62
     7
370
     9
100
AcDbLine
 10
-607.0188923601709
 20
-612.8543398043206
 30
0.0
 11
-607.0188923601709
 21
-611.354057516723
 31
0.0
  0
LINE
  5
3F8
330
1F
100
AcDbEntity
  8
D-0
  6
Continuous
 62
     7
370
     9
100
AcDbLine
 10
-607.0188923601709
 20
-611.354057516723
 30
0.0
 11
-605.5191083674035
 21
-611.354057516723
 31
0.0
  0
LINE
  5
3F9
330
1F
100
AcDbEntity
  8
D-0
  6
Continuous
 62
     7
370
     9
100
AcDbLine
 10
-605.5191083674035
 20
-611.354057516723
 30
0.0
 11
-605.5191083674035
 21
-612.8543398043206
 31
0.0
  0
LINE
  5
3FA
330
1F
100
AcDbEntity
  8
D-0
  6
Continuous
 62
     7
370
     9
100
AcDbLine
 10
-605.5191083674035
 20
-612.8543398043206
 30
0.0
 11
-607.0188923601709
 21
-612.8543398043206
 31
0.0
  0
LINE
  5
3FB
330
1F
100
AcDbEntity
  8
D-0
  6
Continuous
 62
     7
370
     9
100
AcDbLine
 10
-595.1717381600938
 20
-512.9708025118401
 30
0.0
 11
-595.1717381600938
 21
-511.4705202242425
 31
0.0
  0
LINE
  5
3FC
330
1F
100
AcDbEntity
  8
D-0
  6
Continuous
 62
     7
370
     9
100
AcDbLine
 10
-595.1717381600938
 20
-511.4705202242425
 30
0.0
 11
-593.6714585547052
 21
-511.4705202242425
 31
0.0
  0
LINE
  5
3FD
330
1F
100
AcDbEntity
  8
D-0
  6
Continuous
 62
     7
370
     9
100
AcDbLine
 10
-593.6714585547052
 20
-511.4705202242425
 30
0.0
 11
-593.6714585547052
 21
-512.9708025118401
 31
0.0
  0
LINE
  5
3FE
330
1F
100
AcDbEntity
  8
D-0
  6
Continuous
 62
     7
370
     9
100
AcDbLine
 10
-593.6714585547052
 20
-512.9708025118401
 30
0.0
 11
-595.1717381600938
 21
-512.9708025118401
 31
0.0
  0
LINE
  5
3FF
330
1F
100
AcDbEntity
  8
D-0
  6
Continuous
 62
     7
370
     9
100
AcDbLine
 10
-499.0607019190392
 20
-524.1951486727288
 30
0.0
 11
-499.0607019190392
 21
-522.6948663851311
 31
0.0
  0
LINE
  5
400
330
1F
100
AcDbEntity
  8
D-0
  6
Continuous
 62
     7
370
     9
100
AcDbLine
 10
-499.0607019190392
 20
-522.6948663851311
 30
0.0
 11
-497.5609250788292
 21
-522.6948663851311
 31
0.0
  0
LINE
  5
401
330
1F
100
AcDbEntity
  8
D-0
  6
Continuous
 62
     7
370
     9
100
AcDbLine
 10
-497.5609250788292
 20
-522.6948663851311
 30
0.0
 11
-497.5609250788292
 21
-524.1951486727288
 31
0.0
  0
LINE
  5
402
330
1F
100
AcDbEntity
  8
D-0
  6
Continuous
 62
     7
370
     9
100
AcDbLine
 10
-497.5609250788292
 20
-524.1951486727288
 30
0.0
 11
-499.0607019190392
 21
-524.1951486727288
 31
0.0
  0
LINE
  5
403
330
1F
100
AcDbEntity
  8
D-0
  6
Continuous
 62
     7
370
     9
100
AcDbLine
 10
-551.5952583078943
 20
-515.570022787719
 30
0.0
 11
-551.5952583078943
 21
-514.0697405001214
 31
0.0
  0
LINE
  5
404
330
1F
100
AcDbEntity
  8
D-0
  6
Continuous
 62
     7
370
     9
100
AcDbLine
 10
-551.5952583078943
 20
-514.0697405001214
 30
0.0
 11
-550.0954766993127
 21
-514.0697405001214
 31
0.0
  0
LINE
  5
405
330
1F
100
AcDbEntity
  8
D-0
  6
Continuous
 62
     7
370
     9
100
AcDbLine
 10
-550.0954766993127
 20
-514.0697405001214
 30
0.0
 11
-550.0954766993127
 21
-515.570022787719
 31
0.0
  0
LINE
  5
406
330
1F
100
AcDbEntity
  8
D-0
  6
Continuous
 62
     7
370
     9
100
AcDbLine
 10
-550.0954766993127
 20
-515.570022787719
 30
0.0
 11
-551.5952583078943
 21
-515.570022787719
 31
0.0
  0
LINE
  5
407
330
1F
100
AcDbEntity
  8
D-0
  6
Continuous
 62
     7
370
     9
100
AcDbLine
 10
-687.9770036463342
 20
-576.1579248568108
 30
0.0
 11
-687.9770036463342
 21
-574.6576616426995
 31
0.0
  0
LINE
  5
408
330
1F
100
AcDbEntity
  8
D-0
  6
Continuous
 62
     7
370
     9
100
AcDbLine
 10
-687.9770036463342
 20
-574.6576616426995
 30
0.0
 11
-686.4772172693811
 21
-574.6576616426995
 31
0.0
  0
LINE
  5
409
330
1F
100
AcDbEntity
  8
D-0
  6
Continuous
 62
     7
370
     9
100
AcDbLine
 10
-686.4772172693811
 20
-574.6576616426995
 30
0.0
 11
-686.4772172693811
 21
-576.1579248568108
 31
0.0
  0
LINE
  5
40A
330
1F
100
AcDbEntity
  8
D-0
  6
Continuous
 62
     7
370
     9
100
AcDbLine
 10
-686.4772172693811
 20
-576.1579248568108
 30
0.0
 11
-687.9770036463342
 21
-576.1579248568108
 31
0.0
  0
LINE
  5
40B
330
1F
100
AcDbEntity
  8
D-0
  6
Continuous
 62
     7
370
     9
100
AcDbLine
 10
-656.8566079859338
 20
-434.3869707247308
 30
0.0
 11
-656.8566079859338
 21
-432.8866979738763
 31
0.0
  0
LINE
  5
40C
330
1F
100
AcDbEntity
  8
D-0
  6
Continuous
 62
     7
370
     9
100
AcDbLine
 10
-656.8566079859338
 20
-432.8866979738763
 30
0.0
 11
-655.3563304667077
 21
-432.8866979738763
 31
0.0
  0
LINE
  5
40D
330
1F
100
AcDbEntity
  8
D-0
  6
Continuous
 62
     7
370
     9
100
AcDbLine
 10
-655.3563304667077
 20
-432.8866979738763
 30
0.0
 11
-655.3563304667077
 21
-434.3869707247308
 31
0.0
  0
LINE
  5
40E
330
1F
100
AcDbEntity
  8
D-0
  6
Continuous
 62
     7
370
     9
100
AcDbLine
 10
-655.3563304667077
 20
-434.3869707247308
 30
0.0
 11
-656.8566079859338
 21
-434.3869707247308
 31
0.0
  0
LINE
  5
40F
330
1F
100
AcDbEntity
  8
D-0
  6
Continuous
 62
     7
370
     9
100
AcDbLine
 10
-601.0955629174314
 20
-545.7183191439202
 30
0.0
 11
-601.0955629174314
 21
-544.2180368563226
 31
0.0
  0
LINE
  5
410
330
1F
100
AcDbEntity
  8
D-0
  6
Continuous
 62
     7
370
     9
100
AcDbLine
 10
-601.0955629174314
 20
-544.2180368563226
 30
0.0
 11
-599.5952834983073
 21
-544.2180368563226
 31
0.0
  0
LINE
  5
411
330
1F
100
AcDbEntity
  8
D-0
  6
Continuous
 62
     7
370
     9
100
AcDbLine
 10
-599.5952834983073
 20
-544.2180368563226
 30
0.0
 11
-599.5952834983073
 21
-545.7183191439202
 31
0.0
  0
LINE
  5
412
330
1F
100
AcDbEntity
  8
D-0
  6
Continuous
 62
     7
370
     9
100
AcDbLine
 10
-599.5952834983073
 20
-545.7183191439202
 30
0.0
 11
-601.0955629174314
 21
-545.7183191439202
 31
0.0
  0
LINE
  5
413
330
1F
100
AcDbEntity
  8
D-0
  6
Continuous
 62
     7
370
     9
100
AcDbLine
 10
-660.3328176264367
 20
-568.2596704622796
 30
0.0
 11
-660.3328176264367
 21
-566.7593881746819
 31
0.0
  0
LINE
  5
414
330
1F
100
AcDbEntity
  8
D-0
  6
Continuous
 62
     7
370
     9
100
AcDbLine
 10
-660.3328176264367
 20
-566.7593881746819
 30
0.0
 11
-658.8330360178552
 21
-566.7593881746819
 31
0.0
  0
LINE
  5
415
330
1F
100
AcDbEntity
  8
D-0
  6
Continuous
 62
     7
370
     9
100
AcDbLine
 10
-658.8330360178552
 20
-566.7593881746819
 30
0.0
 11
-658.8330360178552
 21
-568.2596704622796
 31
0.0
  0
LINE
  5
416
330
1F
100
AcDbEntity
  8
D-0
  6
Continuous
 62
     7
370
     9
100
AcDbLine
 10
-658.8330360178552
 20
-568.2596704622796
 30
0.0
 11
-660.3328176264367
 21
-568.2596704622796
 31
0.0
  0
LINE
  5
417
330
1F
100
AcDbEntity
  8
D-0
  6
Continuous
 62
     7
370
     9
100
AcDbLine
 10
-648.4851690058313
 20
-641.3194963594964
 30
0.0
 11
-648.4851690058313
 21
-639.8192140718987
 31
0.0
  0
LINE
  5
418
330
1F
100
AcDbEntity
  8
D-0
  6
Continuous
 62
     7
370
     9
100
AcDbLine
 10
-648.4851690058313
 20
-639.8192140718987
 30
0.0
 11
-646.9853873972497
 21
-639.8192140718987
 31
0.0
  0
LINE
  5
419
330
1F
100
AcDbEntity
  8
D-0
  6
Continuous
 62
     7
370
     9
100
AcDbLine
 10
-646.9853873972497
 20
-639.8192140718987
 30
0.0
 11
-646.9853873972497
 21
-641.3194963594964
 31
0.0
  0
LINE
  5
41A
330
1F
100
AcDbEntity
  8
D-0
  6
Continuous
 62
     7
370
     9
100
AcDbLine
 10
-646.9853873972497
 20
-641.3194963594964
 30
0.0
 11
-648.4851690058313
 21
-641.3194963594964
 31
0.0
  0
LINE
  5
41B
330
1F
100
AcDbEntity
  8
D-0
  6
Continuous
 62
     7
370
     9
100
AcDbLine
 10
-696.8627401117883
 20
-640.3320238253167
 30
0.0
 11
-696.8627401117883
 21
-638.831741537719
 31
0.0
  0
LINE
  5
41C
330
1F
100
AcDbEntity
  8
D-0
  6
Continuous
 62
     7
370
     9
100
AcDbLine
 10
-696.8627401117883
 20
-638.831741537719
 30
0.0
 11
-695.3624578241906
 21
-638.831741537719
 31
0.0
  0
LINE
  5
41D
330
1F
100
AcDbEntity
  8
D-0
  6
Continuous
 62
     7
370
     9
100
AcDbLine
 10
-695.3624578241906
 20
-638.831741537719
 30
0.0
 11
-695.3624578241906
 21
-640.3320238253167
 31
0.0
  0
LINE
  5
41E
330
1F
100
AcDbEntity
  8
D-0
  6
Continuous
 62
     7
370
     9
100
AcDbLine
 10
-695.3624578241906
 20
-640.3320238253167
 30
0.0
 11
-696.8627401117883
 21
-640.3320238253167
 31
0.0
  0
LINE
  5
41F
330
1F
100
AcDbEntity
  8
D-0
  6
Continuous
 62
     7
370
     9
100
AcDbLine
 10
-683.9096971277795
 20
-759.4377824923089
 30
0.0
 11
-683.9096971277795
 21
-757.9375002047112
 31
0.0
  0
LINE
  5
420
330
1F
100
AcDbEntity
  8
D-0
  6
Continuous
 62
     7
370
     9
100
AcDbLine
 10
-683.9096971277795
 20
-757.9375002047112
 30
0.0
 11
-682.4099202875695
 21
-757.9375002047112
 31
0.0
  0
LINE
  5
421
330
1F
100
AcDbEntity
  8
D-0
  6
Continuous
 62
     7
370
     9
100
AcDbLine
 10
-682.4099202875695
 20
-757.9375002047112
 30
0.0
 11
-682.4099202875695
 21
-759.4377824923089
 31
0.0
  0
LINE
  5
422
330
1F
100
AcDbEntity
  8
D-0
  6
Continuous
 62
     7
370
     9
100
AcDbLine
 10
-682.4099202875695
 20
-759.4377824923089
 30
0.0
 11
-683.9096971277795
 21
-759.4377824923089
 31
0.0
  0
LINE
  5
423
330
1F
100
AcDbEntity
  8
D-0
  6
Continuous
 62
     7
370
     9
100
AcDbLine
 10
-633.3837767366967
 20
-788.9454195162347
 30
0.0
 11
-633.3837767366967
 21
-787.445137228637
 31
0.0
  0
LINE
  5
424
330
1F
100
AcDbEntity
  8
D-0
  6
Continuous
 62
     7
370
     9
100
AcDbLine
 10
-633.3837767366967
 20
-787.445137228637
 30
0.0
 11
-631.8839927439294
 21
-787.445137228637
 31
0.0
  0
LINE
  5
425
330
1F
100
AcDbEntity
  8
D-0
  6
Continuous
 62
     7
370
     9
100
AcDbLine
 10
-631.8839927439294
 20
-787.445137228637
 30
0.0
 11
-631.8839927439294
 21
-788.9454195162347
 31
0.0
  0
LINE
  5
426
330
1F
100
AcDbEntity
  8
D-0
  6
Continuous
 62
     7
370
     9
100
AcDbLine
 10
-631.8839927439294
 20
-788.9454195162347
 30
0.0
 11
-633.3837767366967
 21
-788.9454195162347
 31
0.0
  0
LINE
  5
427
330
1F
100
AcDbEntity
  8
D-0
  6
Continuous
 62
     7
370
     9
100
AcDbLine
 10
-597.1461813573442
 20
-713.2159731051019
 30
0.0
 11
-597.1461813573442
 21
-711.7157289644769
 31
0.0
  0
LINE
  5
428
330
1F
100
AcDbEntity
  8
D-0
  6
Continuous
 62
     7
370
     9
100
AcDbLine
 10
-597.1461813573442
 20
-711.7157289644769
 30
0.0
 11
-595.6459017519555
 21
-711.7157289644769
 31
0.0
  0
LINE
  5
429
330
1F
100
AcDbEntity
  8
D-0
  6
Continuous
 62
     7
370
     9
100
AcDbLine
 10
-595.6459017519555
 20
-711.7157289644769
 30
0.0
 11
-595.6459017519555
 21
-713.2159731051019
 31
0.0
  0
LINE
  5
42A
330
1F
100
AcDbEntity
  8
D-0
  6
Continuous
 62
     7
370
     9
100
AcDbLine
 10
-595.6459017519555
 20
-713.2159731051019
 30
0.0
 11
-597.1461813573442
 21
-713.2159731051019
 31
0.0
  0
LINE
  5
42B
330
1F
100
AcDbEntity
  8
D-0
  6
Continuous
 62
     7
370
     9
100
AcDbLine
 10
-714.1788812403283
 20
-595.152713980346
 30
0.0
 11
-714.1788812403283
 21
-593.6524316927483
 31
0.0
  0
LINE
  5
42C
330
1F
100
AcDbEntity
  8
D-0
  6
Continuous
 62
     7
370
     9
100
AcDbLine
 10
-714.1788812403283
 20
-593.6524316927483
 30
0.0
 11
-712.6785989527307
 21
-593.6524316927483
 31
0.0
  0
LINE
  5
42D
330
1F
100
AcDbEntity
  8
D-0
  6
Continuous
 62
     7
370
     9
100
AcDbLine
 10
-712.6785989527307
 20
-593.6524316927483
 30
0.0
 11
-712.6785989527307
 21
-595.152713980346
 31
0.0
  0
LINE
  5
42E
330
1F
100
AcDbEntity
  8
D-0
  6
Continuous
 62
     7
370
     9
100
AcDbLine
 10
-712.6785989527307
 20
-595.152713980346
 30
0.0
 11
-714.1788812403283
 21
-595.152713980346
 31
0.0
  0
LINE
  5
42F
330
1F
100
AcDbEntity
  8
D-0
  6
Continuous
 62
     7
370
     9
100
AcDbLine
 10
-597.2571663980088
 20
-638.8867494722894
 30
0.0
 11
-597.2571663980088
 21
-637.3864671846917
 31
0.0
  0
LINE
  5
430
330
1F
100
AcDbEntity
  8
D-0
  6
Continuous
 62
     7
370
     9
100
AcDbLine
 10
-597.2571663980088
 20
-637.3864671846917
 30
0.0
 11
-595.7568867926202
 21
-637.3864671846917
 31
0.0
  0
LINE
  5
431
330
1F
100
AcDbEntity
  8
D-0
  6
Continuous
 62
     7
370
     9
100
AcDbLine
 10
-595.7568867926202
 20
-637.3864671846917
 30
0.0
 11
-595.7568867926202
 21
-638.8867494722894
 31
0.0
  0
LINE
  5
432
330
1F
100
AcDbEntity
  8
D-0
  6
Continuous
 62
     7
370
     9
100
AcDbLine
 10
-595.7568867926202
 20
-638.8867494722894
 30
0.0
 11
-597.2571663980088
 21
-638.8867494722894
 31
0.0
  0
LINE
  5
433
330
1F
100
AcDbEntity
  8
D-0
  6
Continuous
 62
     7
370
     9
100
AcDbLine
 10
-621.9874997858606
 20
-762.232734884887
 30
0.0
 11
-621.9874997858606
 21
-760.7324525972894
 31
0.0
  0
LINE
  5
434
330
1F
100
AcDbEntity
  8
D-0
  6
Continuous
 62
     7
370
     9
100
AcDbLine
 10
-621.9874997858606
 20
-760.7324525972894
 30
0.0
 11
-620.4872198824487
 21
-760.7324525972894
 31
0.0
  0
LINE
  5
435
330
1F
100
AcDbEntity
  8
D-0
  6
Continuous
 62
     7
370
     9
100
AcDbLine
 10
-620.4872198824487
 20
-760.7324525972894
 30
0.0
 11
-620.4872198824487
 21
-762.232734884887
 31
0.0
  0
LINE
  5
436
330
1F
100
AcDbEntity
  8
D-0
  6
Continuous
 62
     7
370
     9
100
AcDbLine
 10
-620.4872198824487
 20
-762.232734884887
 30
0.0
 11
-621.9874997858606
 21
-762.232734884887
 31
0.0
  0
LINE
  5
437
330
1F
100
AcDbEntity
  8
D-0
  6
Continuous
 62
     7
370
     9
100
AcDbLine
 10
-590.1437212948404
 20
-449.7707864901116
 30
0.0
 11
-590.1437212948404
 21
-448.270504202514
 31
0.0
  0
LINE
  5
438
330
1F
100
AcDbEntity
  8
D-0
  6
Continuous
 62
     7
370
     9
100
AcDbLine
 10
-590.1437212948404
 20
-448.270504202514
 30
0.0
 11
-588.643441987475
 21
-448.270504202514
 31
0.0
  0
LINE
  5
439
330
1F
100
AcDbEntity
  8
D-0
  6
Continuous
 62
     7
370
     9
100
AcDbLine
 10
-588.643441987475
 20
-448.270504202514
 30
0.0
 11
-588.643441987475
 21
-449.7707864901116
 31
0.0
  0
LINE
  5
43A
330
1F
100
AcDbEntity
  8
D-0
  6
Continuous
 62
     7
370
     9
100
AcDbLine
 10
-588.643441987475
 20
-449.7707864901116
 30
0.0
 11
-590.1437212948404
 21
-449.7707864901116
 31
0.0
  0
LINE
  5
43B
330
1F
100
AcDbEntity
  8
D-4
  6
Continuous
 62
     7
370
     9
100
AcDbLine
 10
-424.3063493494591
 20
-437.281505789428
 30
0.0
 11
-424.3063493494591
 21
-499.7650644442132
 31
0.0
  0
LINE
  5
43C
330
1F
100
AcDbEntity
  8
D-5
  6
Continuous
 62
     7
370
     9
100
AcDbLine
 10
-434.3069024805626
 20
-375.4554674288323
 30
0.0
 11
-420.4952188257774
 21
-354.6160528322747
 31
0.0
  0
LINE
  5
43D
330
1F
100
AcDbEntity
  8
D-5
  6
Continuous
 62
     7
370
     9
100
AcDbLine
 10
-434.3069024805626
 20
-375.4554674288323
 30
0.0
 11
-415.5722375635704
 21
-358.9013645311883
 31
0.0
  0
LINE
  5
43E
330
1F
100
AcDbEntity
  8
D-5
  6
Continuous
 62
     7
370
     9
100
AcDbLine
 10
-434.3069024805626
 20
-375.4554674288323
 30
0.0
 11
-312.5603051905235
 21
-235.5747244020989
 31
0.0
  0
LINE
  5
43F
330
1F
100
AcDbEntity
  8
D-5
  6
Continuous
 62
     7
370
     9
100
AcDbLine
 10
-312.5603051905235
 20
-235.5747244020989
 30
0.0
 11
74.14316694692765
 21
-235.5747244020989
 31
0.0
  0
LINE
  5
440
330
1F
100
AcDbEntity
  8
D-4
  6
Continuous
 62
     7
370
     9
100
AcDbLine
 10
-412.4795099024376
 20
-425.4556581636956
 30
0.0
 11
-322.7324624781212
 21
-425.4556581636956
 31
0.0
  0
LINE
  5
441
330
1F
100
AcDbEntity
  8
D-4
  6
Continuous
 62
     7
370
     9
100
AcDbLine
 10
-412.4795099024376
 20
-375.4554197451165
 30
0.0
 11
-322.7324624781212
 21
-375.4554197451165
 31
0.0
  0
LINE
  5
442
330
1F
100
AcDbEntity
  8
D-4
  6
Continuous
 62
     7
370
     9
100
AcDbLine
 10
-325.7330079798302
 20
-375.4554197451165
 30
0.0
 11
-325.7330079798302
 21
-290.455276693969
 31
0.0
  0
LINE
  5
443
330
1F
100
AcDbEntity
  8
D-4
  6
Continuous
 62
     7
370
     9
100
AcDbLine
 10
-325.7330079798302
 20
-425.4556581636956
 30
0.0
 11
-325.7330079798302
 21
-375.4554197451165
 31
0.0
  0
LINE
  5
444
330
1F
100
AcDbEntity
  8
D-4
  6
Continuous
 62
     7
370
     9
100
AcDbLine
 10
-569.3067808870874
 20
-496.7645189425042
 30
0.0
 11
-724.3057676081262
 21
-496.7645189425042
 31
0.0
  0
LINE
  5
445
330
1F
100
AcDbEntity
  8
D-9
  6
Continuous
 62
     4
370
     9
100
AcDbLine
 10
-709.3064065699182
 20
-367.9559442659905
 30
0.0
 11
-594.3066497568689
 21
-367.9559442659905
 31
0.0
  0
LINE
  5
446
330
1F
100
AcDbEntity
  8
D-1
  6
Continuous
 62
     2
370
     9
100
AcDbLine
 10
-569.3068142656884
 20
-293.4552768131783
 30
0.0
 11
-569.3068142656884
 21
-317.9551598688653
 31
0.0
  0
LINE
  5
447
330
1F
100
AcDbEntity
  8
D-1
  6
Continuous
 62
     2
370
     9
100
AcDbLine
 10
-569.3068142656884
 20
-412.454902853637
 30
0.0
 11
-569.3068142656884
 21
-387.9550192019036
 31
0.0
  0
LINE
  5
448
330
1F
100
AcDbEntity
  8
D-1
  6
Continuous
 62
     2
370
     9
100
AcDbLine
 10
-591.3065655951104
 20
-290.4556874827489
 30
0.0
 11
-572.3062797312341
 21
-290.4556874827489
 31
0.0
  0
LINE
  5
449
330
1F
100
AcDbEntity
  8
D-1
  6
Continuous
 62
     2
370
     9
100
AcDbLine
 10
-719.3064447168908
 20
-385.4552004000237
 30
0.0
 11
-719.3064447168908
 21
-377.9552957674554
 31
0.0
  0
LINE
  5
44A
330
1F
100
AcDbEntity
  8
D-1
  6
Continuous
 62
     2
370
     9
100
AcDbLine
 10
-724.3068357233606
 20
-385.4552004000237
 30
0.0
 11
-724.3068357233606
 21
-377.9552957674554
 31
0.0
  0
LINE
  5
44B
330
1F
100
AcDbEntity
  8
D-1
  6
Continuous
 62
     2
370
     9
100
AcDbLine
 10
-589.3068804268441
 20
-410.4552194735101
 30
0.0
 11
-574.3065829996667
 21
-410.4552194735101
 31
0.0
  0
LINE
  5
44C
330
1F
100
AcDbEntity
  8
D-1
  6
Continuous
 62
     2
370
     9
100
AcDbLine
 10
-589.3066330675683
 20
-415.4554769655755
 30
0.0
 11
-572.3062797312341
 21
-415.4554769655755
 31
0.0
  0
LINE
  5
44D
330
1F
100
AcDbEntity
  8
D-1
  6
Continuous
 62
     2
370
     9
100
AcDbLine
 10
-594.3066497568689
 20
-380.4549333712151
 30
0.0
 11
-594.3066497568689
 21
-293.4552768131783
 31
0.0
  0
LINE
  5
44E
330
1F
100
AcDbEntity
  8
D-1
  6
Continuous
 62
     2
370
     9
100
AcDbLine
 10
-594.3066497568689
 20
-380.4549333712151
 30
0.0
 11
-644.3063207392297
 21
-380.4549333712151
 31
0.0
  0
LINE
  5
44F
330
1F
100
AcDbEntity
  8
D-1
  6
Continuous
 62
     2
370
     9
100
AcDbLine
 10
-719.3064447168908
 20
-390.4554578920892
 30
0.0
 11
-594.3066497568689
 21
-390.4554578920892
 31
0.0
  0
LINE
  5
450
330
1F
100
AcDbEntity
  8
D-1
  6
Continuous
 62
     2
370
     9
100
AcDbLine
 10
-594.3066497568689
 20
-410.4554674288323
 30
0.0
 11
-594.3066497568689
 21
-390.4554578920892
 31
0.0
  0
LINE
  5
451
330
1F
100
AcDbEntity
  8
D-1
  6
Continuous
 62
     2
370
     9
100
AcDbLine
 10
-589.3068804268441
 20
-390.4552099367669
 30
0.0
 11
-589.3068804268441
 21
-410.4552194735101
 31
0.0
  0
LINE
  5
452
330
1F
100
AcDbEntity
  8
D-1
  6
Continuous
 62
     2
370
     9
100
AcDbLine
 10
-594.3068971161447
 20
-385.4552004000237
 30
0.0
 11
-719.3064447168908
 21
-385.4552004000237
 31
0.0
  0
LINE
  5
453
330
1F
100
AcDbEntity
  8
D-1
  6
Continuous
 62
     2
370
     9
100
AcDbLine
 10
-589.3068804268441
 20
-380.4551813265374
 30
0.0
 11
-589.3068804268441
 21
-295.4549616834214
 31
0.0
  0
LINE
  5
454
330
1F
100
AcDbEntity
  8
D-9
  6
Continuous
 62
     4
370
     9
100
AcDbLine
 10
-594.3066497568689
 20
-373.5463544985345
 30
0.0
 11
-601.2152314607702
 21
-380.4549333712151
 31
0.0
  0
LINE
  5
455
330
1F
100
AcDbEntity
  8
D-9
  6
Continuous
 62
     4
370
     9
100
AcDbLine
 10
-595.7865871910653
 20
-367.9559442659905
 30
0.0
 11
-608.2857622627816
 21
-380.4549333712151
 31
0.0
  0
LINE
  5
456
330
1F
100
AcDbEntity
  8
D-9
  6
Continuous
 62
     4
370
     9
100
AcDbLine
 10
-602.8579225067697
 20
-367.9559442659905
 30
0.0
 11
-615.3570981745324
 21
-380.4549333712151
 31
0.0
  0
LINE
  5
457
330
1F
100
AcDbEntity
  8
D-9
  6
Continuous
 62
     4
370
     9
100
AcDbLine
 10
-609.928762507876
 20
-367.9559442659905
 30
0.0
 11
-622.4279375795923
 21
-380.4549333712151
 31
0.0
  0
LINE
  5
458
330
1F
100
AcDbEntity
  8
D-9
  6
Continuous
 62
     4
370
     9
100
AcDbLine
 10
-617.0000978235803
 20
-367.9559442659905
 30
0.0
 11
-629.4992728952966
 21
-380.4549333712151
 31
0.0
  0
LINE
  5
459
330
1F
100
AcDbEntity
  8
D-9
  6
Continuous
 62
     4
370
     9
100
AcDbLine
 10
-624.0709396128259
 20
-367.9559442659905
 30
0.0
 11
-636.5702982668481
 21
-380.4549333712151
 31
0.0
  0
LINE
  5
45A
330
1F
100
AcDbEntity
  8
D-9
  6
Continuous
 62
     4
370
     9
100
AcDbLine
 10
-631.1422749285302
 20
-367.9559442659905
 30
0.0
 11
-643.6416335825525
 21
-380.4549333712151
 31
0.0
  0
LINE
  5
45B
330
1F
100
AcDbEntity
  8
D-9
  6
Continuous
 62
     4
370
     9
100
AcDbLine
 10
-666.4979596857629
 20
-367.9559442659905
 30
0.0
 11
-671.4970489267907
 21
-372.9550287386468
 31
0.0
  0
LINE
  5
45C
330
1F
100
AcDbEntity
  8
D-9
  6
Continuous
 62
     4
370
     9
100
AcDbLine
 10
-673.5688014750085
 20
-367.9559442659905
 30
0.0
 11
-678.5679527048669
 21
-372.9550287386468
 31
0.0
  0
LINE
  5
45D
330
1F
100
AcDbEntity
  8
D-9
  6
Continuous
 62
     4
370
     9
100
AcDbLine
 10
-708.924488616427
 20
-367.9559442659905
 30
0.0
 11
-713.9239450220666
 21
-372.9550287386468
 31
0.0
  0
LINE
  5
45E
330
1F
100
AcDbEntity
  8
D-9
  6
Continuous
 62
     4
370
     9
100
AcDbLine
 10
-659.4266267542444
 20
-367.9559442659905
 30
0.0
 11
-664.4258924250207
 21
-372.9550287386468
 31
0.0
  0
LINE
  5
45F
330
1F
100
AcDbEntity
  8
D-9
  6
Continuous
 62
     4
370
     9
100
AcDbLine
 10
-645.2844472651086
 20
-367.9559442659905
 30
0.0
 11
-650.2836414103112
 21
-372.9550287386468
 31
0.0
  0
LINE
  5
460
330
1F
100
AcDbEntity
  8
D-9
  6
Continuous
 62
     4
370
     9
100
AcDbLine
 10
-652.3557849649987
 20
-367.9559442659905
 30
0.0
 11
-657.354960036715
 21
-372.9550287386468
 31
0.0
  0
LINE
  5
461
330
1F
100
AcDbEntity
  8
D-9
  6
Continuous
 62
     4
370
     9
100
AcDbLine
 10
-680.6401391748986
 20
-367.9559442659905
 30
0.0
 11
-685.6392236475549
 21
-372.9550287386468
 31
0.0
  0
LINE
  5
462
330
1F
100
AcDbEntity
  8
D-9
  6
Continuous
 62
     4
370
     9
100
AcDbLine
 10
-687.7109761957727
 20
-367.9559442659905
 30
0.0
 11
-692.7101560358606
 21
-372.9550287386468
 31
0.0
  0
LINE
  5
463
330
1F
100
AcDbEntity
  8
D-9
  6
Continuous
 62
     4
370
     9
100
AcDbLine
 10
-694.7818132166467
 20
-367.9559442659905
 30
0.0
 11
-699.7810216669641
 21
-372.9550287386468
 31
0.0
  0
LINE
  5
464
330
1F
100
AcDbEntity
  8
D-9
  6
Continuous
 62
     4
370
     9
100
AcDbLine
 10
-701.8531556849084
 20
-367.9559442659905
 30
0.0
 11
-706.8524213556848
 21
-372.9550287386468
 31
0.0
  0
LINE
  5
465
330
1F
100
AcDbEntity
  8
D-1
  6
Continuous
 62
     2
370
     9
100
AcDbLine
 10
-649.3066497568689
 20
-377.9552957674554
 30
0.0
 11
-719.3064447168908
 21
-377.9552957674554
 31
0.0
  0
LINE
  5
466
330
1F
100
AcDbEntity
  8
D-1
  6
Continuous
 62
     2
370
     9
100
AcDbLine
 10
-649.3066497568689
 20
-380.4552004000237
 30
0.0
 11
-649.3066497568689
 21
-377.9552957674554
 31
0.0
  0
LINE
  5
467
330
1F
100
AcDbEntity
  8
D-1
  6
Continuous
 62
     2
370
     9
100
AcDbLine
 10
-649.3066497568689
 20
-372.9550287386468
 30
0.0
 11
-719.3064447168908
 21
-372.9550287386468
 31
0.0
  0
LINE
  5
468
330
1F
100
AcDbEntity
  8
D-1
  6
Continuous
 62
     2
370
     9
100
AcDbLine
 10
-644.3066497568689
 20
-377.9550287386468
 30
0.0
 11
-644.3066497568689
 21
-380.4549333712151
 31
0.0
  0
LINE
  5
469
330
1F
100
AcDbEntity
  8
D-9
  6
Continuous
 62
     4
370
     9
100
AcDbLine
 10
-638.2136102442346
 20
-367.9559442659905
 30
0.0
 11
-645.2667089228235
 21
-375.0090429445794
 31
0.0
  0
LINE
  5
46A
330
1F
100
AcDbEntity
  8
D-3
  6
Continuous
 62
     3
370
     9
100
AcDbLine
 10
-585.8065970663629
 20
-295.4549616834214
 30
0.0
 11
-585.8065970663629
 21
-407.9549619814446
 31
0.0
  0
LINE
  5
46B
330
1F
100
AcDbEntity
  8
D-3
  6
Continuous
 62
     3
370
     9
100
AcDbLine
 10
-424.3067117456993
 20
-385.4548856874993
 30
0.0
 11
-424.3067117456993
 21
-425.4548952242425
 31
0.0
  0
LINE
  5
46C
330
1F
100
AcDbEntity
  8
D-3
  6
Continuous
 62
     3
370
     9
100
AcDbLine
 10
-549.306625915011
 20
-407.2746297976067
 30
0.0
 11
-549.306625915011
 21
-425.4548952242425
 31
0.0
  0
LINE
  5
46D
330
1F
100
AcDbEntity
  8
D-3
  6
Continuous
 62
     3
370
     9
100
AcDbLine
 10
-552.2355695490442
 20
-400.2035352846673
 30
0.0
 11
-574.3065829996667
 21
-378.1325266024163
 31
0.0
  0
LINE
  5
46E
330
1F
100
AcDbEntity
  8
D-3
  6
JWW_CENTER1
 62
     3
370
     9
100
AcDbLine
 10
-524.3681569819055
 20
-346.9548580309441
 30
0.0
 11
-593.0391391043268
 21
-346.9548580309441
 31
0.0
  0
LINE
  5
46F
330
1F
100
AcDbEntity
  8
D-3
  6
Continuous
 62
     3
370
     9
100
AcDbLine
 10
-531.6290279154382
 20
-368.1324932238152
 30
0.0
 11
-534.8064037088952
 21
-364.9551174303582
 31
0.0
  0
LINE
  5
470
330
1F
100
AcDbEntity
  8
D-3
  6
Continuous
 62
     3
370
     9
100
AcDbLine
 10
-562.807066035708
 20
-336.9543335100701
 30
0.0
 11
-574.3065829996667
 21
-325.4548141619256
 31
0.0
  0
LINE
  5
471
330
1F
100
AcDbEntity
  8
D-A
  6
Continuous
 62
     7
370
     9
100
AcDbLine
 10
-588.057310176333
 20
-356.9543954989007
 30
0.0
 11
-588.057310176333
 21
-336.9543335100701
 31
0.0
  0
LINE
  5
472
330
1F
100
AcDbEntity
  8
D-A
  6
Continuous
 62
     7
370
     9
100
AcDbLine
 10
-588.057310176333
 20
-336.9543335100701
 30
0.0
 11
-589.3068804268441
 21
-338.2043954989007
 31
0.0
  0
LINE
  5
473
330
1F
100
AcDbEntity
  8
D-A
  6
Continuous
 62
     7
370
     9
100
AcDbLine
 10
-588.057310176333
 20
-356.9543954989007
 30
0.0
 11
-589.3068804268441
 21
-355.7048246523431
 31
0.0
  0
LINE
  5
474
330
1F
100
AcDbEntity
  8
D-A
  6
Continuous
 62
     7
370
     9
100
AcDbLine
 10
-526.3068481211267
 20
-358.4551212450555
 30
0.0
 11
-526.3068481211267
 21
-335.4545995852044
 31
0.0
  0
LINE
  5
475
330
1F
100
AcDbEntity
  8
D-A
  6
Continuous
 62
     7
370
     9
100
AcDbLine
 10
-532.8068443064294
 20
-364.9551174303582
 30
0.0
 11
-539.3068404917321
 21
-364.9551174303582
 31
0.0
  0
LINE
  5
476
330
1F
100
AcDbEntity
  8
D-A
  6
Continuous
 62
     7
370
     9
100
AcDbLine
 10
-532.8068443064294
 20
-328.9546010157159
 30
0.0
 11
-539.3068404917321
 21
-328.9546010157159
 31
0.0
  0
LINE
  5
477
330
1F
100
AcDbEntity
  8
D-A
  6
Continuous
 62
     7
370
     9
100
AcDbLine
 10
-539.3068404917321
 20
-328.9546010157159
 30
0.0
 11
-539.3068404917321
 21
-364.9551174303582
 31
0.0
  0
LINE
  5
478
330
1F
100
AcDbEntity
  8
D-A
  6
Continuous
 62
     7
370
     9
100
AcDbLine
 10
-539.3068404917321
 20
-336.9543335100701
 30
0.0
 11
-574.3065829996667
 21
-336.9543335100701
 31
0.0
  0
LINE
  5
479
330
1F
100
AcDbEntity
  8
D-A
  6
Continuous
 62
     7
370
     9
100
AcDbLine
 10
-539.3068404917321
 20
-338.2043954989007
 30
0.0
 11
-574.3065829996667
 21
-338.2043954989007
 31
0.0
  0
LINE
  5
47A
330
1F
100
AcDbEntity
  8
D-A
  6
Continuous
 62
     7
370
     9
100
AcDbLine
 10
-539.3068404917321
 20
-355.7048246523431
 30
0.0
 11
-574.3065829996667
 21
-355.7048246523431
 31
0.0
  0
LINE
  5
47B
330
1F
100
AcDbEntity
  8
D-A
  6
Continuous
 62
     7
370
     9
100
AcDbLine
 10
-539.3068404917321
 20
-356.9543954989007
 30
0.0
 11
-574.3065829996667
 21
-356.9543954989007
 31
0.0
  0
LINE
  5
47C
330
1F
100
AcDbEntity
  8
D-A
  6
Continuous
 62
     7
370
     9
100
AcDbLine
 10
-585.8065970663629
 20
-355.7048246523431
 30
0.0
 11
-589.3068804268441
 21
-355.7048246523431
 31
0.0
  0
LINE
  5
47D
330
1F
100
AcDbEntity
  8
D-A
  6
Continuous
 62
     7
370
     9
100
AcDbLine
 10
-585.8065970663629
 20
-356.9543954989007
 30
0.0
 11
-588.057310176333
 21
-356.9543954989007
 31
0.0
  0
LINE
  5
47E
330
1F
100
AcDbEntity
  8
D-A
  6
Continuous
 62
     7
370
     9
100
AcDbLine
 10
-585.8065970663629
 20
-338.2043954989007
 30
0.0
 11
-589.3068804268441
 21
-338.2043954989007
 31
0.0
  0
LINE
  5
47F
330
1F
100
AcDbEntity
  8
D-A
  6
Continuous
 62
     7
370
     9
100
AcDbLine
 10
-585.8065970663629
 20
-336.9543335100701
 30
0.0
 11
-588.057310176333
 21
-336.9543335100701
 31
0.0
  0
LINE
  5
480
330
1F
100
AcDbEntity
  8
D-3
  6
JWW_DASHED2
 62
     3
370
     9
100
AcDbLine
 10
-549.306625915011
 20
-413.9548799654534
 30
0.0
 11
-424.3067117456993
 21
-413.9548799654534
 31
0.0
  0
LINE
  5
481
330
1F
100
AcDbEntity
  8
D-3
  6
Continuous
 62
     3
370
     9
100
AcDbLine
 10
-434.3066163782677
 20
-375.454981054931
 30
0.0
 11
-513.9513059382042
 21
-375.454981054931
 31
0.0
  0
LINE
  5
482
330
1F
100
AcDbEntity
  8
D-3
  6
Continuous
 62
     3
370
     9
100
AcDbLine
 10
-549.306625915011
 20
-425.4548952242425
 30
0.0
 11
-424.3067117456993
 21
-425.4548952242425
 31
0.0
  0
LINE
  5
483
330
1F
100
AcDbEntity
  8
D-1
  6
Continuous
 62
     2
370
     9
100
AcDbLine
 10
-589.3068804268441
 20
-295.4549616834214
 30
0.0
 11
-574.3065829996667
 21
-295.4549616834214
 31
0.0
  0
LINE
  5
484
330
1F
100
AcDbEntity
  8
D-1
  6
Continuous
 62
     2
370
     9
100
AcDbLine
 10
-569.3068142656884
 20
-317.9551598688653
 30
0.0
 11
-574.3065829996667
 21
-317.9551598688653
 31
0.0
  0
LINE
  5
485
330
1F
100
AcDbEntity
  8
D-1
  6
Continuous
 62
     2
370
     9
100
AcDbLine
 10
-574.3065829996667
 20
-317.9551598688653
 30
0.0
 11
-574.3065829996667
 21
-295.4549616834214
 31
0.0
  0
LINE
  5
486
330
1F
100
AcDbEntity
  8
D-3
  6
Continuous
 62
     3
370
     9
100
AcDbLine
 10
-585.8065970663629
 20
-295.4549616834214
 30
0.0
 11
-574.3065829996667
 21
-295.4549616834214
 31
0.0
  0
LINE
  5
487
330
1F
100
AcDbEntity
  8
D-1
  6
Continuous
 62
     2
370
     9
100
AcDbLine
 10
-569.3068142656884
 20
-387.9550192019036
 30
0.0
 11
-574.3065829996667
 21
-387.9550192019036
 31
0.0
  0
LINE
  5
488
330
1F
100
AcDbEntity
  8
D-1
  6
Continuous
 62
     2
370
     9
100
AcDbLine
 10
-574.3065829996667
 20
-410.4552194735101
 30
0.0
 11
-574.3065829996667
 21
-387.9550192019036
 31
0.0
  0
LINE
  5
489
330
1F
100
AcDbEntity
  8
D-3
  6
Continuous
 62
     3
370
     9
100
AcDbLine
 10
-585.8065970663629
 20
-407.9549619814446
 30
0.0
 11
-574.3065829996667
 21
-407.9549619814446
 31
0.0
  0
LINE
  5
48A
330
1F
100
AcDbEntity
  8
D-3
  6
Continuous
 62
     3
370
     9
100
AcDbLine
 10
-574.3065829996667
 20
-295.4549616834214
 30
0.0
 11
-574.3065829996667
 21
-407.9549619814446
 31
0.0
  0
LINE
  5
48B
330
1F
100
AcDbEntity
  8
D-6
  6
Continuous
 62
     6
370
     9
100
AcDbLine
 10
-572.3062797312341
 20
-290.455276693969
 30
0.0
 11
-159.3048997644981
 21
-290.455276693969
 31
0.0
  0
LINE
  5
48C
330
1F
100
AcDbEntity
  8
D-6
  6
Continuous
 62
     6
370
     9
100
AcDbLine
 10
-724.3057676081262
 20
-385.4552004000237
 30
0.0
 11
-724.3057676081262
 21
-790.4546281954339
 31
0.0
  0
LINE
  5
48D
330
1F
100
AcDbEntity
  8
D-4
  6
Continuous
 62
     7
370
     9
100
AcDbLine
 10
-641.16064508005
 20
-415.4551145693353
 30
0.0
 11
-872.7888437037072
 21
-415.4551145693353
 31
0.0
  0
LINE
  5
48E
330
1F
100
AcDbEntity
  8
D-5
  6
Continuous
 62
     7
370
     9
100
AcDbLine
 10
-599.7895072449646
 20
-429.2321130892327
 30
0.0
 11
-664.8379989389978
 21
-372.6151106020501
 31
0.0
  0
LINE
  5
48F
330
1F
100
AcDbEntity
  8
D-5
  6
Continuous
 62
     7
370
     9
100
AcDbLine
 10
-664.8379989389978
 20
-372.6151106020501
 30
0.0
 11
-648.2843871836267
 21
-391.3492796083978
 31
0.0
  0
LINE
  5
490
330
1F
100
AcDbEntity
  8
D-5
  6
Continuous
 62
     7
370
     9
100
AcDbLine
 10
-664.8379989389978
 20
-372.6151106020501
 30
0.0
 11
-643.9995761637292
 21
-386.4268037935784
 31
0.0
  0
ARC
  5
491
330
1F
100
AcDbEntity
  8
D-9
  6
Continuous
 62
     4
370
     9
100
AcDbCircle
 10
-709.3064065699182
 20
-372.9552194735101
 30
0.0
 40
5.0
100
AcDbArc
 50
90.0
 51
180.0
  0
ARC
  5
492
330
1F
100
AcDbEntity
  8
D-1
  6
Continuous
 62
     2
370
     9
100
AcDbCircle
 10
-719.3064447168908
 20
-377.9552957674554
 30
0.0
 40
5.0
100
AcDbArc
 50
90.0
 51
180.0
  0
ARC
  5
493
330
1F
100
AcDbEntity
  8
D-1
  6
Continuous
 62
     2
370
     9
100
AcDbCircle
 10
-572.3062797312341
 20
-293.4552768131783
 30
0.0
 40
3.00000011920929
100
AcDbArc
 50
0.0
 51
90.0
  0
ARC
  5
494
330
1F
100
AcDbEntity
  8
D-1
  6
Continuous
 62
     2
370
     9
100
AcDbCircle
 10
-591.3065655951104
 20
-293.4552768131783
 30
0.0
 40
3.00000011920929
100
AcDbArc
 50
90.0
 51
180.0
  0
ARC
  5
495
330
1F
100
AcDbEntity
  8
D-1
  6
Continuous
 62
     2
370
     9
100
AcDbCircle
 10
-572.3062797312341
 20
-412.454902853637
 30
0.0
 40
3.00000011920929
100
AcDbArc
 50
270.0
 51
0.0
  0
ARC
  5
496
330
1F
100
AcDbEntity
  8
D-1
  6
Continuous
 62
     2
370
     9
100
AcDbCircle
 10
-719.3064447168908
 20
-385.4552004000237
 30
0.0
 40
5.0
100
AcDbArc
 50
180.0
 51
270.0
  0
ARC
  5
497
330
1F
100
AcDbEntity
  8
D-1
  6
Continuous
 62
     2
370
     9
100
AcDbCircle
 10
-589.3066330675683
 20
-410.4554674288323
 30
0.0
 40
5.0
100
AcDbArc
 50
180.0
 51
270.0
  0
ARC
  5
498
330
1F
100
AcDbEntity
  8
D-1
  6
Continuous
 62
     2
370
     9
100
AcDbCircle
 10
-594.3068971161447
 20
-390.4552099367669
 30
0.0
 40
5.0
100
AcDbArc
 50
0.0
 51
90.0
  0
ARC
  5
499
330
1F
100
AcDbEntity
  8
D-1
  6
Continuous
 62
     2
370
     9
100
AcDbCircle
 10
-594.3068971161447
 20
-380.4551813265374
 30
0.0
 40
5.0
100
AcDbArc
 50
270.0
 51
0.0
  0
ARC
  5
49A
330
1F
100
AcDbEntity
  8
D-1
  6
Continuous
 62
     2
370
     9
100
AcDbCircle
 10
-644.3066497568689
 20
-380.4552004000237
 30
0.0
 40
5.0
100
AcDbArc
 50
180.0
 51
270.0
  0
ARC
  5
49B
330
1F
100
AcDbEntity
  8
D-1
  6
Continuous
 62
     2
370
     9
100
AcDbCircle
 10
-649.3066497568689
 20
-377.9550287386468
 30
0.0
 40
5.0
100
AcDbArc
 50
0.0
 51
90.0
  0
ARC
  5
49C
330
1F
100
AcDbEntity
  8
D-3
  6
Continuous
 62
     3
370
     9
100
AcDbCircle
 10
-513.9513059382042
 20
-350.4548952242425
 30
0.0
 40
25.0
100
AcDbArc
 50
225.0
 51
270.0
  0
ARC
  5
49D
330
1F
100
AcDbEntity
  8
D-3
  6
Continuous
 62
     3
370
     9
100
AcDbCircle
 10
-434.3066163782677
 20
-385.4548856874993
 30
0.0
 40
10.0
100
AcDbArc
 50
0.0
 51
90.0
  0
ARC
  5
49E
330
1F
100
AcDbEntity
  8
D-3
  6
Continuous
 62
     3
370
     9
100
AcDbCircle
 10
-559.3066569094262
 20
-407.2746297976067
 30
0.0
 40
10.0
100
AcDbArc
 50
0.0
 51
45.000244140625
  0
ARC
  5
49F
330
1F
100
AcDbEntity
  8
D-A
  6
Continuous
 62
     7
370
     9
100
AcDbCircle
 10
-532.8068443064294
 20
-335.4545995852044
 30
0.0
 40
6.499999761581421
100
AcDbArc
 50
0.0
 51
90.0
  0
ARC
  5
4A0
330
1F
100
AcDbEntity
  8
D-A
  6
Continuous
 62
     7
370
     9
100
AcDbCircle
 10
-532.8068443064294
 20
-358.4551212450555
 30
0.0
 40
6.499999761581421
100
AcDbArc
 50
270.0
 51
0.0
  0
LWPOLYLINE
  5
4A1
330
1F
100
AcDbEntity
  8
D-4
  6
Continuous
 62
     7
370
     9
100
AcDbPolyline
 90
        4
 70
     1
 43
1.0
 10
-568.8067808870874
 20
49.91196421179268
 42
0.4142135623731
 10
-569.3067808870874
 20
50.41196421179268
 42
0.4142135623731
 10
-569.8067808870873
 20
49.91196421179268
 42
0.4142135623731
 10
-569.3067808870874
 20
49.41196421179268
 42
0.4142135623731
  0
LWPOLYLINE
  5
4A2
330
1F
100
AcDbEntity
  8
D-4
  6
Continuous
 62
     7
370
     9
100
AcDbPolyline
 90
        4
 70
     1
 43
1.0
 10
-723.8057676081262
 20
-169.5361253878167
 42
0.4142135623731
 10
-724.3057676081262
 20
-169.0361253878167
 42
0.4142135623731
 10
-724.8057676081261
 20
-169.5361253878167
 42
0.4142135623731
 10
-724.3057676081262
 20
-170.0361253878167
 42
0.4142135623731
  0
LWPOLYLINE
  5
4A3
330
1F
100
AcDbEntity
  8
D-4
  6
Continuous
 62
     7
370
     9
100
AcDbPolyline
 90
        4
 70
     1
 43
1.0
 10
-598.80592973276
 20
-169.5361253878167
 42
0.4142135623731
 10
-599.30592973276
 20
-169.0361253878167
 42
0.4142135623731
 10
-599.8059297327599
 20
-169.5361253878167
 42
0.4142135623731
 10
-599.30592973276
 20
-170.0361253878167
 42
0.4142135623731
  0
LWPOLYLINE
  5
4A4
330
1F
100
AcDbEntity
  8
D-4
  6
Continuous
 62
     7
370
     9
100
AcDbPolyline
 90
        4
 70
     1
 43
1.0
 10
-598.80592973276
 20
-60.78370305505302
 42
0.4142135623731
 10
-599.30592973276
 20
-60.28370305505302
 42
0.4142135623731
 10
-599.8059297327599
 20
-60.78370305505302
 42
0.4142135623731
 10
-599.30592973276
 20
-61.28370305505302
 42
0.4142135623731
  0
LWPOLYLINE
  5
4A5
330
1F
100
AcDbEntity
  8
D-4
  6
Continuous
 62
     7
370
     9
100
AcDbPolyline
 90
        4
 70
     1
 43
1.0
 10
-593.8056591276727
 20
-60.78370305505302
 42
0.4142135623731
 10
-594.3056591276727
 20
-60.28370305505302
 42
0.4142135623731
 10
-594.8056591276726
 20
-60.78370305505302
 42
0.4142135623731
 10
-594.3056591276727
 20
-61.28370305505302
 42
0.4142135623731
  0
LWPOLYLINE
  5
4A6
330
1F
100
AcDbEntity
  8
D-4
  6
Continuous
 62
     7
370
     9
100
AcDbPolyline
 90
        4
 70
     1
 43
1.0
 10
-568.8067808870874
 20
-60.78370305505302
 42
0.4142135623731
 10
-569.3067808870874
 20
-60.28370305505302
 42
0.4142135623731
 10
-569.8067808870873
 20
-60.78370305505302
 42
0.4142135623731
 10
-569.3067808870874
 20
-61.28370305505302
 42
0.4142135623731
  0
LWPOLYLINE
  5
4A7
330
1F
100
AcDbEntity
  8
D-4
  6
Continuous
 62
     7
370
     9
100
AcDbPolyline
 90
        4
 70
     1
 43
1.0
 10
-869.2882791285119
 20
-415.4551145693353
 42
0.4142135623731
 10
-869.7882791285119
 20
-414.9551145693353
 42
0.4142135623731
 10
-870.2882791285118
 20
-415.4551145693353
 42
0.4142135623731
 10
-869.7882791285119
 20
-415.9551145693353
 42
0.4142135623731
  0
LWPOLYLINE
  5
4A8
330
1F
100
AcDbEntity
  8
D-4
  6
Continuous
 62
     7
370
     9
100
AcDbPolyline
 90
        4
 70
     1
 43
1.0
 10
-869.2882791285119
 20
-290.455276693969
 42
0.4142135623731
 10
-869.7882791285119
 20
-289.955276693969
 42
0.4142135623731
 10
-870.2882791285118
 20
-290.455276693969
 42
0.4142135623731
 10
-869.7882791285119
 20
-290.955276693969
 42
0.4142135623731
  0
LWPOLYLINE
  5
4A9
330
1F
100
AcDbEntity
  8
D-4
  6
Continuous
 62
     7
370
     9
100
AcDbPolyline
 90
        4
 70
     1
 43
1.0
 10
-568.8067808870874
 20
-496.7645189425042
 42
0.4142135623731
 10
-569.3067808870874
 20
-496.2645189425042
 42
0.4142135623731
 10
-569.8067808870873
 20
-496.7645189425042
 42
0.4142135623731
 10
-569.3067808870874
 20
-497.2645189425042
 42
0.4142135623731
  0
LWPOLYLINE
  5
4AA
330
1F
100
AcDbEntity
  8
D-4
  6
Continuous
 62
     7
370
     9
100
AcDbPolyline
 90
        4
 70
     1
 43
1.0
 10
-423.8063493494591
 20
-496.7645189425042
 42
0.4142135623731
 10
-424.3063493494591
 20
-496.2645189425042
 42
0.4142135623731
 10
-424.806349349459
 20
-496.7645189425042
 42
0.4142135623731
 10
-424.3063493494591
 20
-497.2645189425042
 42
0.4142135623731
  0
LWPOLYLINE
  5
4AB
330
1F
100
AcDbEntity
  8
D-4
  6
Continuous
 62
     7
370
     9
100
AcDbPolyline
 90
        4
 70
     1
 43
1.0
 10
-723.8057676081262
 20
-696.0737535616448
 42
0.4142135623731
 10
-724.3057676081262
 20
-695.5737535616448
 42
0.4142135623731
 10
-724.8057676081261
 20
-696.0737535616448
 42
0.4142135623731
 10
-724.3057676081262
 20
-696.5737535616448
 42
0.4142135623731
  0
LWPOLYLINE
  5
4AC
330
1F
100
AcDbEntity
  8
D-4
  6
Continuous
 62
     7
370
     9
100
AcDbPolyline
 90
        4
 70
     1
 43
1.0
 10
-573.806556773623
 20
-696.0737535616448
 42
0.4142135623731
 10
-574.306556773623
 20
-695.5737535616448
 42
0.4142135623731
 10
-574.8065567736229
 20
-696.0737535616448
 42
0.4142135623731
 10
-574.306556773623
 20
-696.5737535616448
 42
0.4142135623731
  0
LWPOLYLINE
  5
4AD
330
1F
100
AcDbEntity
  8
D-4
  6
Continuous
 62
     7
370
     9
100
AcDbPolyline
 90
        4
 70
     1
 43
1.0
 10
-723.8057676081262
 20
-850.5381319185784
 42
0.4142135623731
 10
-724.3057676081262
 20
-850.0381319185784
 42
0.4142135623731
 10
-724.8057676081261
 20
-850.5381319185784
 42
0.4142135623731
 10
-724.3057676081262
 20
-851.0381319185784
 42
0.4142135623731
  0
LWPOLYLINE
  5
4AE
330
1F
100
AcDbEntity
  8
D-4
  6
Continuous
 62
     7
370
     9
100
AcDbPolyline
 90
        4
 70
     1
 43
1.0
 10
-323.8048997644981
 20
-850.5381319185784
 42
0.4142135623731
 10
-324.3048997644981
 20
-850.0381319185784
 42
0.4142135623731
 10
-324.8048997644981
 20
-850.5381319185784
 42
0.4142135623731
 10
-324.3048997644981
 20
-851.0381319185784
 42
0.4142135623731
  0
LWPOLYLINE
  5
4AF
330
1F
100
AcDbEntity
  8
D-4
  6
Continuous
 62
     7
370
     9
100
AcDbPolyline
 90
        4
 70
     1
 43
1.0
 10
-52.12055833383407
 20
-290.455276693969
 42
0.4142135623731
 10
-52.62055833383407
 20
-289.955276693969
 42
0.4142135623731
 10
-53.12055833383407
 20
-290.455276693969
 42
0.4142135623731
 10
-52.62055833383407
 20
-290.955276693969
 42
0.4142135623731
  0
LWPOLYLINE
  5
4B0
330
1F
100
AcDbEntity
  8
D-4
  6
Continuous
 62
     7
370
     9
100
AcDbPolyline
 90
        4
 70
     1
 43
1.0
 10
-52.12055833383407
 20
-540.4549524447015
 42
0.4142135623731
 10
-52.62055833383407
 20
-539.9549524447015
 42
0.4142135623731
 10
-53.12055833383407
 20
-540.4549524447015
 42
0.4142135623731
 10
-52.62055833383407
 20
-540.9549524447015
 42
0.4142135623731
  0
LWPOLYLINE
  5
4B1
330
1F
100
AcDbEntity
  8
D-4
  6
Continuous
 62
     7
370
     9
100
AcDbPolyline
 90
        4
 70
     1
 43
1.0
 10
-325.2330079798302
 20
-290.455276693969
 42
0.4142135623731
 10
-325.7330079798302
 20
-289.955276693969
 42
0.4142135623731
 10
-326.2330079798301
 20
-290.455276693969
 42
0.4142135623731
 10
-325.7330079798302
 20
-290.955276693969
 42
0.4142135623731
  0
LWPOLYLINE
  5
4B2
330
1F
100
AcDbEntity
  8
D-4
  6
Continuous
 62
     7
370
     9
100
AcDbPolyline
 90
        4
 70
     1
 43
1.0
 10
-325.2330079798302
 20
-375.4554197451165
 42
0.4142135623731
 10
-325.7330079798302
 20
-374.9554197451165
 42
0.4142135623731
 10
-326.2330079798301
 20
-375.4554197451165
 42
0.4142135623731
 10
-325.7330079798302
 20
-375.9554197451165
 42
0.4142135623731
  0
LWPOLYLINE
  5
4B3
330
1F
100
AcDbEntity
  8
D-4
  6
Continuous
 62
     7
370
     9
100
AcDbPolyline
 90
        4
 70
     1
 43
1.0
 10
-325.2330079798302
 20
-425.4556581636956
 42
0.4142135623731
 10
-325.7330079798302
 20
-424.9556581636956
 42
0.4142135623731
 10
-326.2330079798301
 20
-425.4556581636956
 42
0.4142135623731
 10
-325.7330079798302
 20
-425.9556581636956
 42
0.4142135623731
  0
LWPOLYLINE
  5
4B4
330
1F
100
AcDbEntity
  8
D-4
  6
Continuous
 62
     7
370
     9
100
AcDbPolyline
 90
        4
 70
     1
 43
1.0
 10
-568.8067808870874
 20
-496.7645189425042
 42
0.4142135623731
 10
-569.3067808870874
 20
-496.2645189425042
 42
0.4142135623731
 10
-569.8067808870873
 20
-496.7645189425042
 42
0.4142135623731
 10
-569.3067808870874
 20
-497.2645189425042
 42
0.4142135623731
  0
LWPOLYLINE
  5
4B5
330
1F
100
AcDbEntity
  8
D-4
  6
Continuous
 62
     7
370
     9
100
AcDbPolyline
 90
        4
 70
     1
 43
1.0
 10
-723.8057676081262
 20
-496.7645189425042
 42
0.4142135623731
 10
-724.3057676081262
 20
-496.2645189425042
 42
0.4142135623731
 10
-724.8057676081261
 20
-496.7645189425042
 42
0.4142135623731
 10
-724.3057676081262
 20
-497.2645189425042
 42
0.4142135623731
  0
TEXT
  5
4B6
330
1F
100
AcDbEntity
  8
D-4
  6
Continuous
 62
     2
370
     9
100
AcDbText
 10
-1294.37891275226
 20
60.12313326919447
 30
0.0
 40
30.48
  1
□362
 41
1.100000000000001
  7
ＭＳ ゴシック
100
AcDbText
  0
TEXT
  5
4B7
330
1F
100
AcDbEntity
  8
D-4
  6
Continuous
 62
     2
370
     9
100
AcDbText
 10
-632.2506399874292
 20
-50.14442784753349
 30
0.0
 40
30.48
  1
1
 41
0.9999999999999998
  7
ＭＳ ゴシック
100
AcDbText
  0
TEXT
  5
4B8
330
1F
100
AcDbEntity
  8
D-4
  6
Continuous
 62
     2
370
     9
100
AcDbText
 10
-560.3932996515832
 20
-50.14442784753349
 30
0.0
 40
30.48
  1
5
 41
0.9999999999999998
  7
ＭＳ ゴシック
100
AcDbText
  0
TEXT
  5
4B9
330
1F
100
AcDbEntity
  8
D-4
  6
Continuous
 62
     2
370
     9
100
AcDbText
 10
-1294.37891275226
 20
-50.57686673080546
 30
0.0
 40
30.48
  1
□350
 41
1.100000000000001
  7
ＭＳ ゴシック
100
AcDbText
  0
TEXT
  5
4BA
330
1F
100
AcDbEntity
  8
D-4
  6
Continuous
 62
     2
370
     9
100
AcDbText
 10
-683.0550142054162
 20
-158.895848822265
 30
0.0
 40
30.48
  1
25
 41
1.0625
  7
ＭＳ ゴシック
100
AcDbText
  0
TEXT
  5
4BB
330
1F
100
AcDbEntity
  8
D-4
  6
Continuous
 62
     2
370
     9
100
AcDbText
 10
-1294.37891275226
 20
-159.3768667308054
 30
0.0
 40
30.48
  1
□300
 41
1.100000000000001
  7
ＭＳ ゴシック
100
AcDbText
  0
TEXT
  5
4BC
330
1F
100
AcDbEntity
  8
D-4
  6
Continuous
 62
     2
370
     9
100
AcDbText
 10
-1091.670935836275
 20
-351.7056631785994
 30
0.0
 40
30.48
  1
15
 50
90.00000250447827
 41
1.062500000000001
  7
ＭＳ ゴシック
100
AcDbText
  0
TEXT
  5
4BD
330
1F
100
AcDbEntity
  8
D-4
  6
Continuous
 62
     2
370
     9
100
AcDbText
 10
-336.3732940821251
 20
-354.2052626353865
 30
0.0
 40
30.48
  1
17
 50
90.00000250447819
 41
1.062500000000001
  7
ＭＳ ゴシック
100
AcDbText
  0
TEXT
  5
4BE
330
1F
100
AcDbEntity
  8
D-4
  6
Continuous
 62
     2
370
     9
100
AcDbText
 10
-880.4285461573205
 20
-415.641600564147
 30
0.0
 40
30.48
  1
25
 50
90.00000250000025
 41
1.062500000000001
  7
ＭＳ ゴシック
100
AcDbText
  0
TEXT
  5
4BF
330
1F
100
AcDbEntity
  8
D-4
  6
Continuous
 62
     2
370
     9
100
AcDbText
 10
-336.3732940821251
 20
-421.7049526912337
 30
0.0
 40
30.48
  1
10
 50
90.00000250447819
 41
1.062500000000001
  7
ＭＳ ゴシック
100
AcDbText
  0
TEXT
  5
4C0
330
1F
100
AcDbEntity
  8
D-4
  6
Continuous
 62
     2
370
     9
100
AcDbText
 10
-63.25983354135359
 20
-481.7052387935286
 30
0.0
 40
30.48
  1
40～50
 50
90.00000250447816
 41
1.104166666666667
  7
ＭＳ ゴシック
100
AcDbText
  0
TEXT
  5
4C1
330
1F
100
AcDbEntity
  8
D-4
  6
Continuous
 62
     2
370
     9
100
AcDbText
 10
-668.0562730555139
 20
-485.1245151278069
 30
0.0
 40
30.48
  1
31
 41
1.0625
  7
ＭＳ ゴシック
100
AcDbText
  0
TEXT
  5
4C2
330
1F
100
AcDbEntity
  8
D-4
  6
Continuous
 62
     2
370
     9
100
AcDbText
 10
-533.7227760148223
 20
-486.1252246618823
 30
0.0
 40
30.48
  1
29
 50
0.0006685549992706
 41
1.062499999999998
  7
ＭＳ ゴシック
100
AcDbText
  0
TEXT
  5
4C3
330
1F
100
AcDbEntity
  8
D-4
  6
Continuous
 62
     2
370
     9
100
AcDbText
 10
-715.5557866816125
 20
-685.4344783541253
 30
0.0
 40
30.48
  1
25～30
 41
1.104166666666667
  7
ＭＳ ゴシック
100
AcDbText
  0
TEXT
  5
4C4
330
1F
100
AcDbEntity
  8
D-4
  6
Continuous
 62
     2
370
     9
100
AcDbText
 10
-592.1741312180695
 20
-839.8978648898093
 30
0.0
 40
30.48
  1
75～80
 50
359.9997855578312
 41
1.104166666666666
  7
ＭＳ ゴシック
100
AcDbText
  0
TEXT
  5
4C5
330
1F
100
AcDbEntity
  8
D-5
  6
Continuous
 62
     7
370
     9
100
AcDbText
 10
-474.7838159327109
 20
-21.84758733239677
 30
0.0
 40
22.86
  1
ノンスリップ加工細目タイプ
 41
1.153846153846154
  7
ＭＳ ゴシック
100
AcDbText
  0
TEXT
  5
4C6
330
1F
100
AcDbEntity
  8
D-5
  6
Continuous
 62
     7
370
     9
100
AcDbText
 10
-474.7838187636181
 20
-54.55243657556179
 30
0.0
 40
22.86
  1
ステンレス製グレーチングＤＱｰ１５（h=15）
 50
0.0000383449219305
 41
1.158536585365854
  7
ＭＳ ゴシック
100
AcDbText
  0
TEXT
  5
4C7
330
1F
100
AcDbEntity
  8
D-5
  6
Continuous
 62
     7
370
     9
100
AcDbText
 10
-434.8172326807578
 20
-118.5556752535393
 30
0.0
 40
22.86
  1
ステンレス製受枠ＳＦ１５Ｂ
 41
1.153846153846154
  7
ＭＳ ゴシック
100
AcDbText
  0
LINE
  5
4C8
330
1F
100
AcDbEntity
  8
D-2
  6
Continuous
 62
     3
370
     9
100
AcDbLine
 10
-614.306226563891
 20
-367.9555294176629
 30
0.0
 11
-614.306226563891
 21
-292.9554087182572
 31
0.0
  0
LINE
  5
4C9
330
1F
100
AcDbEntity
  8
D-2
  6
Continuous
 62
     3
370
     9
100
AcDbLine
 10
-599.30592973276
 20
-292.9554087182572
 30
0.0
 11
-599.30592973276
 21
-367.9555294176629
 31
0.0
  0
LINE
  5
4CA
330
1F
100
AcDbEntity
  8
D-4
  6
Continuous
 62
     7
370
     9
100
AcDbLine
 10
-1081.031164718111
 20
-367.9555294176629
 30
0.0
 11
-1081.031164718111
 21
-292.9554087182572
 31
0.0
  0
LINE
  5
4CB
330
1F
100
AcDbEntity
  8
D-2
  6
Continuous
 62
     3
370
     9
100
AcDbLine
 10
-614.306226563891
 20
-302.9554412027886
 30
0.0
 11
-1271.974539351901
 21
-302.9554412027886
 31
0.0
  0
LINE
  5
4CC
330
1F
100
AcDbEntity
  8
D-2
  6
Continuous
 62
     3
370
     9
100
AcDbLine
 10
-599.30592973276
 20
-367.9555294176629
 30
0.0
 11
-1271.974539351901
 21
-367.9555294176629
 31
0.0
  0
LINE
  5
4CD
330
1F
100
AcDbEntity
  8
D-2
  6
Continuous
 62
     3
370
     9
100
AcDbLine
 10
-599.30592973276
 20
-292.9554087182572
 30
0.0
 11
-1271.974539351901
 21
-292.9554087182572
 31
0.0
  0
LINE
  5
4CE
330
1F
100
AcDbEntity
  8
D-5
  6
Continuous
 62
     7
370
     9
100
AcDbLine
 10
-474.783815932711
 20
-66.70954915490654
 30
0.0
 11
226.5833524938026
 21
-66.70954915490654
 31
0.0
  0
LINE
  5
4CF
330
1F
100
AcDbEntity
  8
D-2
  6
Continuous
 62
     3
370
     9
100
AcDbLine
 10
-1271.974539351901
 20
-419.8206541201165
 30
0.0
 11
-1271.974539351901
 21
-243.518044676452
 31
0.0
  0
LINE
  5
4D0
330
1F
100
AcDbEntity
  8
D-5
  6
Continuous
 62
     7
370
     9
100
AcDbLine
 10
-474.783815932711
 20
-66.70954915490654
 30
0.0
 11
-672.2967191462121
 21
-295.4555407425454
 31
0.0
  0
LINE
  5
4D1
330
1F
100
AcDbEntity
  8
D-5
  6
Continuous
 62
     7
370
     9
100
AcDbLine
 10
-672.2967191462121
 20
-295.4555407425454
 30
0.0
 11
-658.5677667383752
 21
-274.5625886580041
 31
0.0
  0
LINE
  5
4D2
330
1F
100
AcDbEntity
  8
D-5
  6
Continuous
 62
     7
370
     9
100
AcDbLine
 10
-672.2967191462121
 20
-295.4555407425454
 30
0.0
 11
-653.6288686518274
 21
-278.8275847097924
 31
0.0
  0
LINE
  5
4D3
330
1F
100
AcDbEntity
  8
D-5
  6
Continuous
 62
     2
370
     9
100
AcDbLine
 10
400.3663114781777
 20
-277.9560968538811
 30
0.0
 11
175.3663114781776
 21
-277.9560968538811
 31
0.0
  0
LINE
  5
4D4
330
1F
100
AcDbEntity
  8
D-5
  6
Continuous
 62
     2
370
     9
100
AcDbLine
 10
400.3663114781777
 20
-227.9558107515862
 30
0.0
 11
400.3663114781777
 21
-277.9560968538811
 31
0.0
  0
LINE
  5
4D5
330
1F
100
AcDbEntity
  8
D-5
  6
Continuous
 62
     2
370
     9
100
AcDbLine
 10
175.3663114781776
 20
-227.9558107515862
 30
0.0
 11
400.3663114781777
 21
-227.9558107515862
 31
0.0
  0
LINE
  5
4D6
330
1F
100
AcDbEntity
  8
D-5
  6
Continuous
 62
     2
370
     9
100
AcDbLine
 10
175.3663114781776
 20
-277.9560968538811
 30
0.0
 11
175.3663114781776
 21
-227.9558107515862
 31
0.0
  0
LWPOLYLINE
  5
4D7
330
1F
100
AcDbEntity
  8
D-4
  6
Continuous
 62
     7
370
     9
100
AcDbPolyline
 90
        4
 70
     1
 43
1.0
 10
-1080.531164718111
 20
-292.9554087182572
 42
0.4142135623731
 10
-1081.031164718111
 20
-292.4554087182572
 42
0.4142135623731
 10
-1081.531164718111
 20
-292.9554087182572
 42
0.4142135623731
 10
-1081.031164718111
 20
-293.4554087182572
 42
0.4142135623731
  0
LWPOLYLINE
  5
4D8
330
1F
100
AcDbEntity
  8
D-4
  6
Continuous
 62
     7
370
     9
100
AcDbPolyline
 90
        4
 70
     1
 43
1.0
 10
-1080.531660628756
 20
-367.9555294176629
 42
0.4142135623731
 10
-1081.031660628756
 20
-367.4555294176629
 42
0.4142135623731
 10
-1081.531660628756
 20
-367.9555294176629
 42
0.4142135623731
 10
-1081.031660628756
 20
-368.4555294176629
 42
0.4142135623731
  0
TEXT
  5
4D9
330
1F
100
AcDbEntity
  8
D-5
  6
Continuous
 62
     7
370
     9
100
AcDbText
 10
-375.3292604212363
 20
-174.6546227785638
 30
0.0
 40
22.86
  1
塩ビクッション
 41
1.142857142857143
  7
ＭＳ ゴシック
100
AcDbText
  0
TEXT
  5
4DA
330
1F
100
AcDbEntity
  8
D-5
  6
Continuous
 62
     7
370
     9
100
AcDbText
 10
-312.1183534388144
 20
-265.1044804903557
 30
0.0
 40
22.86
  1
ｔ＝２．３（ＳＰＨＣ）
 41
1.151515151515151
  7
ＭＳ ゴシック
100
AcDbText
  0
TEXT
  5
4DB
330
1F
100
AcDbEntity
  8
D-5
  6
Continuous
 62
     2
370
     9
100
AcDbText
 10
222.8658537145058
 20
-267.3158345934442
 30
0.0
 40
30.48
  1
仕　様
 41
1.083333333333333
  7
ＭＳ ゴシック
100
AcDbText
  0
TEXT
  5
4DC
330
1F
100
AcDbEntity
  8
D-5
  6
Continuous
 62
     2
370
     9
100
AcDbText
 10
277.4562315221227
 20
-330.236385893493
 30
0.0
 40
30.48
  1
ステンレス製細目ノンスリップタイプ(デルタ模様）
 41
1.11968085106383
  7
ＭＳ ゴシック
100
AcDbText
  0
TEXT
  5
4DD
330
1F
100
AcDbEntity
  8
D-5
  6
Continuous
 62
     2
370
     9
100
AcDbText
 10
277.4562342431238
 20
-395.2359424349365
 30
0.0
 40
30.48
  1
グレーチング（すきま９mm）　ＤＱ－１５　３５０×３５０×１５
 50
359.999972357821
 41
1.120833333333333
  7
ＭＳ ゴシック
100
AcDbText
  0
TEXT
  5
4DE
330
1F
100
AcDbEntity
  8
D-5
  6
Continuous
 62
     2
370
     9
100
AcDbText
 10
337.1681455846227
 20
-460.2359996553948
 30
0.0
 40
30.48
  1
材質：メインバー　ＳＵＳ３０４　＠１５
 41
1.118421052631579
  7
ＭＳ ゴシック
100
AcDbText
  0
TEXT
  5
4DF
330
1F
100
AcDbEntity
  8
D-5
  6
Continuous
 62
     2
370
     9
100
AcDbText
 10
337.1681455846227
 20
-525.235599112182
 30
0.0
 40
30.48
  1
　　　クロスバー　ＳＵＳ３０４　＠１００
 41
1.11875
  7
ＭＳ ゴシック
100
AcDbText
  0
TEXT
  5
4E0
330
1F
100
AcDbEntity
  8
D-5
  6
Continuous
 62
     2
370
     9
100
AcDbText
 10
337.1681455846229
 20
-590.2355609652093
 30
0.0
 40
30.48
  1
　　　サイドバー　ＳＵＳ３０４
 41
1.116666666666666
  7
ＭＳ ゴシック
100
AcDbText
  0
TEXT
  5
4E1
330
1F
100
AcDbEntity
  8
D-5
  6
Continuous
 62
     2
370
     9
100
AcDbText
 10
277.4557737584511
 20
-732.4980769869378
 30
0.0
 40
30.48
  1
ステンレス製受枠　ＳＦ１５Ｂ
 41
1.116071428571429
  7
ＭＳ ゴシック
100
AcDbText
  0
TEXT
  5
4E2
330
1F
100
AcDbEntity
  8
D-5
  6
Continuous
 62
     2
370
     9
100
AcDbText
 10
337.1676878209508
 20
-797.4976192232659
 30
0.0
 40
30.48
  1
材質：冷間圧延ステンレス鋼板（ＳＵＳ３０４－２Ｂ）
 41
1.12
  7
ＭＳ ゴシック
100
AcDbText
  0
TEXT
  5
4E3
330
1F
100
AcDbEntity
  8
D-5
  6
Continuous
 62
     2
370
     9
100
AcDbText
 10
-1023.799798334033
 20
-968.2577358004149
 30
0.0
 40
30.48
  1
断面詳細図　Ｓ＝１：２
 50
0.0000267631904831
 41
1.113636363636364
  7
ＭＳ ゴシック
100
AcDbText
  0
TEXT
  5
4E4
330
1F
100
AcDbEntity
  8
F-5
  6
Continuous
 62
     2
370
     9
100
AcDbText
 10
-824.5901402992004
 20
-1373.238621242842
 30
0.0
 40
30.48
  1
　　　　　　　　　　　　　　　　　　ＤＱ－１５　３５０×３５０×１５＋ＳＦ１５Ｂ
 41
0.7743749999999999
  7
ＭＳ ゴシック
100
AcDbText
  0
TEXT
  5
4E5
330
1F
100
AcDbEntity
  8
D-5
  6
Continuous
 62
     7
370
     9
100
AcDbText
 10
-312.1183534388144
 20
-223.8809830996087
 30
0.0
 40
22.86
  1
溶接用アンカー
 41
1.142857142857143
  7
ＭＳ ゴシック
100
AcDbText
  0
LINE
  5
4E6
330
1F
100
AcDbEntity
  8
D-2
  6
JWW_CENTER2
 62
     3
370
     9
100
AcDbLine
 10
-974.3054338221156
 20
-363.3942243715813
 30
0.0
 11
-974.3054338221156
 21
-298.8752827307275
 31
0.0
  0
LINE
  5
4E7
330
1F
100
AcDbEntity
  8
D-2
  6
JWW_CENTER2
 62
     3
370
     9
100
AcDbLine
 10
-1004.630674910983
 20
-330.4549142977288
 30
0.0
 11
-943.6585374598109
 21
-330.4549142977288
 31
0.0
  0
LINE
  5
4E8
330
1F
100
AcDbEntity
  8
D-2
  6
Continuous
 62
     3
370
     9
100
AcDbLine
 10
-956.6277452234827
 20
-330.4549142977288
 30
0.0
 11
-974.3054338221156
 21
-312.7772447725823
 31
0.0
  0
LINE
  5
4E9
330
1F
100
AcDbEntity
  8
D-2
  6
Continuous
 62
     3
370
     9
100
AcDbLine
 10
-974.3054338221156
 20
-348.1325838228753
 30
0.0
 11
-956.6277452234827
 21
-330.4549142977288
 31
0.0
  0
LINE
  5
4EA
330
1F
100
AcDbEntity
  8
D-2
  6
Continuous
 62
     3
370
     9
100
AcDbLine
 10
-974.3054338221156
 20
-312.7772447725823
 30
0.0
 11
-991.9831224207484
 21
-330.4549142977288
 31
0.0
  0
LINE
  5
4EB
330
1F
100
AcDbEntity
  8
D-2
  6
Continuous
 62
     3
370
     9
100
AcDbLine
 10
-991.9831224207484
 20
-330.4549142977288
 30
0.0
 11
-974.3054338221156
 21
-348.1325838228753
 31
0.0
  0
LINE
  5
4EC
330
1F
100
AcDbEntity
  8
D-2
  6
Continuous
 62
     3
370
     9
100
AcDbLine
 10
-986.8054338221156
 20
-317.9549142977288
 30
0.0
 11
-986.8054338221156
 21
-325.2772590776971
 31
0.0
  0
LINE
  5
4ED
330
1F
100
AcDbEntity
  8
D-2
  6
Continuous
 62
     3
370
     9
100
AcDbLine
 10
-986.8054338221156
 20
-335.6325838228753
 30
0.0
 11
-986.8054338221156
 21
-342.9549286028436
 31
0.0
  0
LINE
  5
4EE
330
1F
100
AcDbEntity
  8
D-2
  6
Continuous
 62
     3
370
     9
100
AcDbLine
 10
-961.8054338221156
 20
-317.9548999926141
 30
0.0
 11
-969.1277452234827
 21
-317.9549142977288
 31
0.0
  0
LINE
  5
4EF
330
1F
100
AcDbEntity
  8
D-2
  6
Continuous
 62
     3
370
     9
100
AcDbLine
 10
-979.4830842737757
 20
-317.9548999926141
 30
0.0
 11
-986.8054338221156
 21
-317.9549142977288
 31
0.0
  0
LINE
  5
4F0
330
1F
100
AcDbEntity
  8
D-2
  6
Continuous
 62
     3
370
     9
100
AcDbLine
 10
-961.8054338221156
 20
-342.9549142977288
 30
0.0
 11
-961.8054338221156
 21
-335.6325695177605
 31
0.0
  0
LINE
  5
4F1
330
1F
100
AcDbEntity
  8
D-2
  6
Continuous
 62
     3
370
     9
100
AcDbLine
 10
-961.8054338221156
 20
-325.2772447725823
 30
0.0
 11
-961.8054338221156
 21
-317.9548999926141
 31
0.0
  0
LINE
  5
4F2
330
1F
100
AcDbEntity
  8
D-2
  6
Continuous
 62
     3
370
     9
100
AcDbLine
 10
-986.8054338221156
 20
-342.9549286028436
 30
0.0
 11
-979.4831224207484
 21
-342.9549142977288
 31
0.0
  0
LINE
  5
4F3
330
1F
100
AcDbEntity
  8
D-2
  6
Continuous
 62
     3
370
     9
100
AcDbLine
 10
-969.1277833704554
 20
-342.9549286028436
 30
0.0
 11
-961.8054338221156
 21
-342.9549142977288
 31
0.0
  0
ENDSEC
  0
SECTION
  2
OBJECTS
  0
DICTIONARY
  5
C
330
0
100
AcDbDictionary
281
     1
  3
ACAD_GROUP
350
D
  3
ACAD_LAYOUT
350
1A
  3
ACAD_MLEADERSTYLE
350
4F5
  3
ACAD_MLINESTYLE
350
17
  3
ACAD_PLOTSETTINGS
350
19
  3
ACAD_PLOTSTYLENAME
350
E
  3
ACAD_TABLESTYLE
350
4F4
  3
ACAD_VISUALSTYLE
350
2A
  0
DICTIONARY
  5
D
102
{ACAD_REACTORS
330
C
102
}
330
C
100
AcDbDictionary
281
     1
  0
DICTIONARY
  5
1A
102
{ACAD_REACTORS
330
C
102
}
330
C
100
AcDbDictionary
281
     1
  3
Layout1
350
1E
  3
Layout2
350
26
  3
Model
350
22
  0
DICTIONARY
  5
4F5
102
{ACAD_REACTORS
330
C
102
}
330
C
100
AcDbDictionary
281
     1
  0
DICTIONARY
  5
17
102
{ACAD_REACTORS
330
C
102
}
330
C
100
AcDbDictionary
281
     1
  3
Standard
350
18
  0
DICTIONARY
  5
19
102
{ACAD_REACTORS
330
C
102
}
330
C
100
AcDbDictionary
281
     1
  0
ACDBDICTIONARYWDFLT
  5
E
102
{ACAD_REACTORS
330
C
102
}
330
C
100
AcDbDictionary
281
     1
  3
Normal
350
F
100
AcDbDictionaryWithDefault
340
F
  0
DICTIONARY
  5
4F4
102
{ACAD_REACTORS
330
C
102
}
330
C
100
AcDbDictionary
281
     1
  0
DICTIONARY
  5
2A
102
{ACAD_REACTORS
330
C
102
}
330
C
100
AcDbDictionary
281
     1
  3
2dWireframe
350
2F
  3
3D Hidden
350
31
  3
3dWireframe
350
30
  3
Basic
350
32
  3
Brighten
350
36
  3
ColorChange
350
3A
  3
Conceptual
350
34
  3
Dim
350
35
  3
Facepattern
350
39
  3
Flat
350
2B
  3
FlatWithEdges
350
2C
  3
Gouraud
350
2D
  3
GouraudWithEdges
350
2E
  3
Linepattern
350
38
  3
Realistic
350
33
  3
Thicken
350
37
  0
LAYOUT
  5
1E
102
{ACAD_REACTORS
330
1A
102
}
330
1A
100
AcDbPlotSettings
  1

  2
none_device
  4

  6

 40
0.0
 41
0.0
 42
0.0
 43
0.0
 44
0.0
 45
0.0
 46
0.0
 47
0.0
 48
0.0
 49
0.0
140
0.0
141
0.0
142
1.0
143
1.0
 70
   688
 72
     0
 73
     0
 74
     5
  7

 75
    16
 76
     0
 77
     5
 78
   300
147
1.0
148
0.0
149
0.0
100
AcDbLayout
  1
Layout1
 70
     1
 71
     1
 10
0.0
 20
0.0
 11
420.0
 21
297.0
 12
0.0
 22
0.0
 32
0.0
 14
1.000000000000000E+20
 24
1.000000000000000E+20
 34
1.000000000000000E+20
 15
-1.000000000000000E+20
 25
-1.000000000000000E+20
 35
-1.000000000000000E+20
146
0.0
 13
0.0
 23
0.0
 33
0.0
 16
1.0
 26
0.0
 36
0.0
 17
0.0
 27
1.0
 37
0.0
 76
     0
330
1B
  0
LAYOUT
  5
26
102
{ACAD_REACTORS
330
1A
102
}
330
1A
100
AcDbPlotSettings
  1

  2
none_device
  4

  6

 40
0.0
 41
0.0
 42
0.0
 43
0.0
 44
0.0
 45
0.0
 46
0.0
 47
0.0
 48
0.0
 49
0.0
140
0.0
141
0.0
142
1.0
143
1.0
 70
   688
 72
     0
 73
     0
 74
     5
  7

 75
    16
 76
     0
 77
     5
 78
   300
147
1.0
148
0.0
149
0.0
100
AcDbLayout
  1
Layout2
 70
     1
 71
     2
 10
0.0
 20
0.0
 11
0.0
 21
0.0
 12
0.0
 22
0.0
 32
0.0
 14
0.0
 24
0.0
 34
0.0
 15
0.0
 25
0.0
 35
0.0
146
0.0
 13
0.0
 23
0.0
 33
0.0
 16
1.0
 26
0.0
 36
0.0
 17
0.0
 27
1.0
 37
0.0
 76
     0
330
23
  0
LAYOUT
  5
22
102
{ACAD_REACTORS
330
1A
102
}
330
1A
100
AcDbPlotSettings
  1

  2
none_device
  4

  6

 40
0.0
 41
0.0
 42
0.0
 43
0.0
 44
0.0
 45
0.0
 46
0.0
 47
0.0
 48
0.0
 49
0.0
140
0.0
141
0.0
142
1.0
143
1.0
 70
  1712
 72
     0
 73
     0
 74
     0
  7

 75
     0
 76
     0
 77
     5
 78
   300
147
1.0
148
0.0
149
0.0
100
AcDbLayout
  1
Model
 70
     1
 71
     0
 10
-2100.0
 20
-1485.0
 11
2100.0
 21
1485.0
 12
0.0
 22
0.0
 32
0.0
 14
-2100.0
 24
-1485.0
 34
0.0
 15
2100.0
 25
1485.0
 35
0.0
146
0.0
 13
0.0
 23
0.0
 33
0.0
 16
1.0
 26
0.0
 36
0.0
 17
0.0
 27
1.0
 37
0.0
 76
     0
330
1F
331
29
  0
MLINESTYLE
  5
18
102
{ACAD_REACTORS
330
17
102
}
330
17
100
AcDbMlineStyle
  2
Standard
 70
     0
  3

 62
   256
 51
90.0
 52
90.0
 71
     2
 49
0.5
 62
   256
  6
BYLAYER
 49
-0.5
 62
   256
  6
BYLAYER
  0
ACDBPLACEHOLDER
  5
F
102
{ACAD_REACTORS
330
E
102
}
330
E
  0
VISUALSTYLE
  5
2F
102
{ACAD_REACTORS
330
2A
102
}
330
2A
100
AcDbVisualStyle
  2
2dWireframe
 70
     4
 71
     0
 72
     2
 73
     0
 90
        0
 40
-0.6
 41
-30.0
 62
     5
 63
     7
421
 16777215
 74
     1
 91
        4
 64
     7
 65
   257
 75
     1
175
     1
 42
1.0
 92
        0
 66
   257
 43
1.0
 76
     1
 77
     6
 78
     2
 67
     7
 79
     5
170
     0
171
     0
290
     0
174
     0
 93
        1
 44
0.0
173
     0
291
     0
 45
0.0
1001
ACAD
1000
AcDbSavedByObjectVersion
1070
     0
  0
VISUALSTYLE
  5
31
102
{ACAD_REACTORS
330
2A
102
}
330
2A
100
AcDbVisualStyle
  2
3D Hidden
 70
     6
 71
     1
 72
     2
 73
     2
 90
        0
 40
-0.6
 41
-30.0
 62
     5
 63
     7
421
 16777215
 74
     2
 91
        2
 64
     7
 65
   257
 75
     2
175
     1
 42
40.0
 92
        0
 66
   257
 43
1.0
 76
     1
 77
     6
 78
     2
 67
     7
 79
     3
170
     0
171
     0
290
     0
174
     0
 93
        1
 44
0.0
173
     0
291
     0
 45
0.0
1001
ACAD
1000
AcDbSavedByObjectVersion
1070
     0
  0
VISUALSTYLE
  5
30
102
{ACAD_REACTORS
330
2A
102
}
330
2A
100
AcDbVisualStyle
  2
3dWireframe
 70
     5
 71
     0
 72
     2
 73
     0
 90
        0
 40
-0.6
 41
-30.0
 62
     5
 63
     7
421
 16777215
 74
     1
 91
        4
 64
     7
 65
   257
 75
     1
175
     1
 42
1.0
 92
        0
 66
   257
 43
1.0
 76
     1
 77
     6
 78
     2
 67
     7
 79
     5
170
     0
171
     0
290
     0
174
     0
 93
        1
 44
0.0
173
     0
291
     0
 45
0.0
1001
ACAD
1000
AcDbSavedByObjectVersion
1070
     0
  0
VISUALSTYLE
  5
32
102
{ACAD_REACTORS
330
2A
102
}
330
2A
100
AcDbVisualStyle
  2
Basic
 70
     7
 71
     1
 72
     0
 73
     1
 90
        0
 40
-0.6
 41
-30.0
 62
     5
 63
     7
421
 16777215
 74
     0
 91
        4
 64
     7
 65
   257
 75
     1
175
     1
 42
1.0
 92
        8
 66
     7
 43
1.0
 76
     1
 77
     6
 78
     2
 67
     7
 79
     5
170
     0
171
     0
290
     0
174
     0
 93
        1
 44
0.0
173
     0
291
     1
 45
0.0
1001
ACAD
1000
AcDbSavedByObjectVersion
1070
     0
  0
VISUALSTYLE
  5
36
102
{ACAD_REACTORS
330
2A
102
}
330
2A
100
AcDbVisualStyle
  2
Brighten
 70
    12
 71
     2
 72
     2
 73
     0
 90
        0
 40
-0.6
 41
-30.0
 62
     5
 63
     7
421
 16777215
 74
     1
 91
        4
 64
     7
 65
   257
 75
     1
175
     1
 42
1.0
 92
        8
 66
     7
 43
1.0
 76
     1
 77
     6
 78
     2
 67
     7
 79
     5
170
     0
171
     0
290
     0
174
     0
 93
        1
 44
50.0
173
     0
291
     1
 45
0.0
1001
ACAD
1000
AcDbSavedByObjectVersion
1070
     0
  0
VISUALSTYLE
  5
3A
102
{ACAD_REACTORS
330
2A
102
}
330
2A
100
AcDbVisualStyle
  2
ColorChange
 70
    16
 71
     2
 72
     2
 73
     3
 90
        0
 40
-0.6
 41
-30.0
 62
     5
 63
     8
421
  8421504
 74
     1
 91
        4
 64
     7
 65
   257
 75
     1
175
     1
 42
1.0
 92
        8
 66
     8
424
  8421504
 43
1.0
 76
     1
 77
     6
 78
     2
 67
     7
 79
     5
170
     0
171
     0
290
     0
174
     0
 93
        1
 44
0.0
173
     0
291
     1
 45
0.0
1001
ACAD
1000
AcDbSavedByObjectVersion
1070
     0
  0
VISUALSTYLE
  5
34
102
{ACAD_REACTORS
330
2A
102
}
330
2A
100
AcDbVisualStyle
  2
Conceptual
 70
     9
 71
     3
 72
     2
 73
     0
 90
        0
 40
-0.6
 41
-30.0
 62
     5
 63
     7
421
 16777215
 74
     2
 91
        2
 64
     7
 65
   257
 75
     1
175
     1
 42
40.0
 92
        8
 66
     7
 43
1.0
 76
     1
 77
     6
 78
     2
 67
     7
 79
     3
170
     0
171
     0
290
     0
174
     0
 93
        1
 44
0.0
173
     0
291
     0
 45
0.0
1001
ACAD
1000
AcDbSavedByObjectVersion
1070
     0
  0
VISUALSTYLE
  5
35
102
{ACAD_REACTORS
330
2A
102
}
330
2A
100
AcDbVisualStyle
  2
Dim
 70
    11
 71
     2
 72
     2
 73
     0
 90
        0
 40
-0.6
 41
-30.0
 62
     5
 63
     7
421
 16777215
 74
     1
 91
        4
 64
     7
 65
   257
 75
     1
175
     1
 42
1.0
 92
        8
 66
     7
 43
1.0
 76
     1
 77
     6
 78
     2
 67
     7
 79
     5
170
     0
171
     0
290
     0
174
     0
 93
        1
 44
-50.0
173
     0
291
     1
 45
0.0
1001
ACAD
1000
AcDbSavedByObjectVersion
1070
     0
  0
VISUALSTYLE
  5
39
102
{ACAD_REACTORS
330
2A
102
}
330
2A
100
AcDbVisualStyle
  2
Facepattern
 70
    15
 71
     2
 72
     2
 73
     0
 90
        0
 40
-0.6
 41
-30.0
 62
     5
 63
     7
421
 16777215
 74
     1
 91
        4
 64
     7
 65
   257
 75
     1
175
     1
 42
1.0
 92
        8
 66
     7
 43
1.0
 76
     1
 77
     6
 78
     2
 67
     7
 79
     5
170
     0
171
     0
290
     0
174
     0
 93
        1
 44
0.0
173
     0
291
     1
 45
0.0
1001
ACAD
1000
AcDbSavedByObjectVersion
1070
     0
  0
VISUALSTYLE
  5
2B
102
{ACAD_REACTORS
330
2A
102
}
330
2A
100
AcDbVisualStyle
  2
Flat
 70
     0
 71
     2
 72
     1
 73
     1
 90
        2
 40
-0.6
 41
30.0
 62
     5
 63
     7
421
 16777215
 74
     0
 91
        4
 64
     7
 65
   257
 75
     1
175
     1
 42
1.0
 92
        8
 66
     7
 43
1.0
 76
     1
 77
     6
 78
     2
 67
     7
 79
     5
170
     0
171
     0
290
     0
174
     0
 93
       13
 44
0.0
173
     0
291
     1
 45
0.0
1001
ACAD
1000
AcDbSavedByObjectVersion
1070
     0
  0
VISUALSTYLE
  5
2C
102
{ACAD_REACTORS
330
2A
102
}
330
2A
100
AcDbVisualStyle
  2
FlatWithEdges
 70
     1
 71
     2
 72
     1
 73
     1
 90
        2
 40
-0.6
 41
30.0
 62
     5
 63
     7
421
 16777215
 74
     1
 91
        4
 64
     7
 65
   257
 75
     1
175
     1
 42
1.0
 92
        0
 66
   257
 43
1.0
 76
     1
 77
     6
 78
     2
 67
     7
 79
     5
170
     0
171
     0
290
     0
174
     0
 93
       13
 44
0.0
173
     0
291
     1
 45
0.0
1001
ACAD
1000
AcDbSavedByObjectVersion
1070
     0
  0
VISUALSTYLE
  5
2D
102
{ACAD_REACTORS
330
2A
102
}
330
2A
100
AcDbVisualStyle
  2
Gouraud
 70
     2
 71
     2
 72
     2
 73
     1
 90
        2
 40
-0.6
 41
30.0
 62
     5
 63
     7
421
 16777215
 74
     0
 91
        4
 64
     7
 65
   257
 75
     1
175
     1
 42
1.0
 92
        0
 66
     7
 43
1.0
 76
     1
 77
     6
 78
     2
 67
     7
 79
     5
170
     0
171
     0
290
     0
174
     0
 93
       13
 44
0.0
173
     0
291
     1
 45
0.0
1001
ACAD
1000
AcDbSavedByObjectVersion
1070
     0
  0
VISUALSTYLE
  5
2E
102
{ACAD_REACTORS
330
2A
102
}
330
2A
100
AcDbVisualStyle
  2
GouraudWithEdges
 70
     3
 71
     2
 72
     2
 73
     1
 90
        2
 40
-0.6
 41
30.0
 62
     5
 63
     7
421
 16777215
 74
     1
 91
        4
 64
     7
 65
   257
 75
     1
175
     1
 42
1.0
 92
        0
 66
   257
 43
1.0
 76
     1
 77
     6
 78
     2
 67
     7
 79
     5
170
     0
171
     0
290
     0
174
     0
 93
       13
 44
0.0
173
     0
291
     1
 45
0.0
1001
ACAD
1000
AcDbSavedByObjectVersion
1070
     0
  0
VISUALSTYLE
  5
38
102
{ACAD_REACTORS
330
2A
102
}
330
2A
100
AcDbVisualStyle
  2
Linepattern
 70
    14
 71
     2
 72
     2
 73
     0
 90
        0
 40
-0.6
 41
-30.0
 62
     5
 63
     7
421
 16777215
 74
     1
 91
        4
 64
     7
 65
   257
 75
     7
175
     7
 42
1.0
 92
        8
 66
     7
 43
1.0
 76
     1
 77
     6
 78
     2
 67
     7
 79
     5
170
     0
171
     0
290
     0
174
     0
 93
        1
 44
0.0
173
     0
291
     1
 45
0.0
1001
ACAD
1000
AcDbSavedByObjectVersion
1070
     0
  0
VISUALSTYLE
  5
33
102
{ACAD_REACTORS
330
2A
102
}
330
2A
100
AcDbVisualStyle
  2
Realistic
 70
     8
 71
     2
 72
     2
 73
     0
 90
        0
 40
-0.6
 41
-30.0
 62
     5
 63
     7
421
 16777215
 74
     1
 91
        0
 64
     7
 65
   257
 75
     1
175
     1
 42
1.0
 92
        8
 66
     8
424
  7895160
 43
1.0
 76
     1
 77
     6
 78
     2
 67
     7
 79
     5
170
     0
171
     0
290
     0
174
     0
 93
       13
 44
0.0
173
     0
291
     0
 45
0.0
1001
ACAD
1000
AcDbSavedByObjectVersion
1070
     0
  0
VISUALSTYLE
  5
37
102
{ACAD_REACTORS
330
2A
102
}
330
2A
100
AcDbVisualStyle
  2
Thicken
 70
    13
 71
     2
 72
     2
 73
     0
 90
        0
 40
-0.6
 41
-30.0
 62
     5
 63
     7
421
 16777215
 74
     1
 91
        4
 64
     7
 65
   257
 75
     1
175
     1
 42
1.0
 92
       12
 66
     7
 43
1.0
 76
     1
 77
     6
 78
     2
 67
     7
 79
     5
170
     0
171
     0
290
     0
174
     0
 93
        1
 44
0.0
173
     0
291
     1
 45
0.0
1001
ACAD
1000
AcDbSavedByObjectVersion
1070
     0
  0
ENDSEC
  0
EOF
