  0
SECTION
  2
HEADER
  9
$ACADVER
  1
AC1018
  9
$ACADMAINTVER
 70
     0
  9
$DWGCODEPAGE
  3
ANSI_932
  9
$INSBASE
 10
0.0
 20
0.0
 30
0.0
  9
$EXTMIN
 10
-2100.0
 20
-1485.0
 30
0.0
  9
$EXTMAX
 10
2100.0
 20
1485.0
 30
0.0
  9
$LIMMIN
 10
-2100.0
 20
-1485.0
  9
$LIMMAX
 10
2100.0
 20
1485.0
  9
$ORTHOMODE
 70
     0
  9
$REGENMODE
 70
     1
  9
$FILLMODE
 70
     1
  9
$QTEXTMODE
 70
     0
  9
$MIRRTEXT
 70
     1
  9
$LTSCALE
 40
10.0
  9
$ATTMODE
 70
     1
  9
$TEXTSIZE
 40
2.5
  9
$TRACEWID
 40
1.0
  9
$TEXTSTYLE
  7
Standard
  9
$CLAYER
  8
0
  9
$CELTYPE
  6
ByLayer
  9
$CECOLOR
 62
   256
  9
$CELTSCALE
 40
1.0
  9
$DISPSILH
 70
     0
  9
$DIMSCALE
 40
1.0
  9
$DIMASZ
 40
2.5
  9
$DIMEXO
 40
0.625
  9
$DIMDLI
 40
3.75
  9
$DIMRND
 40
0.0
  9
$DIMDLE
 40
0.0
  9
$DIMEXE
 40
1.25
  9
$DIMTP
 40
0.0
  9
$DIMTM
 40
0.0
  9
$DIMTXT
 40
2.5
  9
$DIMCEN
 40
2.5
  9
$DIMTSZ
 40
0.0
  9
$DIMTOL
 70
     0
  9
$DIMLIM
 70
     0
  9
$DIMTIH
 70
     0
  9
$DIMTOH
 70
     0
  9
$DIMSE1
 70
     0
  9
$DIMSE2
 70
     0
  9
$DIMTAD
 70
     1
  9
$DIMZIN
 70
     8
  9
$DIMBLK
  1

  9
$DIMASO
 70
     1
  9
$DIMSHO
 70
     1
  9
$DIMPOST
  1

  9
$DIMAPOST
  1

  9
$DIMALT
 70
     0
  9
$DIMALTD
 70
     3
  9
$DIMALTF
 40
0.03937007874016
  9
$DIMLFAC
 40
1.0
  9
$DIMTOFL
 70
     1
  9
$DIMTVP
 40
0.0
  9
$DIMTIX
 70
     0
  9
$DIMSOXD
 70
     0
  9
$DIMSAH
 70
     0
  9
$DIMBLK1
  1

  9
$DIMBLK2
  1

  9
$DIMSTYLE
  2
ISO-25
  9
$DIMCLRD
 70
     0
  9
$DIMCLRE
 70
     0
  9
$DIMCLRT
 70
     0
  9
$DIMTFAC
 40
1.0
  9
$DIMGAP
 40
0.625
  9
$DIMJUST
 70
     0
  9
$DIMSD1
 70
     0
  9
$DIMSD2
 70
     0
  9
$DIMTOLJ
 70
     0
  9
$DIMTZIN
 70
     8
  9
$DIMALTZ
 70
     0
  9
$DIMALTTZ
 70
     0
  9
$DIMUPT
 70
     0
  9
$DIMDEC
 70
     2
  9
$DIMTDEC
 70
     2
  9
$DIMALTU
 70
     2
  9
$DIMALTTD
 70
     3
  9
$DIMTXSTY
  7
Standard
  9
$DIMAUNIT
 70
     0
  9
$DIMADEC
 70
     0
  9
$DIMALTRND
 40
0.0
  9
$DIMAZIN
 70
     0
  9
$DIMDSEP
 70
    44
  9
$DIMATFIT
 70
     3
  9
$DIMFRAC
 70
     0
  9
$DIMLDRBLK
  1

  9
$DIMLUNIT
 70
     2
  9
$DIMLWD
 70
    -2
  9
$DIMLWE
 70
    -2
  9
$DIMTMOVE
 70
     0
  9
$LUNITS
 70
     2
  9
$LUPREC
 70
     4
  9
$SKETCHINC
 40
1.0
  9
$FILLETRAD
 40
10.0
  9
$AUNITS
 70
     0
  9
$AUPREC
 70
     0
  9
$MENU
  1
.
  9
$ELEVATION
 40
0.0
  9
$PELEVATION
 40
0.0
  9
$THICKNESS
 40
0.0
  9
$LIMCHECK
 70
     0
  9
$CHAMFERA
 40
10.0
  9
$CHAMFERB
 40
10.0
  9
$CHAMFERC
 40
20.0
  9
$CHAMFERD
 40
0.0
  9
$SKPOLY
 70
     0
  9
$TDCREATE
 40
2457186.649862674
  9
$TDUCREATE
 40
2457186.274862674
  9
$TDUPDATE
 40
2457186.649862685
  9
$TDUUPDATE
 40
2457186.274862685
  9
$TDINDWG
 40
0.0000000116
  9
$TDUSRTIMER
 40
0.0000000116
  9
$USRTIMER
 70
     1
  9
$ANGBASE
 50
0.0
  9
$ANGDIR
 70
     0
  9
$PDMODE
 70
     0
  9
$PDSIZE
 40
0.0
  9
$PLINEWID
 40
0.0
  9
$SPLFRAME
 70
     0
  9
$SPLINETYPE
 70
     6
  9
$SPLINESEGS
 70
     8
  9
$HANDSEED
  5
52A
  9
$SURFTAB1
 70
     6
  9
$SURFTAB2
 70
     6
  9
$SURFTYPE
 70
     6
  9
$SURFU
 70
     6
  9
$SURFV
 70
     6
  9
$UCSBASE
  2

  9
$UCSNAME
  2

  9
$UCSORG
 10
0.0
 20
0.0
 30
0.0
  9
$UCSXDIR
 10
1.0
 20
0.0
 30
0.0
  9
$UCSYDIR
 10
0.0
 20
1.0
 30
0.0
  9
$UCSORTHOREF
  2

  9
$UCSORTHOVIEW
 70
     0
  9
$UCSORGTOP
 10
0.0
 20
0.0
 30
0.0
  9
$UCSORGBOTTOM
 10
0.0
 20
0.0
 30
0.0
  9
$UCSORGLEFT
 10
0.0
 20
0.0
 30
0.0
  9
$UCSORGRIGHT
 10
0.0
 20
0.0
 30
0.0
  9
$UCSORGFRONT
 10
0.0
 20
0.0
 30
0.0
  9
$UCSORGBACK
 10
0.0
 20
0.0
 30
0.0
  9
$PUCSBASE
  2

  9
$PUCSNAME
  2

  9
$PUCSORG
 10
0.0
 20
0.0
 30
0.0
  9
$PUCSXDIR
 10
1.0
 20
0.0
 30
0.0
  9
$PUCSYDIR
 10
0.0
 20
1.0
 30
0.0
  9
$PUCSORTHOREF
  2

  9
$PUCSORTHOVIEW
 70
     0
  9
$PUCSORGTOP
 10
0.0
 20
0.0
 30
0.0
  9
$PUCSORGBOTTOM
 10
0.0
 20
0.0
 30
0.0
  9
$PUCSORGLEFT
 10
0.0
 20
0.0
 30
0.0
  9
$PUCSORGRIGHT
 10
0.0
 20
0.0
 30
0.0
  9
$PUCSORGFRONT
 10
0.0
 20
0.0
 30
0.0
  9
$PUCSORGBACK
 10
0.0
 20
0.0
 30
0.0
  9
$USERI1
 70
     0
  9
$USERI2
 70
     0
  9
$USERI3
 70
     0
  9
$USERI4
 70
     0
  9
$USERI5
 70
     0
  9
$USERR1
 40
0.0
  9
$USERR2
 40
0.0
  9
$USERR3
 40
0.0
  9
$USERR4
 40
0.0
  9
$USERR5
 40
0.0
  9
$WORLDVIEW
 70
     1
  9
$SHADEDGE
 70
     3
  9
$SHADEDIF
 70
    70
  9
$TILEMODE
 70
     1
  9
$MAXACTVP
 70
    64
  9
$PINSBASE
 10
0.0
 20
0.0
 30
0.0
  9
$PLIMCHECK
 70
     0
  9
$PEXTMIN
 10
1.000000000000000E+20
 20
1.000000000000000E+20
 30
1.000000000000000E+20
  9
$PEXTMAX
 10
-1.000000000000000E+20
 20
-1.000000000000000E+20
 30
-1.000000000000000E+20
  9
$PLIMMIN
 10
0.0
 20
0.0
  9
$PLIMMAX
 10
420.0
 20
297.0
  9
$UNITMODE
 70
     0
  9
$VISRETAIN
 70
     1
  9
$PLINEGEN
 70
     0
  9
$PSLTSCALE
 70
     1
  9
$TREEDEPTH
 70
  3020
  9
$CMLSTYLE
  2
Standard
  9
$CMLJUST
 70
     0
  9
$CMLSCALE
 40
20.0
  9
$PROXYGRAPHICS
 70
     1
  9
$MEASUREMENT
 70
     1
  9
$CELWEIGHT
370
    -1
  9
$ENDCAPS
280
     0
  9
$JOINSTYLE
280
     0
  9
$LWDISPLAY
290
     0
  9
$INSUNITS
 70
     4
  9
$HYPERLINKBASE
  1

  9
$STYLESHEET
  1

  9
$XEDIT
290
     1
  9
$CEPSNTYPE
380
     0
  9
$PSTYLEMODE
290
     1
  9
$FINGERPRINTGUID
  2
{9AF43FEB-1ADB-49B8-8C74-EF02FC18942A}
  9
$VERSIONGUID
  2
{FAEB1C32-E019-11D5-929B-00C0DF256EC4}
  9
$EXTNAMES
290
     1
  9
$PSVPSCALE
 40
0.0
  9
$OLESTARTUP
290
     0
  9
$SORTENTS
280
   127
  9
$INDEXCTL
280
     0
  9
$HIDETEXT
280
     1
  9
$XCLIPFRAME
290
     0
  9
$HALOGAP
280
     0
  9
$OBSCOLOR
 70
   257
  9
$OBSLTYPE
280
     0
  9
$INTERSECTIONDISPLAY
280
     0
  9
$INTERSECTIONCOLOR
 70
   257
  9
$DIMASSOC
280
     2
  9
$PROJECTNAME
  1

  0
ENDSEC
  0
SECTION
  2
CLASSES
  0
CLASS
  1
ACDBDICTIONARYWDFLT
  2
AcDbDictionaryWithDefault
  3
ObjectDBX Classes
 90
        0
 91
        4
280
     0
281
     0
  0
CLASS
  1
VISUALSTYLE
  2
AcDbVisualStyle
  3
ObjectDBX Classes
 90
     4095
 91
        4
280
     0
281
     0
  0
ENDSEC
  0
SECTION
  2
TABLES
  0
TABLE
  2
VPORT
  5
8
330
0
100
AcDbSymbolTable
 70
     1
  0
VPORT
  5
29
330
8
100
AcDbSymbolTableRecord
100
AcDbViewportTableRecord
  2
*Active
 70
     0
 10
0.0
 20
0.0
 11
1.0
 21
1.0
 12
0.0
 22
0.0
 13
0.0
 23
0.0
 14
10.0
 24
10.0
 15
10.0
 25
10.0
 16
0.0
 26
0.0
 36
1.0
 17
0.0
 27
0.0
 37
0.0
 40
3267.0
 41
1.414141414141414
 42
50.0
 43
0.0
 44
0.0
 50
0.0
 51
0.0
 71
     0
 72
 10000
 73
     1
 74
     3
 75
     0
 76
     0
 77
     0
 78
     0
281
     0
 65
     1
110
0.0
120
0.0
130
0.0
111
1.0
121
0.0
131
0.0
112
0.0
122
1.0
132
0.0
 79
     0
146
0.0
  0
ENDTAB
  0
TABLE
  2
LTYPE
  5
5
330
0
100
AcDbSymbolTable
 70
     5
  0
LTYPE
  5
14
330
5
100
AcDbSymbolTableRecord
100
AcDbLinetypeTableRecord
  2
ByBlock
 70
     0
  3

 72
    65
 73
     0
 40
0.0
  0
LTYPE
  5
15
330
5
100
AcDbSymbolTableRecord
100
AcDbLinetypeTableRecord
  2
ByLayer
 70
     0
  3

 72
    65
 73
     0
 40
0.0
  0
LTYPE
  5
16
330
5
100
AcDbSymbolTableRecord
100
AcDbLinetypeTableRecord
  2
Continuous
 70
     0
  3
Solid line
 72
    65
 73
     0
 40
0.0
  0
LTYPE
  5
3C
330
5
100
AcDbSymbolTableRecord
100
AcDbLinetypeTableRecord
  2
JWW_DASHED3
 70
     0
  3
---  ------  ------  ------  ---
 72
    65
 73
     2
 40
3.386666666666667
 49
2.54
 74
     0
 49
-0.8466666666666667
 74
     0
  0
LTYPE
  5
3D
330
5
100
AcDbSymbolTableRecord
100
AcDbLinetypeTableRecord
  2
JWW_CENTER2
 70
     0
  3
-------------  --  -------------
 72
    65
 73
     4
 40
13.54666666666667
 49
11.00666666666667
 74
     0
 49
-0.8466666666666667
 74
     0
 49
0.8466666666666667
 74
     0
 49
-0.8466666666666667
 74
     0
  0
LTYPE
  5
3E
330
5
100
AcDbSymbolTableRecord
100
AcDbLinetypeTableRecord
  2
JWW_CENTER1
 70
     0
  3
-----  --  ----------  --  -----
 72
    65
 73
     4
 40
6.773333333333333
 49
4.233333333333333
 74
     0
 49
-0.8466666666666667
 74
     0
 49
0.8466666666666667
 74
     0
 49
-0.8466666666666667
 74
     0
  0
LTYPE
  5
3F
330
5
100
AcDbSymbolTableRecord
100
AcDbLinetypeTableRecord
  2
JWW_DASHED2
 70
     0
  3
--    ----    ----    ----    --
 72
    65
 73
     2
 40
3.386666666666667
 49
1.693333333333333
 74
     0
 49
-1.693333333333333
 74
     0
  0
ENDTAB
  0
TABLE
  2
LAYER
  5
2
330
0
100
AcDbSymbolTable
 70
    16
  0
LAYER
  5
10
330
2
100
AcDbSymbolTableRecord
100
AcDbLayerTableRecord
  2
0
 70
     0
 62
     7
  6
Continuous
370
    -3
390
F
  0
LAYER
  5
40
330
2
100
AcDbSymbolTableRecord
100
AcDbLayerTableRecord
  2
F-5
 70
     0
 62
     7
  6
Continuous
370
    -3
390
F
  0
LAYER
  5
41
330
2
100
AcDbSymbolTableRecord
100
AcDbLayerTableRecord
  2
C-4
 70
     0
 62
     7
  6
Continuous
370
    -3
390
F
  0
LAYER
  5
42
330
2
100
AcDbSymbolTableRecord
100
AcDbLayerTableRecord
  2
C-A
 70
     0
 62
     7
  6
Continuous
370
    -3
390
F
  0
LAYER
  5
43
330
2
100
AcDbSymbolTableRecord
100
AcDbLayerTableRecord
  2
C-1
 70
     0
 62
     7
  6
Continuous
370
    -3
390
F
  0
LAYER
  5
44
330
2
100
AcDbSymbolTableRecord
100
AcDbLayerTableRecord
  2
C-2
 70
     0
 62
     7
  6
Continuous
370
    -3
390
F
  0
LAYER
  5
45
330
2
100
AcDbSymbolTableRecord
100
AcDbLayerTableRecord
  2
C-5
 70
     0
 62
     7
  6
Continuous
370
    -3
390
F
  0
LAYER
  5
46
330
2
100
AcDbSymbolTableRecord
100
AcDbLayerTableRecord
  2
D-4
 70
     0
 62
     7
  6
Continuous
370
    -3
390
F
  0
LAYER
  5
47
330
2
100
AcDbSymbolTableRecord
100
AcDbLayerTableRecord
  2
D-6
 70
     0
 62
     7
  6
Continuous
370
    -3
390
F
  0
LAYER
  5
48
330
2
100
AcDbSymbolTableRecord
100
AcDbLayerTableRecord
  2
D-5
 70
     0
 62
     7
  6
Continuous
370
    -3
390
F
  0
LAYER
  5
49
330
2
100
AcDbSymbolTableRecord
100
AcDbLayerTableRecord
  2
D-0
 70
     0
 62
     7
  6
Continuous
370
    -3
390
F
  0
LAYER
  5
4A
330
2
100
AcDbSymbolTableRecord
100
AcDbLayerTableRecord
  2
D-9
 70
     0
 62
     7
  6
Continuous
370
    -3
390
F
  0
LAYER
  5
4B
330
2
100
AcDbSymbolTableRecord
100
AcDbLayerTableRecord
  2
D-1
 70
     0
 62
     7
  6
Continuous
370
    -3
390
F
  0
LAYER
  5
4C
330
2
100
AcDbSymbolTableRecord
100
AcDbLayerTableRecord
  2
D-3
 70
     0
 62
     7
  6
Continuous
370
    -3
390
F
  0
LAYER
  5
4D
330
2
100
AcDbSymbolTableRecord
100
AcDbLayerTableRecord
  2
D-A
 70
     0
 62
     7
  6
Continuous
370
    -3
390
F
  0
LAYER
  5
4E
330
2
100
AcDbSymbolTableRecord
100
AcDbLayerTableRecord
  2
D-2
 70
     0
 62
     7
  6
Continuous
370
    -3
390
F
  0
ENDTAB
  0
TABLE
  2
STYLE
  5
3
330
0
100
AcDbSymbolTable
 70
     2
  0
STYLE
  5
11
330
3
100
AcDbSymbolTableRecord
100
AcDbTextStyleTableRecord
  2
Standard
 70
     0
 40
0.0
 41
1.0
 50
0.0
 71
     0
 42
2.5
  3
txt
  4

1001
ACAD
1000

1071
        0
  0
STYLE
  5
3B
330
3
100
AcDbSymbolTableRecord
100
AcDbTextStyleTableRecord
  2
ＭＳ ゴシック
 70
     0
 40
1.0
 41
1.0
 50
0.0
 71
     0
 42
10.0
  3

  4

1001
ACAD
1000
MS Gothic
1071
    32817
  0
ENDTAB
  0
TABLE
  2
VIEW
  5
6
330
0
100
AcDbSymbolTable
 70
     0
  0
ENDTAB
  0
TABLE
  2
UCS
  5
7
330
0
100
AcDbSymbolTable
 70
     0
  0
ENDTAB
  0
TABLE
  2
APPID
  5
9
330
0
100
AcDbSymbolTable
 70
     1
  0
APPID
  5
12
330
9
100
AcDbSymbolTableRecord
100
AcDbRegAppTableRecord
  2
ACAD
 70
     0
  0
ENDTAB
  0
TABLE
  2
DIMSTYLE
  5
A
330
0
100
AcDbSymbolTable
 70
     1
100
AcDbDimStyleTable
  0
DIMSTYLE
105
27
330
A
100
AcDbSymbolTableRecord
100
AcDbDimStyleTableRecord
  2
ISO-25
 70
     0
 41
2.5
 42
0.625
 43
3.75
 44
1.25
 73
     0
 74
     0
 77
     1
 78
     8
140
2.5
141
2.5
143
0.03937007874016
147
0.625
171
     3
172
     1
271
     2
272
     2
274
     3
278
    44
283
     0
284
     8
340
11
  0
ENDTAB
  0
TABLE
  2
BLOCK_RECORD
  5
1
330
0
100
AcDbSymbolTable
 70
     1
  0
BLOCK_RECORD
  5
1F
330
1
100
AcDbSymbolTableRecord
100
AcDbBlockTableRecord
  2
*Model_Space
340
22
  0
BLOCK_RECORD
  5
1B
330
1
100
AcDbSymbolTableRecord
100
AcDbBlockTableRecord
  2
*Paper_Space
340
1E
  0
BLOCK_RECORD
  5
23
330
1
100
AcDbSymbolTableRecord
100
AcDbBlockTableRecord
  2
*Paper_Space0
340
26
  0
ENDTAB
  0
ENDSEC
  0
SECTION
  2
BLOCKS
  0
BLOCK
  5
20
330
1F
100
AcDbEntity
  8
0
100
AcDbBlockBegin
  2
*Model_Space
 70
     0
 10
0.0
 20
0.0
 30
0.0
  3
*Model_Space
  1

  0
ENDBLK
  5
21
330
1F
100
AcDbEntity
  8
0
100
AcDbBlockEnd
  0
BLOCK
  5
1C
330
1B
100
AcDbEntity
 67
     1
  8
0
100
AcDbBlockBegin
  2
*Paper_Space
 70
     0
 10
0.0
 20
0.0
 30
0.0
  3
*Paper_Space
  1

  0
ENDBLK
  5
1D
330
1B
100
AcDbEntity
 67
     1
  8
0
100
AcDbBlockEnd
  0
BLOCK
  5
24
330
23
100
AcDbEntity
  8
0
100
AcDbBlockBegin
  2
*Paper_Space0
 70
     0
 10
0.0
 20
0.0
 30
0.0
  3
*Paper_Space0
  1

  0
ENDBLK
  5
25
330
23
100
AcDbEntity
  8
0
100
AcDbBlockEnd
  0
ENDSEC
  0
SECTION
  2
ENTITIES
  0
TEXT
  5
4F
330
1F
100
AcDbEntity
  8
F-5
  6
Continuous
 62
     2
370
     9
100
AcDbText
 10
-731.5901402992006
 20
-1326.310621578057
 30
0.0
 40
30.48
  1
ステンレス製　細目ノンスリップタイプ（デルタ模様）グレーチング（すきま9mm）
 41
0.7743333333333332
  7
ＭＳ ゴシック
100
AcDbText
  0
TEXT
  5
50
330
1F
100
AcDbEntity
  8
C-4
  6
Continuous
 62
     2
370
   211
100
AcDbText
 10
-182.871390420037
 20
987.747742135589
 30
0.0
 40
30.48
  1
25
 41
1.0625
  7
ＭＳ ゴシック
100
AcDbText
  0
LINE
  5
51
330
1F
100
AcDbEntity
  8
C-A
  6
Continuous
 62
     3
370
     9
100
AcDbLine
 10
-213.6211920557793
 20
799.6433253932641
 30
0.0
 11
-204.6214972315605
 21
799.6433253932641
 31
0.0
  0
LINE
  5
52
330
1F
100
AcDbEntity
  8
C-A
  6
Continuous
 62
     3
370
     9
100
AcDbLine
 10
-213.6211920557793
 20
796.1078029323269
 30
0.0
 11
-204.6214972315605
 21
796.1078029323269
 31
0.0
  0
LINE
  5
53
330
1F
100
AcDbEntity
  8
C-A
  6
Continuous
 62
     3
370
     9
100
AcDbLine
 10
-213.6211920557793
 20
792.5722804713894
 30
0.0
 11
-204.6214972315605
 21
792.5722804713894
 31
0.0
  0
LINE
  5
54
330
1F
100
AcDbEntity
  8
C-A
  6
Continuous
 62
     3
370
     9
100
AcDbLine
 10
-228.621131020623
 20
799.6433253932641
 30
0.0
 11
-219.6214361964041
 21
799.6433253932641
 31
0.0
  0
LINE
  5
55
330
1F
100
AcDbEntity
  8
C-A
  6
Continuous
 62
     3
370
     9
100
AcDbLine
 10
-228.621131020623
 20
796.1078029323269
 30
0.0
 11
-219.6214361964041
 21
796.1078029323269
 31
0.0
  0
LINE
  5
56
330
1F
100
AcDbEntity
  8
C-A
  6
Continuous
 62
     3
370
     9
100
AcDbLine
 10
-228.621131020623
 20
792.5722804713894
 30
0.0
 11
-219.6214361964041
 21
792.5722804713894
 31
0.0
  0
LINE
  5
57
330
1F
100
AcDbEntity
  8
C-A
  6
Continuous
 62
     3
370
     9
100
AcDbLine
 10
-243.621131020623
 20
799.6433253932641
 30
0.0
 11
-234.6214361964041
 21
799.6433253932641
 31
0.0
  0
LINE
  5
58
330
1F
100
AcDbEntity
  8
C-A
  6
Continuous
 62
     3
370
     9
100
AcDbLine
 10
-243.621131020623
 20
796.1078029323269
 30
0.0
 11
-234.6214361964041
 21
796.1078029323269
 31
0.0
  0
LINE
  5
59
330
1F
100
AcDbEntity
  8
C-A
  6
Continuous
 62
     3
370
     9
100
AcDbLine
 10
-243.621131020623
 20
792.5722804713894
 30
0.0
 11
-234.6214361964041
 21
792.5722804713894
 31
0.0
  0
LINE
  5
5A
330
1F
100
AcDbEntity
  8
C-A
  6
Continuous
 62
     3
370
     9
100
AcDbLine
 10
-258.621131020623
 20
799.6433253932641
 30
0.0
 11
-249.6214361964041
 21
799.6433253932641
 31
0.0
  0
LINE
  5
5B
330
1F
100
AcDbEntity
  8
C-A
  6
Continuous
 62
     3
370
     9
100
AcDbLine
 10
-258.621131020623
 20
796.1078029323269
 30
0.0
 11
-249.6214361964041
 21
796.1078029323269
 31
0.0
  0
LINE
  5
5C
330
1F
100
AcDbEntity
  8
C-A
  6
Continuous
 62
     3
370
     9
100
AcDbLine
 10
-258.621131020623
 20
792.5722804713894
 30
0.0
 11
-249.6214361964041
 21
792.5722804713894
 31
0.0
  0
LINE
  5
5D
330
1F
100
AcDbEntity
  8
C-A
  6
Continuous
 62
     3
370
     9
100
AcDbLine
 10
-273.6211005030448
 20
799.6433253932641
 30
0.0
 11
-264.6214056788261
 21
799.6433253932641
 31
0.0
  0
LINE
  5
5E
330
1F
100
AcDbEntity
  8
C-A
  6
Continuous
 62
     3
370
     9
100
AcDbLine
 10
-273.6211005030448
 20
796.1078029323269
 30
0.0
 11
-264.6214056788261
 21
796.1078029323269
 31
0.0
  0
LINE
  5
5F
330
1F
100
AcDbEntity
  8
C-A
  6
Continuous
 62
     3
370
     9
100
AcDbLine
 10
-273.6211005030448
 20
792.5722804713894
 30
0.0
 11
-264.6214056788261
 21
792.5722804713894
 31
0.0
  0
LINE
  5
60
330
1F
100
AcDbEntity
  8
C-A
  6
Continuous
 62
     3
370
     9
100
AcDbLine
 10
-288.6211005030448
 20
799.6433253932641
 30
0.0
 11
-279.6214056788261
 21
799.6433253932641
 31
0.0
  0
LINE
  5
61
330
1F
100
AcDbEntity
  8
C-A
  6
Continuous
 62
     3
370
     9
100
AcDbLine
 10
-288.6211005030448
 20
796.1078029323269
 30
0.0
 11
-279.6214056788261
 21
796.1078029323269
 31
0.0
  0
LINE
  5
62
330
1F
100
AcDbEntity
  8
C-A
  6
Continuous
 62
     3
370
     9
100
AcDbLine
 10
-288.6211005030448
 20
792.5722804713894
 30
0.0
 11
-279.6214056788261
 21
792.5722804713894
 31
0.0
  0
LINE
  5
63
330
1F
100
AcDbEntity
  8
C-A
  6
Continuous
 62
     3
370
     9
100
AcDbLine
 10
-303.6211005030448
 20
799.6433253932641
 30
0.0
 11
-294.6214056788261
 21
799.6433253932641
 31
0.0
  0
LINE
  5
64
330
1F
100
AcDbEntity
  8
C-A
  6
Continuous
 62
     3
370
     9
100
AcDbLine
 10
-303.6211005030448
 20
796.1078029323269
 30
0.0
 11
-294.6214056788261
 21
796.1078029323269
 31
0.0
  0
LINE
  5
65
330
1F
100
AcDbEntity
  8
C-A
  6
Continuous
 62
     3
370
     9
100
AcDbLine
 10
-303.6211005030448
 20
792.5722804713894
 30
0.0
 11
-294.6214056788261
 21
792.5722804713894
 31
0.0
  0
LINE
  5
66
330
1F
100
AcDbEntity
  8
C-A
  6
Continuous
 62
     3
370
     9
100
AcDbLine
 10
-318.6211005030448
 20
799.6433253932641
 30
0.0
 11
-309.6214056788261
 21
799.6433253932641
 31
0.0
  0
LINE
  5
67
330
1F
100
AcDbEntity
  8
C-A
  6
Continuous
 62
     3
370
     9
100
AcDbLine
 10
-318.6211005030448
 20
796.1078029323269
 30
0.0
 11
-309.6214056788261
 21
796.1078029323269
 31
0.0
  0
LINE
  5
68
330
1F
100
AcDbEntity
  8
C-A
  6
Continuous
 62
     3
370
     9
100
AcDbLine
 10
-318.6211005030448
 20
792.5722804713894
 30
0.0
 11
-309.6214056788261
 21
792.5722804713894
 31
0.0
  0
LINE
  5
69
330
1F
100
AcDbEntity
  8
C-A
  6
Continuous
 62
     3
370
     9
100
AcDbLine
 10
-333.6211005030448
 20
799.6433253932641
 30
0.0
 11
-324.6214056788261
 21
799.6433253932641
 31
0.0
  0
LINE
  5
6A
330
1F
100
AcDbEntity
  8
C-A
  6
Continuous
 62
     3
370
     9
100
AcDbLine
 10
-333.6211005030448
 20
796.1078029323269
 30
0.0
 11
-324.6214056788261
 21
796.1078029323269
 31
0.0
  0
LINE
  5
6B
330
1F
100
AcDbEntity
  8
C-A
  6
Continuous
 62
     3
370
     9
100
AcDbLine
 10
-333.6211005030448
 20
792.5722804713894
 30
0.0
 11
-324.6214056788261
 21
792.5722804713894
 31
0.0
  0
LINE
  5
6C
330
1F
100
AcDbEntity
  8
C-A
  6
Continuous
 62
     3
370
     9
100
AcDbLine
 10
-348.6211005030448
 20
799.6433253932641
 30
0.0
 11
-339.6214056788261
 21
799.6433253932641
 31
0.0
  0
LINE
  5
6D
330
1F
100
AcDbEntity
  8
C-A
  6
Continuous
 62
     3
370
     9
100
AcDbLine
 10
-348.6211005030448
 20
796.1078029323269
 30
0.0
 11
-339.6214056788261
 21
796.1078029323269
 31
0.0
  0
LINE
  5
6E
330
1F
100
AcDbEntity
  8
C-A
  6
Continuous
 62
     3
370
     9
100
AcDbLine
 10
-348.6211005030448
 20
792.5722804713894
 30
0.0
 11
-339.6214056788261
 21
792.5722804713894
 31
0.0
  0
LINE
  5
6F
330
1F
100
AcDbEntity
  8
C-A
  6
Continuous
 62
     3
370
     9
100
AcDbLine
 10
-363.6211005030448
 20
799.6433253932641
 30
0.0
 11
-354.6214056788261
 21
799.6433253932641
 31
0.0
  0
LINE
  5
70
330
1F
100
AcDbEntity
  8
C-A
  6
Continuous
 62
     3
370
     9
100
AcDbLine
 10
-363.6211005030448
 20
796.1078029323269
 30
0.0
 11
-354.6214056788261
 21
796.1078029323269
 31
0.0
  0
LINE
  5
71
330
1F
100
AcDbEntity
  8
C-A
  6
Continuous
 62
     3
370
     9
100
AcDbLine
 10
-363.6211005030448
 20
792.5722804713894
 30
0.0
 11
-354.6214056788261
 21
792.5722804713894
 31
0.0
  0
LINE
  5
72
330
1F
100
AcDbEntity
  8
C-A
  6
Continuous
 62
     3
370
     9
100
AcDbLine
 10
-378.6211005030448
 20
799.6433253932641
 30
0.0
 11
-369.621390420037
 21
799.6433253932641
 31
0.0
  0
LINE
  5
73
330
1F
100
AcDbEntity
  8
C-A
  6
Continuous
 62
     3
370
     9
100
AcDbLine
 10
-378.6211005030448
 20
796.1078029323269
 30
0.0
 11
-369.621390420037
 21
796.1078029323269
 31
0.0
  0
LINE
  5
74
330
1F
100
AcDbEntity
  8
C-A
  6
Continuous
 62
     3
370
     9
100
AcDbLine
 10
-378.6211005030448
 20
792.5722804713894
 30
0.0
 11
-369.621390420037
 21
792.5722804713894
 31
0.0
  0
LINE
  5
75
330
1F
100
AcDbEntity
  8
C-A
  6
Continuous
 62
     3
370
     9
100
AcDbLine
 10
-393.6211005030448
 20
799.6433253932641
 30
0.0
 11
-384.621390420037
 21
799.6433253932641
 31
0.0
  0
LINE
  5
76
330
1F
100
AcDbEntity
  8
C-A
  6
Continuous
 62
     3
370
     9
100
AcDbLine
 10
-393.6211005030448
 20
796.1078029323269
 30
0.0
 11
-384.621390420037
 21
796.1078029323269
 31
0.0
  0
LINE
  5
77
330
1F
100
AcDbEntity
  8
C-A
  6
Continuous
 62
     3
370
     9
100
AcDbLine
 10
-393.6211005030448
 20
792.5722804713894
 30
0.0
 11
-384.621390420037
 21
792.5722804713894
 31
0.0
  0
LINE
  5
78
330
1F
100
AcDbEntity
  8
C-A
  6
Continuous
 62
     3
370
     9
100
AcDbLine
 10
-408.6211005030448
 20
799.6433253932641
 30
0.0
 11
-399.621390420037
 21
799.6433253932641
 31
0.0
  0
LINE
  5
79
330
1F
100
AcDbEntity
  8
C-A
  6
Continuous
 62
     3
370
     9
100
AcDbLine
 10
-408.6211005030448
 20
796.1078029323269
 30
0.0
 11
-399.621390420037
 21
796.1078029323269
 31
0.0
  0
LINE
  5
7A
330
1F
100
AcDbEntity
  8
C-A
  6
Continuous
 62
     3
370
     9
100
AcDbLine
 10
-408.6211005030448
 20
792.5722804713894
 30
0.0
 11
-399.621390420037
 21
792.5722804713894
 31
0.0
  0
LINE
  5
7B
330
1F
100
AcDbEntity
  8
C-A
  6
Continuous
 62
     3
370
     9
100
AcDbLine
 10
-423.6211005030448
 20
799.6433253932641
 30
0.0
 11
-414.621390420037
 21
799.6433253932641
 31
0.0
  0
LINE
  5
7C
330
1F
100
AcDbEntity
  8
C-A
  6
Continuous
 62
     3
370
     9
100
AcDbLine
 10
-423.6211005030448
 20
796.1078029323269
 30
0.0
 11
-414.621390420037
 21
796.1078029323269
 31
0.0
  0
LINE
  5
7D
330
1F
100
AcDbEntity
  8
C-A
  6
Continuous
 62
     3
370
     9
100
AcDbLine
 10
-423.6211005030448
 20
792.5722804713894
 30
0.0
 11
-414.621390420037
 21
792.5722804713894
 31
0.0
  0
LINE
  5
7E
330
1F
100
AcDbEntity
  8
C-A
  6
Continuous
 62
     3
370
     9
100
AcDbLine
 10
-438.6211005030448
 20
799.6433253932641
 30
0.0
 11
-429.621390420037
 21
799.6433253932641
 31
0.0
  0
LINE
  5
7F
330
1F
100
AcDbEntity
  8
C-A
  6
Continuous
 62
     3
370
     9
100
AcDbLine
 10
-438.6211005030448
 20
796.1078029323269
 30
0.0
 11
-429.621390420037
 21
796.1078029323269
 31
0.0
  0
LINE
  5
80
330
1F
100
AcDbEntity
  8
C-A
  6
Continuous
 62
     3
370
     9
100
AcDbLine
 10
-438.6211005030448
 20
792.5722804713894
 30
0.0
 11
-429.621390420037
 21
792.5722804713894
 31
0.0
  0
LINE
  5
81
330
1F
100
AcDbEntity
  8
C-A
  6
Continuous
 62
     3
370
     9
100
AcDbLine
 10
-453.6211005030448
 20
799.6433253932641
 30
0.0
 11
-444.621390420037
 21
799.6433253932641
 31
0.0
  0
LINE
  5
82
330
1F
100
AcDbEntity
  8
C-A
  6
Continuous
 62
     3
370
     9
100
AcDbLine
 10
-453.6211005030448
 20
796.1078029323269
 30
0.0
 11
-444.621390420037
 21
796.1078029323269
 31
0.0
  0
LINE
  5
83
330
1F
100
AcDbEntity
  8
C-A
  6
Continuous
 62
     3
370
     9
100
AcDbLine
 10
-453.6211005030448
 20
792.5722804713894
 30
0.0
 11
-444.621390420037
 21
792.5722804713894
 31
0.0
  0
LINE
  5
84
330
1F
100
AcDbEntity
  8
C-A
  6
Continuous
 62
     3
370
     9
100
AcDbLine
 10
-468.6211005030448
 20
799.6433253932641
 30
0.0
 11
-459.621390420037
 21
799.6433253932641
 31
0.0
  0
LINE
  5
85
330
1F
100
AcDbEntity
  8
C-A
  6
Continuous
 62
     3
370
     9
100
AcDbLine
 10
-468.6211005030448
 20
796.1078029323269
 30
0.0
 11
-459.621390420037
 21
796.1078029323269
 31
0.0
  0
LINE
  5
86
330
1F
100
AcDbEntity
  8
C-A
  6
Continuous
 62
     3
370
     9
100
AcDbLine
 10
-468.6211005030448
 20
792.5722804713894
 30
0.0
 11
-459.621390420037
 21
792.5722804713894
 31
0.0
  0
LINE
  5
87
330
1F
100
AcDbEntity
  8
C-A
  6
Continuous
 62
     3
370
     9
100
AcDbLine
 10
-483.6211005030448
 20
799.6433253932641
 30
0.0
 11
-474.621390420037
 21
799.6433253932641
 31
0.0
  0
LINE
  5
88
330
1F
100
AcDbEntity
  8
C-A
  6
Continuous
 62
     3
370
     9
100
AcDbLine
 10
-483.6211005030448
 20
796.1078029323269
 30
0.0
 11
-474.621390420037
 21
796.1078029323269
 31
0.0
  0
LINE
  5
89
330
1F
100
AcDbEntity
  8
C-A
  6
Continuous
 62
     3
370
     9
100
AcDbLine
 10
-483.6211005030448
 20
792.5722804713894
 30
0.0
 11
-474.621390420037
 21
792.5722804713894
 31
0.0
  0
LINE
  5
8A
330
1F
100
AcDbEntity
  8
C-A
  6
Continuous
 62
     3
370
     9
100
AcDbLine
 10
-498.6210928736503
 20
799.6433253932641
 30
0.0
 11
-489.6213980494315
 21
799.6433253932641
 31
0.0
  0
LINE
  5
8B
330
1F
100
AcDbEntity
  8
C-A
  6
Continuous
 62
     3
370
     9
100
AcDbLine
 10
-498.6210928736503
 20
796.1078029323269
 30
0.0
 11
-489.6213980494315
 21
796.1078029323269
 31
0.0
  0
LINE
  5
8C
330
1F
100
AcDbEntity
  8
C-A
  6
Continuous
 62
     3
370
     9
100
AcDbLine
 10
-498.6210928736503
 20
792.5722804713894
 30
0.0
 11
-489.6213980494315
 21
792.5722804713894
 31
0.0
  0
LINE
  5
8D
330
1F
100
AcDbEntity
  8
C-A
  6
Continuous
 62
     3
370
     9
100
AcDbLine
 10
-513.6210928736502
 20
799.6433253932641
 30
0.0
 11
-504.6213980494315
 21
799.6433253932641
 31
0.0
  0
LINE
  5
8E
330
1F
100
AcDbEntity
  8
C-A
  6
Continuous
 62
     3
370
     9
100
AcDbLine
 10
-513.6210928736502
 20
796.1078029323269
 30
0.0
 11
-504.6213980494315
 21
796.1078029323269
 31
0.0
  0
LINE
  5
8F
330
1F
100
AcDbEntity
  8
C-A
  6
Continuous
 62
     3
370
     9
100
AcDbLine
 10
-513.6210928736502
 20
792.5722804713894
 30
0.0
 11
-504.6213980494315
 21
792.5722804713894
 31
0.0
  0
LINE
  5
90
330
1F
100
AcDbEntity
  8
C-1
  6
JWW_DASHED3
 62
     2
370
     9
100
AcDbLine
 10
-154.1213141260917
 20
521.107848708694
 30
0.0
 11
-504.1214667139823
 21
521.107848708694
 31
0.0
  0
LINE
  5
91
330
1F
100
AcDbEntity
  8
C-1
  6
JWW_DASHED3
 62
     2
370
     9
100
AcDbLine
 10
-504.1214667139823
 20
521.107848708694
 30
0.0
 11
-504.1214667139823
 21
871.1074977565456
 31
0.0
  0
LINE
  5
92
330
1F
100
AcDbEntity
  8
C-1
  6
JWW_DASHED3
 62
     2
370
     9
100
AcDbLine
 10
-504.1214667139823
 20
871.1074977565456
 30
0.0
 11
-154.1213141260917
 21
871.1074977565456
 31
0.0
  0
LINE
  5
93
330
1F
100
AcDbEntity
  8
C-1
  6
JWW_DASHED3
 62
     2
370
     9
100
AcDbLine
 10
-154.1213141260917
 20
871.1074977565456
 30
0.0
 11
-154.1213141260917
 21
521.107848708694
 31
0.0
  0
LINE
  5
94
330
1F
100
AcDbEntity
  8
C-2
  6
Continuous
 62
     3
370
     9
100
AcDbLine
 10
-129.1214667139823
 20
896.1078639674829
 30
0.0
 11
-529.1213370142754
 21
896.1078639674829
 31
0.0
  0
LINE
  5
95
330
1F
100
AcDbEntity
  8
C-1
  6
Continuous
 62
     2
370
     9
100
AcDbLine
 10
-128.1215887842948
 20
897.1076808620146
 30
0.0
 11
-530.1216879664237
 21
897.1076808620146
 31
0.0
  0
LINE
  5
96
330
1F
100
AcDbEntity
  8
C-2
  6
Continuous
 62
     3
370
     9
100
AcDbLine
 10
-529.1213370142754
 20
496.1077266383816
 30
0.0
 11
-129.1214667139823
 21
496.1077266383816
 31
0.0
  0
LINE
  5
97
330
1F
100
AcDbEntity
  8
C-1
  6
Continuous
 62
     2
370
     9
100
AcDbLine
 10
-128.1215887842948
 20
897.1076808620146
 30
0.0
 11
-128.1215887842948
 21
495.1076198268581
 31
0.0
  0
LINE
  5
98
330
1F
100
AcDbEntity
  8
C-1
  6
Continuous
 62
     2
370
     9
100
AcDbLine
 10
-530.1216879664237
 20
495.1076198268581
 30
0.0
 11
-128.1215887842948
 21
495.1076198268581
 31
0.0
  0
LINE
  5
99
330
1F
100
AcDbEntity
  8
C-5
  6
Continuous
 62
     7
370
     9
100
AcDbLine
 10
-41.62119205577916
 20
388.1076656032252
 30
0.0
 11
-41.62119205577916
 21
323.1081081081081
 31
0.0
  0
LINE
  5
9A
330
1F
100
AcDbEntity
  8
C-5
  6
Continuous
 62
     7
370
     9
100
AcDbLine
 10
-41.62119205577916
 20
323.1081081081081
 30
0.0
 11
-616.6216193018729
 21
323.1081081081081
 31
0.0
  0
LINE
  5
9B
330
1F
100
AcDbEntity
  8
C-5
  6
Continuous
 62
     7
370
     9
100
AcDbLine
 10
-616.6216193018729
 20
388.1076656032252
 30
0.0
 11
-41.62119205577916
 21
388.1076656032252
 31
0.0
  0
LINE
  5
9C
330
1F
100
AcDbEntity
  8
C-5
  6
Continuous
 62
     7
370
     9
100
AcDbLine
 10
-616.6216193018729
 20
323.1081081081081
 30
0.0
 11
-616.6216193018729
 21
388.1076656032252
 31
0.0
  0
LINE
  5
9D
330
1F
100
AcDbEntity
  8
C-A
  6
Continuous
 62
     3
370
     9
100
AcDbLine
 10
-129.1214667139823
 20
893.1073146510769
 30
0.0
 11
-529.1213370142754
 21
893.1073146510769
 31
0.0
  0
LINE
  5
9E
330
1F
100
AcDbEntity
  8
C-A
  6
Continuous
 62
     3
370
     9
100
AcDbLine
 10
-384.6208411036308
 20
893.1073146510769
 30
0.0
 11
-384.6208411036308
 21
499.1082912135769
 31
0.0
  0
LINE
  5
9F
330
1F
100
AcDbEntity
  8
C-A
  6
Continuous
 62
     3
370
     9
100
AcDbLine
 10
-378.6207037745293
 20
893.1073146510769
 30
0.0
 11
-378.6207037745293
 21
499.1082912135769
 31
0.0
  0
LINE
  5
A0
330
1F
100
AcDbEntity
  8
C-A
  6
Continuous
 62
     3
370
     9
100
AcDbLine
 10
-399.6211462794121
 20
893.1073146510769
 30
0.0
 11
-399.6211462794121
 21
499.1082912135769
 31
0.0
  0
LINE
  5
A1
330
1F
100
AcDbEntity
  8
C-A
  6
Continuous
 62
     3
370
     9
100
AcDbLine
 10
-393.6210242090995
 20
893.1073146510769
 30
0.0
 11
-393.6210242090995
 21
499.1082912135769
 31
0.0
  0
LINE
  5
A2
330
1F
100
AcDbEntity
  8
C-A
  6
Continuous
 62
     3
370
     9
100
AcDbLine
 10
-414.6209784327323
 20
893.1073146510769
 30
0.0
 11
-414.6209784327323
 21
499.1082912135769
 31
0.0
  0
LINE
  5
A3
330
1F
100
AcDbEntity
  8
C-A
  6
Continuous
 62
     3
370
     9
100
AcDbLine
 10
-408.6208411036307
 20
893.1073146510769
 30
0.0
 11
-408.6208411036307
 21
499.1082912135769
 31
0.0
  0
LINE
  5
A4
330
1F
100
AcDbEntity
  8
C-A
  6
Continuous
 62
     3
370
     9
100
AcDbLine
 10
-429.6207953272636
 20
893.1073146510769
 30
0.0
 11
-429.6207953272636
 21
499.1082912135769
 31
0.0
  0
LINE
  5
A5
330
1F
100
AcDbEntity
  8
C-A
  6
Continuous
 62
     3
370
     9
100
AcDbLine
 10
-423.6206732569511
 20
893.1073146510769
 30
0.0
 11
-423.6206732569511
 21
499.1082912135769
 31
0.0
  0
LINE
  5
A6
330
1F
100
AcDbEntity
  8
C-A
  6
Continuous
 62
     3
370
     9
100
AcDbLine
 10
-444.6211157618339
 20
893.1073146510769
 30
0.0
 11
-444.6211157618339
 21
499.1082912135769
 31
0.0
  0
LINE
  5
A7
330
1F
100
AcDbEntity
  8
C-A
  6
Continuous
 62
     3
370
     9
100
AcDbLine
 10
-438.6209936915213
 20
893.1073146510769
 30
0.0
 11
-438.6209936915213
 21
499.1082912135769
 31
0.0
  0
LINE
  5
A8
330
1F
100
AcDbEntity
  8
C-A
  6
Continuous
 62
     3
370
     9
100
AcDbLine
 10
-459.6209326563651
 20
893.1073146510769
 30
0.0
 11
-459.6209326563651
 21
499.1082912135769
 31
0.0
  0
LINE
  5
A9
330
1F
100
AcDbEntity
  8
C-A
  6
Continuous
 62
     3
370
     9
100
AcDbLine
 10
-453.6208105860527
 20
893.1073146510769
 30
0.0
 11
-453.6208105860527
 21
499.1082912135769
 31
0.0
  0
LINE
  5
AA
330
1F
100
AcDbEntity
  8
C-A
  6
Continuous
 62
     3
370
     9
100
AcDbLine
 10
-474.6212530909355
 20
893.1073146510769
 30
0.0
 11
-474.6212530909355
 21
499.1082912135769
 31
0.0
  0
LINE
  5
AB
330
1F
100
AcDbEntity
  8
C-A
  6
Continuous
 62
     3
370
     9
100
AcDbLine
 10
-468.621131020623
 20
893.1073146510769
 30
0.0
 11
-468.621131020623
 21
499.1082912135769
 31
0.0
  0
LINE
  5
AC
330
1F
100
AcDbEntity
  8
C-A
  6
Continuous
 62
     3
370
     9
100
AcDbLine
 10
-489.6210776148612
 20
893.1073146510769
 30
0.0
 11
-489.6210776148612
 21
499.1082912135769
 31
0.0
  0
LINE
  5
AD
330
1F
100
AcDbEntity
  8
C-A
  6
Continuous
 62
     3
370
     9
100
AcDbLine
 10
-483.6209479151541
 20
893.1073146510769
 30
0.0
 11
-483.6209479151541
 21
499.1082912135769
 31
0.0
  0
LINE
  5
AE
330
1F
100
AcDbEntity
  8
C-A
  6
Continuous
 62
     3
370
     9
100
AcDbLine
 10
-504.620902138787
 20
893.1073146510769
 30
0.0
 11
-504.620902138787
 21
499.1082912135769
 31
0.0
  0
LINE
  5
AF
330
1F
100
AcDbEntity
  8
C-A
  6
Continuous
 62
     3
370
     9
100
AcDbLine
 10
-498.62077243908
 20
893.1073146510769
 30
0.0
 11
-498.62077243908
 21
499.1082912135769
 31
0.0
  0
LINE
  5
B0
330
1F
100
AcDbEntity
  8
C-A
  6
Continuous
 62
     3
370
     9
100
AcDbLine
 10
-519.6212149439629
 20
893.1073146510769
 30
0.0
 11
-519.6212149439629
 21
499.1082912135769
 31
0.0
  0
LINE
  5
B1
330
1F
100
AcDbEntity
  8
C-A
  6
Continuous
 62
     3
370
     9
100
AcDbLine
 10
-513.6210928736502
 20
893.1073146510769
 30
0.0
 11
-513.6210928736502
 21
499.1082912135769
 31
0.0
  0
LINE
  5
B2
330
1F
100
AcDbEntity
  8
C-5
  6
Continuous
 62
     7
370
     9
100
AcDbLine
 10
-425.9696875391776
 20
543.7408595729519
 30
0.0
 11
-225.9687567530449
 21
543.7408595729519
 31
0.0
  0
LINE
  5
B3
330
1F
100
AcDbEntity
  8
C-5
  6
Continuous
 62
     7
370
     9
100
AcDbLine
 10
-225.9687567530449
 20
543.7408595729519
 30
0.0
 11
-225.9687567530449
 21
633.5059352565454
 31
0.0
  0
LINE
  5
B4
330
1F
100
AcDbEntity
  8
C-5
  6
Continuous
 62
     7
370
     9
100
AcDbLine
 10
-225.9687567530449
 20
633.5059352565454
 30
0.0
 11
-205.9696417628103
 21
583.5061793971706
 31
0.0
  0
LINE
  5
B5
330
1F
100
AcDbEntity
  8
C-5
  6
Continuous
 62
     7
370
     9
100
AcDbLine
 10
-205.9696417628103
 20
583.5061793971706
 30
0.0
 11
-236.2358465967948
 21
583.5061793971706
 31
0.0
  0
LINE
  5
B6
330
1F
100
AcDbEntity
  8
C-A
  6
Continuous
 62
     3
370
     9
100
AcDbLine
 10
-379.121634560662
 20
496.1079707790066
 30
0.0
 11
-129.1214667139823
 21
746.1076503444363
 31
0.0
  0
LINE
  5
B7
330
1F
100
AcDbEntity
  8
C-A
  6
Continuous
 62
     3
370
     9
100
AcDbLine
 10
-144.6211920557792
 20
893.1073146510769
 30
0.0
 11
-144.6211920557792
 21
730.6078944850611
 31
0.0
  0
LINE
  5
B8
330
1F
100
AcDbEntity
  8
C-A
  6
Continuous
 62
     3
370
     9
100
AcDbLine
 10
-138.6210699854666
 20
893.1073146510769
 30
0.0
 11
-138.6210699854666
 21
736.6080165553738
 31
0.0
  0
LINE
  5
B9
330
1F
100
AcDbEntity
  8
C-A
  6
Continuous
 62
     3
370
     9
100
AcDbLine
 10
-159.6210394678886
 20
893.1073146510769
 30
0.0
 11
-159.6210394678886
 21
715.60807759053
 31
0.0
  0
LINE
  5
BA
330
1F
100
AcDbEntity
  8
C-A
  6
Continuous
 62
     3
370
     9
100
AcDbLine
 10
-153.620886879998
 20
893.1073146510769
 30
0.0
 11
-153.620886879998
 21
721.6081996608423
 31
0.0
  0
LINE
  5
BB
330
1F
100
AcDbEntity
  8
C-A
  6
Continuous
 62
     3
370
     9
100
AcDbLine
 10
-174.6213446436698
 20
893.1073146510769
 30
0.0
 11
-174.6213446436698
 21
700.6077724147488
 31
0.0
  0
LINE
  5
BC
330
1F
100
AcDbEntity
  8
C-A
  6
Continuous
 62
     3
370
     9
100
AcDbLine
 10
-168.6212225733573
 20
893.1073146510769
 30
0.0
 11
-168.6212225733573
 21
706.607894485061
 31
0.0
  0
LINE
  5
BD
330
1F
100
AcDbEntity
  8
C-A
  6
Continuous
 62
     3
370
     9
100
AcDbLine
 10
-189.6211615382011
 20
893.1073146510769
 30
0.0
 11
-189.6211615382011
 21
685.6081996608424
 31
0.0
  0
LINE
  5
BE
330
1F
100
AcDbEntity
  8
C-A
  6
Continuous
 62
     3
370
     9
100
AcDbLine
 10
-204.6214972315605
 20
893.1073146510769
 30
0.0
 11
-204.6214972315605
 21
670.6078639674831
 31
0.0
  0
LINE
  5
BF
330
1F
100
AcDbEntity
  8
C-A
  6
Continuous
 62
     3
370
     9
100
AcDbLine
 10
-198.6213446436699
 20
893.1073146510769
 30
0.0
 11
-198.6213446436699
 21
676.6079860377956
 31
0.0
  0
LINE
  5
C0
330
1F
100
AcDbEntity
  8
C-A
  6
Continuous
 62
     3
370
     9
100
AcDbLine
 10
-219.6213141260917
 20
893.1073146510769
 30
0.0
 11
-219.6213141260917
 21
655.6080470729518
 31
0.0
  0
LINE
  5
C1
330
1F
100
AcDbEntity
  8
C-A
  6
Continuous
 62
     3
370
     9
100
AcDbLine
 10
-213.6211920557793
 20
893.1073146510769
 30
0.0
 11
-213.6211920557793
 21
661.6081691432644
 31
0.0
  0
LINE
  5
C2
330
1F
100
AcDbEntity
  8
C-A
  6
Continuous
 62
     3
370
     9
100
AcDbLine
 10
-234.6211310206229
 20
893.1073146510769
 30
0.0
 11
-234.6211310206229
 21
640.6082301784206
 31
0.0
  0
LINE
  5
C3
330
1F
100
AcDbEntity
  8
C-A
  6
Continuous
 62
     3
370
     9
100
AcDbLine
 10
-228.6210089503103
 20
893.1073146510769
 30
0.0
 11
-228.6210089503103
 21
646.6083522487329
 31
0.0
  0
LINE
  5
C4
330
1F
100
AcDbEntity
  8
C-A
  6
Continuous
 62
     3
370
     9
100
AcDbLine
 10
-249.6209479151543
 20
893.1073146510769
 30
0.0
 11
-249.6209479151543
 21
625.6084132838894
 31
0.0
  0
LINE
  5
C5
330
1F
100
AcDbEntity
  8
C-A
  6
Continuous
 62
     3
370
     9
100
AcDbLine
 10
-243.6208258448417
 20
893.1073146510769
 30
0.0
 11
-243.6208258448417
 21
631.6085353542019
 31
0.0
  0
LINE
  5
C6
330
1F
100
AcDbEntity
  8
C-A
  6
Continuous
 62
     3
370
     9
100
AcDbLine
 10
-264.6207648096853
 20
893.1073146510769
 30
0.0
 11
-264.6207648096853
 21
610.60856587178
 31
0.0
  0
LINE
  5
C7
330
1F
100
AcDbEntity
  8
C-A
  6
Continuous
 62
     3
370
     9
100
AcDbLine
 10
-258.6206427393729
 20
893.1073146510769
 30
0.0
 11
-258.6206427393729
 21
616.6087184596705
 31
0.0
  0
LINE
  5
C8
330
1F
100
AcDbEntity
  8
C-A
  6
Continuous
 62
     3
370
     9
100
AcDbLine
 10
-279.6211005030449
 20
893.1073146510769
 30
0.0
 11
-279.6211005030449
 21
595.6082606959988
 31
0.0
  0
LINE
  5
C9
330
1F
100
AcDbEntity
  8
C-A
  6
Continuous
 62
     3
370
     9
100
AcDbLine
 10
-273.6209479151541
 20
893.1073146510769
 30
0.0
 11
-273.6209479151541
 21
601.6083827663113
 31
0.0
  0
LINE
  5
CA
330
1F
100
AcDbEntity
  8
C-A
  6
Continuous
 62
     3
370
     9
100
AcDbLine
 10
-294.620917397576
 20
893.1073146510769
 30
0.0
 11
-294.620917397576
 21
580.6084438014673
 31
0.0
  0
LINE
  5
CB
330
1F
100
AcDbEntity
  8
C-A
  6
Continuous
 62
     3
370
     9
100
AcDbLine
 10
-288.6207953272635
 20
893.1073146510769
 30
0.0
 11
-288.6207953272635
 21
586.6085658717799
 31
0.0
  0
LINE
  5
CC
330
1F
100
AcDbEntity
  8
C-A
  6
Continuous
 62
     3
370
     9
100
AcDbLine
 10
-309.6207342921073
 20
893.1073146510769
 30
0.0
 11
-309.6207342921073
 21
565.6086116481472
 31
0.0
  0
LINE
  5
CD
330
1F
100
AcDbEntity
  8
C-A
  6
Continuous
 62
     3
370
     9
100
AcDbLine
 10
-303.6206122217948
 20
893.1073146510769
 30
0.0
 11
-303.6206122217948
 21
571.6087489772488
 31
0.0
  0
LINE
  5
CE
330
1F
100
AcDbEntity
  8
C-A
  6
Continuous
 62
     3
370
     9
100
AcDbLine
 10
-324.6210394678886
 20
893.1073146510769
 30
0.0
 11
-324.6210394678886
 21
550.6085506129909
 31
0.0
  0
LINE
  5
CF
330
1F
100
AcDbEntity
  8
C-A
  6
Continuous
 62
     3
370
     9
100
AcDbLine
 10
-318.620917397576
 20
893.1073146510769
 30
0.0
 11
-318.620917397576
 21
556.6084285426782
 31
0.0
  0
LINE
  5
D0
330
1F
100
AcDbEntity
  8
C-A
  6
Continuous
 62
     3
370
     9
100
AcDbLine
 10
-339.620886879998
 20
893.1073146510769
 30
0.0
 11
-339.620886879998
 21
535.6087337184596
 31
0.0
  0
LINE
  5
D1
330
1F
100
AcDbEntity
  8
C-A
  6
Continuous
 62
     3
370
     9
100
AcDbLine
 10
-333.6207342921074
 20
893.1073146510769
 30
0.0
 11
-333.6207342921074
 21
541.6088557887722
 31
0.0
  0
LINE
  5
D2
330
1F
100
AcDbEntity
  8
C-A
  6
Continuous
 62
     3
370
     9
100
AcDbLine
 10
-354.6211920557792
 20
893.1073146510769
 30
0.0
 11
-354.6211920557792
 21
520.6084132838894
 31
0.0
  0
LINE
  5
D3
330
1F
100
AcDbEntity
  8
C-A
  6
Continuous
 62
     3
370
     9
100
AcDbLine
 10
-348.6210699854666
 20
893.1073146510769
 30
0.0
 11
-348.6210699854666
 21
526.6085353542019
 31
0.0
  0
LINE
  5
D4
330
1F
100
AcDbEntity
  8
C-A
  6
Continuous
 62
     3
370
     9
100
AcDbLine
 10
-369.6210089503104
 20
893.1073146510769
 30
0.0
 11
-369.6210089503104
 21
505.608581130569
 31
0.0
  0
LINE
  5
D5
330
1F
100
AcDbEntity
  8
C-A
  6
Continuous
 62
     3
370
     9
100
AcDbLine
 10
-363.620886879998
 20
893.1073146510769
 30
0.0
 11
-363.620886879998
 21
511.6087184596705
 31
0.0
  0
LINE
  5
D6
330
1F
100
AcDbEntity
  8
C-A
  6
Continuous
 62
     3
370
     9
100
AcDbLine
 10
-376.1210699854666
 20
499.1082912135769
 30
0.0
 11
-529.1213370142754
 21
499.1082912135769
 31
0.0
  0
LINE
  5
D7
330
1F
100
AcDbEntity
  8
C-A
  6
Continuous
 62
     6
370
     9
100
AcDbLine
 10
-519.121291237908
 20
887.2419582057646
 30
0.0
 11
-519.121291237908
 21
891.2413478542019
 31
0.0
  0
LINE
  5
D8
330
1F
100
AcDbEntity
  8
C-A
  6
Continuous
 62
     6
370
     9
100
AcDbLine
 10
-519.121291237908
 20
891.2413478542019
 30
0.0
 11
-514.1210165797049
 21
889.7420802760766
 31
0.0
  0
LINE
  5
D9
330
1F
100
AcDbEntity
  8
C-A
  6
Continuous
 62
     6
370
     9
100
AcDbLine
 10
-514.1210165797049
 20
888.7422023463896
 30
0.0
 11
-514.1210165797049
 21
889.7420802760766
 31
0.0
  0
LINE
  5
DA
330
1F
100
AcDbEntity
  8
C-A
  6
Continuous
 62
     6
370
     9
100
AcDbLine
 10
-514.1210165797049
 20
888.7422023463896
 30
0.0
 11
-519.121291237908
 21
887.2419582057646
 31
0.0
  0
LINE
  5
DB
330
1F
100
AcDbEntity
  8
C-A
  6
Continuous
 62
     6
370
     9
100
AcDbLine
 10
-513.6210928736502
 20
888.3696437526394
 30
0.0
 11
-519.6212149439629
 21
886.5700832057641
 31
0.0
  0
LINE
  5
DC
330
1F
100
AcDbEntity
  8
C-A
  6
Continuous
 62
     6
370
     9
100
AcDbLine
 10
-519.6212149439629
 20
891.9141994167021
 30
0.0
 11
-513.6210928736502
 21
890.1136623073271
 31
0.0
  0
LINE
  5
DD
330
1F
100
AcDbEntity
  8
C-A
  6
Continuous
 62
     6
370
     9
100
AcDbLine
 10
-519.121291237908
 20
866.2419582057644
 30
0.0
 11
-519.121291237908
 21
870.2414088893581
 31
0.0
  0
LINE
  5
DE
330
1F
100
AcDbEntity
  8
C-A
  6
Continuous
 62
     6
370
     9
100
AcDbLine
 10
-519.121291237908
 20
870.2414088893581
 30
0.0
 11
-514.1210165797049
 21
868.7421413112329
 31
0.0
  0
LINE
  5
DF
330
1F
100
AcDbEntity
  8
C-A
  6
Continuous
 62
     6
370
     9
100
AcDbLine
 10
-514.1210165797049
 20
867.7422633815454
 30
0.0
 11
-514.1210165797049
 21
868.7421413112329
 31
0.0
  0
LINE
  5
E0
330
1F
100
AcDbEntity
  8
C-A
  6
Continuous
 62
     6
370
     9
100
AcDbLine
 10
-514.1210165797049
 20
867.7422633815454
 30
0.0
 11
-519.121291237908
 21
866.2419582057644
 31
0.0
  0
LINE
  5
E1
330
1F
100
AcDbEntity
  8
C-A
  6
Continuous
 62
     6
370
     9
100
AcDbLine
 10
-513.6210928736502
 20
867.3696437526391
 30
0.0
 11
-519.6212149439629
 21
865.5701442409204
 31
0.0
  0
LINE
  5
E2
330
1F
100
AcDbEntity
  8
C-A
  6
Continuous
 62
     6
370
     9
100
AcDbLine
 10
-519.6212149439629
 20
870.9142604518579
 30
0.0
 11
-513.6210928736502
 21
869.1137233424829
 31
0.0
  0
LINE
  5
E3
330
1F
100
AcDbEntity
  8
C-A
  6
Continuous
 62
     6
370
     9
100
AcDbLine
 10
-514.1210165797049
 20
876.7419582057644
 30
0.0
 11
-514.1210165797049
 21
880.7414088893584
 31
0.0
  0
LINE
  5
E4
330
1F
100
AcDbEntity
  8
C-A
  6
Continuous
 62
     6
370
     9
100
AcDbLine
 10
-514.1210165797049
 20
880.7414088893584
 30
0.0
 11
-519.121291237908
 21
879.2420802760771
 31
0.0
  0
LINE
  5
E5
330
1F
100
AcDbEntity
  8
C-A
  6
Continuous
 62
     6
370
     9
100
AcDbLine
 10
-519.121291237908
 20
878.2422633815454
 30
0.0
 11
-519.121291237908
 21
879.2420802760771
 31
0.0
  0
LINE
  5
E6
330
1F
100
AcDbEntity
  8
C-A
  6
Continuous
 62
     6
370
     9
100
AcDbLine
 10
-519.121291237908
 20
878.2422633815454
 30
0.0
 11
-514.1210165797049
 21
876.7419582057644
 31
0.0
  0
LINE
  5
E7
330
1F
100
AcDbEntity
  8
C-A
  6
Continuous
 62
     6
370
     9
100
AcDbLine
 10
-519.6212149439629
 20
877.8696437526391
 30
0.0
 11
-513.6210928736502
 21
876.0700832057646
 31
0.0
  0
LINE
  5
E8
330
1F
100
AcDbEntity
  8
C-A
  6
Continuous
 62
     6
370
     9
100
AcDbLine
 10
-513.6210928736502
 20
881.4142604518579
 30
0.0
 11
-519.6212149439629
 21
879.6137233424829
 31
0.0
  0
LINE
  5
E9
330
1F
100
AcDbEntity
  8
C-A
  6
Continuous
 62
     6
370
     9
100
AcDbLine
 10
-519.121291237908
 20
845.2420192409206
 30
0.0
 11
-519.121291237908
 21
849.2414699245146
 31
0.0
  0
LINE
  5
EA
330
1F
100
AcDbEntity
  8
C-A
  6
Continuous
 62
     6
370
     9
100
AcDbLine
 10
-519.121291237908
 20
849.2414699245146
 30
0.0
 11
-514.1210165797049
 21
847.7422023463894
 31
0.0
  0
LINE
  5
EB
330
1F
100
AcDbEntity
  8
C-A
  6
Continuous
 62
     6
370
     9
100
AcDbLine
 10
-514.1210165797049
 20
846.7423244167016
 30
0.0
 11
-514.1210165797049
 21
847.7422023463894
 31
0.0
  0
LINE
  5
EC
330
1F
100
AcDbEntity
  8
C-A
  6
Continuous
 62
     6
370
     9
100
AcDbLine
 10
-514.1210165797049
 20
846.7423244167016
 30
0.0
 11
-519.121291237908
 21
845.2420192409206
 31
0.0
  0
LINE
  5
ED
330
1F
100
AcDbEntity
  8
C-A
  6
Continuous
 62
     6
370
     9
100
AcDbLine
 10
-513.6210928736502
 20
846.3697047877954
 30
0.0
 11
-519.6212149439629
 21
844.5702052760769
 31
0.0
  0
LINE
  5
EE
330
1F
100
AcDbEntity
  8
C-A
  6
Continuous
 62
     6
370
     9
100
AcDbLine
 10
-519.6212149439629
 20
849.9143214870141
 30
0.0
 11
-513.6210928736502
 21
848.1137843776391
 31
0.0
  0
LINE
  5
EF
330
1F
100
AcDbEntity
  8
C-A
  6
Continuous
 62
     6
370
     9
100
AcDbLine
 10
-514.1210165797049
 20
855.7420192409209
 30
0.0
 11
-514.1210165797049
 21
859.7414088893581
 31
0.0
  0
LINE
  5
F0
330
1F
100
AcDbEntity
  8
C-A
  6
Continuous
 62
     6
370
     9
100
AcDbLine
 10
-514.1210165797049
 20
859.7414088893581
 30
0.0
 11
-519.121291237908
 21
858.2421413112329
 31
0.0
  0
LINE
  5
F1
330
1F
100
AcDbEntity
  8
C-A
  6
Continuous
 62
     6
370
     9
100
AcDbLine
 10
-519.121291237908
 20
857.2422633815459
 30
0.0
 11
-519.121291237908
 21
858.2421413112329
 31
0.0
  0
LINE
  5
F2
330
1F
100
AcDbEntity
  8
C-A
  6
Continuous
 62
     6
370
     9
100
AcDbLine
 10
-519.121291237908
 20
857.2422633815459
 30
0.0
 11
-514.1210165797049
 21
855.7420192409209
 31
0.0
  0
LINE
  5
F3
330
1F
100
AcDbEntity
  8
C-A
  6
Continuous
 62
     6
370
     9
100
AcDbLine
 10
-519.6212149439629
 20
856.8697047877956
 30
0.0
 11
-513.6210928736502
 21
855.0701442409204
 31
0.0
  0
LINE
  5
F4
330
1F
100
AcDbEntity
  8
C-A
  6
Continuous
 62
     6
370
     9
100
AcDbLine
 10
-513.6210928736502
 20
860.4142604518584
 30
0.0
 11
-519.6212149439629
 21
858.6137233424834
 31
0.0
  0
LINE
  5
F5
330
1F
100
AcDbEntity
  8
C-A
  6
Continuous
 62
     6
370
     9
100
AcDbLine
 10
-519.121291237908
 20
824.2420802760771
 30
0.0
 11
-519.121291237908
 21
828.2415004420923
 31
0.0
  0
LINE
  5
F6
330
1F
100
AcDbEntity
  8
C-A
  6
Continuous
 62
     6
370
     9
100
AcDbLine
 10
-519.121291237908
 20
828.2415004420923
 30
0.0
 11
-514.1210165797049
 21
826.7422328639677
 31
0.0
  0
LINE
  5
F7
330
1F
100
AcDbEntity
  8
C-A
  6
Continuous
 62
     6
370
     9
100
AcDbLine
 10
-514.1210165797049
 20
825.74235493428
 30
0.0
 11
-514.1210165797049
 21
826.7422328639677
 31
0.0
  0
LINE
  5
F8
330
1F
100
AcDbEntity
  8
C-A
  6
Continuous
 62
     6
370
     9
100
AcDbLine
 10
-514.1210165797049
 20
825.74235493428
 30
0.0
 11
-519.121291237908
 21
824.2420802760771
 31
0.0
  0
LINE
  5
F9
330
1F
100
AcDbEntity
  8
C-A
  6
Continuous
 62
     6
370
     9
100
AcDbLine
 10
-513.6210928736502
 20
825.3697658229519
 30
0.0
 11
-519.6212149439629
 21
823.5702357936552
 31
0.0
  0
LINE
  5
FA
330
1F
100
AcDbEntity
  8
C-A
  6
Continuous
 62
     6
370
     9
100
AcDbLine
 10
-519.6212149439629
 20
828.9143520045925
 30
0.0
 11
-513.6210928736502
 21
827.1138148952175
 31
0.0
  0
LINE
  5
FB
330
1F
100
AcDbEntity
  8
C-A
  6
Continuous
 62
     6
370
     9
100
AcDbLine
 10
-514.1210165797049
 20
834.7420497584985
 30
0.0
 11
-514.1210165797049
 21
838.7414699245144
 31
0.0
  0
LINE
  5
FC
330
1F
100
AcDbEntity
  8
C-A
  6
Continuous
 62
     6
370
     9
100
AcDbLine
 10
-514.1210165797049
 20
838.7414699245144
 30
0.0
 11
-519.121291237908
 21
837.2422023463891
 31
0.0
  0
LINE
  5
FD
330
1F
100
AcDbEntity
  8
C-A
  6
Continuous
 62
     6
370
     9
100
AcDbLine
 10
-519.121291237908
 20
836.2423244167016
 30
0.0
 11
-519.121291237908
 21
837.2422023463891
 31
0.0
  0
LINE
  5
FE
330
1F
100
AcDbEntity
  8
C-A
  6
Continuous
 62
     6
370
     9
100
AcDbLine
 10
-519.121291237908
 20
836.2423244167016
 30
0.0
 11
-514.1210165797049
 21
834.7420497584985
 31
0.0
  0
LINE
  5
FF
330
1F
100
AcDbEntity
  8
C-A
  6
Continuous
 62
     6
370
     9
100
AcDbLine
 10
-519.6212149439629
 20
835.8697658229519
 30
0.0
 11
-513.6210928736502
 21
834.0702052760766
 31
0.0
  0
LINE
  5
100
330
1F
100
AcDbEntity
  8
C-A
  6
Continuous
 62
     6
370
     9
100
AcDbLine
 10
-513.6210928736502
 20
839.4143214870141
 30
0.0
 11
-519.6212149439629
 21
837.6137843776391
 31
0.0
  0
LINE
  5
101
330
1F
100
AcDbEntity
  8
C-A
  6
Continuous
 62
     6
370
     9
100
AcDbLine
 10
-519.121291237908
 20
803.2421413112329
 30
0.0
 11
-519.121291237908
 21
807.2415614772488
 31
0.0
  0
LINE
  5
102
330
1F
100
AcDbEntity
  8
C-A
  6
Continuous
 62
     6
370
     9
100
AcDbLine
 10
-519.121291237908
 20
807.2415614772488
 30
0.0
 11
-514.1210165797049
 21
805.7422633815454
 31
0.0
  0
LINE
  5
103
330
1F
100
AcDbEntity
  8
C-A
  6
Continuous
 62
     6
370
     9
100
AcDbLine
 10
-514.1210165797049
 20
804.7424159694365
 30
0.0
 11
-514.1210165797049
 21
805.7422633815454
 31
0.0
  0
LINE
  5
104
330
1F
100
AcDbEntity
  8
C-A
  6
Continuous
 62
     6
370
     9
100
AcDbLine
 10
-514.1210165797049
 20
804.7424159694365
 30
0.0
 11
-519.121291237908
 21
803.2421413112329
 31
0.0
  0
LINE
  5
105
330
1F
100
AcDbEntity
  8
C-A
  6
Continuous
 62
     6
370
     9
100
AcDbLine
 10
-513.6210928736502
 20
804.3698268581081
 30
0.0
 11
-519.6212149439629
 21
802.570296828811
 31
0.0
  0
LINE
  5
106
330
1F
100
AcDbEntity
  8
C-A
  6
Continuous
 62
     6
370
     9
100
AcDbLine
 10
-519.6212149439629
 20
807.914413039749
 30
0.0
 11
-513.6210928736502
 21
806.113875930374
 31
0.0
  0
LINE
  5
107
330
1F
100
AcDbEntity
  8
C-A
  6
Continuous
 62
     6
370
     9
100
AcDbLine
 10
-514.1210165797049
 20
813.742110793655
 30
0.0
 11
-514.1210165797049
 21
817.7415309596709
 31
0.0
  0
LINE
  5
108
330
1F
100
AcDbEntity
  8
C-A
  6
Continuous
 62
     6
370
     9
100
AcDbLine
 10
-514.1210165797049
 20
817.7415309596709
 30
0.0
 11
-519.121291237908
 21
816.2422633815456
 31
0.0
  0
LINE
  5
109
330
1F
100
AcDbEntity
  8
C-A
  6
Continuous
 62
     6
370
     9
100
AcDbLine
 10
-519.121291237908
 20
815.2423854518579
 30
0.0
 11
-519.121291237908
 21
816.2422633815456
 31
0.0
  0
LINE
  5
10A
330
1F
100
AcDbEntity
  8
C-A
  6
Continuous
 62
     6
370
     9
100
AcDbLine
 10
-519.121291237908
 20
815.2423854518579
 30
0.0
 11
-514.1210165797049
 21
813.742110793655
 31
0.0
  0
LINE
  5
10B
330
1F
100
AcDbEntity
  8
C-A
  6
Continuous
 62
     6
370
     9
100
AcDbLine
 10
-519.6212149439629
 20
814.8697963405298
 30
0.0
 11
-513.6210928736502
 21
813.0702663112331
 31
0.0
  0
LINE
  5
10C
330
1F
100
AcDbEntity
  8
C-A
  6
Continuous
 62
     6
370
     9
100
AcDbLine
 10
-513.6210928736502
 20
818.4143825221704
 30
0.0
 11
-519.6212149439629
 21
816.6138454127954
 31
0.0
  0
LINE
  5
10D
330
1F
100
AcDbEntity
  8
C-A
  6
Continuous
 62
     6
370
     9
100
AcDbLine
 10
-504.1209708033378
 20
872.7791896510766
 30
0.0
 11
-504.1209708033378
 21
876.7796168971709
 31
0.0
  0
LINE
  5
10E
330
1F
100
AcDbEntity
  8
C-A
  6
Continuous
 62
     6
370
     9
100
AcDbLine
 10
-504.1209708033378
 20
876.7796168971709
 30
0.0
 11
-499.1211920557793
 21
875.2793117213891
 31
0.0
  0
LINE
  5
10F
330
1F
100
AcDbEntity
  8
C-A
  6
Continuous
 62
     6
370
     9
100
AcDbLine
 10
-499.1211920557793
 20
874.2794948268581
 30
0.0
 11
-499.1211920557793
 21
875.2793117213891
 31
0.0
  0
LINE
  5
110
330
1F
100
AcDbEntity
  8
C-A
  6
Continuous
 62
     6
370
     9
100
AcDbLine
 10
-499.1211920557793
 20
874.2794948268581
 30
0.0
 11
-504.1209708033378
 21
872.7791896510766
 31
0.0
  0
LINE
  5
111
330
1F
100
AcDbEntity
  8
C-A
  6
Continuous
 62
     6
370
     9
100
AcDbLine
 10
-498.6212683497246
 20
873.9078517604516
 30
0.0
 11
-504.620902138787
 21
872.1073756862334
 31
0.0
  0
LINE
  5
112
330
1F
100
AcDbEntity
  8
C-A
  6
Continuous
 62
     6
370
     9
100
AcDbLine
 10
-504.620902138787
 20
877.4514918971706
 30
0.0
 11
-498.6212683497246
 21
875.6519313502954
 31
0.0
  0
LINE
  5
113
330
1F
100
AcDbEntity
  8
C-A
  6
Continuous
 62
     6
370
     9
100
AcDbLine
 10
-499.1211920557793
 20
883.2791896510766
 30
0.0
 11
-499.1211920557793
 21
887.2796168971704
 31
0.0
  0
LINE
  5
114
330
1F
100
AcDbEntity
  8
C-A
  6
Continuous
 62
     6
370
     9
100
AcDbLine
 10
-499.1211920557793
 20
887.2796168971704
 30
0.0
 11
-504.1209708033378
 21
885.7793117213894
 31
0.0
  0
LINE
  5
115
330
1F
100
AcDbEntity
  8
C-A
  6
Continuous
 62
     6
370
     9
100
AcDbLine
 10
-504.1209708033378
 20
884.7794337917016
 30
0.0
 11
-504.1209708033378
 21
885.7793117213894
 31
0.0
  0
LINE
  5
116
330
1F
100
AcDbEntity
  8
C-A
  6
Continuous
 62
     6
370
     9
100
AcDbLine
 10
-504.1209708033378
 20
884.7794337917016
 30
0.0
 11
-499.1211920557793
 21
883.2791896510766
 31
0.0
  0
LINE
  5
117
330
1F
100
AcDbEntity
  8
C-A
  6
Continuous
 62
     6
370
     9
100
AcDbLine
 10
-504.620902138787
 20
884.4078517604519
 30
0.0
 11
-498.6212683497246
 21
882.6073146510769
 31
0.0
  0
LINE
  5
118
330
1F
100
AcDbEntity
  8
C-A
  6
Continuous
 62
     6
370
     9
100
AcDbLine
 10
-498.6212683497246
 20
887.9514308620141
 30
0.0
 11
-504.620902138787
 21
886.1519313502956
 31
0.0
  0
LINE
  5
119
330
1F
100
AcDbEntity
  8
C-A
  6
Continuous
 62
     6
370
     9
100
AcDbLine
 10
-504.1209708033378
 20
851.7792506862329
 30
0.0
 11
-504.1209708033378
 21
855.7796779323266
 31
0.0
  0
LINE
  5
11A
330
1F
100
AcDbEntity
  8
C-A
  6
Continuous
 62
     6
370
     9
100
AcDbLine
 10
-504.1209708033378
 20
855.7796779323266
 30
0.0
 11
-499.1211920557793
 21
854.2793727565456
 31
0.0
  0
LINE
  5
11B
330
1F
100
AcDbEntity
  8
C-A
  6
Continuous
 62
     6
370
     9
100
AcDbLine
 10
-499.1211920557793
 20
853.2795558620146
 30
0.0
 11
-499.1211920557793
 21
854.2793727565456
 31
0.0
  0
LINE
  5
11C
330
1F
100
AcDbEntity
  8
C-A
  6
Continuous
 62
     6
370
     9
100
AcDbLine
 10
-499.1211920557793
 20
853.2795558620146
 30
0.0
 11
-504.1209708033378
 21
851.7792506862329
 31
0.0
  0
LINE
  5
11D
330
1F
100
AcDbEntity
  8
C-A
  6
Continuous
 62
     6
370
     9
100
AcDbLine
 10
-498.6212683497246
 20
852.9079127956081
 30
0.0
 11
-504.620902138787
 21
851.1073756862331
 31
0.0
  0
LINE
  5
11E
330
1F
100
AcDbEntity
  8
C-A
  6
Continuous
 62
     6
370
     9
100
AcDbLine
 10
-504.620902138787
 20
856.4515529323271
 30
0.0
 11
-498.6212683497246
 21
854.6519923854519
 31
0.0
  0
LINE
  5
11F
330
1F
100
AcDbEntity
  8
C-A
  6
Continuous
 62
     6
370
     9
100
AcDbLine
 10
-499.1211920557793
 20
862.2792506862331
 30
0.0
 11
-499.1211920557793
 21
866.2796168971706
 31
0.0
  0
LINE
  5
120
330
1F
100
AcDbEntity
  8
C-A
  6
Continuous
 62
     6
370
     9
100
AcDbLine
 10
-499.1211920557793
 20
866.2796168971706
 30
0.0
 11
-504.1209708033378
 21
864.7793727565456
 31
0.0
  0
LINE
  5
121
330
1F
100
AcDbEntity
  8
C-A
  6
Continuous
 62
     6
370
     9
100
AcDbLine
 10
-504.1209708033378
 20
863.7794948268581
 30
0.0
 11
-504.1209708033378
 21
864.7793727565456
 31
0.0
  0
LINE
  5
122
330
1F
100
AcDbEntity
  8
C-A
  6
Continuous
 62
     6
370
     9
100
AcDbLine
 10
-504.1209708033378
 20
863.7794948268581
 30
0.0
 11
-499.1211920557793
 21
862.2792506862331
 31
0.0
  0
LINE
  5
123
330
1F
100
AcDbEntity
  8
C-A
  6
Continuous
 62
     6
370
     9
100
AcDbLine
 10
-504.620902138787
 20
863.4079127956081
 30
0.0
 11
-498.6212683497246
 21
861.6073756862331
 31
0.0
  0
LINE
  5
124
330
1F
100
AcDbEntity
  8
C-A
  6
Continuous
 62
     6
370
     9
100
AcDbLine
 10
-498.6212683497246
 20
866.9514918971706
 30
0.0
 11
-504.620902138787
 21
865.1519313502954
 31
0.0
  0
LINE
  5
125
330
1F
100
AcDbEntity
  8
C-A
  6
Continuous
 62
     6
370
     9
100
AcDbLine
 10
-504.1209708033378
 20
830.7793117213894
 30
0.0
 11
-504.1209708033378
 21
834.779708449905
 31
0.0
  0
LINE
  5
126
330
1F
100
AcDbEntity
  8
C-A
  6
Continuous
 62
     6
370
     9
100
AcDbLine
 10
-504.1209708033378
 20
834.779708449905
 30
0.0
 11
-499.1211920557793
 21
833.2794337917019
 31
0.0
  0
LINE
  5
127
330
1F
100
AcDbEntity
  8
C-A
  6
Continuous
 62
     6
370
     9
100
AcDbLine
 10
-499.1211920557793
 20
832.2795863795923
 30
0.0
 11
-499.1211920557793
 21
833.2794337917019
 31
0.0
  0
LINE
  5
128
330
1F
100
AcDbEntity
  8
C-A
  6
Continuous
 62
     6
370
     9
100
AcDbLine
 10
-499.1211920557793
 20
832.2795863795923
 30
0.0
 11
-504.1209708033378
 21
830.7793117213894
 31
0.0
  0
LINE
  5
129
330
1F
100
AcDbEntity
  8
C-A
  6
Continuous
 62
     6
370
     9
100
AcDbLine
 10
-498.6212683497246
 20
831.9079738307644
 30
0.0
 11
-504.620902138787
 21
830.1074367213894
 31
0.0
  0
LINE
  5
12A
330
1F
100
AcDbEntity
  8
C-A
  6
Continuous
 62
     6
370
     9
100
AcDbLine
 10
-504.620902138787
 20
835.4515529323269
 30
0.0
 11
-498.6212683497246
 21
833.6520229030302
 31
0.0
  0
LINE
  5
12B
330
1F
100
AcDbEntity
  8
C-A
  6
Continuous
 62
     6
370
     9
100
AcDbLine
 10
-499.1211920557793
 20
841.2792506862329
 30
0.0
 11
-499.1211920557793
 21
845.2796779323271
 31
0.0
  0
LINE
  5
12C
330
1F
100
AcDbEntity
  8
C-A
  6
Continuous
 62
     6
370
     9
100
AcDbLine
 10
-499.1211920557793
 20
845.2796779323271
 30
0.0
 11
-504.1209708033378
 21
843.7794337917021
 31
0.0
  0
LINE
  5
12D
330
1F
100
AcDbEntity
  8
C-A
  6
Continuous
 62
     6
370
     9
100
AcDbLine
 10
-504.1209708033378
 20
842.7795558620144
 30
0.0
 11
-504.1209708033378
 21
843.7794337917021
 31
0.0
  0
LINE
  5
12E
330
1F
100
AcDbEntity
  8
C-A
  6
Continuous
 62
     6
370
     9
100
AcDbLine
 10
-504.1209708033378
 20
842.7795558620144
 30
0.0
 11
-499.1211920557793
 21
841.2792506862329
 31
0.0
  0
LINE
  5
12F
330
1F
100
AcDbEntity
  8
C-A
  6
Continuous
 62
     6
370
     9
100
AcDbLine
 10
-504.620902138787
 20
842.4079738307646
 30
0.0
 11
-498.6212683497246
 21
840.6074367213896
 31
0.0
  0
LINE
  5
130
330
1F
100
AcDbEntity
  8
C-A
  6
Continuous
 62
     6
370
     9
100
AcDbLine
 10
-498.6212683497246
 20
845.9515529323269
 30
0.0
 11
-504.620902138787
 21
844.1519923854516
 31
0.0
  0
LINE
  5
131
330
1F
100
AcDbEntity
  8
C-A
  6
Continuous
 62
     6
370
     9
100
AcDbLine
 10
-499.1211920557793
 20
820.2793422389673
 30
0.0
 11
-499.1211920557793
 21
824.2797389674829
 31
0.0
  0
LINE
  5
132
330
1F
100
AcDbEntity
  8
C-A
  6
Continuous
 62
     6
370
     9
100
AcDbLine
 10
-499.1211920557793
 20
824.2797389674829
 30
0.0
 11
-504.1209708033378
 21
822.7794643092798
 31
0.0
  0
LINE
  5
133
330
1F
100
AcDbEntity
  8
C-A
  6
Continuous
 62
     6
370
     9
100
AcDbLine
 10
-504.1209708033378
 20
821.7796168971709
 30
0.0
 11
-504.1209708033378
 21
822.7794643092798
 31
0.0
  0
LINE
  5
134
330
1F
100
AcDbEntity
  8
C-A
  6
Continuous
 62
     6
370
     9
100
AcDbLine
 10
-504.1209708033378
 20
821.7796168971709
 30
0.0
 11
-499.1211920557793
 21
820.2793422389673
 31
0.0
  0
LINE
  5
135
330
1F
100
AcDbEntity
  8
C-A
  6
Continuous
 62
     6
370
     9
100
AcDbLine
 10
-504.620902138787
 20
821.4080043483423
 30
0.0
 11
-498.6212683497246
 21
819.6074672389673
 31
0.0
  0
LINE
  5
136
330
1F
100
AcDbEntity
  8
C-A
  6
Continuous
 62
     6
370
     9
100
AcDbLine
 10
-498.6212683497246
 20
824.9516139674834
 30
0.0
 11
-504.620902138787
 21
823.1520534206081
 31
0.0
  0
LINE
  5
137
330
1F
100
AcDbEntity
  8
C-A
  6
Continuous
 62
     6
370
     9
100
AcDbLine
 10
-489.1211462794121
 20
885.8516383815456
 30
0.0
 11
-489.1211462794121
 21
889.8510890651394
 31
0.0
  0
LINE
  5
138
330
1F
100
AcDbEntity
  8
C-A
  6
Continuous
 62
     6
370
     9
100
AcDbLine
 10
-489.1211462794121
 20
889.8510890651394
 30
0.0
 11
-484.121375161248
 21
888.3517604518581
 31
0.0
  0
LINE
  5
139
330
1F
100
AcDbEntity
  8
C-A
  6
Continuous
 62
     6
370
     9
100
AcDbLine
 10
-484.121375161248
 20
887.3519435573266
 30
0.0
 11
-484.121375161248
 21
888.3517604518581
 31
0.0
  0
LINE
  5
13A
330
1F
100
AcDbEntity
  8
C-A
  6
Continuous
 62
     6
370
     9
100
AcDbLine
 10
-484.121375161248
 20
887.3519435573266
 30
0.0
 11
-489.1211462794121
 21
885.8516383815456
 31
0.0
  0
LINE
  5
13B
330
1F
100
AcDbEntity
  8
C-A
  6
Continuous
 62
     6
370
     9
100
AcDbLine
 10
-483.6209479151541
 20
886.9793239284204
 30
0.0
 11
-489.6210776148612
 21
885.1798244167016
 31
0.0
  0
LINE
  5
13C
330
1F
100
AcDbEntity
  8
C-A
  6
Continuous
 62
     6
370
     9
100
AcDbLine
 10
-489.6210776148612
 20
890.5239406276391
 30
0.0
 11
-483.6209479151541
 21
888.7234035182641
 31
0.0
  0
LINE
  5
13D
330
1F
100
AcDbEntity
  8
C-A
  6
Continuous
 62
     6
370
     9
100
AcDbLine
 10
-489.1211462794121
 20
864.8516994167019
 30
0.0
 11
-489.1211462794121
 21
868.8511501002959
 31
0.0
  0
LINE
  5
13E
330
1F
100
AcDbEntity
  8
C-A
  6
Continuous
 62
     6
370
     9
100
AcDbLine
 10
-489.1211462794121
 20
868.8511501002959
 30
0.0
 11
-484.121375161248
 21
867.3518214870146
 31
0.0
  0
LINE
  5
13F
330
1F
100
AcDbEntity
  8
C-A
  6
Continuous
 62
     6
370
     9
100
AcDbLine
 10
-484.121375161248
 20
866.3520045924829
 30
0.0
 11
-484.121375161248
 21
867.3518214870146
 31
0.0
  0
LINE
  5
140
330
1F
100
AcDbEntity
  8
C-A
  6
Continuous
 62
     6
370
     9
100
AcDbLine
 10
-484.121375161248
 20
866.3520045924829
 30
0.0
 11
-489.1211462794121
 21
864.8516994167019
 31
0.0
  0
LINE
  5
141
330
1F
100
AcDbEntity
  8
C-A
  6
Continuous
 62
     6
370
     9
100
AcDbLine
 10
-483.6209479151541
 20
865.9793849635766
 30
0.0
 11
-489.6210776148612
 21
864.1798244167021
 31
0.0
  0
LINE
  5
142
330
1F
100
AcDbEntity
  8
C-A
  6
Continuous
 62
     6
370
     9
100
AcDbLine
 10
-489.6210776148612
 20
869.5240016627954
 30
0.0
 11
-483.6209479151541
 21
867.7234645534204
 31
0.0
  0
LINE
  5
143
330
1F
100
AcDbEntity
  8
C-A
  6
Continuous
 62
     6
370
     9
100
AcDbLine
 10
-484.121375161248
 20
875.3516994167021
 30
0.0
 11
-484.121375161248
 21
879.3510890651394
 31
0.0
  0
LINE
  5
144
330
1F
100
AcDbEntity
  8
C-A
  6
Continuous
 62
     6
370
     9
100
AcDbLine
 10
-484.121375161248
 20
879.3510890651394
 30
0.0
 11
-489.1211462794121
 21
877.8518214870141
 31
0.0
  0
LINE
  5
145
330
1F
100
AcDbEntity
  8
C-A
  6
Continuous
 62
     6
370
     9
100
AcDbLine
 10
-489.1211462794121
 20
876.8519435573271
 30
0.0
 11
-489.1211462794121
 21
877.8518214870141
 31
0.0
  0
LINE
  5
146
330
1F
100
AcDbEntity
  8
C-A
  6
Continuous
 62
     6
370
     9
100
AcDbLine
 10
-489.1211462794121
 20
876.8519435573271
 30
0.0
 11
-484.121375161248
 21
875.3516994167021
 31
0.0
  0
LINE
  5
147
330
1F
100
AcDbEntity
  8
C-A
  6
Continuous
 62
     6
370
     9
100
AcDbLine
 10
-489.6210776148612
 20
876.4793849635769
 30
0.0
 11
-483.6209479151541
 21
874.6798244167016
 31
0.0
  0
LINE
  5
148
330
1F
100
AcDbEntity
  8
C-A
  6
Continuous
 62
     6
370
     9
100
AcDbLine
 10
-483.6209479151541
 20
880.0239406276396
 30
0.0
 11
-489.6210776148612
 21
878.2234035182646
 31
0.0
  0
LINE
  5
149
330
1F
100
AcDbEntity
  8
C-A
  6
Continuous
 62
     6
370
     9
100
AcDbLine
 10
-489.1211462794121
 20
843.8517604518584
 30
0.0
 11
-489.1211462794121
 21
847.8511501002956
 31
0.0
  0
LINE
  5
14A
330
1F
100
AcDbEntity
  8
C-A
  6
Continuous
 62
     6
370
     9
100
AcDbLine
 10
-489.1211462794121
 20
847.8511501002956
 30
0.0
 11
-484.121375161248
 21
846.3518825221704
 31
0.0
  0
LINE
  5
14B
330
1F
100
AcDbEntity
  8
C-A
  6
Continuous
 62
     6
370
     9
100
AcDbLine
 10
-484.121375161248
 20
845.3520045924834
 30
0.0
 11
-484.121375161248
 21
846.3518825221704
 31
0.0
  0
LINE
  5
14C
330
1F
100
AcDbEntity
  8
C-A
  6
Continuous
 62
     6
370
     9
100
AcDbLine
 10
-484.121375161248
 20
845.3520045924834
 30
0.0
 11
-489.1211462794121
 21
843.8517604518584
 31
0.0
  0
LINE
  5
14D
330
1F
100
AcDbEntity
  8
C-A
  6
Continuous
 62
     6
370
     9
100
AcDbLine
 10
-483.6209479151541
 20
844.9794459987331
 30
0.0
 11
-489.6210776148612
 21
843.1798854518579
 31
0.0
  0
LINE
  5
14E
330
1F
100
AcDbEntity
  8
C-A
  6
Continuous
 62
     6
370
     9
100
AcDbLine
 10
-489.6210776148612
 20
848.5240016627959
 30
0.0
 11
-483.6209479151541
 21
846.7234645534209
 31
0.0
  0
LINE
  5
14F
330
1F
100
AcDbEntity
  8
C-A
  6
Continuous
 62
     6
370
     9
100
AcDbLine
 10
-484.121375161248
 20
854.3516994167019
 30
0.0
 11
-484.121375161248
 21
858.3511501002956
 31
0.0
  0
LINE
  5
150
330
1F
100
AcDbEntity
  8
C-A
  6
Continuous
 62
     6
370
     9
100
AcDbLine
 10
-484.121375161248
 20
858.3511501002956
 30
0.0
 11
-489.1211462794121
 21
856.8518825221704
 31
0.0
  0
LINE
  5
151
330
1F
100
AcDbEntity
  8
C-A
  6
Continuous
 62
     6
370
     9
100
AcDbLine
 10
-489.1211462794121
 20
855.8520045924829
 30
0.0
 11
-489.1211462794121
 21
856.8518825221704
 31
0.0
  0
LINE
  5
152
330
1F
100
AcDbEntity
  8
C-A
  6
Continuous
 62
     6
370
     9
100
AcDbLine
 10
-489.1211462794121
 20
855.8520045924829
 30
0.0
 11
-484.121375161248
 21
854.3516994167019
 31
0.0
  0
LINE
  5
153
330
1F
100
AcDbEntity
  8
C-A
  6
Continuous
 62
     6
370
     9
100
AcDbLine
 10
-489.6210776148612
 20
855.4793849635766
 30
0.0
 11
-483.6209479151541
 21
853.6798854518579
 31
0.0
  0
LINE
  5
154
330
1F
100
AcDbEntity
  8
C-A
  6
Continuous
 62
     6
370
     9
100
AcDbLine
 10
-483.6209479151541
 20
859.0240016627954
 30
0.0
 11
-489.6210776148612
 21
857.2234645534204
 31
0.0
  0
LINE
  5
155
330
1F
100
AcDbEntity
  8
C-A
  6
Continuous
 62
     6
370
     9
100
AcDbLine
 10
-484.121375161248
 20
833.3517909694363
 30
0.0
 11
-484.121375161248
 21
837.3512111354521
 31
0.0
  0
LINE
  5
156
330
1F
100
AcDbEntity
  8
C-A
  6
Continuous
 62
     6
370
     9
100
AcDbLine
 10
-484.121375161248
 20
837.3512111354521
 30
0.0
 11
-489.1211462794121
 21
835.8519435573269
 31
0.0
  0
LINE
  5
157
330
1F
100
AcDbEntity
  8
C-A
  6
Continuous
 62
     6
370
     9
100
AcDbLine
 10
-489.1211462794121
 20
834.8520656276391
 30
0.0
 11
-489.1211462794121
 21
835.8519435573269
 31
0.0
  0
LINE
  5
158
330
1F
100
AcDbEntity
  8
C-A
  6
Continuous
 62
     6
370
     9
100
AcDbLine
 10
-489.1211462794121
 20
834.8520656276391
 30
0.0
 11
-484.121375161248
 21
833.3517909694363
 31
0.0
  0
LINE
  5
159
330
1F
100
AcDbEntity
  8
C-A
  6
Continuous
 62
     6
370
     9
100
AcDbLine
 10
-489.6210776148612
 20
834.479476516311
 30
0.0
 11
-483.6209479151541
 21
832.6799159694363
 31
0.0
  0
LINE
  5
15A
330
1F
100
AcDbEntity
  8
C-A
  6
Continuous
 62
     6
370
     9
100
AcDbLine
 10
-483.6209479151541
 20
838.0240626979516
 30
0.0
 11
-489.6210776148612
 21
836.2235255885766
 31
0.0
  0
LINE
  5
15B
330
1F
100
AcDbEntity
  8
C-A
  6
Continuous
 62
     6
370
     9
100
AcDbLine
 10
-474.1208258448416
 20
875.9898219752959
 30
0.0
 11
-474.1208258448416
 21
879.9892726588891
 31
0.0
  0
LINE
  5
15C
330
1F
100
AcDbEntity
  8
C-A
  6
Continuous
 62
     6
370
     9
100
AcDbLine
 10
-474.1208258448416
 20
879.9892726588891
 30
0.0
 11
-469.1210547266776
 21
878.4900050807644
 31
0.0
  0
LINE
  5
15D
330
1F
100
AcDbEntity
  8
C-A
  6
Continuous
 62
     6
370
     9
100
AcDbLine
 10
-469.1210547266776
 20
877.4901271510769
 30
0.0
 11
-469.1210547266776
 21
878.4900050807644
 31
0.0
  0
LINE
  5
15E
330
1F
100
AcDbEntity
  8
C-A
  6
Continuous
 62
     6
370
     9
100
AcDbLine
 10
-469.1210547266776
 20
877.4901271510769
 30
0.0
 11
-474.1208258448416
 21
875.9898219752959
 31
0.0
  0
LINE
  5
15F
330
1F
100
AcDbEntity
  8
C-A
  6
Continuous
 62
     6
370
     9
100
AcDbLine
 10
-468.621131020623
 20
877.1175075221706
 30
0.0
 11
-474.6212530909355
 21
875.3180080104519
 31
0.0
  0
LINE
  5
160
330
1F
100
AcDbEntity
  8
C-A
  6
Continuous
 62
     6
370
     9
100
AcDbLine
 10
-474.6212530909355
 20
880.6621242213894
 30
0.0
 11
-468.621131020623
 21
878.8615871120144
 31
0.0
  0
LINE
  5
161
330
1F
100
AcDbEntity
  8
C-A
  6
Continuous
 62
     6
370
     9
100
AcDbLine
 10
-469.1210547266776
 20
886.4898219752954
 30
0.0
 11
-469.1210547266776
 21
890.4892116237331
 31
0.0
  0
LINE
  5
162
330
1F
100
AcDbEntity
  8
C-A
  6
Continuous
 62
     6
370
     9
100
AcDbLine
 10
-469.1210547266776
 20
890.4892116237331
 30
0.0
 11
-474.1208258448416
 21
888.9899440456079
 31
0.0
  0
LINE
  5
163
330
1F
100
AcDbEntity
  8
C-A
  6
Continuous
 62
     6
370
     9
100
AcDbLine
 10
-474.1208258448416
 20
887.9900661159204
 30
0.0
 11
-474.1208258448416
 21
888.9899440456079
 31
0.0
  0
LINE
  5
164
330
1F
100
AcDbEntity
  8
C-A
  6
Continuous
 62
     6
370
     9
100
AcDbLine
 10
-474.1208258448416
 20
887.9900661159204
 30
0.0
 11
-469.1210547266776
 21
886.4898219752954
 31
0.0
  0
LINE
  5
165
330
1F
100
AcDbEntity
  8
C-A
  6
Continuous
 62
     6
370
     9
100
AcDbLine
 10
-474.6212530909355
 20
887.6175075221706
 30
0.0
 11
-468.621131020623
 21
885.8179469752954
 31
0.0
  0
LINE
  5
166
330
1F
100
AcDbEntity
  8
C-A
  6
Continuous
 62
     6
370
     9
100
AcDbLine
 10
-468.621131020623
 20
891.1620631862329
 30
0.0
 11
-474.6212530909355
 21
889.3615260768579
 31
0.0
  0
LINE
  5
167
330
1F
100
AcDbEntity
  8
C-A
  6
Continuous
 62
     6
370
     9
100
AcDbLine
 10
-474.1208258448416
 20
854.9898830104516
 30
0.0
 11
-474.1208258448416
 21
858.9893336940454
 31
0.0
  0
LINE
  5
168
330
1F
100
AcDbEntity
  8
C-A
  6
Continuous
 62
     6
370
     9
100
AcDbLine
 10
-474.1208258448416
 20
858.9893336940454
 30
0.0
 11
-469.1210547266776
 21
857.4900050807641
 31
0.0
  0
LINE
  5
169
330
1F
100
AcDbEntity
  8
C-A
  6
Continuous
 62
     6
370
     9
100
AcDbLine
 10
-469.1210547266776
 20
856.4901881862331
 30
0.0
 11
-469.1210547266776
 21
857.4900050807641
 31
0.0
  0
LINE
  5
16A
330
1F
100
AcDbEntity
  8
C-A
  6
Continuous
 62
     6
370
     9
100
AcDbLine
 10
-469.1210547266776
 20
856.4901881862331
 30
0.0
 11
-474.1208258448416
 21
854.9898830104516
 31
0.0
  0
LINE
  5
16B
330
1F
100
AcDbEntity
  8
C-A
  6
Continuous
 62
     6
370
     9
100
AcDbLine
 10
-468.621131020623
 20
856.1175685573269
 30
0.0
 11
-474.6212530909355
 21
854.3180080104516
 31
0.0
  0
LINE
  5
16C
330
1F
100
AcDbEntity
  8
C-A
  6
Continuous
 62
     6
370
     9
100
AcDbLine
 10
-474.6212530909355
 20
859.6621852565456
 30
0.0
 11
-468.621131020623
 21
857.8616481471706
 31
0.0
  0
LINE
  5
16D
330
1F
100
AcDbEntity
  8
C-A
  6
Continuous
 62
     6
370
     9
100
AcDbLine
 10
-469.1210547266776
 20
865.4898830104516
 30
0.0
 11
-469.1210547266776
 21
869.4892726588896
 31
0.0
  0
LINE
  5
16E
330
1F
100
AcDbEntity
  8
C-A
  6
Continuous
 62
     6
370
     9
100
AcDbLine
 10
-469.1210547266776
 20
869.4892726588896
 30
0.0
 11
-474.1208258448416
 21
867.9900050807644
 31
0.0
  0
LINE
  5
16F
330
1F
100
AcDbEntity
  8
C-A
  6
Continuous
 62
     6
370
     9
100
AcDbLine
 10
-474.1208258448416
 20
866.9901271510766
 30
0.0
 11
-474.1208258448416
 21
867.9900050807644
 31
0.0
  0
LINE
  5
170
330
1F
100
AcDbEntity
  8
C-A
  6
Continuous
 62
     6
370
     9
100
AcDbLine
 10
-474.1208258448416
 20
866.9901271510766
 30
0.0
 11
-469.1210547266776
 21
865.4898830104516
 31
0.0
  0
LINE
  5
171
330
1F
100
AcDbEntity
  8
C-A
  6
Continuous
 62
     6
370
     9
100
AcDbLine
 10
-474.6212530909355
 20
866.6175685573271
 30
0.0
 11
-468.621131020623
 21
864.8180080104519
 31
0.0
  0
LINE
  5
172
330
1F
100
AcDbEntity
  8
C-A
  6
Continuous
 62
     6
370
     9
100
AcDbLine
 10
-468.621131020623
 20
870.1621242213891
 30
0.0
 11
-474.6212530909355
 21
868.3615871120141
 31
0.0
  0
LINE
  5
173
330
1F
100
AcDbEntity
  8
C-A
  6
Continuous
 62
     6
370
     9
100
AcDbLine
 10
-528.621405678826
 20
863.4470363307641
 30
0.0
 11
-528.621405678826
 21
867.4469752956079
 31
0.0
  0
LINE
  5
174
330
1F
100
AcDbEntity
  8
C-A
  6
Continuous
 62
     6
370
     9
100
AcDbLine
 10
-528.621405678826
 20
867.4469752956079
 30
0.0
 11
-523.6211386500174
 21
865.9471584010769
 31
0.0
  0
LINE
  5
175
330
1F
100
AcDbEntity
  8
C-A
  6
Continuous
 62
     6
370
     9
100
AcDbLine
 10
-523.6211386500174
 20
864.9473415065459
 30
0.0
 11
-523.6211386500174
 21
865.9471584010769
 31
0.0
  0
LINE
  5
176
330
1F
100
AcDbEntity
  8
C-A
  6
Continuous
 62
     6
370
     9
100
AcDbLine
 10
-523.6211386500174
 20
864.9473415065459
 30
0.0
 11
-528.621405678826
 21
863.4470363307641
 31
0.0
  0
LINE
  5
177
330
1F
100
AcDbEntity
  8
C-A
  6
Continuous
 62
     6
370
     9
100
AcDbLine
 10
-523.1212073145683
 20
864.5752101588894
 30
0.0
 11
-529.1213370142754
 21
862.7751613307644
 31
0.0
  0
LINE
  5
178
330
1F
100
AcDbEntity
  8
C-A
  6
Continuous
 62
     6
370
     9
100
AcDbLine
 10
-529.1213370142754
 20
868.1193385768584
 30
0.0
 11
-523.1212073145683
 21
866.3192897487331
 31
0.0
  0
LINE
  5
179
330
1F
100
AcDbEntity
  8
C-A
  6
Continuous
 62
     6
370
     9
100
AcDbLine
 10
-523.6211386500174
 20
873.9470363307644
 30
0.0
 11
-523.6211386500174
 21
877.9469142604521
 31
0.0
  0
LINE
  5
17A
330
1F
100
AcDbEntity
  8
C-A
  6
Continuous
 62
     6
370
     9
100
AcDbLine
 10
-523.6211386500174
 20
877.9469142604521
 30
0.0
 11
-528.621405678826
 21
876.4471584010769
 31
0.0
  0
LINE
  5
17B
330
1F
100
AcDbEntity
  8
C-A
  6
Continuous
 62
     6
370
     9
100
AcDbLine
 10
-528.621405678826
 20
875.4472804713894
 30
0.0
 11
-528.621405678826
 21
876.4471584010769
 31
0.0
  0
LINE
  5
17C
330
1F
100
AcDbEntity
  8
C-A
  6
Continuous
 62
     6
370
     9
100
AcDbLine
 10
-528.621405678826
 20
875.4472804713894
 30
0.0
 11
-523.6211386500174
 21
873.9470363307644
 31
0.0
  0
LINE
  5
17D
330
1F
100
AcDbEntity
  8
C-A
  6
Continuous
 62
     6
370
     9
100
AcDbLine
 10
-529.1213370142754
 20
875.0752101588896
 30
0.0
 11
-523.1212073145683
 21
873.2751613307644
 31
0.0
  0
LINE
  5
17E
330
1F
100
AcDbEntity
  8
C-A
  6
Continuous
 62
     6
370
     9
100
AcDbLine
 10
-523.1212073145683
 20
878.6192775417019
 30
0.0
 11
-529.1213370142754
 21
876.8192287135766
 31
0.0
  0
LINE
  5
17F
330
1F
100
AcDbEntity
  8
C-A
  6
Continuous
 62
     6
370
     9
100
AcDbLine
 10
-528.621405678826
 20
884.4469752956079
 30
0.0
 11
-528.621405678826
 21
888.4469142604516
 31
0.0
  0
LINE
  5
180
330
1F
100
AcDbEntity
  8
C-A
  6
Continuous
 62
     6
370
     9
100
AcDbLine
 10
-528.621405678826
 20
888.4469142604516
 30
0.0
 11
-523.6211386500174
 21
886.9471584010771
 31
0.0
  0
LINE
  5
181
330
1F
100
AcDbEntity
  8
C-A
  6
Continuous
 62
     6
370
     9
100
AcDbLine
 10
-523.6211386500174
 20
885.9472804713894
 30
0.0
 11
-523.6211386500174
 21
886.9471584010771
 31
0.0
  0
LINE
  5
182
330
1F
100
AcDbEntity
  8
C-A
  6
Continuous
 62
     6
370
     9
100
AcDbLine
 10
-523.6211386500174
 20
885.9472804713894
 30
0.0
 11
-528.621405678826
 21
884.4469752956079
 31
0.0
  0
LINE
  5
183
330
1F
100
AcDbEntity
  8
C-A
  6
Continuous
 62
     6
370
     9
100
AcDbLine
 10
-523.1212073145683
 20
885.5751491237331
 30
0.0
 11
-529.1213370142754
 21
883.7751613307646
 31
0.0
  0
LINE
  5
184
330
1F
100
AcDbEntity
  8
C-A
  6
Continuous
 62
     6
370
     9
100
AcDbLine
 10
-529.1213370142754
 20
889.1192775417019
 30
0.0
 11
-523.1212073145683
 21
887.3192287135769
 31
0.0
  0
LINE
  5
185
330
1F
100
AcDbEntity
  8
C-A
  6
Continuous
 62
     6
370
     9
100
AcDbLine
 10
-528.621405678826
 20
842.4470973659206
 30
0.0
 11
-528.621405678826
 21
846.4470363307644
 31
0.0
  0
LINE
  5
186
330
1F
100
AcDbEntity
  8
C-A
  6
Continuous
 62
     6
370
     9
100
AcDbLine
 10
-528.621405678826
 20
846.4470363307644
 30
0.0
 11
-523.6211386500174
 21
844.9472194362331
 31
0.0
  0
LINE
  5
187
330
1F
100
AcDbEntity
  8
C-A
  6
Continuous
 62
     6
370
     9
100
AcDbLine
 10
-523.6211386500174
 20
843.9474025417016
 30
0.0
 11
-523.6211386500174
 21
844.9472194362331
 31
0.0
  0
LINE
  5
188
330
1F
100
AcDbEntity
  8
C-A
  6
Continuous
 62
     6
370
     9
100
AcDbLine
 10
-523.6211386500174
 20
843.9474025417016
 30
0.0
 11
-528.621405678826
 21
842.4470973659206
 31
0.0
  0
LINE
  5
189
330
1F
100
AcDbEntity
  8
C-A
  6
Continuous
 62
     6
370
     9
100
AcDbLine
 10
-523.1212073145683
 20
843.5752711940459
 30
0.0
 11
-529.1213370142754
 21
841.7752223659206
 31
0.0
  0
LINE
  5
18A
330
1F
100
AcDbEntity
  8
C-A
  6
Continuous
 62
     6
370
     9
100
AcDbLine
 10
-529.1213370142754
 20
847.1193385768581
 30
0.0
 11
-523.1212073145683
 21
845.3193507838896
 31
0.0
  0
LINE
  5
18B
330
1F
100
AcDbEntity
  8
C-A
  6
Continuous
 62
     6
370
     9
100
AcDbLine
 10
-523.6211386500174
 20
852.9470973659206
 30
0.0
 11
-523.6211386500174
 21
856.9469752956079
 31
0.0
  0
LINE
  5
18C
330
1F
100
AcDbEntity
  8
C-A
  6
Continuous
 62
     6
370
     9
100
AcDbLine
 10
-523.6211386500174
 20
856.9469752956079
 30
0.0
 11
-528.621405678826
 21
855.4472194362334
 31
0.0
  0
LINE
  5
18D
330
1F
100
AcDbEntity
  8
C-A
  6
Continuous
 62
     6
370
     9
100
AcDbLine
 10
-528.621405678826
 20
854.4473415065456
 30
0.0
 11
-528.621405678826
 21
855.4472194362334
 31
0.0
  0
LINE
  5
18E
330
1F
100
AcDbEntity
  8
C-A
  6
Continuous
 62
     6
370
     9
100
AcDbLine
 10
-528.621405678826
 20
854.4473415065456
 30
0.0
 11
-523.6211386500174
 21
852.9470973659206
 31
0.0
  0
LINE
  5
18F
330
1F
100
AcDbEntity
  8
C-A
  6
Continuous
 62
     6
370
     9
100
AcDbLine
 10
-529.1213370142754
 20
854.0752711940454
 30
0.0
 11
-523.1212073145683
 21
852.2752223659209
 31
0.0
  0
LINE
  5
190
330
1F
100
AcDbEntity
  8
C-A
  6
Continuous
 62
     6
370
     9
100
AcDbLine
 10
-523.1212073145683
 20
857.6193385768581
 30
0.0
 11
-529.1213370142754
 21
855.8192897487331
 31
0.0
  0
LINE
  5
191
330
1F
100
AcDbEntity
  8
C-A
  6
Continuous
 62
     6
370
     9
100
AcDbLine
 10
-528.621405678826
 20
821.4471584010769
 30
0.0
 11
-528.621405678826
 21
825.4470668483427
 31
0.0
  0
LINE
  5
192
330
1F
100
AcDbEntity
  8
C-A
  6
Continuous
 62
     6
370
     9
100
AcDbLine
 10
-528.621405678826
 20
825.4470668483427
 30
0.0
 11
-523.6211386500174
 21
823.9472804713896
 31
0.0
  0
LINE
  5
193
330
1F
100
AcDbEntity
  8
C-A
  6
Continuous
 62
     6
370
     9
100
AcDbLine
 10
-523.6211386500174
 20
822.94743305928
 30
0.0
 11
-523.6211386500174
 21
823.9472804713896
 31
0.0
  0
LINE
  5
194
330
1F
100
AcDbEntity
  8
C-A
  6
Continuous
 62
     6
370
     9
100
AcDbLine
 10
-523.6211386500174
 20
822.94743305928
 30
0.0
 11
-528.621405678826
 21
821.4471584010769
 31
0.0
  0
LINE
  5
195
330
1F
100
AcDbEntity
  8
C-A
  6
Continuous
 62
     6
370
     9
100
AcDbLine
 10
-523.1212073145683
 20
822.5753322292016
 30
0.0
 11
-529.1213370142754
 21
820.7752834010771
 31
0.0
  0
LINE
  5
196
330
1F
100
AcDbEntity
  8
C-A
  6
Continuous
 62
     6
370
     9
100
AcDbLine
 10
-529.1213370142754
 20
826.1194301295925
 30
0.0
 11
-523.1212073145683
 21
824.3193813014673
 31
0.0
  0
LINE
  5
197
330
1F
100
AcDbEntity
  8
C-A
  6
Continuous
 62
     6
370
     9
100
AcDbLine
 10
-523.6211386500174
 20
831.9471278834985
 30
0.0
 11
-523.6211386500174
 21
835.9470363307641
 31
0.0
  0
LINE
  5
198
330
1F
100
AcDbEntity
  8
C-A
  6
Continuous
 62
     6
370
     9
100
AcDbLine
 10
-523.6211386500174
 20
835.9470363307641
 30
0.0
 11
-528.621405678826
 21
834.447249953811
 31
0.0
  0
LINE
  5
199
330
1F
100
AcDbEntity
  8
C-A
  6
Continuous
 62
     6
370
     9
100
AcDbLine
 10
-528.621405678826
 20
833.4474025417021
 30
0.0
 11
-528.621405678826
 21
834.447249953811
 31
0.0
  0
LINE
  5
19A
330
1F
100
AcDbEntity
  8
C-A
  6
Continuous
 62
     6
370
     9
100
AcDbLine
 10
-528.621405678826
 20
833.4474025417021
 30
0.0
 11
-523.6211386500174
 21
831.9471278834985
 31
0.0
  0
LINE
  5
19B
330
1F
100
AcDbEntity
  8
C-A
  6
Continuous
 62
     6
370
     9
100
AcDbLine
 10
-529.1213370142754
 20
833.0753017116238
 30
0.0
 11
-523.1212073145683
 21
831.2752528834985
 31
0.0
  0
LINE
  5
19C
330
1F
100
AcDbEntity
  8
C-A
  6
Continuous
 62
     6
370
     9
100
AcDbLine
 10
-523.1212073145683
 20
836.6193996120146
 30
0.0
 11
-529.1213370142754
 21
834.8193507838894
 31
0.0
  0
LINE
  5
19D
330
1F
100
AcDbEntity
  8
C-A
  6
Continuous
 62
     6
370
     9
100
AcDbLine
 10
-528.621405678826
 20
800.4471889186548
 30
0.0
 11
-528.621405678826
 21
804.4471278834985
 31
0.0
  0
LINE
  5
19E
330
1F
100
AcDbEntity
  8
C-A
  6
Continuous
 62
     6
370
     9
100
AcDbLine
 10
-528.621405678826
 20
804.4471278834985
 30
0.0
 11
-523.6211386500174
 21
802.9473415065454
 31
0.0
  0
LINE
  5
19F
330
1F
100
AcDbEntity
  8
C-A
  6
Continuous
 62
     6
370
     9
100
AcDbLine
 10
-523.6211386500174
 20
801.9474940944363
 30
0.0
 11
-523.6211386500174
 21
802.9473415065454
 31
0.0
  0
LINE
  5
1A0
330
1F
100
AcDbEntity
  8
C-A
  6
Continuous
 62
     6
370
     9
100
AcDbLine
 10
-523.6211386500174
 20
801.9474940944363
 30
0.0
 11
-528.621405678826
 21
800.4471889186548
 31
0.0
  0
LINE
  5
1A1
330
1F
100
AcDbEntity
  8
C-A
  6
Continuous
 62
     6
370
     9
100
AcDbLine
 10
-523.1212073145683
 20
801.5753932643579
 30
0.0
 11
-529.1213370142754
 21
799.7753444362329
 31
0.0
  0
LINE
  5
1A2
330
1F
100
AcDbEntity
  8
C-A
  6
Continuous
 62
     6
370
     9
100
AcDbLine
 10
-529.1213370142754
 20
805.1194606471709
 30
0.0
 11
-523.1212073145683
 21
803.3194423366238
 31
0.0
  0
LINE
  5
1A3
330
1F
100
AcDbEntity
  8
C-A
  6
Continuous
 62
     6
370
     9
100
AcDbLine
 10
-523.6211386500174
 20
810.9471889186548
 30
0.0
 11
-523.6211386500174
 21
814.9470973659206
 31
0.0
  0
LINE
  5
1A4
330
1F
100
AcDbEntity
  8
C-A
  6
Continuous
 62
     6
370
     9
100
AcDbLine
 10
-523.6211386500174
 20
814.9470973659206
 30
0.0
 11
-528.621405678826
 21
813.4473109889675
 31
0.0
  0
LINE
  5
1A5
330
1F
100
AcDbEntity
  8
C-A
  6
Continuous
 62
     6
370
     9
100
AcDbLine
 10
-528.621405678826
 20
812.4474635768579
 30
0.0
 11
-528.621405678826
 21
813.4473109889675
 31
0.0
  0
LINE
  5
1A6
330
1F
100
AcDbEntity
  8
C-A
  6
Continuous
 62
     6
370
     9
100
AcDbLine
 10
-528.621405678826
 20
812.4474635768579
 30
0.0
 11
-523.6211386500174
 21
810.9471889186548
 31
0.0
  0
LINE
  5
1A7
330
1F
100
AcDbEntity
  8
C-A
  6
Continuous
 62
     6
370
     9
100
AcDbLine
 10
-529.1213370142754
 20
812.07536274678
 30
0.0
 11
-523.1212073145683
 21
810.275313918655
 31
0.0
  0
LINE
  5
1A8
330
1F
100
AcDbEntity
  8
C-A
  6
Continuous
 62
     6
370
     9
100
AcDbLine
 10
-523.1212073145683
 20
815.6194301295923
 30
0.0
 11
-529.1213370142754
 21
813.8194118190459
 31
0.0
  0
LINE
  5
1A9
330
1F
100
AcDbEntity
  8
C-A
  6
Continuous
 62
     6
370
     9
100
AcDbLine
 10
-528.621405678826
 20
779.447249953811
 30
0.0
 11
-528.621405678826
 21
783.4471584010769
 31
0.0
  0
LINE
  5
1AA
330
1F
100
AcDbEntity
  8
C-A
  6
Continuous
 62
     6
370
     9
100
AcDbLine
 10
-528.621405678826
 20
783.4471584010769
 30
0.0
 11
-523.6211386500174
 21
781.9473720241238
 31
0.0
  0
LINE
  5
1AB
330
1F
100
AcDbEntity
  8
C-A
  6
Continuous
 62
     6
370
     9
100
AcDbLine
 10
-523.6211386500174
 20
780.9475246120144
 30
0.0
 11
-523.6211386500174
 21
781.9473720241238
 31
0.0
  0
LINE
  5
1AC
330
1F
100
AcDbEntity
  8
C-A
  6
Continuous
 62
     6
370
     9
100
AcDbLine
 10
-523.6211386500174
 20
780.9475246120144
 30
0.0
 11
-528.621405678826
 21
779.447249953811
 31
0.0
  0
LINE
  5
1AD
330
1F
100
AcDbEntity
  8
C-A
  6
Continuous
 62
     6
370
     9
100
AcDbLine
 10
-523.1212073145683
 20
780.5754237819363
 30
0.0
 11
-529.1213370142754
 21
778.7754054713891
 31
0.0
  0
LINE
  5
1AE
330
1F
100
AcDbEntity
  8
C-A
  6
Continuous
 62
     6
370
     9
100
AcDbLine
 10
-529.1213370142754
 20
784.1195216823269
 30
0.0
 11
-523.1212073145683
 21
782.3194728542018
 31
0.0
  0
LINE
  5
1AF
330
1F
100
AcDbEntity
  8
C-A
  6
Continuous
 62
     6
370
     9
100
AcDbLine
 10
-523.6211386500174
 20
789.9472194362331
 30
0.0
 11
-523.6211386500174
 21
793.9471584010769
 31
0.0
  0
LINE
  5
1B0
330
1F
100
AcDbEntity
  8
C-A
  6
Continuous
 62
     6
370
     9
100
AcDbLine
 10
-523.6211386500174
 20
793.9471584010769
 30
0.0
 11
-528.621405678826
 21
792.4473720241238
 31
0.0
  0
LINE
  5
1B1
330
1F
100
AcDbEntity
  8
C-A
  6
Continuous
 62
     6
370
     9
100
AcDbLine
 10
-528.621405678826
 20
791.4474940944363
 30
0.0
 11
-528.621405678826
 21
792.4473720241238
 31
0.0
  0
LINE
  5
1B2
330
1F
100
AcDbEntity
  8
C-A
  6
Continuous
 62
     6
370
     9
100
AcDbLine
 10
-528.621405678826
 20
791.4474940944363
 30
0.0
 11
-523.6211386500174
 21
789.9472194362331
 31
0.0
  0
LINE
  5
1B3
330
1F
100
AcDbEntity
  8
C-A
  6
Continuous
 62
     6
370
     9
100
AcDbLine
 10
-529.1213370142754
 20
791.0753932643581
 30
0.0
 11
-523.1212073145683
 21
789.2753749538113
 31
0.0
  0
LINE
  5
1B4
330
1F
100
AcDbEntity
  8
C-A
  6
Continuous
 62
     6
370
     9
100
AcDbLine
 10
-523.1212073145683
 20
794.6194911647488
 30
0.0
 11
-529.1213370142754
 21
792.8194728542019
 31
0.0
  0
LINE
  5
1B5
330
1F
100
AcDbEntity
  8
C-5
  6
Continuous
 62
     7
370
     9
100
AcDbLine
 10
108.3790520848459
 20
323.1081081081081
 30
0.0
 11
108.3790520848459
 21
388.1076656032252
 31
0.0
  0
LINE
  5
1B6
330
1F
100
AcDbEntity
  8
C-5
  6
Continuous
 62
     7
370
     9
100
AcDbLine
 10
108.3790520848459
 20
388.1076656032252
 30
0.0
 11
583.3794793309396
 21
388.1076656032252
 31
0.0
  0
LINE
  5
1B7
330
1F
100
AcDbEntity
  8
C-5
  6
Continuous
 62
     7
370
     9
100
AcDbLine
 10
583.3794793309396
 20
388.1076656032252
 30
0.0
 11
583.3794793309396
 21
323.1081081081081
 31
0.0
  0
LINE
  5
1B8
330
1F
100
AcDbEntity
  8
C-5
  6
Continuous
 62
     7
370
     9
100
AcDbLine
 10
583.3794793309396
 20
323.1081081081081
 30
0.0
 11
108.3790520848459
 21
323.1081081081081
 31
0.0
  0
LINE
  5
1B9
330
1F
100
AcDbEntity
  8
C-5
  6
Continuous
 62
     7
370
     9
100
AcDbLine
 10
117.1255730809396
 20
780.977004592483
 30
0.0
 11
555.1606072606271
 21
780.977004592483
 31
0.0
  0
LINE
  5
1BA
330
1F
100
AcDbEntity
  8
C-5
  6
Continuous
 62
     7
370
     9
100
AcDbLine
 10
396.9043816746895
 20
1133.004348342483
 30
0.0
 11
642.6138543309396
 21
1133.004348342483
 31
0.0
  0
LINE
  5
1BB
330
1F
100
AcDbEntity
  8
C-2
  6
Continuous
 62
     3
370
     9
100
AcDbLine
 10
305.8714226903146
 20
857.4228664088891
 30
0.0
 11
305.8714226903146
 21
1196.77912861592
 31
0.0
  0
LINE
  5
1BC
330
1F
100
AcDbEntity
  8
C-2
  6
Continuous
 62
     3
370
     9
100
AcDbLine
 10
365.8706902684396
 20
843.9381862331081
 30
0.0
 11
365.8706902684396
 21
1183.294448440139
 31
0.0
  0
LINE
  5
1BD
330
1F
100
AcDbEntity
  8
C-2
  6
Continuous
 62
     3
370
     9
100
AcDbLine
 10
310.8711785496897
 20
900.1768947292019
 30
0.0
 11
310.8711785496897
 21
940.1770778346704
 31
0.0
  0
LINE
  5
1BE
330
1F
100
AcDbEntity
  8
C-2
  6
Continuous
 62
     3
370
     9
100
AcDbLine
 10
310.8711785496897
 20
940.1770778346704
 30
0.0
 11
360.8709344090646
 21
925.1767726588891
 31
0.0
  0
LINE
  5
1BF
330
1F
100
AcDbEntity
  8
C-2
  6
Continuous
 62
     3
370
     9
100
AcDbLine
 10
360.8709344090646
 20
915.1771999049831
 30
0.0
 11
360.8709344090646
 21
925.1767726588891
 31
0.0
  0
LINE
  5
1C0
330
1F
100
AcDbEntity
  8
C-2
  6
Continuous
 62
     3
370
     9
100
AcDbLine
 10
360.8709344090646
 20
915.1771999049831
 30
0.0
 11
310.8711785496897
 21
900.1768947292019
 31
0.0
  0
LINE
  5
1C1
330
1F
100
AcDbEntity
  8
C-2
  6
Continuous
 62
     3
370
     9
100
AcDbLine
 10
365.8706902684396
 20
911.4572292018581
 30
0.0
 11
305.8714226903146
 21
893.4563747096704
 31
0.0
  0
LINE
  5
1C2
330
1F
100
AcDbEntity
  8
C-2
  6
Continuous
 62
     3
370
     9
100
AcDbLine
 10
305.8714226903146
 20
946.8975978542019
 30
0.0
 11
365.8706902684396
 21
928.8967433620141
 31
0.0
  0
LINE
  5
1C3
330
1F
100
AcDbEntity
  8
C-2
  6
Continuous
 62
     3
370
     9
100
AcDbLine
 10
360.8709344090646
 20
1005.177138869827
 30
0.0
 11
360.8709344090646
 21
1045.177321975296
 31
0.0
  0
LINE
  5
1C4
330
1F
100
AcDbEntity
  8
C-2
  6
Continuous
 62
     3
370
     9
100
AcDbLine
 10
360.8709344090646
 20
1045.177321975296
 30
0.0
 11
310.8711785496897
 21
1030.177016799514
 31
0.0
  0
LINE
  5
1C5
330
1F
100
AcDbEntity
  8
C-2
  6
Continuous
 62
     3
370
     9
100
AcDbLine
 10
310.8711785496897
 20
1020.177444045608
 30
0.0
 11
310.8711785496897
 21
1030.177016799514
 31
0.0
  0
LINE
  5
1C6
330
1F
100
AcDbEntity
  8
C-2
  6
Continuous
 62
     3
370
     9
100
AcDbLine
 10
310.8711785496897
 20
1020.177444045608
 30
0.0
 11
360.8709344090646
 21
1005.177138869827
 31
0.0
  0
LINE
  5
1C7
330
1F
100
AcDbEntity
  8
C-2
  6
Continuous
 62
     3
370
     9
100
AcDbLine
 10
305.8714226903146
 20
1016.457473342483
 30
0.0
 11
365.8706902684396
 21
998.4566188502956
 31
0.0
  0
LINE
  5
1C8
330
1F
100
AcDbEntity
  8
C-2
  6
Continuous
 62
     3
370
     9
100
AcDbLine
 10
365.8706902684396
 20
1051.898086135452
 30
0.0
 11
305.8714226903146
 21
1033.896987502639
 31
0.0
  0
LINE
  5
1C9
330
1F
100
AcDbEntity
  8
C-2
  6
Continuous
 62
     3
370
     9
100
AcDbLine
 10
310.8711785496897
 20
1110.177138869827
 30
0.0
 11
310.8711785496897
 21
1150.177321975296
 31
0.0
  0
LINE
  5
1CA
330
1F
100
AcDbEntity
  8
C-2
  6
Continuous
 62
     3
370
     9
100
AcDbLine
 10
310.8711785496897
 20
1150.177321975296
 30
0.0
 11
360.8709344090646
 21
1135.177016799514
 31
0.0
  0
LINE
  5
1CB
330
1F
100
AcDbEntity
  8
C-2
  6
Continuous
 62
     3
370
     9
100
AcDbLine
 10
360.8709344090646
 20
1125.177444045608
 30
0.0
 11
360.8709344090646
 21
1135.177016799514
 31
0.0
  0
LINE
  5
1CC
330
1F
100
AcDbEntity
  8
C-2
  6
Continuous
 62
     3
370
     9
100
AcDbLine
 10
360.8709344090646
 20
1125.177444045608
 30
0.0
 11
310.8711785496897
 21
1110.177138869827
 31
0.0
  0
LINE
  5
1CD
330
1F
100
AcDbEntity
  8
C-2
  6
Continuous
 62
     3
370
     9
100
AcDbLine
 10
365.8706902684396
 20
1121.457473342483
 30
0.0
 11
305.8714226903146
 21
1103.456618850296
 31
0.0
  0
LINE
  5
1CE
330
1F
100
AcDbEntity
  8
C-2
  6
Continuous
 62
     3
370
     9
100
AcDbLine
 10
305.8714226903146
 20
1156.897841994827
 30
0.0
 11
365.8706902684396
 21
1138.896987502639
 31
0.0
  0
LINE
  5
1CF
330
1F
100
AcDbEntity
  8
C-4
  6
Continuous
 62
     7
370
     9
100
AcDbLine
 10
234.1577386082834
 20
900.1768947292019
 30
0.0
 11
234.1577386082834
 21
940.1770778346704
 31
0.0
  0
LINE
  5
1D0
330
1F
100
AcDbEntity
  8
C-4
  6
Continuous
 62
     7
370
     9
100
AcDbLine
 10
294.6208123387521
 20
900.1768947292019
 30
0.0
 11
231.1576775731271
 21
900.1768947292019
 31
0.0
  0
LINE
  5
1D1
330
1F
100
AcDbEntity
  8
C-4
  6
Continuous
 62
     7
370
     9
100
AcDbLine
 10
294.6208123387521
 20
940.1770778346704
 30
0.0
 11
231.1576775731271
 21
940.1770778346704
 31
0.0
  0
LINE
  5
1D2
330
1F
100
AcDbEntity
  8
C-4
  6
Continuous
 62
     7
370
     9
100
AcDbLine
 10
234.1577386082834
 20
940.1770778346704
 30
0.0
 11
234.1577386082834
 21
1020.177444045608
 31
0.0
  0
LINE
  5
1D3
330
1F
100
AcDbEntity
  8
C-4
  6
Continuous
 62
     7
370
     9
100
AcDbLine
 10
294.6208123387521
 20
1020.177444045608
 30
0.0
 11
231.1576775731271
 21
1020.177444045608
 31
0.0
  0
LINE
  5
1D4
330
1F
100
AcDbEntity
  8
C-4
  6
Continuous
 62
     7
370
     9
100
AcDbLine
 10
234.1577386082834
 20
1020.177444045608
 30
0.0
 11
234.1577386082834
 21
1030.177016799514
 31
0.0
  0
LINE
  5
1D5
330
1F
100
AcDbEntity
  8
C-4
  6
Continuous
 62
     7
370
     9
100
AcDbLine
 10
294.6208123387521
 20
1030.177016799514
 30
0.0
 11
231.1576775731271
 21
1030.177016799514
 31
0.0
  0
LINE
  5
1D6
330
1F
100
AcDbEntity
  8
C-4
  6
Continuous
 62
     7
370
     9
100
AcDbLine
 10
234.1577386082834
 20
1030.177016799514
 30
0.0
 11
234.1577386082834
 21
1110.177138869827
 31
0.0
  0
LINE
  5
1D7
330
1F
100
AcDbEntity
  8
C-4
  6
Continuous
 62
     7
370
     9
100
AcDbLine
 10
294.6208123387521
 20
1110.177138869827
 30
0.0
 11
231.1576775731271
 21
1110.177138869827
 31
0.0
  0
LINE
  5
1D8
330
1F
100
AcDbEntity
  8
C-4
  6
Continuous
 62
     7
370
     9
100
AcDbLine
 10
234.1577386082834
 20
1110.177138869827
 30
0.0
 11
234.1577386082834
 21
1150.177321975296
 31
0.0
  0
LINE
  5
1D9
330
1F
100
AcDbEntity
  8
C-4
  6
Continuous
 62
     7
370
     9
100
AcDbLine
 10
294.6208123387521
 20
1150.177321975296
 30
0.0
 11
231.1576775731271
 21
1150.177321975296
 31
0.0
  0
LINE
  5
1DA
330
1F
100
AcDbEntity
  8
C-4
  6
Continuous
 62
     7
370
     9
100
AcDbLine
 10
374.8902215184395
 20
995.7508693385771
 30
0.0
 11
451.1958855809397
 21
972.8587184596709
 31
0.0
  0
LINE
  5
1DB
330
1F
100
AcDbEntity
  8
C-4
  6
Continuous
 62
     7
370
     9
100
AcDbLine
 10
376.3270501317209
 20
1000.540053908889
 30
0.0
 11
452.6327752293771
 21
977.6479030299831
 31
0.0
  0
LINE
  5
1DC
330
1F
100
AcDbEntity
  8
C-4
  6
Continuous
 62
     7
370
     9
100
AcDbLine
 10
448.3225945653146
 20
973.7208400417021
 30
0.0
 11
470.2342156590646
 21
1046.757888381545
 31
0.0
  0
LINE
  5
1DD
330
1F
100
AcDbEntity
  8
C-4
  6
Continuous
 62
     7
370
     9
100
AcDbLine
 10
305.8714226903146
 20
1242.794814651077
 30
0.0
 11
365.8706902684396
 21
1242.794814651077
 31
0.0
  0
LINE
  5
1DE
330
1F
100
AcDbEntity
  8
C-4
  6
Continuous
 62
     7
370
     9
100
AcDbLine
 10
305.8714226903146
 20
1203.519973342483
 30
0.0
 11
305.8714226903146
 21
1245.794387404983
 31
0.0
  0
LINE
  5
1DF
330
1F
100
AcDbEntity
  8
C-4
  6
Continuous
 62
     7
370
     9
100
AcDbLine
 10
365.8706902684396
 20
1194.617385451858
 30
0.0
 11
365.8706902684396
 21
1245.794387404983
 31
0.0
  0
LINE
  5
1E0
330
1F
100
AcDbEntity
  8
C-5
  6
Continuous
 62
     7
370
     9
100
AcDbLine
 10
340.5240105809396
 20
1035.350661819046
 30
0.0
 11
396.9043816746895
 21
1133.004348342483
 31
0.0
  0
LINE
  5
1E1
330
1F
100
AcDbEntity
  8
C-5
  6
Continuous
 62
     7
370
     9
100
AcDbLine
 10
340.5240105809396
 20
1035.350661819046
 30
0.0
 11
350.091027182502
 21
1058.447707717483
 31
0.0
  0
LINE
  5
1E2
330
1F
100
AcDbEntity
  8
C-5
  6
Continuous
 62
     7
370
     9
100
AcDbLine
 10
340.5240105809396
 20
1035.350661819046
 30
0.0
 11
355.7433098973459
 21
1055.184524123733
 31
0.0
  0
LINE
  5
1E3
330
1F
100
AcDbEntity
  8
C-2
  6
Continuous
 62
     3
370
     9
100
AcDbLine
 10
188.173302573127
 20
440.7150569606472
 30
0.0
 11
188.173302573127
 21
450.7155986476587
 31
0.0
  0
LINE
  5
1E4
330
1F
100
AcDbEntity
  8
C-2
  6
Continuous
 62
     3
370
     9
100
AcDbLine
 10
188.173302573127
 20
515.7156520534206
 30
0.0
 11
188.173302573127
 21
505.7156062770534
 31
0.0
  0
LINE
  5
1E5
330
1F
100
AcDbEntity
  8
C-2
  6
Continuous
 62
     3
370
     9
100
AcDbLine
 10
220.0240105809397
 20
505.7156062770534
 30
0.0
 11
215.0242547215646
 21
505.7156062770534
 31
0.0
  0
LINE
  5
1E6
330
1F
100
AcDbEntity
  8
C-2
  6
Continuous
 62
     3
370
     9
100
AcDbLine
 10
240.0240716160958
 20
505.7156062770534
 30
0.0
 11
245.023888510627
 21
505.7156062770534
 31
0.0
  0
LINE
  5
1E7
330
1F
100
AcDbEntity
  8
C-2
  6
Continuous
 62
     3
370
     9
100
AcDbLine
 10
225.0237664403146
 20
500.7153316188501
 30
0.0
 11
225.0218133153146
 21
440.7150569606472
 31
0.0
  0
LINE
  5
1E8
330
1F
100
AcDbEntity
  8
C-2
  6
Continuous
 62
     3
370
     9
100
AcDbLine
 10
235.0243157567209
 20
500.7158351588893
 30
0.0
 11
235.0243157567209
 21
440.7150569606472
 31
0.0
  0
LINE
  5
1E9
330
1F
100
AcDbEntity
  8
C-2
  6
Continuous
 62
     3
370
     9
100
AcDbLine
 10
421.8700799168771
 20
440.7091136623072
 30
0.0
 11
421.8705681981271
 21
450.7086635280299
 31
0.0
  0
LINE
  5
1EA
330
1F
100
AcDbEntity
  8
C-2
  6
Continuous
 62
     3
370
     9
100
AcDbLine
 10
421.8760613621896
 20
515.7087245631863
 30
0.0
 11
421.8755730809396
 21
505.7091670680691
 31
0.0
  0
LINE
  5
1EB
330
1F
100
AcDbEntity
  8
C-2
  6
Continuous
 62
     3
370
     9
100
AcDbLine
 10
421.8760613621896
 20
515.7156520534206
 30
0.0
 11
188.173302573127
 21
515.7156520534206
 31
0.0
  0
LINE
  5
1EC
330
1F
100
AcDbEntity
  8
C-2
  6
Continuous
 62
     3
370
     9
100
AcDbLine
 10
188.173302573127
 20
440.7150569606472
 30
0.0
 11
421.8705681981271
 21
440.7150569606472
 31
0.0
  0
LINE
  5
1ED
330
1F
100
AcDbEntity
  8
C-2
  6
Continuous
 62
     3
370
     9
100
AcDbLine
 10
215.0242547215646
 20
513.2155147243191
 30
0.0
 11
217.5243767918771
 21
515.7156520534206
 31
0.0
  0
LINE
  5
1EE
330
1F
100
AcDbEntity
  8
C-2
  6
Continuous
 62
     3
370
     9
100
AcDbLine
 10
215.0242547215646
 20
505.7156062770534
 30
0.0
 11
215.0242547215646
 21
513.2155147243191
 31
0.0
  0
LINE
  5
1EF
330
1F
100
AcDbEntity
  8
C-2
  6
Continuous
 62
     3
370
     9
100
AcDbLine
 10
245.023888510627
 20
513.2155147243191
 30
0.0
 11
242.5237664403146
 21
515.7156520534206
 31
0.0
  0
LINE
  5
1F0
330
1F
100
AcDbEntity
  8
C-2
  6
Continuous
 62
     3
370
     9
100
AcDbLine
 10
245.023888510627
 20
513.2155147243191
 30
0.0
 11
215.0242547215646
 21
513.2155147243191
 31
0.0
  0
LINE
  5
1F1
330
1F
100
AcDbEntity
  8
C-2
  6
Continuous
 62
     3
370
     9
100
AcDbLine
 10
245.023888510627
 20
513.2155147243191
 30
0.0
 11
245.023888510627
 21
505.7156062770534
 31
0.0
  0
LINE
  5
1F2
330
1F
100
AcDbEntity
  8
C-2
  6
Continuous
 62
     3
370
     9
100
AcDbLine
 10
295.0241326512521
 20
505.7156062770534
 30
0.0
 11
290.0243157567209
 21
505.7156062770534
 31
0.0
  0
LINE
  5
1F3
330
1F
100
AcDbEntity
  8
C-2
  6
Continuous
 62
     3
370
     9
100
AcDbLine
 10
315.0246819676584
 20
505.7156062770534
 30
0.0
 11
320.0239495457834
 21
505.7156062770534
 31
0.0
  0
LINE
  5
1F4
330
1F
100
AcDbEntity
  8
C-2
  6
Continuous
 62
     3
370
     9
100
AcDbLine
 10
300.023888510627
 20
500.7153316188501
 30
0.0
 11
300.0218743504709
 21
440.7150569606472
 31
0.0
  0
LINE
  5
1F5
330
1F
100
AcDbEntity
  8
C-2
  6
Continuous
 62
     3
370
     9
100
AcDbLine
 10
310.0244378270334
 20
500.7158351588893
 30
0.0
 11
310.0244378270334
 21
440.7150569606472
 31
0.0
  0
LINE
  5
1F6
330
1F
100
AcDbEntity
  8
C-2
  6
Continuous
 62
     3
370
     9
100
AcDbLine
 10
290.0243157567209
 20
513.2155147243191
 30
0.0
 11
292.5244988621895
 21
515.7156520534206
 31
0.0
  0
LINE
  5
1F7
330
1F
100
AcDbEntity
  8
C-2
  6
Continuous
 62
     3
370
     9
100
AcDbLine
 10
290.0243157567209
 20
505.7156062770534
 30
0.0
 11
290.0243157567209
 21
513.2155147243191
 31
0.0
  0
LINE
  5
1F8
330
1F
100
AcDbEntity
  8
C-2
  6
Continuous
 62
     3
370
     9
100
AcDbLine
 10
320.0239495457834
 20
513.2155147243191
 30
0.0
 11
317.5238274754709
 21
515.7156520534206
 31
0.0
  0
LINE
  5
1F9
330
1F
100
AcDbEntity
  8
C-2
  6
Continuous
 62
     3
370
     9
100
AcDbLine
 10
320.0239495457834
 20
513.2155147243191
 30
0.0
 11
290.0243157567209
 21
513.2155147243191
 31
0.0
  0
LINE
  5
1FA
330
1F
100
AcDbEntity
  8
C-2
  6
Continuous
 62
     3
370
     9
100
AcDbLine
 10
320.0239495457834
 20
513.2155147243191
 30
0.0
 11
320.0239495457834
 21
505.7156062770534
 31
0.0
  0
LINE
  5
1FB
330
1F
100
AcDbEntity
  8
C-2
  6
Continuous
 62
     3
370
     9
100
AcDbLine
 10
370.0241936864083
 20
505.7156062770534
 30
0.0
 11
365.0244378270334
 21
505.7156062770534
 31
0.0
  0
LINE
  5
1FC
330
1F
100
AcDbEntity
  8
C-2
  6
Continuous
 62
     3
370
     9
100
AcDbLine
 10
390.0248040379708
 20
505.7156062770534
 30
0.0
 11
395.0240716160959
 21
505.7156062770534
 31
0.0
  0
LINE
  5
1FD
330
1F
100
AcDbEntity
  8
C-2
  6
Continuous
 62
     3
370
     9
100
AcDbLine
 10
375.0240105809397
 20
500.7153316188501
 30
0.0
 11
375.0219964207834
 21
440.7150569606472
 31
0.0
  0
LINE
  5
1FE
330
1F
100
AcDbEntity
  8
C-2
  6
Continuous
 62
     3
370
     9
100
AcDbLine
 10
385.0235222996896
 20
500.7158351588893
 30
0.0
 11
385.0235222996896
 21
440.7150569606472
 31
0.0
  0
LINE
  5
1FF
330
1F
100
AcDbEntity
  8
C-2
  6
Continuous
 62
     3
370
     9
100
AcDbLine
 10
365.0244378270334
 20
513.2155147243191
 30
0.0
 11
367.5245598973459
 21
515.7156520534206
 31
0.0
  0
LINE
  5
200
330
1F
100
AcDbEntity
  8
C-2
  6
Continuous
 62
     3
370
     9
100
AcDbLine
 10
365.0244378270334
 20
505.7156062770534
 30
0.0
 11
365.0244378270334
 21
513.2155147243191
 31
0.0
  0
LINE
  5
201
330
1F
100
AcDbEntity
  8
C-2
  6
Continuous
 62
     3
370
     9
100
AcDbLine
 10
395.0240716160959
 20
513.2155147243191
 30
0.0
 11
392.5244378270334
 21
515.7156520534206
 31
0.0
  0
LINE
  5
202
330
1F
100
AcDbEntity
  8
C-2
  6
Continuous
 62
     3
370
     9
100
AcDbLine
 10
395.0240716160959
 20
513.2155147243191
 30
0.0
 11
365.0244378270334
 21
513.2155147243191
 31
0.0
  0
LINE
  5
203
330
1F
100
AcDbEntity
  8
C-2
  6
Continuous
 62
     3
370
     9
100
AcDbLine
 10
395.0240716160959
 20
513.2155147243191
 30
0.0
 11
395.0240716160959
 21
505.7156062770534
 31
0.0
  0
LINE
  5
204
330
1F
100
AcDbEntity
  8
C-4
  6
Continuous
 62
     7
370
     9
100
AcDbLine
 10
510.3167351903146
 20
440.7150569606472
 30
0.0
 11
510.3167351903146
 21
515.7151637721705
 31
0.0
  0
LINE
  5
205
330
1F
100
AcDbEntity
  8
C-4
  6
Continuous
 62
     7
370
     9
100
AcDbLine
 10
433.5279168309395
 20
440.7150569606472
 30
0.0
 11
513.3162469090646
 21
440.7150569606472
 31
0.0
  0
LINE
  5
206
330
1F
100
AcDbEntity
  8
C-4
  6
Continuous
 62
     7
370
     9
100
AcDbLine
 10
433.5279168309395
 20
515.7151637721705
 30
0.0
 11
513.3162469090646
 21
515.7151637721705
 31
0.0
  0
LINE
  5
207
330
1F
100
AcDbEntity
  8
C-4
  6
Continuous
 62
     7
370
     9
100
AcDbLine
 10
215.0237664403146
 20
526.1750026393579
 30
0.0
 11
215.0237664403146
 21
644.7173915553736
 31
0.0
  0
LINE
  5
208
330
1F
100
AcDbEntity
  8
C-4
  6
Continuous
 62
     7
370
     9
100
AcDbLine
 10
245.0234002293772
 20
526.1750026393579
 30
0.0
 11
245.0234002293772
 21
581.6001125026391
 31
0.0
  0
LINE
  5
209
330
1F
100
AcDbEntity
  8
C-4
  6
Continuous
 62
     7
370
     9
100
AcDbLine
 10
290.0238274754709
 20
526.1750026393579
 30
0.0
 11
290.0238274754709
 21
644.7173915553736
 31
0.0
  0
LINE
  5
20A
330
1F
100
AcDbEntity
  8
C-4
  6
Continuous
 62
     7
370
     9
100
AcDbLine
 10
320.0234612645334
 20
526.1750026393579
 30
0.0
 11
320.0234612645334
 21
581.6001125026391
 31
0.0
  0
LINE
  5
20B
330
1F
100
AcDbEntity
  8
C-4
  6
Continuous
 62
     7
370
     9
100
AcDbLine
 10
365.0239495457834
 20
526.1750026393579
 30
0.0
 11
365.0239495457834
 21
644.7173915553736
 31
0.0
  0
LINE
  5
20C
330
1F
100
AcDbEntity
  8
C-4
  6
Continuous
 62
     7
370
     9
100
AcDbLine
 10
395.0235833348458
 20
526.1750026393579
 30
0.0
 11
395.0235833348458
 21
581.6001125026391
 31
0.0
  0
LINE
  5
20D
330
1F
100
AcDbEntity
  8
C-4
  6
Continuous
 62
     7
370
     9
100
AcDbLine
 10
188.173302573127
 20
578.6000514674831
 30
0.0
 11
421.8749627293771
 21
578.6000514674831
 31
0.0
  0
LINE
  5
20E
330
1F
100
AcDbEntity
  8
C-4
  6
Continuous
 62
     7
370
     9
100
AcDbLine
 10
188.173302573127
 20
641.7173305202175
 30
0.0
 11
421.8749627293771
 21
641.7173305202175
 31
0.0
  0
LINE
  5
20F
330
1F
100
AcDbEntity
  8
C-2
  6
Continuous
 62
     3
370
     9
100
AcDbLine
 10
235.0235833348458
 20
495.8937678981471
 30
0.0
 11
300.0226067723459
 21
495.8937678981471
 31
0.0
  0
LINE
  5
210
330
1F
100
AcDbEntity
  8
C-2
  6
Continuous
 62
     3
370
     9
100
AcDbLine
 10
310.0241936864083
 20
495.8937678981471
 30
0.0
 11
375.0227288426584
 21
495.8937678981471
 31
0.0
  0
LINE
  5
211
330
1F
100
AcDbEntity
  8
C-2
  6
Continuous
 62
     3
370
     9
100
AcDbLine
 10
190.6751336278145
 20
495.8937678981471
 30
0.0
 11
225.0230340184396
 21
495.8937678981471
 31
0.0
  0
LINE
  5
212
330
1F
100
AcDbEntity
  8
C-2
  6
Continuous
 62
     3
370
     9
100
AcDbLine
 10
419.3716668309396
 20
495.8937678981471
 30
0.0
 11
385.0237664403146
 21
495.8937678981471
 31
0.0
  0
LINE
  5
213
330
1F
100
AcDbEntity
  8
C-2
  6
Continuous
 62
     3
370
     9
100
AcDbLine
 10
235.0235833348458
 20
478.2160945583033
 30
0.0
 11
300.0226067723459
 21
478.2160945583033
 31
0.0
  0
LINE
  5
214
330
1F
100
AcDbEntity
  8
C-2
  6
Continuous
 62
     3
370
     9
100
AcDbLine
 10
310.0241936864083
 20
478.2160945583033
 30
0.0
 11
375.0227288426584
 21
478.2160945583033
 31
0.0
  0
LINE
  5
215
330
1F
100
AcDbEntity
  8
C-2
  6
Continuous
 62
     3
370
     9
100
AcDbLine
 10
190.6751336278145
 20
478.2160945583033
 30
0.0
 11
225.0230340184396
 21
478.2160945583033
 31
0.0
  0
LINE
  5
216
330
1F
100
AcDbEntity
  8
C-2
  6
Continuous
 62
     3
370
     9
100
AcDbLine
 10
419.3716668309396
 20
478.2160945583033
 30
0.0
 11
385.0237664403146
 21
478.2160945583033
 31
0.0
  0
LINE
  5
217
330
1F
100
AcDbEntity
  8
C-2
  6
Continuous
 62
     3
370
     9
100
AcDbLine
 10
235.0235833348458
 20
460.5384212184597
 30
0.0
 11
300.0226067723459
 21
460.5384212184597
 31
0.0
  0
LINE
  5
218
330
1F
100
AcDbEntity
  8
C-2
  6
Continuous
 62
     3
370
     9
100
AcDbLine
 10
310.0241936864083
 20
460.5384212184597
 30
0.0
 11
375.0227288426584
 21
460.5384212184597
 31
0.0
  0
LINE
  5
219
330
1F
100
AcDbEntity
  8
C-2
  6
Continuous
 62
     3
370
     9
100
AcDbLine
 10
190.6751336278145
 20
460.5384212184597
 30
0.0
 11
225.0230340184396
 21
460.5384212184597
 31
0.0
  0
LINE
  5
21A
330
1F
100
AcDbEntity
  8
C-2
  6
Continuous
 62
     3
370
     9
100
AcDbLine
 10
419.3716668309396
 20
460.5384212184597
 30
0.0
 11
385.0237664403146
 21
460.5384212184597
 31
0.0
  0
LINE
  5
21B
330
1F
100
AcDbEntity
  8
C-A
  6
Continuous
 62
     3
370
     9
100
AcDbLine
 10
-513.6210928736502
 20
692.5722804713894
 30
0.0
 11
-504.6213980494315
 21
692.5722804713894
 31
0.0
  0
LINE
  5
21C
330
1F
100
AcDbEntity
  8
C-A
  6
Continuous
 62
     3
370
     9
100
AcDbLine
 10
-513.6210928736502
 20
696.1078029323269
 30
0.0
 11
-504.6213980494315
 21
696.1078029323269
 31
0.0
  0
LINE
  5
21D
330
1F
100
AcDbEntity
  8
C-A
  6
Continuous
 62
     3
370
     9
100
AcDbLine
 10
-513.6210928736502
 20
699.6433253932641
 30
0.0
 11
-504.6213980494315
 21
699.6433253932641
 31
0.0
  0
LINE
  5
21E
330
1F
100
AcDbEntity
  8
C-A
  6
Continuous
 62
     3
370
     9
100
AcDbLine
 10
-498.6210928736503
 20
692.5722804713894
 30
0.0
 11
-489.6213980494315
 21
692.5722804713894
 31
0.0
  0
LINE
  5
21F
330
1F
100
AcDbEntity
  8
C-A
  6
Continuous
 62
     3
370
     9
100
AcDbLine
 10
-498.6210928736503
 20
696.1078029323269
 30
0.0
 11
-489.6213980494315
 21
696.1078029323269
 31
0.0
  0
LINE
  5
220
330
1F
100
AcDbEntity
  8
C-A
  6
Continuous
 62
     3
370
     9
100
AcDbLine
 10
-498.6210928736503
 20
699.6433253932641
 30
0.0
 11
-489.6213980494315
 21
699.6433253932641
 31
0.0
  0
LINE
  5
221
330
1F
100
AcDbEntity
  8
C-A
  6
Continuous
 62
     3
370
     9
100
AcDbLine
 10
-483.6211005030448
 20
692.5722804713894
 30
0.0
 11
-474.621390420037
 21
692.5722804713894
 31
0.0
  0
LINE
  5
222
330
1F
100
AcDbEntity
  8
C-A
  6
Continuous
 62
     3
370
     9
100
AcDbLine
 10
-483.6211005030448
 20
696.1078029323269
 30
0.0
 11
-474.621390420037
 21
696.1078029323269
 31
0.0
  0
LINE
  5
223
330
1F
100
AcDbEntity
  8
C-A
  6
Continuous
 62
     3
370
     9
100
AcDbLine
 10
-483.6211005030448
 20
699.6433253932641
 30
0.0
 11
-474.621390420037
 21
699.6433253932641
 31
0.0
  0
LINE
  5
224
330
1F
100
AcDbEntity
  8
C-A
  6
Continuous
 62
     3
370
     9
100
AcDbLine
 10
-468.6211005030448
 20
692.5722804713894
 30
0.0
 11
-459.621390420037
 21
692.5722804713894
 31
0.0
  0
LINE
  5
225
330
1F
100
AcDbEntity
  8
C-A
  6
Continuous
 62
     3
370
     9
100
AcDbLine
 10
-468.6211005030448
 20
696.1078029323269
 30
0.0
 11
-459.621390420037
 21
696.1078029323269
 31
0.0
  0
LINE
  5
226
330
1F
100
AcDbEntity
  8
C-A
  6
Continuous
 62
     3
370
     9
100
AcDbLine
 10
-468.6211005030448
 20
699.6433253932641
 30
0.0
 11
-459.621390420037
 21
699.6433253932641
 31
0.0
  0
LINE
  5
227
330
1F
100
AcDbEntity
  8
C-A
  6
Continuous
 62
     3
370
     9
100
AcDbLine
 10
-453.6211005030448
 20
692.5722804713894
 30
0.0
 11
-444.621390420037
 21
692.5722804713894
 31
0.0
  0
LINE
  5
228
330
1F
100
AcDbEntity
  8
C-A
  6
Continuous
 62
     3
370
     9
100
AcDbLine
 10
-453.6211005030448
 20
696.1078029323269
 30
0.0
 11
-444.621390420037
 21
696.1078029323269
 31
0.0
  0
LINE
  5
229
330
1F
100
AcDbEntity
  8
C-A
  6
Continuous
 62
     3
370
     9
100
AcDbLine
 10
-453.6211005030448
 20
699.6433253932641
 30
0.0
 11
-444.621390420037
 21
699.6433253932641
 31
0.0
  0
LINE
  5
22A
330
1F
100
AcDbEntity
  8
C-A
  6
Continuous
 62
     3
370
     9
100
AcDbLine
 10
-438.6211005030448
 20
692.5722804713894
 30
0.0
 11
-429.621390420037
 21
692.5722804713894
 31
0.0
  0
LINE
  5
22B
330
1F
100
AcDbEntity
  8
C-A
  6
Continuous
 62
     3
370
     9
100
AcDbLine
 10
-438.6211005030448
 20
696.1078029323269
 30
0.0
 11
-429.621390420037
 21
696.1078029323269
 31
0.0
  0
LINE
  5
22C
330
1F
100
AcDbEntity
  8
C-A
  6
Continuous
 62
     3
370
     9
100
AcDbLine
 10
-438.6211005030448
 20
699.6433253932641
 30
0.0
 11
-429.621390420037
 21
699.6433253932641
 31
0.0
  0
LINE
  5
22D
330
1F
100
AcDbEntity
  8
C-A
  6
Continuous
 62
     3
370
     9
100
AcDbLine
 10
-423.6211005030448
 20
692.5722804713894
 30
0.0
 11
-414.621390420037
 21
692.5722804713894
 31
0.0
  0
LINE
  5
22E
330
1F
100
AcDbEntity
  8
C-A
  6
Continuous
 62
     3
370
     9
100
AcDbLine
 10
-423.6211005030448
 20
696.1078029323269
 30
0.0
 11
-414.621390420037
 21
696.1078029323269
 31
0.0
  0
LINE
  5
22F
330
1F
100
AcDbEntity
  8
C-A
  6
Continuous
 62
     3
370
     9
100
AcDbLine
 10
-423.6211005030448
 20
699.6433253932641
 30
0.0
 11
-414.621390420037
 21
699.6433253932641
 31
0.0
  0
LINE
  5
230
330
1F
100
AcDbEntity
  8
C-A
  6
Continuous
 62
     3
370
     9
100
AcDbLine
 10
-408.6211005030448
 20
692.5722804713894
 30
0.0
 11
-399.621390420037
 21
692.5722804713894
 31
0.0
  0
LINE
  5
231
330
1F
100
AcDbEntity
  8
C-A
  6
Continuous
 62
     3
370
     9
100
AcDbLine
 10
-408.6211005030448
 20
696.1078029323269
 30
0.0
 11
-399.621390420037
 21
696.1078029323269
 31
0.0
  0
LINE
  5
232
330
1F
100
AcDbEntity
  8
C-A
  6
Continuous
 62
     3
370
     9
100
AcDbLine
 10
-408.6211005030448
 20
699.6433253932641
 30
0.0
 11
-399.621390420037
 21
699.6433253932641
 31
0.0
  0
LINE
  5
233
330
1F
100
AcDbEntity
  8
C-A
  6
Continuous
 62
     3
370
     9
100
AcDbLine
 10
-393.6211005030448
 20
692.5722804713894
 30
0.0
 11
-384.621390420037
 21
692.5722804713894
 31
0.0
  0
LINE
  5
234
330
1F
100
AcDbEntity
  8
C-A
  6
Continuous
 62
     3
370
     9
100
AcDbLine
 10
-393.6211005030448
 20
696.1078029323269
 30
0.0
 11
-384.621390420037
 21
696.1078029323269
 31
0.0
  0
LINE
  5
235
330
1F
100
AcDbEntity
  8
C-A
  6
Continuous
 62
     3
370
     9
100
AcDbLine
 10
-393.6211005030448
 20
699.6433253932641
 30
0.0
 11
-384.621390420037
 21
699.6433253932641
 31
0.0
  0
LINE
  5
236
330
1F
100
AcDbEntity
  8
C-A
  6
Continuous
 62
     3
370
     9
100
AcDbLine
 10
-378.6211005030448
 20
692.5722804713894
 30
0.0
 11
-369.621390420037
 21
692.5722804713894
 31
0.0
  0
LINE
  5
237
330
1F
100
AcDbEntity
  8
C-A
  6
Continuous
 62
     3
370
     9
100
AcDbLine
 10
-378.6211005030448
 20
696.1078029323269
 30
0.0
 11
-369.621390420037
 21
696.1078029323269
 31
0.0
  0
LINE
  5
238
330
1F
100
AcDbEntity
  8
C-A
  6
Continuous
 62
     3
370
     9
100
AcDbLine
 10
-378.6211005030448
 20
699.6433253932641
 30
0.0
 11
-369.621390420037
 21
699.6433253932641
 31
0.0
  0
LINE
  5
239
330
1F
100
AcDbEntity
  8
C-A
  6
Continuous
 62
     3
370
     9
100
AcDbLine
 10
-363.6211005030448
 20
692.5722804713894
 30
0.0
 11
-354.6214056788261
 21
692.5722804713894
 31
0.0
  0
LINE
  5
23A
330
1F
100
AcDbEntity
  8
C-A
  6
Continuous
 62
     3
370
     9
100
AcDbLine
 10
-363.6211005030448
 20
696.1078029323269
 30
0.0
 11
-354.6214056788261
 21
696.1078029323269
 31
0.0
  0
LINE
  5
23B
330
1F
100
AcDbEntity
  8
C-A
  6
Continuous
 62
     3
370
     9
100
AcDbLine
 10
-363.6211005030448
 20
699.6433253932641
 30
0.0
 11
-354.6214056788261
 21
699.6433253932641
 31
0.0
  0
LINE
  5
23C
330
1F
100
AcDbEntity
  8
C-A
  6
Continuous
 62
     3
370
     9
100
AcDbLine
 10
-348.6211005030448
 20
692.5722804713894
 30
0.0
 11
-339.6214056788261
 21
692.5722804713894
 31
0.0
  0
LINE
  5
23D
330
1F
100
AcDbEntity
  8
C-A
  6
Continuous
 62
     3
370
     9
100
AcDbLine
 10
-348.6211005030448
 20
696.1078029323269
 30
0.0
 11
-339.6214056788261
 21
696.1078029323269
 31
0.0
  0
LINE
  5
23E
330
1F
100
AcDbEntity
  8
C-A
  6
Continuous
 62
     3
370
     9
100
AcDbLine
 10
-348.6211005030448
 20
699.6433253932641
 30
0.0
 11
-339.6214056788261
 21
699.6433253932641
 31
0.0
  0
LINE
  5
23F
330
1F
100
AcDbEntity
  8
C-A
  6
Continuous
 62
     3
370
     9
100
AcDbLine
 10
-333.6211005030448
 20
692.5722804713894
 30
0.0
 11
-324.6214056788261
 21
692.5722804713894
 31
0.0
  0
LINE
  5
240
330
1F
100
AcDbEntity
  8
C-A
  6
Continuous
 62
     3
370
     9
100
AcDbLine
 10
-333.6211005030448
 20
696.1078029323269
 30
0.0
 11
-324.6214056788261
 21
696.1078029323269
 31
0.0
  0
LINE
  5
241
330
1F
100
AcDbEntity
  8
C-A
  6
Continuous
 62
     3
370
     9
100
AcDbLine
 10
-333.6211005030448
 20
699.6433253932641
 30
0.0
 11
-324.6214056788261
 21
699.6433253932641
 31
0.0
  0
LINE
  5
242
330
1F
100
AcDbEntity
  8
C-A
  6
Continuous
 62
     3
370
     9
100
AcDbLine
 10
-318.6211005030448
 20
692.5722804713894
 30
0.0
 11
-309.6214056788261
 21
692.5722804713894
 31
0.0
  0
LINE
  5
243
330
1F
100
AcDbEntity
  8
C-A
  6
Continuous
 62
     3
370
     9
100
AcDbLine
 10
-318.6211005030448
 20
696.1078029323269
 30
0.0
 11
-309.6214056788261
 21
696.1078029323269
 31
0.0
  0
LINE
  5
244
330
1F
100
AcDbEntity
  8
C-A
  6
Continuous
 62
     3
370
     9
100
AcDbLine
 10
-318.6211005030448
 20
699.6433253932641
 30
0.0
 11
-309.6214056788261
 21
699.6433253932641
 31
0.0
  0
LINE
  5
245
330
1F
100
AcDbEntity
  8
C-A
  6
Continuous
 62
     3
370
     9
100
AcDbLine
 10
-303.6211005030448
 20
692.5722804713894
 30
0.0
 11
-294.6214056788261
 21
692.5722804713894
 31
0.0
  0
LINE
  5
246
330
1F
100
AcDbEntity
  8
C-A
  6
Continuous
 62
     3
370
     9
100
AcDbLine
 10
-303.6211005030448
 20
696.1078029323269
 30
0.0
 11
-294.6214056788261
 21
696.1078029323269
 31
0.0
  0
LINE
  5
247
330
1F
100
AcDbEntity
  8
C-A
  6
Continuous
 62
     3
370
     9
100
AcDbLine
 10
-303.6211005030448
 20
699.6433253932641
 30
0.0
 11
-294.6214056788261
 21
699.6433253932641
 31
0.0
  0
LINE
  5
248
330
1F
100
AcDbEntity
  8
C-A
  6
Continuous
 62
     3
370
     9
100
AcDbLine
 10
-288.6211005030448
 20
692.5722804713894
 30
0.0
 11
-279.6214056788261
 21
692.5722804713894
 31
0.0
  0
LINE
  5
249
330
1F
100
AcDbEntity
  8
C-A
  6
Continuous
 62
     3
370
     9
100
AcDbLine
 10
-288.6211005030448
 20
696.1078029323269
 30
0.0
 11
-279.6214056788261
 21
696.1078029323269
 31
0.0
  0
LINE
  5
24A
330
1F
100
AcDbEntity
  8
C-A
  6
Continuous
 62
     3
370
     9
100
AcDbLine
 10
-288.6211005030448
 20
699.6433253932641
 30
0.0
 11
-279.6214056788261
 21
699.6433253932641
 31
0.0
  0
LINE
  5
24B
330
1F
100
AcDbEntity
  8
C-A
  6
Continuous
 62
     3
370
     9
100
AcDbLine
 10
-273.6211005030448
 20
692.5722804713894
 30
0.0
 11
-264.6214056788261
 21
692.5722804713894
 31
0.0
  0
LINE
  5
24C
330
1F
100
AcDbEntity
  8
C-A
  6
Continuous
 62
     3
370
     9
100
AcDbLine
 10
-273.6211005030448
 20
696.1078029323269
 30
0.0
 11
-264.6214056788261
 21
696.1078029323269
 31
0.0
  0
LINE
  5
24D
330
1F
100
AcDbEntity
  8
C-A
  6
Continuous
 62
     3
370
     9
100
AcDbLine
 10
-273.6211005030448
 20
699.6433253932641
 30
0.0
 11
-264.6214056788261
 21
699.6433253932641
 31
0.0
  0
LINE
  5
24E
330
1F
100
AcDbEntity
  8
C-A
  6
Continuous
 62
     3
370
     9
100
AcDbLine
 10
-258.621131020623
 20
692.5722804713894
 30
0.0
 11
-249.6214361964041
 21
692.5722804713894
 31
0.0
  0
LINE
  5
24F
330
1F
100
AcDbEntity
  8
C-A
  6
Continuous
 62
     3
370
     9
100
AcDbLine
 10
-258.621131020623
 20
696.1078029323269
 30
0.0
 11
-249.6214361964041
 21
696.1078029323269
 31
0.0
  0
LINE
  5
250
330
1F
100
AcDbEntity
  8
C-A
  6
Continuous
 62
     3
370
     9
100
AcDbLine
 10
-258.621131020623
 20
699.6433253932641
 30
0.0
 11
-249.6214361964041
 21
699.6433253932641
 31
0.0
  0
LINE
  5
251
330
1F
100
AcDbEntity
  8
C-A
  6
Continuous
 62
     3
370
     9
100
AcDbLine
 10
-243.621131020623
 20
692.5722804713894
 30
0.0
 11
-234.6214361964041
 21
692.5722804713894
 31
0.0
  0
LINE
  5
252
330
1F
100
AcDbEntity
  8
C-A
  6
Continuous
 62
     3
370
     9
100
AcDbLine
 10
-243.621131020623
 20
696.1078029323269
 30
0.0
 11
-234.6214361964041
 21
696.1078029323269
 31
0.0
  0
LINE
  5
253
330
1F
100
AcDbEntity
  8
C-A
  6
Continuous
 62
     3
370
     9
100
AcDbLine
 10
-243.621131020623
 20
699.6433253932641
 30
0.0
 11
-234.6214361964041
 21
699.6433253932641
 31
0.0
  0
LINE
  5
254
330
1F
100
AcDbEntity
  8
C-A
  6
Continuous
 62
     3
370
     9
100
AcDbLine
 10
-228.621131020623
 20
692.5722804713894
 30
0.0
 11
-219.6214361964041
 21
692.5722804713894
 31
0.0
  0
LINE
  5
255
330
1F
100
AcDbEntity
  8
C-A
  6
Continuous
 62
     3
370
     9
100
AcDbLine
 10
-228.621131020623
 20
696.1078029323269
 30
0.0
 11
-219.6214361964041
 21
696.1078029323269
 31
0.0
  0
LINE
  5
256
330
1F
100
AcDbEntity
  8
C-A
  6
Continuous
 62
     3
370
     9
100
AcDbLine
 10
-228.621131020623
 20
699.6433253932641
 30
0.0
 11
-219.6214361964041
 21
699.6433253932641
 31
0.0
  0
LINE
  5
257
330
1F
100
AcDbEntity
  8
C-A
  6
Continuous
 62
     3
370
     9
100
AcDbLine
 10
-213.6211920557793
 20
692.5722804713894
 30
0.0
 11
-204.6214972315605
 21
692.5722804713894
 31
0.0
  0
LINE
  5
258
330
1F
100
AcDbEntity
  8
C-A
  6
Continuous
 62
     3
370
     9
100
AcDbLine
 10
-213.6211920557793
 20
696.1078029323269
 30
0.0
 11
-204.6214972315605
 21
696.1078029323269
 31
0.0
  0
LINE
  5
259
330
1F
100
AcDbEntity
  8
C-A
  6
Continuous
 62
     3
370
     9
100
AcDbLine
 10
-213.6211920557793
 20
699.6433253932641
 30
0.0
 11
-204.6214972315605
 21
699.6433253932641
 31
0.0
  0
LINE
  5
25A
330
1F
100
AcDbEntity
  8
C-A
  6
Continuous
 62
     3
370
     9
100
AcDbLine
 10
-513.6210928736502
 20
592.5722804713894
 30
0.0
 11
-504.6213980494315
 21
592.5722804713894
 31
0.0
  0
LINE
  5
25B
330
1F
100
AcDbEntity
  8
C-A
  6
Continuous
 62
     3
370
     9
100
AcDbLine
 10
-513.6210928736502
 20
596.1078029323269
 30
0.0
 11
-504.6213980494315
 21
596.1078029323269
 31
0.0
  0
LINE
  5
25C
330
1F
100
AcDbEntity
  8
C-A
  6
Continuous
 62
     3
370
     9
100
AcDbLine
 10
-513.6210928736502
 20
599.6433253932641
 30
0.0
 11
-504.6213980494315
 21
599.6433253932641
 31
0.0
  0
LINE
  5
25D
330
1F
100
AcDbEntity
  8
C-A
  6
Continuous
 62
     3
370
     9
100
AcDbLine
 10
-498.6210928736503
 20
592.5722804713894
 30
0.0
 11
-489.6213980494315
 21
592.5722804713894
 31
0.0
  0
LINE
  5
25E
330
1F
100
AcDbEntity
  8
C-A
  6
Continuous
 62
     3
370
     9
100
AcDbLine
 10
-498.6210928736503
 20
596.1078029323269
 30
0.0
 11
-489.6213980494315
 21
596.1078029323269
 31
0.0
  0
LINE
  5
25F
330
1F
100
AcDbEntity
  8
C-A
  6
Continuous
 62
     3
370
     9
100
AcDbLine
 10
-498.6210928736503
 20
599.6433253932641
 30
0.0
 11
-489.6213980494315
 21
599.6433253932641
 31
0.0
  0
LINE
  5
260
330
1F
100
AcDbEntity
  8
C-A
  6
Continuous
 62
     3
370
     9
100
AcDbLine
 10
-483.6211005030448
 20
592.5722804713894
 30
0.0
 11
-474.621390420037
 21
592.5722804713894
 31
0.0
  0
LINE
  5
261
330
1F
100
AcDbEntity
  8
C-A
  6
Continuous
 62
     3
370
     9
100
AcDbLine
 10
-483.6211005030448
 20
596.1078029323269
 30
0.0
 11
-474.621390420037
 21
596.1078029323269
 31
0.0
  0
LINE
  5
262
330
1F
100
AcDbEntity
  8
C-A
  6
Continuous
 62
     3
370
     9
100
AcDbLine
 10
-483.6211005030448
 20
599.6433253932641
 30
0.0
 11
-474.621390420037
 21
599.6433253932641
 31
0.0
  0
LINE
  5
263
330
1F
100
AcDbEntity
  8
C-A
  6
Continuous
 62
     3
370
     9
100
AcDbLine
 10
-468.6211005030448
 20
592.5722804713894
 30
0.0
 11
-459.621390420037
 21
592.5722804713894
 31
0.0
  0
LINE
  5
264
330
1F
100
AcDbEntity
  8
C-A
  6
Continuous
 62
     3
370
     9
100
AcDbLine
 10
-468.6211005030448
 20
596.1078029323269
 30
0.0
 11
-459.621390420037
 21
596.1078029323269
 31
0.0
  0
LINE
  5
265
330
1F
100
AcDbEntity
  8
C-A
  6
Continuous
 62
     3
370
     9
100
AcDbLine
 10
-468.6211005030448
 20
599.6433253932641
 30
0.0
 11
-459.621390420037
 21
599.6433253932641
 31
0.0
  0
LINE
  5
266
330
1F
100
AcDbEntity
  8
C-A
  6
Continuous
 62
     3
370
     9
100
AcDbLine
 10
-453.6211005030448
 20
592.5722804713894
 30
0.0
 11
-444.621390420037
 21
592.5722804713894
 31
0.0
  0
LINE
  5
267
330
1F
100
AcDbEntity
  8
C-A
  6
Continuous
 62
     3
370
     9
100
AcDbLine
 10
-453.6211005030448
 20
596.1078029323269
 30
0.0
 11
-444.621390420037
 21
596.1078029323269
 31
0.0
  0
LINE
  5
268
330
1F
100
AcDbEntity
  8
C-A
  6
Continuous
 62
     3
370
     9
100
AcDbLine
 10
-453.6211005030448
 20
599.6433253932641
 30
0.0
 11
-444.621390420037
 21
599.6433253932641
 31
0.0
  0
LINE
  5
269
330
1F
100
AcDbEntity
  8
C-A
  6
Continuous
 62
     3
370
     9
100
AcDbLine
 10
-438.6211005030448
 20
592.5722804713894
 30
0.0
 11
-429.621390420037
 21
592.5722804713894
 31
0.0
  0
LINE
  5
26A
330
1F
100
AcDbEntity
  8
C-A
  6
Continuous
 62
     3
370
     9
100
AcDbLine
 10
-438.6211005030448
 20
596.1078029323269
 30
0.0
 11
-429.621390420037
 21
596.1078029323269
 31
0.0
  0
LINE
  5
26B
330
1F
100
AcDbEntity
  8
C-A
  6
Continuous
 62
     3
370
     9
100
AcDbLine
 10
-438.6211005030448
 20
599.6433253932641
 30
0.0
 11
-429.621390420037
 21
599.6433253932641
 31
0.0
  0
LINE
  5
26C
330
1F
100
AcDbEntity
  8
C-A
  6
Continuous
 62
     3
370
     9
100
AcDbLine
 10
-423.6211005030448
 20
592.5722804713894
 30
0.0
 11
-414.621390420037
 21
592.5722804713894
 31
0.0
  0
LINE
  5
26D
330
1F
100
AcDbEntity
  8
C-A
  6
Continuous
 62
     3
370
     9
100
AcDbLine
 10
-423.6211005030448
 20
596.1078029323269
 30
0.0
 11
-414.621390420037
 21
596.1078029323269
 31
0.0
  0
LINE
  5
26E
330
1F
100
AcDbEntity
  8
C-A
  6
Continuous
 62
     3
370
     9
100
AcDbLine
 10
-423.6211005030448
 20
599.6433253932641
 30
0.0
 11
-414.621390420037
 21
599.6433253932641
 31
0.0
  0
LINE
  5
26F
330
1F
100
AcDbEntity
  8
C-A
  6
Continuous
 62
     3
370
     9
100
AcDbLine
 10
-408.6211005030448
 20
592.5722804713894
 30
0.0
 11
-399.621390420037
 21
592.5722804713894
 31
0.0
  0
LINE
  5
270
330
1F
100
AcDbEntity
  8
C-A
  6
Continuous
 62
     3
370
     9
100
AcDbLine
 10
-408.6211005030448
 20
596.1078029323269
 30
0.0
 11
-399.621390420037
 21
596.1078029323269
 31
0.0
  0
LINE
  5
271
330
1F
100
AcDbEntity
  8
C-A
  6
Continuous
 62
     3
370
     9
100
AcDbLine
 10
-408.6211005030448
 20
599.6433253932641
 30
0.0
 11
-399.621390420037
 21
599.6433253932641
 31
0.0
  0
LINE
  5
272
330
1F
100
AcDbEntity
  8
C-A
  6
Continuous
 62
     3
370
     9
100
AcDbLine
 10
-393.6211005030448
 20
592.5722804713894
 30
0.0
 11
-384.621390420037
 21
592.5722804713894
 31
0.0
  0
LINE
  5
273
330
1F
100
AcDbEntity
  8
C-A
  6
Continuous
 62
     3
370
     9
100
AcDbLine
 10
-393.6211005030448
 20
596.1078029323269
 30
0.0
 11
-384.621390420037
 21
596.1078029323269
 31
0.0
  0
LINE
  5
274
330
1F
100
AcDbEntity
  8
C-A
  6
Continuous
 62
     3
370
     9
100
AcDbLine
 10
-393.6211005030448
 20
599.6433253932641
 30
0.0
 11
-384.621390420037
 21
599.6433253932641
 31
0.0
  0
LINE
  5
275
330
1F
100
AcDbEntity
  8
C-A
  6
Continuous
 62
     3
370
     9
100
AcDbLine
 10
-378.6211005030448
 20
592.5722804713894
 30
0.0
 11
-369.621390420037
 21
592.5722804713894
 31
0.0
  0
LINE
  5
276
330
1F
100
AcDbEntity
  8
C-A
  6
Continuous
 62
     3
370
     9
100
AcDbLine
 10
-378.6211005030448
 20
596.1078029323269
 30
0.0
 11
-369.621390420037
 21
596.1078029323269
 31
0.0
  0
LINE
  5
277
330
1F
100
AcDbEntity
  8
C-A
  6
Continuous
 62
     3
370
     9
100
AcDbLine
 10
-378.6211005030448
 20
599.6433253932641
 30
0.0
 11
-369.621390420037
 21
599.6433253932641
 31
0.0
  0
LINE
  5
278
330
1F
100
AcDbEntity
  8
C-A
  6
Continuous
 62
     3
370
     9
100
AcDbLine
 10
-363.6211005030448
 20
592.5722804713894
 30
0.0
 11
-354.6214056788261
 21
592.5722804713894
 31
0.0
  0
LINE
  5
279
330
1F
100
AcDbEntity
  8
C-A
  6
Continuous
 62
     3
370
     9
100
AcDbLine
 10
-363.6211005030448
 20
596.1078029323269
 30
0.0
 11
-354.6214056788261
 21
596.1078029323269
 31
0.0
  0
LINE
  5
27A
330
1F
100
AcDbEntity
  8
C-A
  6
Continuous
 62
     3
370
     9
100
AcDbLine
 10
-363.6211005030448
 20
599.6433253932641
 30
0.0
 11
-354.6214056788261
 21
599.6433253932641
 31
0.0
  0
LINE
  5
27B
330
1F
100
AcDbEntity
  8
C-A
  6
Continuous
 62
     3
370
     9
100
AcDbLine
 10
-348.6211005030448
 20
592.5722804713894
 30
0.0
 11
-339.6214056788261
 21
592.5722804713894
 31
0.0
  0
LINE
  5
27C
330
1F
100
AcDbEntity
  8
C-A
  6
Continuous
 62
     3
370
     9
100
AcDbLine
 10
-348.6211005030448
 20
596.1078029323269
 30
0.0
 11
-339.6214056788261
 21
596.1078029323269
 31
0.0
  0
LINE
  5
27D
330
1F
100
AcDbEntity
  8
C-A
  6
Continuous
 62
     3
370
     9
100
AcDbLine
 10
-348.6211005030448
 20
599.6433253932641
 30
0.0
 11
-339.6214056788261
 21
599.6433253932641
 31
0.0
  0
LINE
  5
27E
330
1F
100
AcDbEntity
  8
C-A
  6
Continuous
 62
     3
370
     9
100
AcDbLine
 10
-333.6211005030448
 20
592.5722804713894
 30
0.0
 11
-324.6214056788261
 21
592.5722804713894
 31
0.0
  0
LINE
  5
27F
330
1F
100
AcDbEntity
  8
C-A
  6
Continuous
 62
     3
370
     9
100
AcDbLine
 10
-333.6211005030448
 20
596.1078029323269
 30
0.0
 11
-324.6214056788261
 21
596.1078029323269
 31
0.0
  0
LINE
  5
280
330
1F
100
AcDbEntity
  8
C-A
  6
Continuous
 62
     3
370
     9
100
AcDbLine
 10
-333.6211005030448
 20
599.6433253932641
 30
0.0
 11
-324.6214056788261
 21
599.6433253932641
 31
0.0
  0
LINE
  5
281
330
1F
100
AcDbEntity
  8
C-A
  6
Continuous
 62
     3
370
     9
100
AcDbLine
 10
-318.6211005030448
 20
592.5722804713894
 30
0.0
 11
-309.6214056788261
 21
592.5722804713894
 31
0.0
  0
LINE
  5
282
330
1F
100
AcDbEntity
  8
C-A
  6
Continuous
 62
     3
370
     9
100
AcDbLine
 10
-318.6211005030448
 20
596.1078029323269
 30
0.0
 11
-309.6214056788261
 21
596.1078029323269
 31
0.0
  0
LINE
  5
283
330
1F
100
AcDbEntity
  8
C-A
  6
Continuous
 62
     3
370
     9
100
AcDbLine
 10
-318.6211005030448
 20
599.6433253932641
 30
0.0
 11
-309.6214056788261
 21
599.6433253932641
 31
0.0
  0
LINE
  5
284
330
1F
100
AcDbEntity
  8
C-A
  6
Continuous
 62
     3
370
     9
100
AcDbLine
 10
-303.6211005030448
 20
592.5722804713894
 30
0.0
 11
-294.6214056788261
 21
592.5722804713894
 31
0.0
  0
LINE
  5
285
330
1F
100
AcDbEntity
  8
C-A
  6
Continuous
 62
     3
370
     9
100
AcDbLine
 10
-303.6211005030448
 20
596.1078029323269
 30
0.0
 11
-294.6214056788261
 21
596.1078029323269
 31
0.0
  0
LINE
  5
286
330
1F
100
AcDbEntity
  8
C-A
  6
Continuous
 62
     3
370
     9
100
AcDbLine
 10
-303.6211005030448
 20
599.6433253932641
 30
0.0
 11
-294.6214056788261
 21
599.6433253932641
 31
0.0
  0
LINE
  5
287
330
1F
100
AcDbEntity
  8
C-A
  6
Continuous
 62
     3
370
     9
100
AcDbLine
 10
-288.6211005030448
 20
596.1078029323269
 30
0.0
 11
-279.6214056788261
 21
596.1078029323269
 31
0.0
  0
LINE
  5
288
330
1F
100
AcDbEntity
  8
C-A
  6
Continuous
 62
     3
370
     9
100
AcDbLine
 10
-288.6211005030448
 20
599.6433253932641
 30
0.0
 11
-279.6214056788261
 21
599.6433253932641
 31
0.0
  0
LINE
  5
289
330
1F
100
AcDbEntity
  8
C-A
  6
Continuous
 62
     3
370
     9
100
AcDbLine
 10
-523.1212073145683
 20
792.5722804713894
 30
0.0
 11
-519.6217184840019
 21
792.5722804713894
 31
0.0
  0
LINE
  5
28A
330
1F
100
AcDbEntity
  8
C-A
  6
Continuous
 62
     3
370
     9
100
AcDbLine
 10
-523.1212073145683
 20
796.1078029323269
 30
0.0
 11
-519.6217184840019
 21
796.1078029323269
 31
0.0
  0
LINE
  5
28B
330
1F
100
AcDbEntity
  8
C-A
  6
Continuous
 62
     3
370
     9
100
AcDbLine
 10
-523.1212073145683
 20
799.6433253932641
 30
0.0
 11
-519.6217184840019
 21
799.6433253932641
 31
0.0
  0
LINE
  5
28C
330
1F
100
AcDbEntity
  8
C-A
  6
Continuous
 62
     3
370
     9
100
AcDbLine
 10
-519.6217184840019
 20
692.5722804713894
 30
0.0
 11
-523.1212073145683
 21
692.5722804713894
 31
0.0
  0
LINE
  5
28D
330
1F
100
AcDbEntity
  8
C-A
  6
Continuous
 62
     3
370
     9
100
AcDbLine
 10
-519.6217184840019
 20
696.1078029323269
 30
0.0
 11
-523.1212073145683
 21
696.1078029323269
 31
0.0
  0
LINE
  5
28E
330
1F
100
AcDbEntity
  8
C-A
  6
Continuous
 62
     3
370
     9
100
AcDbLine
 10
-519.6217184840019
 20
699.6433253932641
 30
0.0
 11
-523.1212073145683
 21
699.6433253932641
 31
0.0
  0
LINE
  5
28F
330
1F
100
AcDbEntity
  8
C-A
  6
Continuous
 62
     3
370
     9
100
AcDbLine
 10
-519.6217184840019
 20
592.5722804713894
 30
0.0
 11
-523.1212073145683
 21
592.5722804713894
 31
0.0
  0
LINE
  5
290
330
1F
100
AcDbEntity
  8
C-A
  6
Continuous
 62
     3
370
     9
100
AcDbLine
 10
-519.6217184840019
 20
596.1078029323269
 30
0.0
 11
-523.1212073145683
 21
596.1078029323269
 31
0.0
  0
LINE
  5
291
330
1F
100
AcDbEntity
  8
C-A
  6
Continuous
 62
     3
370
     9
100
AcDbLine
 10
-519.6217184840019
 20
599.6433253932641
 30
0.0
 11
-523.1212073145683
 21
599.6433253932641
 31
0.0
  0
LINE
  5
292
330
1F
100
AcDbEntity
  8
C-A
  6
Continuous
 62
     3
370
     9
100
AcDbLine
 10
-523.1212073145683
 20
499.1082912135769
 30
0.0
 11
-523.1212073145683
 21
893.1073146510769
 31
0.0
  0
LINE
  5
293
330
1F
100
AcDbEntity
  8
C-2
  6
Continuous
 62
     3
370
     9
100
AcDbLine
 10
-529.1213370142754
 20
496.1077266383816
 30
0.0
 11
-529.1213370142754
 21
896.1078639674829
 31
0.0
  0
LINE
  5
294
330
1F
100
AcDbEntity
  8
C-1
  6
Continuous
 62
     2
370
     9
100
AcDbLine
 10
-530.1216879664237
 20
495.1076198268581
 30
0.0
 11
-530.1216879664237
 21
897.1076808620146
 31
0.0
  0
LINE
  5
295
330
1F
100
AcDbEntity
  8
C-A
  6
Continuous
 62
     3
370
     9
100
AcDbLine
 10
-288.6211005030448
 20
592.5722804713894
 30
0.0
 11
-282.6571417628105
 21
592.5722804713894
 31
0.0
  0
LINE
  5
296
330
1F
100
AcDbEntity
  8
C-A
  6
Continuous
 62
     3
370
     9
100
AcDbLine
 10
-198.6211920557793
 20
692.5722804713894
 30
0.0
 11
-189.6214972315605
 21
692.5722804713894
 31
0.0
  0
LINE
  5
297
330
1F
100
AcDbEntity
  8
C-A
  6
Continuous
 62
     3
370
     9
100
AcDbLine
 10
-198.6211920557793
 20
696.1078029323269
 30
0.0
 11
-189.6214972315605
 21
696.1078029323269
 31
0.0
  0
LINE
  5
298
330
1F
100
AcDbEntity
  8
C-A
  6
Continuous
 62
     3
370
     9
100
AcDbLine
 10
-198.6211920557793
 20
699.6433253932641
 30
0.0
 11
-189.6214972315605
 21
699.6433253932641
 31
0.0
  0
LINE
  5
299
330
1F
100
AcDbEntity
  8
C-A
  6
Continuous
 62
     3
370
     9
100
AcDbLine
 10
-183.6212530909354
 20
699.6433253932641
 30
0.0
 11
-175.5858832178885
 21
699.6433253932641
 31
0.0
  0
LINE
  5
29A
330
1F
100
AcDbEntity
  8
C-A
  6
Continuous
 62
     3
370
     9
100
AcDbLine
 10
-183.6212530909354
 20
696.1078029323269
 30
0.0
 11
-179.121405678826
 21
696.1078029323269
 31
0.0
  0
LINE
  5
29B
330
1F
100
AcDbEntity
  8
C-A
  6
Continuous
 62
     3
370
     9
100
AcDbLine
 10
-183.6210394678886
 20
893.1073146510769
 30
0.0
 11
-183.6210394678886
 21
691.6081691432644
 31
0.0
  0
LINE
  5
29C
330
1F
100
AcDbEntity
  8
C-A
  6
Continuous
 62
     3
370
     9
100
AcDbLine
 10
-183.6212530909354
 20
692.5722804713894
 30
0.0
 11
-182.6569586573416
 21
692.5722804713894
 31
0.0
  0
LINE
  5
29D
330
1F
100
AcDbEntity
  8
C-A
  6
Continuous
 62
     3
370
     9
100
AcDbLine
 10
-168.6212530909354
 20
799.6433253932641
 30
0.0
 11
-159.6215582667167
 21
799.6433253932641
 31
0.0
  0
LINE
  5
29E
330
1F
100
AcDbEntity
  8
C-A
  6
Continuous
 62
     3
370
     9
100
AcDbLine
 10
-168.6212530909354
 20
796.1078029323269
 30
0.0
 11
-159.6215582667167
 21
796.1078029323269
 31
0.0
  0
LINE
  5
29F
330
1F
100
AcDbEntity
  8
C-A
  6
Continuous
 62
     3
370
     9
100
AcDbLine
 10
-168.6212530909354
 20
792.5722804713894
 30
0.0
 11
-159.6215582667167
 21
792.5722804713894
 31
0.0
  0
LINE
  5
2A0
330
1F
100
AcDbEntity
  8
C-A
  6
Continuous
 62
     3
370
     9
100
AcDbLine
 10
-183.6211920557793
 20
799.6433253932641
 30
0.0
 11
-174.6214972315605
 21
799.6433253932641
 31
0.0
  0
LINE
  5
2A1
330
1F
100
AcDbEntity
  8
C-A
  6
Continuous
 62
     3
370
     9
100
AcDbLine
 10
-183.6211920557793
 20
796.1078029323269
 30
0.0
 11
-174.6214972315605
 21
796.1078029323269
 31
0.0
  0
LINE
  5
2A2
330
1F
100
AcDbEntity
  8
C-A
  6
Continuous
 62
     3
370
     9
100
AcDbLine
 10
-183.6211920557793
 20
792.5722804713894
 30
0.0
 11
-174.6214972315605
 21
792.5722804713894
 31
0.0
  0
LINE
  5
2A3
330
1F
100
AcDbEntity
  8
C-A
  6
Continuous
 62
     3
370
     9
100
AcDbLine
 10
-198.6211920557793
 20
799.6433253932641
 30
0.0
 11
-189.6214972315605
 21
799.6433253932641
 31
0.0
  0
LINE
  5
2A4
330
1F
100
AcDbEntity
  8
C-A
  6
Continuous
 62
     3
370
     9
100
AcDbLine
 10
-198.6211920557793
 20
796.1078029323269
 30
0.0
 11
-189.6214972315605
 21
796.1078029323269
 31
0.0
  0
LINE
  5
2A5
330
1F
100
AcDbEntity
  8
C-A
  6
Continuous
 62
     3
370
     9
100
AcDbLine
 10
-198.6211920557793
 20
792.5722804713894
 30
0.0
 11
-189.6214972315605
 21
792.5722804713894
 31
0.0
  0
LINE
  5
2A6
330
1F
100
AcDbEntity
  8
C-A
  6
Continuous
 62
     3
370
     9
100
AcDbLine
 10
-153.6212530909354
 20
799.6433253932641
 30
0.0
 11
-144.6215582667167
 21
799.6433253932641
 31
0.0
  0
LINE
  5
2A7
330
1F
100
AcDbEntity
  8
C-A
  6
Continuous
 62
     3
370
     9
100
AcDbLine
 10
-153.6212530909354
 20
796.1078029323269
 30
0.0
 11
-144.6215582667167
 21
796.1078029323269
 31
0.0
  0
LINE
  5
2A8
330
1F
100
AcDbEntity
  8
C-A
  6
Continuous
 62
     3
370
     9
100
AcDbLine
 10
-153.6212530909354
 20
792.5722804713894
 30
0.0
 11
-144.6215582667167
 21
792.5722804713894
 31
0.0
  0
LINE
  5
2A9
330
1F
100
AcDbEntity
  8
C-2
  6
Continuous
 62
     3
370
     9
100
AcDbLine
 10
-129.1214667139823
 20
896.1078639674829
 30
0.0
 11
-129.1214667139823
 21
496.1077266383816
 31
0.0
  0
LINE
  5
2AA
330
1F
100
AcDbEntity
  8
C-A
  6
Continuous
 62
     3
370
     9
100
AcDbLine
 10
-138.6212530909354
 20
799.6433253932641
 30
0.0
 11
-135.1215887842948
 21
799.6433253932641
 31
0.0
  0
LINE
  5
2AB
330
1F
100
AcDbEntity
  8
C-A
  6
Continuous
 62
     3
370
     9
100
AcDbLine
 10
-138.6212530909354
 20
796.1078029323269
 30
0.0
 11
-135.1215887842948
 21
796.1078029323269
 31
0.0
  0
LINE
  5
2AC
330
1F
100
AcDbEntity
  8
C-A
  6
Continuous
 62
     3
370
     9
100
AcDbLine
 10
-138.6212530909354
 20
792.5722804713894
 30
0.0
 11
-135.1215887842948
 21
792.5722804713894
 31
0.0
  0
LINE
  5
2AD
330
1F
100
AcDbEntity
  8
C-A
  6
Continuous
 62
     3
370
     9
100
AcDbLine
 10
-135.1215887842948
 20
893.1073146510769
 30
0.0
 11
-135.1215887842948
 21
740.1075282741238
 31
0.0
  0
ARC
  5
2AE
330
1F
100
AcDbEntity
  8
C-2
  6
Continuous
 62
     3
370
     9
100
AcDbCircle
 10
313.3708123387521
 20
1160.036635940139
 30
0.0
 40
37.50014114379883
100
AcDbArc
 50
53.13009643554687
 51
126.8699035644531
  0
ARC
  5
2AF
330
1F
100
AcDbEntity
  8
C-2
  6
Continuous
 62
     3
370
     9
100
AcDbCircle
 10
358.3713006200021
 20
1220.036941115921
 30
0.0
 40
37.50014114379883
100
AcDbArc
 50
233.1300964355469
 51
306.8699035644532
  0
ARC
  5
2B0
330
1F
100
AcDbEntity
  8
C-2
  6
Continuous
 62
     3
370
     9
100
AcDbCircle
 10
313.3708123387521
 20
820.6804042506863
 30
0.0
 40
37.50014114379883
100
AcDbArc
 50
53.13009643554687
 51
126.8699035644531
  0
ARC
  5
2B1
330
1F
100
AcDbEntity
  8
C-2
  6
Continuous
 62
     3
370
     9
100
AcDbCircle
 10
358.3713006200021
 20
880.6806789088896
 30
0.0
 40
37.50014114379883
100
AcDbArc
 50
233.1300964355469
 51
306.8699035644532
  0
ARC
  5
2B2
330
1F
100
AcDbEntity
  8
C-2
  6
Continuous
 62
     3
370
     9
100
AcDbCircle
 10
220.0240105809397
 20
500.7158351588893
 30
0.0
 40
5.0
100
AcDbArc
 50
359.9943237304688
 51
90.0
  0
ARC
  5
2B3
330
1F
100
AcDbEntity
  8
C-2
  6
Continuous
 62
     3
370
     9
100
AcDbCircle
 10
240.0240716160958
 20
500.7158351588893
 30
0.0
 40
5.0
100
AcDbArc
 50
90.0
 51
180.0
  0
ARC
  5
2B4
330
1F
100
AcDbEntity
  8
C-2
  6
Continuous
 62
     3
370
     9
100
AcDbCircle
 10
295.0241326512521
 20
500.7158351588893
 30
0.0
 40
5.0
100
AcDbArc
 50
359.9943237304688
 51
90.0
  0
ARC
  5
2B5
330
1F
100
AcDbEntity
  8
C-2
  6
Continuous
 62
     3
370
     9
100
AcDbCircle
 10
315.0246819676584
 20
500.7158351588893
 30
0.0
 40
5.0
100
AcDbArc
 50
90.0
 51
180.0
  0
ARC
  5
2B6
330
1F
100
AcDbEntity
  8
C-2
  6
Continuous
 62
     3
370
     9
100
AcDbCircle
 10
370.0241936864083
 20
500.7158351588893
 30
0.0
 40
5.0
100
AcDbArc
 50
359.9943237304688
 51
90.0
  0
ARC
  5
2B7
330
1F
100
AcDbEntity
  8
C-2
  6
Continuous
 62
     3
370
     9
100
AcDbCircle
 10
390.0248040379708
 20
500.7158351588893
 30
0.0
 40
5.0
100
AcDbArc
 50
90.0
 51
180.0
  0
LWPOLYLINE
  5
2B8
330
1F
100
AcDbEntity
  8
C-4
  6
Continuous
 62
     7
370
     9
100
AcDbPolyline
 90
        4
 70
     1
 43
1.0
 10
234.6577386082834
 20
900.1768947292019
 42
0.4142135623731
 10
234.1577386082834
 20
900.6768947292018
 42
0.4142135623731
 10
233.6577386082834
 20
900.1768947292019
 42
0.4142135623731
 10
234.1577386082834
 20
899.6768947292019
 42
0.4142135623731
  0
LWPOLYLINE
  5
2B9
330
1F
100
AcDbEntity
  8
C-4
  6
Continuous
 62
     7
370
     9
100
AcDbPolyline
 90
        4
 70
     1
 43
1.0
 10
234.6577386082834
 20
940.1770778346704
 42
0.4142135623731
 10
234.1577386082834
 20
940.6770778346704
 42
0.4142135623731
 10
233.6577386082834
 20
940.1770778346704
 42
0.4142135623731
 10
234.1577386082834
 20
939.6770778346705
 42
0.4142135623731
  0
LWPOLYLINE
  5
2BA
330
1F
100
AcDbEntity
  8
C-4
  6
Continuous
 62
     7
370
     9
100
AcDbPolyline
 90
        4
 70
     1
 43
1.0
 10
234.6577386082834
 20
1020.177444045608
 42
0.4142135623731
 10
234.1577386082834
 20
1020.677444045608
 42
0.4142135623731
 10
233.6577386082834
 20
1020.177444045608
 42
0.4142135623731
 10
234.1577386082834
 20
1019.677444045608
 42
0.4142135623731
  0
LWPOLYLINE
  5
2BB
330
1F
100
AcDbEntity
  8
C-4
  6
Continuous
 62
     7
370
     9
100
AcDbPolyline
 90
        4
 70
     1
 43
1.0
 10
234.6577386082834
 20
1030.177016799514
 42
0.4142135623731
 10
234.1577386082834
 20
1030.677016799514
 42
0.4142135623731
 10
233.6577386082834
 20
1030.177016799514
 42
0.4142135623731
 10
234.1577386082834
 20
1029.677016799514
 42
0.4142135623731
  0
LWPOLYLINE
  5
2BC
330
1F
100
AcDbEntity
  8
C-4
  6
Continuous
 62
     7
370
     9
100
AcDbPolyline
 90
        4
 70
     1
 43
1.0
 10
234.6577386082834
 20
1110.177138869827
 42
0.4142135623731
 10
234.1577386082834
 20
1110.677138869827
 42
0.4142135623731
 10
233.6577386082834
 20
1110.177138869827
 42
0.4142135623731
 10
234.1577386082834
 20
1109.677138869827
 42
0.4142135623731
  0
LWPOLYLINE
  5
2BD
330
1F
100
AcDbEntity
  8
C-4
  6
Continuous
 62
     7
370
     9
100
AcDbPolyline
 90
        4
 70
     1
 43
1.0
 10
234.6577386082834
 20
1150.177321975296
 42
0.4142135623731
 10
234.1577386082834
 20
1150.677321975296
 42
0.4142135623731
 10
233.6577386082834
 20
1150.177321975296
 42
0.4142135623731
 10
234.1577386082834
 20
1149.677321975296
 42
0.4142135623731
  0
LWPOLYLINE
  5
2BE
330
1F
100
AcDbEntity
  8
C-4
  6
Continuous
 62
     7
370
     9
100
AcDbPolyline
 90
        4
 70
     1
 43
1.0
 10
448.8225945653146
 20
973.7208400417021
 42
0.4142135623731
 10
448.3225945653146
 20
974.220840041702
 42
0.4142135623731
 10
447.8225945653146
 20
973.7208400417021
 42
0.4142135623731
 10
448.3225945653146
 20
973.2208400417021
 42
0.4142135623731
  0
LWPOLYLINE
  5
2BF
330
1F
100
AcDbEntity
  8
C-4
  6
Continuous
 62
     7
370
     9
100
AcDbPolyline
 90
        4
 70
     1
 43
1.0
 10
450.259484213752
 20
978.5100246120144
 42
0.4142135623731
 10
449.7594842137521
 20
979.0100246120143
 42
0.4142135623731
 10
449.2594842137521
 20
978.5100246120144
 42
0.4142135623731
 10
449.7594842137521
 20
978.0100246120144
 42
0.4142135623731
  0
LWPOLYLINE
  5
2C0
330
1F
100
AcDbEntity
  8
C-4
  6
Continuous
 62
     7
370
     9
100
AcDbPolyline
 90
        4
 70
     1
 43
1.0
 10
306.3714226903146
 20
1242.794814651077
 42
0.4142135623731
 10
305.8714226903146
 20
1243.294814651077
 42
0.4142135623731
 10
305.3714226903146
 20
1242.794814651077
 42
0.4142135623731
 10
305.8714226903146
 20
1242.294814651077
 42
0.4142135623731
  0
LWPOLYLINE
  5
2C1
330
1F
100
AcDbEntity
  8
C-4
  6
Continuous
 62
     7
370
     9
100
AcDbPolyline
 90
        4
 70
     1
 43
1.0
 10
366.3706902684396
 20
1242.794814651077
 42
0.4142135623731
 10
365.8706902684396
 20
1243.294814651077
 42
0.4142135623731
 10
365.3706902684397
 20
1242.794814651077
 42
0.4142135623731
 10
365.8706902684396
 20
1242.294814651077
 42
0.4142135623731
  0
LWPOLYLINE
  5
2C2
330
1F
100
AcDbEntity
  8
C-4
  6
Continuous
 62
     7
370
     9
100
AcDbPolyline
 90
        4
 70
     1
 43
1.0
 10
510.8167351903145
 20
440.7150569606472
 42
0.4142135623731
 10
510.3167351903146
 20
441.2150569606472
 42
0.4142135623731
 10
509.8167351903146
 20
440.7150569606472
 42
0.4142135623731
 10
510.3167351903146
 20
440.2150569606472
 42
0.4142135623731
  0
LWPOLYLINE
  5
2C3
330
1F
100
AcDbEntity
  8
C-4
  6
Continuous
 62
     7
370
     9
100
AcDbPolyline
 90
        4
 70
     1
 43
1.0
 10
510.8167351903145
 20
515.7151637721705
 42
0.4142135623731
 10
510.3167351903146
 20
516.2151637721705
 42
0.4142135623731
 10
509.8167351903146
 20
515.7151637721705
 42
0.4142135623731
 10
510.3167351903146
 20
515.2151637721705
 42
0.4142135623731
  0
LWPOLYLINE
  5
2C4
330
1F
100
AcDbEntity
  8
C-4
  6
Continuous
 62
     7
370
     9
100
AcDbPolyline
 90
        4
 70
     1
 43
1.0
 10
215.5237664403146
 20
578.6000514674831
 42
0.4142135623731
 10
215.0237664403146
 20
579.100051467483
 42
0.4142135623731
 10
214.5237664403146
 20
578.6000514674831
 42
0.4142135623731
 10
215.0237664403146
 20
578.1000514674831
 42
0.4142135623731
  0
LWPOLYLINE
  5
2C5
330
1F
100
AcDbEntity
  8
C-4
  6
Continuous
 62
     7
370
     9
100
AcDbPolyline
 90
        4
 70
     1
 43
1.0
 10
245.5234002293772
 20
578.6000514674831
 42
0.4142135623731
 10
245.0234002293772
 20
579.100051467483
 42
0.4142135623731
 10
244.5234002293772
 20
578.6000514674831
 42
0.4142135623731
 10
245.0234002293772
 20
578.1000514674831
 42
0.4142135623731
  0
LWPOLYLINE
  5
2C6
330
1F
100
AcDbEntity
  8
C-4
  6
Continuous
 62
     7
370
     9
100
AcDbPolyline
 90
        4
 70
     1
 43
1.0
 10
290.5238274754709
 20
578.6000514674831
 42
0.4142135623731
 10
290.0238274754709
 20
579.100051467483
 42
0.4142135623731
 10
289.5238274754709
 20
578.6000514674831
 42
0.4142135623731
 10
290.0238274754709
 20
578.1000514674831
 42
0.4142135623731
  0
LWPOLYLINE
  5
2C7
330
1F
100
AcDbEntity
  8
C-4
  6
Continuous
 62
     7
370
     9
100
AcDbPolyline
 90
        4
 70
     1
 43
1.0
 10
320.5234612645333
 20
578.6000514674831
 42
0.4142135623731
 10
320.0234612645334
 20
579.100051467483
 42
0.4142135623731
 10
319.5234612645333
 20
578.6000514674831
 42
0.4142135623731
 10
320.0234612645334
 20
578.1000514674831
 42
0.4142135623731
  0
LWPOLYLINE
  5
2C8
330
1F
100
AcDbEntity
  8
C-4
  6
Continuous
 62
     7
370
     9
100
AcDbPolyline
 90
        4
 70
     1
 43
1.0
 10
365.5239495457834
 20
578.6000514674831
 42
0.4142135623731
 10
365.0239495457834
 20
579.100051467483
 42
0.4142135623731
 10
364.5239495457834
 20
578.6000514674831
 42
0.4142135623731
 10
365.0239495457834
 20
578.1000514674831
 42
0.4142135623731
  0
LWPOLYLINE
  5
2C9
330
1F
100
AcDbEntity
  8
C-4
  6
Continuous
 62
     7
370
     9
100
AcDbPolyline
 90
        4
 70
     1
 43
1.0
 10
395.5235833348457
 20
578.6000514674831
 42
0.4142135623731
 10
395.0235833348458
 20
579.100051467483
 42
0.4142135623731
 10
394.5235833348459
 20
578.6000514674831
 42
0.4142135623731
 10
395.0235833348458
 20
578.1000514674831
 42
0.4142135623731
  0
LWPOLYLINE
  5
2CA
330
1F
100
AcDbEntity
  8
C-4
  6
Continuous
 62
     7
370
     9
100
AcDbPolyline
 90
        4
 70
     1
 43
1.0
 10
215.5237664403146
 20
641.7173305202175
 42
0.4142135623731
 10
215.0237664403146
 20
642.2173305202175
 42
0.4142135623731
 10
214.5237664403146
 20
641.7173305202175
 42
0.4142135623731
 10
215.0237664403146
 20
641.2173305202175
 42
0.4142135623731
  0
LWPOLYLINE
  5
2CB
330
1F
100
AcDbEntity
  8
C-4
  6
Continuous
 62
     7
370
     9
100
AcDbPolyline
 90
        4
 70
     1
 43
1.0
 10
290.5238274754709
 20
641.7173305202175
 42
0.4142135623731
 10
290.0238274754709
 20
642.2173305202175
 42
0.4142135623731
 10
289.5238274754709
 20
641.7173305202175
 42
0.4142135623731
 10
290.0238274754709
 20
641.2173305202175
 42
0.4142135623731
  0
LWPOLYLINE
  5
2CC
330
1F
100
AcDbEntity
  8
C-4
  6
Continuous
 62
     7
370
     9
100
AcDbPolyline
 90
        4
 70
     1
 43
1.0
 10
365.5239495457834
 20
641.7173305202175
 42
0.4142135623731
 10
365.0239495457834
 20
642.2173305202175
 42
0.4142135623731
 10
364.5239495457834
 20
641.7173305202175
 42
0.4142135623731
 10
365.0239495457834
 20
641.2173305202175
 42
0.4142135623731
  0
TEXT
  5
2CD
330
1F
100
AcDbEntity
  8
C-5
  6
Continuous
 62
     2
370
     9
100
AcDbText
 10
-596.62152584179
 20
341.2477943492579
 30
0.0
 40
30.48
  1
平面詳細図　Ｓ＝１：１０
 41
1.114583333333333
  7
ＭＳ ゴシック
100
AcDbText
  0
TEXT
  5
2CE
330
1F
100
AcDbEntity
  8
C-5
  6
Continuous
 62
     2
370
     9
100
AcDbText
 10
-202.881384926873
 20
598.8187257838894
 30
0.0
 40
30.48
  1
Ａ
 41
0.9999999999999998
  7
ＭＳ ゴシック
100
AcDbText
  0
TEXT
  5
2CF
330
1F
100
AcDbEntity
  8
C-5
  6
Continuous
 62
     2
370
     9
100
AcDbText
 10
124.304406088752
 20
344.718057830398
 30
0.0
 40
30.48
  1
Ａ断面図　Ｓ＝１：２
 41
1.1125
  7
ＭＳ ゴシック
100
AcDbText
  0
TEXT
  5
2D0
330
1F
100
AcDbEntity
  8
C-5
  6
Continuous
 62
     7
370
     9
100
AcDbText
 10
-25.00064762218543
 20
733.2268715358424
 30
0.0
 40
22.86
  1
※デルタパターンの配列は一定ではありません。
 41
1.159090909090909
  7
ＭＳ ゴシック
100
AcDbText
  0
TEXT
  5
2D1
330
1F
100
AcDbEntity
  8
C-5
  6
Continuous
 62
     7
370
     9
100
AcDbText
 10
113.5650872410959
 20
791.9082375026394
 30
0.0
 40
22.86
  1
メインバー表面　Ｓ＝１：１
 41
1.153846153846154
  7
ＭＳ ゴシック
100
AcDbText
  0
TEXT
  5
2D2
330
1F
100
AcDbEntity
  8
C-5
  6
Continuous
 62
     7
370
     9
100
AcDbText
 10
399.8103264989084
 20
1139.332675979202
 30
0.0
 40
22.86
  1
デルタパターン
 41
1.142857142857143
  7
ＭＳ ゴシック
100
AcDbText
  0
TEXT
  5
2D3
330
1F
100
AcDbEntity
  8
C-4
  6
Continuous
 62
     2
370
     9
100
AcDbText
 10
223.5179827489083
 20
910.1769555178257
 30
0.0
 40
30.48
  1
4
 50
90.00000250447768
 41
1.000000000000001
  7
ＭＳ ゴシック
100
AcDbText
  0
TEXT
  5
2D4
330
1F
100
AcDbEntity
  8
C-4
  6
Continuous
 62
     2
370
     9
100
AcDbText
 10
223.5179827489083
 20
970.177199658451
 30
0.0
 40
30.48
  1
8
 50
90.00000250447768
 41
1.000000000000001
  7
ＭＳ ゴシック
100
AcDbText
  0
TEXT
  5
2D5
330
1F
100
AcDbEntity
  8
C-4
  6
Continuous
 62
     2
370
     9
100
AcDbText
 10
223.5179827489083
 20
1015.177199658451
 30
0.0
 40
30.48
  1
1
 50
90.00000250447768
 41
1.000000000000001
  7
ＭＳ ゴシック
100
AcDbText
  0
TEXT
  5
2D6
330
1F
100
AcDbEntity
  8
C-4
  6
Continuous
 62
     2
370
     9
100
AcDbText
 10
223.5179827489083
 20
1060.17689448267
 30
0.0
 40
30.48
  1
8
 50
90.00000250447768
 41
1.000000000000001
  7
ＭＳ ゴシック
100
AcDbText
  0
TEXT
  5
2D7
330
1F
100
AcDbEntity
  8
C-4
  6
Continuous
 62
     2
370
     9
100
AcDbText
 10
223.5179827489083
 20
1120.177199658451
 30
0.0
 40
30.48
  1
4
 50
90.00000250447768
 41
1.000000000000001
  7
ＭＳ ゴシック
100
AcDbText
  0
TEXT
  5
2D8
330
1F
100
AcDbEntity
  8
C-4
  6
Continuous
 62
     2
370
     9
100
AcDbText
 10
442.2848374520372
 20
991.1806042862393
 30
0.0
 40
30.48
  1
0.5
 50
73.30064077628306
 41
1.08333333333333
  7
ＭＳ ゴシック
100
AcDbText
  0
TEXT
  5
2D9
330
1F
100
AcDbEntity
  8
C-4
  6
Continuous
 62
     2
370
     9
100
AcDbText
 10
325.8709954442209
 20
1253.434570510452
 30
0.0
 40
30.48
  1
6
 41
0.9999999999999998
  7
ＭＳ ゴシック
100
AcDbText
  0
TEXT
  5
2DA
330
1F
100
AcDbEntity
  8
C-4
  6
Continuous
 62
     2
370
     9
100
AcDbText
 10
220.0235222996896
 20
589.2398378444361
 30
0.0
 40
30.48
  1
6
 41
0.9999999999999998
  7
ＭＳ ゴシック
100
AcDbText
  0
TEXT
  5
2DB
330
1F
100
AcDbEntity
  8
C-4
  6
Continuous
 62
     2
370
     9
100
AcDbText
 10
257.5235833348458
 20
589.2398378444361
 30
0.0
 40
30.48
  1
9
 41
0.9999999999999998
  7
ＭＳ ゴシック
100
AcDbText
  0
TEXT
  5
2DC
330
1F
100
AcDbEntity
  8
C-4
  6
Continuous
 62
     2
370
     9
100
AcDbText
 10
295.0235833348458
 20
589.2398378444361
 30
0.0
 40
30.48
  1
6
 41
0.9999999999999998
  7
ＭＳ ゴシック
100
AcDbText
  0
TEXT
  5
2DD
330
1F
100
AcDbEntity
  8
C-4
  6
Continuous
 62
     2
370
     9
100
AcDbText
 10
332.5236443700021
 20
589.2398378444361
 30
0.0
 40
30.48
  1
9
 41
0.9999999999999998
  7
ＭＳ ゴシック
100
AcDbText
  0
TEXT
  5
2DE
330
1F
100
AcDbEntity
  8
C-4
  6
Continuous
 62
     2
370
     9
100
AcDbText
 10
370.0237054051584
 20
589.2398378444361
 30
0.0
 40
30.48
  1
6
 41
0.9999999999999998
  7
ＭＳ ゴシック
100
AcDbText
  0
TEXT
  5
2DF
330
1F
100
AcDbEntity
  8
C-4
  6
Continuous
 62
     2
370
     9
100
AcDbText
 10
231.2736443700021
 20
652.3571168971706
 30
0.0
 40
30.48
  1
15
 41
1.0625
  7
ＭＳ ゴシック
100
AcDbText
  0
TEXT
  5
2E0
330
1F
100
AcDbEntity
  8
C-4
  6
Continuous
 62
     2
370
     9
100
AcDbText
 10
306.2737054051584
 20
652.3571168971706
 30
0.0
 40
30.48
  1
15
 41
1.0625
  7
ＭＳ ゴシック
100
AcDbText
  0
TEXT
  5
2E1
330
1F
100
AcDbEntity
  8
C-4
  6
Continuous
 62
     2
370
     9
100
AcDbText
 10
499.6763689793772
 20
456.9649499025913
 30
0.0
 40
30.48
  1
15
 50
90.00000250447789
 41
1.062500000000001
  7
ＭＳ ゴシック
100
AcDbText
  0
LWPOLYLINE
  5
2E2
330
1F
100
AcDbEntity
  8
C-4
  6
Continuous
 62
     7
370
     9
100
AcDbPolyline
 90
        4
 70
     1
 43
1.0
 10
-529.6216879664237
 20
1031.10725361592
 42
0.4142135623731
 10
-530.1216879664237
 20
1031.60725361592
 42
0.4142135623731
 10
-530.6216879664237
 20
1031.10725361592
 42
0.4142135623731
 10
-530.1216879664237
 20
1030.60725361592
 42
0.4142135623731
  0
LINE
  5
2E3
330
1F
100
AcDbEntity
  8
C-4
  6
Continuous
 62
     7
370
     9
100
AcDbLine
 10
-530.1216879664237
 20
1031.10725361592
 30
0.0
 11
-529.1213370142754
 21
1031.10725361592
 31
0.0
  0
LWPOLYLINE
  5
2E4
330
1F
100
AcDbEntity
  8
C-4
  6
Continuous
 62
     7
370
     9
100
AcDbPolyline
 90
        4
 70
     1
 43
1.0
 10
-528.6213370142754
 20
1031.10725361592
 42
0.4142135623731
 10
-529.1213370142754
 20
1031.60725361592
 42
0.4142135623731
 10
-529.6213370142754
 20
1031.10725361592
 42
0.4142135623731
 10
-529.1213370142754
 20
1030.60725361592
 42
0.4142135623731
  0
LINE
  5
2E5
330
1F
100
AcDbEntity
  8
C-4
  6
Continuous
 62
     7
370
     9
100
AcDbLine
 10
-529.1213370142754
 20
1031.10725361592
 30
0.0
 11
-129.1214667139823
 21
1031.10725361592
 31
0.0
  0
LWPOLYLINE
  5
2E6
330
1F
100
AcDbEntity
  8
C-4
  6
Continuous
 62
     7
370
     9
100
AcDbPolyline
 90
        4
 70
     1
 43
1.0
 10
-128.6214667139823
 20
1031.10725361592
 42
0.4142135623731
 10
-129.1214667139823
 20
1031.60725361592
 42
0.4142135623731
 10
-129.6214667139823
 20
1031.10725361592
 42
0.4142135623731
 10
-129.1214667139823
 20
1030.60725361592
 42
0.4142135623731
  0
TEXT
  5
2E7
330
1F
100
AcDbEntity
  8
C-4
  6
Continuous
 62
     2
370
   211
100
AcDbText
 10
-361.6214018641289
 20
1042.747253854339
 30
0.0
 40
30.48
  1
400
 41
1.083333333333333
  7
ＭＳ ゴシック
100
AcDbText
  0
LINE
  5
2E8
330
1F
100
AcDbEntity
  8
C-4
  6
Continuous
 62
     7
370
     9
100
AcDbLine
 10
-129.1214667139823
 20
1031.10725361592
 30
0.0
 11
-128.1215887842948
 21
1031.10725361592
 31
0.0
  0
LWPOLYLINE
  5
2E9
330
1F
100
AcDbEntity
  8
C-4
  6
Continuous
 62
     7
370
     9
100
AcDbPolyline
 90
        4
 70
     1
 43
1.0
 10
-127.6215887842948
 20
1031.10725361592
 42
0.4142135623731
 10
-128.1215887842948
 20
1031.60725361592
 42
0.4142135623731
 10
-128.6215887842948
 20
1031.10725361592
 42
0.4142135623731
 10
-128.1215887842948
 20
1030.60725361592
 42
0.4142135623731
  0
LINE
  5
2EA
330
1F
100
AcDbEntity
  8
C-4
  6
Continuous
 62
     7
370
     9
100
AcDbLine
 10
-529.1213370142754
 20
976.1077418971704
 30
0.0
 11
-504.1214667139823
 21
976.1077418971704
 31
0.0
  0
LWPOLYLINE
  5
2EB
330
1F
100
AcDbEntity
  8
C-4
  6
Continuous
 62
     7
370
     9
100
AcDbPolyline
 90
        4
 70
     1
 43
1.0
 10
-528.6213370142754
 20
976.1077418971704
 42
0.4142135623731
 10
-529.1213370142754
 20
976.6077418971703
 42
0.4142135623731
 10
-529.6213370142754
 20
976.1077418971704
 42
0.4142135623731
 10
-529.1213370142754
 20
975.6077418971704
 42
0.4142135623731
  0
LWPOLYLINE
  5
2EC
330
1F
100
AcDbEntity
  8
C-4
  6
Continuous
 62
     7
370
     9
100
AcDbPolyline
 90
        4
 70
     1
 43
1.0
 10
-503.6214667139824
 20
976.1077418971704
 42
0.4142135623731
 10
-504.1214667139823
 20
976.6077418971703
 42
0.4142135623731
 10
-504.6214667139823
 20
976.1077418971704
 42
0.4142135623731
 10
-504.1214667139823
 20
975.6077418971704
 42
0.4142135623731
  0
LINE
  5
2ED
330
1F
100
AcDbEntity
  8
C-4
  6
Continuous
 62
     7
370
     9
100
AcDbLine
 10
-504.1214667139823
 20
976.1077418971704
 30
0.0
 11
-154.1213141260917
 21
976.1077418971704
 31
0.0
  0
LWPOLYLINE
  5
2EE
330
1F
100
AcDbEntity
  8
C-4
  6
Continuous
 62
     7
370
     9
100
AcDbPolyline
 90
        4
 70
     1
 43
1.0
 10
-153.6213141260917
 20
976.1077418971704
 42
0.4142135623731
 10
-154.1213141260917
 20
976.6077418971703
 42
0.4142135623731
 10
-154.6213141260917
 20
976.1077418971704
 42
0.4142135623731
 10
-154.1213141260917
 20
975.6077418971704
 42
0.4142135623731
  0
TEXT
  5
2EF
330
1F
100
AcDbEntity
  8
C-4
  6
Continuous
 62
     2
370
   211
100
AcDbText
 10
-361.621390420037
 20
987.747742135589
 30
0.0
 40
30.48
  1
350
 41
1.083333333333333
  7
ＭＳ ゴシック
100
AcDbText
  0
LINE
  5
2F0
330
1F
100
AcDbEntity
  8
C-4
  6
Continuous
 62
     7
370
     9
100
AcDbLine
 10
-154.1213141260917
 20
976.1077418971704
 30
0.0
 11
-129.1214667139823
 21
976.1077418971704
 31
0.0
  0
LWPOLYLINE
  5
2F1
330
1F
100
AcDbEntity
  8
C-4
  6
Continuous
 62
     7
370
     9
100
AcDbPolyline
 90
        4
 70
     1
 43
1.0
 10
-128.6214667139823
 20
976.1077418971704
 42
0.4142135623731
 10
-129.1214667139823
 20
976.6077418971703
 42
0.4142135623731
 10
-129.6214667139823
 20
976.1077418971704
 42
0.4142135623731
 10
-129.1214667139823
 20
975.6077418971704
 42
0.4142135623731
  0
LINE
  5
2F2
330
1F
100
AcDbEntity
  8
C-4
  6
Continuous
 62
     7
370
     9
100
AcDbLine
 10
-530.1216879664237
 20
1034.10725373513
 30
0.0
 11
-530.1216879664237
 21
924.1076808620144
 31
0.0
  0
LINE
  5
2F3
330
1F
100
AcDbEntity
  8
C-4
  6
Continuous
 62
     7
370
     9
100
AcDbLine
 10
-529.1213370142754
 20
1034.10725373513
 30
0.0
 11
-529.1213370142754
 21
924.1076808620144
 31
0.0
  0
LINE
  5
2F4
330
1F
100
AcDbEntity
  8
C-4
  6
Continuous
 62
     7
370
     9
100
AcDbLine
 10
-129.1214667139823
 20
1034.10725373513
 30
0.0
 11
-129.1214667139823
 21
924.1076808620144
 31
0.0
  0
LINE
  5
2F5
330
1F
100
AcDbEntity
  8
C-4
  6
Continuous
 62
     7
370
     9
100
AcDbLine
 10
-128.1215887842948
 20
1034.10725373513
 30
0.0
 11
-128.1215887842948
 21
924.1076808620144
 31
0.0
  0
LINE
  5
2F6
330
1F
100
AcDbEntity
  8
C-4
  6
Continuous
 62
     7
370
     9
100
AcDbLine
 10
-504.1214667139823
 20
979.1077420163797
 30
0.0
 11
-504.1214667139823
 21
924.1076808620144
 31
0.0
  0
LINE
  5
2F7
330
1F
100
AcDbEntity
  8
C-4
  6
Continuous
 62
     7
370
     9
100
AcDbLine
 10
-154.1213141260917
 20
979.1077420163797
 30
0.0
 11
-154.1213141260917
 21
924.1076808620144
 31
0.0
  0
TEXT
  5
2F8
330
1F
100
AcDbEntity
  8
C-4
  6
Continuous
 62
     2
370
   211
100
AcDbText
 10
-517.8714018641289
 20
987.747742135589
 30
0.0
 40
30.48
  1
25
 41
1.0625
  7
ＭＳ ゴシック
100
AcDbText
  0
TEXT
  5
2F9
330
1F
100
AcDbEntity
  8
C-4
  6
Continuous
 62
     2
370
   211
100
AcDbText
 10
-158.6215277491385
 20
1042.747253854339
 30
0.0
 40
30.48
  1
1
 41
0.9999999999999998
  7
ＭＳ ゴシック
100
AcDbText
  0
TEXT
  5
2FA
330
1F
100
AcDbEntity
  8
C-4
  6
Continuous
 62
     2
370
   211
100
AcDbText
 10
-519.6215124903495
 20
1042.747253854339
 30
0.0
 40
30.48
  1
1
 41
0.9999999999999998
  7
ＭＳ ゴシック
100
AcDbText
  0
LINE
  5
2FB
330
1F
100
AcDbEntity
  8
C-1
  6
Continuous
 62
     2
370
     9
100
AcDbLine
 10
-535.1216879664237
 20
902.1076808620146
 30
0.0
 11
-535.1216879664237
 21
490.1076198268581
 31
0.0
  0
LINE
  5
2FC
330
1F
100
AcDbEntity
  8
C-1
  6
Continuous
 62
     2
370
     9
100
AcDbLine
 10
-535.1216879664237
 20
490.1076198268581
 30
0.0
 11
-123.1215887842948
 21
490.1076198268581
 31
0.0
  0
LINE
  5
2FD
330
1F
100
AcDbEntity
  8
C-1
  6
Continuous
 62
     2
370
     9
100
AcDbLine
 10
-123.1215887842948
 20
902.1076808620146
 30
0.0
 11
-535.1216879664237
 21
902.1076808620146
 31
0.0
  0
LINE
  5
2FE
330
1F
100
AcDbEntity
  8
C-1
  6
Continuous
 62
     2
370
     9
100
AcDbLine
 10
-123.1215887842948
 20
490.1076198268581
 30
0.0
 11
-123.1215887842948
 21
902.1076808620146
 31
0.0
  0
LWPOLYLINE
  5
2FF
330
1F
100
AcDbEntity
  8
C-4
  6
Continuous
 62
     7
370
     9
100
AcDbPolyline
 90
        4
 70
     1
 43
1.0
 10
-534.6216879664237
 20
1086.10725361592
 42
0.4142135623731
 10
-535.1216879664237
 20
1086.60725361592
 42
0.4142135623731
 10
-535.6216879664237
 20
1086.10725361592
 42
0.4142135623731
 10
-535.1216879664237
 20
1085.60725361592
 42
0.4142135623731
  0
LWPOLYLINE
  5
300
330
1F
100
AcDbEntity
  8
C-4
  6
Continuous
 62
     7
370
     9
100
AcDbPolyline
 90
        4
 70
     1
 43
1.0
 10
-534.6216879664237
 20
1031.10725361592
 42
0.4142135623731
 10
-535.1216879664237
 20
1031.60725361592
 42
0.4142135623731
 10
-535.6216879664237
 20
1031.10725361592
 42
0.4142135623731
 10
-535.1216879664237
 20
1030.60725361592
 42
0.4142135623731
  0
LINE
  5
301
330
1F
100
AcDbEntity
  8
C-4
  6
Continuous
 62
     7
370
     9
100
AcDbLine
 10
-535.1216879664237
 20
1089.10725373513
 30
0.0
 11
-535.1216879664237
 21
924.1076808620144
 31
0.0
  0
LINE
  5
302
330
1F
100
AcDbEntity
  8
C-4
  6
Continuous
 62
     7
370
     9
100
AcDbLine
 10
-535.1216879664237
 20
1031.10725361592
 30
0.0
 11
-585.1216879664237
 21
1031.10725361592
 31
0.0
  0
LWPOLYLINE
  5
303
330
1F
100
AcDbEntity
  8
C-4
  6
Continuous
 62
     7
370
     9
100
AcDbPolyline
 90
        4
 70
     1
 43
1.0
 10
-122.6215887842948
 20
1086.10725361592
 42
0.4142135623731
 10
-123.1215887842948
 20
1086.60725361592
 42
0.4142135623731
 10
-123.6215887842948
 20
1086.10725361592
 42
0.4142135623731
 10
-123.1215887842948
 20
1085.60725361592
 42
0.4142135623731
  0
LWPOLYLINE
  5
304
330
1F
100
AcDbEntity
  8
C-4
  6
Continuous
 62
     7
370
     9
100
AcDbPolyline
 90
        4
 70
     1
 43
1.0
 10
-122.6215887842948
 20
1031.10725361592
 42
0.4142135623731
 10
-123.1215887842948
 20
1031.60725361592
 42
0.4142135623731
 10
-123.6215887842948
 20
1031.10725361592
 42
0.4142135623731
 10
-123.1215887842948
 20
1030.60725361592
 42
0.4142135623731
  0
LINE
  5
305
330
1F
100
AcDbEntity
  8
C-4
  6
Continuous
 62
     7
370
     9
100
AcDbLine
 10
-123.1215887842948
 20
1089.10725373513
 30
0.0
 11
-123.1215887842948
 21
924.1076808620144
 31
0.0
  0
LINE
  5
306
330
1F
100
AcDbEntity
  8
C-4
  6
Continuous
 62
     7
370
     9
100
AcDbLine
 10
-123.1215887842948
 20
1031.10725361592
 30
0.0
 11
-73.12158878429479
 21
1031.10725361592
 31
0.0
  0
LINE
  5
307
330
1F
100
AcDbEntity
  8
C-4
  6
Continuous
 62
     7
370
     9
100
AcDbLine
 10
-535.1216879664237
 20
1031.10725361592
 30
0.0
 11
-530.1216879664237
 21
1031.10725361592
 31
0.0
  0
TEXT
  5
308
330
1F
100
AcDbEntity
  8
C-4
  6
Continuous
 62
     2
370
   211
100
AcDbText
 10
-571.6216955958181
 20
1042.747253854339
 30
0.0
 40
30.48
  1
5
 41
0.9999999999999998
  7
ＭＳ ゴシック
100
AcDbText
  0
LINE
  5
309
330
1F
100
AcDbEntity
  8
C-4
  6
Continuous
 62
     7
370
     9
100
AcDbLine
 10
-535.1216879664237
 20
1086.10725361592
 30
0.0
 11
-123.1215887842948
 21
1086.10725361592
 31
0.0
  0
TEXT
  5
30A
330
1F
100
AcDbEntity
  8
C-4
  6
Continuous
 62
     2
370
   211
100
AcDbText
 10
-361.6216383753593
 20
1097.747253854339
 30
0.0
 40
30.48
  1
412
 41
1.083333333333333
  7
ＭＳ ゴシック
100
AcDbText
  0
LINE
  5
30B
330
1F
100
AcDbEntity
  8
C-4
  6
Continuous
 62
     7
370
     9
100
AcDbLine
 10
-128.1215887842948
 20
1031.10725361592
 30
0.0
 11
-123.1215887842948
 21
1031.10725361592
 31
0.0
  0
TEXT
  5
30C
330
1F
100
AcDbEntity
  8
C-4
  6
Continuous
 62
     2
370
   211
100
AcDbText
 10
-106.6215735255057
 20
1042.747253854339
 30
0.0
 40
30.48
  1
5
 41
0.9999999999999998
  7
ＭＳ ゴシック
100
AcDbText
  0
TEXT
  5
30D
330
1F
100
AcDbEntity
  8
C-4
  6
Continuous
 62
     2
370
   211
100
AcDbText
 10
-620.761749239998
 20
842.3578792262724
 30
0.0
 40
30.48
  1
25
 50
90.0
 41
1.0625
  7
ＭＳ ゴシック
100
AcDbText
  0
LWPOLYLINE
  5
30E
330
1F
100
AcDbEntity
  8
C-4
  6
Continuous
 62
     7
370
     9
100
AcDbPolyline
 90
        4
 70
     1
 43
1.0
 10
-663.6212607203297
 20
495.1075816798856
 42
0.4142135623731
 10
-664.1212607203296
 20
495.6075816798856
 42
0.4142135623731
 10
-664.6212607203296
 20
495.1075816798856
 42
0.4142135623731
 10
-664.1212607203296
 20
494.6075816798856
 42
0.4142135623731
  0
LINE
  5
30F
330
1F
100
AcDbEntity
  8
C-4
  6
Continuous
 62
     7
370
     9
100
AcDbLine
 10
-664.1212607203296
 20
495.1075816798856
 30
0.0
 11
-664.1212607203296
 21
496.107932632034
 31
0.0
  0
LWPOLYLINE
  5
310
330
1F
100
AcDbEntity
  8
C-4
  6
Continuous
 62
     7
370
     9
100
AcDbPolyline
 90
        4
 70
     1
 43
1.0
 10
-663.6212607203297
 20
496.107932632034
 42
0.4142135623731
 10
-664.1212607203296
 20
496.607932632034
 42
0.4142135623731
 10
-664.6212607203296
 20
496.107932632034
 42
0.4142135623731
 10
-664.1212607203296
 20
495.607932632034
 42
0.4142135623731
  0
LINE
  5
311
330
1F
100
AcDbEntity
  8
C-4
  6
Continuous
 62
     7
370
     9
100
AcDbLine
 10
-664.1212607203296
 20
496.107932632034
 30
0.0
 11
-664.1212607203296
 21
896.1078029323271
 31
0.0
  0
LWPOLYLINE
  5
312
330
1F
100
AcDbEntity
  8
C-4
  6
Continuous
 62
     7
370
     9
100
AcDbPolyline
 90
        4
 70
     1
 43
1.0
 10
-663.6212607203297
 20
896.1078029323269
 42
0.4142135623731
 10
-664.1212607203296
 20
896.6078029323269
 42
0.4142135623731
 10
-664.6212607203296
 20
896.1078029323269
 42
0.4142135623731
 10
-664.1212607203296
 20
895.607802932327
 42
0.4142135623731
  0
TEXT
  5
313
330
1F
100
AcDbEntity
  8
C-4
  6
Continuous
 62
     2
370
   211
100
AcDbText
 10
-675.7612609587482
 20
663.6078677821806
 30
0.0
 40
30.48
  1
400
 50
90.0
 41
1.083333333333333
  7
ＭＳ ゴシック
100
AcDbText
  0
LINE
  5
314
330
1F
100
AcDbEntity
  8
C-4
  6
Continuous
 62
     7
370
     9
100
AcDbLine
 10
-664.1212607203296
 20
896.1078029323271
 30
0.0
 11
-664.1212607203296
 21
897.1076808620146
 31
0.0
  0
LWPOLYLINE
  5
315
330
1F
100
AcDbEntity
  8
C-4
  6
Continuous
 62
     7
370
     9
100
AcDbPolyline
 90
        4
 70
     1
 43
1.0
 10
-663.6212607203297
 20
897.1076808620146
 42
0.4142135623731
 10
-664.1212607203296
 20
897.6076808620145
 42
0.4142135623731
 10
-664.6212607203296
 20
897.1076808620146
 42
0.4142135623731
 10
-664.1212607203296
 20
896.6076808620146
 42
0.4142135623731
  0
LINE
  5
316
330
1F
100
AcDbEntity
  8
C-4
  6
Continuous
 62
     7
370
     9
100
AcDbLine
 10
-609.1217490015795
 20
496.107932632034
 30
0.0
 11
-609.1217490015795
 21
521.107802932327
 31
0.0
  0
LWPOLYLINE
  5
317
330
1F
100
AcDbEntity
  8
C-4
  6
Continuous
 62
     7
370
     9
100
AcDbPolyline
 90
        4
 70
     1
 43
1.0
 10
-608.6217490015795
 20
496.107932632034
 42
0.4142135623731
 10
-609.1217490015795
 20
496.607932632034
 42
0.4142135623731
 10
-609.6217490015795
 20
496.107932632034
 42
0.4142135623731
 10
-609.1217490015795
 20
495.607932632034
 42
0.4142135623731
  0
LWPOLYLINE
  5
318
330
1F
100
AcDbEntity
  8
C-4
  6
Continuous
 62
     7
370
     9
100
AcDbPolyline
 90
        4
 70
     1
 43
1.0
 10
-608.6217490015795
 20
521.107802932327
 42
0.4142135623731
 10
-609.1217490015795
 20
521.607802932327
 42
0.4142135623731
 10
-609.6217490015795
 20
521.107802932327
 42
0.4142135623731
 10
-609.1217490015795
 20
520.607802932327
 42
0.4142135623731
  0
LINE
  5
319
330
1F
100
AcDbEntity
  8
C-4
  6
Continuous
 62
     7
370
     9
100
AcDbLine
 10
-609.1217490015795
 20
521.107802932327
 30
0.0
 11
-609.1217490015795
 21
871.1079555202177
 31
0.0
  0
LWPOLYLINE
  5
31A
330
1F
100
AcDbEntity
  8
C-4
  6
Continuous
 62
     7
370
     9
100
AcDbPolyline
 90
        4
 70
     1
 43
1.0
 10
-608.6217490015795
 20
871.1079555202175
 42
0.4142135623731
 10
-609.1217490015795
 20
871.6079555202175
 42
0.4142135623731
 10
-609.6217490015795
 20
871.1079555202175
 42
0.4142135623731
 10
-609.1217490015795
 20
870.6079555202176
 42
0.4142135623731
  0
TEXT
  5
31B
330
1F
100
AcDbEntity
  8
C-4
  6
Continuous
 62
     2
370
   211
100
AcDbText
 10
-620.761749239998
 20
663.6078792262722
 30
0.0
 40
30.48
  1
350
 50
90.0
 41
1.083333333333333
  7
ＭＳ ゴシック
100
AcDbText
  0
LINE
  5
31C
330
1F
100
AcDbEntity
  8
C-4
  6
Continuous
 62
     7
370
     9
100
AcDbLine
 10
-609.1217490015795
 20
871.1079555202177
 30
0.0
 11
-609.1217490015795
 21
896.1078029323271
 31
0.0
  0
LWPOLYLINE
  5
31D
330
1F
100
AcDbEntity
  8
C-4
  6
Continuous
 62
     7
370
     9
100
AcDbPolyline
 90
        4
 70
     1
 43
1.0
 10
-608.6217490015795
 20
896.1078029323269
 42
0.4142135623731
 10
-609.1217490015795
 20
896.6078029323269
 42
0.4142135623731
 10
-609.6217490015795
 20
896.1078029323269
 42
0.4142135623731
 10
-609.1217490015795
 20
895.607802932327
 42
0.4142135623731
  0
LINE
  5
31E
330
1F
100
AcDbEntity
  8
C-4
  6
Continuous
 62
     7
370
     9
100
AcDbLine
 10
-667.1212608395389
 20
495.1075816798856
 30
0.0
 11
-557.1216879664236
 21
495.1075816798856
 31
0.0
  0
LINE
  5
31F
330
1F
100
AcDbEntity
  8
C-4
  6
Continuous
 62
     7
370
     9
100
AcDbLine
 10
-667.1212608395389
 20
496.107932632034
 30
0.0
 11
-557.1216879664236
 21
496.107932632034
 31
0.0
  0
LINE
  5
320
330
1F
100
AcDbEntity
  8
C-4
  6
Continuous
 62
     7
370
     9
100
AcDbLine
 10
-667.1212608395389
 20
896.1078029323271
 30
0.0
 11
-557.1216879664236
 21
896.1078029323271
 31
0.0
  0
LINE
  5
321
330
1F
100
AcDbEntity
  8
C-4
  6
Continuous
 62
     7
370
     9
100
AcDbLine
 10
-667.1212608395389
 20
897.1076808620146
 30
0.0
 11
-557.1216879664236
 21
897.1076808620146
 31
0.0
  0
LINE
  5
322
330
1F
100
AcDbEntity
  8
C-4
  6
Continuous
 62
     7
370
     9
100
AcDbLine
 10
-612.1217491207888
 20
521.107802932327
 30
0.0
 11
-557.1216879664236
 21
521.107802932327
 31
0.0
  0
LINE
  5
323
330
1F
100
AcDbEntity
  8
C-4
  6
Continuous
 62
     7
370
     9
100
AcDbLine
 10
-612.1217491207888
 20
871.1079555202175
 30
0.0
 11
-557.1216879664236
 21
871.1079555202175
 31
0.0
  0
TEXT
  5
324
330
1F
100
AcDbEntity
  8
C-4
  6
Continuous
 62
     2
370
   211
100
AcDbText
 10
-620.761749239998
 20
507.3578677821805
 30
0.0
 40
30.48
  1
25
 50
90.0
 41
1.0625
  7
ＭＳ ゴシック
100
AcDbText
  0
TEXT
  5
325
330
1F
100
AcDbEntity
  8
C-4
  6
Continuous
 62
     2
370
   211
100
AcDbText
 10
-675.7612609587482
 20
866.6077418971709
 30
0.0
 40
30.48
  1
1
 50
90.0
 41
0.9999999999999998
  7
ＭＳ ゴシック
100
AcDbText
  0
TEXT
  5
326
330
1F
100
AcDbEntity
  8
C-4
  6
Continuous
 62
     2
370
   211
100
AcDbText
 10
-675.7612609587482
 20
505.6077571559599
 30
0.0
 40
30.48
  1
1
 50
90.0
 41
0.9999999999999998
  7
ＭＳ ゴシック
100
AcDbText
  0
LWPOLYLINE
  5
327
330
1F
100
AcDbEntity
  8
C-4
  6
Continuous
 62
     7
370
     9
100
AcDbPolyline
 90
        4
 70
     1
 43
1.0
 10
-718.6212607203297
 20
490.1075816798856
 42
0.4142135623731
 10
-719.1212607203296
 20
490.6075816798856
 42
0.4142135623731
 10
-719.6212607203296
 20
490.1075816798856
 42
0.4142135623731
 10
-719.1212607203296
 20
489.6075816798856
 42
0.4142135623731
  0
LWPOLYLINE
  5
328
330
1F
100
AcDbEntity
  8
C-4
  6
Continuous
 62
     7
370
     9
100
AcDbPolyline
 90
        4
 70
     1
 43
1.0
 10
-663.6212607203297
 20
490.1075816798856
 42
0.4142135623731
 10
-664.1212607203296
 20
490.6075816798856
 42
0.4142135623731
 10
-664.6212607203296
 20
490.1075816798856
 42
0.4142135623731
 10
-664.1212607203296
 20
489.6075816798856
 42
0.4142135623731
  0
LINE
  5
329
330
1F
100
AcDbEntity
  8
C-4
  6
Continuous
 62
     7
370
     9
100
AcDbLine
 10
-722.121260839539
 20
490.1075816798856
 30
0.0
 11
-557.1216879664236
 21
490.1075816798856
 31
0.0
  0
LINE
  5
32A
330
1F
100
AcDbEntity
  8
C-4
  6
Continuous
 62
     7
370
     9
100
AcDbLine
 10
-664.1212607203297
 20
490.1075816798856
 30
0.0
 11
-664.1212607203297
 21
440.1075816798856
 31
0.0
  0
LWPOLYLINE
  5
32B
330
1F
100
AcDbEntity
  8
C-4
  6
Continuous
 62
     7
370
     9
100
AcDbPolyline
 90
        4
 70
     1
 43
1.0
 10
-718.6212607203297
 20
902.1076808620146
 42
0.4142135623731
 10
-719.1212607203296
 20
902.6076808620145
 42
0.4142135623731
 10
-719.6212607203296
 20
902.1076808620146
 42
0.4142135623731
 10
-719.1212607203296
 20
901.6076808620146
 42
0.4142135623731
  0
LWPOLYLINE
  5
32C
330
1F
100
AcDbEntity
  8
C-4
  6
Continuous
 62
     7
370
     9
100
AcDbPolyline
 90
        4
 70
     1
 43
1.0
 10
-663.6212607203297
 20
902.1076808620146
 42
0.4142135623731
 10
-664.1212607203296
 20
902.6076808620145
 42
0.4142135623731
 10
-664.6212607203296
 20
902.1076808620146
 42
0.4142135623731
 10
-664.1212607203296
 20
901.6076808620146
 42
0.4142135623731
  0
LINE
  5
32D
330
1F
100
AcDbEntity
  8
C-4
  6
Continuous
 62
     7
370
     9
100
AcDbLine
 10
-722.1212608395389
 20
902.1076808620146
 30
0.0
 11
-557.1216879664236
 21
902.1076808620146
 31
0.0
  0
LINE
  5
32E
330
1F
100
AcDbEntity
  8
C-4
  6
Continuous
 62
     7
370
     9
100
AcDbLine
 10
-664.1212607203296
 20
902.1076808620146
 30
0.0
 11
-664.1212607203296
 21
952.1076808620146
 31
0.0
  0
LINE
  5
32F
330
1F
100
AcDbEntity
  8
C-4
  6
Continuous
 62
     7
370
     9
100
AcDbLine
 10
-664.1212607203296
 20
490.1075816798856
 30
0.0
 11
-664.1212607203296
 21
495.1075816798856
 31
0.0
  0
TEXT
  5
330
330
1F
100
AcDbEntity
  8
C-4
  6
Continuous
 62
     2
370
   211
100
AcDbText
 10
-675.7612609587483
 20
453.6075740504912
 30
0.0
 40
30.48
  1
5
 50
90.0
 41
0.9999999999999998
  7
ＭＳ ゴシック
100
AcDbText
  0
LINE
  5
331
330
1F
100
AcDbEntity
  8
C-4
  6
Continuous
 62
     7
370
     9
100
AcDbLine
 10
-719.1212607203297
 20
490.1075816798856
 30
0.0
 11
-719.1212607203297
 21
902.1076808620146
 31
0.0
  0
TEXT
  5
332
330
1F
100
AcDbEntity
  8
C-4
  6
Continuous
 62
     2
370
   211
100
AcDbText
 10
-730.7612609587482
 20
663.6076312709499
 30
0.0
 40
30.48
  1
412
 50
90.0
 41
1.083333333333333
  7
ＭＳ ゴシック
100
AcDbText
  0
LINE
  5
333
330
1F
100
AcDbEntity
  8
C-4
  6
Continuous
 62
     7
370
     9
100
AcDbLine
 10
-664.1212607203296
 20
897.1076808620146
 30
0.0
 11
-664.1212607203296
 21
902.1076808620146
 31
0.0
  0
TEXT
  5
334
330
1F
100
AcDbEntity
  8
C-4
  6
Continuous
 62
     2
370
   211
100
AcDbText
 10
-675.7612609587482
 20
918.6076961208037
 30
0.0
 40
30.48
  1
5
 50
90.0
 41
0.9999999999999998
  7
ＭＳ ゴシック
100
AcDbText
  0
LINE
  5
335
330
1F
100
AcDbEntity
  8
D-4
  6
Continuous
 62
     7
370
     9
100
AcDbLine
 10
-1228.357898347469
 20
-196.6212500653447
 30
0.0
 11
-655.6901184249831
 21
-196.6212500653447
 31
0.0
  0
LINE
  5
336
330
1F
100
AcDbEntity
  8
D-4
  6
Continuous
 62
     7
370
     9
100
AcDbLine
 10
-655.6901184249831
 20
-302.08474889614
 30
0.0
 11
-655.6901184249831
 21
-193.6206854901494
 31
0.0
  0
LINE
  5
337
330
1F
100
AcDbEntity
  8
D-4
  6
Continuous
 62
     7
370
     9
100
AcDbLine
 10
-655.6901184249831
 20
-196.6212500653447
 30
0.0
 11
-530.6902805496169
 21
-196.6212500653447
 31
0.0
  0
LINE
  5
338
330
1F
100
AcDbEntity
  8
D-4
  6
Continuous
 62
     7
370
     9
100
AcDbLine
 10
-530.6902805496169
 20
-302.08474889614
 30
0.0
 11
-530.6902805496169
 21
-84.86925497867475
 31
0.0
  0
LINE
  5
339
330
1F
100
AcDbEntity
  8
D-4
  6
Continuous
 62
     7
370
     9
100
AcDbLine
 10
-525.6900099445296
 20
-302.08474889614
 30
0.0
 11
-525.6900099445296
 21
-84.86925497867475
 31
0.0
  0
LINE
  5
33A
330
1F
100
AcDbEntity
  8
D-4
  6
Continuous
 62
     7
370
     9
100
AcDbLine
 10
-500.6911317039443
 20
-302.08474889614
 30
0.0
 11
-500.6911317039443
 21
25.82740410946002
 31
0.0
  0
LINE
  5
33B
330
1F
100
AcDbEntity
  8
D-4
  6
Continuous
 62
     7
370
     9
100
AcDbLine
 10
-655.6901184249831
 20
-877.6232565961063
 30
0.0
 11
-255.6892505813552
 21
-877.6232565961063
 31
0.0
  0
LINE
  5
33C
330
1F
100
AcDbEntity
  8
D-4
  6
Continuous
 62
     7
370
     9
100
AcDbLine
 10
-255.6892505813552
 20
-637.4140585980595
 30
0.0
 11
-255.6892505813552
 21
-880.6228293500126
 31
0.0
  0
LINE
  5
33D
330
1F
100
AcDbEntity
  8
D-4
  6
Continuous
 62
     7
370
     9
100
AcDbLine
 10
-655.6901184249831
 20
-723.1588782391727
 30
0.0
 11
-505.6909075904799
 21
-723.1588782391727
 31
0.0
  0
LINE
  5
33E
330
1F
100
AcDbEntity
  8
D-4
  6
Continuous
 62
     7
370
     9
100
AcDbLine
 10
15.99509084930883
 20
-567.5400771222294
 30
0.0
 11
15.99509084930883
 21
-317.540401371497
 31
0.0
  0
LINE
  5
33F
330
1F
100
AcDbEntity
  8
D-4
  6
Continuous
 62
     7
370
     9
100
AcDbLine
 10
-79.66008340606226
 20
-317.540401371497
 30
0.0
 11
18.99466360321508
 21
-317.540401371497
 31
0.0
  0
LINE
  5
340
330
1F
100
AcDbEntity
  8
D-6
  6
Continuous
 62
     6
370
     9
100
AcDbLine
 10
-505.6909075904799
 20
-567.5400771222294
 30
0.0
 11
-505.6909075904799
 21
-817.5397528729618
 31
0.0
  0
LINE
  5
341
330
1F
100
AcDbEntity
  8
D-6
  6
JWW_DASHED3
 62
     6
370
     9
100
AcDbLine
 10
-412.189017884822
 20
-695.040058048743
 30
0.0
 11
-412.189017884822
 21
-567.5400771222294
 31
0.0
  0
LINE
  5
342
330
1F
100
AcDbEntity
  8
D-6
  6
JWW_DASHED3
 62
     6
370
     9
100
AcDbLine
 10
-367.1885601211501
 20
-567.5400771222294
 30
0.0
 11
-367.1885601211501
 21
-695.040058048743
 31
0.0
  0
LINE
  5
343
330
1F
100
AcDbEntity
  8
D-6
  6
Continuous
 62
     6
370
     9
100
AcDbLine
 10
-255.6902424026443
 20
-467.5406016431035
 30
0.0
 11
-90.68925058135522
 21
-467.5406016431035
 31
0.0
  0
LINE
  5
344
330
1F
100
AcDbEntity
  8
D-6
  6
Continuous
 62
     6
370
     9
100
AcDbLine
 10
-255.6902424026443
 20
-467.5406016431035
 30
0.0
 11
-255.6902424026443
 21
-567.5400771222294
 31
0.0
  0
LINE
  5
345
330
1F
100
AcDbEntity
  8
D-4
  6
Continuous
 62
     7
370
     9
100
AcDbLine
 10
-199.911357514949
 20
-567.5400771222294
 30
0.0
 11
18.99466360321508
 21
-567.5400771222294
 31
0.0
  0
LINE
  5
346
330
1F
100
AcDbEntity
  8
D-6
  6
Continuous
 62
     6
370
     9
100
AcDbLine
 10
-505.6909075904799
 20
-567.5400771222294
 30
0.0
 11
-255.6902424026443
 21
-567.5400771222294
 31
0.0
  0
LINE
  5
347
330
1F
100
AcDbEntity
  8
D-6
  6
Continuous
 62
     6
370
     9
100
AcDbLine
 10
-412.189017884822
 20
-370.0402726254643
 30
0.0
 11
-367.1885601211501
 21
-370.0402726254643
 31
0.0
  0
LINE
  5
348
330
1F
100
AcDbEntity
  8
D-6
  6
JWW_CENTER2
 62
     6
370
     9
100
AcDbLine
 10
-389.688789002986
 20
-365.9610785565556
 30
0.0
 11
-389.688789002986
 21
-695.040058048743
 31
0.0
  0
LINE
  5
349
330
1F
100
AcDbEntity
  8
D-4
  6
Continuous
 62
     7
370
     9
100
AcDbLine
 10
-500.6911317039443
 20
-455.5076445660771
 30
0.0
 11
-500.6911317039443
 21
-526.8501891217411
 31
0.0
  0
LINE
  5
34A
330
1F
100
AcDbEntity
  8
D-6
  6
Continuous
 62
     6
370
     9
100
AcDbLine
 10
-412.189017884822
 20
-402.5400485119999
 30
0.0
 11
-412.189017884822
 21
-370.0402726254643
 31
0.0
  0
LINE
  5
34B
330
1F
100
AcDbEntity
  8
D-6
  6
Continuous
 62
     6
370
     9
100
AcDbLine
 10
-367.1885601211501
 20
-402.5400485119999
 30
0.0
 11
-367.1885601211501
 21
-370.0402726254643
 31
0.0
  0
LINE
  5
34C
330
1F
100
AcDbEntity
  8
D-6
  6
Continuous
 62
     6
370
     9
100
AcDbLine
 10
-412.189017884822
 20
-567.5400771222294
 30
0.0
 11
-412.189017884822
 21
-452.5397910199345
 31
0.0
  0
LINE
  5
34D
330
1F
100
AcDbEntity
  8
D-6
  6
Continuous
 62
     6
370
     9
100
AcDbLine
 10
-367.1885601211501
 20
-567.5400771222294
 30
0.0
 11
-367.1885601211501
 21
-452.5397910199345
 31
0.0
  0
LINE
  5
34E
330
1F
100
AcDbEntity
  8
D-4
  6
Continuous
 62
     7
370
     9
100
AcDbLine
 10
-801.1726299453688
 20
-442.5402392468632
 30
0.0
 11
-801.1726299453688
 21
-317.540401371497
 31
0.0
  0
LINE
  5
34F
330
1F
100
AcDbEntity
  8
D-4
  6
Continuous
 62
     7
370
     9
100
AcDbLine
 10
-528.8352454234076
 20
-317.540401371497
 30
0.0
 11
-804.1731945205642
 21
-317.540401371497
 31
0.0
  0
LINE
  5
350
330
1F
100
AcDbEntity
  8
D-4
  6
Continuous
 62
     7
370
     9
100
AcDbLine
 10
-1228.357898347469
 20
22.82683953426471
 30
0.0
 11
-500.6911317039443
 21
22.82683953426471
 31
0.0
  0
LINE
  5
351
330
1F
100
AcDbEntity
  8
D-4
  6
Continuous
 62
     7
370
     9
100
AcDbLine
 10
-1228.357898347469
 20
-87.868827732581
 30
0.0
 11
-464.6046558547927
 21
-87.868827732581
 31
0.0
  0
LINE
  5
352
330
1F
100
AcDbEntity
  8
D-4
  6
Continuous
 62
     7
370
     9
100
AcDbLine
 10
-500.6911317039443
 20
-523.8496436200321
 30
0.0
 11
-355.6907001663161
 21
-523.8496436200321
 31
0.0
  0
LINE
  5
353
330
1F
100
AcDbEntity
  8
D-5
  6
Continuous
 62
     2
370
     9
100
AcDbLine
 10
-997.6854435134841
 20
-1013.482555302161
 30
0.0
 11
-997.6854435134841
 21
-948.4829749188602
 31
0.0
  0
LINE
  5
354
330
1F
100
AcDbEntity
  8
D-5
  6
Continuous
 62
     2
370
     9
100
AcDbLine
 10
-997.6854435134841
 20
-948.4829749188602
 30
0.0
 11
-422.6850238967849
 21
-948.4829749188602
 31
0.0
  0
LINE
  5
355
330
1F
100
AcDbEntity
  8
D-5
  6
Continuous
 62
     2
370
     9
100
AcDbLine
 10
-422.6850238967849
 20
-948.4829749188602
 30
0.0
 11
-422.6850238967849
 21
-1013.482555302161
 31
0.0
  0
LINE
  5
356
330
1F
100
AcDbEntity
  8
D-5
  6
Continuous
 62
     2
370
     9
100
AcDbLine
 10
-422.6850238967849
 20
-1013.482555302161
 30
0.0
 11
-997.6854435134841
 21
-1013.482555302161
 31
0.0
  0
LINE
  5
357
330
1F
100
AcDbEntity
  8
D-4
  6
Continuous
 62
     7
370
     9
100
AcDbLine
 10
-655.6901184249831
 20
-842.5400961957157
 30
0.0
 11
-655.6901184249831
 21
-880.6228293500126
 31
0.0
  0
LINE
  5
358
330
1F
100
AcDbEntity
  8
D-5
  6
Continuous
 62
     7
370
     9
100
AcDbLine
 10
-316.3455310989333
 20
-209.4915427289189
 30
0.0
 11
-56.96267282256617
 21
-209.4915427289189
 31
0.0
  0
LINE
  5
359
330
1F
100
AcDbEntity
  8
D-5
  6
Continuous
 62
     7
370
     9
100
AcDbLine
 10
-507.6331463981581
 20
-317.540401371497
 30
0.0
 11
-493.8224497962905
 21
-296.7019762120427
 31
0.0
  0
LINE
  5
35A
330
1F
100
AcDbEntity
  8
D-5
  6
Continuous
 62
     7
370
     9
100
AcDbLine
 10
-507.6331463981581
 20
-317.540401371497
 30
0.0
 11
-488.8994709182692
 21
-300.9862937054814
 31
0.0
  0
LINE
  5
35B
330
1F
100
AcDbEntity
  8
D-5
  6
Continuous
 62
     7
370
     9
100
AcDbLine
 10
-365.8408847976638
 20
-154.6292723736943
 30
0.0
 11
-507.6331463981581
 21
-317.540401371497
 31
0.0
  0
LINE
  5
35C
330
1F
100
AcDbEntity
  8
D-5
  6
Continuous
 62
     7
370
     9
100
AcDbLine
 10
-316.3455310989333
 20
-209.4915427289189
 30
0.0
 11
-531.1738580618215
 21
-456.3172377667607
 31
0.0
  0
LINE
  5
35D
330
1F
100
AcDbEntity
  8
D-5
  6
Continuous
 62
     7
370
     9
100
AcDbLine
 10
-365.8408847976638
 20
-154.6292723736943
 30
0.0
 11
84.94948232880103
 21
-154.6292723736943
 31
0.0
  0
LINE
  5
35E
330
1F
100
AcDbEntity
  8
D-6
  6
Continuous
 62
     6
370
     9
100
AcDbLine
 10
-255.6902424026443
 20
-514.8801650128544
 30
0.0
 11
-208.3501926589919
 21
-467.5401057324589
 31
0.0
  0
LINE
  5
35F
330
1F
100
AcDbEntity
  8
D-6
  6
Continuous
 62
     6
370
     9
100
AcDbLine
 10
-505.6899181533767
 20
-764.8778571210087
 30
0.0
 11
-308.3506504226638
 21
-567.5400771222294
 31
0.0
  0
LINE
  5
360
330
1F
100
AcDbEntity
  8
D-6
  6
Continuous
 62
     6
370
     9
100
AcDbLine
 10
-505.6899181533767
 20
-779.0185202679813
 30
0.0
 11
-294.2099682022048
 21
-567.5400771222294
 31
0.0
  0
LINE
  5
361
330
1F
100
AcDbEntity
  8
D-6
  6
Continuous
 62
     6
370
     9
100
AcDbLine
 10
-255.6902424026443
 20
-529.0208472333134
 30
0.0
 11
-194.2094913650466
 21
-467.5401057324589
 31
0.0
  0
LINE
  5
362
330
1F
100
AcDbEntity
  8
D-6
  6
Continuous
 62
     6
370
     9
100
AcDbLine
 10
-505.6899181533767
 20
-793.1592215619266
 30
0.0
 11
-280.0692859817458
 21
-567.5400771222294
 31
0.0
  0
LINE
  5
363
330
1F
100
AcDbEntity
  8
D-6
  6
Continuous
 62
     6
370
     9
100
AcDbLine
 10
-255.6902424026443
 20
-543.1615294537723
 30
0.0
 11
-180.068828218074
 21
-467.5401057324589
 31
0.0
  0
LINE
  5
364
330
1F
100
AcDbEntity
  8
D-6
  6
Continuous
 62
     6
370
     9
100
AcDbLine
 10
-166.5177646804763
 20
-817.5397528729618
 30
0.0
 11
-90.68925058135522
 21
-741.7117346844852
 31
0.0
  0
LINE
  5
365
330
1F
100
AcDbEntity
  8
D-6
  6
Continuous
 62
     6
370
     9
100
AcDbLine
 10
-180.658427827449
 20
-817.5397528729618
 30
0.0
 11
-90.68925058135522
 21
-727.5710333905399
 31
0.0
  0
LINE
  5
366
330
1F
100
AcDbEntity
  8
D-6
  6
Continuous
 62
     6
370
     9
100
AcDbLine
 10
-152.377063386531
 20
-817.5397528729618
 30
0.0
 11
-90.68925058135522
 21
-755.8523978314579
 31
0.0
  0
LINE
  5
367
330
1F
100
AcDbEntity
  8
D-0
  6
Continuous
 62
     7
370
     9
100
AcDbLine
 10
-228.8447490859939
 20
-338.4898127637089
 30
0.0
 11
-228.8447490859939
 21
-336.9895328602971
 31
0.0
  0
LINE
  5
368
330
1F
100
AcDbEntity
  8
D-0
  6
Continuous
 62
     7
370
     9
100
AcDbLine
 10
-228.8447490859939
 20
-336.9895328602971
 30
0.0
 11
-227.3449817825271
 21
-336.9895328602971
 31
0.0
  0
LINE
  5
369
330
1F
100
AcDbEntity
  8
D-0
  6
Continuous
 62
     7
370
     9
100
AcDbLine
 10
-227.3449817825271
 20
-336.9895328602971
 30
0.0
 11
-227.3449817825271
 21
-338.4898127637089
 31
0.0
  0
LINE
  5
36A
330
1F
100
AcDbEntity
  8
D-0
  6
Continuous
 62
     7
370
     9
100
AcDbLine
 10
-227.3449817825271
 20
-338.4898127637089
 30
0.0
 11
-228.8447490859939
 21
-338.4898127637089
 31
0.0
  0
LINE
  5
36B
330
1F
100
AcDbEntity
  8
D-0
  6
Continuous
 62
     7
370
     9
100
AcDbLine
 10
-178.0889240432693
 20
-341.1970533452214
 30
0.0
 11
-178.0889240432693
 21
-339.6967734418095
 31
0.0
  0
LINE
  5
36C
330
1F
100
AcDbEntity
  8
D-0
  6
Continuous
 62
     7
370
     9
100
AcDbLine
 10
-178.0889240432693
 20
-339.6967734418095
 30
0.0
 11
-176.5886417556716
 21
-339.6967734418095
 31
0.0
  0
LINE
  5
36D
330
1F
100
AcDbEntity
  8
D-0
  6
Continuous
 62
     7
370
     9
100
AcDbLine
 10
-176.5886417556716
 20
-339.6967734418095
 30
0.0
 11
-176.5886417556716
 21
-341.1970533452214
 31
0.0
  0
LINE
  5
36E
330
1F
100
AcDbEntity
  8
D-0
  6
Continuous
 62
     7
370
     9
100
AcDbLine
 10
-176.5886417556716
 20
-341.1970533452214
 30
0.0
 11
-178.0889240432693
 21
-341.1970533452214
 31
0.0
  0
LINE
  5
36F
330
1F
100
AcDbEntity
  8
D-0
  6
Continuous
 62
     7
370
     9
100
AcDbLine
 10
-113.1210819412185
 20
-339.1666235051335
 30
0.0
 11
-113.1210819412185
 21
-337.6663436017216
 31
0.0
  0
LINE
  5
370
330
1F
100
AcDbEntity
  8
D-0
  6
Continuous
 62
     7
370
     9
100
AcDbLine
 10
-113.1210819412185
 20
-337.6663436017216
 30
0.0
 11
-111.6212955642654
 21
-337.6663436017216
 31
0.0
  0
LINE
  5
371
330
1F
100
AcDbEntity
  8
D-0
  6
Continuous
 62
     7
370
     9
100
AcDbLine
 10
-111.6212955642654
 20
-337.6663436017216
 30
0.0
 11
-111.6212955642654
 21
-339.1666235051335
 31
0.0
  0
LINE
  5
372
330
1F
100
AcDbEntity
  8
D-0
  6
Continuous
 62
     7
370
     9
100
AcDbLine
 10
-111.6212955642654
 20
-339.1666235051335
 30
0.0
 11
-113.1210819412185
 21
-339.1666235051335
 31
0.0
  0
LINE
  5
373
330
1F
100
AcDbEntity
  8
D-0
  6
Continuous
 62
     7
370
     9
100
AcDbLine
 10
-137.4842945266677
 20
-371.6505469403447
 30
0.0
 11
-137.4842945266677
 21
-370.150264652747
 31
0.0
  0
LINE
  5
374
330
1F
100
AcDbEntity
  8
D-0
  6
Continuous
 62
     7
370
     9
100
AcDbLine
 10
-137.4842945266677
 20
-370.150264652747
 30
0.0
 11
-135.9840122390701
 21
-370.150264652747
 31
0.0
  0
LINE
  5
375
330
1F
100
AcDbEntity
  8
D-0
  6
Continuous
 62
     7
370
     9
100
AcDbLine
 10
-135.9840122390701
 20
-370.150264652747
 30
0.0
 11
-135.9840122390701
 21
-371.6505469403447
 31
0.0
  0
LINE
  5
376
330
1F
100
AcDbEntity
  8
D-0
  6
Continuous
 62
     7
370
     9
100
AcDbLine
 10
-135.9840122390701
 20
-371.6505469403447
 30
0.0
 11
-137.4842945266677
 21
-371.6505469403447
 31
0.0
  0
LINE
  5
377
330
1F
100
AcDbEntity
  8
D-0
  6
Continuous
 62
     7
370
     9
100
AcDbLine
 10
-188.0493274856521
 20
-375.5815972409428
 30
0.0
 11
-188.0493274856521
 21
-374.0813149533452
 31
0.0
  0
LINE
  5
378
330
1F
100
AcDbEntity
  8
D-0
  6
Continuous
 62
     7
370
     9
100
AcDbLine
 10
-188.0493274856521
 20
-374.0813149533452
 30
0.0
 11
-186.5495792556716
 21
-374.0813149533452
 31
0.0
  0
LINE
  5
379
330
1F
100
AcDbEntity
  8
D-0
  6
Continuous
 62
     7
370
     9
100
AcDbLine
 10
-186.5495792556716
 20
-374.0813149533452
 30
0.0
 11
-186.5495792556716
 21
-375.5815972409428
 31
0.0
  0
LINE
  5
37A
330
1F
100
AcDbEntity
  8
D-0
  6
Continuous
 62
     7
370
     9
100
AcDbLine
 10
-186.5495792556716
 20
-375.5815972409428
 30
0.0
 11
-188.0493274856521
 21
-375.5815972409428
 31
0.0
  0
LINE
  5
37B
330
1F
100
AcDbEntity
  8
D-0
  6
Continuous
 62
     7
370
     9
100
AcDbLine
 10
-205.1588550735427
 20
-409.548458012122
 30
0.0
 11
-205.1588550735427
 21
-408.0481757245244
 31
0.0
  0
LINE
  5
37C
330
1F
100
AcDbEntity
  8
D-0
  6
Continuous
 62
     7
370
     9
100
AcDbLine
 10
-205.1588550735427
 20
-408.0481757245244
 30
0.0
 11
-203.6586109329177
 21
-408.0481757245244
 31
0.0
  0
LINE
  5
37D
330
1F
100
AcDbEntity
  8
D-0
  6
Continuous
 62
     7
370
     9
100
AcDbLine
 10
-203.6586109329177
 20
-408.0481757245244
 30
0.0
 11
-203.6586109329177
 21
-409.548458012122
 31
0.0
  0
LINE
  5
37E
330
1F
100
AcDbEntity
  8
D-0
  6
Continuous
 62
     7
370
     9
100
AcDbLine
 10
-203.6586109329177
 20
-409.548458012122
 30
0.0
 11
-205.1588550735427
 21
-409.548458012122
 31
0.0
  0
LINE
  5
37F
330
1F
100
AcDbEntity
  8
D-0
  6
Continuous
 62
     7
370
     9
100
AcDbLine
 10
-236.5151134658767
 20
-394.976719769019
 30
0.0
 11
-236.5151134658767
 21
-393.4764422497929
 31
0.0
  0
LINE
  5
380
330
1F
100
AcDbEntity
  8
D-0
  6
Continuous
 62
     7
370
     9
100
AcDbLine
 10
-236.5151134658767
 20
-393.4764422497929
 30
0.0
 11
-235.0153270889236
 21
-393.4764422497929
 31
0.0
  0
LINE
  5
381
330
1F
100
AcDbEntity
  8
D-0
  6
Continuous
 62
     7
370
     9
100
AcDbLine
 10
-235.0153270889236
 20
-393.4764422497929
 30
0.0
 11
-235.0153270889236
 21
-394.976719769019
 31
0.0
  0
LINE
  5
382
330
1F
100
AcDbEntity
  8
D-0
  6
Continuous
 62
     7
370
     9
100
AcDbLine
 10
-235.0153270889236
 20
-394.976719769019
 30
0.0
 11
-236.5151134658767
 21
-394.976719769019
 31
0.0
  0
LINE
  5
383
330
1F
100
AcDbEntity
  8
D-0
  6
Continuous
 62
     7
370
     9
100
AcDbLine
 10
-247.2395244766189
 20
-436.1967505536259
 30
0.0
 11
-247.2395244766189
 21
-434.6964682660283
 31
0.0
  0
LINE
  5
384
330
1F
100
AcDbEntity
  8
D-0
  6
Continuous
 62
     7
370
     9
100
AcDbLine
 10
-247.2395244766189
 20
-434.6964682660283
 30
0.0
 11
-245.7392421890212
 21
-434.6964682660283
 31
0.0
  0
LINE
  5
385
330
1F
100
AcDbEntity
  8
D-0
  6
Continuous
 62
     7
370
     9
100
AcDbLine
 10
-245.7392421890212
 20
-434.6964682660283
 30
0.0
 11
-245.7392421890212
 21
-436.1967505536259
 31
0.0
  0
LINE
  5
386
330
1F
100
AcDbEntity
  8
D-0
  6
Continuous
 62
     7
370
     9
100
AcDbLine
 10
-245.7392421890212
 20
-436.1967505536259
 30
0.0
 11
-247.2395244766189
 21
-436.1967505536259
 31
0.0
  0
LINE
  5
387
330
1F
100
AcDbEntity
  8
D-0
  6
Continuous
 62
     7
370
     9
100
AcDbLine
 10
-209.8960605789138
 20
-444.7391261182011
 30
0.0
 11
-209.8960605789138
 21
-443.2388438306035
 31
0.0
  0
LINE
  5
388
330
1F
100
AcDbEntity
  8
D-0
  6
Continuous
 62
     7
370
     9
100
AcDbLine
 10
-209.8960605789138
 20
-443.2388438306035
 30
0.0
 11
-208.3957782913162
 21
-443.2388438306035
 31
0.0
  0
LINE
  5
389
330
1F
100
AcDbEntity
  8
D-0
  6
Continuous
 62
     7
370
     9
100
AcDbLine
 10
-208.3957782913162
 20
-443.2388438306035
 30
0.0
 11
-208.3957782913162
 21
-444.7391261182011
 31
0.0
  0
LINE
  5
38A
330
1F
100
AcDbEntity
  8
D-0
  6
Continuous
 62
     7
370
     9
100
AcDbLine
 10
-208.3957782913162
 20
-444.7391261182011
 30
0.0
 11
-209.8960605789138
 21
-444.7391261182011
 31
0.0
  0
LINE
  5
38B
330
1F
100
AcDbEntity
  8
D-0
  6
Continuous
 62
     7
370
     9
100
AcDbLine
 10
-157.6909748245193
 20
-449.4639147839726
 30
0.0
 11
-157.6909748245193
 21
-447.9636420331181
 31
0.0
  0
LINE
  5
38C
330
1F
100
AcDbEntity
  8
D-0
  6
Continuous
 62
     7
370
     9
100
AcDbLine
 10
-157.6909748245193
 20
-447.9636420331181
 30
0.0
 11
-156.1911884475662
 21
-447.9636420331181
 31
0.0
  0
LINE
  5
38D
330
1F
100
AcDbEntity
  8
D-0
  6
Continuous
 62
     7
370
     9
100
AcDbLine
 10
-156.1911884475662
 20
-447.9636420331181
 30
0.0
 11
-156.1911884475662
 21
-449.4639147839726
 31
0.0
  0
LINE
  5
38E
330
1F
100
AcDbEntity
  8
D-0
  6
Continuous
 62
     7
370
     9
100
AcDbLine
 10
-156.1911884475662
 20
-449.4639147839726
 30
0.0
 11
-157.6909748245193
 21
-449.4639147839726
 31
0.0
  0
LINE
  5
38F
330
1F
100
AcDbEntity
  8
D-0
  6
Continuous
 62
     7
370
     9
100
AcDbLine
 10
-102.9699054885818
 20
-442.7086962781132
 30
0.0
 11
-102.9699054885818
 21
-441.2084139905156
 31
0.0
  0
LINE
  5
390
330
1F
100
AcDbEntity
  8
D-0
  6
Continuous
 62
     7
370
     9
100
AcDbLine
 10
-102.9699054885818
 20
-441.2084139905156
 30
0.0
 11
-101.4701572586013
 21
-441.2084139905156
 31
0.0
  0
LINE
  5
391
330
1F
100
AcDbEntity
  8
D-0
  6
Continuous
 62
     7
370
     9
100
AcDbLine
 10
-101.4701572586013
 20
-441.2084139905156
 30
0.0
 11
-101.4701572586013
 21
-442.7086962781132
 31
0.0
  0
LINE
  5
392
330
1F
100
AcDbEntity
  8
D-0
  6
Continuous
 62
     7
370
     9
100
AcDbLine
 10
-101.4701572586013
 20
-442.7086962781132
 30
0.0
 11
-102.9699054885818
 21
-442.7086962781132
 31
0.0
  0
LINE
  5
393
330
1F
100
AcDbEntity
  8
D-0
  6
Continuous
 62
     7
370
     9
100
AcDbLine
 10
-115.1515308547927
 20
-402.7808512768925
 30
0.0
 11
-115.1515308547927
 21
-401.2805689892949
 31
0.0
  0
LINE
  5
394
330
1F
100
AcDbEntity
  8
D-0
  6
Continuous
 62
     7
370
     9
100
AcDbLine
 10
-115.1515308547927
 20
-401.2805689892949
 30
0.0
 11
-113.6512485671951
 21
-401.2805689892949
 31
0.0
  0
LINE
  5
395
330
1F
100
AcDbEntity
  8
D-0
  6
Continuous
 62
     7
370
     9
100
AcDbLine
 10
-113.6512485671951
 20
-401.2805689892949
 30
0.0
 11
-113.6512485671951
 21
-402.7808512768925
 31
0.0
  0
LINE
  5
396
330
1F
100
AcDbEntity
  8
D-0
  6
Continuous
 62
     7
370
     9
100
AcDbLine
 10
-113.6512485671951
 20
-402.7808512768925
 30
0.0
 11
-115.1515308547927
 21
-402.7808512768925
 31
0.0
  0
LINE
  5
397
330
1F
100
AcDbEntity
  8
D-0
  6
Continuous
 62
     7
370
     9
100
AcDbLine
 10
-156.1802784133865
 20
-411.8984641156376
 30
0.0
 11
-156.1802784133865
 21
-410.39818182804
 31
0.0
  0
LINE
  5
398
330
1F
100
AcDbEntity
  8
D-0
  6
Continuous
 62
     7
370
     9
100
AcDbLine
 10
-156.1802784133865
 20
-410.39818182804
 30
0.0
 11
-154.680530183406
 21
-410.39818182804
 31
0.0
  0
LINE
  5
399
330
1F
100
AcDbEntity
  8
D-0
  6
Continuous
 62
     7
370
     9
100
AcDbLine
 10
-154.680530183406
 20
-410.39818182804
 30
0.0
 11
-154.680530183406
 21
-411.8984641156376
 31
0.0
  0
LINE
  5
39A
330
1F
100
AcDbEntity
  8
D-0
  6
Continuous
 62
     7
370
     9
100
AcDbLine
 10
-154.680530183406
 20
-411.8984641156376
 30
0.0
 11
-156.1802784133865
 21
-411.8984641156376
 31
0.0
  0
LINE
  5
39B
330
1F
100
AcDbEntity
  8
D-0
  6
Continuous
 62
     7
370
     9
100
AcDbLine
 10
-95.6954685378982
 20
-372.4101008496464
 30
0.0
 11
-95.6954685378982
 21
-370.9098185620488
 31
0.0
  0
LINE
  5
39C
330
1F
100
AcDbEntity
  8
D-0
  6
Continuous
 62
     7
370
     9
100
AcDbLine
 10
-95.6954685378982
 20
-370.9098185620488
 30
0.0
 11
-94.19518625030054
 21
-370.9098185620488
 31
0.0
  0
LINE
  5
39D
330
1F
100
AcDbEntity
  8
D-0
  6
Continuous
 62
     7
370
     9
100
AcDbLine
 10
-94.19518625030054
 20
-370.9098185620488
 30
0.0
 11
-94.19518625030054
 21
-372.4101008496464
 31
0.0
  0
LINE
  5
39E
330
1F
100
AcDbEntity
  8
D-0
  6
Continuous
 62
     7
370
     9
100
AcDbLine
 10
-94.19518625030054
 20
-372.4101008496464
 30
0.0
 11
-95.6954685378982
 21
-372.4101008496464
 31
0.0
  0
LINE
  5
39F
330
1F
100
AcDbEntity
  8
D-0
  6
Continuous
 62
     7
370
     9
100
AcDbLine
 10
-249.6960560012771
 20
-361.5172185025395
 30
0.0
 11
-249.6960560012771
 21
-360.0169409833134
 31
0.0
  0
LINE
  5
3A0
330
1F
100
AcDbEntity
  8
D-0
  6
Continuous
 62
     7
370
     9
100
AcDbLine
 10
-249.6960560012771
 20
-360.0169409833134
 30
0.0
 11
-248.1957927871658
 21
-360.0169409833134
 31
0.0
  0
LINE
  5
3A1
330
1F
100
AcDbEntity
  8
D-0
  6
Continuous
 62
     7
370
     9
100
AcDbLine
 10
-248.1957927871658
 20
-360.0169409833134
 30
0.0
 11
-248.1957927871658
 21
-361.5172185025395
 31
0.0
  0
LINE
  5
3A2
330
1F
100
AcDbEntity
  8
D-0
  6
Continuous
 62
     7
370
     9
100
AcDbLine
 10
-248.1957927871658
 20
-361.5172185025395
 30
0.0
 11
-249.6960560012771
 21
-361.5172185025395
 31
0.0
  0
LINE
  5
3A3
330
1F
100
AcDbEntity
  8
D-0
  6
Continuous
 62
     7
370
     9
100
AcDbLine
 10
-333.0457988906813
 20
-484.7675551495732
 30
0.0
 11
-333.0457988906813
 21
-483.2672728619755
 31
0.0
  0
LINE
  5
3A4
330
1F
100
AcDbEntity
  8
D-0
  6
Continuous
 62
     7
370
     9
100
AcDbLine
 10
-333.0457988906813
 20
-483.2672728619755
 30
0.0
 11
-331.5455166030837
 21
-483.2672728619755
 31
0.0
  0
LINE
  5
3A5
330
1F
100
AcDbEntity
  8
D-0
  6
Continuous
 62
     7
370
     9
100
AcDbLine
 10
-331.5455166030837
 20
-483.2672728619755
 30
0.0
 11
-331.5455166030837
 21
-484.7675551495732
 31
0.0
  0
LINE
  5
3A6
330
1F
100
AcDbEntity
  8
D-0
  6
Continuous
 62
     7
370
     9
100
AcDbLine
 10
-331.5455166030837
 20
-484.7675551495732
 30
0.0
 11
-333.0457988906813
 21
-484.7675551495732
 31
0.0
  0
LINE
  5
3A7
330
1F
100
AcDbEntity
  8
D-0
  6
Continuous
 62
     7
370
     9
100
AcDbLine
 10
-283.6812511611892
 20
-492.6658286175908
 30
0.0
 11
-283.6812511611892
 21
-491.1655463299931
 31
0.0
  0
LINE
  5
3A8
330
1F
100
AcDbEntity
  8
D-0
  6
Continuous
 62
     7
370
     9
100
AcDbLine
 10
-283.6812511611892
 20
-491.1655463299931
 30
0.0
 11
-282.1809879470779
 21
-491.1655463299931
 31
0.0
  0
LINE
  5
3A9
330
1F
100
AcDbEntity
  8
D-0
  6
Continuous
 62
     7
370
     9
100
AcDbLine
 10
-282.1809879470779
 20
-491.1655463299931
 30
0.0
 11
-282.1809879470779
 21
-492.6658286175908
 31
0.0
  0
LINE
  5
3AA
330
1F
100
AcDbEntity
  8
D-0
  6
Continuous
 62
     7
370
     9
100
AcDbLine
 10
-282.1809879470779
 20
-492.6658286175908
 30
0.0
 11
-283.6812511611892
 21
-492.6658286175908
 31
0.0
  0
LINE
  5
3AB
330
1F
100
AcDbEntity
  8
D-0
  6
Continuous
 62
     7
370
     9
100
AcDbLine
 10
-300.5623737503005
 20
-513.2465972027958
 30
0.0
 11
-300.5623737503005
 21
-511.7463339886845
 31
0.0
  0
LINE
  5
3AC
330
1F
100
AcDbEntity
  8
D-0
  6
Continuous
 62
     7
370
     9
100
AcDbLine
 10
-300.5623737503005
 20
-511.7463339886845
 30
0.0
 11
-299.0625873733474
 21
-511.7463339886845
 31
0.0
  0
LINE
  5
3AD
330
1F
100
AcDbEntity
  8
D-0
  6
Continuous
 62
     7
370
     9
100
AcDbLine
 10
-299.0625873733474
 20
-511.7463339886845
 30
0.0
 11
-299.0625873733474
 21
-513.2465972027958
 31
0.0
  0
LINE
  5
3AE
330
1F
100
AcDbEntity
  8
D-0
  6
Continuous
 62
     7
370
     9
100
AcDbLine
 10
-299.0625873733474
 20
-513.2465972027958
 30
0.0
 11
-300.5623737503005
 21
-513.2465972027958
 31
0.0
  0
LINE
  5
3AF
330
1F
100
AcDbEntity
  8
D-0
  6
Continuous
 62
     7
370
     9
100
AcDbLine
 10
-348.8423458267165
 20
-547.9546965680302
 30
0.0
 11
-348.8423458267165
 21
-546.4544142804325
 31
0.0
  0
LINE
  5
3B0
330
1F
100
AcDbEntity
  8
D-0
  6
Continuous
 62
     7
370
     9
100
AcDbLine
 10
-348.8423458267165
 20
-546.4544142804325
 30
0.0
 11
-347.3425594497634
 21
-546.4544142804325
 31
0.0
  0
LINE
  5
3B1
330
1F
100
AcDbEntity
  8
D-0
  6
Continuous
 62
     7
370
     9
100
AcDbLine
 10
-347.3425594497634
 20
-546.4544142804325
 30
0.0
 11
-347.3425594497634
 21
-547.9546965680302
 31
0.0
  0
LINE
  5
3B2
330
1F
100
AcDbEntity
  8
D-0
  6
Continuous
 62
     7
370
     9
100
AcDbLine
 10
-347.3425594497634
 20
-547.9546965680302
 30
0.0
 11
-348.8423458267165
 21
-547.9546965680302
 31
0.0
  0
LINE
  5
3B3
330
1F
100
AcDbEntity
  8
D-0
  6
Continuous
 62
     7
370
     9
100
AcDbLine
 10
-277.7574268508865
 20
-545.9797514996708
 30
0.0
 11
-277.7574268508865
 21
-544.4794692120731
 31
0.0
  0
LINE
  5
3B4
330
1F
100
AcDbEntity
  8
D-0
  6
Continuous
 62
     7
370
     9
100
AcDbLine
 10
-277.7574268508865
 20
-544.4794692120731
 30
0.0
 11
-276.2571636367751
 21
-544.4794692120731
 31
0.0
  0
LINE
  5
3B5
330
1F
100
AcDbEntity
  8
D-0
  6
Continuous
 62
     7
370
     9
100
AcDbLine
 10
-276.2571636367751
 20
-544.4794692120731
 30
0.0
 11
-276.2571636367751
 21
-545.9797514996708
 31
0.0
  0
LINE
  5
3B6
330
1F
100
AcDbEntity
  8
D-0
  6
Continuous
 62
     7
370
     9
100
AcDbLine
 10
-276.2571636367751
 20
-545.9797514996708
 30
0.0
 11
-277.7574268508865
 21
-545.9797514996708
 31
0.0
  0
LINE
  5
3B7
330
1F
100
AcDbEntity
  8
D-0
  6
Continuous
 62
     7
370
     9
100
AcDbLine
 10
-335.0202480483962
 20
-514.3866767010868
 30
0.0
 11
-335.0202480483962
 21
-512.8863944134891
 31
0.0
  0
LINE
  5
3B8
330
1F
100
AcDbEntity
  8
D-0
  6
Continuous
 62
     7
370
     9
100
AcDbLine
 10
-335.0202480483962
 20
-512.8863944134891
 30
0.0
 11
-333.5204616714431
 21
-512.8863944134891
 31
0.0
  0
LINE
  5
3B9
330
1F
100
AcDbEntity
  8
D-0
  6
Continuous
 62
     7
370
     9
100
AcDbLine
 10
-333.5204616714431
 20
-512.8863944134891
 30
0.0
 11
-333.5204616714431
 21
-514.3866767010868
 31
0.0
  0
LINE
  5
3BA
330
1F
100
AcDbEntity
  8
D-0
  6
Continuous
 62
     7
370
     9
100
AcDbLine
 10
-333.5204616714431
 20
-514.3866767010868
 30
0.0
 11
-335.0202480483962
 21
-514.3866767010868
 31
0.0
  0
LINE
  5
3BB
330
1F
100
AcDbEntity
  8
D-0
  6
Continuous
 62
     7
370
     9
100
AcDbLine
 10
-303.1531826187087
 20
-470.5079592786015
 30
0.0
 11
-303.1531826187087
 21
-469.007686527747
 31
0.0
  0
LINE
  5
3BC
330
1F
100
AcDbEntity
  8
D-0
  6
Continuous
 62
     7
370
     9
100
AcDbLine
 10
-303.1531826187087
 20
-469.007686527747
 30
0.0
 11
-301.6529003311111
 21
-469.007686527747
 31
0.0
  0
LINE
  5
3BD
330
1F
100
AcDbEntity
  8
D-0
  6
Continuous
 62
     7
370
     9
100
AcDbLine
 10
-301.6529003311111
 20
-469.007686527747
 30
0.0
 11
-301.6529003311111
 21
-470.5079592786015
 31
0.0
  0
LINE
  5
3BE
330
1F
100
AcDbEntity
  8
D-0
  6
Continuous
 62
     7
370
     9
100
AcDbLine
 10
-301.6529003311111
 20
-470.5079592786015
 30
0.0
 11
-303.1531826187087
 21
-470.5079592786015
 31
0.0
  0
LINE
  5
3BF
330
1F
100
AcDbEntity
  8
D-0
  6
Continuous
 62
     7
370
     9
100
AcDbLine
 10
-312.4367824722244
 20
-541.9476164899052
 30
0.0
 11
-312.4367824722244
 21
-540.4473532757938
 31
0.0
  0
LINE
  5
3C0
330
1F
100
AcDbEntity
  8
D-0
  6
Continuous
 62
     7
370
     9
100
AcDbLine
 10
-312.4367824722244
 20
-540.4473532757938
 30
0.0
 11
-310.9365001846267
 21
-540.4473532757938
 31
0.0
  0
LINE
  5
3C1
330
1F
100
AcDbEntity
  8
D-0
  6
Continuous
 62
     7
370
     9
100
AcDbLine
 10
-310.9365001846267
 20
-540.4473532757938
 30
0.0
 11
-310.9365001846267
 21
-541.9476164899052
 31
0.0
  0
LINE
  5
3C2
330
1F
100
AcDbEntity
  8
D-0
  6
Continuous
 62
     7
370
     9
100
AcDbLine
 10
-310.9365001846267
 20
-541.9476164899052
 30
0.0
 11
-312.4367824722244
 21
-541.9476164899052
 31
0.0
  0
LINE
  5
3C3
330
1F
100
AcDbEntity
  8
D-0
  6
Continuous
 62
     7
370
     9
100
AcDbLine
 10
-475.5624405075026
 20
-332.0715095124424
 30
0.0
 11
-475.5624405075026
 21
-330.5712296090306
 31
0.0
  0
LINE
  5
3C4
330
1F
100
AcDbEntity
  8
D-0
  6
Continuous
 62
     7
370
     9
100
AcDbLine
 10
-475.5624405075026
 20
-330.5712296090306
 30
0.0
 11
-474.0621629882766
 21
-330.5712296090306
 31
0.0
  0
LINE
  5
3C5
330
1F
100
AcDbEntity
  8
D-0
  6
Continuous
 62
     7
370
     9
100
AcDbLine
 10
-474.0621629882766
 20
-330.5712296090306
 30
0.0
 11
-474.0621629882766
 21
-332.0715095124424
 31
0.0
  0
LINE
  5
3C6
330
1F
100
AcDbEntity
  8
D-0
  6
Continuous
 62
     7
370
     9
100
AcDbLine
 10
-474.0621629882766
 20
-332.0715095124424
 30
0.0
 11
-475.5624405075026
 21
-332.0715095124424
 31
0.0
  0
LINE
  5
3C7
330
1F
100
AcDbEntity
  8
D-0
  6
Continuous
 62
     7
370
     9
100
AcDbLine
 10
-454.3177333999587
 20
-347.8700269780339
 30
0.0
 11
-454.3177333999587
 21
-346.369747074622
 31
0.0
  0
LINE
  5
3C8
330
1F
100
AcDbEntity
  8
D-0
  6
Continuous
 62
     7
370
     9
100
AcDbLine
 10
-454.3177333999587
 20
-346.369747074622
 30
0.0
 11
-452.817451112361
 21
-346.369747074622
 31
0.0
  0
LINE
  5
3C9
330
1F
100
AcDbEntity
  8
D-0
  6
Continuous
 62
     7
370
     9
100
AcDbLine
 10
-452.817451112361
 20
-346.369747074622
 30
0.0
 11
-452.817451112361
 21
-347.8700269780339
 31
0.0
  0
LINE
  5
3CA
330
1F
100
AcDbEntity
  8
D-0
  6
Continuous
 62
     7
370
     9
100
AcDbLine
 10
-452.817451112361
 20
-347.8700269780339
 30
0.0
 11
-454.3177333999587
 21
-347.8700269780339
 31
0.0
  0
LINE
  5
3CB
330
1F
100
AcDbEntity
  8
D-0
  6
Continuous
 62
     7
370
     9
100
AcDbLine
 10
-430.4514995742751
 20
-388.9503325543583
 30
0.0
 11
-430.4514995742751
 21
-387.4500550351323
 31
0.0
  0
LINE
  5
3CC
330
1F
100
AcDbEntity
  8
D-0
  6
Continuous
 62
     7
370
     9
100
AcDbLine
 10
-430.4514995742751
 20
-387.4500550351323
 30
0.0
 11
-428.951713197322
 21
-387.4500550351323
 31
0.0
  0
LINE
  5
3CD
330
1F
100
AcDbEntity
  8
D-0
  6
Continuous
 62
     7
370
     9
100
AcDbLine
 10
-428.951713197322
 20
-387.4500550351323
 30
0.0
 11
-428.951713197322
 21
-388.9503325543583
 31
0.0
  0
LINE
  5
3CE
330
1F
100
AcDbEntity
  8
D-0
  6
Continuous
 62
     7
370
     9
100
AcDbLine
 10
-428.951713197322
 20
-388.9503325543583
 30
0.0
 11
-430.4514995742751
 21
-388.9503325543583
 31
0.0
  0
LINE
  5
3CF
330
1F
100
AcDbEntity
  8
D-0
  6
Continuous
 62
     7
370
     9
100
AcDbLine
 10
-384.6870247055007
 20
-335.9941364846409
 30
0.0
 11
-384.6870247055007
 21
-334.4938565812291
 31
0.0
  0
LINE
  5
3D0
330
1F
100
AcDbEntity
  8
D-0
  6
Continuous
 62
     7
370
     9
100
AcDbLine
 10
-384.6870247055007
 20
-334.4938565812291
 30
0.0
 11
-383.1872478652907
 21
-334.4938565812291
 31
0.0
  0
LINE
  5
3D1
330
1F
100
AcDbEntity
  8
D-0
  6
Continuous
 62
     7
370
     9
100
AcDbLine
 10
-383.1872478652907
 20
-334.4938565812291
 30
0.0
 11
-383.1872478652907
 21
-335.9941364846409
 31
0.0
  0
LINE
  5
3D2
330
1F
100
AcDbEntity
  8
D-0
  6
Continuous
 62
     7
370
     9
100
AcDbLine
 10
-383.1872478652907
 20
-335.9941364846409
 30
0.0
 11
-384.6870247055007
 21
-335.9941364846409
 31
0.0
  0
LINE
  5
3D3
330
1F
100
AcDbEntity
  8
D-0
  6
Continuous
 62
     7
370
     9
100
AcDbLine
 10
-337.1289554763747
 20
-330.596003683585
 30
0.0
 11
-337.1289554763747
 21
-329.0957237801732
 31
0.0
  0
LINE
  5
3D4
330
1F
100
AcDbEntity
  8
D-0
  6
Continuous
 62
     7
370
     9
100
AcDbLine
 10
-337.1289554763747
 20
-329.0957237801732
 30
0.0
 11
-335.6291690994216
 21
-329.0957237801732
 31
0.0
  0
LINE
  5
3D5
330
1F
100
AcDbEntity
  8
D-0
  6
Continuous
 62
     7
370
     9
100
AcDbLine
 10
-335.6291690994216
 20
-329.0957237801732
 30
0.0
 11
-335.6291690994216
 21
-330.596003683585
 31
0.0
  0
LINE
  5
3D6
330
1F
100
AcDbEntity
  8
D-0
  6
Continuous
 62
     7
370
     9
100
AcDbLine
 10
-335.6291690994216
 20
-330.596003683585
 30
0.0
 11
-337.1289554763747
 21
-330.596003683585
 31
0.0
  0
LINE
  5
3D7
330
1F
100
AcDbEntity
  8
D-0
  6
Continuous
 62
     7
370
     9
100
AcDbLine
 10
-356.7425838638259
 20
-352.1706952176274
 30
0.0
 11
-356.7425838638259
 21
-350.6704176984013
 31
0.0
  0
LINE
  5
3D8
330
1F
100
AcDbEntity
  8
D-0
  6
Continuous
 62
     7
370
     9
100
AcDbLine
 10
-356.7425838638259
 20
-350.6704176984013
 30
0.0
 11
-355.2423015762282
 21
-350.6704176984013
 31
0.0
  0
LINE
  5
3D9
330
1F
100
AcDbEntity
  8
D-0
  6
Continuous
 62
     7
370
     9
100
AcDbLine
 10
-355.2423015762282
 20
-350.6704176984013
 30
0.0
 11
-355.2423015762282
 21
-352.1706952176274
 31
0.0
  0
LINE
  5
3DA
330
1F
100
AcDbEntity
  8
D-0
  6
Continuous
 62
     7
370
     9
100
AcDbLine
 10
-355.2423015762282
 20
-352.1706952176274
 30
0.0
 11
-356.7425838638259
 21
-352.1706952176274
 31
0.0
  0
LINE
  5
3DB
330
1F
100
AcDbEntity
  8
D-0
  6
Continuous
 62
     7
370
     9
100
AcDbLine
 10
-332.3848453689528
 20
-388.2968129239262
 30
0.0
 11
-332.3848453689528
 21
-386.7965306363286
 31
0.0
  0
LINE
  5
3DC
330
1F
100
AcDbEntity
  8
D-0
  6
Continuous
 62
     7
370
     9
100
AcDbLine
 10
-332.3848453689528
 20
-386.7965306363286
 30
0.0
 11
-330.8845630813552
 21
-386.7965306363286
 31
0.0
  0
LINE
  5
3DD
330
1F
100
AcDbEntity
  8
D-0
  6
Continuous
 62
     7
370
     9
100
AcDbLine
 10
-330.8845630813552
 20
-386.7965306363286
 30
0.0
 11
-330.8845630813552
 21
-388.2968129239262
 31
0.0
  0
LINE
  5
3DE
330
1F
100
AcDbEntity
  8
D-0
  6
Continuous
 62
     7
370
     9
100
AcDbLine
 10
-330.8845630813552
 20
-388.2968129239262
 30
0.0
 11
-332.3848453689528
 21
-388.2968129239262
 31
0.0
  0
LINE
  5
3DF
330
1F
100
AcDbEntity
  8
D-0
  6
Continuous
 62
     7
370
     9
100
AcDbLine
 10
-328.4617344070388
 20
-426.8695487103642
 30
0.0
 11
-328.4617344070388
 21
-425.3692664227665
 31
0.0
  0
LINE
  5
3E0
330
1F
100
AcDbEntity
  8
D-0
  6
Continuous
 62
     7
370
     9
100
AcDbLine
 10
-328.4617344070388
 20
-425.3692664227665
 30
0.0
 11
-326.9619480300856
 21
-425.3692664227665
 31
0.0
  0
LINE
  5
3E1
330
1F
100
AcDbEntity
  8
D-0
  6
Continuous
 62
     7
370
     9
100
AcDbLine
 10
-326.9619480300856
 20
-425.3692664227665
 30
0.0
 11
-326.9619480300856
 21
-426.8695487103642
 31
0.0
  0
LINE
  5
3E2
330
1F
100
AcDbEntity
  8
D-0
  6
Continuous
 62
     7
370
     9
100
AcDbLine
 10
-326.9619480300856
 20
-426.8695487103642
 30
0.0
 11
-328.4617344070388
 21
-426.8695487103642
 31
0.0
  0
LINE
  5
3E3
330
1F
100
AcDbEntity
  8
D-0
  6
Continuous
 62
     7
370
     9
100
AcDbLine
 10
-404.1307083297683
 20
-350.4955162129582
 30
0.0
 11
-404.1307083297683
 21
-348.9952363095463
 31
0.0
  0
LINE
  5
3E4
330
1F
100
AcDbEntity
  8
D-0
  6
Continuous
 62
     7
370
     9
100
AcDbLine
 10
-404.1307083297683
 20
-348.9952363095463
 30
0.0
 11
-402.6304260421706
 21
-348.9952363095463
 31
0.0
  0
LINE
  5
3E5
330
1F
100
AcDbEntity
  8
D-0
  6
Continuous
 62
     7
370
     9
100
AcDbLine
 10
-402.6304260421706
 20
-348.9952363095463
 30
0.0
 11
-402.6304260421706
 21
-350.4955162129582
 31
0.0
  0
LINE
  5
3E6
330
1F
100
AcDbEntity
  8
D-0
  6
Continuous
 62
     7
370
     9
100
AcDbLine
 10
-402.6304260421706
 20
-350.4955162129582
 30
0.0
 11
-404.1307083297683
 21
-350.4955162129582
 31
0.0
  0
LINE
  5
3E7
330
1F
100
AcDbEntity
  8
D-0
  6
Continuous
 62
     7
370
     9
100
AcDbLine
 10
-482.4127927947951
 20
-477.9345358929814
 30
0.0
 11
-482.4127927947951
 21
-476.4342631421269
 31
0.0
  0
LINE
  5
3E8
330
1F
100
AcDbEntity
  8
D-0
  6
Continuous
 62
     7
370
     9
100
AcDbLine
 10
-482.4127927947951
 20
-476.4342631421269
 30
0.0
 11
-480.912515275569
 21
-476.4342631421269
 31
0.0
  0
LINE
  5
3E9
330
1F
100
AcDbEntity
  8
D-0
  6
Continuous
 62
     7
370
     9
100
AcDbLine
 10
-480.912515275569
 20
-476.4342631421269
 30
0.0
 11
-480.912515275569
 21
-477.9345358929814
 31
0.0
  0
LINE
  5
3EA
330
1F
100
AcDbEntity
  8
D-0
  6
Continuous
 62
     7
370
     9
100
AcDbLine
 10
-480.912515275569
 20
-477.9345358929814
 30
0.0
 11
-482.4127927947951
 21
-477.9345358929814
 31
0.0
  0
LINE
  5
3EB
330
1F
100
AcDbEntity
  8
D-0
  6
Continuous
 62
     7
370
     9
100
AcDbLine
 10
-633.1839386154128
 20
-466.996082218665
 30
0.0
 11
-633.1839386154128
 21
-465.4957999310673
 31
0.0
  0
LINE
  5
3EC
330
1F
100
AcDbEntity
  8
D-0
  6
Continuous
 62
     7
370
     9
100
AcDbLine
 10
-633.1839386154128
 20
-465.4957999310673
 30
0.0
 11
-631.6836658645583
 21
-465.4957999310673
 31
0.0
  0
LINE
  5
3ED
330
1F
100
AcDbEntity
  8
D-0
  6
Continuous
 62
     7
370
     9
100
AcDbLine
 10
-631.6836658645583
 20
-465.4957999310673
 30
0.0
 11
-631.6836658645583
 21
-466.996082218665
 31
0.0
  0
LINE
  5
3EE
330
1F
100
AcDbEntity
  8
D-0
  6
Continuous
 62
     7
370
     9
100
AcDbLine
 10
-631.6836658645583
 20
-466.996082218665
 30
0.0
 11
-633.1839386154128
 21
-466.996082218665
 31
0.0
  0
LINE
  5
3EF
330
1F
100
AcDbEntity
  8
D-0
  6
Continuous
 62
     7
370
     9
100
AcDbLine
 10
-573.9456955123854
 20
-571.6494978985966
 30
0.0
 11
-573.9456955123854
 21
-570.1492156109989
 31
0.0
  0
LINE
  5
3F0
330
1F
100
AcDbEntity
  8
D-0
  6
Continuous
 62
     7
370
     9
100
AcDbLine
 10
-573.9456955123854
 20
-570.1492156109989
 30
0.0
 11
-572.4459139038039
 21
-570.1492156109989
 31
0.0
  0
LINE
  5
3F1
330
1F
100
AcDbEntity
  8
D-0
  6
Continuous
 62
     7
370
     9
100
AcDbLine
 10
-572.4459139038039
 20
-570.1492156109989
 30
0.0
 11
-572.4459139038039
 21
-571.6494978985966
 31
0.0
  0
LINE
  5
3F2
330
1F
100
AcDbEntity
  8
D-0
  6
Continuous
 62
     7
370
     9
100
AcDbLine
 10
-572.4459139038039
 20
-571.6494978985966
 30
0.0
 11
-573.9456955123854
 21
-571.6494978985966
 31
0.0
  0
LINE
  5
3F3
330
1F
100
AcDbEntity
  8
D-0
  6
Continuous
 62
     7
370
     9
100
AcDbLine
 10
-587.7682844329787
 20
-630.8872450909794
 30
0.0
 11
-587.7682844329787
 21
-629.3869628033817
 31
0.0
  0
LINE
  5
3F4
330
1F
100
AcDbEntity
  8
D-0
  6
Continuous
 62
     7
370
     9
100
AcDbLine
 10
-587.7682844329787
 20
-629.3869628033817
 30
0.0
 11
-586.268002145381
 21
-629.3869628033817
 31
0.0
  0
LINE
  5
3F5
330
1F
100
AcDbEntity
  8
D-0
  6
Continuous
 62
     7
370
     9
100
AcDbLine
 10
-586.268002145381
 20
-629.3869628033817
 30
0.0
 11
-586.268002145381
 21
-630.8872450909794
 31
0.0
  0
LINE
  5
3F6
330
1F
100
AcDbEntity
  8
D-0
  6
Continuous
 62
     7
370
     9
100
AcDbLine
 10
-586.268002145381
 20
-630.8872450909794
 30
0.0
 11
-587.7682844329787
 21
-630.8872450909794
 31
0.0
  0
LINE
  5
3F7
330
1F
100
AcDbEntity
  8
D-0
  6
Continuous
 62
     7
370
     9
100
AcDbLine
 10
-618.374377839656
 20
-641.7474402508915
 30
0.0
 11
-618.374377839656
 21
-640.2471579632938
 31
0.0
  0
LINE
  5
3F8
330
1F
100
AcDbEntity
  8
D-0
  6
Continuous
 62
     7
370
     9
100
AcDbLine
 10
-618.374377839656
 20
-640.2471579632938
 30
0.0
 11
-616.8741050888015
 21
-640.2471579632938
 31
0.0
  0
LINE
  5
3F9
330
1F
100
AcDbEntity
  8
D-0
  6
Continuous
 62
     7
370
     9
100
AcDbLine
 10
-616.8741050888015
 20
-640.2471579632938
 30
0.0
 11
-616.8741050888015
 21
-641.7474402508915
 31
0.0
  0
LINE
  5
3FA
330
1F
100
AcDbEntity
  8
D-0
  6
Continuous
 62
     7
370
     9
100
AcDbLine
 10
-616.8741050888015
 20
-641.7474402508915
 30
0.0
 11
-618.374377839656
 21
-641.7474402508915
 31
0.0
  0
LINE
  5
3FB
330
1F
100
AcDbEntity
  8
D-0
  6
Continuous
 62
     7
370
     9
100
AcDbLine
 10
-641.2278762985183
 20
-575.5988730511845
 30
0.0
 11
-641.2278762985183
 21
-574.0985907635868
 31
0.0
  0
LINE
  5
3FC
330
1F
100
AcDbEntity
  8
D-0
  6
Continuous
 62
     7
370
     9
100
AcDbLine
 10
-641.2278762985183
 20
-574.0985907635868
 30
0.0
 11
-639.7280899215651
 21
-574.0985907635868
 31
0.0
  0
LINE
  5
3FD
330
1F
100
AcDbEntity
  8
D-0
  6
Continuous
 62
     7
370
     9
100
AcDbLine
 10
-639.7280899215651
 20
-574.0985907635868
 30
0.0
 11
-639.7280899215651
 21
-575.5988730511845
 31
0.0
  0
LINE
  5
3FE
330
1F
100
AcDbEntity
  8
D-0
  6
Continuous
 62
     7
370
     9
100
AcDbLine
 10
-639.7280899215651
 20
-575.5988730511845
 30
0.0
 11
-641.2278762985183
 21
-575.5988730511845
 31
0.0
  0
LINE
  5
3FF
330
1F
100
AcDbEntity
  8
D-0
  6
Continuous
 62
     7
370
     9
100
AcDbLine
 10
-615.4124656845046
 20
-553.8785208783329
 30
0.0
 11
-615.4124656845046
 21
-552.3782385907352
 31
0.0
  0
LINE
  5
400
330
1F
100
AcDbEntity
  8
D-0
  6
Continuous
 62
     7
370
     9
100
AcDbLine
 10
-615.4124656845046
 20
-552.3782385907352
 30
0.0
 11
-613.9121929336501
 21
-552.3782385907352
 31
0.0
  0
LINE
  5
401
330
1F
100
AcDbEntity
  8
D-0
  6
Continuous
 62
     7
370
     9
100
AcDbLine
 10
-613.9121929336501
 20
-552.3782385907352
 30
0.0
 11
-613.9121929336501
 21
-553.8785208783329
 31
0.0
  0
LINE
  5
402
330
1F
100
AcDbEntity
  8
D-0
  6
Continuous
 62
     7
370
     9
100
AcDbLine
 10
-613.9121929336501
 20
-553.8785208783329
 30
0.0
 11
-615.4124656845046
 21
-553.8785208783329
 31
0.0
  0
LINE
  5
403
330
1F
100
AcDbEntity
  8
D-0
  6
Continuous
 62
     7
370
     9
100
AcDbLine
 10
-552.2253361869765
 20
-606.3714446149052
 30
0.0
 11
-552.2253361869765
 21
-604.8711623273075
 31
0.0
  0
LINE
  5
404
330
1F
100
AcDbEntity
  8
D-0
  6
Continuous
 62
     7
370
     9
100
AcDbLine
 10
-552.2253361869765
 20
-604.8711623273075
 30
0.0
 11
-550.7255521942092
 21
-604.8711623273075
 31
0.0
  0
LINE
  5
405
330
1F
100
AcDbEntity
  8
D-0
  6
Continuous
 62
     7
370
     9
100
AcDbLine
 10
-550.7255521942092
 20
-604.8711623273075
 30
0.0
 11
-550.7255521942092
 21
-606.3714446149052
 31
0.0
  0
LINE
  5
406
330
1F
100
AcDbEntity
  8
D-0
  6
Continuous
 62
     7
370
     9
100
AcDbLine
 10
-550.7255521942092
 20
-606.3714446149052
 30
0.0
 11
-552.2253361869765
 21
-606.3714446149052
 31
0.0
  0
LINE
  5
407
330
1F
100
AcDbEntity
  8
D-0
  6
Continuous
 62
     7
370
     9
100
AcDbLine
 10
-629.2345634628249
 20
-744.250492008704
 30
0.0
 11
-629.2345634628249
 21
-742.7502097211063
 31
0.0
  0
LINE
  5
408
330
1F
100
AcDbEntity
  8
D-0
  6
Continuous
 62
     7
370
     9
100
AcDbLine
 10
-629.2345634628249
 20
-742.7502097211063
 30
0.0
 11
-627.7347770858718
 21
-742.7502097211063
 31
0.0
  0
LINE
  5
409
330
1F
100
AcDbEntity
  8
D-0
  6
Continuous
 62
     7
370
     9
100
AcDbLine
 10
-627.7347770858718
 20
-742.7502097211063
 30
0.0
 11
-627.7347770858718
 21
-744.250492008704
 31
0.0
  0
LINE
  5
40A
330
1F
100
AcDbEntity
  8
D-0
  6
Continuous
 62
     7
370
     9
100
AcDbLine
 10
-627.7347770858718
 20
-744.250492008704
 30
0.0
 11
-629.2345634628249
 21
-744.250492008704
 31
0.0
  0
LINE
  5
40B
330
1F
100
AcDbEntity
  8
D-0
  6
Continuous
 62
     7
370
     9
100
AcDbLine
 10
-558.8443032432509
 20
-747.962535770911
 30
0.0
 11
-558.8443032432509
 21
-746.4622534833134
 31
0.0
  0
LINE
  5
40C
330
1F
100
AcDbEntity
  8
D-0
  6
Continuous
 62
     7
370
     9
100
AcDbLine
 10
-558.8443032432509
 20
-746.4622534833134
 30
0.0
 11
-557.3445192504836
 21
-746.4622534833134
 31
0.0
  0
LINE
  5
40D
330
1F
100
AcDbEntity
  8
D-0
  6
Continuous
 62
     7
370
     9
100
AcDbLine
 10
-557.3445192504836
 20
-746.4622534833134
 30
0.0
 11
-557.3445192504836
 21
-747.962535770911
 31
0.0
  0
LINE
  5
40E
330
1F
100
AcDbEntity
  8
D-0
  6
Continuous
 62
     7
370
     9
100
AcDbLine
 10
-557.3445192504836
 20
-747.962535770911
 30
0.0
 11
-558.8443032432509
 21
-747.962535770911
 31
0.0
  0
LINE
  5
40F
330
1F
100
AcDbEntity
  8
D-0
  6
Continuous
 62
     7
370
     9
100
AcDbLine
 10
-534.453861467929
 20
-773.8691367230595
 30
0.0
 11
-534.453861467929
 21
-772.3688544354618
 31
0.0
  0
LINE
  5
410
330
1F
100
AcDbEntity
  8
D-0
  6
Continuous
 62
     7
370
     9
100
AcDbLine
 10
-534.453861467929
 20
-772.3688544354618
 30
0.0
 11
-532.95407732615
 21
-772.3688544354618
 31
0.0
  0
LINE
  5
411
330
1F
100
AcDbEntity
  8
D-0
  6
Continuous
 62
     7
370
     9
100
AcDbLine
 10
-532.95407732615
 20
-772.3688544354618
 30
0.0
 11
-532.95407732615
 21
-773.8691367230595
 31
0.0
  0
LINE
  5
412
330
1F
100
AcDbEntity
  8
D-0
  6
Continuous
 62
     7
370
     9
100
AcDbLine
 10
-532.95407732615
 20
-773.8691367230595
 30
0.0
 11
-534.453861467929
 21
-773.8691367230595
 31
0.0
  0
LINE
  5
413
330
1F
100
AcDbEntity
  8
D-0
  6
Continuous
 62
     7
370
     9
100
AcDbLine
 10
-528.1752810407592
 20
-812.0811499676884
 30
0.0
 11
-528.1752810407592
 21
-810.5808676800907
 31
0.0
  0
LINE
  5
414
330
1F
100
AcDbEntity
  8
D-0
  6
Continuous
 62
     7
370
     9
100
AcDbLine
 10
-528.1752810407592
 20
-810.5808676800907
 30
0.0
 11
-526.6750017333937
 21
-810.5808676800907
 31
0.0
  0
LINE
  5
415
330
1F
100
AcDbEntity
  8
D-0
  6
Continuous
 62
     7
370
     9
100
AcDbLine
 10
-526.6750017333937
 20
-810.5808676800907
 30
0.0
 11
-526.6750017333937
 21
-812.0811499676884
 31
0.0
  0
LINE
  5
416
330
1F
100
AcDbEntity
  8
D-0
  6
Continuous
 62
     7
370
     9
100
AcDbLine
 10
-526.6750017333937
 20
-812.0811499676884
 30
0.0
 11
-528.1752810407592
 21
-812.0811499676884
 31
0.0
  0
LINE
  5
417
330
1F
100
AcDbEntity
  8
D-0
  6
Continuous
 62
     7
370
     9
100
AcDbLine
 10
-602.4039379287673
 20
-817.5397528729618
 30
0.0
 11
-602.4039379287673
 21
-816.0394705853641
 31
0.0
  0
LINE
  5
418
330
1F
100
AcDbEntity
  8
D-0
  6
Continuous
 62
     7
370
     9
100
AcDbLine
 10
-602.4039379287673
 20
-816.0394705853641
 30
0.0
 11
-600.9036556411696
 21
-816.0394705853641
 31
0.0
  0
LINE
  5
419
330
1F
100
AcDbEntity
  8
D-0
  6
Continuous
 62
     7
370
     9
100
AcDbLine
 10
-600.9036556411696
 20
-816.0394705853641
 30
0.0
 11
-600.9036556411696
 21
-817.5397528729618
 31
0.0
  0
LINE
  5
41A
330
1F
100
AcDbEntity
  8
D-0
  6
Continuous
 62
     7
370
     9
100
AcDbLine
 10
-600.9036556411696
 20
-817.5397528729618
 30
0.0
 11
-602.4039379287673
 21
-817.5397528729618
 31
0.0
  0
LINE
  5
41B
330
1F
100
AcDbEntity
  8
D-0
  6
Continuous
 62
     7
370
     9
100
AcDbLine
 10
-637.1328273940993
 20
-808.2432593426884
 30
0.0
 11
-637.1328273940993
 21
-806.7429770550907
 31
0.0
  0
LINE
  5
41C
330
1F
100
AcDbEntity
  8
D-0
  6
Continuous
 62
     7
370
     9
100
AcDbLine
 10
-637.1328273940993
 20
-806.7429770550907
 30
0.0
 11
-635.6325451065017
 21
-806.7429770550907
 31
0.0
  0
LINE
  5
41D
330
1F
100
AcDbEntity
  8
D-0
  6
Continuous
 62
     7
370
     9
100
AcDbLine
 10
-635.6325451065017
 20
-806.7429770550907
 30
0.0
 11
-635.6325451065017
 21
-808.2432593426884
 31
0.0
  0
LINE
  5
41E
330
1F
100
AcDbEntity
  8
D-0
  6
Continuous
 62
     7
370
     9
100
AcDbLine
 10
-635.6325451065017
 20
-808.2432593426884
 30
0.0
 11
-637.1328273940993
 21
-808.2432593426884
 31
0.0
  0
LINE
  5
41F
330
1F
100
AcDbEntity
  8
D-0
  6
Continuous
 62
     7
370
     9
100
AcDbLine
 10
-639.3441024948073
 20
-767.9452933392704
 30
0.0
 11
-639.3441024948073
 21
-766.4450110516727
 31
0.0
  0
LINE
  5
420
330
1F
100
AcDbEntity
  8
D-0
  6
Continuous
 62
     7
370
     9
100
AcDbLine
 10
-639.3441024948073
 20
-766.4450110516727
 30
0.0
 11
-637.8443256545974
 21
-766.4450110516727
 31
0.0
  0
LINE
  5
421
330
1F
100
AcDbEntity
  8
D-0
  6
Continuous
 62
     7
370
     9
100
AcDbLine
 10
-637.8443256545974
 20
-766.4450110516727
 30
0.0
 11
-637.8443256545974
 21
-767.9452933392704
 31
0.0
  0
LINE
  5
422
330
1F
100
AcDbEntity
  8
D-0
  6
Continuous
 62
     7
370
     9
100
AcDbLine
 10
-637.8443256545974
 20
-767.9452933392704
 30
0.0
 11
-639.3441024948073
 21
-767.9452933392704
 31
0.0
  0
LINE
  5
423
330
1F
100
AcDbEntity
  8
D-0
  6
Continuous
 62
     7
370
     9
100
AcDbLine
 10
-581.844460122676
 20
-787.6912345013798
 30
0.0
 11
-581.844460122676
 21
-786.1909522137821
 31
0.0
  0
LINE
  5
424
330
1F
100
AcDbEntity
  8
D-0
  6
Continuous
 62
     7
370
     9
100
AcDbLine
 10
-581.844460122676
 20
-786.1909522137821
 30
0.0
 11
-580.3441778350783
 21
-786.1909522137821
 31
0.0
  0
LINE
  5
425
330
1F
100
AcDbEntity
  8
D-0
  6
Continuous
 62
     7
370
     9
100
AcDbLine
 10
-580.3441778350783
 20
-786.1909522137821
 30
0.0
 11
-580.3441778350783
 21
-787.6912345013798
 31
0.0
  0
LINE
  5
426
330
1F
100
AcDbEntity
  8
D-0
  6
Continuous
 62
     7
370
     9
100
AcDbLine
 10
-580.3441778350783
 20
-787.6912345013798
 30
0.0
 11
-581.844460122676
 21
-787.6912345013798
 31
0.0
  0
LINE
  5
427
330
1F
100
AcDbEntity
  8
D-0
  6
Continuous
 62
     7
370
     9
100
AcDbLine
 10
-593.6921087432814
 20
-754.1231955609501
 30
0.0
 11
-593.6921087432814
 21
-752.6229132733524
 31
0.0
  0
LINE
  5
428
330
1F
100
AcDbEntity
  8
D-0
  6
Continuous
 62
     7
370
     9
100
AcDbLine
 10
-593.6921087432814
 20
-752.6229132733524
 30
0.0
 11
-592.1918264556838
 21
-752.6229132733524
 31
0.0
  0
LINE
  5
429
330
1F
100
AcDbEntity
  8
D-0
  6
Continuous
 62
     7
370
     9
100
AcDbLine
 10
-592.1918264556838
 20
-752.6229132733524
 30
0.0
 11
-592.1918264556838
 21
-754.1231955609501
 31
0.0
  0
LINE
  5
42A
330
1F
100
AcDbEntity
  8
D-0
  6
Continuous
 62
     7
370
     9
100
AcDbLine
 10
-592.1918264556838
 20
-754.1231955609501
 30
0.0
 11
-593.6921087432814
 21
-754.1231955609501
 31
0.0
  0
LINE
  5
42B
330
1F
100
AcDbEntity
  8
D-0
  6
Continuous
 62
     7
370
     9
100
AcDbLine
 10
-538.4032431770278
 20
-639.9394644818485
 30
0.0
 11
-538.4032431770278
 21
-638.4391821942509
 31
0.0
  0
LINE
  5
42C
330
1F
100
AcDbEntity
  8
D-0
  6
Continuous
 62
     7
370
     9
100
AcDbLine
 10
-538.4032431770278
 20
-638.4391821942509
 30
0.0
 11
-536.9034591842604
 21
-638.4391821942509
 31
0.0
  0
LINE
  5
42D
330
1F
100
AcDbEntity
  8
D-0
  6
Continuous
 62
     7
370
     9
100
AcDbLine
 10
-536.9034591842604
 20
-638.4391821942509
 30
0.0
 11
-536.9034591842604
 21
-639.9394644818485
 31
0.0
  0
LINE
  5
42E
330
1F
100
AcDbEntity
  8
D-0
  6
Continuous
 62
     7
370
     9
100
AcDbLine
 10
-536.9034591842604
 20
-639.9394644818485
 30
0.0
 11
-538.4032431770278
 21
-639.9394644818485
 31
0.0
  0
LINE
  5
42F
330
1F
100
AcDbEntity
  8
D-0
  6
Continuous
 62
     7
370
     9
100
AcDbLine
 10
-526.5560889769507
 20
-540.055927189368
 30
0.0
 11
-526.5560889769507
 21
-538.5556449017704
 31
0.0
  0
LINE
  5
430
330
1F
100
AcDbEntity
  8
D-0
  6
Continuous
 62
     7
370
     9
100
AcDbLine
 10
-526.5560889769507
 20
-538.5556449017704
 30
0.0
 11
-525.0558093715621
 21
-538.5556449017704
 31
0.0
  0
LINE
  5
431
330
1F
100
AcDbEntity
  8
D-0
  6
Continuous
 62
     7
370
     9
100
AcDbLine
 10
-525.0558093715621
 20
-538.5556449017704
 30
0.0
 11
-525.0558093715621
 21
-540.055927189368
 31
0.0
  0
LINE
  5
432
330
1F
100
AcDbEntity
  8
D-0
  6
Continuous
 62
     7
370
     9
100
AcDbLine
 10
-525.0558093715621
 20
-540.055927189368
 30
0.0
 11
-526.5560889769507
 21
-540.055927189368
 31
0.0
  0
LINE
  5
433
330
1F
100
AcDbEntity
  8
D-0
  6
Continuous
 62
     7
370
     9
100
AcDbLine
 10
-430.4450527358962
 20
-551.2802733502567
 30
0.0
 11
-430.4450527358962
 21
-549.7799910626591
 31
0.0
  0
LINE
  5
434
330
1F
100
AcDbEntity
  8
D-0
  6
Continuous
 62
     7
370
     9
100
AcDbLine
 10
-430.4450527358962
 20
-549.7799910626591
 30
0.0
 11
-428.9452758956862
 21
-549.7799910626591
 31
0.0
  0
LINE
  5
435
330
1F
100
AcDbEntity
  8
D-0
  6
Continuous
 62
     7
370
     9
100
AcDbLine
 10
-428.9452758956862
 20
-549.7799910626591
 30
0.0
 11
-428.9452758956862
 21
-551.2802733502567
 31
0.0
  0
LINE
  5
436
330
1F
100
AcDbEntity
  8
D-0
  6
Continuous
 62
     7
370
     9
100
AcDbLine
 10
-428.9452758956862
 20
-551.2802733502567
 30
0.0
 11
-430.4450527358962
 21
-551.2802733502567
 31
0.0
  0
LINE
  5
437
330
1F
100
AcDbEntity
  8
D-0
  6
Continuous
 62
     7
370
     9
100
AcDbLine
 10
-482.9796091247512
 20
-542.655147465247
 30
0.0
 11
-482.9796091247512
 21
-541.1548651776493
 31
0.0
  0
LINE
  5
438
330
1F
100
AcDbEntity
  8
D-0
  6
Continuous
 62
     7
370
     9
100
AcDbLine
 10
-482.9796091247512
 20
-541.1548651776493
 30
0.0
 11
-481.4798275161696
 21
-541.1548651776493
 31
0.0
  0
LINE
  5
439
330
1F
100
AcDbEntity
  8
D-0
  6
Continuous
 62
     7
370
     9
100
AcDbLine
 10
-481.4798275161696
 20
-541.1548651776493
 30
0.0
 11
-481.4798275161696
 21
-542.655147465247
 31
0.0
  0
LINE
  5
43A
330
1F
100
AcDbEntity
  8
D-0
  6
Continuous
 62
     7
370
     9
100
AcDbLine
 10
-481.4798275161696
 20
-542.655147465247
 30
0.0
 11
-482.9796091247512
 21
-542.655147465247
 31
0.0
  0
LINE
  5
43B
330
1F
100
AcDbEntity
  8
D-0
  6
Continuous
 62
     7
370
     9
100
AcDbLine
 10
-619.3613544631911
 20
-603.2430495343388
 30
0.0
 11
-619.3613544631911
 21
-601.7427863202274
 31
0.0
  0
LINE
  5
43C
330
1F
100
AcDbEntity
  8
D-0
  6
Continuous
 62
     7
370
     9
100
AcDbLine
 10
-619.3613544631911
 20
-601.7427863202274
 30
0.0
 11
-617.861568086238
 21
-601.7427863202274
 31
0.0
  0
LINE
  5
43D
330
1F
100
AcDbEntity
  8
D-0
  6
Continuous
 62
     7
370
     9
100
AcDbLine
 10
-617.861568086238
 20
-601.7427863202274
 30
0.0
 11
-617.861568086238
 21
-603.2430495343388
 31
0.0
  0
LINE
  5
43E
330
1F
100
AcDbEntity
  8
D-0
  6
Continuous
 62
     7
370
     9
100
AcDbLine
 10
-617.861568086238
 20
-603.2430495343388
 30
0.0
 11
-619.3613544631911
 21
-603.2430495343388
 31
0.0
  0
LINE
  5
43F
330
1F
100
AcDbEntity
  8
D-0
  6
Continuous
 62
     7
370
     9
100
AcDbLine
 10
-588.2409588027907
 20
-461.4720954022587
 30
0.0
 11
-588.2409588027907
 21
-459.9718226514042
 31
0.0
  0
LINE
  5
440
330
1F
100
AcDbEntity
  8
D-0
  6
Continuous
 62
     7
370
     9
100
AcDbLine
 10
-588.2409588027907
 20
-459.9718226514042
 30
0.0
 11
-586.7406812835646
 21
-459.9718226514042
 31
0.0
  0
LINE
  5
441
330
1F
100
AcDbEntity
  8
D-0
  6
Continuous
 62
     7
370
     9
100
AcDbLine
 10
-586.7406812835646
 20
-459.9718226514042
 30
0.0
 11
-586.7406812835646
 21
-461.4720954022587
 31
0.0
  0
LINE
  5
442
330
1F
100
AcDbEntity
  8
D-0
  6
Continuous
 62
     7
370
     9
100
AcDbLine
 10
-586.7406812835646
 20
-461.4720954022587
 30
0.0
 11
-588.2409588027907
 21
-461.4720954022587
 31
0.0
  0
LINE
  5
443
330
1F
100
AcDbEntity
  8
D-0
  6
Continuous
 62
     7
370
     9
100
AcDbLine
 10
-532.4799137342883
 20
-572.8034438214481
 30
0.0
 11
-532.4799137342883
 21
-571.3031615338505
 31
0.0
  0
LINE
  5
444
330
1F
100
AcDbEntity
  8
D-0
  6
Continuous
 62
     7
370
     9
100
AcDbLine
 10
-532.4799137342883
 20
-571.3031615338505
 30
0.0
 11
-530.9796343151642
 21
-571.3031615338505
 31
0.0
  0
LINE
  5
445
330
1F
100
AcDbEntity
  8
D-0
  6
Continuous
 62
     7
370
     9
100
AcDbLine
 10
-530.9796343151642
 20
-571.3031615338505
 30
0.0
 11
-530.9796343151642
 21
-572.8034438214481
 31
0.0
  0
LINE
  5
446
330
1F
100
AcDbEntity
  8
D-0
  6
Continuous
 62
     7
370
     9
100
AcDbLine
 10
-530.9796343151642
 20
-572.8034438214481
 30
0.0
 11
-532.4799137342883
 21
-572.8034438214481
 31
0.0
  0
LINE
  5
447
330
1F
100
AcDbEntity
  8
D-0
  6
Continuous
 62
     7
370
     9
100
AcDbLine
 10
-591.7171684432936
 20
-595.3447951398075
 30
0.0
 11
-591.7171684432936
 21
-593.8445128522098
 31
0.0
  0
LINE
  5
448
330
1F
100
AcDbEntity
  8
D-0
  6
Continuous
 62
     7
370
     9
100
AcDbLine
 10
-591.7171684432936
 20
-593.8445128522098
 30
0.0
 11
-590.2173868347121
 21
-593.8445128522098
 31
0.0
  0
LINE
  5
449
330
1F
100
AcDbEntity
  8
D-0
  6
Continuous
 62
     7
370
     9
100
AcDbLine
 10
-590.2173868347121
 20
-593.8445128522098
 30
0.0
 11
-590.2173868347121
 21
-595.3447951398075
 31
0.0
  0
LINE
  5
44A
330
1F
100
AcDbEntity
  8
D-0
  6
Continuous
 62
     7
370
     9
100
AcDbLine
 10
-590.2173868347121
 20
-595.3447951398075
 30
0.0
 11
-591.7171684432936
 21
-595.3447951398075
 31
0.0
  0
LINE
  5
44B
330
1F
100
AcDbEntity
  8
D-0
  6
Continuous
 62
     7
370
     9
100
AcDbLine
 10
-579.8695198226882
 20
-668.4046210370243
 30
0.0
 11
-579.8695198226882
 21
-666.9043387494266
 31
0.0
  0
LINE
  5
44C
330
1F
100
AcDbEntity
  8
D-0
  6
Continuous
 62
     7
370
     9
100
AcDbLine
 10
-579.8695198226882
 20
-666.9043387494266
 30
0.0
 11
-578.3697382141066
 21
-666.9043387494266
 31
0.0
  0
LINE
  5
44D
330
1F
100
AcDbEntity
  8
D-0
  6
Continuous
 62
     7
370
     9
100
AcDbLine
 10
-578.3697382141066
 20
-666.9043387494266
 30
0.0
 11
-578.3697382141066
 21
-668.4046210370243
 31
0.0
  0
LINE
  5
44E
330
1F
100
AcDbEntity
  8
D-0
  6
Continuous
 62
     7
370
     9
100
AcDbLine
 10
-578.3697382141066
 20
-668.4046210370243
 30
0.0
 11
-579.8695198226882
 21
-668.4046210370243
 31
0.0
  0
LINE
  5
44F
330
1F
100
AcDbEntity
  8
D-0
  6
Continuous
 62
     7
370
     9
100
AcDbLine
 10
-628.2470909286452
 20
-667.4171485028446
 30
0.0
 11
-628.2470909286452
 21
-665.916866215247
 31
0.0
  0
LINE
  5
450
330
1F
100
AcDbEntity
  8
D-0
  6
Continuous
 62
     7
370
     9
100
AcDbLine
 10
-628.2470909286452
 20
-665.916866215247
 30
0.0
 11
-626.7468086410476
 21
-665.916866215247
 31
0.0
  0
LINE
  5
451
330
1F
100
AcDbEntity
  8
D-0
  6
Continuous
 62
     7
370
     9
100
AcDbLine
 10
-626.7468086410476
 20
-665.916866215247
 30
0.0
 11
-626.7468086410476
 21
-667.4171485028446
 31
0.0
  0
LINE
  5
452
330
1F
100
AcDbEntity
  8
D-0
  6
Continuous
 62
     7
370
     9
100
AcDbLine
 10
-626.7468086410476
 20
-667.4171485028446
 30
0.0
 11
-628.2470909286452
 21
-667.4171485028446
 31
0.0
  0
LINE
  5
453
330
1F
100
AcDbEntity
  8
D-0
  6
Continuous
 62
     7
370
     9
100
AcDbLine
 10
-615.2940479446364
 20
-786.5229071698368
 30
0.0
 11
-615.2940479446364
 21
-785.0226248822391
 31
0.0
  0
LINE
  5
454
330
1F
100
AcDbEntity
  8
D-0
  6
Continuous
 62
     7
370
     9
100
AcDbLine
 10
-615.2940479446364
 20
-785.0226248822391
 30
0.0
 11
-613.7942711044265
 21
-785.0226248822391
 31
0.0
  0
LINE
  5
455
330
1F
100
AcDbEntity
  8
D-0
  6
Continuous
 62
     7
370
     9
100
AcDbLine
 10
-613.7942711044265
 20
-785.0226248822391
 30
0.0
 11
-613.7942711044265
 21
-786.5229071698368
 31
0.0
  0
LINE
  5
456
330
1F
100
AcDbEntity
  8
D-0
  6
Continuous
 62
     7
370
     9
100
AcDbLine
 10
-613.7942711044265
 20
-786.5229071698368
 30
0.0
 11
-615.2940479446364
 21
-786.5229071698368
 31
0.0
  0
LINE
  5
457
330
1F
100
AcDbEntity
  8
D-0
  6
Continuous
 62
     7
370
     9
100
AcDbLine
 10
-564.7681275535537
 20
-816.0305441937626
 30
0.0
 11
-564.7681275535537
 21
-814.5302619061649
 31
0.0
  0
LINE
  5
458
330
1F
100
AcDbEntity
  8
D-0
  6
Continuous
 62
     7
370
     9
100
AcDbLine
 10
-564.7681275535537
 20
-814.5302619061649
 30
0.0
 11
-563.2683435607863
 21
-814.5302619061649
 31
0.0
  0
LINE
  5
459
330
1F
100
AcDbEntity
  8
D-0
  6
Continuous
 62
     7
370
     9
100
AcDbLine
 10
-563.2683435607863
 20
-814.5302619061649
 30
0.0
 11
-563.2683435607863
 21
-816.0305441937626
 31
0.0
  0
LINE
  5
45A
330
1F
100
AcDbEntity
  8
D-0
  6
Continuous
 62
     7
370
     9
100
AcDbLine
 10
-563.2683435607863
 20
-816.0305441937626
 30
0.0
 11
-564.7681275535537
 21
-816.0305441937626
 31
0.0
  0
LINE
  5
45B
330
1F
100
AcDbEntity
  8
D-0
  6
Continuous
 62
     7
370
     9
100
AcDbLine
 10
-528.5305321742011
 20
-740.3010977826298
 30
0.0
 11
-528.5305321742011
 21
-738.8008536420048
 31
0.0
  0
LINE
  5
45C
330
1F
100
AcDbEntity
  8
D-0
  6
Continuous
 62
     7
370
     9
100
AcDbLine
 10
-528.5305321742011
 20
-738.8008536420048
 30
0.0
 11
-527.0302525688124
 21
-738.8008536420048
 31
0.0
  0
LINE
  5
45D
330
1F
100
AcDbEntity
  8
D-0
  6
Continuous
 62
     7
370
     9
100
AcDbLine
 10
-527.0302525688124
 20
-738.8008536420048
 30
0.0
 11
-527.0302525688124
 21
-740.3010977826298
 31
0.0
  0
LINE
  5
45E
330
1F
100
AcDbEntity
  8
D-0
  6
Continuous
 62
     7
370
     9
100
AcDbLine
 10
-527.0302525688124
 20
-740.3010977826298
 30
0.0
 11
-528.5305321742011
 21
-740.3010977826298
 31
0.0
  0
LINE
  5
45F
330
1F
100
AcDbEntity
  8
D-0
  6
Continuous
 62
     7
370
     9
100
AcDbLine
 10
-645.5632320571852
 20
-622.2378386578739
 30
0.0
 11
-645.5632320571852
 21
-620.7375563702763
 31
0.0
  0
LINE
  5
460
330
1F
100
AcDbEntity
  8
D-0
  6
Continuous
 62
     7
370
     9
100
AcDbLine
 10
-645.5632320571852
 20
-620.7375563702763
 30
0.0
 11
-644.0629497695876
 21
-620.7375563702763
 31
0.0
  0
LINE
  5
461
330
1F
100
AcDbEntity
  8
D-0
  6
Continuous
 62
     7
370
     9
100
AcDbLine
 10
-644.0629497695876
 20
-620.7375563702763
 30
0.0
 11
-644.0629497695876
 21
-622.2378386578739
 31
0.0
  0
LINE
  5
462
330
1F
100
AcDbEntity
  8
D-0
  6
Continuous
 62
     7
370
     9
100
AcDbLine
 10
-644.0629497695876
 20
-622.2378386578739
 30
0.0
 11
-645.5632320571852
 21
-622.2378386578739
 31
0.0
  0
LINE
  5
463
330
1F
100
AcDbEntity
  8
D-0
  6
Continuous
 62
     7
370
     9
100
AcDbLine
 10
-528.6415172148658
 20
-665.9718741498173
 30
0.0
 11
-528.6415172148658
 21
-664.4715918622196
 31
0.0
  0
LINE
  5
464
330
1F
100
AcDbEntity
  8
D-0
  6
Continuous
 62
     7
370
     9
100
AcDbLine
 10
-528.6415172148658
 20
-664.4715918622196
 30
0.0
 11
-527.1412376094771
 21
-664.4715918622196
 31
0.0
  0
LINE
  5
465
330
1F
100
AcDbEntity
  8
D-0
  6
Continuous
 62
     7
370
     9
100
AcDbLine
 10
-527.1412376094771
 20
-664.4715918622196
 30
0.0
 11
-527.1412376094771
 21
-665.9718741498173
 31
0.0
  0
LINE
  5
466
330
1F
100
AcDbEntity
  8
D-0
  6
Continuous
 62
     7
370
     9
100
AcDbLine
 10
-527.1412376094771
 20
-665.9718741498173
 30
0.0
 11
-528.6415172148658
 21
-665.9718741498173
 31
0.0
  0
LINE
  5
467
330
1F
100
AcDbEntity
  8
D-0
  6
Continuous
 62
     7
370
     9
100
AcDbLine
 10
-553.3718506027175
 20
-789.3178595624149
 30
0.0
 11
-553.3718506027175
 21
-787.8175772748173
 31
0.0
  0
LINE
  5
468
330
1F
100
AcDbEntity
  8
D-0
  6
Continuous
 62
     7
370
     9
100
AcDbLine
 10
-553.3718506027175
 20
-787.8175772748173
 30
0.0
 11
-551.8715706993056
 21
-787.8175772748173
 31
0.0
  0
LINE
  5
469
330
1F
100
AcDbEntity
  8
D-0
  6
Continuous
 62
     7
370
     9
100
AcDbLine
 10
-551.8715706993056
 20
-787.8175772748173
 30
0.0
 11
-551.8715706993056
 21
-789.3178595624149
 31
0.0
  0
LINE
  5
46A
330
1F
100
AcDbEntity
  8
D-0
  6
Continuous
 62
     7
370
     9
100
AcDbLine
 10
-551.8715706993056
 20
-789.3178595624149
 30
0.0
 11
-553.3718506027175
 21
-789.3178595624149
 31
0.0
  0
LINE
  5
46B
330
1F
100
AcDbEntity
  8
D-0
  6
Continuous
 62
     7
370
     9
100
AcDbLine
 10
-521.5280721116973
 20
-476.8559111676396
 30
0.0
 11
-521.5280721116973
 21
-475.3556288800419
 31
0.0
  0
LINE
  5
46C
330
1F
100
AcDbEntity
  8
D-0
  6
Continuous
 62
     7
370
     9
100
AcDbLine
 10
-521.5280721116973
 20
-475.3556288800419
 30
0.0
 11
-520.0277928043319
 21
-475.3556288800419
 31
0.0
  0
LINE
  5
46D
330
1F
100
AcDbEntity
  8
D-0
  6
Continuous
 62
     7
370
     9
100
AcDbLine
 10
-520.0277928043319
 20
-475.3556288800419
 30
0.0
 11
-520.0277928043319
 21
-476.8559111676396
 31
0.0
  0
LINE
  5
46E
330
1F
100
AcDbEntity
  8
D-0
  6
Continuous
 62
     7
370
     9
100
AcDbLine
 10
-520.0277928043319
 20
-476.8559111676396
 30
0.0
 11
-521.5280721116973
 21
-476.8559111676396
 31
0.0
  0
LINE
  5
46F
330
1F
100
AcDbEntity
  8
D-4
  6
Continuous
 62
     7
370
     9
100
AcDbLine
 10
-355.6907001663161
 20
-464.366630466956
 30
0.0
 11
-355.6907001663161
 21
-526.8501891217411
 31
0.0
  0
LINE
  5
470
330
1F
100
AcDbEntity
  8
D-5
  6
Continuous
 62
     7
370
     9
100
AcDbLine
 10
-365.6912532974196
 20
-402.5405921063603
 30
0.0
 11
-351.8795696426345
 21
-381.7011775098027
 31
0.0
  0
LINE
  5
471
330
1F
100
AcDbEntity
  8
D-5
  6
Continuous
 62
     7
370
     9
100
AcDbLine
 10
-365.6912532974196
 20
-402.5405921063603
 30
0.0
 11
-346.9565883804274
 21
-385.9864892087163
 31
0.0
  0
LINE
  5
472
330
1F
100
AcDbEntity
  8
D-5
  6
Continuous
 62
     7
370
     9
100
AcDbLine
 10
-365.6912532974196
 20
-402.5405921063603
 30
0.0
 11
-243.9446560073806
 21
-262.6598490796269
 31
0.0
  0
LINE
  5
473
330
1F
100
AcDbEntity
  8
D-5
  6
Continuous
 62
     7
370
     9
100
AcDbLine
 10
-243.9446560073806
 20
-262.6598490796269
 30
0.0
 11
142.7588161300706
 21
-262.6598490796269
 31
0.0
  0
LINE
  5
474
330
1F
100
AcDbEntity
  8
D-4
  6
Continuous
 62
     7
370
     9
100
AcDbLine
 10
-343.8638607192946
 20
-452.5407828412236
 30
0.0
 11
-254.1168132949783
 21
-452.5407828412236
 31
0.0
  0
LINE
  5
475
330
1F
100
AcDbEntity
  8
D-4
  6
Continuous
 62
     7
370
     9
100
AcDbLine
 10
-343.8638607192946
 20
-402.5405444226445
 30
0.0
 11
-254.1168132949783
 21
-402.5405444226445
 31
0.0
  0
LINE
  5
476
330
1F
100
AcDbEntity
  8
D-4
  6
Continuous
 62
     7
370
     9
100
AcDbLine
 10
-257.1173587966873
 20
-402.5405444226445
 30
0.0
 11
-257.1173587966873
 21
-317.540401371497
 31
0.0
  0
LINE
  5
477
330
1F
100
AcDbEntity
  8
D-4
  6
Continuous
 62
     7
370
     9
100
AcDbLine
 10
-257.1173587966873
 20
-452.5407828412236
 30
0.0
 11
-257.1173587966873
 21
-402.5405444226445
 31
0.0
  0
LINE
  5
478
330
1F
100
AcDbEntity
  8
D-4
  6
Continuous
 62
     7
370
     9
100
AcDbLine
 10
-500.6911317039443
 20
-523.8496436200321
 30
0.0
 11
-655.6901184249831
 21
-523.8496436200321
 31
0.0
  0
LINE
  5
479
330
1F
100
AcDbEntity
  8
D-9
  6
Continuous
 62
     4
370
     9
100
AcDbLine
 10
-640.6907573867751
 20
-395.0410689435185
 30
0.0
 11
-525.6910005737258
 21
-395.0410689435185
 31
0.0
  0
LINE
  5
47A
330
1F
100
AcDbEntity
  8
D-1
  6
Continuous
 62
     2
370
     9
100
AcDbLine
 10
-500.6911650825454
 20
-320.5404014907063
 30
0.0
 11
-500.6911650825454
 21
-345.0402845463933
 31
0.0
  0
LINE
  5
47B
330
1F
100
AcDbEntity
  8
D-1
  6
Continuous
 62
     2
370
     9
100
AcDbLine
 10
-500.6911650825454
 20
-439.540027531165
 30
0.0
 11
-500.6911650825454
 21
-415.0401438794316
 31
0.0
  0
LINE
  5
47C
330
1F
100
AcDbEntity
  8
D-1
  6
Continuous
 62
     2
370
     9
100
AcDbLine
 10
-522.6909164119674
 20
-317.5408121602769
 30
0.0
 11
-503.690630548091
 21
-317.5408121602769
 31
0.0
  0
LINE
  5
47D
330
1F
100
AcDbEntity
  8
D-1
  6
Continuous
 62
     2
370
     9
100
AcDbLine
 10
-650.6907955337477
 20
-412.5403250775517
 30
0.0
 11
-650.6907955337477
 21
-405.0404204449833
 31
0.0
  0
LINE
  5
47E
330
1F
100
AcDbEntity
  8
D-1
  6
Continuous
 62
     2
370
     9
100
AcDbLine
 10
-655.6911865402175
 20
-412.5403250775517
 30
0.0
 11
-655.6911865402175
 21
-405.0404204449833
 31
0.0
  0
LINE
  5
47F
330
1F
100
AcDbEntity
  8
D-1
  6
Continuous
 62
     2
370
     9
100
AcDbLine
 10
-520.691231243701
 20
-437.540344151038
 30
0.0
 11
-505.6909338165236
 21
-437.540344151038
 31
0.0
  0
LINE
  5
480
330
1F
100
AcDbEntity
  8
D-1
  6
Continuous
 62
     2
370
     9
100
AcDbLine
 10
-520.6909838844252
 20
-442.5406016431035
 30
0.0
 11
-503.690630548091
 21
-442.5406016431035
 31
0.0
  0
LINE
  5
481
330
1F
100
AcDbEntity
  8
D-1
  6
Continuous
 62
     2
370
     9
100
AcDbLine
 10
-525.6910005737258
 20
-407.5400580487431
 30
0.0
 11
-525.6910005737258
 21
-320.5404014907063
 31
0.0
  0
LINE
  5
482
330
1F
100
AcDbEntity
  8
D-1
  6
Continuous
 62
     2
370
     9
100
AcDbLine
 10
-525.6910005737258
 20
-407.5400580487431
 30
0.0
 11
-575.6906715560866
 21
-407.5400580487431
 31
0.0
  0
LINE
  5
483
330
1F
100
AcDbEntity
  8
D-1
  6
Continuous
 62
     2
370
     9
100
AcDbLine
 10
-650.6907955337477
 20
-417.5405825696171
 30
0.0
 11
-525.6910005737258
 21
-417.5405825696171
 31
0.0
  0
LINE
  5
484
330
1F
100
AcDbEntity
  8
D-1
  6
Continuous
 62
     2
370
     9
100
AcDbLine
 10
-525.6910005737258
 20
-437.5405921063603
 30
0.0
 11
-525.6910005737258
 21
-417.5405825696171
 31
0.0
  0
LINE
  5
485
330
1F
100
AcDbEntity
  8
D-1
  6
Continuous
 62
     2
370
     9
100
AcDbLine
 10
-520.691231243701
 20
-417.5403346142949
 30
0.0
 11
-520.691231243701
 21
-437.540344151038
 31
0.0
  0
LINE
  5
486
330
1F
100
AcDbEntity
  8
D-1
  6
Continuous
 62
     2
370
     9
100
AcDbLine
 10
-525.6912479330016
 20
-412.5403250775517
 30
0.0
 11
-650.6907955337477
 21
-412.5403250775517
 31
0.0
  0
LINE
  5
487
330
1F
100
AcDbEntity
  8
D-1
  6
Continuous
 62
     2
370
     9
100
AcDbLine
 10
-520.691231243701
 20
-407.5403060040654
 30
0.0
 11
-520.691231243701
 21
-322.5400863609494
 31
0.0
  0
LINE
  5
488
330
1F
100
AcDbEntity
  8
D-9
  6
Continuous
 62
     4
370
     9
100
AcDbLine
 10
-525.6910005737258
 20
-400.6314791760624
 30
0.0
 11
-532.5995822776271
 21
-407.5400580487431
 31
0.0
  0
LINE
  5
489
330
1F
100
AcDbEntity
  8
D-9
  6
Continuous
 62
     4
370
     9
100
AcDbLine
 10
-527.1709380079222
 20
-395.0410689435185
 30
0.0
 11
-539.6701130796386
 21
-407.5400580487431
 31
0.0
  0
LINE
  5
48A
330
1F
100
AcDbEntity
  8
D-9
  6
Continuous
 62
     4
370
     9
100
AcDbLine
 10
-534.2422733236266
 20
-395.0410689435185
 30
0.0
 11
-546.7414489913893
 21
-407.5400580487431
 31
0.0
  0
LINE
  5
48B
330
1F
100
AcDbEntity
  8
D-9
  6
Continuous
 62
     4
370
     9
100
AcDbLine
 10
-541.3131133247329
 20
-395.0410689435185
 30
0.0
 11
-553.8122883964492
 21
-407.5400580487431
 31
0.0
  0
LINE
  5
48C
330
1F
100
AcDbEntity
  8
D-9
  6
Continuous
 62
     4
370
     9
100
AcDbLine
 10
-548.3844486404372
 20
-395.0410689435185
 30
0.0
 11
-560.8836237121535
 21
-407.5400580487431
 31
0.0
  0
LINE
  5
48D
330
1F
100
AcDbEntity
  8
D-9
  6
Continuous
 62
     4
370
     9
100
AcDbLine
 10
-555.4552904296828
 20
-395.0410689435185
 30
0.0
 11
-567.954649083705
 21
-407.5400580487431
 31
0.0
  0
LINE
  5
48E
330
1F
100
AcDbEntity
  8
D-9
  6
Continuous
 62
     4
370
     9
100
AcDbLine
 10
-562.5266257453872
 20
-395.0410689435185
 30
0.0
 11
-575.0259843994094
 21
-407.5400580487431
 31
0.0
  0
LINE
  5
48F
330
1F
100
AcDbEntity
  8
D-9
  6
Continuous
 62
     4
370
     9
100
AcDbLine
 10
-597.8823105026198
 20
-395.0410689435185
 30
0.0
 11
-602.8813997436476
 21
-400.0401534161747
 31
0.0
  0
LINE
  5
490
330
1F
100
AcDbEntity
  8
D-9
  6
Continuous
 62
     4
370
     9
100
AcDbLine
 10
-604.9531522918654
 20
-395.0410689435185
 30
0.0
 11
-609.9523035217238
 21
-400.0401534161747
 31
0.0
  0
LINE
  5
491
330
1F
100
AcDbEntity
  8
D-9
  6
Continuous
 62
     4
370
     9
100
AcDbLine
 10
-640.3088394332839
 20
-395.0410689435185
 30
0.0
 11
-645.3082958389235
 21
-400.0401534161747
 31
0.0
  0
LINE
  5
492
330
1F
100
AcDbEntity
  8
D-9
  6
Continuous
 62
     4
370
     9
100
AcDbLine
 10
-590.8109775711013
 20
-395.0410689435185
 30
0.0
 11
-595.8102432418776
 21
-400.0401534161747
 31
0.0
  0
LINE
  5
493
330
1F
100
AcDbEntity
  8
D-9
  6
Continuous
 62
     4
370
     9
100
AcDbLine
 10
-576.6687980819655
 20
-395.0410689435185
 30
0.0
 11
-581.6679922271682
 21
-400.0401534161747
 31
0.0
  0
LINE
  5
494
330
1F
100
AcDbEntity
  8
D-9
  6
Continuous
 62
     4
370
     9
100
AcDbLine
 10
-583.7401357818557
 20
-395.0410689435185
 30
0.0
 11
-588.739310853572
 21
-400.0401534161747
 31
0.0
  0
LINE
  5
495
330
1F
100
AcDbEntity
  8
D-9
  6
Continuous
 62
     4
370
     9
100
AcDbLine
 10
-612.0244899917556
 20
-395.0410689435185
 30
0.0
 11
-617.0235744644118
 21
-400.0401534161747
 31
0.0
  0
LINE
  5
496
330
1F
100
AcDbEntity
  8
D-9
  6
Continuous
 62
     4
370
     9
100
AcDbLine
 10
-619.0953270126296
 20
-395.0410689435185
 30
0.0
 11
-624.0945068527175
 21
-400.0401534161747
 31
0.0
  0
LINE
  5
497
330
1F
100
AcDbEntity
  8
D-9
  6
Continuous
 62
     4
370
     9
100
AcDbLine
 10
-626.1661640335036
 20
-395.0410689435185
 30
0.0
 11
-631.165372483821
 21
-400.0401534161747
 31
0.0
  0
LINE
  5
498
330
1F
100
AcDbEntity
  8
D-9
  6
Continuous
 62
     4
370
     9
100
AcDbLine
 10
-633.2375065017653
 20
-395.0410689435185
 30
0.0
 11
-638.2367721725417
 21
-400.0401534161747
 31
0.0
  0
LINE
  5
499
330
1F
100
AcDbEntity
  8
D-1
  6
Continuous
 62
     2
370
     9
100
AcDbLine
 10
-580.6910005737258
 20
-405.0404204449833
 30
0.0
 11
-650.6907955337477
 21
-405.0404204449833
 31
0.0
  0
LINE
  5
49A
330
1F
100
AcDbEntity
  8
D-1
  6
Continuous
 62
     2
370
     9
100
AcDbLine
 10
-580.6910005737258
 20
-407.5403250775517
 30
0.0
 11
-580.6910005737258
 21
-405.0404204449833
 31
0.0
  0
LINE
  5
49B
330
1F
100
AcDbEntity
  8
D-1
  6
Continuous
 62
     2
370
     9
100
AcDbLine
 10
-580.6910005737258
 20
-400.0401534161747
 30
0.0
 11
-650.6907955337477
 21
-400.0401534161747
 31
0.0
  0
LINE
  5
49C
330
1F
100
AcDbEntity
  8
D-1
  6
Continuous
 62
     2
370
     9
100
AcDbLine
 10
-575.6910005737258
 20
-405.0401534161747
 30
0.0
 11
-575.6910005737258
 21
-407.5400580487431
 31
0.0
  0
LINE
  5
49D
330
1F
100
AcDbEntity
  8
D-9
  6
Continuous
 62
     4
370
     9
100
AcDbLine
 10
-569.5979610610915
 20
-395.0410689435185
 30
0.0
 11
-576.6510597396804
 21
-402.0941676221074
 31
0.0
  0
LINE
  5
49E
330
1F
100
AcDbEntity
  8
D-3
  6
Continuous
 62
     3
370
     9
100
AcDbLine
 10
-517.1909478832198
 20
-322.5400863609494
 30
0.0
 11
-517.1909478832198
 21
-435.0400866589726
 31
0.0
  0
LINE
  5
49F
330
1F
100
AcDbEntity
  8
D-3
  6
Continuous
 62
     3
370
     9
100
AcDbLine
 10
-355.6910625625563
 20
-412.5400103650273
 30
0.0
 11
-355.6910625625563
 21
-452.5400199017704
 31
0.0
  0
LINE
  5
4A0
330
1F
100
AcDbEntity
  8
D-3
  6
Continuous
 62
     3
370
     9
100
AcDbLine
 10
-480.6909767318679
 20
-434.3597544751347
 30
0.0
 11
-480.6909767318679
 21
-452.5400199017704
 31
0.0
  0
LINE
  5
4A1
330
1F
100
AcDbEntity
  8
D-3
  6
Continuous
 62
     3
370
     9
100
AcDbLine
 10
-483.6199203659011
 20
-427.2886599621953
 30
0.0
 11
-505.6909338165236
 21
-405.2176512799443
 31
0.0
  0
LINE
  5
4A2
330
1F
100
AcDbEntity
  8
D-3
  6
JWW_CENTER1
 62
     3
370
     9
100
AcDbLine
 10
-455.7525077987624
 20
-374.0399827084721
 30
0.0
 11
-524.4234899211837
 21
-374.0399827084721
 31
0.0
  0
LINE
  5
4A3
330
1F
100
AcDbEntity
  8
D-3
  6
Continuous
 62
     3
370
     9
100
AcDbLine
 10
-463.0133787322951
 20
-395.2176179013432
 30
0.0
 11
-466.1907545257521
 21
-392.0402421078862
 31
0.0
  0
LINE
  5
4A4
330
1F
100
AcDbEntity
  8
D-3
  6
Continuous
 62
     3
370
     9
100
AcDbLine
 10
-494.1914168525649
 20
-364.0394581875981
 30
0.0
 11
-505.6909338165236
 21
-352.5399388394536
 31
0.0
  0
LINE
  5
4A5
330
1F
100
AcDbEntity
  8
D-A
  6
Continuous
 62
     7
370
     9
100
AcDbLine
 10
-519.4416609931899
 20
-384.0395201764287
 30
0.0
 11
-519.4416609931899
 21
-364.0394581875981
 31
0.0
  0
LINE
  5
4A6
330
1F
100
AcDbEntity
  8
D-A
  6
Continuous
 62
     7
370
     9
100
AcDbLine
 10
-519.4416609931899
 20
-364.0394581875981
 30
0.0
 11
-520.691231243701
 21
-365.2895201764287
 31
0.0
  0
LINE
  5
4A7
330
1F
100
AcDbEntity
  8
D-A
  6
Continuous
 62
     7
370
     9
100
AcDbLine
 10
-519.4416609931899
 20
-384.0395201764287
 30
0.0
 11
-520.691231243701
 21
-382.789949329871
 31
0.0
  0
LINE
  5
4A8
330
1F
100
AcDbEntity
  8
D-A
  6
Continuous
 62
     7
370
     9
100
AcDbLine
 10
-457.6911989379836
 20
-385.5402459225834
 30
0.0
 11
-457.6911989379836
 21
-362.5397242627324
 31
0.0
  0
LINE
  5
4A9
330
1F
100
AcDbEntity
  8
D-A
  6
Continuous
 62
     7
370
     9
100
AcDbLine
 10
-464.1911951232863
 20
-392.0402421078862
 30
0.0
 11
-470.6911913085891
 21
-392.0402421078862
 31
0.0
  0
LINE
  5
4AA
330
1F
100
AcDbEntity
  8
D-A
  6
Continuous
 62
     7
370
     9
100
AcDbLine
 10
-464.1911951232863
 20
-356.0397256932438
 30
0.0
 11
-470.6911913085891
 21
-356.0397256932438
 31
0.0
  0
LINE
  5
4AB
330
1F
100
AcDbEntity
  8
D-A
  6
Continuous
 62
     7
370
     9
100
AcDbLine
 10
-470.6911913085891
 20
-356.0397256932438
 30
0.0
 11
-470.6911913085891
 21
-392.0402421078862
 31
0.0
  0
LINE
  5
4AC
330
1F
100
AcDbEntity
  8
D-A
  6
Continuous
 62
     7
370
     9
100
AcDbLine
 10
-470.6911913085891
 20
-364.0394581875981
 30
0.0
 11
-505.6909338165236
 21
-364.0394581875981
 31
0.0
  0
LINE
  5
4AD
330
1F
100
AcDbEntity
  8
D-A
  6
Continuous
 62
     7
370
     9
100
AcDbLine
 10
-470.6911913085891
 20
-365.2895201764287
 30
0.0
 11
-505.6909338165236
 21
-365.2895201764287
 31
0.0
  0
LINE
  5
4AE
330
1F
100
AcDbEntity
  8
D-A
  6
Continuous
 62
     7
370
     9
100
AcDbLine
 10
-470.6911913085891
 20
-382.789949329871
 30
0.0
 11
-505.6909338165236
 21
-382.789949329871
 31
0.0
  0
LINE
  5
4AF
330
1F
100
AcDbEntity
  8
D-A
  6
Continuous
 62
     7
370
     9
100
AcDbLine
 10
-470.6911913085891
 20
-384.0395201764287
 30
0.0
 11
-505.6909338165236
 21
-384.0395201764287
 31
0.0
  0
LINE
  5
4B0
330
1F
100
AcDbEntity
  8
D-A
  6
Continuous
 62
     7
370
     9
100
AcDbLine
 10
-517.1909478832198
 20
-382.789949329871
 30
0.0
 11
-520.691231243701
 21
-382.789949329871
 31
0.0
  0
LINE
  5
4B1
330
1F
100
AcDbEntity
  8
D-A
  6
Continuous
 62
     7
370
     9
100
AcDbLine
 10
-517.1909478832198
 20
-384.0395201764287
 30
0.0
 11
-519.4416609931899
 21
-384.0395201764287
 31
0.0
  0
LINE
  5
4B2
330
1F
100
AcDbEntity
  8
D-A
  6
Continuous
 62
     7
370
     9
100
AcDbLine
 10
-517.1909478832198
 20
-365.2895201764287
 30
0.0
 11
-520.691231243701
 21
-365.2895201764287
 31
0.0
  0
LINE
  5
4B3
330
1F
100
AcDbEntity
  8
D-A
  6
Continuous
 62
     7
370
     9
100
AcDbLine
 10
-517.1909478832198
 20
-364.0394581875981
 30
0.0
 11
-519.4416609931899
 21
-364.0394581875981
 31
0.0
  0
LINE
  5
4B4
330
1F
100
AcDbEntity
  8
D-3
  6
JWW_DASHED2
 62
     3
370
     9
100
AcDbLine
 10
-480.6909767318679
 20
-441.0400046429814
 30
0.0
 11
-355.6910625625563
 21
-441.0400046429814
 31
0.0
  0
LINE
  5
4B5
330
1F
100
AcDbEntity
  8
D-3
  6
Continuous
 62
     3
370
     9
100
AcDbLine
 10
-365.6909671951247
 20
-402.5401057324589
 30
0.0
 11
-445.3356567550612
 21
-402.5401057324589
 31
0.0
  0
LINE
  5
4B6
330
1F
100
AcDbEntity
  8
D-3
  6
Continuous
 62
     3
370
     9
100
AcDbLine
 10
-480.6909767318679
 20
-452.5400199017704
 30
0.0
 11
-355.6910625625563
 21
-452.5400199017704
 31
0.0
  0
LINE
  5
4B7
330
1F
100
AcDbEntity
  8
D-1
  6
Continuous
 62
     2
370
     9
100
AcDbLine
 10
-520.691231243701
 20
-322.5400863609494
 30
0.0
 11
-505.6909338165236
 21
-322.5400863609494
 31
0.0
  0
LINE
  5
4B8
330
1F
100
AcDbEntity
  8
D-1
  6
Continuous
 62
     2
370
     9
100
AcDbLine
 10
-500.6911650825454
 20
-345.0402845463933
 30
0.0
 11
-505.6909338165236
 21
-345.0402845463933
 31
0.0
  0
LINE
  5
4B9
330
1F
100
AcDbEntity
  8
D-1
  6
Continuous
 62
     2
370
     9
100
AcDbLine
 10
-505.6909338165236
 20
-345.0402845463933
 30
0.0
 11
-505.6909338165236
 21
-322.5400863609494
 31
0.0
  0
LINE
  5
4BA
330
1F
100
AcDbEntity
  8
D-3
  6
Continuous
 62
     3
370
     9
100
AcDbLine
 10
-517.1909478832198
 20
-322.5400863609494
 30
0.0
 11
-505.6909338165236
 21
-322.5400863609494
 31
0.0
  0
LINE
  5
4BB
330
1F
100
AcDbEntity
  8
D-1
  6
Continuous
 62
     2
370
     9
100
AcDbLine
 10
-500.6911650825454
 20
-415.0401438794316
 30
0.0
 11
-505.6909338165236
 21
-415.0401438794316
 31
0.0
  0
LINE
  5
4BC
330
1F
100
AcDbEntity
  8
D-1
  6
Continuous
 62
     2
370
     9
100
AcDbLine
 10
-505.6909338165236
 20
-437.540344151038
 30
0.0
 11
-505.6909338165236
 21
-415.0401438794316
 31
0.0
  0
LINE
  5
4BD
330
1F
100
AcDbEntity
  8
D-3
  6
Continuous
 62
     3
370
     9
100
AcDbLine
 10
-517.1909478832198
 20
-435.0400866589726
 30
0.0
 11
-505.6909338165236
 21
-435.0400866589726
 31
0.0
  0
LINE
  5
4BE
330
1F
100
AcDbEntity
  8
D-3
  6
Continuous
 62
     3
370
     9
100
AcDbLine
 10
-505.6909338165236
 20
-322.5400863609494
 30
0.0
 11
-505.6909338165236
 21
-435.0400866589726
 31
0.0
  0
LINE
  5
4BF
330
1F
100
AcDbEntity
  8
D-6
  6
Continuous
 62
     6
370
     9
100
AcDbLine
 10
-503.690630548091
 20
-317.540401371497
 30
0.0
 11
-90.68925058135522
 21
-317.540401371497
 31
0.0
  0
LINE
  5
4C0
330
1F
100
AcDbEntity
  8
D-6
  6
Continuous
 62
     6
370
     9
100
AcDbLine
 10
-655.6901184249831
 20
-412.5403250775517
 30
0.0
 11
-655.6901184249831
 21
-817.5397528729618
 31
0.0
  0
LINE
  5
4C1
330
1F
100
AcDbEntity
  8
D-4
  6
Continuous
 62
     7
370
     9
100
AcDbLine
 10
-572.5449958969069
 20
-442.5402392468632
 30
0.0
 11
-804.1731945205642
 21
-442.5402392468632
 31
0.0
  0
LINE
  5
4C2
330
1F
100
AcDbEntity
  8
D-5
  6
Continuous
 62
     7
370
     9
100
AcDbLine
 10
-531.1738580618215
 20
-456.3172377667607
 30
0.0
 11
-596.2223497558547
 21
-399.7002352795781
 31
0.0
  0
LINE
  5
4C3
330
1F
100
AcDbEntity
  8
D-5
  6
Continuous
 62
     7
370
     9
100
AcDbLine
 10
-596.2223497558547
 20
-399.7002352795781
 30
0.0
 11
-579.6687380004836
 21
-418.4344042859257
 31
0.0
  0
LINE
  5
4C4
330
1F
100
AcDbEntity
  8
D-5
  6
Continuous
 62
     7
370
     9
100
AcDbLine
 10
-596.2223497558547
 20
-399.7002352795781
 30
0.0
 11
-575.3839269805861
 21
-413.5119284711064
 31
0.0
  0
ARC
  5
4C5
330
1F
100
AcDbEntity
  8
D-9
  6
Continuous
 62
     4
370
     9
100
AcDbCircle
 10
-640.6907573867751
 20
-400.040344151038
 30
0.0
 40
5.0
100
AcDbArc
 50
90.0
 51
180.0
  0
ARC
  5
4C6
330
1F
100
AcDbEntity
  8
D-1
  6
Continuous
 62
     2
370
     9
100
AcDbCircle
 10
-650.6907955337477
 20
-405.0404204449833
 30
0.0
 40
5.0
100
AcDbArc
 50
90.0
 51
180.0
  0
ARC
  5
4C7
330
1F
100
AcDbEntity
  8
D-1
  6
Continuous
 62
     2
370
     9
100
AcDbCircle
 10
-503.690630548091
 20
-320.5404014907063
 30
0.0
 40
3.00000011920929
100
AcDbArc
 50
0.0
 51
90.0
  0
ARC
  5
4C8
330
1F
100
AcDbEntity
  8
D-1
  6
Continuous
 62
     2
370
     9
100
AcDbCircle
 10
-522.6909164119674
 20
-320.5404014907063
 30
0.0
 40
3.00000011920929
100
AcDbArc
 50
90.0
 51
180.0
  0
ARC
  5
4C9
330
1F
100
AcDbEntity
  8
D-1
  6
Continuous
 62
     2
370
     9
100
AcDbCircle
 10
-503.690630548091
 20
-439.540027531165
 30
0.0
 40
3.00000011920929
100
AcDbArc
 50
270.0
 51
0.0
  0
ARC
  5
4CA
330
1F
100
AcDbEntity
  8
D-1
  6
Continuous
 62
     2
370
     9
100
AcDbCircle
 10
-650.6907955337477
 20
-412.5403250775517
 30
0.0
 40
5.0
100
AcDbArc
 50
180.0
 51
270.0
  0
ARC
  5
4CB
330
1F
100
AcDbEntity
  8
D-1
  6
Continuous
 62
     2
370
     9
100
AcDbCircle
 10
-520.6909838844252
 20
-437.5405921063603
 30
0.0
 40
5.0
100
AcDbArc
 50
180.0
 51
270.0
  0
ARC
  5
4CC
330
1F
100
AcDbEntity
  8
D-1
  6
Continuous
 62
     2
370
     9
100
AcDbCircle
 10
-525.6912479330016
 20
-417.5403346142949
 30
0.0
 40
5.0
100
AcDbArc
 50
0.0
 51
90.0
  0
ARC
  5
4CD
330
1F
100
AcDbEntity
  8
D-1
  6
Continuous
 62
     2
370
     9
100
AcDbCircle
 10
-525.6912479330016
 20
-407.5403060040654
 30
0.0
 40
5.0
100
AcDbArc
 50
270.0
 51
0.0
  0
ARC
  5
4CE
330
1F
100
AcDbEntity
  8
D-1
  6
Continuous
 62
     2
370
     9
100
AcDbCircle
 10
-575.6910005737258
 20
-407.5403250775517
 30
0.0
 40
5.0
100
AcDbArc
 50
180.0
 51
270.0
  0
ARC
  5
4CF
330
1F
100
AcDbEntity
  8
D-1
  6
Continuous
 62
     2
370
     9
100
AcDbCircle
 10
-580.6910005737258
 20
-405.0401534161747
 30
0.0
 40
5.0
100
AcDbArc
 50
0.0
 51
90.0
  0
ARC
  5
4D0
330
1F
100
AcDbEntity
  8
D-3
  6
Continuous
 62
     3
370
     9
100
AcDbCircle
 10
-445.3356567550612
 20
-377.5400199017704
 30
0.0
 40
25.0
100
AcDbArc
 50
225.0
 51
270.0
  0
ARC
  5
4D1
330
1F
100
AcDbEntity
  8
D-3
  6
Continuous
 62
     3
370
     9
100
AcDbCircle
 10
-365.6909671951247
 20
-412.5400103650273
 30
0.0
 40
10.0
100
AcDbArc
 50
0.0
 51
90.0
  0
ARC
  5
4D2
330
1F
100
AcDbEntity
  8
D-3
  6
Continuous
 62
     3
370
     9
100
AcDbCircle
 10
-490.6910077262831
 20
-434.3597544751347
 30
0.0
 40
10.0
100
AcDbArc
 50
0.0
 51
45.000244140625
  0
ARC
  5
4D3
330
1F
100
AcDbEntity
  8
D-A
  6
Continuous
 62
     7
370
     9
100
AcDbCircle
 10
-464.1911951232863
 20
-362.5397242627324
 30
0.0
 40
6.499999761581421
100
AcDbArc
 50
0.0
 51
90.0
  0
ARC
  5
4D4
330
1F
100
AcDbEntity
  8
D-A
  6
Continuous
 62
     7
370
     9
100
AcDbCircle
 10
-464.1911951232863
 20
-385.5402459225834
 30
0.0
 40
6.499999761581421
100
AcDbArc
 50
270.0
 51
0.0
  0
LWPOLYLINE
  5
4D5
330
1F
100
AcDbEntity
  8
D-4
  6
Continuous
 62
     7
370
     9
100
AcDbPolyline
 90
        4
 70
     1
 43
1.0
 10
-500.1911317039443
 20
22.82683953426471
 42
0.4142135623731
 10
-500.6911317039443
 20
23.32683953426471
 42
0.4142135623731
 10
-501.1911317039443
 20
22.82683953426471
 42
0.4142135623731
 10
-500.6911317039443
 20
22.32683953426471
 42
0.4142135623731
  0
LWPOLYLINE
  5
4D6
330
1F
100
AcDbEntity
  8
D-4
  6
Continuous
 62
     7
370
     9
100
AcDbPolyline
 90
        4
 70
     1
 43
1.0
 10
-655.1901184249832
 20
-196.6212500653447
 42
0.4142135623731
 10
-655.6901184249831
 20
-196.1212500653447
 42
0.4142135623731
 10
-656.1901184249831
 20
-196.6212500653447
 42
0.4142135623731
 10
-655.6901184249831
 20
-197.1212500653447
 42
0.4142135623731
  0
LWPOLYLINE
  5
4D7
330
1F
100
AcDbEntity
  8
D-4
  6
Continuous
 62
     7
370
     9
100
AcDbPolyline
 90
        4
 70
     1
 43
1.0
 10
-530.190280549617
 20
-196.6212500653447
 42
0.4142135623731
 10
-530.6902805496169
 20
-196.1212500653447
 42
0.4142135623731
 10
-531.1902805496169
 20
-196.6212500653447
 42
0.4142135623731
 10
-530.6902805496169
 20
-197.1212500653447
 42
0.4142135623731
  0
LWPOLYLINE
  5
4D8
330
1F
100
AcDbEntity
  8
D-4
  6
Continuous
 62
     7
370
     9
100
AcDbPolyline
 90
        4
 70
     1
 43
1.0
 10
-530.190280549617
 20
-87.868827732581
 42
0.4142135623731
 10
-530.6902805496169
 20
-87.368827732581
 42
0.4142135623731
 10
-531.1902805496169
 20
-87.868827732581
 42
0.4142135623731
 10
-530.6902805496169
 20
-88.368827732581
 42
0.4142135623731
  0
LWPOLYLINE
  5
4D9
330
1F
100
AcDbEntity
  8
D-4
  6
Continuous
 62
     7
370
     9
100
AcDbPolyline
 90
        4
 70
     1
 43
1.0
 10
-525.1900099445297
 20
-87.868827732581
 42
0.4142135623731
 10
-525.6900099445296
 20
-87.368827732581
 42
0.4142135623731
 10
-526.1900099445296
 20
-87.868827732581
 42
0.4142135623731
 10
-525.6900099445296
 20
-88.368827732581
 42
0.4142135623731
  0
LWPOLYLINE
  5
4DA
330
1F
100
AcDbEntity
  8
D-4
  6
Continuous
 62
     7
370
     9
100
AcDbPolyline
 90
        4
 70
     1
 43
1.0
 10
-500.1911317039443
 20
-87.868827732581
 42
0.4142135623731
 10
-500.6911317039443
 20
-87.368827732581
 42
0.4142135623731
 10
-501.1911317039443
 20
-87.868827732581
 42
0.4142135623731
 10
-500.6911317039443
 20
-88.368827732581
 42
0.4142135623731
  0
LWPOLYLINE
  5
4DB
330
1F
100
AcDbEntity
  8
D-4
  6
Continuous
 62
     7
370
     9
100
AcDbPolyline
 90
        4
 70
     1
 43
1.0
 10
-800.672629945369
 20
-442.5402392468632
 42
0.4142135623731
 10
-801.1726299453688
 20
-442.0402392468633
 42
0.4142135623731
 10
-801.6726299453688
 20
-442.5402392468632
 42
0.4142135623731
 10
-801.1726299453688
 20
-443.0402392468632
 42
0.4142135623731
  0
LWPOLYLINE
  5
4DC
330
1F
100
AcDbEntity
  8
D-4
  6
Continuous
 62
     7
370
     9
100
AcDbPolyline
 90
        4
 70
     1
 43
1.0
 10
-800.672629945369
 20
-317.540401371497
 42
0.4142135623731
 10
-801.1726299453688
 20
-317.040401371497
 42
0.4142135623731
 10
-801.6726299453688
 20
-317.540401371497
 42
0.4142135623731
 10
-801.1726299453688
 20
-318.040401371497
 42
0.4142135623731
  0
LWPOLYLINE
  5
4DD
330
1F
100
AcDbEntity
  8
D-4
  6
Continuous
 62
     7
370
     9
100
AcDbPolyline
 90
        4
 70
     1
 43
1.0
 10
-500.1911317039443
 20
-523.8496436200321
 42
0.4142135623731
 10
-500.6911317039443
 20
-523.3496436200322
 42
0.4142135623731
 10
-501.1911317039443
 20
-523.8496436200321
 42
0.4142135623731
 10
-500.6911317039443
 20
-524.3496436200321
 42
0.4142135623731
  0
LWPOLYLINE
  5
4DE
330
1F
100
AcDbEntity
  8
D-4
  6
Continuous
 62
     7
370
     9
100
AcDbPolyline
 90
        4
 70
     1
 43
1.0
 10
-355.1907001663162
 20
-523.8496436200321
 42
0.4142135623731
 10
-355.6907001663161
 20
-523.3496436200322
 42
0.4142135623731
 10
-356.1907001663161
 20
-523.8496436200321
 42
0.4142135623731
 10
-355.6907001663161
 20
-524.3496436200321
 42
0.4142135623731
  0
LWPOLYLINE
  5
4DF
330
1F
100
AcDbEntity
  8
D-4
  6
Continuous
 62
     7
370
     9
100
AcDbPolyline
 90
        4
 70
     1
 43
1.0
 10
-655.1901184249832
 20
-723.1588782391727
 42
0.4142135623731
 10
-655.6901184249831
 20
-722.6588782391729
 42
0.4142135623731
 10
-656.1901184249831
 20
-723.1588782391727
 42
0.4142135623731
 10
-655.6901184249831
 20
-723.6588782391727
 42
0.4142135623731
  0
LWPOLYLINE
  5
4E0
330
1F
100
AcDbEntity
  8
D-4
  6
Continuous
 62
     7
370
     9
100
AcDbPolyline
 90
        4
 70
     1
 43
1.0
 10
-505.19090759048
 20
-723.1588782391727
 42
0.4142135623731
 10
-505.6909075904799
 20
-722.6588782391729
 42
0.4142135623731
 10
-506.1909075904799
 20
-723.1588782391727
 42
0.4142135623731
 10
-505.6909075904799
 20
-723.6588782391727
 42
0.4142135623731
  0
LWPOLYLINE
  5
4E1
330
1F
100
AcDbEntity
  8
D-4
  6
Continuous
 62
     7
370
     9
100
AcDbPolyline
 90
        4
 70
     1
 43
1.0
 10
-655.1901184249832
 20
-877.6232565961063
 42
0.4142135623731
 10
-655.6901184249831
 20
-877.1232565961064
 42
0.4142135623731
 10
-656.1901184249831
 20
-877.6232565961063
 42
0.4142135623731
 10
-655.6901184249831
 20
-878.1232565961063
 42
0.4142135623731
  0
LWPOLYLINE
  5
4E2
330
1F
100
AcDbEntity
  8
D-4
  6
Continuous
 62
     7
370
     9
100
AcDbPolyline
 90
        4
 70
     1
 43
1.0
 10
-255.1892505813552
 20
-877.6232565961063
 42
0.4142135623731
 10
-255.6892505813552
 20
-877.1232565961064
 42
0.4142135623731
 10
-256.1892505813552
 20
-877.6232565961063
 42
0.4142135623731
 10
-255.6892505813552
 20
-878.1232565961063
 42
0.4142135623731
  0
LWPOLYLINE
  5
4E3
330
1F
100
AcDbEntity
  8
D-4
  6
Continuous
 62
     7
370
     9
100
AcDbPolyline
 90
        4
 70
     1
 43
1.0
 10
16.49509084930883
 20
-317.540401371497
 42
0.4142135623731
 10
15.99509084930883
 20
-317.040401371497
 42
0.4142135623731
 10
15.49509084930883
 20
-317.540401371497
 42
0.4142135623731
 10
15.99509084930883
 20
-318.040401371497
 42
0.4142135623731
  0
LWPOLYLINE
  5
4E4
330
1F
100
AcDbEntity
  8
D-4
  6
Continuous
 62
     7
370
     9
100
AcDbPolyline
 90
        4
 70
     1
 43
1.0
 10
16.49509084930883
 20
-567.5400771222294
 42
0.4142135623731
 10
15.99509084930883
 20
-567.0400771222295
 42
0.4142135623731
 10
15.49509084930883
 20
-567.5400771222294
 42
0.4142135623731
 10
15.99509084930883
 20
-568.0400771222294
 42
0.4142135623731
  0
LWPOLYLINE
  5
4E5
330
1F
100
AcDbEntity
  8
D-4
  6
Continuous
 62
     7
370
     9
100
AcDbPolyline
 90
        4
 70
     1
 43
1.0
 10
-256.6173587966873
 20
-317.540401371497
 42
0.4142135623731
 10
-257.1173587966873
 20
-317.040401371497
 42
0.4142135623731
 10
-257.6173587966873
 20
-317.540401371497
 42
0.4142135623731
 10
-257.1173587966873
 20
-318.040401371497
 42
0.4142135623731
  0
LWPOLYLINE
  5
4E6
330
1F
100
AcDbEntity
  8
D-4
  6
Continuous
 62
     7
370
     9
100
AcDbPolyline
 90
        4
 70
     1
 43
1.0
 10
-256.6173587966873
 20
-402.5405444226445
 42
0.4142135623731
 10
-257.1173587966873
 20
-402.0405444226445
 42
0.4142135623731
 10
-257.6173587966873
 20
-402.5405444226445
 42
0.4142135623731
 10
-257.1173587966873
 20
-403.0405444226444
 42
0.4142135623731
  0
LWPOLYLINE
  5
4E7
330
1F
100
AcDbEntity
  8
D-4
  6
Continuous
 62
     7
370
     9
100
AcDbPolyline
 90
        4
 70
     1
 43
1.0
 10
-256.6173587966873
 20
-452.5407828412236
 42
0.4142135623731
 10
-257.1173587966873
 20
-452.0407828412236
 42
0.4142135623731
 10
-257.6173587966873
 20
-452.5407828412236
 42
0.4142135623731
 10
-257.1173587966873
 20
-453.0407828412235
 42
0.4142135623731
  0
LWPOLYLINE
  5
4E8
330
1F
100
AcDbEntity
  8
D-4
  6
Continuous
 62
     7
370
     9
100
AcDbPolyline
 90
        4
 70
     1
 43
1.0
 10
-500.1911317039443
 20
-523.8496436200321
 42
0.4142135623731
 10
-500.6911317039443
 20
-523.3496436200322
 42
0.4142135623731
 10
-501.1911317039443
 20
-523.8496436200321
 42
0.4142135623731
 10
-500.6911317039443
 20
-524.3496436200321
 42
0.4142135623731
  0
LWPOLYLINE
  5
4E9
330
1F
100
AcDbEntity
  8
D-4
  6
Continuous
 62
     7
370
     9
100
AcDbPolyline
 90
        4
 70
     1
 43
1.0
 10
-655.1901184249832
 20
-523.8496436200321
 42
0.4142135623731
 10
-655.6901184249831
 20
-523.3496436200322
 42
0.4142135623731
 10
-656.1901184249831
 20
-523.8496436200321
 42
0.4142135623731
 10
-655.6901184249831
 20
-524.3496436200321
 42
0.4142135623731
  0
TEXT
  5
4EA
330
1F
100
AcDbEntity
  8
D-4
  6
Continuous
 62
     2
370
     9
100
AcDbText
 10
-563.6349908042861
 20
-77.22955252506146
 30
0.0
 40
30.48
  1
1
 41
0.9999999999999998
  7
ＭＳ ゴシック
100
AcDbText
  0
TEXT
  5
4EB
330
1F
100
AcDbEntity
  8
D-4
  6
Continuous
 62
     2
370
     9
100
AcDbText
 10
-614.4393650222731
 20
-185.9809734997929
 30
0.0
 40
30.48
  1
25
 41
1.0625
  7
ＭＳ ゴシック
100
AcDbText
  0
TEXT
  5
4EC
330
1F
100
AcDbEntity
  8
D-4
  6
Continuous
 62
     2
370
     9
100
AcDbText
 10
-646.9401374984694
 20
-712.5196030316532
 30
0.0
 40
30.48
  1
25～30
 41
1.104166666666667
  7
ＭＳ ゴシック
100
AcDbText
  0
TEXT
  5
4ED
330
1F
100
AcDbEntity
  8
D-4
  6
Continuous
 62
     2
370
     9
100
AcDbText
 10
-523.5584820349266
 20
-866.9829895673372
 30
0.0
 40
30.48
  1
75～80
 50
359.9997855578312
 41
1.104166666666666
  7
ＭＳ ゴシック
100
AcDbText
  0
TEXT
  5
4EE
330
1F
100
AcDbEntity
  8
D-4
  6
Continuous
 62
     2
370
     9
100
AcDbText
 10
5.355815641789304
 20
-508.7903634710566
 30
0.0
 40
30.48
  1
40～50
 50
90.00000250447816
 41
1.104166666666667
  7
ＭＳ ゴシック
100
AcDbText
  0
TEXT
  5
4EF
330
1F
100
AcDbEntity
  8
D-4
  6
Continuous
 62
     2
370
     9
100
AcDbText
 10
-465.1071268316795
 20
-513.2103493394102
 30
0.0
 40
30.48
  1
29
 50
0.0006685549992706
 41
1.062499999999998
  7
ＭＳ ゴシック
100
AcDbText
  0
TEXT
  5
4F0
330
1F
100
AcDbEntity
  8
D-4
  6
Continuous
 62
     2
370
     9
100
AcDbText
 10
-491.7776504684401
 20
-77.22955252506146
 30
0.0
 40
30.48
  1
5
 41
0.9999999999999998
  7
ＭＳ ゴシック
100
AcDbText
  0
TEXT
  5
4F1
330
1F
100
AcDbEntity
  8
D-5
  6
Continuous
 62
     2
370
     9
100
AcDbText
 10
-955.1841491508903
 20
-995.3428604779428
 30
0.0
 40
30.48
  1
断面詳細図　Ｓ＝１：２
 50
0.0000267631904831
 41
1.113636363636363
  7
ＭＳ ゴシック
100
AcDbText
  0
TEXT
  5
4F2
330
1F
100
AcDbEntity
  8
D-5
  6
Continuous
 62
     2
370
     9
100
AcDbText
 10
346.0714229415939
 20
-759.5832016644657
 30
0.0
 40
30.48
  1
ステンレス製受枠　ＳＦ１５Ｂ
 41
1.116071428571428
  7
ＭＳ ゴシック
100
AcDbText
  0
TEXT
  5
4F3
330
1F
100
AcDbEntity
  8
D-5
  6
Continuous
 62
     7
370
     9
100
AcDbText
 10
-306.7136112380935
 20
-201.7397474560917
 30
0.0
 40
22.86
  1
塩ビクッション
 41
1.142857142857143
  7
ＭＳ ゴシック
100
AcDbText
  0
TEXT
  5
4F4
330
1F
100
AcDbEntity
  8
D-5
  6
Continuous
 62
     7
370
     9
100
AcDbText
 10
-366.2015834976149
 20
-145.6407999310673
 30
0.0
 40
22.86
  1
ステンレス製受枠ＳＦ１５Ｂ
 41
1.153846153846154
  7
ＭＳ ゴシック
100
AcDbText
  0
TEXT
  5
4F5
330
1F
100
AcDbEntity
  8
D-5
  6
Continuous
 62
     2
370
     9
100
AcDbText
 10
405.7833370040937
 20
-824.5827439007938
 30
0.0
 40
30.48
  1
材質：冷間圧延ステンレス鋼板（ＳＵＳ３０４－２Ｂ）
 41
1.120000000000001
  7
ＭＳ ゴシック
100
AcDbText
  0
TEXT
  5
4F6
330
1F
100
AcDbEntity
  8
D-5
  6
Continuous
 62
     7
370
     9
100
AcDbText
 10
-243.5027042556716
 20
-292.1896051678837
 30
0.0
 40
22.86
  1
ｔ＝２．３（ＳＰＨＣ）
 41
1.151515151515152
  7
ＭＳ ゴシック
100
AcDbText
  0
TEXT
  5
4F7
330
1F
100
AcDbEntity
  8
D-4
  6
Continuous
 62
     2
370
     9
100
AcDbText
 10
-267.7576448989822
 20
-448.7900773687617
 30
0.0
 40
30.48
  1
10
 50
90.00000250447819
 41
1.062500000000001
  7
ＭＳ ゴシック
100
AcDbText
  0
TEXT
  5
4F8
330
1F
100
AcDbEntity
  8
D-4
  6
Continuous
 62
     2
370
     9
100
AcDbText
 10
-267.7576448989822
 20
-381.2903873129145
 30
0.0
 40
30.48
  1
17
 50
90.00000250447819
 41
1.062500000000001
  7
ＭＳ ゴシック
100
AcDbText
  0
TEXT
  5
4F9
330
1F
100
AcDbEntity
  8
D-4
  6
Continuous
 62
     2
370
     9
100
AcDbText
 10
-599.4406238723708
 20
-512.2096398053349
 30
0.0
 40
30.48
  1
31
 41
1.0625
  7
ＭＳ ゴシック
100
AcDbText
  0
LINE
  5
4FA
330
1F
100
AcDbEntity
  8
D-2
  6
Continuous
 62
     3
370
     9
100
AcDbLine
 10
-545.6905773807479
 20
-395.0406540951909
 30
0.0
 11
-545.6905773807479
 21
-320.0405333957852
 31
0.0
  0
LINE
  5
4FB
330
1F
100
AcDbEntity
  8
D-2
  6
Continuous
 62
     3
370
     9
100
AcDbLine
 10
-530.6902805496169
 20
-320.0405333957852
 30
0.0
 11
-530.6902805496169
 21
-395.0406540951909
 31
0.0
  0
LINE
  5
4FC
330
1F
100
AcDbEntity
  8
D-4
  6
Continuous
 62
     7
370
     9
100
AcDbLine
 10
-1012.415515534968
 20
-395.0406540951909
 30
0.0
 11
-1012.415515534968
 21
-320.0405333957852
 31
0.0
  0
LINE
  5
4FD
330
1F
100
AcDbEntity
  8
D-2
  6
Continuous
 62
     3
370
     9
100
AcDbLine
 10
-545.6905773807479
 20
-330.0405658803166
 30
0.0
 11
-1203.358890168758
 21
-330.0405658803166
 31
0.0
  0
LINE
  5
4FE
330
1F
100
AcDbEntity
  8
D-2
  6
Continuous
 62
     3
370
     9
100
AcDbLine
 10
-530.6902805496169
 20
-395.0406540951909
 30
0.0
 11
-1203.358890168758
 21
-395.0406540951909
 31
0.0
  0
LINE
  5
4FF
330
1F
100
AcDbEntity
  8
D-2
  6
Continuous
 62
     3
370
     9
100
AcDbLine
 10
-530.6902805496169
 20
-320.0405333957852
 30
0.0
 11
-1203.358890168758
 21
-320.0405333957852
 31
0.0
  0
LINE
  5
500
330
1F
100
AcDbEntity
  8
D-5
  6
Continuous
 62
     7
370
     9
100
AcDbLine
 10
-406.1681667495681
 20
-93.79467383243451
 30
0.0
 11
295.1990016769455
 21
-93.79467383243451
 31
0.0
  0
LINE
  5
501
330
1F
100
AcDbEntity
  8
D-2
  6
Continuous
 62
     3
370
     9
100
AcDbLine
 10
-1203.358890168758
 20
-446.9057787976445
 30
0.0
 11
-1203.358890168758
 21
-270.6031693539799
 31
0.0
  0
LINE
  5
502
330
1F
100
AcDbEntity
  8
D-5
  6
Continuous
 62
     7
370
     9
100
AcDbLine
 10
-406.1681667495681
 20
-93.79467383243451
 30
0.0
 11
-603.681069963069
 21
-322.5406654200734
 31
0.0
  0
LINE
  5
503
330
1F
100
AcDbEntity
  8
D-5
  6
Continuous
 62
     7
370
     9
100
AcDbLine
 10
-603.681069963069
 20
-322.5406654200734
 30
0.0
 11
-589.9521175552321
 21
-301.647713335532
 31
0.0
  0
LINE
  5
504
330
1F
100
AcDbEntity
  8
D-5
  6
Continuous
 62
     7
370
     9
100
AcDbLine
 10
-603.681069963069
 20
-322.5406654200734
 30
0.0
 11
-585.0132194686843
 21
-305.9127093873204
 31
0.0
  0
LINE
  5
505
330
1F
100
AcDbEntity
  8
D-5
  6
Continuous
 62
     2
370
     9
100
AcDbLine
 10
468.9819606613204
 20
-305.0412215314091
 30
0.0
 11
243.9819606613205
 21
-305.0412215314091
 31
0.0
  0
LINE
  5
506
330
1F
100
AcDbEntity
  8
D-5
  6
Continuous
 62
     2
370
     9
100
AcDbLine
 10
468.9819606613204
 20
-255.0409354291142
 30
0.0
 11
468.9819606613204
 21
-305.0412215314091
 31
0.0
  0
LINE
  5
507
330
1F
100
AcDbEntity
  8
D-5
  6
Continuous
 62
     2
370
     9
100
AcDbLine
 10
243.9819606613205
 20
-255.0409354291142
 30
0.0
 11
468.9819606613204
 21
-255.0409354291142
 31
0.0
  0
LINE
  5
508
330
1F
100
AcDbEntity
  8
D-5
  6
Continuous
 62
     2
370
     9
100
AcDbLine
 10
243.9819606613205
 20
-305.0412215314091
 30
0.0
 11
243.9819606613205
 21
-255.0409354291142
 31
0.0
  0
LWPOLYLINE
  5
509
330
1F
100
AcDbEntity
  8
D-4
  6
Continuous
 62
     7
370
     9
100
AcDbPolyline
 90
        4
 70
     1
 43
1.0
 10
-1011.915515534969
 20
-320.0405333957852
 42
0.4142135623731
 10
-1012.415515534968
 20
-319.5405333957852
 42
0.4142135623731
 10
-1012.915515534968
 20
-320.0405333957852
 42
0.4142135623731
 10
-1012.415515534968
 20
-320.5405333957851
 42
0.4142135623731
  0
LWPOLYLINE
  5
50A
330
1F
100
AcDbEntity
  8
D-4
  6
Continuous
 62
     7
370
     9
100
AcDbPolyline
 90
        4
 70
     1
 43
1.0
 10
-1011.916011445613
 20
-395.0406540951909
 42
0.4142135623731
 10
-1012.416011445613
 20
-394.5406540951909
 42
0.4142135623731
 10
-1012.916011445613
 20
-395.0406540951909
 42
0.4142135623731
 10
-1012.416011445613
 20
-395.5406540951908
 42
0.4142135623731
  0
TEXT
  5
50B
330
1F
100
AcDbEntity
  8
D-4
  6
Continuous
 62
     2
370
     9
100
AcDbText
 10
-1023.055286653132
 20
-378.7907878561274
 30
0.0
 40
30.48
  1
15
 50
90.00000250447827
 41
1.062500000000001
  7
ＭＳ ゴシック
100
AcDbText
  0
TEXT
  5
50C
330
1F
100
AcDbEntity
  8
D-5
  6
Continuous
 62
     7
370
     9
100
AcDbText
 10
-406.1681695804752
 20
-81.63756125308976
 30
0.0
 40
22.86
  1
ステンレス製グレーチングＤＱｰ１５（h=15）
 50
0.0000383449219305
 41
1.158536585365854
  7
ＭＳ ゴシック
100
AcDbText
  0
TEXT
  5
50D
330
1F
100
AcDbEntity
  8
D-5
  6
Continuous
 62
     2
370
     9
100
AcDbText
 10
405.7837947677656
 20
-487.3211243329228
 30
0.0
 40
30.48
  1
材質：メインバー　ＳＵＳ３０４　＠１５
 41
1.11842105263158
  7
ＭＳ ゴシック
100
AcDbText
  0
TEXT
  5
50E
330
1F
100
AcDbEntity
  8
D-5
  6
Continuous
 62
     2
370
     9
100
AcDbText
 10
405.7837947677656
 20
-552.3207237897099
 30
0.0
 40
30.48
  1
　　　クロスバー　ＳＵＳ３０４　＠１００
 41
1.118750000000001
  7
ＭＳ ゴシック
100
AcDbText
  0
TEXT
  5
50F
330
1F
100
AcDbEntity
  8
D-5
  6
Continuous
 62
     2
370
     9
100
AcDbText
 10
405.7837947677658
 20
-617.3206856427372
 30
0.0
 40
30.48
  1
　　　サイドバー　ＳＵＳ３０４
 41
1.116666666666666
  7
ＭＳ ゴシック
100
AcDbText
  0
TEXT
  5
510
330
1F
100
AcDbEntity
  8
D-5
  6
Continuous
 62
     7
370
     9
100
AcDbText
 10
-406.1681667495681
 20
-48.93271200992474
 30
0.0
 40
22.86
  1
ノンスリップ加工細目タイプ
 41
1.153846153846154
  7
ＭＳ ゴシック
100
AcDbText
  0
TEXT
  5
511
330
1F
100
AcDbEntity
  8
D-5
  6
Continuous
 62
     2
370
     9
100
AcDbText
 10
291.4815028976486
 20
-294.4009592709721
 30
0.0
 40
30.48
  1
仕　様
 41
1.083333333333333
  7
ＭＳ ゴシック
100
AcDbText
  0
TEXT
  5
512
330
1F
100
AcDbEntity
  8
D-5
  6
Continuous
 62
     2
370
     9
100
AcDbText
 10
346.0718807052656
 20
-357.321510571021
 30
0.0
 40
30.48
  1
ステンレス製細目ノンスリップタイプ(デルタ模様）
 41
1.11968085106383
  7
ＭＳ ゴシック
100
AcDbText
  0
TEXT
  5
513
330
1F
100
AcDbEntity
  8
D-4
  6
Continuous
 62
     2
370
     9
100
AcDbText
 10
-811.8128969741774
 20
-442.726725241675
 30
0.0
 40
30.48
  1
25
 50
90.00000250000025
 41
1.062500000000001
  7
ＭＳ ゴシック
100
AcDbText
  0
TEXT
  5
514
330
1F
100
AcDbEntity
  8
D-5
  6
Continuous
 62
     2
370
     9
100
AcDbText
 10
346.0718834262665
 20
-422.3210671124644
 30
0.0
 40
30.48
  1
グレーチング（すきま９mm）　ＤＱ－１５　４００×４００×１５
 50
359.999972357821
 41
1.120833333333333
  7
ＭＳ ゴシック
100
AcDbText
  0
TEXT
  5
515
330
1F
100
AcDbEntity
  8
D-4
  6
Continuous
 62
     2
370
     9
100
AcDbText
 10
-1225.763263569117
 20
-186.4619914083334
 30
0.0
 40
30.48
  1
□350
 41
1.1
  7
ＭＳ ゴシック
100
AcDbText
  0
TEXT
  5
516
330
1F
100
AcDbEntity
  8
D-4
  6
Continuous
 62
     2
370
     9
100
AcDbText
 10
-1225.763263569117
 20
-77.66199140833344
 30
0.0
 40
30.48
  1
□400
 41
1.1
  7
ＭＳ ゴシック
100
AcDbText
  0
TEXT
  5
517
330
1F
100
AcDbEntity
  8
D-4
  6
Continuous
 62
     2
370
     9
100
AcDbText
 10
-1225.763263569117
 20
33.0380085916665
 30
0.0
 40
30.48
  1
□412
 41
1.1
  7
ＭＳ ゴシック
100
AcDbText
  0
TEXT
  5
518
330
1F
100
AcDbEntity
  8
F-5
  6
Continuous
 62
     2
370
     9
100
AcDbText
 10
-824.5901402992007
 20
-1373.238621242842
 30
0.0
 40
30.48
  1
　　　　　　　　　　　　　　　　　　ＤＱ－１５　４００×４００×１５＋ＳＦ１５Ｂ
 41
0.7743749999999999
  7
ＭＳ ゴシック
100
AcDbText
  0
TEXT
  5
519
330
1F
100
AcDbEntity
  8
D-5
  6
Continuous
 62
     7
370
     9
100
AcDbText
 10
-243.5027042556716
 20
-250.9661077771367
 30
0.0
 40
22.86
  1
溶接用アンカー
 41
1.142857142857143
  7
ＭＳ ゴシック
100
AcDbText
  0
LINE
  5
51A
330
1F
100
AcDbEntity
  8
D-2
  6
JWW_CENTER2
 62
     3
370
     9
100
AcDbLine
 10
-905.6897846389725
 20
-390.4793490491093
 30
0.0
 11
-905.6897846389725
 21
-325.9604074082554
 31
0.0
  0
LINE
  5
51B
330
1F
100
AcDbEntity
  8
D-2
  6
JWW_CENTER2
 62
     3
370
     9
100
AcDbLine
 10
-936.0150257278397
 20
-357.5400389752568
 30
0.0
 11
-875.0428882766678
 21
-357.5400389752568
 31
0.0
  0
LINE
  5
51C
330
1F
100
AcDbEntity
  8
D-2
  6
Continuous
 62
     3
370
     9
100
AcDbLine
 10
-888.0120960403397
 20
-357.5400389752568
 30
0.0
 11
-905.6897846389725
 21
-339.8623694501103
 31
0.0
  0
LINE
  5
51D
330
1F
100
AcDbEntity
  8
D-2
  6
Continuous
 62
     3
370
     9
100
AcDbLine
 10
-905.6897846389725
 20
-375.2177085004033
 30
0.0
 11
-888.0120960403397
 21
-357.5400389752568
 31
0.0
  0
LINE
  5
51E
330
1F
100
AcDbEntity
  8
D-2
  6
Continuous
 62
     3
370
     9
100
AcDbLine
 10
-905.6897846389725
 20
-339.8623694501103
 30
0.0
 11
-923.3674732376053
 21
-357.5400389752568
 31
0.0
  0
LINE
  5
51F
330
1F
100
AcDbEntity
  8
D-2
  6
Continuous
 62
     3
370
     9
100
AcDbLine
 10
-923.3674732376053
 20
-357.5400389752568
 30
0.0
 11
-905.6897846389725
 21
-375.2177085004033
 31
0.0
  0
LINE
  5
520
330
1F
100
AcDbEntity
  8
D-2
  6
Continuous
 62
     3
370
     9
100
AcDbLine
 10
-918.1897846389725
 20
-345.0400389752568
 30
0.0
 11
-918.1897846389725
 21
-352.362383755225
 31
0.0
  0
LINE
  5
521
330
1F
100
AcDbEntity
  8
D-2
  6
Continuous
 62
     3
370
     9
100
AcDbLine
 10
-918.1897846389725
 20
-362.7177085004033
 30
0.0
 11
-918.1897846389725
 21
-370.0400532803715
 31
0.0
  0
LINE
  5
522
330
1F
100
AcDbEntity
  8
D-2
  6
Continuous
 62
     3
370
     9
100
AcDbLine
 10
-893.1897846389725
 20
-345.040024670142
 30
0.0
 11
-900.5120960403397
 21
-345.0400389752568
 31
0.0
  0
LINE
  5
523
330
1F
100
AcDbEntity
  8
D-2
  6
Continuous
 62
     3
370
     9
100
AcDbLine
 10
-910.8674350906326
 20
-345.040024670142
 30
0.0
 11
-918.1897846389725
 21
-345.0400389752568
 31
0.0
  0
LINE
  5
524
330
1F
100
AcDbEntity
  8
D-2
  6
Continuous
 62
     3
370
     9
100
AcDbLine
 10
-893.1897846389725
 20
-370.0400389752568
 30
0.0
 11
-893.1897846389725
 21
-362.7176941952885
 31
0.0
  0
LINE
  5
525
330
1F
100
AcDbEntity
  8
D-2
  6
Continuous
 62
     3
370
     9
100
AcDbLine
 10
-893.1897846389725
 20
-352.3623694501103
 30
0.0
 11
-893.1897846389725
 21
-345.040024670142
 31
0.0
  0
LINE
  5
526
330
1F
100
AcDbEntity
  8
D-2
  6
Continuous
 62
     3
370
     9
100
AcDbLine
 10
-918.1897846389725
 20
-370.0400532803715
 30
0.0
 11
-910.8674732376053
 21
-370.0400389752568
 31
0.0
  0
LINE
  5
527
330
1F
100
AcDbEntity
  8
D-2
  6
Continuous
 62
     3
370
     9
100
AcDbLine
 10
-900.5121341873123
 20
-370.0400532803715
 30
0.0
 11
-893.1897846389725
 21
-370.0400389752568
 31
0.0
  0
ENDSEC
  0
SECTION
  2
OBJECTS
  0
DICTIONARY
  5
C
330
0
100
AcDbDictionary
281
     1
  3
ACAD_GROUP
350
D
  3
ACAD_LAYOUT
350
1A
  3
ACAD_MLEADERSTYLE
350
529
  3
ACAD_MLINESTYLE
350
17
  3
ACAD_PLOTSETTINGS
350
19
  3
ACAD_PLOTSTYLENAME
350
E
  3
ACAD_TABLESTYLE
350
528
  3
ACAD_VISUALSTYLE
350
2A
  0
DICTIONARY
  5
D
102
{ACAD_REACTORS
330
C
102
}
330
C
100
AcDbDictionary
281
     1
  0
DICTIONARY
  5
1A
102
{ACAD_REACTORS
330
C
102
}
330
C
100
AcDbDictionary
281
     1
  3
Layout1
350
1E
  3
Layout2
350
26
  3
Model
350
22
  0
DICTIONARY
  5
529
102
{ACAD_REACTORS
330
C
102
}
330
C
100
AcDbDictionary
281
     1
  0
DICTIONARY
  5
17
102
{ACAD_REACTORS
330
C
102
}
330
C
100
AcDbDictionary
281
     1
  3
Standard
350
18
  0
DICTIONARY
  5
19
102
{ACAD_REACTORS
330
C
102
}
330
C
100
AcDbDictionary
281
     1
  0
ACDBDICTIONARYWDFLT
  5
E
102
{ACAD_REACTORS
330
C
102
}
330
C
100
AcDbDictionary
281
     1
  3
Normal
350
F
100
AcDbDictionaryWithDefault
340
F
  0
DICTIONARY
  5
528
102
{ACAD_REACTORS
330
C
102
}
330
C
100
AcDbDictionary
281
     1
  0
DICTIONARY
  5
2A
102
{ACAD_REACTORS
330
C
102
}
330
C
100
AcDbDictionary
281
     1
  3
2dWireframe
350
2F
  3
3D Hidden
350
31
  3
3dWireframe
350
30
  3
Basic
350
32
  3
Brighten
350
36
  3
ColorChange
350
3A
  3
Conceptual
350
34
  3
Dim
350
35
  3
Facepattern
350
39
  3
Flat
350
2B
  3
FlatWithEdges
350
2C
  3
Gouraud
350
2D
  3
GouraudWithEdges
350
2E
  3
Linepattern
350
38
  3
Realistic
350
33
  3
Thicken
350
37
  0
LAYOUT
  5
1E
102
{ACAD_REACTORS
330
1A
102
}
330
1A
100
AcDbPlotSettings
  1

  2
none_device
  4

  6

 40
0.0
 41
0.0
 42
0.0
 43
0.0
 44
0.0
 45
0.0
 46
0.0
 47
0.0
 48
0.0
 49
0.0
140
0.0
141
0.0
142
1.0
143
1.0
 70
   688
 72
     0
 73
     0
 74
     5
  7

 75
    16
 76
     0
 77
     5
 78
   300
147
1.0
148
0.0
149
0.0
100
AcDbLayout
  1
Layout1
 70
     1
 71
     1
 10
0.0
 20
0.0
 11
420.0
 21
297.0
 12
0.0
 22
0.0
 32
0.0
 14
1.000000000000000E+20
 24
1.000000000000000E+20
 34
1.000000000000000E+20
 15
-1.000000000000000E+20
 25
-1.000000000000000E+20
 35
-1.000000000000000E+20
146
0.0
 13
0.0
 23
0.0
 33
0.0
 16
1.0
 26
0.0
 36
0.0
 17
0.0
 27
1.0
 37
0.0
 76
     0
330
1B
  0
LAYOUT
  5
26
102
{ACAD_REACTORS
330
1A
102
}
330
1A
100
AcDbPlotSettings
  1

  2
none_device
  4

  6

 40
0.0
 41
0.0
 42
0.0
 43
0.0
 44
0.0
 45
0.0
 46
0.0
 47
0.0
 48
0.0
 49
0.0
140
0.0
141
0.0
142
1.0
143
1.0
 70
   688
 72
     0
 73
     0
 74
     5
  7

 75
    16
 76
     0
 77
     5
 78
   300
147
1.0
148
0.0
149
0.0
100
AcDbLayout
  1
Layout2
 70
     1
 71
     2
 10
0.0
 20
0.0
 11
0.0
 21
0.0
 12
0.0
 22
0.0
 32
0.0
 14
0.0
 24
0.0
 34
0.0
 15
0.0
 25
0.0
 35
0.0
146
0.0
 13
0.0
 23
0.0
 33
0.0
 16
1.0
 26
0.0
 36
0.0
 17
0.0
 27
1.0
 37
0.0
 76
     0
330
23
  0
LAYOUT
  5
22
102
{ACAD_REACTORS
330
1A
102
}
330
1A
100
AcDbPlotSettings
  1

  2
none_device
  4

  6

 40
0.0
 41
0.0
 42
0.0
 43
0.0
 44
0.0
 45
0.0
 46
0.0
 47
0.0
 48
0.0
 49
0.0
140
0.0
141
0.0
142
1.0
143
1.0
 70
  1712
 72
     0
 73
     0
 74
     0
  7

 75
     0
 76
     0
 77
     5
 78
   300
147
1.0
148
0.0
149
0.0
100
AcDbLayout
  1
Model
 70
     1
 71
     0
 10
-2100.0
 20
-1485.0
 11
2100.0
 21
1485.0
 12
0.0
 22
0.0
 32
0.0
 14
-2100.0
 24
-1485.0
 34
0.0
 15
2100.0
 25
1485.0
 35
0.0
146
0.0
 13
0.0
 23
0.0
 33
0.0
 16
1.0
 26
0.0
 36
0.0
 17
0.0
 27
1.0
 37
0.0
 76
     0
330
1F
331
29
  0
MLINESTYLE
  5
18
102
{ACAD_REACTORS
330
17
102
}
330
17
100
AcDbMlineStyle
  2
Standard
 70
     0
  3

 62
   256
 51
90.0
 52
90.0
 71
     2
 49
0.5
 62
   256
  6
BYLAYER
 49
-0.5
 62
   256
  6
BYLAYER
  0
ACDBPLACEHOLDER
  5
F
102
{ACAD_REACTORS
330
E
102
}
330
E
  0
VISUALSTYLE
  5
2F
102
{ACAD_REACTORS
330
2A
102
}
330
2A
100
AcDbVisualStyle
  2
2dWireframe
 70
     4
 71
     0
 72
     2
 73
     0
 90
        0
 40
-0.6
 41
-30.0
 62
     5
 63
     7
421
 16777215
 74
     1
 91
        4
 64
     7
 65
   257
 75
     1
175
     1
 42
1.0
 92
        0
 66
   257
 43
1.0
 76
     1
 77
     6
 78
     2
 67
     7
 79
     5
170
     0
171
     0
290
     0
174
     0
 93
        1
 44
0.0
173
     0
291
     0
 45
0.0
1001
ACAD
1000
AcDbSavedByObjectVersion
1070
     0
  0
VISUALSTYLE
  5
31
102
{ACAD_REACTORS
330
2A
102
}
330
2A
100
AcDbVisualStyle
  2
3D Hidden
 70
     6
 71
     1
 72
     2
 73
     2
 90
        0
 40
-0.6
 41
-30.0
 62
     5
 63
     7
421
 16777215
 74
     2
 91
        2
 64
     7
 65
   257
 75
     2
175
     1
 42
40.0
 92
        0
 66
   257
 43
1.0
 76
     1
 77
     6
 78
     2
 67
     7
 79
     3
170
     0
171
     0
290
     0
174
     0
 93
        1
 44
0.0
173
     0
291
     0
 45
0.0
1001
ACAD
1000
AcDbSavedByObjectVersion
1070
     0
  0
VISUALSTYLE
  5
30
102
{ACAD_REACTORS
330
2A
102
}
330
2A
100
AcDbVisualStyle
  2
3dWireframe
 70
     5
 71
     0
 72
     2
 73
     0
 90
        0
 40
-0.6
 41
-30.0
 62
     5
 63
     7
421
 16777215
 74
     1
 91
        4
 64
     7
 65
   257
 75
     1
175
     1
 42
1.0
 92
        0
 66
   257
 43
1.0
 76
     1
 77
     6
 78
     2
 67
     7
 79
     5
170
     0
171
     0
290
     0
174
     0
 93
        1
 44
0.0
173
     0
291
     0
 45
0.0
1001
ACAD
1000
AcDbSavedByObjectVersion
1070
     0
  0
VISUALSTYLE
  5
32
102
{ACAD_REACTORS
330
2A
102
}
330
2A
100
AcDbVisualStyle
  2
Basic
 70
     7
 71
     1
 72
     0
 73
     1
 90
        0
 40
-0.6
 41
-30.0
 62
     5
 63
     7
421
 16777215
 74
     0
 91
        4
 64
     7
 65
   257
 75
     1
175
     1
 42
1.0
 92
        8
 66
     7
 43
1.0
 76
     1
 77
     6
 78
     2
 67
     7
 79
     5
170
     0
171
     0
290
     0
174
     0
 93
        1
 44
0.0
173
     0
291
     1
 45
0.0
1001
ACAD
1000
AcDbSavedByObjectVersion
1070
     0
  0
VISUALSTYLE
  5
36
102
{ACAD_REACTORS
330
2A
102
}
330
2A
100
AcDbVisualStyle
  2
Brighten
 70
    12
 71
     2
 72
     2
 73
     0
 90
        0
 40
-0.6
 41
-30.0
 62
     5
 63
     7
421
 16777215
 74
     1
 91
        4
 64
     7
 65
   257
 75
     1
175
     1
 42
1.0
 92
        8
 66
     7
 43
1.0
 76
     1
 77
     6
 78
     2
 67
     7
 79
     5
170
     0
171
     0
290
     0
174
     0
 93
        1
 44
50.0
173
     0
291
     1
 45
0.0
1001
ACAD
1000
AcDbSavedByObjectVersion
1070
     0
  0
VISUALSTYLE
  5
3A
102
{ACAD_REACTORS
330
2A
102
}
330
2A
100
AcDbVisualStyle
  2
ColorChange
 70
    16
 71
     2
 72
     2
 73
     3
 90
        0
 40
-0.6
 41
-30.0
 62
     5
 63
     8
421
  8421504
 74
     1
 91
        4
 64
     7
 65
   257
 75
     1
175
     1
 42
1.0
 92
        8
 66
     8
424
  8421504
 43
1.0
 76
     1
 77
     6
 78
     2
 67
     7
 79
     5
170
     0
171
     0
290
     0
174
     0
 93
        1
 44
0.0
173
     0
291
     1
 45
0.0
1001
ACAD
1000
AcDbSavedByObjectVersion
1070
     0
  0
VISUALSTYLE
  5
34
102
{ACAD_REACTORS
330
2A
102
}
330
2A
100
AcDbVisualStyle
  2
Conceptual
 70
     9
 71
     3
 72
     2
 73
     0
 90
        0
 40
-0.6
 41
-30.0
 62
     5
 63
     7
421
 16777215
 74
     2
 91
        2
 64
     7
 65
   257
 75
     1
175
     1
 42
40.0
 92
        8
 66
     7
 43
1.0
 76
     1
 77
     6
 78
     2
 67
     7
 79
     3
170
     0
171
     0
290
     0
174
     0
 93
        1
 44
0.0
173
     0
291
     0
 45
0.0
1001
ACAD
1000
AcDbSavedByObjectVersion
1070
     0
  0
VISUALSTYLE
  5
35
102
{ACAD_REACTORS
330
2A
102
}
330
2A
100
AcDbVisualStyle
  2
Dim
 70
    11
 71
     2
 72
     2
 73
     0
 90
        0
 40
-0.6
 41
-30.0
 62
     5
 63
     7
421
 16777215
 74
     1
 91
        4
 64
     7
 65
   257
 75
     1
175
     1
 42
1.0
 92
        8
 66
     7
 43
1.0
 76
     1
 77
     6
 78
     2
 67
     7
 79
     5
170
     0
171
     0
290
     0
174
     0
 93
        1
 44
-50.0
173
     0
291
     1
 45
0.0
1001
ACAD
1000
AcDbSavedByObjectVersion
1070
     0
  0
VISUALSTYLE
  5
39
102
{ACAD_REACTORS
330
2A
102
}
330
2A
100
AcDbVisualStyle
  2
Facepattern
 70
    15
 71
     2
 72
     2
 73
     0
 90
        0
 40
-0.6
 41
-30.0
 62
     5
 63
     7
421
 16777215
 74
     1
 91
        4
 64
     7
 65
   257
 75
     1
175
     1
 42
1.0
 92
        8
 66
     7
 43
1.0
 76
     1
 77
     6
 78
     2
 67
     7
 79
     5
170
     0
171
     0
290
     0
174
     0
 93
        1
 44
0.0
173
     0
291
     1
 45
0.0
1001
ACAD
1000
AcDbSavedByObjectVersion
1070
     0
  0
VISUALSTYLE
  5
2B
102
{ACAD_REACTORS
330
2A
102
}
330
2A
100
AcDbVisualStyle
  2
Flat
 70
     0
 71
     2
 72
     1
 73
     1
 90
        2
 40
-0.6
 41
30.0
 62
     5
 63
     7
421
 16777215
 74
     0
 91
        4
 64
     7
 65
   257
 75
     1
175
     1
 42
1.0
 92
        8
 66
     7
 43
1.0
 76
     1
 77
     6
 78
     2
 67
     7
 79
     5
170
     0
171
     0
290
     0
174
     0
 93
       13
 44
0.0
173
     0
291
     1
 45
0.0
1001
ACAD
1000
AcDbSavedByObjectVersion
1070
     0
  0
VISUALSTYLE
  5
2C
102
{ACAD_REACTORS
330
2A
102
}
330
2A
100
AcDbVisualStyle
  2
FlatWithEdges
 70
     1
 71
     2
 72
     1
 73
     1
 90
        2
 40
-0.6
 41
30.0
 62
     5
 63
     7
421
 16777215
 74
     1
 91
        4
 64
     7
 65
   257
 75
     1
175
     1
 42
1.0
 92
        0
 66
   257
 43
1.0
 76
     1
 77
     6
 78
     2
 67
     7
 79
     5
170
     0
171
     0
290
     0
174
     0
 93
       13
 44
0.0
173
     0
291
     1
 45
0.0
1001
ACAD
1000
AcDbSavedByObjectVersion
1070
     0
  0
VISUALSTYLE
  5
2D
102
{ACAD_REACTORS
330
2A
102
}
330
2A
100
AcDbVisualStyle
  2
Gouraud
 70
     2
 71
     2
 72
     2
 73
     1
 90
        2
 40
-0.6
 41
30.0
 62
     5
 63
     7
421
 16777215
 74
     0
 91
        4
 64
     7
 65
   257
 75
     1
175
     1
 42
1.0
 92
        0
 66
     7
 43
1.0
 76
     1
 77
     6
 78
     2
 67
     7
 79
     5
170
     0
171
     0
290
     0
174
     0
 93
       13
 44
0.0
173
     0
291
     1
 45
0.0
1001
ACAD
1000
AcDbSavedByObjectVersion
1070
     0
  0
VISUALSTYLE
  5
2E
102
{ACAD_REACTORS
330
2A
102
}
330
2A
100
AcDbVisualStyle
  2
GouraudWithEdges
 70
     3
 71
     2
 72
     2
 73
     1
 90
        2
 40
-0.6
 41
30.0
 62
     5
 63
     7
421
 16777215
 74
     1
 91
        4
 64
     7
 65
   257
 75
     1
175
     1
 42
1.0
 92
        0
 66
   257
 43
1.0
 76
     1
 77
     6
 78
     2
 67
     7
 79
     5
170
     0
171
     0
290
     0
174
     0
 93
       13
 44
0.0
173
     0
291
     1
 45
0.0
1001
ACAD
1000
AcDbSavedByObjectVersion
1070
     0
  0
VISUALSTYLE
  5
38
102
{ACAD_REACTORS
330
2A
102
}
330
2A
100
AcDbVisualStyle
  2
Linepattern
 70
    14
 71
     2
 72
     2
 73
     0
 90
        0
 40
-0.6
 41
-30.0
 62
     5
 63
     7
421
 16777215
 74
     1
 91
        4
 64
     7
 65
   257
 75
     7
175
     7
 42
1.0
 92
        8
 66
     7
 43
1.0
 76
     1
 77
     6
 78
     2
 67
     7
 79
     5
170
     0
171
     0
290
     0
174
     0
 93
        1
 44
0.0
173
     0
291
     1
 45
0.0
1001
ACAD
1000
AcDbSavedByObjectVersion
1070
     0
  0
VISUALSTYLE
  5
33
102
{ACAD_REACTORS
330
2A
102
}
330
2A
100
AcDbVisualStyle
  2
Realistic
 70
     8
 71
     2
 72
     2
 73
     0
 90
        0
 40
-0.6
 41
-30.0
 62
     5
 63
     7
421
 16777215
 74
     1
 91
        0
 64
     7
 65
   257
 75
     1
175
     1
 42
1.0
 92
        8
 66
     8
424
  7895160
 43
1.0
 76
     1
 77
     6
 78
     2
 67
     7
 79
     5
170
     0
171
     0
290
     0
174
     0
 93
       13
 44
0.0
173
     0
291
     0
 45
0.0
1001
ACAD
1000
AcDbSavedByObjectVersion
1070
     0
  0
VISUALSTYLE
  5
37
102
{ACAD_REACTORS
330
2A
102
}
330
2A
100
AcDbVisualStyle
  2
Thicken
 70
    13
 71
     2
 72
     2
 73
     0
 90
        0
 40
-0.6
 41
-30.0
 62
     5
 63
     7
421
 16777215
 74
     1
 91
        4
 64
     7
 65
   257
 75
     1
175
     1
 42
1.0
 92
       12
 66
     7
 43
1.0
 76
     1
 77
     6
 78
     2
 67
     7
 79
     5
170
     0
171
     0
290
     0
174
     0
 93
        1
 44
0.0
173
     0
291
     1
 45
0.0
1001
ACAD
1000
AcDbSavedByObjectVersion
1070
     0
  0
ENDSEC
  0
EOF
