  0
SECTION
  2
HEADER
  9
$ACADVER
  1
AC1018
  9
$ACADMAINTVER
 70
     0
  9
$DWGCODEPAGE
  3
ANSI_932
  9
$INSBASE
 10
0.0
 20
0.0
 30
0.0
  9
$EXTMIN
 10
-2100.0
 20
-1485.0
 30
0.0
  9
$EXTMAX
 10
2100.0
 20
1485.0
 30
0.0
  9
$LIMMIN
 10
-2100.0
 20
-1485.0
  9
$LIMMAX
 10
2100.0
 20
1485.0
  9
$ORTHOMODE
 70
     0
  9
$REGENMODE
 70
     1
  9
$FILLMODE
 70
     1
  9
$QTEXTMODE
 70
     0
  9
$MIRRTEXT
 70
     1
  9
$LTSCALE
 40
10.0
  9
$ATTMODE
 70
     1
  9
$TEXTSIZE
 40
2.5
  9
$TRACEWID
 40
1.0
  9
$TEXTSTYLE
  7
Standard
  9
$CLAYER
  8
0
  9
$CELTYPE
  6
ByLayer
  9
$CECOLOR
 62
   256
  9
$CELTSCALE
 40
1.0
  9
$DISPSILH
 70
     0
  9
$DIMSCALE
 40
1.0
  9
$DIMASZ
 40
2.5
  9
$DIMEXO
 40
0.625
  9
$DIMDLI
 40
3.75
  9
$DIMRND
 40
0.0
  9
$DIMDLE
 40
0.0
  9
$DIMEXE
 40
1.25
  9
$DIMTP
 40
0.0
  9
$DIMTM
 40
0.0
  9
$DIMTXT
 40
2.5
  9
$DIMCEN
 40
2.5
  9
$DIMTSZ
 40
0.0
  9
$DIMTOL
 70
     0
  9
$DIMLIM
 70
     0
  9
$DIMTIH
 70
     0
  9
$DIMTOH
 70
     0
  9
$DIMSE1
 70
     0
  9
$DIMSE2
 70
     0
  9
$DIMTAD
 70
     1
  9
$DIMZIN
 70
     8
  9
$DIMBLK
  1

  9
$DIMASO
 70
     1
  9
$DIMSHO
 70
     1
  9
$DIMPOST
  1

  9
$DIMAPOST
  1

  9
$DIMALT
 70
     0
  9
$DIMALTD
 70
     3
  9
$DIMALTF
 40
0.03937007874016
  9
$DIMLFAC
 40
1.0
  9
$DIMTOFL
 70
     1
  9
$DIMTVP
 40
0.0
  9
$DIMTIX
 70
     0
  9
$DIMSOXD
 70
     0
  9
$DIMSAH
 70
     0
  9
$DIMBLK1
  1

  9
$DIMBLK2
  1

  9
$DIMSTYLE
  2
ISO-25
  9
$DIMCLRD
 70
     0
  9
$DIMCLRE
 70
     0
  9
$DIMCLRT
 70
     0
  9
$DIMTFAC
 40
1.0
  9
$DIMGAP
 40
0.625
  9
$DIMJUST
 70
     0
  9
$DIMSD1
 70
     0
  9
$DIMSD2
 70
     0
  9
$DIMTOLJ
 70
     0
  9
$DIMTZIN
 70
     8
  9
$DIMALTZ
 70
     0
  9
$DIMALTTZ
 70
     0
  9
$DIMUPT
 70
     0
  9
$DIMDEC
 70
     2
  9
$DIMTDEC
 70
     2
  9
$DIMALTU
 70
     2
  9
$DIMALTTD
 70
     3
  9
$DIMTXSTY
  7
Standard
  9
$DIMAUNIT
 70
     0
  9
$DIMADEC
 70
     0
  9
$DIMALTRND
 40
0.0
  9
$DIMAZIN
 70
     0
  9
$DIMDSEP
 70
    44
  9
$DIMATFIT
 70
     3
  9
$DIMFRAC
 70
     0
  9
$DIMLDRBLK
  1

  9
$DIMLUNIT
 70
     2
  9
$DIMLWD
 70
    -2
  9
$DIMLWE
 70
    -2
  9
$DIMTMOVE
 70
     0
  9
$LUNITS
 70
     2
  9
$LUPREC
 70
     4
  9
$SKETCHINC
 40
1.0
  9
$FILLETRAD
 40
10.0
  9
$AUNITS
 70
     0
  9
$AUPREC
 70
     0
  9
$MENU
  1
.
  9
$ELEVATION
 40
0.0
  9
$PELEVATION
 40
0.0
  9
$THICKNESS
 40
0.0
  9
$LIMCHECK
 70
     0
  9
$CHAMFERA
 40
10.0
  9
$CHAMFERB
 40
10.0
  9
$CHAMFERC
 40
20.0
  9
$CHAMFERD
 40
0.0
  9
$SKPOLY
 70
     0
  9
$TDCREATE
 40
2457186.649865197
  9
$TDUCREATE
 40
2457186.274865197
  9
$TDUPDATE
 40
2457186.649865208
  9
$TDUUPDATE
 40
2457186.274865208
  9
$TDINDWG
 40
0.0000000116
  9
$TDUSRTIMER
 40
0.0000000116
  9
$USRTIMER
 70
     1
  9
$ANGBASE
 50
0.0
  9
$ANGDIR
 70
     0
  9
$PDMODE
 70
     0
  9
$PDSIZE
 40
0.0
  9
$PLINEWID
 40
0.0
  9
$SPLFRAME
 70
     0
  9
$SPLINETYPE
 70
     6
  9
$SPLINESEGS
 70
     8
  9
$HANDSEED
  5
59C
  9
$SURFTAB1
 70
     6
  9
$SURFTAB2
 70
     6
  9
$SURFTYPE
 70
     6
  9
$SURFU
 70
     6
  9
$SURFV
 70
     6
  9
$UCSBASE
  2

  9
$UCSNAME
  2

  9
$UCSORG
 10
0.0
 20
0.0
 30
0.0
  9
$UCSXDIR
 10
1.0
 20
0.0
 30
0.0
  9
$UCSYDIR
 10
0.0
 20
1.0
 30
0.0
  9
$UCSORTHOREF
  2

  9
$UCSORTHOVIEW
 70
     0
  9
$UCSORGTOP
 10
0.0
 20
0.0
 30
0.0
  9
$UCSORGBOTTOM
 10
0.0
 20
0.0
 30
0.0
  9
$UCSORGLEFT
 10
0.0
 20
0.0
 30
0.0
  9
$UCSORGRIGHT
 10
0.0
 20
0.0
 30
0.0
  9
$UCSORGFRONT
 10
0.0
 20
0.0
 30
0.0
  9
$UCSORGBACK
 10
0.0
 20
0.0
 30
0.0
  9
$PUCSBASE
  2

  9
$PUCSNAME
  2

  9
$PUCSORG
 10
0.0
 20
0.0
 30
0.0
  9
$PUCSXDIR
 10
1.0
 20
0.0
 30
0.0
  9
$PUCSYDIR
 10
0.0
 20
1.0
 30
0.0
  9
$PUCSORTHOREF
  2

  9
$PUCSORTHOVIEW
 70
     0
  9
$PUCSORGTOP
 10
0.0
 20
0.0
 30
0.0
  9
$PUCSORGBOTTOM
 10
0.0
 20
0.0
 30
0.0
  9
$PUCSORGLEFT
 10
0.0
 20
0.0
 30
0.0
  9
$PUCSORGRIGHT
 10
0.0
 20
0.0
 30
0.0
  9
$PUCSORGFRONT
 10
0.0
 20
0.0
 30
0.0
  9
$PUCSORGBACK
 10
0.0
 20
0.0
 30
0.0
  9
$USERI1
 70
     0
  9
$USERI2
 70
     0
  9
$USERI3
 70
     0
  9
$USERI4
 70
     0
  9
$USERI5
 70
     0
  9
$USERR1
 40
0.0
  9
$USERR2
 40
0.0
  9
$USERR3
 40
0.0
  9
$USERR4
 40
0.0
  9
$USERR5
 40
0.0
  9
$WORLDVIEW
 70
     1
  9
$SHADEDGE
 70
     3
  9
$SHADEDIF
 70
    70
  9
$TILEMODE
 70
     1
  9
$MAXACTVP
 70
    64
  9
$PINSBASE
 10
0.0
 20
0.0
 30
0.0
  9
$PLIMCHECK
 70
     0
  9
$PEXTMIN
 10
1.000000000000000E+20
 20
1.000000000000000E+20
 30
1.000000000000000E+20
  9
$PEXTMAX
 10
-1.000000000000000E+20
 20
-1.000000000000000E+20
 30
-1.000000000000000E+20
  9
$PLIMMIN
 10
0.0
 20
0.0
  9
$PLIMMAX
 10
420.0
 20
297.0
  9
$UNITMODE
 70
     0
  9
$VISRETAIN
 70
     1
  9
$PLINEGEN
 70
     0
  9
$PSLTSCALE
 70
     1
  9
$TREEDEPTH
 70
  3020
  9
$CMLSTYLE
  2
Standard
  9
$CMLJUST
 70
     0
  9
$CMLSCALE
 40
20.0
  9
$PROXYGRAPHICS
 70
     1
  9
$MEASUREMENT
 70
     1
  9
$CELWEIGHT
370
    -1
  9
$ENDCAPS
280
     0
  9
$JOINSTYLE
280
     0
  9
$LWDISPLAY
290
     0
  9
$INSUNITS
 70
     4
  9
$HYPERLINKBASE
  1

  9
$STYLESHEET
  1

  9
$XEDIT
290
     1
  9
$CEPSNTYPE
380
     0
  9
$PSTYLEMODE
290
     1
  9
$FINGERPRINTGUID
  2
{E296AD10-A10C-4224-A6B3-9F2C2C5EDF77}
  9
$VERSIONGUID
  2
{FAEB1C32-E019-11D5-929B-00C0DF256EC4}
  9
$EXTNAMES
290
     1
  9
$PSVPSCALE
 40
0.0
  9
$OLESTARTUP
290
     0
  9
$SORTENTS
280
   127
  9
$INDEXCTL
280
     0
  9
$HIDETEXT
280
     1
  9
$XCLIPFRAME
290
     0
  9
$HALOGAP
280
     0
  9
$OBSCOLOR
 70
   257
  9
$OBSLTYPE
280
     0
  9
$INTERSECTIONDISPLAY
280
     0
  9
$INTERSECTIONCOLOR
 70
   257
  9
$DIMASSOC
280
     2
  9
$PROJECTNAME
  1

  0
ENDSEC
  0
SECTION
  2
CLASSES
  0
CLASS
  1
ACDBDICTIONARYWDFLT
  2
AcDbDictionaryWithDefault
  3
ObjectDBX Classes
 90
        0
 91
        4
280
     0
281
     0
  0
CLASS
  1
VISUALSTYLE
  2
AcDbVisualStyle
  3
ObjectDBX Classes
 90
     4095
 91
        4
280
     0
281
     0
  0
ENDSEC
  0
SECTION
  2
TABLES
  0
TABLE
  2
VPORT
  5
8
330
0
100
AcDbSymbolTable
 70
     1
  0
VPORT
  5
29
330
8
100
AcDbSymbolTableRecord
100
AcDbViewportTableRecord
  2
*Active
 70
     0
 10
0.0
 20
0.0
 11
1.0
 21
1.0
 12
0.0
 22
0.0
 13
0.0
 23
0.0
 14
10.0
 24
10.0
 15
10.0
 25
10.0
 16
0.0
 26
0.0
 36
1.0
 17
0.0
 27
0.0
 37
0.0
 40
3267.0
 41
1.414141414141414
 42
50.0
 43
0.0
 44
0.0
 50
0.0
 51
0.0
 71
     0
 72
 10000
 73
     1
 74
     3
 75
     0
 76
     0
 77
     0
 78
     0
281
     0
 65
     1
110
0.0
120
0.0
130
0.0
111
1.0
121
0.0
131
0.0
112
0.0
122
1.0
132
0.0
 79
     0
146
0.0
  0
ENDTAB
  0
TABLE
  2
LTYPE
  5
5
330
0
100
AcDbSymbolTable
 70
     5
  0
LTYPE
  5
14
330
5
100
AcDbSymbolTableRecord
100
AcDbLinetypeTableRecord
  2
ByBlock
 70
     0
  3

 72
    65
 73
     0
 40
0.0
  0
LTYPE
  5
15
330
5
100
AcDbSymbolTableRecord
100
AcDbLinetypeTableRecord
  2
ByLayer
 70
     0
  3

 72
    65
 73
     0
 40
0.0
  0
LTYPE
  5
16
330
5
100
AcDbSymbolTableRecord
100
AcDbLinetypeTableRecord
  2
Continuous
 70
     0
  3
Solid line
 72
    65
 73
     0
 40
0.0
  0
LTYPE
  5
3C
330
5
100
AcDbSymbolTableRecord
100
AcDbLinetypeTableRecord
  2
JWW_DASHED3
 70
     0
  3
---  ------  ------  ------  ---
 72
    65
 73
     2
 40
3.386666666666667
 49
2.54
 74
     0
 49
-0.8466666666666667
 74
     0
  0
LTYPE
  5
3D
330
5
100
AcDbSymbolTableRecord
100
AcDbLinetypeTableRecord
  2
JWW_CENTER2
 70
     0
  3
-------------  --  -------------
 72
    65
 73
     4
 40
13.54666666666667
 49
11.00666666666667
 74
     0
 49
-0.8466666666666667
 74
     0
 49
0.8466666666666667
 74
     0
 49
-0.8466666666666667
 74
     0
  0
LTYPE
  5
3E
330
5
100
AcDbSymbolTableRecord
100
AcDbLinetypeTableRecord
  2
JWW_CENTER1
 70
     0
  3
-----  --  ----------  --  -----
 72
    65
 73
     4
 40
6.773333333333333
 49
4.233333333333333
 74
     0
 49
-0.8466666666666667
 74
     0
 49
0.8466666666666667
 74
     0
 49
-0.8466666666666667
 74
     0
  0
LTYPE
  5
3F
330
5
100
AcDbSymbolTableRecord
100
AcDbLinetypeTableRecord
  2
JWW_DASHED2
 70
     0
  3
--    ----    ----    ----    --
 72
    65
 73
     2
 40
3.386666666666667
 49
1.693333333333333
 74
     0
 49
-1.693333333333333
 74
     0
  0
ENDTAB
  0
TABLE
  2
LAYER
  5
2
330
0
100
AcDbSymbolTable
 70
    17
  0
LAYER
  5
10
330
2
100
AcDbSymbolTableRecord
100
AcDbLayerTableRecord
  2
0
 70
     0
 62
     7
  6
Continuous
370
    -3
390
F
  0
LAYER
  5
40
330
2
100
AcDbSymbolTableRecord
100
AcDbLayerTableRecord
  2
F-5
 70
     0
 62
     7
  6
Continuous
370
    -3
390
F
  0
LAYER
  5
41
330
2
100
AcDbSymbolTableRecord
100
AcDbLayerTableRecord
  2
C-2
 70
     0
 62
     7
  6
Continuous
370
    -3
390
F
  0
LAYER
  5
42
330
2
100
AcDbSymbolTableRecord
100
AcDbLayerTableRecord
  2
C-3
 70
     0
 62
     7
  6
Continuous
370
    -3
390
F
  0
LAYER
  5
43
330
2
100
AcDbSymbolTableRecord
100
AcDbLayerTableRecord
  2
C-1
 70
     0
 62
     7
  6
Continuous
370
    -3
390
F
  0
LAYER
  5
44
330
2
100
AcDbSymbolTableRecord
100
AcDbLayerTableRecord
  2
C-5
 70
     0
 62
     7
  6
Continuous
370
    -3
390
F
  0
LAYER
  5
45
330
2
100
AcDbSymbolTableRecord
100
AcDbLayerTableRecord
  2
C-A
 70
     0
 62
     7
  6
Continuous
370
    -3
390
F
  0
LAYER
  5
46
330
2
100
AcDbSymbolTableRecord
100
AcDbLayerTableRecord
  2
C-4
 70
     0
 62
     7
  6
Continuous
370
    -3
390
F
  0
LAYER
  5
47
330
2
100
AcDbSymbolTableRecord
100
AcDbLayerTableRecord
  2
D-4
 70
     0
 62
     7
  6
Continuous
370
    -3
390
F
  0
LAYER
  5
48
330
2
100
AcDbSymbolTableRecord
100
AcDbLayerTableRecord
  2
D-6
 70
     0
 62
     7
  6
Continuous
370
    -3
390
F
  0
LAYER
  5
49
330
2
100
AcDbSymbolTableRecord
100
AcDbLayerTableRecord
  2
D-5
 70
     0
 62
     7
  6
Continuous
370
    -3
390
F
  0
LAYER
  5
4A
330
2
100
AcDbSymbolTableRecord
100
AcDbLayerTableRecord
  2
D-0
 70
     0
 62
     7
  6
Continuous
370
    -3
390
F
  0
LAYER
  5
4B
330
2
100
AcDbSymbolTableRecord
100
AcDbLayerTableRecord
  2
D-9
 70
     0
 62
     7
  6
Continuous
370
    -3
390
F
  0
LAYER
  5
4C
330
2
100
AcDbSymbolTableRecord
100
AcDbLayerTableRecord
  2
D-1
 70
     0
 62
     7
  6
Continuous
370
    -3
390
F
  0
LAYER
  5
4D
330
2
100
AcDbSymbolTableRecord
100
AcDbLayerTableRecord
  2
D-3
 70
     0
 62
     7
  6
Continuous
370
    -3
390
F
  0
LAYER
  5
4E
330
2
100
AcDbSymbolTableRecord
100
AcDbLayerTableRecord
  2
D-A
 70
     0
 62
     7
  6
Continuous
370
    -3
390
F
  0
LAYER
  5
4F
330
2
100
AcDbSymbolTableRecord
100
AcDbLayerTableRecord
  2
D-2
 70
     0
 62
     7
  6
Continuous
370
    -3
390
F
  0
ENDTAB
  0
TABLE
  2
STYLE
  5
3
330
0
100
AcDbSymbolTable
 70
     2
  0
STYLE
  5
11
330
3
100
AcDbSymbolTableRecord
100
AcDbTextStyleTableRecord
  2
Standard
 70
     0
 40
0.0
 41
1.0
 50
0.0
 71
     0
 42
2.5
  3
txt
  4

1001
ACAD
1000

1071
        0
  0
STYLE
  5
3B
330
3
100
AcDbSymbolTableRecord
100
AcDbTextStyleTableRecord
  2
ＭＳ ゴシック
 70
     0
 40
1.0
 41
1.0
 50
0.0
 71
     0
 42
10.0
  3

  4

1001
ACAD
1000
MS Gothic
1071
    32817
  0
ENDTAB
  0
TABLE
  2
VIEW
  5
6
330
0
100
AcDbSymbolTable
 70
     0
  0
ENDTAB
  0
TABLE
  2
UCS
  5
7
330
0
100
AcDbSymbolTable
 70
     0
  0
ENDTAB
  0
TABLE
  2
APPID
  5
9
330
0
100
AcDbSymbolTable
 70
     1
  0
APPID
  5
12
330
9
100
AcDbSymbolTableRecord
100
AcDbRegAppTableRecord
  2
ACAD
 70
     0
  0
ENDTAB
  0
TABLE
  2
DIMSTYLE
  5
A
330
0
100
AcDbSymbolTable
 70
     1
100
AcDbDimStyleTable
  0
DIMSTYLE
105
27
330
A
100
AcDbSymbolTableRecord
100
AcDbDimStyleTableRecord
  2
ISO-25
 70
     0
 41
2.5
 42
0.625
 43
3.75
 44
1.25
 73
     0
 74
     0
 77
     1
 78
     8
140
2.5
141
2.5
143
0.03937007874016
147
0.625
171
     3
172
     1
271
     2
272
     2
274
     3
278
    44
283
     0
284
     8
340
11
  0
ENDTAB
  0
TABLE
  2
BLOCK_RECORD
  5
1
330
0
100
AcDbSymbolTable
 70
     1
  0
BLOCK_RECORD
  5
1F
330
1
100
AcDbSymbolTableRecord
100
AcDbBlockTableRecord
  2
*Model_Space
340
22
  0
BLOCK_RECORD
  5
1B
330
1
100
AcDbSymbolTableRecord
100
AcDbBlockTableRecord
  2
*Paper_Space
340
1E
  0
BLOCK_RECORD
  5
23
330
1
100
AcDbSymbolTableRecord
100
AcDbBlockTableRecord
  2
*Paper_Space0
340
26
  0
ENDTAB
  0
ENDSEC
  0
SECTION
  2
BLOCKS
  0
BLOCK
  5
20
330
1F
100
AcDbEntity
  8
0
100
AcDbBlockBegin
  2
*Model_Space
 70
     0
 10
0.0
 20
0.0
 30
0.0
  3
*Model_Space
  1

  0
ENDBLK
  5
21
330
1F
100
AcDbEntity
  8
0
100
AcDbBlockEnd
  0
BLOCK
  5
1C
330
1B
100
AcDbEntity
 67
     1
  8
0
100
AcDbBlockBegin
  2
*Paper_Space
 70
     0
 10
0.0
 20
0.0
 30
0.0
  3
*Paper_Space
  1

  0
ENDBLK
  5
1D
330
1B
100
AcDbEntity
 67
     1
  8
0
100
AcDbBlockEnd
  0
BLOCK
  5
24
330
23
100
AcDbEntity
  8
0
100
AcDbBlockBegin
  2
*Paper_Space0
 70
     0
 10
0.0
 20
0.0
 30
0.0
  3
*Paper_Space0
  1

  0
ENDBLK
  5
25
330
23
100
AcDbEntity
  8
0
100
AcDbBlockEnd
  0
ENDSEC
  0
SECTION
  2
ENTITIES
  0
TEXT
  5
50
330
1F
100
AcDbEntity
  8
F-5
  6
Continuous
 62
     2
370
     9
100
AcDbText
 10
-731.5901402992006
 20
-1326.310621578057
 30
0.0
 40
30.48
  1
ステンレス製　細目ノンスリップタイプ（デルタ模様）グレーチング（すきま9mm）
 41
0.7743333333333332
  7
ＭＳ ゴシック
100
AcDbText
  0
LINE
  5
51
330
1F
100
AcDbEntity
  8
C-2
  6
Continuous
 62
     3
370
     9
100
AcDbLine
 10
-177.0940429584396
 20
929.8916477512669
 30
0.0
 11
-177.0940429584396
 21
479.8915104221655
 31
0.0
  0
LINE
  5
52
330
1F
100
AcDbEntity
  8
C-2
  6
Continuous
 62
     3
370
     9
100
AcDbLine
 10
-177.0940429584396
 20
479.8915104221655
 30
0.0
 11
-627.094176472844
 21
479.8915104221655
 31
0.0
  0
LINE
  5
53
330
1F
100
AcDbEntity
  8
C-3
  6
Continuous
 62
     2
370
     9
100
AcDbLine
 10
-176.0942260639084
 20
930.8917087864231
 30
0.0
 11
-176.0942260639084
 21
478.8914036106419
 31
0.0
  0
LINE
  5
54
330
1F
100
AcDbEntity
  8
C-3
  6
Continuous
 62
     2
370
     9
100
AcDbLine
 10
-176.0942260639084
 20
478.8914036106419
 30
0.0
 11
-628.0945274249923
 21
478.8914036106419
 31
0.0
  0
LINE
  5
55
330
1F
100
AcDbEntity
  8
C-2
  6
Continuous
 62
     3
370
     9
100
AcDbLine
 10
-627.094176472844
 20
479.8915104221655
 30
0.0
 11
-627.094176472844
 21
929.8916477512669
 31
0.0
  0
LINE
  5
56
330
1F
100
AcDbEntity
  8
C-2
  6
Continuous
 62
     3
370
     9
100
AcDbLine
 10
-177.0940429584396
 20
929.8916477512669
 30
0.0
 11
-627.094176472844
 21
929.8916477512669
 31
0.0
  0
LINE
  5
57
330
1F
100
AcDbEntity
  8
C-3
  6
Continuous
 62
     2
370
     9
100
AcDbLine
 10
-176.0942260639084
 20
930.8917087864231
 30
0.0
 11
-628.0945274249923
 21
930.8917087864231
 31
0.0
  0
LINE
  5
58
330
1F
100
AcDbEntity
  8
C-3
  6
Continuous
 62
     2
370
     9
100
AcDbLine
 10
-628.0945274249923
 20
478.8914036106419
 30
0.0
 11
-628.0945274249923
 21
930.8917087864231
 31
0.0
  0
LINE
  5
59
330
1F
100
AcDbEntity
  8
C-1
  6
JWW_DASHED3
 62
     2
370
     9
100
AcDbLine
 10
-202.0939208881271
 20
904.8915256809545
 30
0.0
 11
-202.0939208881271
 21
504.8916324924778
 31
0.0
  0
LINE
  5
5A
330
1F
100
AcDbEntity
  8
C-1
  6
JWW_DASHED3
 62
     2
370
     9
100
AcDbLine
 10
-202.0939208881271
 20
504.8916324924778
 30
0.0
 11
-602.0943099872483
 21
504.8916324924778
 31
0.0
  0
LINE
  5
5B
330
1F
100
AcDbEntity
  8
C-1
  6
JWW_DASHED3
 62
     2
370
     9
100
AcDbLine
 10
-202.0939208881271
 20
904.8915256809545
 30
0.0
 11
-602.0943099872483
 21
904.8915256809545
 31
0.0
  0
LINE
  5
5C
330
1F
100
AcDbEntity
  8
C-1
  6
JWW_DASHED3
 62
     2
370
     9
100
AcDbLine
 10
-602.0943099872483
 20
504.8916324924778
 30
0.0
 11
-602.0943099872483
 21
904.8915256809545
 31
0.0
  0
LINE
  5
5D
330
1F
100
AcDbEntity
  8
C-5
  6
Continuous
 62
     7
370
     9
100
AcDbLine
 10
-114.5936767475021
 20
371.8914493870091
 30
0.0
 11
-114.5936767475021
 21
306.8918918918919
 31
0.0
  0
LINE
  5
5E
330
1F
100
AcDbEntity
  8
C-5
  6
Continuous
 62
     7
370
     9
100
AcDbLine
 10
-114.5936767475021
 20
306.8918918918919
 30
0.0
 11
-689.5945922748458
 21
306.8918918918919
 31
0.0
  0
LINE
  5
5F
330
1F
100
AcDbEntity
  8
C-5
  6
Continuous
 62
     7
370
     9
100
AcDbLine
 10
-689.5945922748458
 20
371.8914493870091
 30
0.0
 11
-114.5936767475021
 21
371.8914493870091
 31
0.0
  0
LINE
  5
60
330
1F
100
AcDbEntity
  8
C-5
  6
Continuous
 62
     7
370
     9
100
AcDbLine
 10
-689.5945922748458
 20
306.8918918918919
 30
0.0
 11
-689.5945922748458
 21
371.8914493870091
 31
0.0
  0
LINE
  5
61
330
1F
100
AcDbEntity
  8
C-A
  6
Continuous
 62
     3
370
     9
100
AcDbLine
 10
-177.0940429584396
 20
926.8915867161106
 30
0.0
 11
-627.094176472844
 21
926.8915867161106
 31
0.0
  0
LINE
  5
62
330
1F
100
AcDbEntity
  8
C-A
  6
Continuous
 62
     3
370
     9
100
AcDbLine
 10
-435.0935851947678
 20
926.8915867161106
 30
0.0
 11
-435.0935851947678
 21
482.8920749973608
 31
0.0
  0
LINE
  5
63
330
1F
100
AcDbEntity
  8
C-A
  6
Continuous
 62
     3
370
     9
100
AcDbLine
 10
-429.0934631244552
 20
926.8915867161106
 30
0.0
 11
-429.0934631244552
 21
482.8920749973608
 31
0.0
  0
LINE
  5
64
330
1F
100
AcDbEntity
  8
C-A
  6
Continuous
 62
     3
370
     9
100
AcDbLine
 10
-450.093890370549
 20
926.8915867161106
 30
0.0
 11
-450.093890370549
 21
482.8920749973608
 31
0.0
  0
LINE
  5
65
330
1F
100
AcDbEntity
  8
C-A
  6
Continuous
 62
     3
370
     9
100
AcDbLine
 10
-444.0937683002364
 20
926.8915867161106
 30
0.0
 11
-444.0937683002364
 21
482.8920749973608
 31
0.0
  0
LINE
  5
66
330
1F
100
AcDbEntity
  8
C-A
  6
Continuous
 62
     3
370
     9
100
AcDbLine
 10
-465.0937225238692
 20
926.8915867161106
 30
0.0
 11
-465.0937225238692
 21
482.8920749973608
 31
0.0
  0
LINE
  5
67
330
1F
100
AcDbEntity
  8
C-A
  6
Continuous
 62
     3
370
     9
100
AcDbLine
 10
-459.0935851947677
 20
926.8915867161106
 30
0.0
 11
-459.0935851947677
 21
482.8920749973608
 31
0.0
  0
LINE
  5
68
330
1F
100
AcDbEntity
  8
C-A
  6
Continuous
 62
     3
370
     9
100
AcDbLine
 10
-480.0935394184006
 20
926.8915867161106
 30
0.0
 11
-480.0935394184006
 21
482.8920749973608
 31
0.0
  0
LINE
  5
69
330
1F
100
AcDbEntity
  8
C-A
  6
Continuous
 62
     3
370
     9
100
AcDbLine
 10
-474.0934173480881
 20
926.8915867161106
 30
0.0
 11
-474.0934173480881
 21
482.8920749973608
 31
0.0
  0
LINE
  5
6A
330
1F
100
AcDbEntity
  8
C-A
  6
Continuous
 62
     3
370
     9
100
AcDbLine
 10
-495.0938598529709
 20
926.8915867161106
 30
0.0
 11
-495.0938598529709
 21
482.8920749973608
 31
0.0
  0
LINE
  5
6B
330
1F
100
AcDbEntity
  8
C-A
  6
Continuous
 62
     3
370
     9
100
AcDbLine
 10
-489.0937377826583
 20
926.8915867161106
 30
0.0
 11
-489.0937377826583
 21
482.8920749973608
 31
0.0
  0
LINE
  5
6C
330
1F
100
AcDbEntity
  8
C-A
  6
Continuous
 62
     3
370
     9
100
AcDbLine
 10
-510.0936767475021
 20
926.8915867161106
 30
0.0
 11
-510.0936767475021
 21
482.8920749973608
 31
0.0
  0
LINE
  5
6D
330
1F
100
AcDbEntity
  8
C-A
  6
Continuous
 62
     3
370
     9
100
AcDbLine
 10
-504.0935546771896
 20
926.8915867161106
 30
0.0
 11
-504.0935546771896
 21
482.8920749973608
 31
0.0
  0
LINE
  5
6E
330
1F
100
AcDbEntity
  8
C-A
  6
Continuous
 62
     3
370
     9
100
AcDbLine
 10
-525.0939971820724
 20
926.8915867161106
 30
0.0
 11
-525.0939971820724
 21
482.8920749973608
 31
0.0
  0
LINE
  5
6F
330
1F
100
AcDbEntity
  8
C-A
  6
Continuous
 62
     3
370
     9
100
AcDbLine
 10
-519.0938751117599
 20
926.8915867161106
 30
0.0
 11
-519.0938751117599
 21
482.8920749973608
 31
0.0
  0
LINE
  5
70
330
1F
100
AcDbEntity
  8
C-A
  6
Continuous
 62
     3
370
     9
100
AcDbLine
 10
-540.0938140766037
 20
926.8915867161106
 30
0.0
 11
-540.0938140766037
 21
482.8920749973608
 31
0.0
  0
LINE
  5
71
330
1F
100
AcDbEntity
  8
C-A
  6
Continuous
 62
     3
370
     9
100
AcDbLine
 10
-534.0936920062911
 20
926.8915867161106
 30
0.0
 11
-534.0936920062911
 21
482.8920749973608
 31
0.0
  0
LINE
  5
72
330
1F
100
AcDbEntity
  8
C-A
  6
Continuous
 62
     3
370
     9
100
AcDbLine
 10
-555.0936462299239
 20
926.8915867161106
 30
0.0
 11
-555.0936462299239
 21
482.8920749973608
 31
0.0
  0
LINE
  5
73
330
1F
100
AcDbEntity
  8
C-A
  6
Continuous
 62
     3
370
     9
100
AcDbLine
 10
-549.0935089008224
 20
926.8915867161106
 30
0.0
 11
-549.0935089008224
 21
482.8920749973608
 31
0.0
  0
LINE
  5
74
330
1F
100
AcDbEntity
  8
C-A
  6
Continuous
 62
     3
370
     9
100
AcDbLine
 10
-570.0939590350998
 20
926.8915867161106
 30
0.0
 11
-570.0939590350998
 21
482.8920749973608
 31
0.0
  0
LINE
  5
75
330
1F
100
AcDbEntity
  8
C-A
  6
Continuous
 62
     3
370
     9
100
AcDbLine
 10
-564.0938369647872
 20
926.8915867161106
 30
0.0
 11
-564.0938369647872
 21
482.8920749973608
 31
0.0
  0
LINE
  5
76
330
1F
100
AcDbEntity
  8
C-A
  6
Continuous
 62
     3
370
     9
100
AcDbLine
 10
-585.0937835590255
 20
926.8915867161106
 30
0.0
 11
-585.0937835590255
 21
482.8920749973608
 31
0.0
  0
LINE
  5
77
330
1F
100
AcDbEntity
  8
C-A
  6
Continuous
 62
     3
370
     9
100
AcDbLine
 10
-579.0936538593185
 20
926.8915867161106
 30
0.0
 11
-579.0936538593185
 21
482.8920749973608
 31
0.0
  0
LINE
  5
78
330
1F
100
AcDbEntity
  8
C-A
  6
Continuous
 62
     3
370
     9
100
AcDbLine
 10
-600.0941039935958
 20
926.8915867161106
 30
0.0
 11
-600.0941039935958
 21
482.8920749973608
 31
0.0
  0
LINE
  5
79
330
1F
100
AcDbEntity
  8
C-A
  6
Continuous
 62
     3
370
     9
100
AcDbLine
 10
-594.0939742938889
 20
926.8915867161106
 30
0.0
 11
-594.0939742938889
 21
482.8920749973608
 31
0.0
  0
LINE
  5
7A
330
1F
100
AcDbEntity
  8
C-A
  6
Continuous
 62
     3
370
     9
100
AcDbLine
 10
-615.0939208881272
 20
926.8915867161106
 30
0.0
 11
-615.0939208881272
 21
482.8920749973608
 31
0.0
  0
LINE
  5
7B
330
1F
100
AcDbEntity
  8
C-A
  6
Continuous
 62
     3
370
     9
100
AcDbLine
 10
-609.0937988178146
 20
926.8915867161106
 30
0.0
 11
-609.0937988178146
 21
482.8920749973608
 31
0.0
  0
LINE
  5
7C
330
1F
100
AcDbEntity
  8
C-A
  6
Continuous
 62
     3
370
     9
100
AcDbLine
 10
-621.0940505878341
 20
482.8920749973608
 30
0.0
 11
-621.0940505878341
 21
926.8915867161106
 31
0.0
  0
LINE
  5
7D
330
1F
100
AcDbEntity
  8
C-5
  6
Continuous
 62
     7
370
     9
100
AcDbLine
 10
-473.942294301213
 20
527.5246433567359
 30
0.0
 11
-273.9413635150802
 21
527.5246433567359
 31
0.0
  0
LINE
  5
7E
330
1F
100
AcDbEntity
  8
C-5
  6
Continuous
 62
     7
370
     9
100
AcDbLine
 10
-273.9413635150802
 20
527.5246433567359
 30
0.0
 11
-273.9413635150802
 21
617.2897190403294
 31
0.0
  0
LINE
  5
7F
330
1F
100
AcDbEntity
  8
C-5
  6
Continuous
 62
     7
370
     9
100
AcDbLine
 10
-273.9413635150802
 20
617.2897190403294
 30
0.0
 11
-253.9422485248458
 21
567.2899631809546
 31
0.0
  0
LINE
  5
80
330
1F
100
AcDbEntity
  8
C-5
  6
Continuous
 62
     7
370
     9
100
AcDbLine
 10
-253.9422485248458
 20
567.2899631809546
 30
0.0
 11
-284.2084838764083
 21
567.2899631809546
 31
0.0
  0
LINE
  5
81
330
1F
100
AcDbEntity
  8
C-A
  6
Continuous
 62
     3
370
     9
100
AcDbLine
 10
-424.0941650287521
 20
482.8920749973608
 30
0.0
 11
-627.094176472844
 21
482.8920749973608
 31
0.0
  0
LINE
  5
82
330
1F
100
AcDbEntity
  8
C-A
  6
Continuous
 62
     3
370
     9
100
AcDbLine
 10
-195.0939514057052
 20
926.8915867161106
 30
0.0
 11
-195.0939514057052
 21
711.8915561985327
 31
0.0
  0
LINE
  5
83
330
1F
100
AcDbEntity
  8
C-A
  6
Continuous
 62
     3
370
     9
100
AcDbLine
 10
-189.0938293353927
 20
926.8915867161106
 30
0.0
 11
-189.0938293353927
 21
717.891678268845
 31
0.0
  0
LINE
  5
84
330
1F
100
AcDbEntity
  8
C-A
  6
Continuous
 62
     3
370
     9
100
AcDbLine
 10
-210.0937683002365
 20
926.8915867161106
 30
0.0
 11
-210.0937683002365
 21
696.8917393040012
 31
0.0
  0
LINE
  5
85
330
1F
100
AcDbEntity
  8
C-A
  6
Continuous
 62
     3
370
     9
100
AcDbLine
 10
-204.093646229924
 20
926.8915867161106
 30
0.0
 11
-204.093646229924
 21
702.8918613743139
 31
0.0
  0
LINE
  5
86
330
1F
100
AcDbEntity
  8
C-A
  6
Continuous
 62
     3
370
     9
100
AcDbLine
 10
-219.0939514057052
 20
926.8915867161106
 30
0.0
 11
-219.0939514057052
 21
687.8915256809544
 31
0.0
  0
LINE
  5
87
330
1F
100
AcDbEntity
  8
C-A
  6
Continuous
 62
     3
370
     9
100
AcDbLine
 10
-240.0939208881271
 20
926.8915867161106
 30
0.0
 11
-240.0939208881271
 21
666.8918308567356
 31
0.0
  0
LINE
  5
88
330
1F
100
AcDbEntity
  8
C-A
  6
Continuous
 62
     3
370
     9
100
AcDbLine
 10
-234.0937683002365
 20
926.8915867161106
 30
0.0
 11
-234.0937683002365
 21
672.8919529270481
 31
0.0
  0
LINE
  5
89
330
1F
100
AcDbEntity
  8
C-A
  6
Continuous
 62
     3
370
     9
100
AcDbLine
 10
-255.0942260639084
 20
926.8915867161106
 30
0.0
 11
-255.0942260639084
 21
651.8915256809544
 31
0.0
  0
LINE
  5
8A
330
1F
100
AcDbEntity
  8
C-A
  6
Continuous
 62
     3
370
     9
100
AcDbLine
 10
-249.0941039935959
 20
926.8915867161106
 30
0.0
 11
-249.0941039935959
 21
657.8916477512669
 31
0.0
  0
LINE
  5
8B
330
1F
100
AcDbEntity
  8
C-A
  6
Continuous
 62
     3
370
     9
100
AcDbLine
 10
-270.0940429584396
 20
926.8915867161106
 30
0.0
 11
-270.0940429584396
 21
636.8917087864234
 31
0.0
  0
LINE
  5
8C
330
1F
100
AcDbEntity
  8
C-A
  6
Continuous
 62
     3
370
     9
100
AcDbLine
 10
-264.0939208881271
 20
926.8915867161106
 30
0.0
 11
-264.0939208881271
 21
642.8918308567356
 31
0.0
  0
LINE
  5
8D
330
1F
100
AcDbEntity
  8
C-A
  6
Continuous
 62
     3
370
     9
100
AcDbLine
 10
-285.0938598529709
 20
926.8915867161106
 30
0.0
 11
-285.0938598529709
 21
621.891861374314
 31
0.0
  0
LINE
  5
8E
330
1F
100
AcDbEntity
  8
C-A
  6
Continuous
 62
     3
370
     9
100
AcDbLine
 10
-279.0937377826583
 20
926.8915867161106
 30
0.0
 11
-279.0937377826583
 21
627.8920139622045
 31
0.0
  0
LINE
  5
8F
330
1F
100
AcDbEntity
  8
C-A
  6
Continuous
 62
     3
370
     9
100
AcDbLine
 10
-300.0937072650802
 20
926.8915867161106
 30
0.0
 11
-300.0937072650802
 21
606.8920444797825
 31
0.0
  0
LINE
  5
90
330
1F
100
AcDbEntity
  8
C-A
  6
Continuous
 62
     3
370
     9
100
AcDbLine
 10
-294.0935546771896
 20
926.8915867161106
 30
0.0
 11
-294.0935546771896
 21
612.8921665500951
 31
0.0
  0
LINE
  5
91
330
1F
100
AcDbEntity
  8
C-A
  6
Continuous
 62
     3
370
     9
100
AcDbLine
 10
-315.0935241596114
 20
926.8915867161106
 30
0.0
 11
-315.0935241596114
 21
591.8922275852512
 31
0.0
  0
LINE
  5
92
330
1F
100
AcDbEntity
  8
C-A
  6
Continuous
 62
     3
370
     9
100
AcDbLine
 10
-309.093402089299
 20
926.8915867161106
 30
0.0
 11
-309.093402089299
 21
597.8923496555637
 31
0.0
  0
LINE
  5
93
330
1F
100
AcDbEntity
  8
C-A
  6
Continuous
 62
     3
370
     9
100
AcDbLine
 10
-330.0938293353927
 20
926.8915867161106
 30
0.0
 11
-330.0938293353927
 21
576.89192240947
 31
0.0
  0
LINE
  5
94
330
1F
100
AcDbEntity
  8
C-A
  6
Continuous
 62
     3
370
     9
100
AcDbLine
 10
-324.0937072650802
 20
926.8915867161106
 30
0.0
 11
-324.0937072650802
 21
582.8920444797825
 31
0.0
  0
LINE
  5
95
330
1F
100
AcDbEntity
  8
C-A
  6
Continuous
 62
     3
370
     9
100
AcDbLine
 10
-345.093646229924
 20
926.8915867161106
 30
0.0
 11
-345.093646229924
 21
561.8920902561499
 31
0.0
  0
LINE
  5
96
330
1F
100
AcDbEntity
  8
C-A
  6
Continuous
 62
     3
370
     9
100
AcDbLine
 10
-339.0935241596114
 20
926.8915867161106
 30
0.0
 11
-339.0935241596114
 21
567.8922275852515
 31
0.0
  0
LINE
  5
97
330
1F
100
AcDbEntity
  8
C-A
  6
Continuous
 62
     3
370
     9
100
AcDbLine
 10
-360.0934631244552
 20
926.8915867161106
 30
0.0
 11
-360.0934631244552
 21
546.8922733616184
 31
0.0
  0
LINE
  5
98
330
1F
100
AcDbEntity
  8
C-A
  6
Continuous
 62
     3
370
     9
100
AcDbLine
 10
-375.0937988178146
 20
926.8915867161106
 30
0.0
 11
-375.0937988178146
 21
531.8919529270482
 31
0.0
  0
LINE
  5
99
330
1F
100
AcDbEntity
  8
C-A
  6
Continuous
 62
     3
370
     9
100
AcDbLine
 10
-369.0936767475021
 20
926.8915867161106
 30
0.0
 11
-369.0936767475021
 21
537.8923191379857
 31
0.0
  0
LINE
  5
9A
330
1F
100
AcDbEntity
  8
C-A
  6
Continuous
 62
     3
370
     9
100
AcDbLine
 10
-390.0936157123459
 20
926.8915867161106
 30
0.0
 11
-390.0936157123459
 21
516.8923801731419
 31
0.0
  0
LINE
  5
9B
330
1F
100
AcDbEntity
  8
C-A
  6
Continuous
 62
     3
370
     9
100
AcDbLine
 10
-384.0934936420334
 20
926.8915867161106
 30
0.0
 11
-384.0934936420334
 21
522.8925022434544
 31
0.0
  0
LINE
  5
9C
330
1F
100
AcDbEntity
  8
C-A
  6
Continuous
 62
     3
370
     9
100
AcDbLine
 10
-405.0939208881271
 20
926.8915867161106
 30
0.0
 11
-405.0939208881271
 21
501.8920597385716
 31
0.0
  0
LINE
  5
9D
330
1F
100
AcDbEntity
  8
C-A
  6
Continuous
 62
     3
370
     9
100
AcDbLine
 10
-399.0937988178146
 20
926.8915867161106
 30
0.0
 11
-399.0937988178146
 21
507.8921818088841
 31
0.0
  0
LINE
  5
9E
330
1F
100
AcDbEntity
  8
C-A
  6
Continuous
 62
     3
370
     9
100
AcDbLine
 10
-420.0937683002365
 20
926.8915867161106
 30
0.0
 11
-420.0937683002365
 21
486.8922275852512
 31
0.0
  0
LINE
  5
9F
330
1F
100
AcDbEntity
  8
C-A
  6
Continuous
 62
     3
370
     9
100
AcDbLine
 10
-414.0936157123458
 20
926.8915867161106
 30
0.0
 11
-414.0936157123458
 21
492.8923649143528
 31
0.0
  0
LINE
  5
A0
330
1F
100
AcDbEntity
  8
C-A
  6
Continuous
 62
     6
370
     9
100
AcDbLine
 10
-614.5939971820724
 20
921.0256809543919
 30
0.0
 11
-614.5939971820724
 21
925.0256199192356
 31
0.0
  0
LINE
  5
A1
330
1F
100
AcDbEntity
  8
C-A
  6
Continuous
 62
     6
370
     9
100
AcDbLine
 10
-614.5939971820724
 20
925.0256199192356
 30
0.0
 11
-609.5937225238692
 21
923.5258640598607
 31
0.0
  0
LINE
  5
A2
330
1F
100
AcDbEntity
  8
C-A
  6
Continuous
 62
     6
370
     9
100
AcDbLine
 10
-609.5937225238692
 20
922.5259861301731
 30
0.0
 11
-609.5937225238692
 21
923.5258640598607
 31
0.0
  0
LINE
  5
A3
330
1F
100
AcDbEntity
  8
C-A
  6
Continuous
 62
     6
370
     9
100
AcDbLine
 10
-609.5937225238692
 20
922.5259861301731
 30
0.0
 11
-614.5939971820724
 21
921.0256809543919
 31
0.0
  0
LINE
  5
A4
330
1F
100
AcDbEntity
  8
C-A
  6
Continuous
 62
     6
370
     9
100
AcDbLine
 10
-609.0937988178146
 20
922.1539158176731
 30
0.0
 11
-615.0939208881272
 21
920.3538669895482
 31
0.0
  0
LINE
  5
A5
330
1F
100
AcDbEntity
  8
C-A
  6
Continuous
 62
     6
370
     9
100
AcDbLine
 10
-615.0939208881272
 20
925.6979832004856
 30
0.0
 11
-609.0937988178146
 21
923.8979343723609
 31
0.0
  0
LINE
  5
A6
330
1F
100
AcDbEntity
  8
C-A
  6
Continuous
 62
     6
370
     9
100
AcDbLine
 10
-614.5939971820724
 20
900.0257419895481
 30
0.0
 11
-614.5939971820724
 21
904.0256809543919
 31
0.0
  0
LINE
  5
A7
330
1F
100
AcDbEntity
  8
C-A
  6
Continuous
 62
     6
370
     9
100
AcDbLine
 10
-614.5939971820724
 20
904.0256809543919
 30
0.0
 11
-609.5937225238692
 21
902.5258640598609
 31
0.0
  0
LINE
  5
A8
330
1F
100
AcDbEntity
  8
C-A
  6
Continuous
 62
     6
370
     9
100
AcDbLine
 10
-609.5937225238692
 20
901.5260471653295
 30
0.0
 11
-609.5937225238692
 21
902.5258640598609
 31
0.0
  0
LINE
  5
A9
330
1F
100
AcDbEntity
  8
C-A
  6
Continuous
 62
     6
370
     9
100
AcDbLine
 10
-609.5937225238692
 20
901.5260471653295
 30
0.0
 11
-614.5939971820724
 21
900.0257419895481
 31
0.0
  0
LINE
  5
AA
330
1F
100
AcDbEntity
  8
C-A
  6
Continuous
 62
     6
370
     9
100
AcDbLine
 10
-609.0937988178146
 20
901.1539158176731
 30
0.0
 11
-615.0939208881272
 21
899.3539280247044
 31
0.0
  0
LINE
  5
AB
330
1F
100
AcDbEntity
  8
C-A
  6
Continuous
 62
     6
370
     9
100
AcDbLine
 10
-615.0939208881272
 20
904.698044235642
 30
0.0
 11
-609.0937988178146
 21
902.8979954075169
 31
0.0
  0
LINE
  5
AC
330
1F
100
AcDbEntity
  8
C-A
  6
Continuous
 62
     6
370
     9
100
AcDbLine
 10
-609.5937225238692
 20
910.5257419895484
 30
0.0
 11
-609.5937225238692
 21
914.5256199192357
 31
0.0
  0
LINE
  5
AD
330
1F
100
AcDbEntity
  8
C-A
  6
Continuous
 62
     6
370
     9
100
AcDbLine
 10
-609.5937225238692
 20
914.5256199192357
 30
0.0
 11
-614.5939971820724
 21
913.0258640598606
 31
0.0
  0
LINE
  5
AE
330
1F
100
AcDbEntity
  8
C-A
  6
Continuous
 62
     6
370
     9
100
AcDbLine
 10
-614.5939971820724
 20
912.0259861301734
 30
0.0
 11
-614.5939971820724
 21
913.0258640598606
 31
0.0
  0
LINE
  5
AF
330
1F
100
AcDbEntity
  8
C-A
  6
Continuous
 62
     6
370
     9
100
AcDbLine
 10
-614.5939971820724
 20
912.0259861301734
 30
0.0
 11
-609.5937225238692
 21
910.5257419895484
 31
0.0
  0
LINE
  5
B0
330
1F
100
AcDbEntity
  8
C-A
  6
Continuous
 62
     6
370
     9
100
AcDbLine
 10
-615.0939208881272
 20
911.6539158176732
 30
0.0
 11
-609.0937988178146
 21
909.8538669895481
 31
0.0
  0
LINE
  5
B1
330
1F
100
AcDbEntity
  8
C-A
  6
Continuous
 62
     6
370
     9
100
AcDbLine
 10
-609.0937988178146
 20
915.1979832004859
 30
0.0
 11
-615.0939208881272
 21
913.3979343723606
 31
0.0
  0
LINE
  5
B2
330
1F
100
AcDbEntity
  8
C-A
  6
Continuous
 62
     6
370
     9
100
AcDbLine
 10
-614.5939971820724
 20
879.0258030247046
 30
0.0
 11
-614.5939971820724
 21
883.0257419895484
 31
0.0
  0
LINE
  5
B3
330
1F
100
AcDbEntity
  8
C-A
  6
Continuous
 62
     6
370
     9
100
AcDbLine
 10
-614.5939971820724
 20
883.0257419895484
 30
0.0
 11
-609.5937225238692
 21
881.5259250950169
 31
0.0
  0
LINE
  5
B4
330
1F
100
AcDbEntity
  8
C-A
  6
Continuous
 62
     6
370
     9
100
AcDbLine
 10
-609.5937225238692
 20
880.5261082004856
 30
0.0
 11
-609.5937225238692
 21
881.5259250950169
 31
0.0
  0
LINE
  5
B5
330
1F
100
AcDbEntity
  8
C-A
  6
Continuous
 62
     6
370
     9
100
AcDbLine
 10
-609.5937225238692
 20
880.5261082004856
 30
0.0
 11
-614.5939971820724
 21
879.0258030247046
 31
0.0
  0
LINE
  5
B6
330
1F
100
AcDbEntity
  8
C-A
  6
Continuous
 62
     6
370
     9
100
AcDbLine
 10
-609.0937988178146
 20
880.1539768528295
 30
0.0
 11
-615.0939208881272
 21
878.3539280247044
 31
0.0
  0
LINE
  5
B7
330
1F
100
AcDbEntity
  8
C-A
  6
Continuous
 62
     6
370
     9
100
AcDbLine
 10
-615.0939208881272
 20
883.6981052707981
 30
0.0
 11
-609.0937988178146
 21
881.8980564426732
 31
0.0
  0
LINE
  5
B8
330
1F
100
AcDbEntity
  8
C-A
  6
Continuous
 62
     6
370
     9
100
AcDbLine
 10
-609.5937225238692
 20
889.5258030247044
 30
0.0
 11
-609.5937225238692
 21
893.5256809543919
 31
0.0
  0
LINE
  5
B9
330
1F
100
AcDbEntity
  8
C-A
  6
Continuous
 62
     6
370
     9
100
AcDbLine
 10
-609.5937225238692
 20
893.5256809543919
 30
0.0
 11
-614.5939971820724
 21
892.025925095017
 31
0.0
  0
LINE
  5
BA
330
1F
100
AcDbEntity
  8
C-A
  6
Continuous
 62
     6
370
     9
100
AcDbLine
 10
-614.5939971820724
 20
891.0260471653294
 30
0.0
 11
-614.5939971820724
 21
892.025925095017
 31
0.0
  0
LINE
  5
BB
330
1F
100
AcDbEntity
  8
C-A
  6
Continuous
 62
     6
370
     9
100
AcDbLine
 10
-614.5939971820724
 20
891.0260471653294
 30
0.0
 11
-609.5937225238692
 21
889.5258030247044
 31
0.0
  0
LINE
  5
BC
330
1F
100
AcDbEntity
  8
C-A
  6
Continuous
 62
     6
370
     9
100
AcDbLine
 10
-615.0939208881272
 20
890.6539768528294
 30
0.0
 11
-609.0937988178146
 21
888.8539280247045
 31
0.0
  0
LINE
  5
BD
330
1F
100
AcDbEntity
  8
C-A
  6
Continuous
 62
     6
370
     9
100
AcDbLine
 10
-609.0937988178146
 20
894.1980442356419
 30
0.0
 11
-615.0939208881272
 21
892.3979954075171
 31
0.0
  0
LINE
  5
BE
330
1F
100
AcDbEntity
  8
C-A
  6
Continuous
 62
     6
370
     9
100
AcDbLine
 10
-614.5939971820724
 20
858.0258640598606
 30
0.0
 11
-614.5939971820724
 21
862.0258030247044
 31
0.0
  0
LINE
  5
BF
330
1F
100
AcDbEntity
  8
C-A
  6
Continuous
 62
     6
370
     9
100
AcDbLine
 10
-614.5939971820724
 20
862.0258030247044
 30
0.0
 11
-609.5937225238692
 21
860.5259861301732
 31
0.0
  0
LINE
  5
C0
330
1F
100
AcDbEntity
  8
C-A
  6
Continuous
 62
     6
370
     9
100
AcDbLine
 10
-609.5937225238692
 20
859.5261082004856
 30
0.0
 11
-609.5937225238692
 21
860.5259861301732
 31
0.0
  0
LINE
  5
C1
330
1F
100
AcDbEntity
  8
C-A
  6
Continuous
 62
     6
370
     9
100
AcDbLine
 10
-609.5937225238692
 20
859.5261082004856
 30
0.0
 11
-614.5939971820724
 21
858.0258640598606
 31
0.0
  0
LINE
  5
C2
330
1F
100
AcDbEntity
  8
C-A
  6
Continuous
 62
     6
370
     9
100
AcDbLine
 10
-609.0937988178146
 20
859.1540378879856
 30
0.0
 11
-615.0939208881272
 21
857.3539890598607
 31
0.0
  0
LINE
  5
C3
330
1F
100
AcDbEntity
  8
C-A
  6
Continuous
 62
     6
370
     9
100
AcDbLine
 10
-615.0939208881272
 20
862.6981052707981
 30
0.0
 11
-609.0937988178146
 21
860.8981174778294
 31
0.0
  0
LINE
  5
C4
330
1F
100
AcDbEntity
  8
C-A
  6
Continuous
 62
     6
370
     9
100
AcDbLine
 10
-609.5937225238692
 20
868.5258030247044
 30
0.0
 11
-609.5937225238692
 21
872.5257419895481
 31
0.0
  0
LINE
  5
C5
330
1F
100
AcDbEntity
  8
C-A
  6
Continuous
 62
     6
370
     9
100
AcDbLine
 10
-609.5937225238692
 20
872.5257419895481
 30
0.0
 11
-614.5939971820724
 21
871.0259861301731
 31
0.0
  0
LINE
  5
C6
330
1F
100
AcDbEntity
  8
C-A
  6
Continuous
 62
     6
370
     9
100
AcDbLine
 10
-614.5939971820724
 20
870.0261082004857
 30
0.0
 11
-614.5939971820724
 21
871.0259861301731
 31
0.0
  0
LINE
  5
C7
330
1F
100
AcDbEntity
  8
C-A
  6
Continuous
 62
     6
370
     9
100
AcDbLine
 10
-614.5939971820724
 20
870.0261082004857
 30
0.0
 11
-609.5937225238692
 21
868.5258030247044
 31
0.0
  0
LINE
  5
C8
330
1F
100
AcDbEntity
  8
C-A
  6
Continuous
 62
     6
370
     9
100
AcDbLine
 10
-615.0939208881272
 20
869.6540378879856
 30
0.0
 11
-609.0937988178146
 21
867.8539890598606
 31
0.0
  0
LINE
  5
C9
330
1F
100
AcDbEntity
  8
C-A
  6
Continuous
 62
     6
370
     9
100
AcDbLine
 10
-609.0937988178146
 20
873.1981052707982
 30
0.0
 11
-615.0939208881272
 21
871.3980564426731
 31
0.0
  0
LINE
  5
CA
330
1F
100
AcDbEntity
  8
C-A
  6
Continuous
 62
     6
370
     9
100
AcDbLine
 10
-614.5939971820724
 20
837.025925095017
 30
0.0
 11
-614.5939971820724
 21
841.0258030247044
 31
0.0
  0
LINE
  5
CB
330
1F
100
AcDbEntity
  8
C-A
  6
Continuous
 62
     6
370
     9
100
AcDbLine
 10
-614.5939971820724
 20
841.0258030247044
 30
0.0
 11
-609.5937225238692
 21
839.5260471653294
 31
0.0
  0
LINE
  5
CC
330
1F
100
AcDbEntity
  8
C-A
  6
Continuous
 62
     6
370
     9
100
AcDbLine
 10
-609.5937225238692
 20
838.526169235642
 30
0.0
 11
-609.5937225238692
 21
839.5260471653294
 31
0.0
  0
LINE
  5
CD
330
1F
100
AcDbEntity
  8
C-A
  6
Continuous
 62
     6
370
     9
100
AcDbLine
 10
-609.5937225238692
 20
838.526169235642
 30
0.0
 11
-614.5939971820724
 21
837.025925095017
 31
0.0
  0
LINE
  5
CE
330
1F
100
AcDbEntity
  8
C-A
  6
Continuous
 62
     6
370
     9
100
AcDbLine
 10
-609.0937988178146
 20
838.1540989231419
 30
0.0
 11
-615.0939208881272
 21
836.3540500950169
 31
0.0
  0
LINE
  5
CF
330
1F
100
AcDbEntity
  8
C-A
  6
Continuous
 62
     6
370
     9
100
AcDbLine
 10
-615.0939208881272
 20
841.6981663059545
 30
0.0
 11
-609.0937988178146
 21
839.8981174778294
 31
0.0
  0
LINE
  5
D0
330
1F
100
AcDbEntity
  8
C-A
  6
Continuous
 62
     6
370
     9
100
AcDbLine
 10
-609.5937225238692
 20
847.5258640598609
 30
0.0
 11
-609.5937225238692
 21
851.5258030247046
 31
0.0
  0
LINE
  5
D1
330
1F
100
AcDbEntity
  8
C-A
  6
Continuous
 62
     6
370
     9
100
AcDbLine
 10
-609.5937225238692
 20
851.5258030247046
 30
0.0
 11
-614.5939971820724
 21
850.0260471653294
 31
0.0
  0
LINE
  5
D2
330
1F
100
AcDbEntity
  8
C-A
  6
Continuous
 62
     6
370
     9
100
AcDbLine
 10
-614.5939971820724
 20
849.0261692356419
 30
0.0
 11
-614.5939971820724
 21
850.0260471653294
 31
0.0
  0
LINE
  5
D3
330
1F
100
AcDbEntity
  8
C-A
  6
Continuous
 62
     6
370
     9
100
AcDbLine
 10
-614.5939971820724
 20
849.0261692356419
 30
0.0
 11
-609.5937225238692
 21
847.5258640598609
 31
0.0
  0
LINE
  5
D4
330
1F
100
AcDbEntity
  8
C-A
  6
Continuous
 62
     6
370
     9
100
AcDbLine
 10
-615.0939208881272
 20
848.6540378879857
 30
0.0
 11
-609.0937988178146
 21
846.8540500950169
 31
0.0
  0
LINE
  5
D5
330
1F
100
AcDbEntity
  8
C-A
  6
Continuous
 62
     6
370
     9
100
AcDbLine
 10
-609.0937988178146
 20
852.1981663059544
 30
0.0
 11
-615.0939208881272
 21
850.3981174778295
 31
0.0
  0
LINE
  5
D6
330
1F
100
AcDbEntity
  8
C-A
  6
Continuous
 62
     6
370
     9
100
AcDbLine
 10
-599.5936767475021
 20
906.5634617161106
 30
0.0
 11
-599.5936767475021
 21
910.5634006809544
 31
0.0
  0
LINE
  5
D7
330
1F
100
AcDbEntity
  8
C-A
  6
Continuous
 62
     6
370
     9
100
AcDbLine
 10
-599.5936767475021
 20
910.5634006809544
 30
0.0
 11
-594.593905629338
 21
909.0635837864232
 31
0.0
  0
LINE
  5
D8
330
1F
100
AcDbEntity
  8
C-A
  6
Continuous
 62
     6
370
     9
100
AcDbLine
 10
-594.593905629338
 20
908.0637668918919
 30
0.0
 11
-594.593905629338
 21
909.0635837864232
 31
0.0
  0
LINE
  5
D9
330
1F
100
AcDbEntity
  8
C-A
  6
Continuous
 62
     6
370
     9
100
AcDbLine
 10
-594.593905629338
 20
908.0637668918919
 30
0.0
 11
-599.5936767475021
 21
906.5634617161106
 31
0.0
  0
LINE
  5
DA
330
1F
100
AcDbEntity
  8
C-A
  6
Continuous
 62
     6
370
     9
100
AcDbLine
 10
-594.0939742938889
 20
907.6916355442356
 30
0.0
 11
-600.0936080829513
 21
905.8915867161107
 31
0.0
  0
LINE
  5
DB
330
1F
100
AcDbEntity
  8
C-A
  6
Continuous
 62
     6
370
     9
100
AcDbLine
 10
-600.0936080829513
 20
911.2357639622044
 30
0.0
 11
-594.0939742938889
 21
909.4357151340794
 31
0.0
  0
LINE
  5
DC
330
1F
100
AcDbEntity
  8
C-A
  6
Continuous
 62
     6
370
     9
100
AcDbLine
 10
-594.593905629338
 20
917.0634617161107
 30
0.0
 11
-594.593905629338
 21
921.0633396457981
 31
0.0
  0
LINE
  5
DD
330
1F
100
AcDbEntity
  8
C-A
  6
Continuous
 62
     6
370
     9
100
AcDbLine
 10
-594.593905629338
 20
921.0633396457981
 30
0.0
 11
-599.5936767475021
 21
919.5635837864231
 31
0.0
  0
LINE
  5
DE
330
1F
100
AcDbEntity
  8
C-A
  6
Continuous
 62
     6
370
     9
100
AcDbLine
 10
-599.5936767475021
 20
918.5637058567357
 30
0.0
 11
-599.5936767475021
 21
919.5635837864231
 31
0.0
  0
LINE
  5
DF
330
1F
100
AcDbEntity
  8
C-A
  6
Continuous
 62
     6
370
     9
100
AcDbLine
 10
-599.5936767475021
 20
918.5637058567357
 30
0.0
 11
-594.593905629338
 21
917.0634617161107
 31
0.0
  0
LINE
  5
E0
330
1F
100
AcDbEntity
  8
C-A
  6
Continuous
 62
     6
370
     9
100
AcDbLine
 10
-600.0936080829513
 20
918.1916355442356
 30
0.0
 11
-594.0939742938889
 21
916.3915867161106
 31
0.0
  0
LINE
  5
E1
330
1F
100
AcDbEntity
  8
C-A
  6
Continuous
 62
     6
370
     9
100
AcDbLine
 10
-594.0939742938889
 20
921.7357029270482
 30
0.0
 11
-600.0936080829513
 21
919.9356540989231
 31
0.0
  0
LINE
  5
E2
330
1F
100
AcDbEntity
  8
C-A
  6
Continuous
 62
     6
370
     9
100
AcDbLine
 10
-599.5936767475021
 20
885.563522751267
 30
0.0
 11
-599.5936767475021
 21
889.5634617161107
 31
0.0
  0
LINE
  5
E3
330
1F
100
AcDbEntity
  8
C-A
  6
Continuous
 62
     6
370
     9
100
AcDbLine
 10
-599.5936767475021
 20
889.5634617161107
 30
0.0
 11
-594.593905629338
 21
888.0636448215794
 31
0.0
  0
LINE
  5
E4
330
1F
100
AcDbEntity
  8
C-A
  6
Continuous
 62
     6
370
     9
100
AcDbLine
 10
-594.593905629338
 20
887.063766891892
 30
0.0
 11
-594.593905629338
 21
888.0636448215794
 31
0.0
  0
LINE
  5
E5
330
1F
100
AcDbEntity
  8
C-A
  6
Continuous
 62
     6
370
     9
100
AcDbLine
 10
-594.593905629338
 20
887.063766891892
 30
0.0
 11
-599.5936767475021
 21
885.563522751267
 31
0.0
  0
LINE
  5
E6
330
1F
100
AcDbEntity
  8
C-A
  6
Continuous
 62
     6
370
     9
100
AcDbLine
 10
-594.0939742938889
 20
886.6916965793919
 30
0.0
 11
-600.0936080829513
 21
884.8916477512669
 31
0.0
  0
LINE
  5
E7
330
1F
100
AcDbEntity
  8
C-A
  6
Continuous
 62
     6
370
     9
100
AcDbLine
 10
-600.0936080829513
 20
890.2357639622045
 30
0.0
 11
-594.0939742938889
 21
888.4357761692356
 31
0.0
  0
LINE
  5
E8
330
1F
100
AcDbEntity
  8
C-A
  6
Continuous
 62
     6
370
     9
100
AcDbLine
 10
-594.593905629338
 20
896.0634617161109
 30
0.0
 11
-594.593905629338
 21
900.0634006809546
 31
0.0
  0
LINE
  5
E9
330
1F
100
AcDbEntity
  8
C-A
  6
Continuous
 62
     6
370
     9
100
AcDbLine
 10
-594.593905629338
 20
900.0634006809546
 30
0.0
 11
-599.5936767475021
 21
898.5636448215794
 31
0.0
  0
LINE
  5
EA
330
1F
100
AcDbEntity
  8
C-A
  6
Continuous
 62
     6
370
     9
100
AcDbLine
 10
-599.5936767475021
 20
897.5637668918919
 30
0.0
 11
-599.5936767475021
 21
898.5636448215794
 31
0.0
  0
LINE
  5
EB
330
1F
100
AcDbEntity
  8
C-A
  6
Continuous
 62
     6
370
     9
100
AcDbLine
 10
-599.5936767475021
 20
897.5637668918919
 30
0.0
 11
-594.593905629338
 21
896.0634617161109
 31
0.0
  0
LINE
  5
EC
330
1F
100
AcDbEntity
  8
C-A
  6
Continuous
 62
     6
370
     9
100
AcDbLine
 10
-600.0936080829513
 20
897.1916965793921
 30
0.0
 11
-594.0939742938889
 21
895.3916477512669
 31
0.0
  0
LINE
  5
ED
330
1F
100
AcDbEntity
  8
C-A
  6
Continuous
 62
     6
370
     9
100
AcDbLine
 10
-594.0939742938889
 20
900.7357639622044
 30
0.0
 11
-600.0936080829513
 21
898.9357151340795
 31
0.0
  0
LINE
  5
EE
330
1F
100
AcDbEntity
  8
C-A
  6
Continuous
 62
     6
370
     9
100
AcDbLine
 10
-599.5936767475021
 20
864.5635837864231
 30
0.0
 11
-599.5936767475021
 21
868.5634617161109
 31
0.0
  0
LINE
  5
EF
330
1F
100
AcDbEntity
  8
C-A
  6
Continuous
 62
     6
370
     9
100
AcDbLine
 10
-599.5936767475021
 20
868.5634617161109
 30
0.0
 11
-594.593905629338
 21
867.0637058567356
 31
0.0
  0
LINE
  5
F0
330
1F
100
AcDbEntity
  8
C-A
  6
Continuous
 62
     6
370
     9
100
AcDbLine
 10
-594.593905629338
 20
866.0638279270481
 30
0.0
 11
-594.593905629338
 21
867.0637058567356
 31
0.0
  0
LINE
  5
F1
330
1F
100
AcDbEntity
  8
C-A
  6
Continuous
 62
     6
370
     9
100
AcDbLine
 10
-594.593905629338
 20
866.0638279270481
 30
0.0
 11
-599.5936767475021
 21
864.5635837864231
 31
0.0
  0
LINE
  5
F2
330
1F
100
AcDbEntity
  8
C-A
  6
Continuous
 62
     6
370
     9
100
AcDbLine
 10
-594.0939742938889
 20
865.6917576145484
 30
0.0
 11
-600.0936080829513
 21
863.8917087864231
 31
0.0
  0
LINE
  5
F3
330
1F
100
AcDbEntity
  8
C-A
  6
Continuous
 62
     6
370
     9
100
AcDbLine
 10
-600.0936080829513
 20
869.2358249973606
 30
0.0
 11
-594.0939742938889
 21
867.4357761692357
 31
0.0
  0
LINE
  5
F4
330
1F
100
AcDbEntity
  8
C-A
  6
Continuous
 62
     6
370
     9
100
AcDbLine
 10
-594.593905629338
 20
875.0635227512669
 30
0.0
 11
-594.593905629338
 21
879.0634617161106
 31
0.0
  0
LINE
  5
F5
330
1F
100
AcDbEntity
  8
C-A
  6
Continuous
 62
     6
370
     9
100
AcDbLine
 10
-594.593905629338
 20
879.0634617161106
 30
0.0
 11
-599.5936767475021
 21
877.5637058567359
 31
0.0
  0
LINE
  5
F6
330
1F
100
AcDbEntity
  8
C-A
  6
Continuous
 62
     6
370
     9
100
AcDbLine
 10
-599.5936767475021
 20
876.5638279270481
 30
0.0
 11
-599.5936767475021
 21
877.5637058567359
 31
0.0
  0
LINE
  5
F7
330
1F
100
AcDbEntity
  8
C-A
  6
Continuous
 62
     6
370
     9
100
AcDbLine
 10
-599.5936767475021
 20
876.5638279270481
 30
0.0
 11
-594.593905629338
 21
875.0635227512669
 31
0.0
  0
LINE
  5
F8
330
1F
100
AcDbEntity
  8
C-A
  6
Continuous
 62
     6
370
     9
100
AcDbLine
 10
-600.0936080829513
 20
876.1916965793919
 30
0.0
 11
-594.0939742938889
 21
874.3917087864234
 31
0.0
  0
LINE
  5
F9
330
1F
100
AcDbEntity
  8
C-A
  6
Continuous
 62
     6
370
     9
100
AcDbLine
 10
-594.0939742938889
 20
879.7358249973606
 30
0.0
 11
-600.0936080829513
 21
877.9357761692356
 31
0.0
  0
LINE
  5
FA
330
1F
100
AcDbEntity
  8
C-A
  6
Continuous
 62
     6
370
     9
100
AcDbLine
 10
-594.593905629338
 20
854.0635837864232
 30
0.0
 11
-594.593905629338
 21
858.063522751267
 31
0.0
  0
LINE
  5
FB
330
1F
100
AcDbEntity
  8
C-A
  6
Continuous
 62
     6
370
     9
100
AcDbLine
 10
-594.593905629338
 20
858.063522751267
 30
0.0
 11
-599.5936767475021
 21
856.5637058567356
 31
0.0
  0
LINE
  5
FC
330
1F
100
AcDbEntity
  8
C-A
  6
Continuous
 62
     6
370
     9
100
AcDbLine
 10
-599.5936767475021
 20
855.5638889622046
 30
0.0
 11
-599.5936767475021
 21
856.5637058567356
 31
0.0
  0
LINE
  5
FD
330
1F
100
AcDbEntity
  8
C-A
  6
Continuous
 62
     6
370
     9
100
AcDbLine
 10
-599.5936767475021
 20
855.5638889622046
 30
0.0
 11
-594.593905629338
 21
854.0635837864232
 31
0.0
  0
LINE
  5
FE
330
1F
100
AcDbEntity
  8
C-A
  6
Continuous
 62
     6
370
     9
100
AcDbLine
 10
-600.0936080829513
 20
855.1917576145481
 30
0.0
 11
-594.0939742938889
 21
853.3917087864231
 31
0.0
  0
LINE
  5
FF
330
1F
100
AcDbEntity
  8
C-A
  6
Continuous
 62
     6
370
     9
100
AcDbLine
 10
-594.0939742938889
 20
858.7358860325171
 30
0.0
 11
-600.0936080829513
 21
856.9358372043919
 31
0.0
  0
LINE
  5
100
330
1F
100
AcDbEntity
  8
C-A
  6
Continuous
 62
     6
370
     9
100
AcDbLine
 10
-584.5938522235764
 20
919.6354221653294
 30
0.0
 11
-584.5938522235764
 21
923.6353611301731
 31
0.0
  0
LINE
  5
101
330
1F
100
AcDbEntity
  8
C-A
  6
Continuous
 62
     6
370
     9
100
AcDbLine
 10
-584.5938522235764
 20
923.6353611301731
 30
0.0
 11
-579.5940811054123
 21
922.1355442356421
 31
0.0
  0
LINE
  5
102
330
1F
100
AcDbEntity
  8
C-A
  6
Continuous
 62
     6
370
     9
100
AcDbLine
 10
-579.5940811054123
 20
921.1357273411107
 30
0.0
 11
-579.5940811054123
 21
922.1355442356421
 31
0.0
  0
LINE
  5
103
330
1F
100
AcDbEntity
  8
C-A
  6
Continuous
 62
     6
370
     9
100
AcDbLine
 10
-579.5940811054123
 20
921.1357273411107
 30
0.0
 11
-584.5938522235764
 21
919.6354221653294
 31
0.0
  0
LINE
  5
104
330
1F
100
AcDbEntity
  8
C-A
  6
Continuous
 62
     6
370
     9
100
AcDbLine
 10
-579.0936538593185
 20
920.7635959934544
 30
0.0
 11
-585.0937835590255
 21
918.9635471653296
 31
0.0
  0
LINE
  5
105
330
1F
100
AcDbEntity
  8
C-A
  6
Continuous
 62
     6
370
     9
100
AcDbLine
 10
-585.0937835590255
 20
924.3076633762669
 30
0.0
 11
-579.0936538593185
 21
922.5076755832981
 31
0.0
  0
LINE
  5
106
330
1F
100
AcDbEntity
  8
C-A
  6
Continuous
 62
     6
370
     9
100
AcDbLine
 10
-584.5938522235764
 20
898.6354832004859
 30
0.0
 11
-584.5938522235764
 21
902.6353611301732
 31
0.0
  0
LINE
  5
107
330
1F
100
AcDbEntity
  8
C-A
  6
Continuous
 62
     6
370
     9
100
AcDbLine
 10
-584.5938522235764
 20
902.6353611301732
 30
0.0
 11
-579.5940811054123
 21
901.1356052707981
 31
0.0
  0
LINE
  5
108
330
1F
100
AcDbEntity
  8
C-A
  6
Continuous
 62
     6
370
     9
100
AcDbLine
 10
-579.5940811054123
 20
900.1357273411109
 30
0.0
 11
-579.5940811054123
 21
901.1356052707981
 31
0.0
  0
LINE
  5
109
330
1F
100
AcDbEntity
  8
C-A
  6
Continuous
 62
     6
370
     9
100
AcDbLine
 10
-579.5940811054123
 20
900.1357273411109
 30
0.0
 11
-584.5938522235764
 21
898.6354832004859
 31
0.0
  0
LINE
  5
10A
330
1F
100
AcDbEntity
  8
C-A
  6
Continuous
 62
     6
370
     9
100
AcDbLine
 10
-579.0936538593185
 20
899.7636570286107
 30
0.0
 11
-585.0937835590255
 21
897.9636082004856
 31
0.0
  0
LINE
  5
10B
330
1F
100
AcDbEntity
  8
C-A
  6
Continuous
 62
     6
370
     9
100
AcDbLine
 10
-585.0937835590255
 20
903.3077244114234
 30
0.0
 11
-579.0936538593185
 21
901.5076755832981
 31
0.0
  0
LINE
  5
10C
330
1F
100
AcDbEntity
  8
C-A
  6
Continuous
 62
     6
370
     9
100
AcDbLine
 10
-579.5940811054123
 20
909.1354221653294
 30
0.0
 11
-579.5940811054123
 21
913.1353611301731
 31
0.0
  0
LINE
  5
10D
330
1F
100
AcDbEntity
  8
C-A
  6
Continuous
 62
     6
370
     9
100
AcDbLine
 10
-579.5940811054123
 20
913.1353611301731
 30
0.0
 11
-584.5938522235764
 21
911.6356052707982
 31
0.0
  0
LINE
  5
10E
330
1F
100
AcDbEntity
  8
C-A
  6
Continuous
 62
     6
370
     9
100
AcDbLine
 10
-584.5938522235764
 20
910.6357273411106
 30
0.0
 11
-584.5938522235764
 21
911.6356052707982
 31
0.0
  0
LINE
  5
10F
330
1F
100
AcDbEntity
  8
C-A
  6
Continuous
 62
     6
370
     9
100
AcDbLine
 10
-584.5938522235764
 20
910.6357273411106
 30
0.0
 11
-579.5940811054123
 21
909.1354221653294
 31
0.0
  0
LINE
  5
110
330
1F
100
AcDbEntity
  8
C-A
  6
Continuous
 62
     6
370
     9
100
AcDbLine
 10
-585.0937835590255
 20
910.2636570286106
 30
0.0
 11
-579.0936538593185
 21
908.4636082004857
 31
0.0
  0
LINE
  5
111
330
1F
100
AcDbEntity
  8
C-A
  6
Continuous
 62
     6
370
     9
100
AcDbLine
 10
-579.0936538593185
 20
913.8077244114231
 30
0.0
 11
-585.0937835590255
 21
912.0076755832984
 31
0.0
  0
LINE
  5
112
330
1F
100
AcDbEntity
  8
C-A
  6
Continuous
 62
     6
370
     9
100
AcDbLine
 10
-584.5938522235764
 20
877.6355442356419
 30
0.0
 11
-584.5938522235764
 21
881.6354221653294
 31
0.0
  0
LINE
  5
113
330
1F
100
AcDbEntity
  8
C-A
  6
Continuous
 62
     6
370
     9
100
AcDbLine
 10
-584.5938522235764
 20
881.6354221653294
 30
0.0
 11
-579.5940811054123
 21
880.1356663059545
 31
0.0
  0
LINE
  5
114
330
1F
100
AcDbEntity
  8
C-A
  6
Continuous
 62
     6
370
     9
100
AcDbLine
 10
-579.5940811054123
 20
879.1357883762669
 30
0.0
 11
-579.5940811054123
 21
880.1356663059545
 31
0.0
  0
LINE
  5
115
330
1F
100
AcDbEntity
  8
C-A
  6
Continuous
 62
     6
370
     9
100
AcDbLine
 10
-579.5940811054123
 20
879.1357883762669
 30
0.0
 11
-584.5938522235764
 21
877.6355442356419
 31
0.0
  0
LINE
  5
116
330
1F
100
AcDbEntity
  8
C-A
  6
Continuous
 62
     6
370
     9
100
AcDbLine
 10
-579.0936538593185
 20
878.7637180637669
 30
0.0
 11
-585.0937835590255
 21
876.963669235642
 31
0.0
  0
LINE
  5
117
330
1F
100
AcDbEntity
  8
C-A
  6
Continuous
 62
     6
370
     9
100
AcDbLine
 10
-585.0937835590255
 20
882.3077854465794
 30
0.0
 11
-579.0936538593185
 21
880.5077366184546
 31
0.0
  0
LINE
  5
118
330
1F
100
AcDbEntity
  8
C-A
  6
Continuous
 62
     6
370
     9
100
AcDbLine
 10
-579.5940811054123
 20
888.1354832004856
 30
0.0
 11
-579.5940811054123
 21
892.1354221653294
 31
0.0
  0
LINE
  5
119
330
1F
100
AcDbEntity
  8
C-A
  6
Continuous
 62
     6
370
     9
100
AcDbLine
 10
-579.5940811054123
 20
892.1354221653294
 30
0.0
 11
-584.5938522235764
 21
890.6356052707984
 31
0.0
  0
LINE
  5
11A
330
1F
100
AcDbEntity
  8
C-A
  6
Continuous
 62
     6
370
     9
100
AcDbLine
 10
-584.5938522235764
 20
889.635788376267
 30
0.0
 11
-584.5938522235764
 21
890.6356052707984
 31
0.0
  0
LINE
  5
11B
330
1F
100
AcDbEntity
  8
C-A
  6
Continuous
 62
     6
370
     9
100
AcDbLine
 10
-584.5938522235764
 20
889.635788376267
 30
0.0
 11
-579.5940811054123
 21
888.1354832004856
 31
0.0
  0
LINE
  5
11C
330
1F
100
AcDbEntity
  8
C-A
  6
Continuous
 62
     6
370
     9
100
AcDbLine
 10
-585.0937835590255
 20
889.2636570286106
 30
0.0
 11
-579.0936538593185
 21
887.4636692356419
 31
0.0
  0
LINE
  5
11D
330
1F
100
AcDbEntity
  8
C-A
  6
Continuous
 62
     6
370
     9
100
AcDbLine
 10
-579.0936538593185
 20
892.8077854465795
 30
0.0
 11
-585.0937835590255
 21
891.0077366184544
 31
0.0
  0
LINE
  5
11E
330
1F
100
AcDbEntity
  8
C-A
  6
Continuous
 62
     6
370
     9
100
AcDbLine
 10
-579.5940811054123
 20
867.1355442356421
 30
0.0
 11
-579.5940811054123
 21
871.1354832004859
 31
0.0
  0
LINE
  5
11F
330
1F
100
AcDbEntity
  8
C-A
  6
Continuous
 62
     6
370
     9
100
AcDbLine
 10
-579.5940811054123
 20
871.1354832004859
 30
0.0
 11
-584.5938522235764
 21
869.6356663059544
 31
0.0
  0
LINE
  5
120
330
1F
100
AcDbEntity
  8
C-A
  6
Continuous
 62
     6
370
     9
100
AcDbLine
 10
-584.5938522235764
 20
868.6358494114231
 30
0.0
 11
-584.5938522235764
 21
869.6356663059544
 31
0.0
  0
LINE
  5
121
330
1F
100
AcDbEntity
  8
C-A
  6
Continuous
 62
     6
370
     9
100
AcDbLine
 10
-584.5938522235764
 20
868.6358494114231
 30
0.0
 11
-579.5940811054123
 21
867.1355442356421
 31
0.0
  0
LINE
  5
122
330
1F
100
AcDbEntity
  8
C-A
  6
Continuous
 62
     6
370
     9
100
AcDbLine
 10
-585.0937835590255
 20
868.263718063767
 30
0.0
 11
-579.0936538593185
 21
866.4636692356419
 31
0.0
  0
LINE
  5
123
330
1F
100
AcDbEntity
  8
C-A
  6
Continuous
 62
     6
370
     9
100
AcDbLine
 10
-579.0936538593185
 20
871.8078464817356
 30
0.0
 11
-585.0937835590255
 21
870.0077976536107
 31
0.0
  0
LINE
  5
124
330
1F
100
AcDbEntity
  8
C-A
  6
Continuous
 62
     6
370
     9
100
AcDbLine
 10
-569.5935394184005
 20
909.7736057590794
 30
0.0
 11
-569.5935394184005
 21
913.7735447239231
 31
0.0
  0
LINE
  5
125
330
1F
100
AcDbEntity
  8
C-A
  6
Continuous
 62
     6
370
     9
100
AcDbLine
 10
-569.5935394184005
 20
913.7735447239231
 30
0.0
 11
-564.5937606708419
 21
912.273727829392
 31
0.0
  0
LINE
  5
126
330
1F
100
AcDbEntity
  8
C-A
  6
Continuous
 62
     6
370
     9
100
AcDbLine
 10
-564.5937606708419
 20
911.2739109348606
 30
0.0
 11
-564.5937606708419
 21
912.273727829392
 31
0.0
  0
LINE
  5
127
330
1F
100
AcDbEntity
  8
C-A
  6
Continuous
 62
     6
370
     9
100
AcDbLine
 10
-564.5937606708419
 20
911.2739109348606
 30
0.0
 11
-569.5935394184005
 21
909.7736057590794
 31
0.0
  0
LINE
  5
128
330
1F
100
AcDbEntity
  8
C-A
  6
Continuous
 62
     6
370
     9
100
AcDbLine
 10
-564.0938369647872
 20
910.9017795872044
 30
0.0
 11
-570.0939590350998
 21
909.1017307590795
 31
0.0
  0
LINE
  5
129
330
1F
100
AcDbEntity
  8
C-A
  6
Continuous
 62
     6
370
     9
100
AcDbLine
 10
-570.0939590350998
 20
914.4459080051731
 30
0.0
 11
-564.0938369647872
 21
912.6458591770481
 31
0.0
  0
LINE
  5
12A
330
1F
100
AcDbEntity
  8
C-A
  6
Continuous
 62
     6
370
     9
100
AcDbLine
 10
-564.5937606708419
 20
920.2736057590795
 30
0.0
 11
-564.5937606708419
 21
924.2734836887669
 31
0.0
  0
LINE
  5
12B
330
1F
100
AcDbEntity
  8
C-A
  6
Continuous
 62
     6
370
     9
100
AcDbLine
 10
-564.5937606708419
 20
924.2734836887669
 30
0.0
 11
-569.5935394184005
 21
922.7737278293919
 31
0.0
  0
LINE
  5
12C
330
1F
100
AcDbEntity
  8
C-A
  6
Continuous
 62
     6
370
     9
100
AcDbLine
 10
-569.5935394184005
 20
921.7738498997045
 30
0.0
 11
-569.5935394184005
 21
922.7737278293919
 31
0.0
  0
LINE
  5
12D
330
1F
100
AcDbEntity
  8
C-A
  6
Continuous
 62
     6
370
     9
100
AcDbLine
 10
-569.5935394184005
 20
921.7738498997045
 30
0.0
 11
-564.5937606708419
 21
920.2736057590795
 31
0.0
  0
LINE
  5
12E
330
1F
100
AcDbEntity
  8
C-A
  6
Continuous
 62
     6
370
     9
100
AcDbLine
 10
-570.0939590350998
 20
921.4017795872044
 30
0.0
 11
-564.0938369647872
 21
919.6017307590794
 31
0.0
  0
LINE
  5
12F
330
1F
100
AcDbEntity
  8
C-A
  6
Continuous
 62
     6
370
     9
100
AcDbLine
 10
-564.0938369647872
 20
924.945846970017
 30
0.0
 11
-570.0939590350998
 21
923.1457981418919
 31
0.0
  0
LINE
  5
130
330
1F
100
AcDbEntity
  8
C-A
  6
Continuous
 62
     6
370
     9
100
AcDbLine
 10
-569.5935394184005
 20
888.7736667942357
 30
0.0
 11
-569.5935394184005
 21
892.7736057590795
 31
0.0
  0
LINE
  5
131
330
1F
100
AcDbEntity
  8
C-A
  6
Continuous
 62
     6
370
     9
100
AcDbLine
 10
-569.5935394184005
 20
892.7736057590795
 30
0.0
 11
-564.5937606708419
 21
891.2737888645481
 31
0.0
  0
LINE
  5
132
330
1F
100
AcDbEntity
  8
C-A
  6
Continuous
 62
     6
370
     9
100
AcDbLine
 10
-564.5937606708419
 20
890.2739109348607
 30
0.0
 11
-564.5937606708419
 21
891.2737888645481
 31
0.0
  0
LINE
  5
133
330
1F
100
AcDbEntity
  8
C-A
  6
Continuous
 62
     6
370
     9
100
AcDbLine
 10
-564.5937606708419
 20
890.2739109348607
 30
0.0
 11
-569.5935394184005
 21
888.7736667942357
 31
0.0
  0
LINE
  5
134
330
1F
100
AcDbEntity
  8
C-A
  6
Continuous
 62
     6
370
     9
100
AcDbLine
 10
-564.0938369647872
 20
889.9018406223606
 30
0.0
 11
-570.0939590350998
 21
888.1017917942356
 31
0.0
  0
LINE
  5
135
330
1F
100
AcDbEntity
  8
C-A
  6
Continuous
 62
     6
370
     9
100
AcDbLine
 10
-570.0939590350998
 20
893.4459080051732
 30
0.0
 11
-564.0938369647872
 21
891.6459202122044
 31
0.0
  0
LINE
  5
136
330
1F
100
AcDbEntity
  8
C-A
  6
Continuous
 62
     6
370
     9
100
AcDbLine
 10
-564.5937606708419
 20
899.2736057590796
 30
0.0
 11
-564.5937606708419
 21
903.2735447239234
 31
0.0
  0
LINE
  5
137
330
1F
100
AcDbEntity
  8
C-A
  6
Continuous
 62
     6
370
     9
100
AcDbLine
 10
-564.5937606708419
 20
903.2735447239234
 30
0.0
 11
-569.5935394184005
 21
901.7737888645481
 31
0.0
  0
LINE
  5
138
330
1F
100
AcDbEntity
  8
C-A
  6
Continuous
 62
     6
370
     9
100
AcDbLine
 10
-569.5935394184005
 20
900.7739109348606
 30
0.0
 11
-569.5935394184005
 21
901.7737888645481
 31
0.0
  0
LINE
  5
139
330
1F
100
AcDbEntity
  8
C-A
  6
Continuous
 62
     6
370
     9
100
AcDbLine
 10
-569.5935394184005
 20
900.7739109348606
 30
0.0
 11
-564.5937606708419
 21
899.2736057590796
 31
0.0
  0
LINE
  5
13A
330
1F
100
AcDbEntity
  8
C-A
  6
Continuous
 62
     6
370
     9
100
AcDbLine
 10
-570.0939590350998
 20
900.4018406223609
 30
0.0
 11
-564.0938369647872
 21
898.6017917942356
 31
0.0
  0
LINE
  5
13B
330
1F
100
AcDbEntity
  8
C-A
  6
Continuous
 62
     6
370
     9
100
AcDbLine
 10
-564.0938369647872
 20
903.9459080051731
 30
0.0
 11
-570.0939590350998
 21
902.1458591770482
 31
0.0
  0
LINE
  5
13C
330
1F
100
AcDbEntity
  8
C-A
  6
Continuous
 62
     6
370
     9
100
AcDbLine
 10
-626.594248952092
 20
897.2310642551734
 30
0.0
 11
-626.594248952092
 21
901.2310032200171
 31
0.0
  0
LINE
  5
13D
330
1F
100
AcDbEntity
  8
C-A
  6
Continuous
 62
     6
370
     9
100
AcDbLine
 10
-626.594248952092
 20
901.2310032200171
 30
0.0
 11
-621.5939819232834
 21
899.7311863254856
 31
0.0
  0
LINE
  5
13E
330
1F
100
AcDbEntity
  8
C-A
  6
Continuous
 62
     6
370
     9
100
AcDbLine
 10
-621.5939819232834
 20
898.7313694309544
 30
0.0
 11
-621.5939819232834
 21
899.7311863254856
 31
0.0
  0
LINE
  5
13F
330
1F
100
AcDbEntity
  8
C-A
  6
Continuous
 62
     6
370
     9
100
AcDbLine
 10
-621.5939819232834
 20
898.7313694309544
 30
0.0
 11
-626.594248952092
 21
897.2310642551734
 31
0.0
  0
LINE
  5
140
330
1F
100
AcDbEntity
  8
C-A
  6
Continuous
 62
     6
370
     9
100
AcDbLine
 10
-621.0940505878341
 20
898.3592380832982
 30
0.0
 11
-627.094176472844
 21
896.5591892551731
 31
0.0
  0
LINE
  5
141
330
1F
100
AcDbEntity
  8
C-A
  6
Continuous
 62
     6
370
     9
100
AcDbLine
 10
-627.094176472844
 20
901.9033054661109
 30
0.0
 11
-621.0940505878341
 21
900.103317673142
 31
0.0
  0
LINE
  5
142
330
1F
100
AcDbEntity
  8
C-A
  6
Continuous
 62
     6
370
     9
100
AcDbLine
 10
-621.5939819232834
 20
907.7310642551731
 30
0.0
 11
-621.5939819232834
 21
911.7309421848606
 31
0.0
  0
LINE
  5
143
330
1F
100
AcDbEntity
  8
C-A
  6
Continuous
 62
     6
370
     9
100
AcDbLine
 10
-621.5939819232834
 20
911.7309421848606
 30
0.0
 11
-626.594248952092
 21
910.2311863254857
 31
0.0
  0
LINE
  5
144
330
1F
100
AcDbEntity
  8
C-A
  6
Continuous
 62
     6
370
     9
100
AcDbLine
 10
-626.594248952092
 20
909.2313083957981
 30
0.0
 11
-626.594248952092
 21
910.2311863254857
 31
0.0
  0
LINE
  5
145
330
1F
100
AcDbEntity
  8
C-A
  6
Continuous
 62
     6
370
     9
100
AcDbLine
 10
-626.594248952092
 20
909.2313083957981
 30
0.0
 11
-621.5939819232834
 21
907.7310642551731
 31
0.0
  0
LINE
  5
146
330
1F
100
AcDbEntity
  8
C-A
  6
Continuous
 62
     6
370
     9
100
AcDbLine
 10
-627.094176472844
 20
908.8592380832981
 30
0.0
 11
-621.0940505878341
 21
907.0591892551732
 31
0.0
  0
LINE
  5
147
330
1F
100
AcDbEntity
  8
C-A
  6
Continuous
 62
     6
370
     9
100
AcDbLine
 10
-621.0940505878341
 20
912.4033054661106
 30
0.0
 11
-627.094176472844
 21
910.6032566379859
 31
0.0
  0
LINE
  5
148
330
1F
100
AcDbEntity
  8
C-A
  6
Continuous
 62
     6
370
     9
100
AcDbLine
 10
-626.594248952092
 20
918.2310032200169
 30
0.0
 11
-626.594248952092
 21
922.2309421848606
 31
0.0
  0
LINE
  5
149
330
1F
100
AcDbEntity
  8
C-A
  6
Continuous
 62
     6
370
     9
100
AcDbLine
 10
-626.594248952092
 20
922.2309421848606
 30
0.0
 11
-621.5939819232834
 21
920.7311252903296
 31
0.0
  0
LINE
  5
14A
330
1F
100
AcDbEntity
  8
C-A
  6
Continuous
 62
     6
370
     9
100
AcDbLine
 10
-621.5939819232834
 20
919.7313083957982
 30
0.0
 11
-621.5939819232834
 21
920.7311252903296
 31
0.0
  0
LINE
  5
14B
330
1F
100
AcDbEntity
  8
C-A
  6
Continuous
 62
     6
370
     9
100
AcDbLine
 10
-621.5939819232834
 20
919.7313083957982
 30
0.0
 11
-626.594248952092
 21
918.2310032200169
 31
0.0
  0
LINE
  5
14C
330
1F
100
AcDbEntity
  8
C-A
  6
Continuous
 62
     6
370
     9
100
AcDbLine
 10
-621.0940505878341
 20
919.3591770481419
 30
0.0
 11
-627.094176472844
 21
917.5591282200171
 31
0.0
  0
LINE
  5
14D
330
1F
100
AcDbEntity
  8
C-A
  6
Continuous
 62
     6
370
     9
100
AcDbLine
 10
-627.094176472844
 20
922.9033054661107
 30
0.0
 11
-621.0940505878341
 21
921.1032566379856
 31
0.0
  0
LINE
  5
14E
330
1F
100
AcDbEntity
  8
C-A
  6
Continuous
 62
     6
370
     9
100
AcDbLine
 10
-626.594248952092
 20
876.2311252903294
 30
0.0
 11
-626.594248952092
 21
880.2310642551731
 31
0.0
  0
LINE
  5
14F
330
1F
100
AcDbEntity
  8
C-A
  6
Continuous
 62
     6
370
     9
100
AcDbLine
 10
-626.594248952092
 20
880.2310642551731
 30
0.0
 11
-621.5939819232834
 21
878.731247360642
 31
0.0
  0
LINE
  5
150
330
1F
100
AcDbEntity
  8
C-A
  6
Continuous
 62
     6
370
     9
100
AcDbLine
 10
-621.5939819232834
 20
877.7313694309544
 30
0.0
 11
-621.5939819232834
 21
878.731247360642
 31
0.0
  0
LINE
  5
151
330
1F
100
AcDbEntity
  8
C-A
  6
Continuous
 62
     6
370
     9
100
AcDbLine
 10
-621.5939819232834
 20
877.7313694309544
 30
0.0
 11
-626.594248952092
 21
876.2311252903294
 31
0.0
  0
LINE
  5
152
330
1F
100
AcDbEntity
  8
C-A
  6
Continuous
 62
     6
370
     9
100
AcDbLine
 10
-621.0940505878341
 20
877.3592991184544
 30
0.0
 11
-627.094176472844
 21
875.5592502903295
 31
0.0
  0
LINE
  5
153
330
1F
100
AcDbEntity
  8
C-A
  6
Continuous
 62
     6
370
     9
100
AcDbLine
 10
-627.094176472844
 20
880.9033665012669
 30
0.0
 11
-621.0940505878341
 21
879.1033176731421
 31
0.0
  0
LINE
  5
154
330
1F
100
AcDbEntity
  8
C-A
  6
Continuous
 62
     6
370
     9
100
AcDbLine
 10
-621.5939819232834
 20
886.7310642551731
 30
0.0
 11
-621.5939819232834
 21
890.7310032200169
 31
0.0
  0
LINE
  5
155
330
1F
100
AcDbEntity
  8
C-A
  6
Continuous
 62
     6
370
     9
100
AcDbLine
 10
-621.5939819232834
 20
890.7310032200169
 30
0.0
 11
-626.594248952092
 21
889.2312473606419
 31
0.0
  0
LINE
  5
156
330
1F
100
AcDbEntity
  8
C-A
  6
Continuous
 62
     6
370
     9
100
AcDbLine
 10
-626.594248952092
 20
888.2313694309545
 30
0.0
 11
-626.594248952092
 21
889.2312473606419
 31
0.0
  0
LINE
  5
157
330
1F
100
AcDbEntity
  8
C-A
  6
Continuous
 62
     6
370
     9
100
AcDbLine
 10
-626.594248952092
 20
888.2313694309545
 30
0.0
 11
-621.5939819232834
 21
886.7310642551731
 31
0.0
  0
LINE
  5
158
330
1F
100
AcDbEntity
  8
C-A
  6
Continuous
 62
     6
370
     9
100
AcDbLine
 10
-627.094176472844
 20
887.8592991184544
 30
0.0
 11
-621.0940505878341
 21
886.0592502903294
 31
0.0
  0
LINE
  5
159
330
1F
100
AcDbEntity
  8
C-A
  6
Continuous
 62
     6
370
     9
100
AcDbLine
 10
-621.0940505878341
 20
891.403366501267
 30
0.0
 11
-627.094176472844
 21
889.6033176731419
 31
0.0
  0
LINE
  5
15A
330
1F
100
AcDbEntity
  8
C-A
  6
Continuous
 62
     6
370
     9
100
AcDbLine
 10
-626.594248952092
 20
855.2311863254857
 30
0.0
 11
-626.594248952092
 21
859.2310642551731
 31
0.0
  0
LINE
  5
15B
330
1F
100
AcDbEntity
  8
C-A
  6
Continuous
 62
     6
370
     9
100
AcDbLine
 10
-626.594248952092
 20
859.2310642551731
 30
0.0
 11
-621.5939819232834
 21
857.7313083957981
 31
0.0
  0
LINE
  5
15C
330
1F
100
AcDbEntity
  8
C-A
  6
Continuous
 62
     6
370
     9
100
AcDbLine
 10
-621.5939819232834
 20
856.7314304661107
 30
0.0
 11
-621.5939819232834
 21
857.7313083957981
 31
0.0
  0
LINE
  5
15D
330
1F
100
AcDbEntity
  8
C-A
  6
Continuous
 62
     6
370
     9
100
AcDbLine
 10
-621.5939819232834
 20
856.7314304661107
 30
0.0
 11
-626.594248952092
 21
855.2311863254857
 31
0.0
  0
LINE
  5
15E
330
1F
100
AcDbEntity
  8
C-A
  6
Continuous
 62
     6
370
     9
100
AcDbLine
 10
-621.0940505878341
 20
856.3593601536106
 30
0.0
 11
-627.094176472844
 21
854.5593113254856
 31
0.0
  0
LINE
  5
15F
330
1F
100
AcDbEntity
  8
C-A
  6
Continuous
 62
     6
370
     9
100
AcDbLine
 10
-627.094176472844
 20
859.9034275364232
 30
0.0
 11
-621.0940505878341
 21
858.1033787082981
 31
0.0
  0
LINE
  5
160
330
1F
100
AcDbEntity
  8
C-A
  6
Continuous
 62
     6
370
     9
100
AcDbLine
 10
-621.5939819232834
 20
865.7311252903296
 30
0.0
 11
-621.5939819232834
 21
869.7310642551734
 31
0.0
  0
LINE
  5
161
330
1F
100
AcDbEntity
  8
C-A
  6
Continuous
 62
     6
370
     9
100
AcDbLine
 10
-621.5939819232834
 20
869.7310642551734
 30
0.0
 11
-626.594248952092
 21
868.2312473606419
 31
0.0
  0
LINE
  5
162
330
1F
100
AcDbEntity
  8
C-A
  6
Continuous
 62
     6
370
     9
100
AcDbLine
 10
-626.594248952092
 20
867.2314304661106
 30
0.0
 11
-626.594248952092
 21
868.2312473606419
 31
0.0
  0
LINE
  5
163
330
1F
100
AcDbEntity
  8
C-A
  6
Continuous
 62
     6
370
     9
100
AcDbLine
 10
-626.594248952092
 20
867.2314304661106
 30
0.0
 11
-621.5939819232834
 21
865.7311252903296
 31
0.0
  0
LINE
  5
164
330
1F
100
AcDbEntity
  8
C-A
  6
Continuous
 62
     6
370
     9
100
AcDbLine
 10
-627.094176472844
 20
866.8592991184545
 30
0.0
 11
-621.0940505878341
 21
865.0593113254856
 31
0.0
  0
LINE
  5
165
330
1F
100
AcDbEntity
  8
C-A
  6
Continuous
 62
     6
370
     9
100
AcDbLine
 10
-621.0940505878341
 20
870.4034275364231
 30
0.0
 11
-627.094176472844
 21
868.6033787082982
 31
0.0
  0
LINE
  5
166
330
1F
100
AcDbEntity
  8
C-A
  6
Continuous
 62
     6
370
     9
100
AcDbLine
 10
-626.594248952092
 20
834.2311863254859
 30
0.0
 11
-626.594248952092
 21
838.2311252903296
 31
0.0
  0
LINE
  5
167
330
1F
100
AcDbEntity
  8
C-A
  6
Continuous
 62
     6
370
     9
100
AcDbLine
 10
-626.594248952092
 20
838.2311252903296
 30
0.0
 11
-621.5939819232834
 21
836.7313694309544
 31
0.0
  0
LINE
  5
168
330
1F
100
AcDbEntity
  8
C-A
  6
Continuous
 62
     6
370
     9
100
AcDbLine
 10
-621.5939819232834
 20
835.7314915012669
 30
0.0
 11
-621.5939819232834
 21
836.7313694309544
 31
0.0
  0
LINE
  5
169
330
1F
100
AcDbEntity
  8
C-A
  6
Continuous
 62
     6
370
     9
100
AcDbLine
 10
-621.5939819232834
 20
835.7314915012669
 30
0.0
 11
-626.594248952092
 21
834.2311863254859
 31
0.0
  0
LINE
  5
16A
330
1F
100
AcDbEntity
  8
C-A
  6
Continuous
 62
     6
370
     9
100
AcDbLine
 10
-621.0940505878341
 20
835.3594211887671
 30
0.0
 11
-627.094176472844
 21
833.5593723606419
 31
0.0
  0
LINE
  5
16B
330
1F
100
AcDbEntity
  8
C-A
  6
Continuous
 62
     6
370
     9
100
AcDbLine
 10
-627.094176472844
 20
838.9034885715794
 30
0.0
 11
-621.0940505878341
 21
837.1034397434545
 31
0.0
  0
LINE
  5
16C
330
1F
100
AcDbEntity
  8
C-A
  6
Continuous
 62
     6
370
     9
100
AcDbLine
 10
-621.5939819232834
 20
844.7311863254856
 30
0.0
 11
-621.5939819232834
 21
848.7311252903294
 31
0.0
  0
LINE
  5
16D
330
1F
100
AcDbEntity
  8
C-A
  6
Continuous
 62
     6
370
     9
100
AcDbLine
 10
-621.5939819232834
 20
848.7311252903294
 30
0.0
 11
-626.594248952092
 21
847.2313083957982
 31
0.0
  0
LINE
  5
16E
330
1F
100
AcDbEntity
  8
C-A
  6
Continuous
 62
     6
370
     9
100
AcDbLine
 10
-626.594248952092
 20
846.2314915012669
 30
0.0
 11
-626.594248952092
 21
847.2313083957982
 31
0.0
  0
LINE
  5
16F
330
1F
100
AcDbEntity
  8
C-A
  6
Continuous
 62
     6
370
     9
100
AcDbLine
 10
-626.594248952092
 20
846.2314915012669
 30
0.0
 11
-621.5939819232834
 21
844.7311863254856
 31
0.0
  0
LINE
  5
170
330
1F
100
AcDbEntity
  8
C-A
  6
Continuous
 62
     6
370
     9
100
AcDbLine
 10
-627.094176472844
 20
845.8593601536106
 30
0.0
 11
-621.0940505878341
 21
844.0593113254857
 31
0.0
  0
LINE
  5
171
330
1F
100
AcDbEntity
  8
C-A
  6
Continuous
 62
     6
370
     9
100
AcDbLine
 10
-621.0940505878341
 20
849.4034885715794
 30
0.0
 11
-627.094176472844
 21
847.6034397434544
 31
0.0
  0
LINE
  5
172
330
1F
100
AcDbEntity
  8
C-A
  6
Continuous
 62
     6
370
     9
100
AcDbLine
 10
-626.594248952092
 20
813.2312778782202
 30
0.0
 11
-626.594248952092
 21
817.2311863254856
 31
0.0
  0
LINE
  5
173
330
1F
100
AcDbEntity
  8
C-A
  6
Continuous
 62
     6
370
     9
100
AcDbLine
 10
-626.594248952092
 20
817.2311863254856
 30
0.0
 11
-621.5939819232834
 21
815.7313999485325
 31
0.0
  0
LINE
  5
174
330
1F
100
AcDbEntity
  8
C-A
  6
Continuous
 62
     6
370
     9
100
AcDbLine
 10
-621.5939819232834
 20
814.7315525364231
 30
0.0
 11
-621.5939819232834
 21
815.7313999485325
 31
0.0
  0
LINE
  5
175
330
1F
100
AcDbEntity
  8
C-A
  6
Continuous
 62
     6
370
     9
100
AcDbLine
 10
-621.5939819232834
 20
814.7315525364231
 30
0.0
 11
-626.594248952092
 21
813.2312778782202
 31
0.0
  0
LINE
  5
176
330
1F
100
AcDbEntity
  8
C-A
  6
Continuous
 62
     6
370
     9
100
AcDbLine
 10
-621.0940505878341
 20
814.3594517063451
 30
0.0
 11
-627.094176472844
 21
812.55940287822
 31
0.0
  0
LINE
  5
177
330
1F
100
AcDbEntity
  8
C-A
  6
Continuous
 62
     6
370
     9
100
AcDbLine
 10
-627.094176472844
 20
817.9035496067356
 30
0.0
 11
-621.0940505878341
 21
816.1035007786106
 31
0.0
  0
LINE
  5
178
330
1F
100
AcDbEntity
  8
C-A
  6
Continuous
 62
     6
370
     9
100
AcDbLine
 10
-621.5939819232834
 20
823.731247360642
 30
0.0
 11
-621.5939819232834
 21
827.7311863254857
 31
0.0
  0
LINE
  5
179
330
1F
100
AcDbEntity
  8
C-A
  6
Continuous
 62
     6
370
     9
100
AcDbLine
 10
-621.5939819232834
 20
827.7311863254857
 30
0.0
 11
-626.594248952092
 21
826.2313694309544
 31
0.0
  0
LINE
  5
17A
330
1F
100
AcDbEntity
  8
C-A
  6
Continuous
 62
     6
370
     9
100
AcDbLine
 10
-626.594248952092
 20
825.231491501267
 30
0.0
 11
-626.594248952092
 21
826.2313694309544
 31
0.0
  0
LINE
  5
17B
330
1F
100
AcDbEntity
  8
C-A
  6
Continuous
 62
     6
370
     9
100
AcDbLine
 10
-626.594248952092
 20
825.231491501267
 30
0.0
 11
-621.5939819232834
 21
823.731247360642
 31
0.0
  0
LINE
  5
17C
330
1F
100
AcDbEntity
  8
C-A
  6
Continuous
 62
     6
370
     9
100
AcDbLine
 10
-627.094176472844
 20
824.8594211887669
 30
0.0
 11
-621.0940505878341
 21
823.0593723606419
 31
0.0
  0
LINE
  5
17D
330
1F
100
AcDbEntity
  8
C-A
  6
Continuous
 62
     6
370
     9
100
AcDbLine
 10
-621.0940505878341
 20
828.4034885715795
 30
0.0
 11
-627.094176472844
 21
826.6035007786106
 31
0.0
  0
LINE
  5
17E
330
1F
100
AcDbEntity
  8
C-5
  6
Continuous
 62
     7
370
     9
100
AcDbLine
 10
35.40656739312297
 20
306.8918918918919
 30
0.0
 11
35.40656739312297
 21
371.8914493870091
 31
0.0
  0
LINE
  5
17F
330
1F
100
AcDbEntity
  8
C-5
  6
Continuous
 62
     7
370
     9
100
AcDbLine
 10
35.40656739312297
 20
371.8914493870091
 30
0.0
 11
510.4069946392167
 21
371.8914493870091
 31
0.0
  0
LINE
  5
180
330
1F
100
AcDbEntity
  8
C-5
  6
Continuous
 62
     7
370
     9
100
AcDbLine
 10
510.4069946392167
 20
371.8914493870091
 30
0.0
 11
510.4069946392167
 21
306.8918918918919
 31
0.0
  0
LINE
  5
181
330
1F
100
AcDbEntity
  8
C-5
  6
Continuous
 62
     7
370
     9
100
AcDbLine
 10
510.4069946392167
 20
306.8918918918919
 30
0.0
 11
35.40656739312297
 21
306.8918918918919
 31
0.0
  0
LINE
  5
182
330
1F
100
AcDbEntity
  8
C-5
  6
Continuous
 62
     7
370
     9
100
AcDbLine
 10
44.15308838921661
 20
764.7607883762669
 30
0.0
 11
482.1881225689042
 21
764.7607883762669
 31
0.0
  0
LINE
  5
183
330
1F
100
AcDbEntity
  8
C-5
  6
Continuous
 62
     7
370
     9
100
AcDbLine
 10
323.9318969829667
 20
1116.787887985643
 30
0.0
 11
569.6413696392167
 21
1116.787887985643
 31
0.0
  0
LINE
  5
184
330
1F
100
AcDbEntity
  8
C-2
  6
Continuous
 62
     3
370
     9
100
AcDbLine
 10
232.8989379985917
 20
841.2066501926731
 30
0.0
 11
232.8989379985917
 21
1180.56266825908
 31
0.0
  0
LINE
  5
185
330
1F
100
AcDbEntity
  8
C-2
  6
Continuous
 62
     3
370
     9
100
AcDbLine
 10
292.8982055767167
 20
827.7219700168919
 30
0.0
 11
292.8982055767167
 21
1167.077988083298
 31
0.0
  0
LINE
  5
186
330
1F
100
AcDbEntity
  8
C-2
  6
Continuous
 62
     3
370
     9
100
AcDbLine
 10
237.8986938579666
 20
883.9606785129856
 30
0.0
 11
237.8986938579666
 21
923.9608616184544
 31
0.0
  0
LINE
  5
187
330
1F
100
AcDbEntity
  8
C-2
  6
Continuous
 62
     3
370
     9
100
AcDbLine
 10
237.8986938579666
 20
923.9608616184544
 30
0.0
 11
287.8984497173417
 21
908.9605564426731
 31
0.0
  0
LINE
  5
188
330
1F
100
AcDbEntity
  8
C-2
  6
Continuous
 62
     3
370
     9
100
AcDbLine
 10
287.8984497173417
 20
898.9609836887669
 30
0.0
 11
287.8984497173417
 21
908.9605564426731
 31
0.0
  0
LINE
  5
189
330
1F
100
AcDbEntity
  8
C-2
  6
Continuous
 62
     3
370
     9
100
AcDbLine
 10
287.8984497173417
 20
898.9609836887669
 30
0.0
 11
237.8986938579666
 21
883.9606785129856
 31
0.0
  0
LINE
  5
18A
330
1F
100
AcDbEntity
  8
C-2
  6
Continuous
 62
     3
370
     9
100
AcDbLine
 10
292.8982055767167
 20
895.2410129856421
 30
0.0
 11
232.8989379985917
 21
877.2401584934545
 31
0.0
  0
LINE
  5
18B
330
1F
100
AcDbEntity
  8
C-2
  6
Continuous
 62
     3
370
     9
100
AcDbLine
 10
232.8989379985917
 20
930.6813816379859
 30
0.0
 11
292.8982055767167
 21
912.6805271457982
 31
0.0
  0
LINE
  5
18C
330
1F
100
AcDbEntity
  8
C-2
  6
Continuous
 62
     3
370
     9
100
AcDbLine
 10
287.8984497173417
 20
988.9609226536109
 30
0.0
 11
287.8984497173417
 21
1028.96110575908
 31
0.0
  0
LINE
  5
18D
330
1F
100
AcDbEntity
  8
C-2
  6
Continuous
 62
     3
370
     9
100
AcDbLine
 10
287.8984497173417
 20
1028.96110575908
 30
0.0
 11
237.8986938579666
 21
1013.960800583299
 31
0.0
  0
LINE
  5
18E
330
1F
100
AcDbEntity
  8
C-2
  6
Continuous
 62
     3
370
     9
100
AcDbLine
 10
237.8986938579666
 20
1003.961227829392
 30
0.0
 11
237.8986938579666
 21
1013.960800583299
 31
0.0
  0
LINE
  5
18F
330
1F
100
AcDbEntity
  8
C-2
  6
Continuous
 62
     3
370
     9
100
AcDbLine
 10
237.8986938579666
 20
1003.961227829392
 30
0.0
 11
287.8984497173417
 21
988.9609226536109
 31
0.0
  0
LINE
  5
190
330
1F
100
AcDbEntity
  8
C-2
  6
Continuous
 62
     3
370
     9
100
AcDbLine
 10
232.8989379985917
 20
1000.241257126268
 30
0.0
 11
292.8982055767167
 21
982.2404026340794
 31
0.0
  0
LINE
  5
191
330
1F
100
AcDbEntity
  8
C-2
  6
Continuous
 62
     3
370
     9
100
AcDbLine
 10
292.8982055767167
 20
1035.681625778611
 30
0.0
 11
232.8989379985917
 21
1017.680771286423
 31
0.0
  0
LINE
  5
192
330
1F
100
AcDbEntity
  8
C-2
  6
Continuous
 62
     3
370
     9
100
AcDbLine
 10
237.8986938579666
 20
1093.960678512985
 30
0.0
 11
237.8986938579666
 21
1133.960861618455
 31
0.0
  0
LINE
  5
193
330
1F
100
AcDbEntity
  8
C-2
  6
Continuous
 62
     3
370
     9
100
AcDbLine
 10
237.8986938579666
 20
1133.960861618455
 30
0.0
 11
287.8984497173417
 21
1118.960556442673
 31
0.0
  0
LINE
  5
194
330
1F
100
AcDbEntity
  8
C-2
  6
Continuous
 62
     3
370
     9
100
AcDbLine
 10
287.8984497173417
 20
1108.960983688767
 30
0.0
 11
287.8984497173417
 21
1118.960556442673
 31
0.0
  0
LINE
  5
195
330
1F
100
AcDbEntity
  8
C-2
  6
Continuous
 62
     3
370
     9
100
AcDbLine
 10
287.8984497173417
 20
1108.960983688767
 30
0.0
 11
237.8986938579666
 21
1093.960678512985
 31
0.0
  0
LINE
  5
196
330
1F
100
AcDbEntity
  8
C-2
  6
Continuous
 62
     3
370
     9
100
AcDbLine
 10
292.8982055767167
 20
1105.241012985642
 30
0.0
 11
232.8989379985917
 21
1087.240097458298
 31
0.0
  0
LINE
  5
197
330
1F
100
AcDbEntity
  8
C-2
  6
Continuous
 62
     3
370
     9
100
AcDbLine
 10
232.8989379985917
 20
1140.681381637986
 30
0.0
 11
292.8982055767167
 21
1122.680527145799
 31
0.0
  0
LINE
  5
198
330
1F
100
AcDbEntity
  8
C-4
  6
Continuous
 62
     7
370
     9
100
AcDbLine
 10
161.1852539165605
 20
883.9606785129856
 30
0.0
 11
161.1852539165605
 21
923.9608616184544
 31
0.0
  0
LINE
  5
199
330
1F
100
AcDbEntity
  8
C-4
  6
Continuous
 62
     7
370
     9
100
AcDbLine
 10
221.6483276470292
 20
883.9606785129856
 30
0.0
 11
158.1851928814042
 21
883.9606785129856
 31
0.0
  0
LINE
  5
19A
330
1F
100
AcDbEntity
  8
C-4
  6
Continuous
 62
     7
370
     9
100
AcDbLine
 10
221.6483276470292
 20
923.9608616184544
 30
0.0
 11
158.1851928814042
 21
923.9608616184544
 31
0.0
  0
LINE
  5
19B
330
1F
100
AcDbEntity
  8
C-4
  6
Continuous
 62
     7
370
     9
100
AcDbLine
 10
161.1852539165605
 20
923.9608616184544
 30
0.0
 11
161.1852539165605
 21
1003.961227829392
 31
0.0
  0
LINE
  5
19C
330
1F
100
AcDbEntity
  8
C-4
  6
Continuous
 62
     7
370
     9
100
AcDbLine
 10
221.6483276470292
 20
1003.961227829392
 30
0.0
 11
158.1851928814042
 21
1003.961227829392
 31
0.0
  0
LINE
  5
19D
330
1F
100
AcDbEntity
  8
C-4
  6
Continuous
 62
     7
370
     9
100
AcDbLine
 10
161.1852539165605
 20
1003.961227829392
 30
0.0
 11
161.1852539165605
 21
1013.960800583299
 31
0.0
  0
LINE
  5
19E
330
1F
100
AcDbEntity
  8
C-4
  6
Continuous
 62
     7
370
     9
100
AcDbLine
 10
221.6483276470292
 20
1013.960800583299
 30
0.0
 11
158.1851928814042
 21
1013.960800583299
 31
0.0
  0
LINE
  5
19F
330
1F
100
AcDbEntity
  8
C-4
  6
Continuous
 62
     7
370
     9
100
AcDbLine
 10
161.1852539165605
 20
1013.960800583299
 30
0.0
 11
161.1852539165605
 21
1093.960678512985
 31
0.0
  0
LINE
  5
1A0
330
1F
100
AcDbEntity
  8
C-4
  6
Continuous
 62
     7
370
     9
100
AcDbLine
 10
221.6483276470292
 20
1093.960678512985
 30
0.0
 11
158.1851928814042
 21
1093.960678512985
 31
0.0
  0
LINE
  5
1A1
330
1F
100
AcDbEntity
  8
C-4
  6
Continuous
 62
     7
370
     9
100
AcDbLine
 10
161.1852539165605
 20
1093.960678512985
 30
0.0
 11
161.1852539165605
 21
1133.960861618455
 31
0.0
  0
LINE
  5
1A2
330
1F
100
AcDbEntity
  8
C-4
  6
Continuous
 62
     7
370
     9
100
AcDbLine
 10
221.6483276470292
 20
1133.960861618455
 30
0.0
 11
158.1851928814042
 21
1133.960861618455
 31
0.0
  0
LINE
  5
1A3
330
1F
100
AcDbEntity
  8
C-4
  6
Continuous
 62
     7
370
     9
100
AcDbLine
 10
301.9177368267167
 20
979.5346531223609
 30
0.0
 11
378.2234008892166
 21
956.6425022434546
 31
0.0
  0
LINE
  5
1A4
330
1F
100
AcDbEntity
  8
C-4
  6
Continuous
 62
     7
370
     9
100
AcDbLine
 10
303.3545654399979
 20
984.3238376926731
 30
0.0
 11
379.6602905376542
 21
961.4316868137669
 31
0.0
  0
LINE
  5
1A5
330
1F
100
AcDbEntity
  8
C-4
  6
Continuous
 62
     7
370
     9
100
AcDbLine
 10
375.3501098735917
 20
957.5046238254859
 30
0.0
 11
397.2617309673417
 21
1030.54167216533
 31
0.0
  0
LINE
  5
1A6
330
1F
100
AcDbEntity
  8
C-4
  6
Continuous
 62
     7
370
     9
100
AcDbLine
 10
232.8989379985917
 20
1226.578110153611
 30
0.0
 11
292.8982055767167
 21
1226.578110153611
 31
0.0
  0
LINE
  5
1A7
330
1F
100
AcDbEntity
  8
C-4
  6
Continuous
 62
     7
370
     9
100
AcDbLine
 10
232.8989379985917
 20
1187.303268845017
 30
0.0
 11
232.8989379985917
 21
1229.577927048142
 31
0.0
  0
LINE
  5
1A8
330
1F
100
AcDbEntity
  8
C-4
  6
Continuous
 62
     7
370
     9
100
AcDbLine
 10
292.8982055767167
 20
1178.400925095017
 30
0.0
 11
292.8982055767167
 21
1229.577927048142
 31
0.0
  0
LINE
  5
1A9
330
1F
100
AcDbEntity
  8
C-5
  6
Continuous
 62
     7
370
     9
100
AcDbLine
 10
267.5515258892167
 20
1019.13444560283
 30
0.0
 11
323.9318969829667
 21
1116.787887985643
 31
0.0
  0
LINE
  5
1AA
330
1F
100
AcDbEntity
  8
C-5
  6
Continuous
 62
     7
370
     9
100
AcDbLine
 10
267.5515258892167
 20
1019.13444560283
 30
0.0
 11
277.1185424907792
 21
1042.231491501267
 31
0.0
  0
LINE
  5
1AB
330
1F
100
AcDbEntity
  8
C-5
  6
Continuous
 62
     7
370
     9
100
AcDbLine
 10
267.5515258892167
 20
1019.13444560283
 30
0.0
 11
282.7708252056229
 21
1038.968307907517
 31
0.0
  0
LINE
  5
1AC
330
1F
100
AcDbEntity
  8
C-2
  6
Continuous
 62
     3
370
     9
100
AcDbLine
 10
115.2008178814042
 20
424.498840744431
 30
0.0
 11
115.2008178814042
 21
434.4993824314426
 31
0.0
  0
LINE
  5
1AD
330
1F
100
AcDbEntity
  8
C-2
  6
Continuous
 62
     3
370
     9
100
AcDbLine
 10
115.2008178814042
 20
499.4994358372045
 30
0.0
 11
115.2008178814042
 21
489.4993900608372
 31
0.0
  0
LINE
  5
1AE
330
1F
100
AcDbEntity
  8
C-2
  6
Continuous
 62
     3
370
     9
100
AcDbLine
 10
147.0515258892166
 20
489.4993900608372
 30
0.0
 11
142.0517700298417
 21
489.4993900608372
 31
0.0
  0
LINE
  5
1AF
330
1F
100
AcDbEntity
  8
C-2
  6
Continuous
 62
     3
370
     9
100
AcDbLine
 10
167.0515869243729
 20
489.4993900608372
 30
0.0
 11
172.0514038189042
 21
489.4993900608372
 31
0.0
  0
LINE
  5
1B0
330
1F
100
AcDbEntity
  8
C-2
  6
Continuous
 62
     3
370
     9
100
AcDbLine
 10
152.0512817485917
 20
484.499115402634
 30
0.0
 11
152.0493286235917
 21
424.498840744431
 31
0.0
  0
LINE
  5
1B1
330
1F
100
AcDbEntity
  8
C-2
  6
Continuous
 62
     3
370
     9
100
AcDbLine
 10
162.0518310649979
 20
484.4996189426732
 30
0.0
 11
162.0518310649979
 21
424.498840744431
 31
0.0
  0
LINE
  5
1B2
330
1F
100
AcDbEntity
  8
C-2
  6
Continuous
 62
     3
370
     9
100
AcDbLine
 10
348.8975952251542
 20
424.492897446091
 30
0.0
 11
348.8980835064042
 21
434.4924473118138
 31
0.0
  0
LINE
  5
1B3
330
1F
100
AcDbEntity
  8
C-2
  6
Continuous
 62
     3
370
     9
100
AcDbLine
 10
348.9035766704667
 20
499.4925083469701
 30
0.0
 11
348.9030883892167
 21
489.492950851853
 31
0.0
  0
LINE
  5
1B4
330
1F
100
AcDbEntity
  8
C-2
  6
Continuous
 62
     3
370
     9
100
AcDbLine
 10
348.9035766704667
 20
499.4994358372045
 30
0.0
 11
115.2008178814042
 21
499.4994358372045
 31
0.0
  0
LINE
  5
1B5
330
1F
100
AcDbEntity
  8
C-2
  6
Continuous
 62
     3
370
     9
100
AcDbLine
 10
115.2008178814042
 20
424.498840744431
 30
0.0
 11
348.8980835064042
 21
424.498840744431
 31
0.0
  0
LINE
  5
1B6
330
1F
100
AcDbEntity
  8
C-2
  6
Continuous
 62
     3
370
     9
100
AcDbLine
 10
142.0517700298417
 20
496.9992985081029
 30
0.0
 11
144.5518921001542
 21
499.4994358372045
 31
0.0
  0
LINE
  5
1B7
330
1F
100
AcDbEntity
  8
C-2
  6
Continuous
 62
     3
370
     9
100
AcDbLine
 10
142.0517700298417
 20
489.4993900608372
 30
0.0
 11
142.0517700298417
 21
496.9992985081029
 31
0.0
  0
LINE
  5
1B8
330
1F
100
AcDbEntity
  8
C-2
  6
Continuous
 62
     3
370
     9
100
AcDbLine
 10
172.0514038189042
 20
496.9992985081029
 30
0.0
 11
169.5512817485917
 21
499.4994358372045
 31
0.0
  0
LINE
  5
1B9
330
1F
100
AcDbEntity
  8
C-2
  6
Continuous
 62
     3
370
     9
100
AcDbLine
 10
172.0514038189042
 20
496.9992985081029
 30
0.0
 11
142.0517700298417
 21
496.9992985081029
 31
0.0
  0
LINE
  5
1BA
330
1F
100
AcDbEntity
  8
C-2
  6
Continuous
 62
     3
370
     9
100
AcDbLine
 10
172.0514038189042
 20
496.9992985081029
 30
0.0
 11
172.0514038189042
 21
489.4993900608372
 31
0.0
  0
LINE
  5
1BB
330
1F
100
AcDbEntity
  8
C-2
  6
Continuous
 62
     3
370
     9
100
AcDbLine
 10
222.0516479595292
 20
489.4993900608372
 30
0.0
 11
217.0518310649979
 21
489.4993900608372
 31
0.0
  0
LINE
  5
1BC
330
1F
100
AcDbEntity
  8
C-2
  6
Continuous
 62
     3
370
     9
100
AcDbLine
 10
242.0521972759354
 20
489.4993900608372
 30
0.0
 11
247.0514648540605
 21
489.4993900608372
 31
0.0
  0
LINE
  5
1BD
330
1F
100
AcDbEntity
  8
C-2
  6
Continuous
 62
     3
370
     9
100
AcDbLine
 10
227.0514038189042
 20
484.499115402634
 30
0.0
 11
227.0493896587479
 21
424.498840744431
 31
0.0
  0
LINE
  5
1BE
330
1F
100
AcDbEntity
  8
C-2
  6
Continuous
 62
     3
370
     9
100
AcDbLine
 10
237.0519531353105
 20
484.4996189426732
 30
0.0
 11
237.0519531353105
 21
424.498840744431
 31
0.0
  0
LINE
  5
1BF
330
1F
100
AcDbEntity
  8
C-2
  6
Continuous
 62
     3
370
     9
100
AcDbLine
 10
217.0518310649979
 20
496.9992985081029
 30
0.0
 11
219.5520141704667
 21
499.4994358372045
 31
0.0
  0
LINE
  5
1C0
330
1F
100
AcDbEntity
  8
C-2
  6
Continuous
 62
     3
370
     9
100
AcDbLine
 10
217.0518310649979
 20
489.4993900608372
 30
0.0
 11
217.0518310649979
 21
496.9992985081029
 31
0.0
  0
LINE
  5
1C1
330
1F
100
AcDbEntity
  8
C-2
  6
Continuous
 62
     3
370
     9
100
AcDbLine
 10
247.0514648540605
 20
496.9992985081029
 30
0.0
 11
244.551342783748
 21
499.4994358372045
 31
0.0
  0
LINE
  5
1C2
330
1F
100
AcDbEntity
  8
C-2
  6
Continuous
 62
     3
370
     9
100
AcDbLine
 10
247.0514648540605
 20
496.9992985081029
 30
0.0
 11
217.0518310649979
 21
496.9992985081029
 31
0.0
  0
LINE
  5
1C3
330
1F
100
AcDbEntity
  8
C-2
  6
Continuous
 62
     3
370
     9
100
AcDbLine
 10
247.0514648540605
 20
496.9992985081029
 30
0.0
 11
247.0514648540605
 21
489.4993900608372
 31
0.0
  0
LINE
  5
1C4
330
1F
100
AcDbEntity
  8
C-2
  6
Continuous
 62
     3
370
     9
100
AcDbLine
 10
297.0517089946854
 20
489.4993900608372
 30
0.0
 11
292.0519531353105
 21
489.4993900608372
 31
0.0
  0
LINE
  5
1C5
330
1F
100
AcDbEntity
  8
C-2
  6
Continuous
 62
     3
370
     9
100
AcDbLine
 10
317.0523193462479
 20
489.4993900608372
 30
0.0
 11
322.0515869243729
 21
489.4993900608372
 31
0.0
  0
LINE
  5
1C6
330
1F
100
AcDbEntity
  8
C-2
  6
Continuous
 62
     3
370
     9
100
AcDbLine
 10
302.0515258892166
 20
484.499115402634
 30
0.0
 11
302.0495117290605
 21
424.498840744431
 31
0.0
  0
LINE
  5
1C7
330
1F
100
AcDbEntity
  8
C-2
  6
Continuous
 62
     3
370
     9
100
AcDbLine
 10
312.0510376079667
 20
484.4996189426732
 30
0.0
 11
312.0510376079667
 21
424.498840744431
 31
0.0
  0
LINE
  5
1C8
330
1F
100
AcDbEntity
  8
C-2
  6
Continuous
 62
     3
370
     9
100
AcDbLine
 10
292.0519531353105
 20
496.9992985081029
 30
0.0
 11
294.5520752056229
 21
499.4994358372045
 31
0.0
  0
LINE
  5
1C9
330
1F
100
AcDbEntity
  8
C-2
  6
Continuous
 62
     3
370
     9
100
AcDbLine
 10
292.0519531353105
 20
489.4993900608372
 30
0.0
 11
292.0519531353105
 21
496.9992985081029
 31
0.0
  0
LINE
  5
1CA
330
1F
100
AcDbEntity
  8
C-2
  6
Continuous
 62
     3
370
     9
100
AcDbLine
 10
322.0515869243729
 20
496.9992985081029
 30
0.0
 11
319.5519531353105
 21
499.4994358372045
 31
0.0
  0
LINE
  5
1CB
330
1F
100
AcDbEntity
  8
C-2
  6
Continuous
 62
     3
370
     9
100
AcDbLine
 10
322.0515869243729
 20
496.9992985081029
 30
0.0
 11
292.0519531353105
 21
496.9992985081029
 31
0.0
  0
LINE
  5
1CC
330
1F
100
AcDbEntity
  8
C-2
  6
Continuous
 62
     3
370
     9
100
AcDbLine
 10
322.0515869243729
 20
496.9992985081029
 30
0.0
 11
322.0515869243729
 21
489.4993900608372
 31
0.0
  0
LINE
  5
1CD
330
1F
100
AcDbEntity
  8
C-4
  6
Continuous
 62
     7
370
     9
100
AcDbLine
 10
437.3442504985917
 20
424.498840744431
 30
0.0
 11
437.3442504985917
 21
499.4989475559544
 31
0.0
  0
LINE
  5
1CE
330
1F
100
AcDbEntity
  8
C-4
  6
Continuous
 62
     7
370
     9
100
AcDbLine
 10
360.5554321392167
 20
424.498840744431
 30
0.0
 11
440.3437622173416
 21
424.498840744431
 31
0.0
  0
LINE
  5
1CF
330
1F
100
AcDbEntity
  8
C-4
  6
Continuous
 62
     7
370
     9
100
AcDbLine
 10
360.5554321392167
 20
499.4989475559544
 30
0.0
 11
440.3437622173416
 21
499.4989475559544
 31
0.0
  0
LINE
  5
1D0
330
1F
100
AcDbEntity
  8
C-4
  6
Continuous
 62
     7
370
     9
100
AcDbLine
 10
142.0512817485917
 20
509.9587864231418
 30
0.0
 11
142.0512817485917
 21
628.5011753391575
 31
0.0
  0
LINE
  5
1D1
330
1F
100
AcDbEntity
  8
C-4
  6
Continuous
 62
     7
370
     9
100
AcDbLine
 10
172.0509155376541
 20
509.9587864231418
 30
0.0
 11
172.0509155376541
 21
565.3838962864231
 31
0.0
  0
LINE
  5
1D2
330
1F
100
AcDbEntity
  8
C-4
  6
Continuous
 62
     7
370
     9
100
AcDbLine
 10
217.051342783748
 20
509.9587864231418
 30
0.0
 11
217.051342783748
 21
628.5011753391575
 31
0.0
  0
LINE
  5
1D3
330
1F
100
AcDbEntity
  8
C-4
  6
Continuous
 62
     7
370
     9
100
AcDbLine
 10
247.0509765728104
 20
509.9587864231418
 30
0.0
 11
247.0509765728104
 21
565.3838962864231
 31
0.0
  0
LINE
  5
1D4
330
1F
100
AcDbEntity
  8
C-4
  6
Continuous
 62
     7
370
     9
100
AcDbLine
 10
292.0514648540604
 20
509.9587864231418
 30
0.0
 11
292.0514648540604
 21
628.5011753391575
 31
0.0
  0
LINE
  5
1D5
330
1F
100
AcDbEntity
  8
C-4
  6
Continuous
 62
     7
370
     9
100
AcDbLine
 10
322.0510986431229
 20
509.9587864231418
 30
0.0
 11
322.0510986431229
 21
565.3838962864231
 31
0.0
  0
LINE
  5
1D6
330
1F
100
AcDbEntity
  8
C-4
  6
Continuous
 62
     7
370
     9
100
AcDbLine
 10
115.2008178814042
 20
562.3838352512669
 30
0.0
 11
348.9024780376542
 21
562.3838352512669
 31
0.0
  0
LINE
  5
1D7
330
1F
100
AcDbEntity
  8
C-4
  6
Continuous
 62
     7
370
     9
100
AcDbLine
 10
115.2008178814042
 20
625.5011143040014
 30
0.0
 11
348.9024780376542
 21
625.5011143040014
 31
0.0
  0
LINE
  5
1D8
330
1F
100
AcDbEntity
  8
C-2
  6
Continuous
 62
     3
370
     9
100
AcDbLine
 10
162.0510986431229
 20
479.6775516819309
 30
0.0
 11
227.050122080623
 21
479.6775516819309
 31
0.0
  0
LINE
  5
1D9
330
1F
100
AcDbEntity
  8
C-2
  6
Continuous
 62
     3
370
     9
100
AcDbLine
 10
237.0517089946854
 20
479.6775516819309
 30
0.0
 11
302.0502441509354
 21
479.6775516819309
 31
0.0
  0
LINE
  5
1DA
330
1F
100
AcDbEntity
  8
C-2
  6
Continuous
 62
     3
370
     9
100
AcDbLine
 10
117.7026489360917
 20
479.6775516819309
 30
0.0
 11
152.0505493267167
 21
479.6775516819309
 31
0.0
  0
LINE
  5
1DB
330
1F
100
AcDbEntity
  8
C-2
  6
Continuous
 62
     3
370
     9
100
AcDbLine
 10
346.3991821392167
 20
479.6775516819309
 30
0.0
 11
312.0512817485917
 21
479.6775516819309
 31
0.0
  0
LINE
  5
1DC
330
1F
100
AcDbEntity
  8
C-2
  6
Continuous
 62
     3
370
     9
100
AcDbLine
 10
162.0510986431229
 20
461.9998783420871
 30
0.0
 11
227.050122080623
 21
461.9998783420871
 31
0.0
  0
LINE
  5
1DD
330
1F
100
AcDbEntity
  8
C-2
  6
Continuous
 62
     3
370
     9
100
AcDbLine
 10
237.0517089946854
 20
461.9998783420871
 30
0.0
 11
302.0502441509354
 21
461.9998783420871
 31
0.0
  0
LINE
  5
1DE
330
1F
100
AcDbEntity
  8
C-2
  6
Continuous
 62
     3
370
     9
100
AcDbLine
 10
117.7026489360917
 20
461.9998783420871
 30
0.0
 11
152.0505493267167
 21
461.9998783420871
 31
0.0
  0
LINE
  5
1DF
330
1F
100
AcDbEntity
  8
C-2
  6
Continuous
 62
     3
370
     9
100
AcDbLine
 10
346.3991821392167
 20
461.9998783420871
 30
0.0
 11
312.0512817485917
 21
461.9998783420871
 31
0.0
  0
LINE
  5
1E0
330
1F
100
AcDbEntity
  8
C-2
  6
Continuous
 62
     3
370
     9
100
AcDbLine
 10
162.0510986431229
 20
444.3222050022436
 30
0.0
 11
227.050122080623
 21
444.3222050022436
 31
0.0
  0
LINE
  5
1E1
330
1F
100
AcDbEntity
  8
C-2
  6
Continuous
 62
     3
370
     9
100
AcDbLine
 10
237.0517089946854
 20
444.3222050022436
 30
0.0
 11
302.0502441509354
 21
444.3222050022436
 31
0.0
  0
LINE
  5
1E2
330
1F
100
AcDbEntity
  8
C-2
  6
Continuous
 62
     3
370
     9
100
AcDbLine
 10
117.7026489360917
 20
444.3222050022436
 30
0.0
 11
152.0505493267167
 21
444.3222050022436
 31
0.0
  0
LINE
  5
1E3
330
1F
100
AcDbEntity
  8
C-2
  6
Continuous
 62
     3
370
     9
100
AcDbLine
 10
346.3991821392167
 20
444.3222050022436
 30
0.0
 11
312.0512817485917
 21
444.3222050022436
 31
0.0
  0
LINE
  5
1E4
330
1F
100
AcDbEntity
  8
C-A
  6
Continuous
 62
     3
370
     9
100
AcDbLine
 10
-309.093402089299
 20
758.4273533176734
 30
0.0
 11
-300.0936767475021
 21
758.4273533176734
 31
0.0
  0
LINE
  5
1E5
330
1F
100
AcDbEntity
  8
C-A
  6
Continuous
 62
     3
370
     9
100
AcDbLine
 10
-309.093402089299
 20
754.8918308567357
 30
0.0
 11
-300.0936767475021
 21
754.8918308567357
 31
0.0
  0
LINE
  5
1E6
330
1F
100
AcDbEntity
  8
C-A
  6
Continuous
 62
     3
370
     9
100
AcDbLine
 10
-309.093402089299
 20
751.3563083957981
 30
0.0
 11
-300.0936767475021
 21
751.3563083957981
 31
0.0
  0
LINE
  5
1E7
330
1F
100
AcDbEntity
  8
C-A
  6
Continuous
 62
     3
370
     9
100
AcDbLine
 10
-324.0933410541427
 20
758.4273533176734
 30
0.0
 11
-315.0936157123459
 21
758.4273533176734
 31
0.0
  0
LINE
  5
1E8
330
1F
100
AcDbEntity
  8
C-A
  6
Continuous
 62
     3
370
     9
100
AcDbLine
 10
-324.0933410541427
 20
754.8918308567357
 30
0.0
 11
-315.0936157123459
 21
754.8918308567357
 31
0.0
  0
LINE
  5
1E9
330
1F
100
AcDbEntity
  8
C-A
  6
Continuous
 62
     3
370
     9
100
AcDbLine
 10
-324.0933410541427
 20
751.3563083957981
 30
0.0
 11
-315.0936157123459
 21
751.3563083957981
 31
0.0
  0
LINE
  5
1EA
330
1F
100
AcDbEntity
  8
C-A
  6
Continuous
 62
     3
370
     9
100
AcDbLine
 10
-339.0933410541427
 20
758.4273533176734
 30
0.0
 11
-330.0936157123459
 21
758.4273533176734
 31
0.0
  0
LINE
  5
1EB
330
1F
100
AcDbEntity
  8
C-A
  6
Continuous
 62
     3
370
     9
100
AcDbLine
 10
-339.0933410541427
 20
754.8918308567357
 30
0.0
 11
-330.0936157123459
 21
754.8918308567357
 31
0.0
  0
LINE
  5
1EC
330
1F
100
AcDbEntity
  8
C-A
  6
Continuous
 62
     3
370
     9
100
AcDbLine
 10
-339.0933410541427
 20
751.3563083957981
 30
0.0
 11
-330.0936157123459
 21
751.3563083957981
 31
0.0
  0
LINE
  5
1ED
330
1F
100
AcDbEntity
  8
C-A
  6
Continuous
 62
     3
370
     9
100
AcDbLine
 10
-354.0933410541427
 20
758.4273533176734
 30
0.0
 11
-345.0936157123459
 21
758.4273533176734
 31
0.0
  0
LINE
  5
1EE
330
1F
100
AcDbEntity
  8
C-A
  6
Continuous
 62
     3
370
     9
100
AcDbLine
 10
-354.0933410541427
 20
754.8918308567357
 30
0.0
 11
-345.0936157123459
 21
754.8918308567357
 31
0.0
  0
LINE
  5
1EF
330
1F
100
AcDbEntity
  8
C-A
  6
Continuous
 62
     3
370
     9
100
AcDbLine
 10
-354.0933410541427
 20
751.3563083957981
 30
0.0
 11
-345.0936157123459
 21
751.3563083957981
 31
0.0
  0
LINE
  5
1F0
330
1F
100
AcDbEntity
  8
C-A
  6
Continuous
 62
     3
370
     9
100
AcDbLine
 10
-369.0933105365646
 20
758.4273533176734
 30
0.0
 11
-360.0936157123459
 21
758.4273533176734
 31
0.0
  0
LINE
  5
1F1
330
1F
100
AcDbEntity
  8
C-A
  6
Continuous
 62
     3
370
     9
100
AcDbLine
 10
-369.0933105365646
 20
754.8918308567357
 30
0.0
 11
-360.0936157123459
 21
754.8918308567357
 31
0.0
  0
LINE
  5
1F2
330
1F
100
AcDbEntity
  8
C-A
  6
Continuous
 62
     3
370
     9
100
AcDbLine
 10
-369.0933105365646
 20
751.3563083957981
 30
0.0
 11
-360.0936157123459
 21
751.3563083957981
 31
0.0
  0
LINE
  5
1F3
330
1F
100
AcDbEntity
  8
C-A
  6
Continuous
 62
     3
370
     9
100
AcDbLine
 10
-384.0933105365646
 20
758.4273533176734
 30
0.0
 11
-375.0936157123459
 21
758.4273533176734
 31
0.0
  0
LINE
  5
1F4
330
1F
100
AcDbEntity
  8
C-A
  6
Continuous
 62
     3
370
     9
100
AcDbLine
 10
-384.0933105365646
 20
754.8918308567357
 30
0.0
 11
-375.0936157123459
 21
754.8918308567357
 31
0.0
  0
LINE
  5
1F5
330
1F
100
AcDbEntity
  8
C-A
  6
Continuous
 62
     3
370
     9
100
AcDbLine
 10
-384.0933105365646
 20
751.3563083957981
 30
0.0
 11
-375.0936157123459
 21
751.3563083957981
 31
0.0
  0
LINE
  5
1F6
330
1F
100
AcDbEntity
  8
C-A
  6
Continuous
 62
     3
370
     9
100
AcDbLine
 10
-399.0933105365646
 20
758.4273533176734
 30
0.0
 11
-390.0936157123459
 21
758.4273533176734
 31
0.0
  0
LINE
  5
1F7
330
1F
100
AcDbEntity
  8
C-A
  6
Continuous
 62
     3
370
     9
100
AcDbLine
 10
-399.0933105365646
 20
754.8918308567357
 30
0.0
 11
-390.0936157123459
 21
754.8918308567357
 31
0.0
  0
LINE
  5
1F8
330
1F
100
AcDbEntity
  8
C-A
  6
Continuous
 62
     3
370
     9
100
AcDbLine
 10
-399.0933105365646
 20
751.3563083957981
 30
0.0
 11
-390.0936157123459
 21
751.3563083957981
 31
0.0
  0
LINE
  5
1F9
330
1F
100
AcDbEntity
  8
C-A
  6
Continuous
 62
     3
370
     9
100
AcDbLine
 10
-414.0933105365646
 20
758.4273533176734
 30
0.0
 11
-405.0936157123459
 21
758.4273533176734
 31
0.0
  0
LINE
  5
1FA
330
1F
100
AcDbEntity
  8
C-A
  6
Continuous
 62
     3
370
     9
100
AcDbLine
 10
-414.0933105365646
 20
754.8918308567357
 30
0.0
 11
-405.0936157123459
 21
754.8918308567357
 31
0.0
  0
LINE
  5
1FB
330
1F
100
AcDbEntity
  8
C-A
  6
Continuous
 62
     3
370
     9
100
AcDbLine
 10
-414.0933105365646
 20
751.3563083957981
 30
0.0
 11
-405.0936157123459
 21
751.3563083957981
 31
0.0
  0
LINE
  5
1FC
330
1F
100
AcDbEntity
  8
C-A
  6
Continuous
 62
     3
370
     9
100
AcDbLine
 10
-429.0933105365646
 20
758.4273533176734
 30
0.0
 11
-420.0936157123459
 21
758.4273533176734
 31
0.0
  0
LINE
  5
1FD
330
1F
100
AcDbEntity
  8
C-A
  6
Continuous
 62
     3
370
     9
100
AcDbLine
 10
-429.0933105365646
 20
754.8918308567357
 30
0.0
 11
-420.0936157123459
 21
754.8918308567357
 31
0.0
  0
LINE
  5
1FE
330
1F
100
AcDbEntity
  8
C-A
  6
Continuous
 62
     3
370
     9
100
AcDbLine
 10
-429.0933105365646
 20
751.3563083957981
 30
0.0
 11
-420.0936157123459
 21
751.3563083957981
 31
0.0
  0
LINE
  5
1FF
330
1F
100
AcDbEntity
  8
C-A
  6
Continuous
 62
     3
370
     9
100
AcDbLine
 10
-444.0932952777756
 20
758.4273533176734
 30
0.0
 11
-435.0936004535567
 21
758.4273533176734
 31
0.0
  0
LINE
  5
200
330
1F
100
AcDbEntity
  8
C-A
  6
Continuous
 62
     3
370
     9
100
AcDbLine
 10
-444.0932952777756
 20
754.8918308567357
 30
0.0
 11
-435.0936004535567
 21
754.8918308567357
 31
0.0
  0
LINE
  5
201
330
1F
100
AcDbEntity
  8
C-A
  6
Continuous
 62
     3
370
     9
100
AcDbLine
 10
-444.0932952777756
 20
751.3563083957981
 30
0.0
 11
-435.0936004535567
 21
751.3563083957981
 31
0.0
  0
LINE
  5
202
330
1F
100
AcDbEntity
  8
C-A
  6
Continuous
 62
     3
370
     9
100
AcDbLine
 10
-459.0932952777756
 20
758.4273533176734
 30
0.0
 11
-450.0936004535567
 21
758.4273533176734
 31
0.0
  0
LINE
  5
203
330
1F
100
AcDbEntity
  8
C-A
  6
Continuous
 62
     3
370
     9
100
AcDbLine
 10
-459.0932952777756
 20
754.8918308567357
 30
0.0
 11
-450.0936004535567
 21
754.8918308567357
 31
0.0
  0
LINE
  5
204
330
1F
100
AcDbEntity
  8
C-A
  6
Continuous
 62
     3
370
     9
100
AcDbLine
 10
-459.0932952777756
 20
751.3563083957981
 30
0.0
 11
-450.0936004535567
 21
751.3563083957981
 31
0.0
  0
LINE
  5
205
330
1F
100
AcDbEntity
  8
C-A
  6
Continuous
 62
     3
370
     9
100
AcDbLine
 10
-474.0932952777756
 20
758.4273533176734
 30
0.0
 11
-465.0936004535567
 21
758.4273533176734
 31
0.0
  0
LINE
  5
206
330
1F
100
AcDbEntity
  8
C-A
  6
Continuous
 62
     3
370
     9
100
AcDbLine
 10
-474.0932952777756
 20
754.8918308567357
 30
0.0
 11
-465.0936004535567
 21
754.8918308567357
 31
0.0
  0
LINE
  5
207
330
1F
100
AcDbEntity
  8
C-A
  6
Continuous
 62
     3
370
     9
100
AcDbLine
 10
-474.0932952777756
 20
751.3563083957981
 30
0.0
 11
-465.0936004535567
 21
751.3563083957981
 31
0.0
  0
LINE
  5
208
330
1F
100
AcDbEntity
  8
C-A
  6
Continuous
 62
     3
370
     9
100
AcDbLine
 10
-489.0932952777756
 20
758.4273533176734
 30
0.0
 11
-480.0936004535567
 21
758.4273533176734
 31
0.0
  0
LINE
  5
209
330
1F
100
AcDbEntity
  8
C-A
  6
Continuous
 62
     3
370
     9
100
AcDbLine
 10
-489.0932952777756
 20
754.8918308567357
 30
0.0
 11
-480.0936004535567
 21
754.8918308567357
 31
0.0
  0
LINE
  5
20A
330
1F
100
AcDbEntity
  8
C-A
  6
Continuous
 62
     3
370
     9
100
AcDbLine
 10
-489.0932952777756
 20
751.3563083957981
 30
0.0
 11
-480.0936004535567
 21
751.3563083957981
 31
0.0
  0
LINE
  5
20B
330
1F
100
AcDbEntity
  8
C-A
  6
Continuous
 62
     3
370
     9
100
AcDbLine
 10
-504.0932952777756
 20
758.4273533176734
 30
0.0
 11
-495.0936004535567
 21
758.4273533176734
 31
0.0
  0
LINE
  5
20C
330
1F
100
AcDbEntity
  8
C-A
  6
Continuous
 62
     3
370
     9
100
AcDbLine
 10
-504.0932952777756
 20
754.8918308567357
 30
0.0
 11
-495.0936004535567
 21
754.8918308567357
 31
0.0
  0
LINE
  5
20D
330
1F
100
AcDbEntity
  8
C-A
  6
Continuous
 62
     3
370
     9
100
AcDbLine
 10
-504.0932952777756
 20
751.3563083957981
 30
0.0
 11
-495.0936004535567
 21
751.3563083957981
 31
0.0
  0
LINE
  5
20E
330
1F
100
AcDbEntity
  8
C-A
  6
Continuous
 62
     3
370
     9
100
AcDbLine
 10
-519.0932952777756
 20
758.4273533176734
 30
0.0
 11
-510.0936004535567
 21
758.4273533176734
 31
0.0
  0
LINE
  5
20F
330
1F
100
AcDbEntity
  8
C-A
  6
Continuous
 62
     3
370
     9
100
AcDbLine
 10
-519.0932952777756
 20
754.8918308567357
 30
0.0
 11
-510.0936004535567
 21
754.8918308567357
 31
0.0
  0
LINE
  5
210
330
1F
100
AcDbEntity
  8
C-A
  6
Continuous
 62
     3
370
     9
100
AcDbLine
 10
-519.0932952777756
 20
751.3563083957981
 30
0.0
 11
-510.0936004535567
 21
751.3563083957981
 31
0.0
  0
LINE
  5
211
330
1F
100
AcDbEntity
  8
C-A
  6
Continuous
 62
     3
370
     9
100
AcDbLine
 10
-534.0932952777756
 20
758.4273533176734
 30
0.0
 11
-525.0936004535567
 21
758.4273533176734
 31
0.0
  0
LINE
  5
212
330
1F
100
AcDbEntity
  8
C-A
  6
Continuous
 62
     3
370
     9
100
AcDbLine
 10
-534.0932952777756
 20
754.8918308567357
 30
0.0
 11
-525.0936004535567
 21
754.8918308567357
 31
0.0
  0
LINE
  5
213
330
1F
100
AcDbEntity
  8
C-A
  6
Continuous
 62
     3
370
     9
100
AcDbLine
 10
-534.0932952777756
 20
751.3563083957981
 30
0.0
 11
-525.0936004535567
 21
751.3563083957981
 31
0.0
  0
LINE
  5
214
330
1F
100
AcDbEntity
  8
C-A
  6
Continuous
 62
     3
370
     9
100
AcDbLine
 10
-549.0932952777756
 20
758.4273533176734
 30
0.0
 11
-540.0936004535567
 21
758.4273533176734
 31
0.0
  0
LINE
  5
215
330
1F
100
AcDbEntity
  8
C-A
  6
Continuous
 62
     3
370
     9
100
AcDbLine
 10
-549.0932952777756
 20
754.8918308567357
 30
0.0
 11
-540.0936004535567
 21
754.8918308567357
 31
0.0
  0
LINE
  5
216
330
1F
100
AcDbEntity
  8
C-A
  6
Continuous
 62
     3
370
     9
100
AcDbLine
 10
-549.0932952777756
 20
751.3563083957981
 30
0.0
 11
-540.0936004535567
 21
751.3563083957981
 31
0.0
  0
LINE
  5
217
330
1F
100
AcDbEntity
  8
C-A
  6
Continuous
 62
     3
370
     9
100
AcDbLine
 10
-564.0932952777756
 20
758.4273533176734
 30
0.0
 11
-555.0936004535567
 21
758.4273533176734
 31
0.0
  0
LINE
  5
218
330
1F
100
AcDbEntity
  8
C-A
  6
Continuous
 62
     3
370
     9
100
AcDbLine
 10
-564.0932952777756
 20
754.8918308567357
 30
0.0
 11
-555.0936004535567
 21
754.8918308567357
 31
0.0
  0
LINE
  5
219
330
1F
100
AcDbEntity
  8
C-A
  6
Continuous
 62
     3
370
     9
100
AcDbLine
 10
-564.0932952777756
 20
751.3563083957981
 30
0.0
 11
-555.0936004535567
 21
751.3563083957981
 31
0.0
  0
LINE
  5
21A
330
1F
100
AcDbEntity
  8
C-A
  6
Continuous
 62
     3
370
     9
100
AcDbLine
 10
-579.0932952777756
 20
758.4273533176734
 30
0.0
 11
-570.0936004535567
 21
758.4273533176734
 31
0.0
  0
LINE
  5
21B
330
1F
100
AcDbEntity
  8
C-A
  6
Continuous
 62
     3
370
     9
100
AcDbLine
 10
-579.0932952777756
 20
754.8918308567357
 30
0.0
 11
-570.0936004535567
 21
754.8918308567357
 31
0.0
  0
LINE
  5
21C
330
1F
100
AcDbEntity
  8
C-A
  6
Continuous
 62
     3
370
     9
100
AcDbLine
 10
-579.0932952777756
 20
751.3563083957981
 30
0.0
 11
-570.0936004535567
 21
751.3563083957981
 31
0.0
  0
LINE
  5
21D
330
1F
100
AcDbEntity
  8
C-A
  6
Continuous
 62
     3
370
     9
100
AcDbLine
 10
-594.0932952777756
 20
758.4273533176734
 30
0.0
 11
-585.0936004535567
 21
758.4273533176734
 31
0.0
  0
LINE
  5
21E
330
1F
100
AcDbEntity
  8
C-A
  6
Continuous
 62
     3
370
     9
100
AcDbLine
 10
-594.0932952777756
 20
754.8918308567357
 30
0.0
 11
-585.0936004535567
 21
754.8918308567357
 31
0.0
  0
LINE
  5
21F
330
1F
100
AcDbEntity
  8
C-A
  6
Continuous
 62
     3
370
     9
100
AcDbLine
 10
-594.0932952777756
 20
751.3563083957981
 30
0.0
 11
-585.0936004535567
 21
751.3563083957981
 31
0.0
  0
LINE
  5
220
330
1F
100
AcDbEntity
  8
C-A
  6
Continuous
 62
     3
370
     9
100
AcDbLine
 10
-609.0932952777756
 20
758.4273533176734
 30
0.0
 11
-600.0936004535567
 21
758.4273533176734
 31
0.0
  0
LINE
  5
221
330
1F
100
AcDbEntity
  8
C-A
  6
Continuous
 62
     3
370
     9
100
AcDbLine
 10
-609.0932952777756
 20
754.8918308567357
 30
0.0
 11
-600.0936004535567
 21
754.8918308567357
 31
0.0
  0
LINE
  5
222
330
1F
100
AcDbEntity
  8
C-A
  6
Continuous
 62
     3
370
     9
100
AcDbLine
 10
-609.0932952777756
 20
751.3563083957981
 30
0.0
 11
-600.0936004535567
 21
751.3563083957981
 31
0.0
  0
LINE
  5
223
330
1F
100
AcDbEntity
  8
C-A
  6
Continuous
 62
     3
370
     9
100
AcDbLine
 10
-264.0934631244552
 20
758.4273533176734
 30
0.0
 11
-255.0937683002365
 21
758.4273533176734
 31
0.0
  0
LINE
  5
224
330
1F
100
AcDbEntity
  8
C-A
  6
Continuous
 62
     3
370
     9
100
AcDbLine
 10
-264.0934631244552
 20
754.8918308567357
 30
0.0
 11
-255.0937683002365
 21
754.8918308567357
 31
0.0
  0
LINE
  5
225
330
1F
100
AcDbEntity
  8
C-A
  6
Continuous
 62
     3
370
     9
100
AcDbLine
 10
-264.0934631244552
 20
751.3563083957981
 30
0.0
 11
-255.0937683002365
 21
751.3563083957981
 31
0.0
  0
LINE
  5
226
330
1F
100
AcDbEntity
  8
C-A
  6
Continuous
 62
     3
370
     9
100
AcDbLine
 10
-279.093402089299
 20
758.4273533176734
 30
0.0
 11
-270.0937072650802
 21
758.4273533176734
 31
0.0
  0
LINE
  5
227
330
1F
100
AcDbEntity
  8
C-A
  6
Continuous
 62
     3
370
     9
100
AcDbLine
 10
-279.093402089299
 20
754.8918308567357
 30
0.0
 11
-270.0937072650802
 21
754.8918308567357
 31
0.0
  0
LINE
  5
228
330
1F
100
AcDbEntity
  8
C-A
  6
Continuous
 62
     3
370
     9
100
AcDbLine
 10
-279.093402089299
 20
751.3563083957981
 30
0.0
 11
-270.0937072650802
 21
751.3563083957981
 31
0.0
  0
LINE
  5
229
330
1F
100
AcDbEntity
  8
C-A
  6
Continuous
 62
     3
370
     9
100
AcDbLine
 10
-294.093402089299
 20
758.4273533176734
 30
0.0
 11
-285.0937072650802
 21
758.4273533176734
 31
0.0
  0
LINE
  5
22A
330
1F
100
AcDbEntity
  8
C-A
  6
Continuous
 62
     3
370
     9
100
AcDbLine
 10
-294.093402089299
 20
754.8918308567357
 30
0.0
 11
-285.0937072650802
 21
754.8918308567357
 31
0.0
  0
LINE
  5
22B
330
1F
100
AcDbEntity
  8
C-A
  6
Continuous
 62
     3
370
     9
100
AcDbLine
 10
-294.093402089299
 20
751.3563083957981
 30
0.0
 11
-285.0937072650802
 21
751.3563083957981
 31
0.0
  0
LINE
  5
22C
330
1F
100
AcDbEntity
  8
C-A
  6
Continuous
 62
     3
370
     9
100
AcDbLine
 10
-249.0934631244552
 20
758.4273533176734
 30
0.0
 11
-240.0937683002365
 21
758.4273533176734
 31
0.0
  0
LINE
  5
22D
330
1F
100
AcDbEntity
  8
C-A
  6
Continuous
 62
     3
370
     9
100
AcDbLine
 10
-249.0934631244552
 20
754.8918308567357
 30
0.0
 11
-240.0937683002365
 21
754.8918308567357
 31
0.0
  0
LINE
  5
22E
330
1F
100
AcDbEntity
  8
C-A
  6
Continuous
 62
     3
370
     9
100
AcDbLine
 10
-249.0934631244552
 20
751.3563083957981
 30
0.0
 11
-240.0937683002365
 21
751.3563083957981
 31
0.0
  0
LINE
  5
22F
330
1F
100
AcDbEntity
  8
C-A
  6
Continuous
 62
     3
370
     9
100
AcDbLine
 10
-309.093402089299
 20
858.4273533176734
 30
0.0
 11
-300.0936767475021
 21
858.4273533176734
 31
0.0
  0
LINE
  5
230
330
1F
100
AcDbEntity
  8
C-A
  6
Continuous
 62
     3
370
     9
100
AcDbLine
 10
-309.093402089299
 20
854.8918308567357
 30
0.0
 11
-300.0936767475021
 21
854.8918308567357
 31
0.0
  0
LINE
  5
231
330
1F
100
AcDbEntity
  8
C-A
  6
Continuous
 62
     3
370
     9
100
AcDbLine
 10
-309.093402089299
 20
851.3563083957981
 30
0.0
 11
-300.0936767475021
 21
851.3563083957981
 31
0.0
  0
LINE
  5
232
330
1F
100
AcDbEntity
  8
C-A
  6
Continuous
 62
     3
370
     9
100
AcDbLine
 10
-324.0933410541427
 20
858.4273533176734
 30
0.0
 11
-315.0936157123459
 21
858.4273533176734
 31
0.0
  0
LINE
  5
233
330
1F
100
AcDbEntity
  8
C-A
  6
Continuous
 62
     3
370
     9
100
AcDbLine
 10
-324.0933410541427
 20
854.8918308567357
 30
0.0
 11
-315.0936157123459
 21
854.8918308567357
 31
0.0
  0
LINE
  5
234
330
1F
100
AcDbEntity
  8
C-A
  6
Continuous
 62
     3
370
     9
100
AcDbLine
 10
-324.0933410541427
 20
851.3563083957981
 30
0.0
 11
-315.0936157123459
 21
851.3563083957981
 31
0.0
  0
LINE
  5
235
330
1F
100
AcDbEntity
  8
C-A
  6
Continuous
 62
     3
370
     9
100
AcDbLine
 10
-339.0933410541427
 20
858.4273533176734
 30
0.0
 11
-330.0936157123459
 21
858.4273533176734
 31
0.0
  0
LINE
  5
236
330
1F
100
AcDbEntity
  8
C-A
  6
Continuous
 62
     3
370
     9
100
AcDbLine
 10
-339.0933410541427
 20
854.8918308567357
 30
0.0
 11
-330.0936157123459
 21
854.8918308567357
 31
0.0
  0
LINE
  5
237
330
1F
100
AcDbEntity
  8
C-A
  6
Continuous
 62
     3
370
     9
100
AcDbLine
 10
-339.0933410541427
 20
851.3563083957981
 30
0.0
 11
-330.0936157123459
 21
851.3563083957981
 31
0.0
  0
LINE
  5
238
330
1F
100
AcDbEntity
  8
C-A
  6
Continuous
 62
     3
370
     9
100
AcDbLine
 10
-354.0933410541427
 20
858.4273533176734
 30
0.0
 11
-345.0936157123459
 21
858.4273533176734
 31
0.0
  0
LINE
  5
239
330
1F
100
AcDbEntity
  8
C-A
  6
Continuous
 62
     3
370
     9
100
AcDbLine
 10
-354.0933410541427
 20
854.8918308567357
 30
0.0
 11
-345.0936157123459
 21
854.8918308567357
 31
0.0
  0
LINE
  5
23A
330
1F
100
AcDbEntity
  8
C-A
  6
Continuous
 62
     3
370
     9
100
AcDbLine
 10
-354.0933410541427
 20
851.3563083957981
 30
0.0
 11
-345.0936157123459
 21
851.3563083957981
 31
0.0
  0
LINE
  5
23B
330
1F
100
AcDbEntity
  8
C-A
  6
Continuous
 62
     3
370
     9
100
AcDbLine
 10
-369.0933105365646
 20
858.4273533176734
 30
0.0
 11
-360.0936157123459
 21
858.4273533176734
 31
0.0
  0
LINE
  5
23C
330
1F
100
AcDbEntity
  8
C-A
  6
Continuous
 62
     3
370
     9
100
AcDbLine
 10
-369.0933105365646
 20
854.8918308567357
 30
0.0
 11
-360.0936157123459
 21
854.8918308567357
 31
0.0
  0
LINE
  5
23D
330
1F
100
AcDbEntity
  8
C-A
  6
Continuous
 62
     3
370
     9
100
AcDbLine
 10
-369.0933105365646
 20
851.3563083957981
 30
0.0
 11
-360.0936157123459
 21
851.3563083957981
 31
0.0
  0
LINE
  5
23E
330
1F
100
AcDbEntity
  8
C-A
  6
Continuous
 62
     3
370
     9
100
AcDbLine
 10
-384.0933105365646
 20
858.4273533176734
 30
0.0
 11
-375.0936157123459
 21
858.4273533176734
 31
0.0
  0
LINE
  5
23F
330
1F
100
AcDbEntity
  8
C-A
  6
Continuous
 62
     3
370
     9
100
AcDbLine
 10
-384.0933105365646
 20
854.8918308567357
 30
0.0
 11
-375.0936157123459
 21
854.8918308567357
 31
0.0
  0
LINE
  5
240
330
1F
100
AcDbEntity
  8
C-A
  6
Continuous
 62
     3
370
     9
100
AcDbLine
 10
-384.0933105365646
 20
851.3563083957981
 30
0.0
 11
-375.0936157123459
 21
851.3563083957981
 31
0.0
  0
LINE
  5
241
330
1F
100
AcDbEntity
  8
C-A
  6
Continuous
 62
     3
370
     9
100
AcDbLine
 10
-399.0933105365646
 20
858.4273533176734
 30
0.0
 11
-390.0936157123459
 21
858.4273533176734
 31
0.0
  0
LINE
  5
242
330
1F
100
AcDbEntity
  8
C-A
  6
Continuous
 62
     3
370
     9
100
AcDbLine
 10
-399.0933105365646
 20
854.8918308567357
 30
0.0
 11
-390.0936157123459
 21
854.8918308567357
 31
0.0
  0
LINE
  5
243
330
1F
100
AcDbEntity
  8
C-A
  6
Continuous
 62
     3
370
     9
100
AcDbLine
 10
-399.0933105365646
 20
851.3563083957981
 30
0.0
 11
-390.0936157123459
 21
851.3563083957981
 31
0.0
  0
LINE
  5
244
330
1F
100
AcDbEntity
  8
C-A
  6
Continuous
 62
     3
370
     9
100
AcDbLine
 10
-414.0933105365646
 20
858.4273533176734
 30
0.0
 11
-405.0936157123459
 21
858.4273533176734
 31
0.0
  0
LINE
  5
245
330
1F
100
AcDbEntity
  8
C-A
  6
Continuous
 62
     3
370
     9
100
AcDbLine
 10
-414.0933105365646
 20
854.8918308567357
 30
0.0
 11
-405.0936157123459
 21
854.8918308567357
 31
0.0
  0
LINE
  5
246
330
1F
100
AcDbEntity
  8
C-A
  6
Continuous
 62
     3
370
     9
100
AcDbLine
 10
-414.0933105365646
 20
851.3563083957981
 30
0.0
 11
-405.0936157123459
 21
851.3563083957981
 31
0.0
  0
LINE
  5
247
330
1F
100
AcDbEntity
  8
C-A
  6
Continuous
 62
     3
370
     9
100
AcDbLine
 10
-429.0933105365646
 20
858.4273533176734
 30
0.0
 11
-420.0936157123459
 21
858.4273533176734
 31
0.0
  0
LINE
  5
248
330
1F
100
AcDbEntity
  8
C-A
  6
Continuous
 62
     3
370
     9
100
AcDbLine
 10
-429.0933105365646
 20
854.8918308567357
 30
0.0
 11
-420.0936157123459
 21
854.8918308567357
 31
0.0
  0
LINE
  5
249
330
1F
100
AcDbEntity
  8
C-A
  6
Continuous
 62
     3
370
     9
100
AcDbLine
 10
-429.0933105365646
 20
851.3563083957981
 30
0.0
 11
-420.0936157123459
 21
851.3563083957981
 31
0.0
  0
LINE
  5
24A
330
1F
100
AcDbEntity
  8
C-A
  6
Continuous
 62
     3
370
     9
100
AcDbLine
 10
-444.0932952777756
 20
858.4273533176734
 30
0.0
 11
-435.0936004535567
 21
858.4273533176734
 31
0.0
  0
LINE
  5
24B
330
1F
100
AcDbEntity
  8
C-A
  6
Continuous
 62
     3
370
     9
100
AcDbLine
 10
-444.0932952777756
 20
854.8918308567357
 30
0.0
 11
-435.0936004535567
 21
854.8918308567357
 31
0.0
  0
LINE
  5
24C
330
1F
100
AcDbEntity
  8
C-A
  6
Continuous
 62
     3
370
     9
100
AcDbLine
 10
-444.0932952777756
 20
851.3563083957981
 30
0.0
 11
-435.0936004535567
 21
851.3563083957981
 31
0.0
  0
LINE
  5
24D
330
1F
100
AcDbEntity
  8
C-A
  6
Continuous
 62
     3
370
     9
100
AcDbLine
 10
-459.0932952777756
 20
858.4273533176734
 30
0.0
 11
-450.0936004535567
 21
858.4273533176734
 31
0.0
  0
LINE
  5
24E
330
1F
100
AcDbEntity
  8
C-A
  6
Continuous
 62
     3
370
     9
100
AcDbLine
 10
-459.0932952777756
 20
854.8918308567357
 30
0.0
 11
-450.0936004535567
 21
854.8918308567357
 31
0.0
  0
LINE
  5
24F
330
1F
100
AcDbEntity
  8
C-A
  6
Continuous
 62
     3
370
     9
100
AcDbLine
 10
-459.0932952777756
 20
851.3563083957981
 30
0.0
 11
-450.0936004535567
 21
851.3563083957981
 31
0.0
  0
LINE
  5
250
330
1F
100
AcDbEntity
  8
C-A
  6
Continuous
 62
     3
370
     9
100
AcDbLine
 10
-474.0932952777756
 20
858.4273533176734
 30
0.0
 11
-465.0936004535567
 21
858.4273533176734
 31
0.0
  0
LINE
  5
251
330
1F
100
AcDbEntity
  8
C-A
  6
Continuous
 62
     3
370
     9
100
AcDbLine
 10
-474.0932952777756
 20
854.8918308567357
 30
0.0
 11
-465.0936004535567
 21
854.8918308567357
 31
0.0
  0
LINE
  5
252
330
1F
100
AcDbEntity
  8
C-A
  6
Continuous
 62
     3
370
     9
100
AcDbLine
 10
-474.0932952777756
 20
851.3563083957981
 30
0.0
 11
-465.0936004535567
 21
851.3563083957981
 31
0.0
  0
LINE
  5
253
330
1F
100
AcDbEntity
  8
C-A
  6
Continuous
 62
     3
370
     9
100
AcDbLine
 10
-489.0932952777756
 20
858.4273533176734
 30
0.0
 11
-480.0936004535567
 21
858.4273533176734
 31
0.0
  0
LINE
  5
254
330
1F
100
AcDbEntity
  8
C-A
  6
Continuous
 62
     3
370
     9
100
AcDbLine
 10
-489.0932952777756
 20
854.8918308567357
 30
0.0
 11
-480.0936004535567
 21
854.8918308567357
 31
0.0
  0
LINE
  5
255
330
1F
100
AcDbEntity
  8
C-A
  6
Continuous
 62
     3
370
     9
100
AcDbLine
 10
-489.0932952777756
 20
851.3563083957981
 30
0.0
 11
-480.0936004535567
 21
851.3563083957981
 31
0.0
  0
LINE
  5
256
330
1F
100
AcDbEntity
  8
C-A
  6
Continuous
 62
     3
370
     9
100
AcDbLine
 10
-504.0932952777756
 20
858.4273533176734
 30
0.0
 11
-495.0936004535567
 21
858.4273533176734
 31
0.0
  0
LINE
  5
257
330
1F
100
AcDbEntity
  8
C-A
  6
Continuous
 62
     3
370
     9
100
AcDbLine
 10
-504.0932952777756
 20
854.8918308567357
 30
0.0
 11
-495.0936004535567
 21
854.8918308567357
 31
0.0
  0
LINE
  5
258
330
1F
100
AcDbEntity
  8
C-A
  6
Continuous
 62
     3
370
     9
100
AcDbLine
 10
-504.0932952777756
 20
851.3563083957981
 30
0.0
 11
-495.0936004535567
 21
851.3563083957981
 31
0.0
  0
LINE
  5
259
330
1F
100
AcDbEntity
  8
C-A
  6
Continuous
 62
     3
370
     9
100
AcDbLine
 10
-519.0932952777756
 20
858.4273533176734
 30
0.0
 11
-510.0936004535567
 21
858.4273533176734
 31
0.0
  0
LINE
  5
25A
330
1F
100
AcDbEntity
  8
C-A
  6
Continuous
 62
     3
370
     9
100
AcDbLine
 10
-519.0932952777756
 20
854.8918308567357
 30
0.0
 11
-510.0936004535567
 21
854.8918308567357
 31
0.0
  0
LINE
  5
25B
330
1F
100
AcDbEntity
  8
C-A
  6
Continuous
 62
     3
370
     9
100
AcDbLine
 10
-519.0932952777756
 20
851.3563083957981
 30
0.0
 11
-510.0936004535567
 21
851.3563083957981
 31
0.0
  0
LINE
  5
25C
330
1F
100
AcDbEntity
  8
C-A
  6
Continuous
 62
     3
370
     9
100
AcDbLine
 10
-534.0932952777756
 20
858.4273533176734
 30
0.0
 11
-525.0936004535567
 21
858.4273533176734
 31
0.0
  0
LINE
  5
25D
330
1F
100
AcDbEntity
  8
C-A
  6
Continuous
 62
     3
370
     9
100
AcDbLine
 10
-534.0932952777756
 20
854.8918308567357
 30
0.0
 11
-525.0936004535567
 21
854.8918308567357
 31
0.0
  0
LINE
  5
25E
330
1F
100
AcDbEntity
  8
C-A
  6
Continuous
 62
     3
370
     9
100
AcDbLine
 10
-534.0932952777756
 20
851.3563083957981
 30
0.0
 11
-525.0936004535567
 21
851.3563083957981
 31
0.0
  0
LINE
  5
25F
330
1F
100
AcDbEntity
  8
C-A
  6
Continuous
 62
     3
370
     9
100
AcDbLine
 10
-549.0932952777756
 20
858.4273533176734
 30
0.0
 11
-540.0936004535567
 21
858.4273533176734
 31
0.0
  0
LINE
  5
260
330
1F
100
AcDbEntity
  8
C-A
  6
Continuous
 62
     3
370
     9
100
AcDbLine
 10
-549.0932952777756
 20
854.8918308567357
 30
0.0
 11
-540.0936004535567
 21
854.8918308567357
 31
0.0
  0
LINE
  5
261
330
1F
100
AcDbEntity
  8
C-A
  6
Continuous
 62
     3
370
     9
100
AcDbLine
 10
-549.0932952777756
 20
851.3563083957981
 30
0.0
 11
-540.0936004535567
 21
851.3563083957981
 31
0.0
  0
LINE
  5
262
330
1F
100
AcDbEntity
  8
C-A
  6
Continuous
 62
     3
370
     9
100
AcDbLine
 10
-564.0932952777756
 20
858.4273533176734
 30
0.0
 11
-555.0936004535567
 21
858.4273533176734
 31
0.0
  0
LINE
  5
263
330
1F
100
AcDbEntity
  8
C-A
  6
Continuous
 62
     3
370
     9
100
AcDbLine
 10
-564.0932952777756
 20
854.8918308567357
 30
0.0
 11
-555.0936004535567
 21
854.8918308567357
 31
0.0
  0
LINE
  5
264
330
1F
100
AcDbEntity
  8
C-A
  6
Continuous
 62
     3
370
     9
100
AcDbLine
 10
-564.0932952777756
 20
851.3563083957981
 30
0.0
 11
-555.0936004535567
 21
851.3563083957981
 31
0.0
  0
LINE
  5
265
330
1F
100
AcDbEntity
  8
C-A
  6
Continuous
 62
     3
370
     9
100
AcDbLine
 10
-579.0932952777756
 20
858.4273533176734
 30
0.0
 11
-570.0936004535567
 21
858.4273533176734
 31
0.0
  0
LINE
  5
266
330
1F
100
AcDbEntity
  8
C-A
  6
Continuous
 62
     3
370
     9
100
AcDbLine
 10
-579.0932952777756
 20
854.8918308567357
 30
0.0
 11
-570.0936004535567
 21
854.8918308567357
 31
0.0
  0
LINE
  5
267
330
1F
100
AcDbEntity
  8
C-A
  6
Continuous
 62
     3
370
     9
100
AcDbLine
 10
-579.0932952777756
 20
851.3563083957981
 30
0.0
 11
-570.0936004535567
 21
851.3563083957981
 31
0.0
  0
LINE
  5
268
330
1F
100
AcDbEntity
  8
C-A
  6
Continuous
 62
     3
370
     9
100
AcDbLine
 10
-594.0932952777756
 20
858.4273533176734
 30
0.0
 11
-585.0936004535567
 21
858.4273533176734
 31
0.0
  0
LINE
  5
269
330
1F
100
AcDbEntity
  8
C-A
  6
Continuous
 62
     3
370
     9
100
AcDbLine
 10
-594.0932952777756
 20
854.8918308567357
 30
0.0
 11
-585.0936004535567
 21
854.8918308567357
 31
0.0
  0
LINE
  5
26A
330
1F
100
AcDbEntity
  8
C-A
  6
Continuous
 62
     3
370
     9
100
AcDbLine
 10
-594.0932952777756
 20
851.3563083957981
 30
0.0
 11
-585.0936004535567
 21
851.3563083957981
 31
0.0
  0
LINE
  5
26B
330
1F
100
AcDbEntity
  8
C-A
  6
Continuous
 62
     3
370
     9
100
AcDbLine
 10
-609.0932952777756
 20
858.4273533176734
 30
0.0
 11
-600.0936004535567
 21
858.4273533176734
 31
0.0
  0
LINE
  5
26C
330
1F
100
AcDbEntity
  8
C-A
  6
Continuous
 62
     3
370
     9
100
AcDbLine
 10
-609.0932952777756
 20
854.8918308567357
 30
0.0
 11
-600.0936004535567
 21
854.8918308567357
 31
0.0
  0
LINE
  5
26D
330
1F
100
AcDbEntity
  8
C-A
  6
Continuous
 62
     3
370
     9
100
AcDbLine
 10
-609.0932952777756
 20
851.3563083957981
 30
0.0
 11
-600.0936004535567
 21
851.3563083957981
 31
0.0
  0
LINE
  5
26E
330
1F
100
AcDbEntity
  8
C-A
  6
Continuous
 62
     3
370
     9
100
AcDbLine
 10
-264.0934631244552
 20
858.4273533176734
 30
0.0
 11
-255.0937683002365
 21
858.4273533176734
 31
0.0
  0
LINE
  5
26F
330
1F
100
AcDbEntity
  8
C-A
  6
Continuous
 62
     3
370
     9
100
AcDbLine
 10
-264.0934631244552
 20
854.8918308567357
 30
0.0
 11
-255.0937683002365
 21
854.8918308567357
 31
0.0
  0
LINE
  5
270
330
1F
100
AcDbEntity
  8
C-A
  6
Continuous
 62
     3
370
     9
100
AcDbLine
 10
-264.0934631244552
 20
851.3563083957981
 30
0.0
 11
-255.0937683002365
 21
851.3563083957981
 31
0.0
  0
LINE
  5
271
330
1F
100
AcDbEntity
  8
C-A
  6
Continuous
 62
     3
370
     9
100
AcDbLine
 10
-279.093402089299
 20
858.4273533176734
 30
0.0
 11
-270.0937072650802
 21
858.4273533176734
 31
0.0
  0
LINE
  5
272
330
1F
100
AcDbEntity
  8
C-A
  6
Continuous
 62
     3
370
     9
100
AcDbLine
 10
-279.093402089299
 20
854.8918308567357
 30
0.0
 11
-270.0937072650802
 21
854.8918308567357
 31
0.0
  0
LINE
  5
273
330
1F
100
AcDbEntity
  8
C-A
  6
Continuous
 62
     3
370
     9
100
AcDbLine
 10
-279.093402089299
 20
851.3563083957981
 30
0.0
 11
-270.0937072650802
 21
851.3563083957981
 31
0.0
  0
LINE
  5
274
330
1F
100
AcDbEntity
  8
C-A
  6
Continuous
 62
     3
370
     9
100
AcDbLine
 10
-294.093402089299
 20
858.4273533176734
 30
0.0
 11
-285.0937072650802
 21
858.4273533176734
 31
0.0
  0
LINE
  5
275
330
1F
100
AcDbEntity
  8
C-A
  6
Continuous
 62
     3
370
     9
100
AcDbLine
 10
-294.093402089299
 20
854.8918308567357
 30
0.0
 11
-285.0937072650802
 21
854.8918308567357
 31
0.0
  0
LINE
  5
276
330
1F
100
AcDbEntity
  8
C-A
  6
Continuous
 62
     3
370
     9
100
AcDbLine
 10
-294.093402089299
 20
851.3563083957981
 30
0.0
 11
-285.0937072650802
 21
851.3563083957981
 31
0.0
  0
LINE
  5
277
330
1F
100
AcDbEntity
  8
C-A
  6
Continuous
 62
     3
370
     9
100
AcDbLine
 10
-249.0934631244552
 20
858.4273533176734
 30
0.0
 11
-240.0937683002365
 21
858.4273533176734
 31
0.0
  0
LINE
  5
278
330
1F
100
AcDbEntity
  8
C-A
  6
Continuous
 62
     3
370
     9
100
AcDbLine
 10
-249.0934631244552
 20
854.8918308567357
 30
0.0
 11
-240.0937683002365
 21
854.8918308567357
 31
0.0
  0
LINE
  5
279
330
1F
100
AcDbEntity
  8
C-A
  6
Continuous
 62
     3
370
     9
100
AcDbLine
 10
-249.0934631244552
 20
851.3563083957981
 30
0.0
 11
-240.0937683002365
 21
851.3563083957981
 31
0.0
  0
LINE
  5
27A
330
1F
100
AcDbEntity
  8
C-A
  6
Continuous
 62
     3
370
     9
100
AcDbLine
 10
-309.093402089299
 20
658.4273533176734
 30
0.0
 11
-300.0936767475021
 21
658.4273533176734
 31
0.0
  0
LINE
  5
27B
330
1F
100
AcDbEntity
  8
C-A
  6
Continuous
 62
     3
370
     9
100
AcDbLine
 10
-309.093402089299
 20
654.8918308567357
 30
0.0
 11
-300.0936767475021
 21
654.8918308567357
 31
0.0
  0
LINE
  5
27C
330
1F
100
AcDbEntity
  8
C-A
  6
Continuous
 62
     3
370
     9
100
AcDbLine
 10
-309.093402089299
 20
651.3563083957981
 30
0.0
 11
-300.0936767475021
 21
651.3563083957981
 31
0.0
  0
LINE
  5
27D
330
1F
100
AcDbEntity
  8
C-A
  6
Continuous
 62
     3
370
     9
100
AcDbLine
 10
-324.0933410541427
 20
658.4273533176734
 30
0.0
 11
-315.0936157123459
 21
658.4273533176734
 31
0.0
  0
LINE
  5
27E
330
1F
100
AcDbEntity
  8
C-A
  6
Continuous
 62
     3
370
     9
100
AcDbLine
 10
-324.0933410541427
 20
654.8918308567357
 30
0.0
 11
-315.0936157123459
 21
654.8918308567357
 31
0.0
  0
LINE
  5
27F
330
1F
100
AcDbEntity
  8
C-A
  6
Continuous
 62
     3
370
     9
100
AcDbLine
 10
-324.0933410541427
 20
651.3563083957981
 30
0.0
 11
-315.0936157123459
 21
651.3563083957981
 31
0.0
  0
LINE
  5
280
330
1F
100
AcDbEntity
  8
C-A
  6
Continuous
 62
     3
370
     9
100
AcDbLine
 10
-339.0933410541427
 20
658.4273533176734
 30
0.0
 11
-330.0936157123459
 21
658.4273533176734
 31
0.0
  0
LINE
  5
281
330
1F
100
AcDbEntity
  8
C-A
  6
Continuous
 62
     3
370
     9
100
AcDbLine
 10
-339.0933410541427
 20
654.8918308567357
 30
0.0
 11
-330.0936157123459
 21
654.8918308567357
 31
0.0
  0
LINE
  5
282
330
1F
100
AcDbEntity
  8
C-A
  6
Continuous
 62
     3
370
     9
100
AcDbLine
 10
-339.0933410541427
 20
651.3563083957981
 30
0.0
 11
-330.0936157123459
 21
651.3563083957981
 31
0.0
  0
LINE
  5
283
330
1F
100
AcDbEntity
  8
C-A
  6
Continuous
 62
     3
370
     9
100
AcDbLine
 10
-354.0933410541427
 20
658.4273533176734
 30
0.0
 11
-345.0936157123459
 21
658.4273533176734
 31
0.0
  0
LINE
  5
284
330
1F
100
AcDbEntity
  8
C-A
  6
Continuous
 62
     3
370
     9
100
AcDbLine
 10
-354.0933410541427
 20
654.8918308567357
 30
0.0
 11
-345.0936157123459
 21
654.8918308567357
 31
0.0
  0
LINE
  5
285
330
1F
100
AcDbEntity
  8
C-A
  6
Continuous
 62
     3
370
     9
100
AcDbLine
 10
-354.0933410541427
 20
651.3563083957981
 30
0.0
 11
-345.0936157123459
 21
651.3563083957981
 31
0.0
  0
LINE
  5
286
330
1F
100
AcDbEntity
  8
C-A
  6
Continuous
 62
     3
370
     9
100
AcDbLine
 10
-369.0933105365646
 20
658.4273533176734
 30
0.0
 11
-360.0936157123459
 21
658.4273533176734
 31
0.0
  0
LINE
  5
287
330
1F
100
AcDbEntity
  8
C-A
  6
Continuous
 62
     3
370
     9
100
AcDbLine
 10
-369.0933105365646
 20
654.8918308567357
 30
0.0
 11
-360.0936157123459
 21
654.8918308567357
 31
0.0
  0
LINE
  5
288
330
1F
100
AcDbEntity
  8
C-A
  6
Continuous
 62
     3
370
     9
100
AcDbLine
 10
-369.0933105365646
 20
651.3563083957981
 30
0.0
 11
-360.0936157123459
 21
651.3563083957981
 31
0.0
  0
LINE
  5
289
330
1F
100
AcDbEntity
  8
C-A
  6
Continuous
 62
     3
370
     9
100
AcDbLine
 10
-384.0933105365646
 20
658.4273533176734
 30
0.0
 11
-375.0936157123459
 21
658.4273533176734
 31
0.0
  0
LINE
  5
28A
330
1F
100
AcDbEntity
  8
C-A
  6
Continuous
 62
     3
370
     9
100
AcDbLine
 10
-384.0933105365646
 20
654.8918308567357
 30
0.0
 11
-375.0936157123459
 21
654.8918308567357
 31
0.0
  0
LINE
  5
28B
330
1F
100
AcDbEntity
  8
C-A
  6
Continuous
 62
     3
370
     9
100
AcDbLine
 10
-384.0933105365646
 20
651.3563083957981
 30
0.0
 11
-375.0936157123459
 21
651.3563083957981
 31
0.0
  0
LINE
  5
28C
330
1F
100
AcDbEntity
  8
C-A
  6
Continuous
 62
     3
370
     9
100
AcDbLine
 10
-399.0933105365646
 20
658.4273533176734
 30
0.0
 11
-390.0936157123459
 21
658.4273533176734
 31
0.0
  0
LINE
  5
28D
330
1F
100
AcDbEntity
  8
C-A
  6
Continuous
 62
     3
370
     9
100
AcDbLine
 10
-399.0933105365646
 20
654.8918308567357
 30
0.0
 11
-390.0936157123459
 21
654.8918308567357
 31
0.0
  0
LINE
  5
28E
330
1F
100
AcDbEntity
  8
C-A
  6
Continuous
 62
     3
370
     9
100
AcDbLine
 10
-399.0933105365646
 20
651.3563083957981
 30
0.0
 11
-390.0936157123459
 21
651.3563083957981
 31
0.0
  0
LINE
  5
28F
330
1F
100
AcDbEntity
  8
C-A
  6
Continuous
 62
     3
370
     9
100
AcDbLine
 10
-414.0933105365646
 20
658.4273533176734
 30
0.0
 11
-405.0936157123459
 21
658.4273533176734
 31
0.0
  0
LINE
  5
290
330
1F
100
AcDbEntity
  8
C-A
  6
Continuous
 62
     3
370
     9
100
AcDbLine
 10
-414.0933105365646
 20
654.8918308567357
 30
0.0
 11
-405.0936157123459
 21
654.8918308567357
 31
0.0
  0
LINE
  5
291
330
1F
100
AcDbEntity
  8
C-A
  6
Continuous
 62
     3
370
     9
100
AcDbLine
 10
-414.0933105365646
 20
651.3563083957981
 30
0.0
 11
-405.0936157123459
 21
651.3563083957981
 31
0.0
  0
LINE
  5
292
330
1F
100
AcDbEntity
  8
C-A
  6
Continuous
 62
     3
370
     9
100
AcDbLine
 10
-429.0933105365646
 20
658.4273533176734
 30
0.0
 11
-420.0936157123459
 21
658.4273533176734
 31
0.0
  0
LINE
  5
293
330
1F
100
AcDbEntity
  8
C-A
  6
Continuous
 62
     3
370
     9
100
AcDbLine
 10
-429.0933105365646
 20
654.8918308567357
 30
0.0
 11
-420.0936157123459
 21
654.8918308567357
 31
0.0
  0
LINE
  5
294
330
1F
100
AcDbEntity
  8
C-A
  6
Continuous
 62
     3
370
     9
100
AcDbLine
 10
-429.0933105365646
 20
651.3563083957981
 30
0.0
 11
-420.0936157123459
 21
651.3563083957981
 31
0.0
  0
LINE
  5
295
330
1F
100
AcDbEntity
  8
C-A
  6
Continuous
 62
     3
370
     9
100
AcDbLine
 10
-444.0932952777756
 20
658.4273533176734
 30
0.0
 11
-435.0936004535567
 21
658.4273533176734
 31
0.0
  0
LINE
  5
296
330
1F
100
AcDbEntity
  8
C-A
  6
Continuous
 62
     3
370
     9
100
AcDbLine
 10
-444.0932952777756
 20
654.8918308567357
 30
0.0
 11
-435.0936004535567
 21
654.8918308567357
 31
0.0
  0
LINE
  5
297
330
1F
100
AcDbEntity
  8
C-A
  6
Continuous
 62
     3
370
     9
100
AcDbLine
 10
-444.0932952777756
 20
651.3563083957981
 30
0.0
 11
-435.0936004535567
 21
651.3563083957981
 31
0.0
  0
LINE
  5
298
330
1F
100
AcDbEntity
  8
C-A
  6
Continuous
 62
     3
370
     9
100
AcDbLine
 10
-459.0932952777756
 20
658.4273533176734
 30
0.0
 11
-450.0936004535567
 21
658.4273533176734
 31
0.0
  0
LINE
  5
299
330
1F
100
AcDbEntity
  8
C-A
  6
Continuous
 62
     3
370
     9
100
AcDbLine
 10
-459.0932952777756
 20
654.8918308567357
 30
0.0
 11
-450.0936004535567
 21
654.8918308567357
 31
0.0
  0
LINE
  5
29A
330
1F
100
AcDbEntity
  8
C-A
  6
Continuous
 62
     3
370
     9
100
AcDbLine
 10
-459.0932952777756
 20
651.3563083957981
 30
0.0
 11
-450.0936004535567
 21
651.3563083957981
 31
0.0
  0
LINE
  5
29B
330
1F
100
AcDbEntity
  8
C-A
  6
Continuous
 62
     3
370
     9
100
AcDbLine
 10
-474.0932952777756
 20
658.4273533176734
 30
0.0
 11
-465.0936004535567
 21
658.4273533176734
 31
0.0
  0
LINE
  5
29C
330
1F
100
AcDbEntity
  8
C-A
  6
Continuous
 62
     3
370
     9
100
AcDbLine
 10
-474.0932952777756
 20
654.8918308567357
 30
0.0
 11
-465.0936004535567
 21
654.8918308567357
 31
0.0
  0
LINE
  5
29D
330
1F
100
AcDbEntity
  8
C-A
  6
Continuous
 62
     3
370
     9
100
AcDbLine
 10
-474.0932952777756
 20
651.3563083957981
 30
0.0
 11
-465.0936004535567
 21
651.3563083957981
 31
0.0
  0
LINE
  5
29E
330
1F
100
AcDbEntity
  8
C-A
  6
Continuous
 62
     3
370
     9
100
AcDbLine
 10
-489.0932952777756
 20
658.4273533176734
 30
0.0
 11
-480.0936004535567
 21
658.4273533176734
 31
0.0
  0
LINE
  5
29F
330
1F
100
AcDbEntity
  8
C-A
  6
Continuous
 62
     3
370
     9
100
AcDbLine
 10
-489.0932952777756
 20
654.8918308567357
 30
0.0
 11
-480.0936004535567
 21
654.8918308567357
 31
0.0
  0
LINE
  5
2A0
330
1F
100
AcDbEntity
  8
C-A
  6
Continuous
 62
     3
370
     9
100
AcDbLine
 10
-489.0932952777756
 20
651.3563083957981
 30
0.0
 11
-480.0936004535567
 21
651.3563083957981
 31
0.0
  0
LINE
  5
2A1
330
1F
100
AcDbEntity
  8
C-A
  6
Continuous
 62
     3
370
     9
100
AcDbLine
 10
-504.0932952777756
 20
658.4273533176734
 30
0.0
 11
-495.0936004535567
 21
658.4273533176734
 31
0.0
  0
LINE
  5
2A2
330
1F
100
AcDbEntity
  8
C-A
  6
Continuous
 62
     3
370
     9
100
AcDbLine
 10
-504.0932952777756
 20
654.8918308567357
 30
0.0
 11
-495.0936004535567
 21
654.8918308567357
 31
0.0
  0
LINE
  5
2A3
330
1F
100
AcDbEntity
  8
C-A
  6
Continuous
 62
     3
370
     9
100
AcDbLine
 10
-504.0932952777756
 20
651.3563083957981
 30
0.0
 11
-495.0936004535567
 21
651.3563083957981
 31
0.0
  0
LINE
  5
2A4
330
1F
100
AcDbEntity
  8
C-A
  6
Continuous
 62
     3
370
     9
100
AcDbLine
 10
-519.0932952777756
 20
658.4273533176734
 30
0.0
 11
-510.0936004535567
 21
658.4273533176734
 31
0.0
  0
LINE
  5
2A5
330
1F
100
AcDbEntity
  8
C-A
  6
Continuous
 62
     3
370
     9
100
AcDbLine
 10
-519.0932952777756
 20
654.8918308567357
 30
0.0
 11
-510.0936004535567
 21
654.8918308567357
 31
0.0
  0
LINE
  5
2A6
330
1F
100
AcDbEntity
  8
C-A
  6
Continuous
 62
     3
370
     9
100
AcDbLine
 10
-519.0932952777756
 20
651.3563083957981
 30
0.0
 11
-510.0936004535567
 21
651.3563083957981
 31
0.0
  0
LINE
  5
2A7
330
1F
100
AcDbEntity
  8
C-A
  6
Continuous
 62
     3
370
     9
100
AcDbLine
 10
-534.0932952777756
 20
658.4273533176734
 30
0.0
 11
-525.0936004535567
 21
658.4273533176734
 31
0.0
  0
LINE
  5
2A8
330
1F
100
AcDbEntity
  8
C-A
  6
Continuous
 62
     3
370
     9
100
AcDbLine
 10
-534.0932952777756
 20
654.8918308567357
 30
0.0
 11
-525.0936004535567
 21
654.8918308567357
 31
0.0
  0
LINE
  5
2A9
330
1F
100
AcDbEntity
  8
C-A
  6
Continuous
 62
     3
370
     9
100
AcDbLine
 10
-534.0932952777756
 20
651.3563083957981
 30
0.0
 11
-525.0936004535567
 21
651.3563083957981
 31
0.0
  0
LINE
  5
2AA
330
1F
100
AcDbEntity
  8
C-A
  6
Continuous
 62
     3
370
     9
100
AcDbLine
 10
-549.0932952777756
 20
658.4273533176734
 30
0.0
 11
-540.0936004535567
 21
658.4273533176734
 31
0.0
  0
LINE
  5
2AB
330
1F
100
AcDbEntity
  8
C-A
  6
Continuous
 62
     3
370
     9
100
AcDbLine
 10
-549.0932952777756
 20
654.8918308567357
 30
0.0
 11
-540.0936004535567
 21
654.8918308567357
 31
0.0
  0
LINE
  5
2AC
330
1F
100
AcDbEntity
  8
C-A
  6
Continuous
 62
     3
370
     9
100
AcDbLine
 10
-549.0932952777756
 20
651.3563083957981
 30
0.0
 11
-540.0936004535567
 21
651.3563083957981
 31
0.0
  0
LINE
  5
2AD
330
1F
100
AcDbEntity
  8
C-A
  6
Continuous
 62
     3
370
     9
100
AcDbLine
 10
-564.0932952777756
 20
658.4273533176734
 30
0.0
 11
-555.0936004535567
 21
658.4273533176734
 31
0.0
  0
LINE
  5
2AE
330
1F
100
AcDbEntity
  8
C-A
  6
Continuous
 62
     3
370
     9
100
AcDbLine
 10
-564.0932952777756
 20
654.8918308567357
 30
0.0
 11
-555.0936004535567
 21
654.8918308567357
 31
0.0
  0
LINE
  5
2AF
330
1F
100
AcDbEntity
  8
C-A
  6
Continuous
 62
     3
370
     9
100
AcDbLine
 10
-564.0932952777756
 20
651.3563083957981
 30
0.0
 11
-555.0936004535567
 21
651.3563083957981
 31
0.0
  0
LINE
  5
2B0
330
1F
100
AcDbEntity
  8
C-A
  6
Continuous
 62
     3
370
     9
100
AcDbLine
 10
-579.0932952777756
 20
658.4273533176734
 30
0.0
 11
-570.0936004535567
 21
658.4273533176734
 31
0.0
  0
LINE
  5
2B1
330
1F
100
AcDbEntity
  8
C-A
  6
Continuous
 62
     3
370
     9
100
AcDbLine
 10
-579.0932952777756
 20
654.8918308567357
 30
0.0
 11
-570.0936004535567
 21
654.8918308567357
 31
0.0
  0
LINE
  5
2B2
330
1F
100
AcDbEntity
  8
C-A
  6
Continuous
 62
     3
370
     9
100
AcDbLine
 10
-579.0932952777756
 20
651.3563083957981
 30
0.0
 11
-570.0936004535567
 21
651.3563083957981
 31
0.0
  0
LINE
  5
2B3
330
1F
100
AcDbEntity
  8
C-A
  6
Continuous
 62
     3
370
     9
100
AcDbLine
 10
-594.0932952777756
 20
658.4273533176734
 30
0.0
 11
-585.0936004535567
 21
658.4273533176734
 31
0.0
  0
LINE
  5
2B4
330
1F
100
AcDbEntity
  8
C-A
  6
Continuous
 62
     3
370
     9
100
AcDbLine
 10
-594.0932952777756
 20
654.8918308567357
 30
0.0
 11
-585.0936004535567
 21
654.8918308567357
 31
0.0
  0
LINE
  5
2B5
330
1F
100
AcDbEntity
  8
C-A
  6
Continuous
 62
     3
370
     9
100
AcDbLine
 10
-594.0932952777756
 20
651.3563083957981
 30
0.0
 11
-585.0936004535567
 21
651.3563083957981
 31
0.0
  0
LINE
  5
2B6
330
1F
100
AcDbEntity
  8
C-A
  6
Continuous
 62
     3
370
     9
100
AcDbLine
 10
-609.0932952777756
 20
658.4273533176734
 30
0.0
 11
-600.0936004535567
 21
658.4273533176734
 31
0.0
  0
LINE
  5
2B7
330
1F
100
AcDbEntity
  8
C-A
  6
Continuous
 62
     3
370
     9
100
AcDbLine
 10
-609.0932952777756
 20
654.8918308567357
 30
0.0
 11
-600.0936004535567
 21
654.8918308567357
 31
0.0
  0
LINE
  5
2B8
330
1F
100
AcDbEntity
  8
C-A
  6
Continuous
 62
     3
370
     9
100
AcDbLine
 10
-609.0932952777756
 20
651.3563083957981
 30
0.0
 11
-600.0936004535567
 21
651.3563083957981
 31
0.0
  0
LINE
  5
2B9
330
1F
100
AcDbEntity
  8
C-A
  6
Continuous
 62
     3
370
     9
100
AcDbLine
 10
-264.0934631244552
 20
658.4273533176734
 30
0.0
 11
-255.0937683002365
 21
658.4273533176734
 31
0.0
  0
LINE
  5
2BA
330
1F
100
AcDbEntity
  8
C-A
  6
Continuous
 62
     3
370
     9
100
AcDbLine
 10
-264.0934631244552
 20
654.8918308567357
 30
0.0
 11
-255.0937683002365
 21
654.8918308567357
 31
0.0
  0
LINE
  5
2BB
330
1F
100
AcDbEntity
  8
C-A
  6
Continuous
 62
     3
370
     9
100
AcDbLine
 10
-264.0934631244552
 20
651.3563083957981
 30
0.0
 11
-255.0937683002365
 21
651.3563083957981
 31
0.0
  0
LINE
  5
2BC
330
1F
100
AcDbEntity
  8
C-A
  6
Continuous
 62
     3
370
     9
100
AcDbLine
 10
-279.093402089299
 20
658.4273533176734
 30
0.0
 11
-270.0937072650802
 21
658.4273533176734
 31
0.0
  0
LINE
  5
2BD
330
1F
100
AcDbEntity
  8
C-A
  6
Continuous
 62
     3
370
     9
100
AcDbLine
 10
-279.093402089299
 20
654.8918308567357
 30
0.0
 11
-270.0937072650802
 21
654.8918308567357
 31
0.0
  0
LINE
  5
2BE
330
1F
100
AcDbEntity
  8
C-A
  6
Continuous
 62
     3
370
     9
100
AcDbLine
 10
-279.093402089299
 20
651.3563083957981
 30
0.0
 11
-270.0937072650802
 21
651.3563083957981
 31
0.0
  0
LINE
  5
2BF
330
1F
100
AcDbEntity
  8
C-A
  6
Continuous
 62
     3
370
     9
100
AcDbLine
 10
-294.093402089299
 20
658.4273533176734
 30
0.0
 11
-285.0937072650802
 21
658.4273533176734
 31
0.0
  0
LINE
  5
2C0
330
1F
100
AcDbEntity
  8
C-A
  6
Continuous
 62
     3
370
     9
100
AcDbLine
 10
-294.093402089299
 20
654.8918308567357
 30
0.0
 11
-285.0937072650802
 21
654.8918308567357
 31
0.0
  0
LINE
  5
2C1
330
1F
100
AcDbEntity
  8
C-A
  6
Continuous
 62
     3
370
     9
100
AcDbLine
 10
-294.093402089299
 20
651.3563083957981
 30
0.0
 11
-285.0937072650802
 21
651.3563083957981
 31
0.0
  0
LINE
  5
2C2
330
1F
100
AcDbEntity
  8
C-A
  6
Continuous
 62
     3
370
     9
100
AcDbLine
 10
-369.0933105365646
 20
558.4273685764623
 30
0.0
 11
-360.0936157123459
 21
558.4273685764623
 31
0.0
  0
LINE
  5
2C3
330
1F
100
AcDbEntity
  8
C-A
  6
Continuous
 62
     3
370
     9
100
AcDbLine
 10
-369.0933105365646
 20
554.8918308567357
 30
0.0
 11
-360.0936157123459
 21
554.8918308567357
 31
0.0
  0
LINE
  5
2C4
330
1F
100
AcDbEntity
  8
C-A
  6
Continuous
 62
     3
370
     9
100
AcDbLine
 10
-369.0933105365646
 20
551.3562931370092
 30
0.0
 11
-360.0936157123459
 21
551.3562931370092
 31
0.0
  0
LINE
  5
2C5
330
1F
100
AcDbEntity
  8
C-A
  6
Continuous
 62
     3
370
     9
100
AcDbLine
 10
-384.0933105365646
 20
558.4273685764623
 30
0.0
 11
-375.0936157123459
 21
558.4273685764623
 31
0.0
  0
LINE
  5
2C6
330
1F
100
AcDbEntity
  8
C-A
  6
Continuous
 62
     3
370
     9
100
AcDbLine
 10
-384.0933105365646
 20
554.8918308567357
 30
0.0
 11
-375.0936157123459
 21
554.8918308567357
 31
0.0
  0
LINE
  5
2C7
330
1F
100
AcDbEntity
  8
C-A
  6
Continuous
 62
     3
370
     9
100
AcDbLine
 10
-384.0933105365646
 20
551.3562931370092
 30
0.0
 11
-375.0936157123459
 21
551.3562931370092
 31
0.0
  0
LINE
  5
2C8
330
1F
100
AcDbEntity
  8
C-A
  6
Continuous
 62
     3
370
     9
100
AcDbLine
 10
-399.0933105365646
 20
558.4273685764623
 30
0.0
 11
-390.0936157123459
 21
558.4273685764623
 31
0.0
  0
LINE
  5
2C9
330
1F
100
AcDbEntity
  8
C-A
  6
Continuous
 62
     3
370
     9
100
AcDbLine
 10
-399.0933105365646
 20
554.8918308567357
 30
0.0
 11
-390.0936157123459
 21
554.8918308567357
 31
0.0
  0
LINE
  5
2CA
330
1F
100
AcDbEntity
  8
C-A
  6
Continuous
 62
     3
370
     9
100
AcDbLine
 10
-399.0933105365646
 20
551.3562931370092
 30
0.0
 11
-390.0936157123459
 21
551.3562931370092
 31
0.0
  0
LINE
  5
2CB
330
1F
100
AcDbEntity
  8
C-A
  6
Continuous
 62
     3
370
     9
100
AcDbLine
 10
-414.0933105365646
 20
558.4273685764623
 30
0.0
 11
-405.0936157123459
 21
558.4273685764623
 31
0.0
  0
LINE
  5
2CC
330
1F
100
AcDbEntity
  8
C-A
  6
Continuous
 62
     3
370
     9
100
AcDbLine
 10
-414.0933105365646
 20
554.8918308567357
 30
0.0
 11
-405.0936157123459
 21
554.8918308567357
 31
0.0
  0
LINE
  5
2CD
330
1F
100
AcDbEntity
  8
C-A
  6
Continuous
 62
     3
370
     9
100
AcDbLine
 10
-414.0933105365646
 20
551.3562931370092
 30
0.0
 11
-405.0936157123459
 21
551.3562931370092
 31
0.0
  0
LINE
  5
2CE
330
1F
100
AcDbEntity
  8
C-A
  6
Continuous
 62
     3
370
     9
100
AcDbLine
 10
-429.0933105365646
 20
558.4273685764623
 30
0.0
 11
-420.0936157123459
 21
558.4273685764623
 31
0.0
  0
LINE
  5
2CF
330
1F
100
AcDbEntity
  8
C-A
  6
Continuous
 62
     3
370
     9
100
AcDbLine
 10
-429.0933105365646
 20
554.8918308567357
 30
0.0
 11
-420.0936157123459
 21
554.8918308567357
 31
0.0
  0
LINE
  5
2D0
330
1F
100
AcDbEntity
  8
C-A
  6
Continuous
 62
     3
370
     9
100
AcDbLine
 10
-429.0933105365646
 20
551.3562931370092
 30
0.0
 11
-420.0936157123459
 21
551.3562931370092
 31
0.0
  0
LINE
  5
2D1
330
1F
100
AcDbEntity
  8
C-A
  6
Continuous
 62
     3
370
     9
100
AcDbLine
 10
-444.0932952777756
 20
558.4273685764623
 30
0.0
 11
-435.0936004535567
 21
558.4273685764623
 31
0.0
  0
LINE
  5
2D2
330
1F
100
AcDbEntity
  8
C-A
  6
Continuous
 62
     3
370
     9
100
AcDbLine
 10
-444.0932952777756
 20
554.8918308567357
 30
0.0
 11
-435.0936004535567
 21
554.8918308567357
 31
0.0
  0
LINE
  5
2D3
330
1F
100
AcDbEntity
  8
C-A
  6
Continuous
 62
     3
370
     9
100
AcDbLine
 10
-444.0932952777756
 20
551.3562931370092
 30
0.0
 11
-435.0936004535567
 21
551.3562931370092
 31
0.0
  0
LINE
  5
2D4
330
1F
100
AcDbEntity
  8
C-A
  6
Continuous
 62
     3
370
     9
100
AcDbLine
 10
-459.0932952777756
 20
558.4273685764623
 30
0.0
 11
-450.0936004535567
 21
558.4273685764623
 31
0.0
  0
LINE
  5
2D5
330
1F
100
AcDbEntity
  8
C-A
  6
Continuous
 62
     3
370
     9
100
AcDbLine
 10
-459.0932952777756
 20
554.8918308567357
 30
0.0
 11
-450.0936004535567
 21
554.8918308567357
 31
0.0
  0
LINE
  5
2D6
330
1F
100
AcDbEntity
  8
C-A
  6
Continuous
 62
     3
370
     9
100
AcDbLine
 10
-459.0932952777756
 20
551.3562931370092
 30
0.0
 11
-450.0936004535567
 21
551.3562931370092
 31
0.0
  0
LINE
  5
2D7
330
1F
100
AcDbEntity
  8
C-A
  6
Continuous
 62
     3
370
     9
100
AcDbLine
 10
-474.0932952777756
 20
558.4273685764623
 30
0.0
 11
-465.0936004535567
 21
558.4273685764623
 31
0.0
  0
LINE
  5
2D8
330
1F
100
AcDbEntity
  8
C-A
  6
Continuous
 62
     3
370
     9
100
AcDbLine
 10
-474.0932952777756
 20
554.8918308567357
 30
0.0
 11
-465.0936004535567
 21
554.8918308567357
 31
0.0
  0
LINE
  5
2D9
330
1F
100
AcDbEntity
  8
C-A
  6
Continuous
 62
     3
370
     9
100
AcDbLine
 10
-474.0932952777756
 20
551.3562931370092
 30
0.0
 11
-465.0936004535567
 21
551.3562931370092
 31
0.0
  0
LINE
  5
2DA
330
1F
100
AcDbEntity
  8
C-A
  6
Continuous
 62
     3
370
     9
100
AcDbLine
 10
-489.0932952777756
 20
558.4273685764623
 30
0.0
 11
-480.0936004535567
 21
558.4273685764623
 31
0.0
  0
LINE
  5
2DB
330
1F
100
AcDbEntity
  8
C-A
  6
Continuous
 62
     3
370
     9
100
AcDbLine
 10
-489.0932952777756
 20
554.8918308567357
 30
0.0
 11
-480.0936004535567
 21
554.8918308567357
 31
0.0
  0
LINE
  5
2DC
330
1F
100
AcDbEntity
  8
C-A
  6
Continuous
 62
     3
370
     9
100
AcDbLine
 10
-489.0932952777756
 20
551.3562931370092
 30
0.0
 11
-480.0936004535567
 21
551.3562931370092
 31
0.0
  0
LINE
  5
2DD
330
1F
100
AcDbEntity
  8
C-A
  6
Continuous
 62
     3
370
     9
100
AcDbLine
 10
-504.0932952777756
 20
558.4273685764623
 30
0.0
 11
-495.0936004535567
 21
558.4273685764623
 31
0.0
  0
LINE
  5
2DE
330
1F
100
AcDbEntity
  8
C-A
  6
Continuous
 62
     3
370
     9
100
AcDbLine
 10
-504.0932952777756
 20
554.8918308567357
 30
0.0
 11
-495.0936004535567
 21
554.8918308567357
 31
0.0
  0
LINE
  5
2DF
330
1F
100
AcDbEntity
  8
C-A
  6
Continuous
 62
     3
370
     9
100
AcDbLine
 10
-504.0932952777756
 20
551.3562931370092
 30
0.0
 11
-495.0936004535567
 21
551.3562931370092
 31
0.0
  0
LINE
  5
2E0
330
1F
100
AcDbEntity
  8
C-A
  6
Continuous
 62
     3
370
     9
100
AcDbLine
 10
-519.0932952777756
 20
558.4273685764623
 30
0.0
 11
-510.0936004535567
 21
558.4273685764623
 31
0.0
  0
LINE
  5
2E1
330
1F
100
AcDbEntity
  8
C-A
  6
Continuous
 62
     3
370
     9
100
AcDbLine
 10
-519.0932952777756
 20
554.8918308567357
 30
0.0
 11
-510.0936004535567
 21
554.8918308567357
 31
0.0
  0
LINE
  5
2E2
330
1F
100
AcDbEntity
  8
C-A
  6
Continuous
 62
     3
370
     9
100
AcDbLine
 10
-519.0932952777756
 20
551.3562931370092
 30
0.0
 11
-510.0936004535567
 21
551.3562931370092
 31
0.0
  0
LINE
  5
2E3
330
1F
100
AcDbEntity
  8
C-A
  6
Continuous
 62
     3
370
     9
100
AcDbLine
 10
-534.0932952777756
 20
558.4273685764623
 30
0.0
 11
-525.0936004535567
 21
558.4273685764623
 31
0.0
  0
LINE
  5
2E4
330
1F
100
AcDbEntity
  8
C-A
  6
Continuous
 62
     3
370
     9
100
AcDbLine
 10
-534.0932952777756
 20
554.8918308567357
 30
0.0
 11
-525.0936004535567
 21
554.8918308567357
 31
0.0
  0
LINE
  5
2E5
330
1F
100
AcDbEntity
  8
C-A
  6
Continuous
 62
     3
370
     9
100
AcDbLine
 10
-534.0932952777756
 20
551.3562931370092
 30
0.0
 11
-525.0936004535567
 21
551.3562931370092
 31
0.0
  0
LINE
  5
2E6
330
1F
100
AcDbEntity
  8
C-A
  6
Continuous
 62
     3
370
     9
100
AcDbLine
 10
-549.0932952777756
 20
558.4273685764623
 30
0.0
 11
-540.0936004535567
 21
558.4273685764623
 31
0.0
  0
LINE
  5
2E7
330
1F
100
AcDbEntity
  8
C-A
  6
Continuous
 62
     3
370
     9
100
AcDbLine
 10
-549.0932952777756
 20
554.8918308567357
 30
0.0
 11
-540.0936004535567
 21
554.8918308567357
 31
0.0
  0
LINE
  5
2E8
330
1F
100
AcDbEntity
  8
C-A
  6
Continuous
 62
     3
370
     9
100
AcDbLine
 10
-549.0932952777756
 20
551.3562931370092
 30
0.0
 11
-540.0936004535567
 21
551.3562931370092
 31
0.0
  0
LINE
  5
2E9
330
1F
100
AcDbEntity
  8
C-A
  6
Continuous
 62
     3
370
     9
100
AcDbLine
 10
-564.0932952777756
 20
558.4273685764623
 30
0.0
 11
-555.0936004535567
 21
558.4273685764623
 31
0.0
  0
LINE
  5
2EA
330
1F
100
AcDbEntity
  8
C-A
  6
Continuous
 62
     3
370
     9
100
AcDbLine
 10
-564.0932952777756
 20
554.8918308567357
 30
0.0
 11
-555.0936004535567
 21
554.8918308567357
 31
0.0
  0
LINE
  5
2EB
330
1F
100
AcDbEntity
  8
C-A
  6
Continuous
 62
     3
370
     9
100
AcDbLine
 10
-564.0932952777756
 20
551.3562931370092
 30
0.0
 11
-555.0936004535567
 21
551.3562931370092
 31
0.0
  0
LINE
  5
2EC
330
1F
100
AcDbEntity
  8
C-A
  6
Continuous
 62
     3
370
     9
100
AcDbLine
 10
-579.0932952777756
 20
558.4273685764623
 30
0.0
 11
-570.0936004535567
 21
558.4273685764623
 31
0.0
  0
LINE
  5
2ED
330
1F
100
AcDbEntity
  8
C-A
  6
Continuous
 62
     3
370
     9
100
AcDbLine
 10
-579.0932952777756
 20
554.8918308567357
 30
0.0
 11
-570.0936004535567
 21
554.8918308567357
 31
0.0
  0
LINE
  5
2EE
330
1F
100
AcDbEntity
  8
C-A
  6
Continuous
 62
     3
370
     9
100
AcDbLine
 10
-579.0932952777756
 20
551.3562931370092
 30
0.0
 11
-570.0936004535567
 21
551.3562931370092
 31
0.0
  0
LINE
  5
2EF
330
1F
100
AcDbEntity
  8
C-A
  6
Continuous
 62
     3
370
     9
100
AcDbLine
 10
-594.0932952777756
 20
558.4273685764623
 30
0.0
 11
-585.0936004535567
 21
558.4273685764623
 31
0.0
  0
LINE
  5
2F0
330
1F
100
AcDbEntity
  8
C-A
  6
Continuous
 62
     3
370
     9
100
AcDbLine
 10
-594.0932952777756
 20
554.8918308567357
 30
0.0
 11
-585.0936004535567
 21
554.8918308567357
 31
0.0
  0
LINE
  5
2F1
330
1F
100
AcDbEntity
  8
C-A
  6
Continuous
 62
     3
370
     9
100
AcDbLine
 10
-594.0932952777756
 20
551.3562931370092
 30
0.0
 11
-585.0936004535567
 21
551.3562931370092
 31
0.0
  0
LINE
  5
2F2
330
1F
100
AcDbEntity
  8
C-A
  6
Continuous
 62
     3
370
     9
100
AcDbLine
 10
-609.0932952777756
 20
558.4273685764623
 30
0.0
 11
-600.0936004535567
 21
558.4273685764623
 31
0.0
  0
LINE
  5
2F3
330
1F
100
AcDbEntity
  8
C-A
  6
Continuous
 62
     3
370
     9
100
AcDbLine
 10
-609.0932952777756
 20
554.8918308567357
 30
0.0
 11
-600.0936004535567
 21
554.8918308567357
 31
0.0
  0
LINE
  5
2F4
330
1F
100
AcDbEntity
  8
C-A
  6
Continuous
 62
     3
370
     9
100
AcDbLine
 10
-609.0932952777756
 20
551.3562931370092
 30
0.0
 11
-600.0936004535567
 21
551.3562931370092
 31
0.0
  0
LINE
  5
2F5
330
1F
100
AcDbEntity
  8
C-A
  6
Continuous
 62
     3
370
     9
100
AcDbLine
 10
-621.0940505878341
 20
751.3563083957981
 30
0.0
 11
-615.0939208881272
 21
751.3563083957981
 31
0.0
  0
LINE
  5
2F6
330
1F
100
AcDbEntity
  8
C-A
  6
Continuous
 62
     3
370
     9
100
AcDbLine
 10
-621.0940505878341
 20
754.8918308567357
 30
0.0
 11
-615.0939208881272
 21
754.8918308567357
 31
0.0
  0
LINE
  5
2F7
330
1F
100
AcDbEntity
  8
C-A
  6
Continuous
 62
     3
370
     9
100
AcDbLine
 10
-621.0940505878341
 20
758.4273533176734
 30
0.0
 11
-615.0939208881272
 21
758.4273533176734
 31
0.0
  0
LINE
  5
2F8
330
1F
100
AcDbEntity
  8
C-A
  6
Continuous
 62
     3
370
     9
100
AcDbLine
 10
-621.0940505878341
 20
851.3563083957981
 30
0.0
 11
-615.0939208881272
 21
851.3563083957981
 31
0.0
  0
LINE
  5
2F9
330
1F
100
AcDbEntity
  8
C-A
  6
Continuous
 62
     3
370
     9
100
AcDbLine
 10
-621.0940505878341
 20
854.8918308567357
 30
0.0
 11
-615.0939208881272
 21
854.8918308567357
 31
0.0
  0
LINE
  5
2FA
330
1F
100
AcDbEntity
  8
C-A
  6
Continuous
 62
     3
370
     9
100
AcDbLine
 10
-621.0940505878341
 20
858.4273533176734
 30
0.0
 11
-615.0939208881272
 21
858.4273533176734
 31
0.0
  0
LINE
  5
2FB
330
1F
100
AcDbEntity
  8
C-A
  6
Continuous
 62
     3
370
     9
100
AcDbLine
 10
-621.0940505878341
 20
651.3563083957981
 30
0.0
 11
-615.0939208881272
 21
651.3563083957981
 31
0.0
  0
LINE
  5
2FC
330
1F
100
AcDbEntity
  8
C-A
  6
Continuous
 62
     3
370
     9
100
AcDbLine
 10
-621.0940505878341
 20
654.8918308567357
 30
0.0
 11
-615.0939208881272
 21
654.8918308567357
 31
0.0
  0
LINE
  5
2FD
330
1F
100
AcDbEntity
  8
C-A
  6
Continuous
 62
     3
370
     9
100
AcDbLine
 10
-621.0940505878341
 20
658.4273533176734
 30
0.0
 11
-615.0939208881272
 21
658.4273533176734
 31
0.0
  0
LINE
  5
2FE
330
1F
100
AcDbEntity
  8
C-A
  6
Continuous
 62
     3
370
     9
100
AcDbLine
 10
-621.0940505878341
 20
551.3562931370092
 30
0.0
 11
-615.0939208881272
 21
551.3562931370092
 31
0.0
  0
LINE
  5
2FF
330
1F
100
AcDbEntity
  8
C-A
  6
Continuous
 62
     3
370
     9
100
AcDbLine
 10
-621.0940505878341
 20
554.8918308567357
 30
0.0
 11
-615.0939208881272
 21
554.8918308567357
 31
0.0
  0
LINE
  5
300
330
1F
100
AcDbEntity
  8
C-A
  6
Continuous
 62
     3
370
     9
100
AcDbLine
 10
-621.0940505878341
 20
558.4273685764623
 30
0.0
 11
-615.0939208881272
 21
558.4273685764623
 31
0.0
  0
LINE
  5
301
330
1F
100
AcDbEntity
  8
C-A
  6
Continuous
 62
     3
370
     9
100
AcDbLine
 10
-354.0933410541427
 20
554.8918308567357
 30
0.0
 11
-352.0940124408614
 21
554.8918308567357
 31
0.0
  0
LINE
  5
302
330
1F
100
AcDbEntity
  8
C-A
  6
Continuous
 62
     3
370
     9
100
AcDbLine
 10
-354.0933410541427
 20
558.4273685764623
 30
0.0
 11
-348.5584594623459
 21
558.4273685764623
 31
0.0
  0
LINE
  5
303
330
1F
100
AcDbEntity
  8
C-A
  6
Continuous
 62
     3
370
     9
100
AcDbLine
 10
-354.0933410541427
 20
926.8915867161106
 30
0.0
 11
-354.0933410541427
 21
552.8924869846653
 31
0.0
  0
LINE
  5
304
330
1F
100
AcDbEntity
  8
C-A
  6
Continuous
 62
     3
370
     9
100
AcDbLine
 10
-427.0942260639083
 20
479.8917545627904
 30
0.0
 11
-177.0940429584396
 21
729.8914341282202
 31
0.0
  0
LINE
  5
305
330
1F
100
AcDbEntity
  8
C-A
  6
Continuous
 62
     3
370
     9
100
AcDbLine
 10
-234.0934631244552
 20
758.4273533176734
 30
0.0
 11
-225.0940734760177
 21
758.4273533176734
 31
0.0
  0
LINE
  5
306
330
1F
100
AcDbEntity
  8
C-A
  6
Continuous
 62
     3
370
     9
100
AcDbLine
 10
-234.0934631244552
 20
754.8918308567357
 30
0.0
 11
-225.0940734760177
 21
754.8918308567357
 31
0.0
  0
LINE
  5
307
330
1F
100
AcDbEntity
  8
C-A
  6
Continuous
 62
     3
370
     9
100
AcDbLine
 10
-234.0934631244552
 20
751.3563083957981
 30
0.0
 11
-225.0940734760177
 21
751.3563083957981
 31
0.0
  0
LINE
  5
308
330
1F
100
AcDbEntity
  8
C-A
  6
Continuous
 62
     3
370
     9
100
AcDbLine
 10
-234.0934631244552
 20
858.4273533176734
 30
0.0
 11
-225.0940734760177
 21
858.4273533176734
 31
0.0
  0
LINE
  5
309
330
1F
100
AcDbEntity
  8
C-A
  6
Continuous
 62
     3
370
     9
100
AcDbLine
 10
-234.0934631244552
 20
854.8918308567357
 30
0.0
 11
-225.0940734760177
 21
854.8918308567357
 31
0.0
  0
LINE
  5
30A
330
1F
100
AcDbEntity
  8
C-A
  6
Continuous
 62
     3
370
     9
100
AcDbLine
 10
-234.0934631244552
 20
851.3563083957981
 30
0.0
 11
-225.0940734760177
 21
851.3563083957981
 31
0.0
  0
LINE
  5
30B
330
1F
100
AcDbEntity
  8
C-A
  6
Continuous
 62
     3
370
     9
100
AcDbLine
 10
-225.0940734760177
 20
926.8915867161106
 30
0.0
 11
-225.0940734760177
 21
681.8914036106421
 31
0.0
  0
LINE
  5
30C
330
1F
100
AcDbEntity
  8
C-A
  6
Continuous
 62
     3
370
     9
100
AcDbLine
 10
-219.0938293353927
 20
758.4273533176734
 30
0.0
 11
-210.094134511174
 21
758.4273533176734
 31
0.0
  0
LINE
  5
30D
330
1F
100
AcDbEntity
  8
C-A
  6
Continuous
 62
     3
370
     9
100
AcDbLine
 10
-219.0938293353927
 20
754.8918308567357
 30
0.0
 11
-210.094134511174
 21
754.8918308567357
 31
0.0
  0
LINE
  5
30E
330
1F
100
AcDbEntity
  8
C-A
  6
Continuous
 62
     3
370
     9
100
AcDbLine
 10
-219.0938293353927
 20
751.3563083957981
 30
0.0
 11
-210.094134511174
 21
751.3563083957981
 31
0.0
  0
LINE
  5
30F
330
1F
100
AcDbEntity
  8
C-A
  6
Continuous
 62
     3
370
     9
100
AcDbLine
 10
-204.0938293353927
 20
758.4273533176734
 30
0.0
 11
-195.094134511174
 21
758.4273533176734
 31
0.0
  0
LINE
  5
310
330
1F
100
AcDbEntity
  8
C-A
  6
Continuous
 62
     3
370
     9
100
AcDbLine
 10
-204.0938293353927
 20
754.8918308567357
 30
0.0
 11
-195.094134511174
 21
754.8918308567357
 31
0.0
  0
LINE
  5
311
330
1F
100
AcDbEntity
  8
C-A
  6
Continuous
 62
     3
370
     9
100
AcDbLine
 10
-204.0938293353927
 20
751.3563083957981
 30
0.0
 11
-195.094134511174
 21
751.3563083957981
 31
0.0
  0
LINE
  5
312
330
1F
100
AcDbEntity
  8
C-A
  6
Continuous
 62
     3
370
     9
100
AcDbLine
 10
-219.0938293353927
 20
858.4273533176734
 30
0.0
 11
-210.094134511174
 21
858.4273533176734
 31
0.0
  0
LINE
  5
313
330
1F
100
AcDbEntity
  8
C-A
  6
Continuous
 62
     3
370
     9
100
AcDbLine
 10
-219.0938293353927
 20
854.8918308567357
 30
0.0
 11
-210.094134511174
 21
854.8918308567357
 31
0.0
  0
LINE
  5
314
330
1F
100
AcDbEntity
  8
C-A
  6
Continuous
 62
     3
370
     9
100
AcDbLine
 10
-219.0938293353927
 20
851.3563083957981
 30
0.0
 11
-210.094134511174
 21
851.3563083957981
 31
0.0
  0
LINE
  5
315
330
1F
100
AcDbEntity
  8
C-A
  6
Continuous
 62
     3
370
     9
100
AcDbLine
 10
-204.0938293353927
 20
858.4273533176734
 30
0.0
 11
-195.094134511174
 21
858.4273533176734
 31
0.0
  0
LINE
  5
316
330
1F
100
AcDbEntity
  8
C-A
  6
Continuous
 62
     3
370
     9
100
AcDbLine
 10
-204.0938293353927
 20
854.8918308567357
 30
0.0
 11
-195.094134511174
 21
854.8918308567357
 31
0.0
  0
LINE
  5
317
330
1F
100
AcDbEntity
  8
C-A
  6
Continuous
 62
     3
370
     9
100
AcDbLine
 10
-204.0938293353927
 20
851.3563083957981
 30
0.0
 11
-195.094134511174
 21
851.3563083957981
 31
0.0
  0
LINE
  5
318
330
1F
100
AcDbEntity
  8
C-A
  6
Continuous
 62
     3
370
     9
100
AcDbLine
 10
-189.0938293353927
 20
758.4273533176734
 30
0.0
 11
-183.0941955463302
 21
758.4273533176734
 31
0.0
  0
LINE
  5
319
330
1F
100
AcDbEntity
  8
C-A
  6
Continuous
 62
     3
370
     9
100
AcDbLine
 10
-189.0938293353927
 20
754.8918308567357
 30
0.0
 11
-183.0941955463302
 21
754.8918308567357
 31
0.0
  0
LINE
  5
31A
330
1F
100
AcDbEntity
  8
C-A
  6
Continuous
 62
     3
370
     9
100
AcDbLine
 10
-189.0938293353927
 20
751.3563083957981
 30
0.0
 11
-183.0941955463302
 21
751.3563083957981
 31
0.0
  0
LINE
  5
31B
330
1F
100
AcDbEntity
  8
C-A
  6
Continuous
 62
     3
370
     9
100
AcDbLine
 10
-189.0938293353927
 20
858.4273533176734
 30
0.0
 11
-183.0941955463302
 21
858.4273533176734
 31
0.0
  0
LINE
  5
31C
330
1F
100
AcDbEntity
  8
C-A
  6
Continuous
 62
     3
370
     9
100
AcDbLine
 10
-189.0938293353927
 20
854.8918308567357
 30
0.0
 11
-183.0941955463302
 21
854.8918308567357
 31
0.0
  0
LINE
  5
31D
330
1F
100
AcDbEntity
  8
C-A
  6
Continuous
 62
     3
370
     9
100
AcDbLine
 10
-189.0938293353927
 20
851.3563083957981
 30
0.0
 11
-183.0941955463302
 21
851.3563083957981
 31
0.0
  0
LINE
  5
31E
330
1F
100
AcDbEntity
  8
C-A
  6
Continuous
 62
     3
370
     9
100
AcDbLine
 10
-183.0941955463302
 20
926.8915867161106
 30
0.0
 11
-183.0941955463302
 21
723.8913120579076
 31
0.0
  0
ARC
  5
31F
330
1F
100
AcDbEntity
  8
C-2
  6
Continuous
 62
     3
370
     9
100
AcDbCircle
 10
240.3983276470292
 20
1143.820175583298
 30
0.0
 40
37.50014114379883
100
AcDbArc
 50
53.13009643554687
 51
126.8699035644531
  0
ARC
  5
320
330
1F
100
AcDbEntity
  8
C-2
  6
Continuous
 62
     3
370
     9
100
AcDbCircle
 10
285.3988159282792
 20
1203.82048075908
 30
0.0
 40
37.50014114379883
100
AcDbArc
 50
233.1300964355469
 51
306.8699035644532
  0
ARC
  5
321
330
1F
100
AcDbEntity
  8
C-2
  6
Continuous
 62
     3
370
     9
100
AcDbCircle
 10
240.3983276470292
 20
804.4641880344702
 30
0.0
 40
37.50014114379883
100
AcDbArc
 50
53.13009643554687
 51
126.8699035644531
  0
ARC
  5
322
330
1F
100
AcDbEntity
  8
C-2
  6
Continuous
 62
     3
370
     9
100
AcDbCircle
 10
285.3988159282792
 20
864.4644626926731
 30
0.0
 40
37.50014114379883
100
AcDbArc
 50
233.1300964355469
 51
306.8699035644532
  0
ARC
  5
323
330
1F
100
AcDbEntity
  8
C-2
  6
Continuous
 62
     3
370
     9
100
AcDbCircle
 10
147.0515258892166
 20
484.4996189426732
 30
0.0
 40
5.0
100
AcDbArc
 50
359.9943237304688
 51
90.0
  0
ARC
  5
324
330
1F
100
AcDbEntity
  8
C-2
  6
Continuous
 62
     3
370
     9
100
AcDbCircle
 10
167.0515869243729
 20
484.4996189426732
 30
0.0
 40
5.0
100
AcDbArc
 50
90.0
 51
180.0
  0
ARC
  5
325
330
1F
100
AcDbEntity
  8
C-2
  6
Continuous
 62
     3
370
     9
100
AcDbCircle
 10
222.0516479595292
 20
484.4996189426732
 30
0.0
 40
5.0
100
AcDbArc
 50
359.9943237304688
 51
90.0
  0
ARC
  5
326
330
1F
100
AcDbEntity
  8
C-2
  6
Continuous
 62
     3
370
     9
100
AcDbCircle
 10
242.0521972759354
 20
484.4996189426732
 30
0.0
 40
5.0
100
AcDbArc
 50
90.0
 51
180.0
  0
ARC
  5
327
330
1F
100
AcDbEntity
  8
C-2
  6
Continuous
 62
     3
370
     9
100
AcDbCircle
 10
297.0517089946854
 20
484.4996189426732
 30
0.0
 40
5.0
100
AcDbArc
 50
359.9943237304688
 51
90.0
  0
ARC
  5
328
330
1F
100
AcDbEntity
  8
C-2
  6
Continuous
 62
     3
370
     9
100
AcDbCircle
 10
317.0523193462479
 20
484.4996189426732
 30
0.0
 40
5.0
100
AcDbArc
 50
90.0
 51
180.0
  0
LWPOLYLINE
  5
329
330
1F
100
AcDbEntity
  8
C-4
  6
Continuous
 62
     7
370
     9
100
AcDbPolyline
 90
        4
 70
     1
 43
1.0
 10
161.6852539165605
 20
883.9606785129856
 42
0.4142135623731
 10
161.1852539165605
 20
884.4606785129856
 42
0.4142135623731
 10
160.6852539165605
 20
883.9606785129856
 42
0.4142135623731
 10
161.1852539165605
 20
883.4606785129857
 42
0.4142135623731
  0
LWPOLYLINE
  5
32A
330
1F
100
AcDbEntity
  8
C-4
  6
Continuous
 62
     7
370
     9
100
AcDbPolyline
 90
        4
 70
     1
 43
1.0
 10
161.6852539165605
 20
923.9608616184544
 42
0.4142135623731
 10
161.1852539165605
 20
924.4608616184543
 42
0.4142135623731
 10
160.6852539165605
 20
923.9608616184544
 42
0.4142135623731
 10
161.1852539165605
 20
923.4608616184544
 42
0.4142135623731
  0
LWPOLYLINE
  5
32B
330
1F
100
AcDbEntity
  8
C-4
  6
Continuous
 62
     7
370
     9
100
AcDbPolyline
 90
        4
 70
     1
 43
1.0
 10
161.6852539165605
 20
1003.961227829392
 42
0.4142135623731
 10
161.1852539165605
 20
1004.461227829392
 42
0.4142135623731
 10
160.6852539165605
 20
1003.961227829392
 42
0.4142135623731
 10
161.1852539165605
 20
1003.461227829392
 42
0.4142135623731
  0
LWPOLYLINE
  5
32C
330
1F
100
AcDbEntity
  8
C-4
  6
Continuous
 62
     7
370
     9
100
AcDbPolyline
 90
        4
 70
     1
 43
1.0
 10
161.6852539165605
 20
1013.960800583299
 42
0.4142135623731
 10
161.1852539165605
 20
1014.460800583299
 42
0.4142135623731
 10
160.6852539165605
 20
1013.960800583299
 42
0.4142135623731
 10
161.1852539165605
 20
1013.460800583299
 42
0.4142135623731
  0
LWPOLYLINE
  5
32D
330
1F
100
AcDbEntity
  8
C-4
  6
Continuous
 62
     7
370
     9
100
AcDbPolyline
 90
        4
 70
     1
 43
1.0
 10
161.6852539165605
 20
1093.960678512985
 42
0.4142135623731
 10
161.1852539165605
 20
1094.460678512985
 42
0.4142135623731
 10
160.6852539165605
 20
1093.960678512985
 42
0.4142135623731
 10
161.1852539165605
 20
1093.460678512985
 42
0.4142135623731
  0
LWPOLYLINE
  5
32E
330
1F
100
AcDbEntity
  8
C-4
  6
Continuous
 62
     7
370
     9
100
AcDbPolyline
 90
        4
 70
     1
 43
1.0
 10
161.6852539165605
 20
1133.960861618455
 42
0.4142135623731
 10
161.1852539165605
 20
1134.460861618455
 42
0.4142135623731
 10
160.6852539165605
 20
1133.960861618455
 42
0.4142135623731
 10
161.1852539165605
 20
1133.460861618455
 42
0.4142135623731
  0
LWPOLYLINE
  5
32F
330
1F
100
AcDbEntity
  8
C-4
  6
Continuous
 62
     7
370
     9
100
AcDbPolyline
 90
        4
 70
     1
 43
1.0
 10
375.8501098735917
 20
957.5046238254859
 42
0.4142135623731
 10
375.3501098735917
 20
958.0046238254859
 42
0.4142135623731
 10
374.8501098735917
 20
957.5046238254859
 42
0.4142135623731
 10
375.3501098735917
 20
957.004623825486
 42
0.4142135623731
  0
LWPOLYLINE
  5
330
330
1F
100
AcDbEntity
  8
C-4
  6
Continuous
 62
     7
370
     9
100
AcDbPolyline
 90
        4
 70
     1
 43
1.0
 10
377.2869995220292
 20
962.2938083957981
 42
0.4142135623731
 10
376.7869995220292
 20
962.7938083957981
 42
0.4142135623731
 10
376.2869995220292
 20
962.2938083957981
 42
0.4142135623731
 10
376.7869995220292
 20
961.7938083957982
 42
0.4142135623731
  0
LWPOLYLINE
  5
331
330
1F
100
AcDbEntity
  8
C-4
  6
Continuous
 62
     7
370
     9
100
AcDbPolyline
 90
        4
 70
     1
 43
1.0
 10
233.3989379985917
 20
1226.578110153611
 42
0.4142135623731
 10
232.8989379985917
 20
1227.078110153611
 42
0.4142135623731
 10
232.3989379985917
 20
1226.578110153611
 42
0.4142135623731
 10
232.8989379985917
 20
1226.078110153611
 42
0.4142135623731
  0
LWPOLYLINE
  5
332
330
1F
100
AcDbEntity
  8
C-4
  6
Continuous
 62
     7
370
     9
100
AcDbPolyline
 90
        4
 70
     1
 43
1.0
 10
293.3982055767167
 20
1226.578110153611
 42
0.4142135623731
 10
292.8982055767167
 20
1227.078110153611
 42
0.4142135623731
 10
292.3982055767167
 20
1226.578110153611
 42
0.4142135623731
 10
292.8982055767167
 20
1226.078110153611
 42
0.4142135623731
  0
LWPOLYLINE
  5
333
330
1F
100
AcDbEntity
  8
C-4
  6
Continuous
 62
     7
370
     9
100
AcDbPolyline
 90
        4
 70
     1
 43
1.0
 10
437.8442504985917
 20
424.498840744431
 42
0.4142135623731
 10
437.3442504985917
 20
424.998840744431
 42
0.4142135623731
 10
436.8442504985917
 20
424.498840744431
 42
0.4142135623731
 10
437.3442504985917
 20
423.998840744431
 42
0.4142135623731
  0
LWPOLYLINE
  5
334
330
1F
100
AcDbEntity
  8
C-4
  6
Continuous
 62
     7
370
     9
100
AcDbPolyline
 90
        4
 70
     1
 43
1.0
 10
437.8442504985917
 20
499.4989475559544
 42
0.4142135623731
 10
437.3442504985917
 20
499.9989475559544
 42
0.4142135623731
 10
436.8442504985917
 20
499.4989475559544
 42
0.4142135623731
 10
437.3442504985917
 20
498.9989475559544
 42
0.4142135623731
  0
LWPOLYLINE
  5
335
330
1F
100
AcDbEntity
  8
C-4
  6
Continuous
 62
     7
370
     9
100
AcDbPolyline
 90
        4
 70
     1
 43
1.0
 10
142.5512817485917
 20
562.3838352512669
 42
0.4142135623731
 10
142.0512817485917
 20
562.8838352512669
 42
0.4142135623731
 10
141.5512817485917
 20
562.3838352512669
 42
0.4142135623731
 10
142.0512817485917
 20
561.883835251267
 42
0.4142135623731
  0
LWPOLYLINE
  5
336
330
1F
100
AcDbEntity
  8
C-4
  6
Continuous
 62
     7
370
     9
100
AcDbPolyline
 90
        4
 70
     1
 43
1.0
 10
172.5509155376541
 20
562.3838352512669
 42
0.4142135623731
 10
172.0509155376541
 20
562.8838352512669
 42
0.4142135623731
 10
171.5509155376541
 20
562.3838352512669
 42
0.4142135623731
 10
172.0509155376541
 20
561.883835251267
 42
0.4142135623731
  0
LWPOLYLINE
  5
337
330
1F
100
AcDbEntity
  8
C-4
  6
Continuous
 62
     7
370
     9
100
AcDbPolyline
 90
        4
 70
     1
 43
1.0
 10
217.551342783748
 20
562.3838352512669
 42
0.4142135623731
 10
217.051342783748
 20
562.8838352512669
 42
0.4142135623731
 10
216.551342783748
 20
562.3838352512669
 42
0.4142135623731
 10
217.051342783748
 20
561.883835251267
 42
0.4142135623731
  0
LWPOLYLINE
  5
338
330
1F
100
AcDbEntity
  8
C-4
  6
Continuous
 62
     7
370
     9
100
AcDbPolyline
 90
        4
 70
     1
 43
1.0
 10
247.5509765728104
 20
562.3838352512669
 42
0.4142135623731
 10
247.0509765728104
 20
562.8838352512669
 42
0.4142135623731
 10
246.5509765728104
 20
562.3838352512669
 42
0.4142135623731
 10
247.0509765728104
 20
561.883835251267
 42
0.4142135623731
  0
LWPOLYLINE
  5
339
330
1F
100
AcDbEntity
  8
C-4
  6
Continuous
 62
     7
370
     9
100
AcDbPolyline
 90
        4
 70
     1
 43
1.0
 10
292.5514648540605
 20
562.3838352512669
 42
0.4142135623731
 10
292.0514648540604
 20
562.8838352512669
 42
0.4142135623731
 10
291.5514648540604
 20
562.3838352512669
 42
0.4142135623731
 10
292.0514648540604
 20
561.883835251267
 42
0.4142135623731
  0
LWPOLYLINE
  5
33A
330
1F
100
AcDbEntity
  8
C-4
  6
Continuous
 62
     7
370
     9
100
AcDbPolyline
 90
        4
 70
     1
 43
1.0
 10
322.5510986431229
 20
562.3838352512669
 42
0.4142135623731
 10
322.0510986431229
 20
562.8838352512669
 42
0.4142135623731
 10
321.5510986431229
 20
562.3838352512669
 42
0.4142135623731
 10
322.0510986431229
 20
561.883835251267
 42
0.4142135623731
  0
LWPOLYLINE
  5
33B
330
1F
100
AcDbEntity
  8
C-4
  6
Continuous
 62
     7
370
     9
100
AcDbPolyline
 90
        4
 70
     1
 43
1.0
 10
142.5512817485917
 20
625.5011143040014
 42
0.4142135623731
 10
142.0512817485917
 20
626.0011143040014
 42
0.4142135623731
 10
141.5512817485917
 20
625.5011143040014
 42
0.4142135623731
 10
142.0512817485917
 20
625.0011143040014
 42
0.4142135623731
  0
LWPOLYLINE
  5
33C
330
1F
100
AcDbEntity
  8
C-4
  6
Continuous
 62
     7
370
     9
100
AcDbPolyline
 90
        4
 70
     1
 43
1.0
 10
217.551342783748
 20
625.5011143040014
 42
0.4142135623731
 10
217.051342783748
 20
626.0011143040014
 42
0.4142135623731
 10
216.551342783748
 20
625.5011143040014
 42
0.4142135623731
 10
217.051342783748
 20
625.0011143040014
 42
0.4142135623731
  0
LWPOLYLINE
  5
33D
330
1F
100
AcDbEntity
  8
C-4
  6
Continuous
 62
     7
370
     9
100
AcDbPolyline
 90
        4
 70
     1
 43
1.0
 10
292.5514648540605
 20
625.5011143040014
 42
0.4142135623731
 10
292.0514648540604
 20
626.0011143040014
 42
0.4142135623731
 10
291.5514648540604
 20
625.5011143040014
 42
0.4142135623731
 10
292.0514648540604
 20
625.0011143040014
 42
0.4142135623731
  0
TEXT
  5
33E
330
1F
100
AcDbEntity
  8
C-5
  6
Continuous
 62
     2
370
     9
100
AcDbText
 10
-669.5940029041184
 20
325.0315781330418
 30
0.0
 40
30.48
  1
平面詳細図　Ｓ＝１：１０
 41
1.114583333333333
  7
ＭＳ ゴシック
100
AcDbText
  0
TEXT
  5
33F
330
1F
100
AcDbEntity
  8
C-5
  6
Continuous
 62
     2
370
     9
100
AcDbText
 10
-250.8539916889083
 20
582.6025095676733
 30
0.0
 40
30.48
  1
Ａ
 41
0.9999999999999998
  7
ＭＳ ゴシック
100
AcDbText
  0
TEXT
  5
340
330
1F
100
AcDbEntity
  8
C-5
  6
Continuous
 62
     2
370
     9
100
AcDbText
 10
51.33192139702913
 20
328.5018416141819
 30
0.0
 40
30.48
  1
Ａ断面図　Ｓ＝１：２
 41
1.1125
  7
ＭＳ ゴシック
100
AcDbText
  0
TEXT
  5
341
330
1F
100
AcDbEntity
  8
C-5
  6
Continuous
 62
     7
370
     9
100
AcDbText
 10
-97.97313231390831
 20
717.0106553196263
 30
0.0
 40
22.86
  1
※デルタパターンの配列は一定ではありません。
 41
1.159090909090909
  7
ＭＳ ゴシック
100
AcDbText
  0
TEXT
  5
342
330
1F
100
AcDbEntity
  8
C-5
  6
Continuous
 62
     7
370
     9
100
AcDbText
 10
40.59260254937286
 20
775.6920212864234
 30
0.0
 40
22.86
  1
メインバー表面　Ｓ＝１：１
 41
1.153846153846154
  7
ＭＳ ゴシック
100
AcDbText
  0
TEXT
  5
343
330
1F
100
AcDbEntity
  8
C-5
  6
Continuous
 62
     7
370
     9
100
AcDbText
 10
326.8378418071854
 20
1123.11621562236
 30
0.0
 40
22.86
  1
デルタパターン
 41
1.142857142857143
  7
ＭＳ ゴシック
100
AcDbText
  0
TEXT
  5
344
330
1F
100
AcDbEntity
  8
C-4
  6
Continuous
 62
     2
370
     9
100
AcDbText
 10
150.5454980571855
 20
893.9607393016098
 30
0.0
 40
30.48
  1
4
 50
90.00000250447768
 41
1.000000000000001
  7
ＭＳ ゴシック
100
AcDbText
  0
TEXT
  5
345
330
1F
100
AcDbEntity
  8
C-4
  6
Continuous
 62
     2
370
     9
100
AcDbText
 10
150.5454980571855
 20
953.9609834422347
 30
0.0
 40
30.48
  1
8
 50
90.00000250447768
 41
1.000000000000001
  7
ＭＳ ゴシック
100
AcDbText
  0
TEXT
  5
346
330
1F
100
AcDbEntity
  8
C-4
  6
Continuous
 62
     2
370
     9
100
AcDbText
 10
150.5454980571855
 20
998.9609834422345
 30
0.0
 40
30.48
  1
1
 50
90.00000250447768
 41
1.000000000000001
  7
ＭＳ ゴシック
100
AcDbText
  0
TEXT
  5
347
330
1F
100
AcDbEntity
  8
C-4
  6
Continuous
 62
     2
370
     9
100
AcDbText
 10
150.5454980571855
 20
1043.960678266453
 30
0.0
 40
30.48
  1
8
 50
90.00000250447768
 41
1.000000000000001
  7
ＭＳ ゴシック
100
AcDbText
  0
TEXT
  5
348
330
1F
100
AcDbEntity
  8
C-4
  6
Continuous
 62
     2
370
     9
100
AcDbText
 10
150.5454980571855
 20
1103.96073930161
 30
0.0
 40
30.48
  1
4
 50
90.00000250447768
 41
1.000000000000001
  7
ＭＳ ゴシック
100
AcDbText
  0
TEXT
  5
349
330
1F
100
AcDbEntity
  8
C-4
  6
Continuous
 62
     2
370
     9
100
AcDbText
 10
369.3123527603142
 20
974.9643880700233
 30
0.0
 40
30.48
  1
0.5
 50
73.30064077628187
 41
1.083333333333341
  7
ＭＳ ゴシック
100
AcDbText
  0
TEXT
  5
34A
330
1F
100
AcDbEntity
  8
C-4
  6
Continuous
 62
     2
370
     9
100
AcDbText
 10
252.898510752498
 20
1237.218110153611
 30
0.0
 40
30.48
  1
6
 41
0.9999999999999998
  7
ＭＳ ゴシック
100
AcDbText
  0
TEXT
  5
34B
330
1F
100
AcDbEntity
  8
C-4
  6
Continuous
 62
     2
370
     9
100
AcDbText
 10
147.0510376079667
 20
573.02362162822
 30
0.0
 40
30.48
  1
6
 41
0.9999999999999998
  7
ＭＳ ゴシック
100
AcDbText
  0
TEXT
  5
34C
330
1F
100
AcDbEntity
  8
C-4
  6
Continuous
 62
     2
370
     9
100
AcDbText
 10
184.5510986431229
 20
573.02362162822
 30
0.0
 40
30.48
  1
9
 41
0.9999999999999998
  7
ＭＳ ゴシック
100
AcDbText
  0
TEXT
  5
34D
330
1F
100
AcDbEntity
  8
C-4
  6
Continuous
 62
     2
370
     9
100
AcDbText
 10
222.0510986431229
 20
573.02362162822
 30
0.0
 40
30.48
  1
6
 41
0.9999999999999998
  7
ＭＳ ゴシック
100
AcDbText
  0
TEXT
  5
34E
330
1F
100
AcDbEntity
  8
C-4
  6
Continuous
 62
     2
370
     9
100
AcDbText
 10
259.5511596782792
 20
573.02362162822
 30
0.0
 40
30.48
  1
9
 41
0.9999999999999998
  7
ＭＳ ゴシック
100
AcDbText
  0
TEXT
  5
34F
330
1F
100
AcDbEntity
  8
C-4
  6
Continuous
 62
     2
370
     9
100
AcDbText
 10
297.0512207134354
 20
573.02362162822
 30
0.0
 40
30.48
  1
6
 41
0.9999999999999998
  7
ＭＳ ゴシック
100
AcDbText
  0
TEXT
  5
350
330
1F
100
AcDbEntity
  8
C-4
  6
Continuous
 62
     2
370
     9
100
AcDbText
 10
158.3011596782792
 20
636.1409006809544
 30
0.0
 40
30.48
  1
15
 41
1.0625
  7
ＭＳ ゴシック
100
AcDbText
  0
TEXT
  5
351
330
1F
100
AcDbEntity
  8
C-4
  6
Continuous
 62
     2
370
     9
100
AcDbText
 10
233.3012207134354
 20
636.1409006809544
 30
0.0
 40
30.48
  1
15
 41
1.0625
  7
ＭＳ ゴシック
100
AcDbText
  0
TEXT
  5
352
330
1F
100
AcDbEntity
  8
C-4
  6
Continuous
 62
     2
370
     9
100
AcDbText
 10
426.7038842876541
 20
440.7487336863752
 30
0.0
 40
30.48
  1
15
 50
90.00000250447789
 41
1.062500000000001
  7
ＭＳ ゴシック
100
AcDbText
  0
LWPOLYLINE
  5
353
330
1F
100
AcDbEntity
  8
C-4
  6
Continuous
 62
     7
370
     9
100
AcDbPolyline
 90
        4
 70
     1
 43
1.0
 10
-627.5945274249923
 20
1064.891037399705
 42
0.4142135623731
 10
-628.0945274249923
 20
1065.391037399705
 42
0.4142135623731
 10
-628.5945274249923
 20
1064.891037399705
 42
0.4142135623731
 10
-628.0945274249923
 20
1064.391037399705
 42
0.4142135623731
  0
LINE
  5
354
330
1F
100
AcDbEntity
  8
C-4
  6
Continuous
 62
     7
370
     9
100
AcDbLine
 10
-628.0945274249923
 20
1064.891037399705
 30
0.0
 11
-627.094176472844
 21
1064.891037399705
 31
0.0
  0
LWPOLYLINE
  5
355
330
1F
100
AcDbEntity
  8
C-4
  6
Continuous
 62
     7
370
     9
100
AcDbPolyline
 90
        4
 70
     1
 43
1.0
 10
-626.594176472844
 20
1064.891037399705
 42
0.4142135623731
 10
-627.094176472844
 20
1065.391037399705
 42
0.4142135623731
 10
-627.594176472844
 20
1064.891037399705
 42
0.4142135623731
 10
-627.094176472844
 20
1064.391037399705
 42
0.4142135623731
  0
LINE
  5
356
330
1F
100
AcDbEntity
  8
C-4
  6
Continuous
 62
     7
370
     9
100
AcDbLine
 10
-627.094176472844
 20
1064.891037399705
 30
0.0
 11
-177.0940429584397
 21
1064.891037399705
 31
0.0
  0
LWPOLYLINE
  5
357
330
1F
100
AcDbEntity
  8
C-4
  6
Continuous
 62
     7
370
     9
100
AcDbPolyline
 90
        4
 70
     1
 43
1.0
 10
-176.5940429584397
 20
1064.891037399705
 42
0.4142135623731
 10
-177.0940429584397
 20
1065.391037399705
 42
0.4142135623731
 10
-177.5940429584397
 20
1064.891037399705
 42
0.4142135623731
 10
-177.0940429584397
 20
1064.391037399705
 42
0.4142135623731
  0
TEXT
  5
358
330
1F
100
AcDbEntity
  8
C-4
  6
Continuous
 62
     2
370
   211
100
AcDbText
 10
-434.5941097156418
 20
1076.531037638123
 30
0.0
 40
30.48
  1
450
 41
1.083333333333333
  7
ＭＳ ゴシック
100
AcDbText
  0
LINE
  5
359
330
1F
100
AcDbEntity
  8
C-4
  6
Continuous
 62
     7
370
     9
100
AcDbLine
 10
-177.0940429584397
 20
1064.891037399705
 30
0.0
 11
-176.0942260639084
 21
1064.891037399705
 31
0.0
  0
LWPOLYLINE
  5
35A
330
1F
100
AcDbEntity
  8
C-4
  6
Continuous
 62
     7
370
     9
100
AcDbPolyline
 90
        4
 70
     1
 43
1.0
 10
-175.5942260639084
 20
1064.891037399705
 42
0.4142135623731
 10
-176.0942260639084
 20
1065.391037399705
 42
0.4142135623731
 10
-176.5942260639084
 20
1064.891037399705
 42
0.4142135623731
 10
-176.0942260639084
 20
1064.391037399705
 42
0.4142135623731
  0
LINE
  5
35B
330
1F
100
AcDbEntity
  8
C-4
  6
Continuous
 62
     7
370
     9
100
AcDbLine
 10
-627.094176472844
 20
1009.891769821579
 30
0.0
 11
-602.0943099872483
 21
1009.891769821579
 31
0.0
  0
LWPOLYLINE
  5
35C
330
1F
100
AcDbEntity
  8
C-4
  6
Continuous
 62
     7
370
     9
100
AcDbPolyline
 90
        4
 70
     1
 43
1.0
 10
-626.594176472844
 20
1009.891769821579
 42
0.4142135623731
 10
-627.094176472844
 20
1010.391769821579
 42
0.4142135623731
 10
-627.594176472844
 20
1009.891769821579
 42
0.4142135623731
 10
-627.094176472844
 20
1009.391769821579
 42
0.4142135623731
  0
LWPOLYLINE
  5
35D
330
1F
100
AcDbEntity
  8
C-4
  6
Continuous
 62
     7
370
     9
100
AcDbPolyline
 90
        4
 70
     1
 43
1.0
 10
-601.5943099872483
 20
1009.891769821579
 42
0.4142135623731
 10
-602.0943099872483
 20
1010.391769821579
 42
0.4142135623731
 10
-602.5943099872483
 20
1009.891769821579
 42
0.4142135623731
 10
-602.0943099872483
 20
1009.391769821579
 42
0.4142135623731
  0
LINE
  5
35E
330
1F
100
AcDbEntity
  8
C-4
  6
Continuous
 62
     7
370
     9
100
AcDbLine
 10
-602.0943099872483
 20
1009.891769821579
 30
0.0
 11
-202.0939208881271
 21
1009.891769821579
 31
0.0
  0
LWPOLYLINE
  5
35F
330
1F
100
AcDbEntity
  8
C-4
  6
Continuous
 62
     7
370
     9
100
AcDbPolyline
 90
        4
 70
     1
 43
1.0
 10
-201.5939208881271
 20
1009.891769821579
 42
0.4142135623731
 10
-202.0939208881271
 20
1010.391769821579
 42
0.4142135623731
 10
-202.5939208881271
 20
1009.891769821579
 42
0.4142135623731
 10
-202.0939208881271
 20
1009.391769821579
 42
0.4142135623731
  0
TEXT
  5
360
330
1F
100
AcDbEntity
  8
C-4
  6
Continuous
 62
     2
370
   211
100
AcDbText
 10
-434.5941154376877
 20
1021.531770059998
 30
0.0
 40
30.48
  1
400
 41
1.083333333333333
  7
ＭＳ ゴシック
100
AcDbText
  0
LINE
  5
361
330
1F
100
AcDbEntity
  8
C-4
  6
Continuous
 62
     7
370
     9
100
AcDbLine
 10
-202.0939208881271
 20
1009.891769821579
 30
0.0
 11
-177.0940429584397
 21
1009.891769821579
 31
0.0
  0
LWPOLYLINE
  5
362
330
1F
100
AcDbEntity
  8
C-4
  6
Continuous
 62
     7
370
     9
100
AcDbPolyline
 90
        4
 70
     1
 43
1.0
 10
-176.5940429584397
 20
1009.891769821579
 42
0.4142135623731
 10
-177.0940429584397
 20
1010.391769821579
 42
0.4142135623731
 10
-177.5940429584397
 20
1009.891769821579
 42
0.4142135623731
 10
-177.0940429584397
 20
1009.391769821579
 42
0.4142135623731
  0
LINE
  5
363
330
1F
100
AcDbEntity
  8
C-4
  6
Continuous
 62
     7
370
     9
100
AcDbLine
 10
-628.0945274249923
 20
1067.891037518914
 30
0.0
 11
-628.0945274249923
 21
957.8917087864232
 31
0.0
  0
LINE
  5
364
330
1F
100
AcDbEntity
  8
C-4
  6
Continuous
 62
     7
370
     9
100
AcDbLine
 10
-627.094176472844
 20
1067.891037518914
 30
0.0
 11
-627.094176472844
 21
957.8917087864232
 31
0.0
  0
LINE
  5
365
330
1F
100
AcDbEntity
  8
C-4
  6
Continuous
 62
     7
370
     9
100
AcDbLine
 10
-177.0940429584397
 20
1067.891037518914
 30
0.0
 11
-177.0940429584397
 21
957.8917087864232
 31
0.0
  0
LINE
  5
366
330
1F
100
AcDbEntity
  8
C-4
  6
Continuous
 62
     7
370
     9
100
AcDbLine
 10
-176.0942260639084
 20
1067.891037518914
 30
0.0
 11
-176.0942260639084
 21
957.8917087864232
 31
0.0
  0
LINE
  5
367
330
1F
100
AcDbEntity
  8
C-4
  6
Continuous
 62
     7
370
     9
100
AcDbLine
 10
-602.0943099872483
 20
1012.891769940788
 30
0.0
 11
-602.0943099872483
 21
957.8917087864232
 31
0.0
  0
LINE
  5
368
330
1F
100
AcDbEntity
  8
C-4
  6
Continuous
 62
     7
370
     9
100
AcDbLine
 10
-202.0939208881271
 20
1012.891769940788
 30
0.0
 11
-202.0939208881271
 21
957.8917087864232
 31
0.0
  0
TEXT
  5
369
330
1F
100
AcDbEntity
  8
C-4
  6
Continuous
 62
     2
370
   211
100
AcDbText
 10
-615.8442432300461
 20
1021.531770059998
 30
0.0
 40
30.48
  1
25
 41
1.0625
  7
ＭＳ ゴシック
100
AcDbText
  0
TEXT
  5
36A
330
1F
100
AcDbEntity
  8
C-4
  6
Continuous
 62
     2
370
   211
100
AcDbText
 10
-617.5943519489181
 20
1076.531037638123
 30
0.0
 40
30.48
  1
1
 41
0.9999999999999998
  7
ＭＳ ゴシック
100
AcDbText
  0
TEXT
  5
36B
330
1F
100
AcDbEntity
  8
C-4
  6
Continuous
 62
     2
370
   211
100
AcDbText
 10
-230.8439819232834
 20
1021.531770059998
 30
0.0
 40
30.48
  1
25
 41
1.0625
  7
ＭＳ ゴシック
100
AcDbText
  0
TEXT
  5
36C
330
1F
100
AcDbEntity
  8
C-4
  6
Continuous
 62
     2
370
   211
100
AcDbText
 10
-206.594134511174
 20
1076.531037638123
 30
0.0
 40
30.48
  1
1
 41
0.9999999999999998
  7
ＭＳ ゴシック
100
AcDbText
  0
LINE
  5
36D
330
1F
100
AcDbEntity
  8
C-3
  6
Continuous
 62
     2
370
     9
100
AcDbLine
 10
-633.0945274249923
 20
935.8917087864231
 30
0.0
 11
-633.0945274249923
 21
473.8914036106419
 31
0.0
  0
LINE
  5
36E
330
1F
100
AcDbEntity
  8
C-3
  6
Continuous
 62
     2
370
     9
100
AcDbLine
 10
-633.0945274249923
 20
473.8914036106419
 30
0.0
 11
-171.0942260639084
 21
473.8914036106419
 31
0.0
  0
LINE
  5
36F
330
1F
100
AcDbEntity
  8
C-3
  6
Continuous
 62
     2
370
     9
100
AcDbLine
 10
-171.0942260639084
 20
935.8917087864231
 30
0.0
 11
-633.0945274249923
 21
935.8917087864231
 31
0.0
  0
LINE
  5
370
330
1F
100
AcDbEntity
  8
C-3
  6
Continuous
 62
     2
370
     9
100
AcDbLine
 10
-171.0942260639084
 20
473.8914036106419
 30
0.0
 11
-171.0942260639084
 21
935.8917087864231
 31
0.0
  0
LWPOLYLINE
  5
371
330
1F
100
AcDbEntity
  8
C-4
  6
Continuous
 62
     7
370
     9
100
AcDbPolyline
 90
        4
 70
     1
 43
1.0
 10
-632.5945274249923
 20
1119.891037399705
 42
0.4142135623731
 10
-633.0945274249923
 20
1120.391037399705
 42
0.4142135623731
 10
-633.5945274249923
 20
1119.891037399705
 42
0.4142135623731
 10
-633.0945274249923
 20
1119.391037399705
 42
0.4142135623731
  0
LWPOLYLINE
  5
372
330
1F
100
AcDbEntity
  8
C-4
  6
Continuous
 62
     7
370
     9
100
AcDbPolyline
 90
        4
 70
     1
 43
1.0
 10
-632.5945274249923
 20
1064.891037399705
 42
0.4142135623731
 10
-633.0945274249923
 20
1065.391037399705
 42
0.4142135623731
 10
-633.5945274249923
 20
1064.891037399705
 42
0.4142135623731
 10
-633.0945274249923
 20
1064.391037399705
 42
0.4142135623731
  0
LINE
  5
373
330
1F
100
AcDbEntity
  8
C-4
  6
Continuous
 62
     7
370
     9
100
AcDbLine
 10
-633.0945274249923
 20
1122.891037518914
 30
0.0
 11
-633.0945274249923
 21
957.8917087864232
 31
0.0
  0
LINE
  5
374
330
1F
100
AcDbEntity
  8
C-4
  6
Continuous
 62
     7
370
     9
100
AcDbLine
 10
-633.0945274249923
 20
1064.891037399705
 30
0.0
 11
-683.0945274249923
 21
1064.891037399705
 31
0.0
  0
LWPOLYLINE
  5
375
330
1F
100
AcDbEntity
  8
C-4
  6
Continuous
 62
     7
370
     9
100
AcDbPolyline
 90
        4
 70
     1
 43
1.0
 10
-170.5942260639084
 20
1119.891037399705
 42
0.4142135623731
 10
-171.0942260639084
 20
1120.391037399705
 42
0.4142135623731
 10
-171.5942260639084
 20
1119.891037399705
 42
0.4142135623731
 10
-171.0942260639084
 20
1119.391037399705
 42
0.4142135623731
  0
LWPOLYLINE
  5
376
330
1F
100
AcDbEntity
  8
C-4
  6
Continuous
 62
     7
370
     9
100
AcDbPolyline
 90
        4
 70
     1
 43
1.0
 10
-170.5942260639084
 20
1064.891037399705
 42
0.4142135623731
 10
-171.0942260639084
 20
1065.391037399705
 42
0.4142135623731
 10
-171.5942260639084
 20
1064.891037399705
 42
0.4142135623731
 10
-171.0942260639084
 20
1064.391037399705
 42
0.4142135623731
  0
LINE
  5
377
330
1F
100
AcDbEntity
  8
C-4
  6
Continuous
 62
     7
370
     9
100
AcDbLine
 10
-171.0942260639084
 20
1122.891037518914
 30
0.0
 11
-171.0942260639084
 21
957.8917087864232
 31
0.0
  0
LINE
  5
378
330
1F
100
AcDbEntity
  8
C-4
  6
Continuous
 62
     7
370
     9
100
AcDbLine
 10
-171.0942260639084
 20
1064.891037399705
 30
0.0
 11
-121.0942260639084
 21
1064.891037399705
 31
0.0
  0
LINE
  5
379
330
1F
100
AcDbEntity
  8
C-4
  6
Continuous
 62
     7
370
     9
100
AcDbLine
 10
-633.0945274249923
 20
1064.891037399705
 30
0.0
 11
-628.0945274249923
 21
1064.891037399705
 31
0.0
  0
TEXT
  5
37A
330
1F
100
AcDbEntity
  8
C-4
  6
Continuous
 62
     2
370
   211
100
AcDbText
 10
-669.5945350543867
 20
1076.531037638123
 30
0.0
 40
30.48
  1
5
 41
0.9999999999999998
  7
ＭＳ ゴシック
100
AcDbText
  0
LINE
  5
37B
330
1F
100
AcDbEntity
  8
C-4
  6
Continuous
 62
     7
370
     9
100
AcDbLine
 10
-633.0945274249923
 20
1119.891037399705
 30
0.0
 11
-171.0942260639084
 21
1119.891037399705
 31
0.0
  0
TEXT
  5
37C
330
1F
100
AcDbEntity
  8
C-4
  6
Continuous
 62
     2
370
   211
100
AcDbText
 10
-434.5943767444504
 20
1131.531037638123
 30
0.0
 40
30.48
  1
462
 41
1.083333333333333
  7
ＭＳ ゴシック
100
AcDbText
  0
LINE
  5
37D
330
1F
100
AcDbEntity
  8
C-4
  6
Continuous
 62
     7
370
     9
100
AcDbLine
 10
-176.0942260639084
 20
1064.891037399705
 30
0.0
 11
-171.0942260639084
 21
1064.891037399705
 31
0.0
  0
TEXT
  5
37E
330
1F
100
AcDbEntity
  8
C-4
  6
Continuous
 62
     2
370
   211
100
AcDbText
 10
-154.5942260639084
 20
1076.531037638123
 30
0.0
 40
30.48
  1
5
 41
0.9999999999999998
  7
ＭＳ ゴシック
100
AcDbText
  0
LWPOLYLINE
  5
37F
330
1F
100
AcDbEntity
  8
C-4
  6
Continuous
 62
     7
370
     9
100
AcDbPolyline
 90
        4
 70
     1
 43
1.0
 10
-761.5938560382739
 20
478.8914074253391
 42
0.4142135623731
 10
-762.0938560382739
 20
479.3914074253391
 42
0.4142135623731
 10
-762.5938560382738
 20
478.8914074253391
 42
0.4142135623731
 10
-762.0938560382739
 20
478.3914074253391
 42
0.4142135623731
  0
LINE
  5
380
330
1F
100
AcDbEntity
  8
C-4
  6
Continuous
 62
     7
370
     9
100
AcDbLine
 10
-762.0938560382739
 20
478.8914074253391
 30
0.0
 11
-762.0938560382739
 21
479.8917583774875
 31
0.0
  0
LWPOLYLINE
  5
381
330
1F
100
AcDbEntity
  8
C-4
  6
Continuous
 62
     7
370
     9
100
AcDbPolyline
 90
        4
 70
     1
 43
1.0
 10
-761.5938560382739
 20
479.8917583774875
 42
0.4142135623731
 10
-762.0938560382739
 20
480.3917583774875
 42
0.4142135623731
 10
-762.5938560382738
 20
479.8917583774875
 42
0.4142135623731
 10
-762.0938560382739
 20
479.3917583774875
 42
0.4142135623731
  0
LINE
  5
382
330
1F
100
AcDbEntity
  8
C-4
  6
Continuous
 62
     7
370
     9
100
AcDbLine
 10
-762.0938560382739
 20
479.8917583774875
 30
0.0
 11
-762.0938560382739
 21
929.8918918918918
 31
0.0
  0
LWPOLYLINE
  5
383
330
1F
100
AcDbEntity
  8
C-4
  6
Continuous
 62
     7
370
     9
100
AcDbPolyline
 90
        4
 70
     1
 43
1.0
 10
-761.5938560382739
 20
929.8918918918918
 42
0.4142135623731
 10
-762.0938560382739
 20
930.3918918918918
 42
0.4142135623731
 10
-762.5938560382738
 20
929.8918918918918
 42
0.4142135623731
 10
-762.0938560382739
 20
929.3918918918918
 42
0.4142135623731
  0
TEXT
  5
384
330
1F
100
AcDbEntity
  8
C-4
  6
Continuous
 62
     2
370
   211
100
AcDbText
 10
-773.7338562766924
 20
672.3918251346896
 30
0.0
 40
30.48
  1
450
 50
90.0
 41
1.083333333333333
  7
ＭＳ ゴシック
100
AcDbText
  0
LINE
  5
385
330
1F
100
AcDbEntity
  8
C-4
  6
Continuous
 62
     7
370
     9
100
AcDbLine
 10
-762.0938560382739
 20
929.8918918918918
 30
0.0
 11
-762.0938560382739
 21
930.8917087864231
 31
0.0
  0
LWPOLYLINE
  5
386
330
1F
100
AcDbEntity
  8
C-4
  6
Continuous
 62
     7
370
     9
100
AcDbPolyline
 90
        4
 70
     1
 43
1.0
 10
-761.5938560382739
 20
930.8917087864231
 42
0.4142135623731
 10
-762.0938560382739
 20
931.391708786423
 42
0.4142135623731
 10
-762.5938560382738
 20
930.8917087864231
 42
0.4142135623731
 10
-762.0938560382739
 20
930.3917087864231
 42
0.4142135623731
  0
LINE
  5
387
330
1F
100
AcDbEntity
  8
C-4
  6
Continuous
 62
     7
370
     9
100
AcDbLine
 10
-707.0945884601484
 20
479.8917583774875
 30
0.0
 11
-707.0945884601484
 21
504.8916248630832
 31
0.0
  0
LWPOLYLINE
  5
388
330
1F
100
AcDbEntity
  8
C-4
  6
Continuous
 62
     7
370
     9
100
AcDbPolyline
 90
        4
 70
     1
 43
1.0
 10
-706.5945884601484
 20
479.8917583774875
 42
0.4142135623731
 10
-707.0945884601484
 20
480.3917583774875
 42
0.4142135623731
 10
-707.5945884601483
 20
479.8917583774875
 42
0.4142135623731
 10
-707.0945884601484
 20
479.3917583774875
 42
0.4142135623731
  0
LWPOLYLINE
  5
389
330
1F
100
AcDbEntity
  8
C-4
  6
Continuous
 62
     7
370
     9
100
AcDbPolyline
 90
        4
 70
     1
 43
1.0
 10
-706.5945884601484
 20
504.8916248630832
 42
0.4142135623731
 10
-707.0945884601484
 20
505.3916248630832
 42
0.4142135623731
 10
-707.5945884601483
 20
504.8916248630832
 42
0.4142135623731
 10
-707.0945884601484
 20
504.3916248630832
 42
0.4142135623731
  0
LINE
  5
38A
330
1F
100
AcDbEntity
  8
C-4
  6
Continuous
 62
     7
370
     9
100
AcDbLine
 10
-707.0945884601484
 20
504.8916248630832
 30
0.0
 11
-707.0945884601484
 21
904.8920139622044
 31
0.0
  0
LWPOLYLINE
  5
38B
330
1F
100
AcDbEntity
  8
C-4
  6
Continuous
 62
     7
370
     9
100
AcDbPolyline
 90
        4
 70
     1
 43
1.0
 10
-706.5945884601484
 20
904.8920139622044
 42
0.4142135623731
 10
-707.0945884601484
 20
905.3920139622044
 42
0.4142135623731
 10
-707.5945884601483
 20
904.8920139622044
 42
0.4142135623731
 10
-707.0945884601484
 20
904.3920139622044
 42
0.4142135623731
  0
TEXT
  5
38C
330
1F
100
AcDbEntity
  8
C-4
  6
Continuous
 62
     2
370
   211
100
AcDbText
 10
-718.734588698567
 20
672.3918194126438
 30
0.0
 40
30.48
  1
400
 50
90.0
 41
1.083333333333333
  7
ＭＳ ゴシック
100
AcDbText
  0
LINE
  5
38D
330
1F
100
AcDbEntity
  8
C-4
  6
Continuous
 62
     7
370
     9
100
AcDbLine
 10
-707.0945884601484
 20
904.8920139622044
 30
0.0
 11
-707.0945884601484
 21
929.8918918918918
 31
0.0
  0
LWPOLYLINE
  5
38E
330
1F
100
AcDbEntity
  8
C-4
  6
Continuous
 62
     7
370
     9
100
AcDbPolyline
 90
        4
 70
     1
 43
1.0
 10
-706.5945884601484
 20
929.8918918918918
 42
0.4142135623731
 10
-707.0945884601484
 20
930.3918918918918
 42
0.4142135623731
 10
-707.5945884601483
 20
929.8918918918918
 42
0.4142135623731
 10
-707.0945884601484
 20
929.3918918918918
 42
0.4142135623731
  0
LINE
  5
38F
330
1F
100
AcDbEntity
  8
C-4
  6
Continuous
 62
     7
370
     9
100
AcDbLine
 10
-765.0938561574832
 20
478.8914074253391
 30
0.0
 11
-655.0945274249925
 21
478.8914074253391
 31
0.0
  0
LINE
  5
390
330
1F
100
AcDbEntity
  8
C-4
  6
Continuous
 62
     7
370
     9
100
AcDbLine
 10
-765.0938561574832
 20
479.8917583774875
 30
0.0
 11
-655.0945274249925
 21
479.8917583774875
 31
0.0
  0
LINE
  5
391
330
1F
100
AcDbEntity
  8
C-4
  6
Continuous
 62
     7
370
     9
100
AcDbLine
 10
-765.0938561574832
 20
929.8918918918918
 30
0.0
 11
-655.0945274249925
 21
929.8918918918918
 31
0.0
  0
LINE
  5
392
330
1F
100
AcDbEntity
  8
C-4
  6
Continuous
 62
     7
370
     9
100
AcDbLine
 10
-765.0938561574832
 20
930.8917087864231
 30
0.0
 11
-655.0945274249925
 21
930.8917087864231
 31
0.0
  0
LINE
  5
393
330
1F
100
AcDbEntity
  8
C-4
  6
Continuous
 62
     7
370
     9
100
AcDbLine
 10
-710.0945885793577
 20
504.8916248630832
 30
0.0
 11
-655.0945274249925
 21
504.8916248630832
 31
0.0
  0
LINE
  5
394
330
1F
100
AcDbEntity
  8
C-4
  6
Continuous
 62
     7
370
     9
100
AcDbLine
 10
-710.0945885793577
 20
904.8920139622044
 30
0.0
 11
-655.0945274249925
 21
904.8920139622044
 31
0.0
  0
TEXT
  5
395
330
1F
100
AcDbEntity
  8
C-4
  6
Continuous
 62
     2
370
   211
100
AcDbText
 10
-718.734588698567
 20
491.1416916202853
 30
0.0
 40
30.48
  1
25
 50
90.0
 41
1.0625
  7
ＭＳ ゴシック
100
AcDbText
  0
TEXT
  5
396
330
1F
100
AcDbEntity
  8
C-4
  6
Continuous
 62
     2
370
   211
100
AcDbText
 10
-773.7338562766924
 20
489.3915829014134
 30
0.0
 40
30.48
  1
1
 50
90.0
 41
0.9999999999999998
  7
ＭＳ ゴシック
100
AcDbText
  0
TEXT
  5
397
330
1F
100
AcDbEntity
  8
C-4
  6
Continuous
 62
     2
370
   211
100
AcDbText
 10
-718.734588698567
 20
876.1419529270481
 30
0.0
 40
30.48
  1
25
 50
90.0
 41
1.0625
  7
ＭＳ ゴシック
100
AcDbText
  0
TEXT
  5
398
330
1F
100
AcDbEntity
  8
C-4
  6
Continuous
 62
     2
370
   211
100
AcDbText
 10
-773.7338562766924
 20
900.3918003391574
 30
0.0
 40
30.48
  1
1
 50
90.0
 41
0.9999999999999998
  7
ＭＳ ゴシック
100
AcDbText
  0
LWPOLYLINE
  5
399
330
1F
100
AcDbEntity
  8
C-4
  6
Continuous
 62
     7
370
     9
100
AcDbPolyline
 90
        4
 70
     1
 43
1.0
 10
-816.5938560382739
 20
473.8914074253391
 42
0.4142135623731
 10
-817.0938560382739
 20
474.3914074253391
 42
0.4142135623731
 10
-817.5938560382738
 20
473.8914074253391
 42
0.4142135623731
 10
-817.0938560382739
 20
473.3914074253391
 42
0.4142135623731
  0
LWPOLYLINE
  5
39A
330
1F
100
AcDbEntity
  8
C-4
  6
Continuous
 62
     7
370
     9
100
AcDbPolyline
 90
        4
 70
     1
 43
1.0
 10
-761.5938560382739
 20
473.8914074253391
 42
0.4142135623731
 10
-762.0938560382739
 20
474.3914074253391
 42
0.4142135623731
 10
-762.5938560382738
 20
473.8914074253391
 42
0.4142135623731
 10
-762.0938560382739
 20
473.3914074253391
 42
0.4142135623731
  0
LINE
  5
39B
330
1F
100
AcDbEntity
  8
C-4
  6
Continuous
 62
     7
370
     9
100
AcDbLine
 10
-820.0938561574832
 20
473.8914074253391
 30
0.0
 11
-655.0945274249925
 21
473.8914074253391
 31
0.0
  0
LINE
  5
39C
330
1F
100
AcDbEntity
  8
C-4
  6
Continuous
 62
     7
370
     9
100
AcDbLine
 10
-762.0938560382739
 20
473.8914074253391
 30
0.0
 11
-762.0938560382739
 21
423.8914074253391
 31
0.0
  0
LWPOLYLINE
  5
39D
330
1F
100
AcDbEntity
  8
C-4
  6
Continuous
 62
     7
370
     9
100
AcDbPolyline
 90
        4
 70
     1
 43
1.0
 10
-816.5938560382739
 20
935.8917087864231
 42
0.4142135623731
 10
-817.0938560382739
 20
936.391708786423
 42
0.4142135623731
 10
-817.5938560382738
 20
935.8917087864231
 42
0.4142135623731
 10
-817.0938560382739
 20
935.3917087864231
 42
0.4142135623731
  0
LWPOLYLINE
  5
39E
330
1F
100
AcDbEntity
  8
C-4
  6
Continuous
 62
     7
370
     9
100
AcDbPolyline
 90
        4
 70
     1
 43
1.0
 10
-761.5938560382739
 20
935.8917087864231
 42
0.4142135623731
 10
-762.0938560382739
 20
936.391708786423
 42
0.4142135623731
 10
-762.5938560382738
 20
935.8917087864231
 42
0.4142135623731
 10
-762.0938560382739
 20
935.3917087864231
 42
0.4142135623731
  0
LINE
  5
39F
330
1F
100
AcDbEntity
  8
C-4
  6
Continuous
 62
     7
370
     9
100
AcDbLine
 10
-820.0938561574832
 20
935.8917087864231
 30
0.0
 11
-655.0945274249925
 21
935.8917087864231
 31
0.0
  0
LINE
  5
3A0
330
1F
100
AcDbEntity
  8
C-4
  6
Continuous
 62
     7
370
     9
100
AcDbLine
 10
-762.0938560382739
 20
935.8917087864231
 30
0.0
 11
-762.0938560382739
 21
985.8917087864231
 31
0.0
  0
LINE
  5
3A1
330
1F
100
AcDbEntity
  8
C-4
  6
Continuous
 62
     7
370
     9
100
AcDbLine
 10
-762.0938560382739
 20
473.8914074253391
 30
0.0
 11
-762.0938560382739
 21
478.8914074253391
 31
0.0
  0
TEXT
  5
3A2
330
1F
100
AcDbEntity
  8
C-4
  6
Continuous
 62
     2
370
   211
100
AcDbText
 10
-773.7338562766924
 20
437.3913997959447
 30
0.0
 40
30.48
  1
5
 50
90.0
 41
0.9999999999999998
  7
ＭＳ ゴシック
100
AcDbText
  0
LINE
  5
3A3
330
1F
100
AcDbEntity
  8
C-4
  6
Continuous
 62
     7
370
     9
100
AcDbLine
 10
-817.0938560382739
 20
473.8914074253391
 30
0.0
 11
-817.0938560382739
 21
935.8917087864231
 31
0.0
  0
TEXT
  5
3A4
330
1F
100
AcDbEntity
  8
C-4
  6
Continuous
 62
     2
370
   211
100
AcDbText
 10
-828.7338562766924
 20
672.391558105881
 30
0.0
 40
30.48
  1
462
 50
90.0
 41
1.083333333333333
  7
ＭＳ ゴシック
100
AcDbText
  0
LINE
  5
3A5
330
1F
100
AcDbEntity
  8
C-4
  6
Continuous
 62
     7
370
     9
100
AcDbLine
 10
-762.0938560382739
 20
930.8917087864231
 30
0.0
 11
-762.0938560382739
 21
935.8917087864231
 31
0.0
  0
TEXT
  5
3A6
330
1F
100
AcDbEntity
  8
C-4
  6
Continuous
 62
     2
370
   211
100
AcDbText
 10
-773.7338562766924
 20
952.3917087864231
 30
0.0
 40
30.48
  1
5
 50
90.0
 41
0.9999999999999998
  7
ＭＳ ゴシック
100
AcDbText
  0
TEXT
  5
3A7
330
1F
100
AcDbEntity
  8
F-5
  6
Continuous
 62
     2
370
     9
100
AcDbText
 10
-824.5901402992004
 20
-1373.238621242842
 30
0.0
 40
30.48
  1
　　　　　　　　　　　　　　　　　　ＤＱ－１５　４５０×４５０×１５＋ＳＦ１５Ｂ
 41
0.7743749999999999
  7
ＭＳ ゴシック
100
AcDbText
  0
LINE
  5
3A8
330
1F
100
AcDbEntity
  8
D-4
  6
Continuous
 62
     7
370
     9
100
AcDbLine
 10
-1104.052174491828
 20
-239.9811250361067
 30
0.0
 11
-531.3843945693427
 21
-239.9811250361067
 31
0.0
  0
LINE
  5
3A9
330
1F
100
AcDbEntity
  8
D-4
  6
Continuous
 62
     7
370
     9
100
AcDbLine
 10
-531.3843945693427
 20
-345.444623866902
 30
0.0
 11
-531.3843945693427
 21
-236.9805604609114
 31
0.0
  0
LINE
  5
3AA
330
1F
100
AcDbEntity
  8
D-4
  6
Continuous
 62
     7
370
     9
100
AcDbLine
 10
-531.3843945693427
 20
-239.9811250361067
 30
0.0
 11
-406.3845566939764
 21
-239.9811250361067
 31
0.0
  0
LINE
  5
3AB
330
1F
100
AcDbEntity
  8
D-4
  6
Continuous
 62
     7
370
     9
100
AcDbLine
 10
-406.3845566939764
 20
-345.444623866902
 30
0.0
 11
-406.3845566939764
 21
-128.2291299494368
 31
0.0
  0
LINE
  5
3AC
330
1F
100
AcDbEntity
  8
D-4
  6
Continuous
 62
     7
370
     9
100
AcDbLine
 10
-401.3842860888892
 20
-345.444623866902
 30
0.0
 11
-401.3842860888892
 21
-128.2291299494368
 31
0.0
  0
LINE
  5
3AD
330
1F
100
AcDbEntity
  8
D-4
  6
Continuous
 62
     7
370
     9
100
AcDbLine
 10
-376.3854078483038
 20
-345.444623866902
 30
0.0
 11
-376.3854078483038
 21
-17.53247086130202
 31
0.0
  0
LINE
  5
3AE
330
1F
100
AcDbEntity
  8
D-4
  6
Continuous
 62
     7
370
     9
100
AcDbLine
 10
-531.3843945693427
 20
-920.9831315668689
 30
0.0
 11
-131.3835267257147
 21
-920.9831315668689
 31
0.0
  0
LINE
  5
3AF
330
1F
100
AcDbEntity
  8
D-4
  6
Continuous
 62
     7
370
     9
100
AcDbLine
 10
-131.3835267257147
 20
-680.7739335688218
 30
0.0
 11
-131.3835267257147
 21
-923.9827043207752
 31
0.0
  0
LINE
  5
3B0
330
1F
100
AcDbEntity
  8
D-4
  6
Continuous
 62
     7
370
     9
100
AcDbLine
 10
-531.3843945693427
 20
-766.5187532099351
 30
0.0
 11
-381.3851837348395
 21
-766.5187532099351
 31
0.0
  0
LINE
  5
3B1
330
1F
100
AcDbEntity
  8
D-4
  6
Continuous
 62
     7
370
     9
100
AcDbLine
 10
140.3008147049493
 20
-610.8999520929917
 30
0.0
 11
140.3008147049493
 21
-360.9002763422591
 31
0.0
  0
LINE
  5
3B2
330
1F
100
AcDbEntity
  8
D-4
  6
Continuous
 62
     7
370
     9
100
AcDbLine
 10
44.64564044957825
 20
-360.9002763422591
 30
0.0
 11
143.3003874588556
 21
-360.9002763422591
 31
0.0
  0
LINE
  5
3B3
330
1F
100
AcDbEntity
  8
D-6
  6
Continuous
 62
     6
370
     9
100
AcDbLine
 10
-381.3851837348395
 20
-610.8999520929917
 30
0.0
 11
-381.3851837348395
 21
-860.8996278437244
 31
0.0
  0
LINE
  5
3B4
330
1F
100
AcDbEntity
  8
D-6
  6
JWW_DASHED3
 62
     6
370
     9
100
AcDbLine
 10
-287.8832940291815
 20
-738.3999330195054
 30
0.0
 11
-287.8832940291815
 21
-610.8999520929917
 31
0.0
  0
LINE
  5
3B5
330
1F
100
AcDbEntity
  8
D-6
  6
JWW_DASHED3
 62
     6
370
     9
100
AcDbLine
 10
-242.8828362655096
 20
-610.8999520929917
 30
0.0
 11
-242.8828362655096
 21
-738.3999330195054
 31
0.0
  0
LINE
  5
3B6
330
1F
100
AcDbEntity
  8
D-6
  6
Continuous
 62
     6
370
     9
100
AcDbLine
 10
-131.3845185470038
 20
-510.9004766138657
 30
0.0
 11
33.61647327428528
 21
-510.9004766138657
 31
0.0
  0
LINE
  5
3B7
330
1F
100
AcDbEntity
  8
D-6
  6
Continuous
 62
     6
370
     9
100
AcDbLine
 10
-131.3845185470038
 20
-510.9004766138657
 30
0.0
 11
-131.3845185470038
 21
-610.8999520929917
 31
0.0
  0
LINE
  5
3B8
330
1F
100
AcDbEntity
  8
D-4
  6
Continuous
 62
     7
370
     9
100
AcDbLine
 10
-75.60563365930847
 20
-610.8999520929917
 30
0.0
 11
143.3003874588556
 21
-610.8999520929917
 31
0.0
  0
LINE
  5
3B9
330
1F
100
AcDbEntity
  8
D-6
  6
Continuous
 62
     6
370
     9
100
AcDbLine
 10
-381.3851837348395
 20
-610.8999520929917
 30
0.0
 11
-131.3845185470038
 21
-610.8999520929917
 31
0.0
  0
LINE
  5
3BA
330
1F
100
AcDbEntity
  8
D-6
  6
Continuous
 62
     6
370
     9
100
AcDbLine
 10
-287.8832940291815
 20
-413.4001475962264
 30
0.0
 11
-242.8828362655096
 21
-413.4001475962264
 31
0.0
  0
LINE
  5
3BB
330
1F
100
AcDbEntity
  8
D-6
  6
JWW_CENTER2
 62
     6
370
     9
100
AcDbLine
 10
-265.3830651473456
 20
-409.3209535273177
 30
0.0
 11
-265.3830651473456
 21
-738.3999330195054
 31
0.0
  0
LINE
  5
3BC
330
1F
100
AcDbEntity
  8
D-4
  6
Continuous
 62
     7
370
     9
100
AcDbLine
 10
-376.3854078483038
 20
-498.8675195368394
 30
0.0
 11
-376.3854078483038
 21
-570.2100640925034
 31
0.0
  0
LINE
  5
3BD
330
1F
100
AcDbEntity
  8
D-6
  6
Continuous
 62
     6
370
     9
100
AcDbLine
 10
-287.8832940291815
 20
-445.8999234827622
 30
0.0
 11
-287.8832940291815
 21
-413.4001475962264
 31
0.0
  0
LINE
  5
3BE
330
1F
100
AcDbEntity
  8
D-6
  6
Continuous
 62
     6
370
     9
100
AcDbLine
 10
-242.8828362655096
 20
-445.8999234827622
 30
0.0
 11
-242.8828362655096
 21
-413.4001475962264
 31
0.0
  0
LINE
  5
3BF
330
1F
100
AcDbEntity
  8
D-6
  6
Continuous
 62
     6
370
     9
100
AcDbLine
 10
-287.8832940291815
 20
-610.8999520929917
 30
0.0
 11
-287.8832940291815
 21
-495.8996659906968
 31
0.0
  0
LINE
  5
3C0
330
1F
100
AcDbEntity
  8
D-6
  6
Continuous
 62
     6
370
     9
100
AcDbLine
 10
-242.8828362655096
 20
-610.8999520929917
 30
0.0
 11
-242.8828362655096
 21
-495.8996659906968
 31
0.0
  0
LINE
  5
3C1
330
1F
100
AcDbEntity
  8
D-4
  6
Continuous
 62
     7
370
     9
100
AcDbLine
 10
-676.8669060897284
 20
-485.9001142176255
 30
0.0
 11
-676.8669060897284
 21
-360.9002763422591
 31
0.0
  0
LINE
  5
3C2
330
1F
100
AcDbEntity
  8
D-4
  6
Continuous
 62
     7
370
     9
100
AcDbLine
 10
-404.5295215677672
 20
-360.9002763422591
 30
0.0
 11
-679.8674706649238
 21
-360.9002763422591
 31
0.0
  0
LINE
  5
3C3
330
1F
100
AcDbEntity
  8
D-4
  6
Continuous
 62
     7
370
     9
100
AcDbLine
 10
-1104.052174491828
 20
-20.53303543649733
 30
0.0
 11
-376.3854078483038
 21
-20.53303543649733
 31
0.0
  0
LINE
  5
3C4
330
1F
100
AcDbEntity
  8
D-4
  6
Continuous
 62
     7
370
     9
100
AcDbLine
 10
-1104.052174491828
 20
-131.228702703343
 30
0.0
 11
-340.2989319991522
 21
-131.228702703343
 31
0.0
  0
LINE
  5
3C5
330
1F
100
AcDbEntity
  8
D-4
  6
Continuous
 62
     7
370
     9
100
AcDbLine
 10
-376.3854078483038
 20
-567.2095185907945
 30
0.0
 11
-231.3849763106757
 21
-567.2095185907945
 31
0.0
  0
LINE
  5
3C6
330
1F
100
AcDbEntity
  8
D-5
  6
Continuous
 62
     2
370
     9
100
AcDbLine
 10
-873.3797196578437
 20
-1056.842430272924
 30
0.0
 11
-873.3797196578437
 21
-991.8428498896228
 31
0.0
  0
LINE
  5
3C7
330
1F
100
AcDbEntity
  8
D-5
  6
Continuous
 62
     2
370
     9
100
AcDbLine
 10
-873.3797196578437
 20
-991.8428498896228
 30
0.0
 11
-298.3793000411444
 21
-991.8428498896228
 31
0.0
  0
LINE
  5
3C8
330
1F
100
AcDbEntity
  8
D-5
  6
Continuous
 62
     2
370
     9
100
AcDbLine
 10
-298.3793000411444
 20
-991.8428498896228
 30
0.0
 11
-298.3793000411444
 21
-1056.842430272924
 31
0.0
  0
LINE
  5
3C9
330
1F
100
AcDbEntity
  8
D-5
  6
Continuous
 62
     2
370
     9
100
AcDbLine
 10
-298.3793000411444
 20
-1056.842430272924
 30
0.0
 11
-873.3797196578437
 21
-1056.842430272924
 31
0.0
  0
LINE
  5
3CA
330
1F
100
AcDbEntity
  8
D-4
  6
Continuous
 62
     7
370
     9
100
AcDbLine
 10
-531.3843945693427
 20
-885.8999711664783
 30
0.0
 11
-531.3843945693427
 21
-923.9827043207752
 31
0.0
  0
LINE
  5
3CB
330
1F
100
AcDbEntity
  8
D-5
  6
Continuous
 62
     7
370
     9
100
AcDbLine
 10
-192.0398072432928
 20
-252.8514176996809
 30
0.0
 11
67.34305103307435
 21
-252.8514176996809
 31
0.0
  0
LINE
  5
3CC
330
1F
100
AcDbEntity
  8
D-5
  6
Continuous
 62
     7
370
     9
100
AcDbLine
 10
-383.3274225425177
 20
-360.9002763422591
 30
0.0
 11
-369.51672594065
 21
-340.0618511828047
 31
0.0
  0
LINE
  5
3CD
330
1F
100
AcDbEntity
  8
D-5
  6
Continuous
 62
     7
370
     9
100
AcDbLine
 10
-383.3274225425177
 20
-360.9002763422591
 30
0.0
 11
-364.5937470626288
 21
-344.3461686762435
 31
0.0
  0
LINE
  5
3CE
330
1F
100
AcDbEntity
  8
D-5
  6
Continuous
 62
     7
370
     9
100
AcDbLine
 10
-241.5351609420233
 20
-197.9891473444563
 30
0.0
 11
-383.3274225425177
 21
-360.9002763422591
 31
0.0
  0
LINE
  5
3CF
330
1F
100
AcDbEntity
  8
D-5
  6
Continuous
 62
     7
370
     9
100
AcDbLine
 10
-192.0398072432928
 20
-252.8514176996809
 30
0.0
 11
-406.8681342061811
 21
-499.677112737523
 31
0.0
  0
LINE
  5
3D0
330
1F
100
AcDbEntity
  8
D-5
  6
Continuous
 62
     7
370
     9
100
AcDbLine
 10
-457.6923302840643
 20
-455.4406720789536
 30
0.0
 11
-436.85390512461
 21
-469.252365270482
 31
0.0
  0
LINE
  5
3D1
330
1F
100
AcDbEntity
  8
D-5
  6
Continuous
 62
     7
370
     9
100
AcDbLine
 10
-457.6923302840643
 20
-455.4406720789536
 30
0.0
 11
-441.1387185286932
 21
-474.1748410853013
 31
0.0
  0
LINE
  5
3D2
330
1F
100
AcDbEntity
  8
D-5
  6
Continuous
 62
     7
370
     9
100
AcDbLine
 10
-241.5351609420233
 20
-197.9891473444563
 30
0.0
 11
209.2552061844415
 21
-197.9891473444563
 31
0.0
  0
LINE
  5
3D3
330
1F
100
AcDbEntity
  8
D-5
  6
Continuous
 62
     7
370
     9
100
AcDbLine
 10
-406.8681342061811
 20
-499.677112737523
 30
0.0
 11
-457.6923302840643
 21
-455.4406720789536
 31
0.0
  0
LINE
  5
3D4
330
1F
100
AcDbEntity
  8
D-6
  6
Continuous
 62
     6
370
     9
100
AcDbLine
 10
-131.3845185470038
 20
-558.2400399836167
 30
0.0
 11
-84.04446880335144
 21
-510.8999807032212
 31
0.0
  0
LINE
  5
3D5
330
1F
100
AcDbEntity
  8
D-6
  6
Continuous
 62
     6
370
     9
100
AcDbLine
 10
-381.3841942977362
 20
-808.2377320917712
 30
0.0
 11
-184.0449265670233
 21
-610.8999520929917
 31
0.0
  0
LINE
  5
3D6
330
1F
100
AcDbEntity
  8
D-6
  6
Continuous
 62
     6
370
     9
100
AcDbLine
 10
-381.3841942977362
 20
-822.3783952387439
 30
0.0
 11
-169.9042443465643
 21
-610.8999520929917
 31
0.0
  0
LINE
  5
3D7
330
1F
100
AcDbEntity
  8
D-6
  6
Continuous
 62
     6
370
     9
100
AcDbLine
 10
-131.3845185470038
 20
-572.3807222040757
 30
0.0
 11
-69.90376750940612
 21
-510.8999807032212
 31
0.0
  0
LINE
  5
3D8
330
1F
100
AcDbEntity
  8
D-6
  6
Continuous
 62
     6
370
     9
100
AcDbLine
 10
-381.3841942977362
 20
-836.5190965326892
 30
0.0
 11
-155.7635621261053
 21
-610.8999520929917
 31
0.0
  0
LINE
  5
3D9
330
1F
100
AcDbEntity
  8
D-6
  6
Continuous
 62
     6
370
     9
100
AcDbLine
 10
-131.3845185470038
 20
-586.5214044245347
 30
0.0
 11
-55.76310436243347
 21
-510.8999807032212
 31
0.0
  0
LINE
  5
3DA
330
1F
100
AcDbEntity
  8
D-6
  6
Continuous
 62
     6
370
     9
100
AcDbLine
 10
-42.21204082483581
 20
-860.8996278437244
 30
0.0
 11
33.61647327428528
 21
-785.0716096552478
 31
0.0
  0
LINE
  5
3DB
330
1F
100
AcDbEntity
  8
D-6
  6
Continuous
 62
     6
370
     9
100
AcDbLine
 10
-56.35270397180847
 20
-860.8996278437244
 30
0.0
 11
33.61647327428528
 21
-770.9309083613023
 31
0.0
  0
LINE
  5
3DC
330
1F
100
AcDbEntity
  8
D-6
  6
Continuous
 62
     6
370
     9
100
AcDbLine
 10
-28.0713395308905
 20
-860.8996278437244
 30
0.0
 11
33.61647327428528
 21
-799.2122728022205
 31
0.0
  0
LINE
  5
3DD
330
1F
100
AcDbEntity
  8
D-0
  6
Continuous
 62
     7
370
     9
100
AcDbLine
 10
-104.5390252303534
 20
-381.849687734471
 30
0.0
 11
-104.5390252303534
 21
-380.3494078310591
 31
0.0
  0
LINE
  5
3DE
330
1F
100
AcDbEntity
  8
D-0
  6
Continuous
 62
     7
370
     9
100
AcDbLine
 10
-104.5390252303534
 20
-380.3494078310591
 30
0.0
 11
-103.0392579268866
 21
-380.3494078310591
 31
0.0
  0
LINE
  5
3DF
330
1F
100
AcDbEntity
  8
D-0
  6
Continuous
 62
     7
370
     9
100
AcDbLine
 10
-103.0392579268866
 20
-380.3494078310591
 30
0.0
 11
-103.0392579268866
 21
-381.849687734471
 31
0.0
  0
LINE
  5
3E0
330
1F
100
AcDbEntity
  8
D-0
  6
Continuous
 62
     7
370
     9
100
AcDbLine
 10
-103.0392579268866
 20
-381.849687734471
 30
0.0
 11
-104.5390252303534
 21
-381.849687734471
 31
0.0
  0
LINE
  5
3E1
330
1F
100
AcDbEntity
  8
D-0
  6
Continuous
 62
     7
370
     9
100
AcDbLine
 10
-53.78320018762878
 20
-384.5569283159834
 30
0.0
 11
-53.78320018762878
 21
-383.0566484125716
 31
0.0
  0
LINE
  5
3E2
330
1F
100
AcDbEntity
  8
D-0
  6
Continuous
 62
     7
370
     9
100
AcDbLine
 10
-53.78320018762878
 20
-383.0566484125716
 30
0.0
 11
-52.28291790003112
 21
-383.0566484125716
 31
0.0
  0
LINE
  5
3E3
330
1F
100
AcDbEntity
  8
D-0
  6
Continuous
 62
     7
370
     9
100
AcDbLine
 10
-52.28291790003112
 20
-383.0566484125716
 30
0.0
 11
-52.28291790003112
 21
-384.5569283159834
 31
0.0
  0
LINE
  5
3E4
330
1F
100
AcDbEntity
  8
D-0
  6
Continuous
 62
     7
370
     9
100
AcDbLine
 10
-52.28291790003112
 20
-384.5569283159834
 30
0.0
 11
-53.78320018762878
 21
-384.5569283159834
 31
0.0
  0
LINE
  5
3E5
330
1F
100
AcDbEntity
  8
D-0
  6
Continuous
 62
     7
370
     9
100
AcDbLine
 10
11.184641914422
 20
-382.5264984758956
 30
0.0
 11
11.184641914422
 21
-381.0262185724837
 31
0.0
  0
LINE
  5
3E6
330
1F
100
AcDbEntity
  8
D-0
  6
Continuous
 62
     7
370
     9
100
AcDbLine
 10
11.184641914422
 20
-381.0262185724837
 30
0.0
 11
12.68442829137513
 21
-381.0262185724837
 31
0.0
  0
LINE
  5
3E7
330
1F
100
AcDbEntity
  8
D-0
  6
Continuous
 62
     7
370
     9
100
AcDbLine
 10
12.68442829137513
 20
-381.0262185724837
 30
0.0
 11
12.68442829137513
 21
-382.5264984758956
 31
0.0
  0
LINE
  5
3E8
330
1F
100
AcDbEntity
  8
D-0
  6
Continuous
 62
     7
370
     9
100
AcDbLine
 10
12.68442829137513
 20
-382.5264984758956
 30
0.0
 11
11.184641914422
 21
-382.5264984758956
 31
0.0
  0
LINE
  5
3E9
330
1F
100
AcDbEntity
  8
D-0
  6
Continuous
 62
     7
370
     9
100
AcDbLine
 10
-13.17857067102722
 20
-415.0104219111067
 30
0.0
 11
-13.17857067102722
 21
-413.5101396235091
 31
0.0
  0
LINE
  5
3EA
330
1F
100
AcDbEntity
  8
D-0
  6
Continuous
 62
     7
370
     9
100
AcDbLine
 10
-13.17857067102722
 20
-413.5101396235091
 30
0.0
 11
-11.67828838342956
 21
-413.5101396235091
 31
0.0
  0
LINE
  5
3EB
330
1F
100
AcDbEntity
  8
D-0
  6
Continuous
 62
     7
370
     9
100
AcDbLine
 10
-11.67828838342956
 20
-413.5101396235091
 30
0.0
 11
-11.67828838342956
 21
-415.0104219111067
 31
0.0
  0
LINE
  5
3EC
330
1F
100
AcDbEntity
  8
D-0
  6
Continuous
 62
     7
370
     9
100
AcDbLine
 10
-11.67828838342956
 20
-415.0104219111067
 30
0.0
 11
-13.17857067102722
 21
-415.0104219111067
 31
0.0
  0
LINE
  5
3ED
330
1F
100
AcDbEntity
  8
D-0
  6
Continuous
 62
     7
370
     9
100
AcDbLine
 10
-63.74360363001159
 20
-418.9414722117049
 30
0.0
 11
-63.74360363001159
 21
-417.4411899241072
 31
0.0
  0
LINE
  5
3EE
330
1F
100
AcDbEntity
  8
D-0
  6
Continuous
 62
     7
370
     9
100
AcDbLine
 10
-63.74360363001159
 20
-417.4411899241072
 30
0.0
 11
-62.24385540003112
 21
-417.4411899241072
 31
0.0
  0
LINE
  5
3EF
330
1F
100
AcDbEntity
  8
D-0
  6
Continuous
 62
     7
370
     9
100
AcDbLine
 10
-62.24385540003112
 20
-417.4411899241072
 30
0.0
 11
-62.24385540003112
 21
-418.9414722117049
 31
0.0
  0
LINE
  5
3F0
330
1F
100
AcDbEntity
  8
D-0
  6
Continuous
 62
     7
370
     9
100
AcDbLine
 10
-62.24385540003112
 20
-418.9414722117049
 30
0.0
 11
-63.74360363001159
 21
-418.9414722117049
 31
0.0
  0
LINE
  5
3F1
330
1F
100
AcDbEntity
  8
D-0
  6
Continuous
 62
     7
370
     9
100
AcDbLine
 10
-80.85313121790222
 20
-452.9083329828843
 30
0.0
 11
-80.85313121790222
 21
-451.4080506952866
 31
0.0
  0
LINE
  5
3F2
330
1F
100
AcDbEntity
  8
D-0
  6
Continuous
 62
     7
370
     9
100
AcDbLine
 10
-80.85313121790222
 20
-451.4080506952866
 30
0.0
 11
-79.35288707727722
 21
-451.4080506952866
 31
0.0
  0
LINE
  5
3F3
330
1F
100
AcDbEntity
  8
D-0
  6
Continuous
 62
     7
370
     9
100
AcDbLine
 10
-79.35288707727722
 20
-451.4080506952866
 30
0.0
 11
-79.35288707727722
 21
-452.9083329828843
 31
0.0
  0
LINE
  5
3F4
330
1F
100
AcDbEntity
  8
D-0
  6
Continuous
 62
     7
370
     9
100
AcDbLine
 10
-79.35288707727722
 20
-452.9083329828843
 30
0.0
 11
-80.85313121790222
 21
-452.9083329828843
 31
0.0
  0
LINE
  5
3F5
330
1F
100
AcDbEntity
  8
D-0
  6
Continuous
 62
     7
370
     9
100
AcDbLine
 10
-112.2093896102362
 20
-438.3365947397813
 30
0.0
 11
-112.2093896102362
 21
-436.8363172205552
 31
0.0
  0
LINE
  5
3F6
330
1F
100
AcDbEntity
  8
D-0
  6
Continuous
 62
     7
370
     9
100
AcDbLine
 10
-112.2093896102362
 20
-436.8363172205552
 30
0.0
 11
-110.7096032332831
 21
-436.8363172205552
 31
0.0
  0
LINE
  5
3F7
330
1F
100
AcDbEntity
  8
D-0
  6
Continuous
 62
     7
370
     9
100
AcDbLine
 10
-110.7096032332831
 20
-436.8363172205552
 30
0.0
 11
-110.7096032332831
 21
-438.3365947397813
 31
0.0
  0
LINE
  5
3F8
330
1F
100
AcDbEntity
  8
D-0
  6
Continuous
 62
     7
370
     9
100
AcDbLine
 10
-110.7096032332831
 20
-438.3365947397813
 30
0.0
 11
-112.2093896102362
 21
-438.3365947397813
 31
0.0
  0
LINE
  5
3F9
330
1F
100
AcDbEntity
  8
D-0
  6
Continuous
 62
     7
370
     9
100
AcDbLine
 10
-122.9338006209784
 20
-479.5566255243882
 30
0.0
 11
-122.9338006209784
 21
-478.0563432367906
 31
0.0
  0
LINE
  5
3FA
330
1F
100
AcDbEntity
  8
D-0
  6
Continuous
 62
     7
370
     9
100
AcDbLine
 10
-122.9338006209784
 20
-478.0563432367906
 30
0.0
 11
-121.4335183333807
 21
-478.0563432367906
 31
0.0
  0
LINE
  5
3FB
330
1F
100
AcDbEntity
  8
D-0
  6
Continuous
 62
     7
370
     9
100
AcDbLine
 10
-121.4335183333807
 20
-478.0563432367906
 30
0.0
 11
-121.4335183333807
 21
-479.5566255243882
 31
0.0
  0
LINE
  5
3FC
330
1F
100
AcDbEntity
  8
D-0
  6
Continuous
 62
     7
370
     9
100
AcDbLine
 10
-121.4335183333807
 20
-479.5566255243882
 30
0.0
 11
-122.9338006209784
 21
-479.5566255243882
 31
0.0
  0
LINE
  5
3FD
330
1F
100
AcDbEntity
  8
D-0
  6
Continuous
 62
     7
370
     9
100
AcDbLine
 10
-85.59033672327331
 20
-488.0990010889634
 30
0.0
 11
-85.59033672327331
 21
-486.5987188013657
 31
0.0
  0
LINE
  5
3FE
330
1F
100
AcDbEntity
  8
D-0
  6
Continuous
 62
     7
370
     9
100
AcDbLine
 10
-85.59033672327331
 20
-486.5987188013657
 30
0.0
 11
-84.09005443567565
 21
-486.5987188013657
 31
0.0
  0
LINE
  5
3FF
330
1F
100
AcDbEntity
  8
D-0
  6
Continuous
 62
     7
370
     9
100
AcDbLine
 10
-84.09005443567565
 20
-486.5987188013657
 30
0.0
 11
-84.09005443567565
 21
-488.0990010889634
 31
0.0
  0
LINE
  5
400
330
1F
100
AcDbEntity
  8
D-0
  6
Continuous
 62
     7
370
     9
100
AcDbLine
 10
-84.09005443567565
 20
-488.0990010889634
 30
0.0
 11
-85.59033672327331
 21
-488.0990010889634
 31
0.0
  0
LINE
  5
401
330
1F
100
AcDbEntity
  8
D-0
  6
Continuous
 62
     7
370
     9
100
AcDbLine
 10
-33.38525096887878
 20
-492.8237897547349
 30
0.0
 11
-33.38525096887878
 21
-491.3235170038804
 31
0.0
  0
LINE
  5
402
330
1F
100
AcDbEntity
  8
D-0
  6
Continuous
 62
     7
370
     9
100
AcDbLine
 10
-33.38525096887878
 20
-491.3235170038804
 30
0.0
 11
-31.88546459192565
 21
-491.3235170038804
 31
0.0
  0
LINE
  5
403
330
1F
100
AcDbEntity
  8
D-0
  6
Continuous
 62
     7
370
     9
100
AcDbLine
 10
-31.88546459192565
 20
-491.3235170038804
 30
0.0
 11
-31.88546459192565
 21
-492.8237897547349
 31
0.0
  0
LINE
  5
404
330
1F
100
AcDbEntity
  8
D-0
  6
Continuous
 62
     7
370
     9
100
AcDbLine
 10
-31.88546459192565
 20
-492.8237897547349
 30
0.0
 11
-33.38525096887878
 21
-492.8237897547349
 31
0.0
  0
LINE
  5
405
330
1F
100
AcDbEntity
  8
D-0
  6
Continuous
 62
     7
370
     9
100
AcDbLine
 10
21.33581836705872
 20
-486.0685712488755
 30
0.0
 11
21.33581836705872
 21
-484.5682889612779
 31
0.0
  0
LINE
  5
406
330
1F
100
AcDbEntity
  8
D-0
  6
Continuous
 62
     7
370
     9
100
AcDbLine
 10
21.33581836705872
 20
-484.5682889612779
 30
0.0
 11
22.83556659703919
 21
-484.5682889612779
 31
0.0
  0
LINE
  5
407
330
1F
100
AcDbEntity
  8
D-0
  6
Continuous
 62
     7
370
     9
100
AcDbLine
 10
22.83556659703919
 20
-484.5682889612779
 30
0.0
 11
22.83556659703919
 21
-486.0685712488755
 31
0.0
  0
LINE
  5
408
330
1F
100
AcDbEntity
  8
D-0
  6
Continuous
 62
     7
370
     9
100
AcDbLine
 10
22.83556659703919
 20
-486.0685712488755
 30
0.0
 11
21.33581836705872
 21
-486.0685712488755
 31
0.0
  0
LINE
  5
409
330
1F
100
AcDbEntity
  8
D-0
  6
Continuous
 62
     7
370
     9
100
AcDbLine
 10
9.154193000847783
 20
-446.1407262476548
 30
0.0
 11
9.154193000847783
 21
-444.6404439600572
 31
0.0
  0
LINE
  5
40A
330
1F
100
AcDbEntity
  8
D-0
  6
Continuous
 62
     7
370
     9
100
AcDbLine
 10
9.154193000847783
 20
-444.6404439600572
 30
0.0
 11
10.65447528844544
 21
-444.6404439600572
 31
0.0
  0
LINE
  5
40B
330
1F
100
AcDbEntity
  8
D-0
  6
Continuous
 62
     7
370
     9
100
AcDbLine
 10
10.65447528844544
 20
-444.6404439600572
 30
0.0
 11
10.65447528844544
 21
-446.1407262476548
 31
0.0
  0
LINE
  5
40C
330
1F
100
AcDbEntity
  8
D-0
  6
Continuous
 62
     7
370
     9
100
AcDbLine
 10
10.65447528844544
 20
-446.1407262476548
 30
0.0
 11
9.154193000847783
 21
-446.1407262476548
 31
0.0
  0
LINE
  5
40D
330
1F
100
AcDbEntity
  8
D-0
  6
Continuous
 62
     7
370
     9
100
AcDbLine
 10
-31.87455455774597
 20
-455.2583390863999
 30
0.0
 11
-31.87455455774597
 21
-453.7580567988023
 31
0.0
  0
LINE
  5
40E
330
1F
100
AcDbEntity
  8
D-0
  6
Continuous
 62
     7
370
     9
100
AcDbLine
 10
-31.87455455774597
 20
-453.7580567988023
 30
0.0
 11
-30.3748063277655
 21
-453.7580567988023
 31
0.0
  0
LINE
  5
40F
330
1F
100
AcDbEntity
  8
D-0
  6
Continuous
 62
     7
370
     9
100
AcDbLine
 10
-30.3748063277655
 20
-453.7580567988023
 30
0.0
 11
-30.3748063277655
 21
-455.2583390863999
 31
0.0
  0
LINE
  5
410
330
1F
100
AcDbEntity
  8
D-0
  6
Continuous
 62
     7
370
     9
100
AcDbLine
 10
-30.3748063277655
 20
-455.2583390863999
 30
0.0
 11
-31.87455455774597
 21
-455.2583390863999
 31
0.0
  0
LINE
  5
411
330
1F
100
AcDbEntity
  8
D-0
  6
Continuous
 62
     7
370
     9
100
AcDbLine
 10
28.61025531774231
 20
-415.7699758204085
 30
0.0
 11
28.61025531774231
 21
-414.2696935328108
 31
0.0
  0
LINE
  5
412
330
1F
100
AcDbEntity
  8
D-0
  6
Continuous
 62
     7
370
     9
100
AcDbLine
 10
28.61025531774231
 20
-414.2696935328108
 30
0.0
 11
30.11053760533997
 21
-414.2696935328108
 31
0.0
  0
LINE
  5
413
330
1F
100
AcDbEntity
  8
D-0
  6
Continuous
 62
     7
370
     9
100
AcDbLine
 10
30.11053760533997
 20
-414.2696935328108
 30
0.0
 11
30.11053760533997
 21
-415.7699758204085
 31
0.0
  0
LINE
  5
414
330
1F
100
AcDbEntity
  8
D-0
  6
Continuous
 62
     7
370
     9
100
AcDbLine
 10
30.11053760533997
 20
-415.7699758204085
 30
0.0
 11
28.61025531774231
 21
-415.7699758204085
 31
0.0
  0
LINE
  5
415
330
1F
100
AcDbEntity
  8
D-0
  6
Continuous
 62
     7
370
     9
100
AcDbLine
 10
-125.3903321456366
 20
-404.8770934733016
 30
0.0
 11
-125.3903321456366
 21
-403.3768159540755
 31
0.0
  0
LINE
  5
416
330
1F
100
AcDbEntity
  8
D-0
  6
Continuous
 62
     7
370
     9
100
AcDbLine
 10
-125.3903321456366
 20
-403.3768159540755
 30
0.0
 11
-123.8900689315253
 21
-403.3768159540755
 31
0.0
  0
LINE
  5
417
330
1F
100
AcDbEntity
  8
D-0
  6
Continuous
 62
     7
370
     9
100
AcDbLine
 10
-123.8900689315253
 20
-403.3768159540755
 30
0.0
 11
-123.8900689315253
 21
-404.8770934733016
 31
0.0
  0
LINE
  5
418
330
1F
100
AcDbEntity
  8
D-0
  6
Continuous
 62
     7
370
     9
100
AcDbLine
 10
-123.8900689315253
 20
-404.8770934733016
 30
0.0
 11
-125.3903321456366
 21
-404.8770934733016
 31
0.0
  0
LINE
  5
419
330
1F
100
AcDbEntity
  8
D-0
  6
Continuous
 62
     7
370
     9
100
AcDbLine
 10
-208.7400750350409
 20
-528.1274301203355
 30
0.0
 11
-208.7400750350409
 21
-526.6271478327378
 31
0.0
  0
LINE
  5
41A
330
1F
100
AcDbEntity
  8
D-0
  6
Continuous
 62
     7
370
     9
100
AcDbLine
 10
-208.7400750350409
 20
-526.6271478327378
 30
0.0
 11
-207.2397927474432
 21
-526.6271478327378
 31
0.0
  0
LINE
  5
41B
330
1F
100
AcDbEntity
  8
D-0
  6
Continuous
 62
     7
370
     9
100
AcDbLine
 10
-207.2397927474432
 20
-526.6271478327378
 30
0.0
 11
-207.2397927474432
 21
-528.1274301203355
 31
0.0
  0
LINE
  5
41C
330
1F
100
AcDbEntity
  8
D-0
  6
Continuous
 62
     7
370
     9
100
AcDbLine
 10
-207.2397927474432
 20
-528.1274301203355
 30
0.0
 11
-208.7400750350409
 21
-528.1274301203355
 31
0.0
  0
LINE
  5
41D
330
1F
100
AcDbEntity
  8
D-0
  6
Continuous
 62
     7
370
     9
100
AcDbLine
 10
-159.3755273055487
 20
-536.025703588353
 30
0.0
 11
-159.3755273055487
 21
-534.5254213007554
 31
0.0
  0
LINE
  5
41E
330
1F
100
AcDbEntity
  8
D-0
  6
Continuous
 62
     7
370
     9
100
AcDbLine
 10
-159.3755273055487
 20
-534.5254213007554
 30
0.0
 11
-157.8752640914374
 21
-534.5254213007554
 31
0.0
  0
LINE
  5
41F
330
1F
100
AcDbEntity
  8
D-0
  6
Continuous
 62
     7
370
     9
100
AcDbLine
 10
-157.8752640914374
 20
-534.5254213007554
 30
0.0
 11
-157.8752640914374
 21
-536.025703588353
 31
0.0
  0
LINE
  5
420
330
1F
100
AcDbEntity
  8
D-0
  6
Continuous
 62
     7
370
     9
100
AcDbLine
 10
-157.8752640914374
 20
-536.025703588353
 30
0.0
 11
-159.3755273055487
 21
-536.025703588353
 31
0.0
  0
LINE
  5
421
330
1F
100
AcDbEntity
  8
D-0
  6
Continuous
 62
     7
370
     9
100
AcDbLine
 10
-176.25664989466
 20
-556.6064721735581
 30
0.0
 11
-176.25664989466
 21
-555.1062089594468
 31
0.0
  0
LINE
  5
422
330
1F
100
AcDbEntity
  8
D-0
  6
Continuous
 62
     7
370
     9
100
AcDbLine
 10
-176.25664989466
 20
-555.1062089594468
 30
0.0
 11
-174.7568635177069
 21
-555.1062089594468
 31
0.0
  0
LINE
  5
423
330
1F
100
AcDbEntity
  8
D-0
  6
Continuous
 62
     7
370
     9
100
AcDbLine
 10
-174.7568635177069
 20
-555.1062089594468
 30
0.0
 11
-174.7568635177069
 21
-556.6064721735581
 31
0.0
  0
LINE
  5
424
330
1F
100
AcDbEntity
  8
D-0
  6
Continuous
 62
     7
370
     9
100
AcDbLine
 10
-174.7568635177069
 20
-556.6064721735581
 30
0.0
 11
-176.25664989466
 21
-556.6064721735581
 31
0.0
  0
LINE
  5
425
330
1F
100
AcDbEntity
  8
D-0
  6
Continuous
 62
     7
370
     9
100
AcDbLine
 10
-224.536621971076
 20
-591.3145715387925
 30
0.0
 11
-224.536621971076
 21
-589.8142892511949
 31
0.0
  0
LINE
  5
426
330
1F
100
AcDbEntity
  8
D-0
  6
Continuous
 62
     7
370
     9
100
AcDbLine
 10
-224.536621971076
 20
-589.8142892511949
 30
0.0
 11
-223.0368355941229
 21
-589.8142892511949
 31
0.0
  0
LINE
  5
427
330
1F
100
AcDbEntity
  8
D-0
  6
Continuous
 62
     7
370
     9
100
AcDbLine
 10
-223.0368355941229
 20
-589.8142892511949
 30
0.0
 11
-223.0368355941229
 21
-591.3145715387925
 31
0.0
  0
LINE
  5
428
330
1F
100
AcDbEntity
  8
D-0
  6
Continuous
 62
     7
370
     9
100
AcDbLine
 10
-223.0368355941229
 20
-591.3145715387925
 30
0.0
 11
-224.536621971076
 21
-591.3145715387925
 31
0.0
  0
LINE
  5
429
330
1F
100
AcDbEntity
  8
D-0
  6
Continuous
 62
     7
370
     9
100
AcDbLine
 10
-153.451702995246
 20
-589.3396264704331
 30
0.0
 11
-153.451702995246
 21
-587.8393441828355
 31
0.0
  0
LINE
  5
42A
330
1F
100
AcDbEntity
  8
D-0
  6
Continuous
 62
     7
370
     9
100
AcDbLine
 10
-153.451702995246
 20
-587.8393441828355
 30
0.0
 11
-151.9514397811346
 21
-587.8393441828355
 31
0.0
  0
LINE
  5
42B
330
1F
100
AcDbEntity
  8
D-0
  6
Continuous
 62
     7
370
     9
100
AcDbLine
 10
-151.9514397811346
 20
-587.8393441828355
 30
0.0
 11
-151.9514397811346
 21
-589.3396264704331
 31
0.0
  0
LINE
  5
42C
330
1F
100
AcDbEntity
  8
D-0
  6
Continuous
 62
     7
370
     9
100
AcDbLine
 10
-151.9514397811346
 20
-589.3396264704331
 30
0.0
 11
-153.451702995246
 21
-589.3396264704331
 31
0.0
  0
LINE
  5
42D
330
1F
100
AcDbEntity
  8
D-0
  6
Continuous
 62
     7
370
     9
100
AcDbLine
 10
-210.7145241927557
 20
-557.7465516718491
 30
0.0
 11
-210.7145241927557
 21
-556.2462693842515
 31
0.0
  0
LINE
  5
42E
330
1F
100
AcDbEntity
  8
D-0
  6
Continuous
 62
     7
370
     9
100
AcDbLine
 10
-210.7145241927557
 20
-556.2462693842515
 30
0.0
 11
-209.2147378158026
 21
-556.2462693842515
 31
0.0
  0
LINE
  5
42F
330
1F
100
AcDbEntity
  8
D-0
  6
Continuous
 62
     7
370
     9
100
AcDbLine
 10
-209.2147378158026
 20
-556.2462693842515
 30
0.0
 11
-209.2147378158026
 21
-557.7465516718491
 31
0.0
  0
LINE
  5
430
330
1F
100
AcDbEntity
  8
D-0
  6
Continuous
 62
     7
370
     9
100
AcDbLine
 10
-209.2147378158026
 20
-557.7465516718491
 30
0.0
 11
-210.7145241927557
 21
-557.7465516718491
 31
0.0
  0
LINE
  5
431
330
1F
100
AcDbEntity
  8
D-0
  6
Continuous
 62
     7
370
     9
100
AcDbLine
 10
-178.8474587630682
 20
-513.8678342493638
 30
0.0
 11
-178.8474587630682
 21
-512.3675614985093
 31
0.0
  0
LINE
  5
432
330
1F
100
AcDbEntity
  8
D-0
  6
Continuous
 62
     7
370
     9
100
AcDbLine
 10
-178.8474587630682
 20
-512.3675614985093
 30
0.0
 11
-177.3471764754706
 21
-512.3675614985093
 31
0.0
  0
LINE
  5
433
330
1F
100
AcDbEntity
  8
D-0
  6
Continuous
 62
     7
370
     9
100
AcDbLine
 10
-177.3471764754706
 20
-512.3675614985093
 30
0.0
 11
-177.3471764754706
 21
-513.8678342493638
 31
0.0
  0
LINE
  5
434
330
1F
100
AcDbEntity
  8
D-0
  6
Continuous
 62
     7
370
     9
100
AcDbLine
 10
-177.3471764754706
 20
-513.8678342493638
 30
0.0
 11
-178.8474587630682
 21
-513.8678342493638
 31
0.0
  0
LINE
  5
435
330
1F
100
AcDbEntity
  8
D-0
  6
Continuous
 62
     7
370
     9
100
AcDbLine
 10
-188.1310586165839
 20
-585.3074914606675
 30
0.0
 11
-188.1310586165839
 21
-583.8072282465562
 31
0.0
  0
LINE
  5
436
330
1F
100
AcDbEntity
  8
D-0
  6
Continuous
 62
     7
370
     9
100
AcDbLine
 10
-188.1310586165839
 20
-583.8072282465562
 30
0.0
 11
-186.6307763289862
 21
-583.8072282465562
 31
0.0
  0
LINE
  5
437
330
1F
100
AcDbEntity
  8
D-0
  6
Continuous
 62
     7
370
     9
100
AcDbLine
 10
-186.6307763289862
 20
-583.8072282465562
 30
0.0
 11
-186.6307763289862
 21
-585.3074914606675
 31
0.0
  0
LINE
  5
438
330
1F
100
AcDbEntity
  8
D-0
  6
Continuous
 62
     7
370
     9
100
AcDbLine
 10
-186.6307763289862
 20
-585.3074914606675
 30
0.0
 11
-188.1310586165839
 21
-585.3074914606675
 31
0.0
  0
LINE
  5
439
330
1F
100
AcDbEntity
  8
D-0
  6
Continuous
 62
     7
370
     9
100
AcDbLine
 10
-351.2567166518622
 20
-375.4313844832045
 30
0.0
 11
-351.2567166518622
 21
-373.9311045797926
 31
0.0
  0
LINE
  5
43A
330
1F
100
AcDbEntity
  8
D-0
  6
Continuous
 62
     7
370
     9
100
AcDbLine
 10
-351.2567166518622
 20
-373.9311045797926
 30
0.0
 11
-349.7564391326361
 21
-373.9311045797926
 31
0.0
  0
LINE
  5
43B
330
1F
100
AcDbEntity
  8
D-0
  6
Continuous
 62
     7
370
     9
100
AcDbLine
 10
-349.7564391326361
 20
-373.9311045797926
 30
0.0
 11
-349.7564391326361
 21
-375.4313844832045
 31
0.0
  0
LINE
  5
43C
330
1F
100
AcDbEntity
  8
D-0
  6
Continuous
 62
     7
370
     9
100
AcDbLine
 10
-349.7564391326361
 20
-375.4313844832045
 30
0.0
 11
-351.2567166518622
 21
-375.4313844832045
 31
0.0
  0
LINE
  5
43D
330
1F
100
AcDbEntity
  8
D-0
  6
Continuous
 62
     7
370
     9
100
AcDbLine
 10
-330.0120095443182
 20
-391.2299019487959
 30
0.0
 11
-330.0120095443182
 21
-389.7296220453841
 31
0.0
  0
LINE
  5
43E
330
1F
100
AcDbEntity
  8
D-0
  6
Continuous
 62
     7
370
     9
100
AcDbLine
 10
-330.0120095443182
 20
-389.7296220453841
 30
0.0
 11
-328.5117272567206
 21
-389.7296220453841
 31
0.0
  0
LINE
  5
43F
330
1F
100
AcDbEntity
  8
D-0
  6
Continuous
 62
     7
370
     9
100
AcDbLine
 10
-328.5117272567206
 20
-389.7296220453841
 30
0.0
 11
-328.5117272567206
 21
-391.2299019487959
 31
0.0
  0
LINE
  5
440
330
1F
100
AcDbEntity
  8
D-0
  6
Continuous
 62
     7
370
     9
100
AcDbLine
 10
-328.5117272567206
 20
-391.2299019487959
 30
0.0
 11
-330.0120095443182
 21
-391.2299019487959
 31
0.0
  0
LINE
  5
441
330
1F
100
AcDbEntity
  8
D-0
  6
Continuous
 62
     7
370
     9
100
AcDbLine
 10
-306.1457757186346
 20
-432.3102075251206
 30
0.0
 11
-306.1457757186346
 21
-430.8099300058946
 31
0.0
  0
LINE
  5
442
330
1F
100
AcDbEntity
  8
D-0
  6
Continuous
 62
     7
370
     9
100
AcDbLine
 10
-306.1457757186346
 20
-430.8099300058946
 30
0.0
 11
-304.6459893416815
 21
-430.8099300058946
 31
0.0
  0
LINE
  5
443
330
1F
100
AcDbEntity
  8
D-0
  6
Continuous
 62
     7
370
     9
100
AcDbLine
 10
-304.6459893416815
 20
-430.8099300058946
 30
0.0
 11
-304.6459893416815
 21
-432.3102075251206
 31
0.0
  0
LINE
  5
444
330
1F
100
AcDbEntity
  8
D-0
  6
Continuous
 62
     7
370
     9
100
AcDbLine
 10
-304.6459893416815
 20
-432.3102075251206
 30
0.0
 11
-306.1457757186346
 21
-432.3102075251206
 31
0.0
  0
LINE
  5
445
330
1F
100
AcDbEntity
  8
D-0
  6
Continuous
 62
     7
370
     9
100
AcDbLine
 10
-260.3813008498602
 20
-379.354011455403
 30
0.0
 11
-260.3813008498602
 21
-377.8537315519911
 31
0.0
  0
LINE
  5
446
330
1F
100
AcDbEntity
  8
D-0
  6
Continuous
 62
     7
370
     9
100
AcDbLine
 10
-260.3813008498602
 20
-377.8537315519911
 30
0.0
 11
-258.8815240096503
 21
-377.8537315519911
 31
0.0
  0
LINE
  5
447
330
1F
100
AcDbEntity
  8
D-0
  6
Continuous
 62
     7
370
     9
100
AcDbLine
 10
-258.8815240096503
 20
-377.8537315519911
 30
0.0
 11
-258.8815240096503
 21
-379.354011455403
 31
0.0
  0
LINE
  5
448
330
1F
100
AcDbEntity
  8
D-0
  6
Continuous
 62
     7
370
     9
100
AcDbLine
 10
-258.8815240096503
 20
-379.354011455403
 30
0.0
 11
-260.3813008498602
 21
-379.354011455403
 31
0.0
  0
LINE
  5
449
330
1F
100
AcDbEntity
  8
D-0
  6
Continuous
 62
     7
370
     9
100
AcDbLine
 10
-212.8232316207342
 20
-373.9558786543471
 30
0.0
 11
-212.8232316207342
 21
-372.4555987509352
 31
0.0
  0
LINE
  5
44A
330
1F
100
AcDbEntity
  8
D-0
  6
Continuous
 62
     7
370
     9
100
AcDbLine
 10
-212.8232316207342
 20
-372.4555987509352
 30
0.0
 11
-211.3234452437811
 21
-372.4555987509352
 31
0.0
  0
LINE
  5
44B
330
1F
100
AcDbEntity
  8
D-0
  6
Continuous
 62
     7
370
     9
100
AcDbLine
 10
-211.3234452437811
 20
-372.4555987509352
 30
0.0
 11
-211.3234452437811
 21
-373.9558786543471
 31
0.0
  0
LINE
  5
44C
330
1F
100
AcDbEntity
  8
D-0
  6
Continuous
 62
     7
370
     9
100
AcDbLine
 10
-211.3234452437811
 20
-373.9558786543471
 30
0.0
 11
-212.8232316207342
 21
-373.9558786543471
 31
0.0
  0
LINE
  5
44D
330
1F
100
AcDbEntity
  8
D-0
  6
Continuous
 62
     7
370
     9
100
AcDbLine
 10
-232.4368600081854
 20
-395.5305701883894
 30
0.0
 11
-232.4368600081854
 21
-394.0302926691634
 31
0.0
  0
LINE
  5
44E
330
1F
100
AcDbEntity
  8
D-0
  6
Continuous
 62
     7
370
     9
100
AcDbLine
 10
-232.4368600081854
 20
-394.0302926691634
 30
0.0
 11
-230.9365777205878
 21
-394.0302926691634
 31
0.0
  0
LINE
  5
44F
330
1F
100
AcDbEntity
  8
D-0
  6
Continuous
 62
     7
370
     9
100
AcDbLine
 10
-230.9365777205878
 20
-394.0302926691634
 30
0.0
 11
-230.9365777205878
 21
-395.5305701883894
 31
0.0
  0
LINE
  5
450
330
1F
100
AcDbEntity
  8
D-0
  6
Continuous
 62
     7
370
     9
100
AcDbLine
 10
-230.9365777205878
 20
-395.5305701883894
 30
0.0
 11
-232.4368600081854
 21
-395.5305701883894
 31
0.0
  0
LINE
  5
451
330
1F
100
AcDbEntity
  8
D-0
  6
Continuous
 62
     7
370
     9
100
AcDbLine
 10
-208.0791215133124
 20
-431.6566878946885
 30
0.0
 11
-208.0791215133124
 21
-430.1564056070908
 31
0.0
  0
LINE
  5
452
330
1F
100
AcDbEntity
  8
D-0
  6
Continuous
 62
     7
370
     9
100
AcDbLine
 10
-208.0791215133124
 20
-430.1564056070908
 30
0.0
 11
-206.5788392257147
 21
-430.1564056070908
 31
0.0
  0
LINE
  5
453
330
1F
100
AcDbEntity
  8
D-0
  6
Continuous
 62
     7
370
     9
100
AcDbLine
 10
-206.5788392257147
 20
-430.1564056070908
 30
0.0
 11
-206.5788392257147
 21
-431.6566878946885
 31
0.0
  0
LINE
  5
454
330
1F
100
AcDbEntity
  8
D-0
  6
Continuous
 62
     7
370
     9
100
AcDbLine
 10
-206.5788392257147
 20
-431.6566878946885
 30
0.0
 11
-208.0791215133124
 21
-431.6566878946885
 31
0.0
  0
LINE
  5
455
330
1F
100
AcDbEntity
  8
D-0
  6
Continuous
 62
     7
370
     9
100
AcDbLine
 10
-204.1560105513983
 20
-470.2294236811265
 30
0.0
 11
-204.1560105513983
 21
-468.7291413935288
 31
0.0
  0
LINE
  5
456
330
1F
100
AcDbEntity
  8
D-0
  6
Continuous
 62
     7
370
     9
100
AcDbLine
 10
-204.1560105513983
 20
-468.7291413935288
 30
0.0
 11
-202.6562241744452
 21
-468.7291413935288
 31
0.0
  0
LINE
  5
457
330
1F
100
AcDbEntity
  8
D-0
  6
Continuous
 62
     7
370
     9
100
AcDbLine
 10
-202.6562241744452
 20
-468.7291413935288
 30
0.0
 11
-202.6562241744452
 21
-470.2294236811265
 31
0.0
  0
LINE
  5
458
330
1F
100
AcDbEntity
  8
D-0
  6
Continuous
 62
     7
370
     9
100
AcDbLine
 10
-202.6562241744452
 20
-470.2294236811265
 30
0.0
 11
-204.1560105513983
 21
-470.2294236811265
 31
0.0
  0
LINE
  5
459
330
1F
100
AcDbEntity
  8
D-0
  6
Continuous
 62
     7
370
     9
100
AcDbLine
 10
-279.8249844741278
 20
-393.8553911837203
 30
0.0
 11
-279.8249844741278
 21
-392.3551112803084
 31
0.0
  0
LINE
  5
45A
330
1F
100
AcDbEntity
  8
D-0
  6
Continuous
 62
     7
370
     9
100
AcDbLine
 10
-279.8249844741278
 20
-392.3551112803084
 30
0.0
 11
-278.3247021865301
 21
-392.3551112803084
 31
0.0
  0
LINE
  5
45B
330
1F
100
AcDbEntity
  8
D-0
  6
Continuous
 62
     7
370
     9
100
AcDbLine
 10
-278.3247021865301
 20
-392.3551112803084
 30
0.0
 11
-278.3247021865301
 21
-393.8553911837203
 31
0.0
  0
LINE
  5
45C
330
1F
100
AcDbEntity
  8
D-0
  6
Continuous
 62
     7
370
     9
100
AcDbLine
 10
-278.3247021865301
 20
-393.8553911837203
 30
0.0
 11
-279.8249844741278
 21
-393.8553911837203
 31
0.0
  0
LINE
  5
45D
330
1F
100
AcDbEntity
  8
D-0
  6
Continuous
 62
     7
370
     9
100
AcDbLine
 10
-358.1070689391547
 20
-521.2944108637437
 30
0.0
 11
-358.1070689391547
 21
-519.7941381128892
 31
0.0
  0
LINE
  5
45E
330
1F
100
AcDbEntity
  8
D-0
  6
Continuous
 62
     7
370
     9
100
AcDbLine
 10
-358.1070689391547
 20
-519.7941381128892
 30
0.0
 11
-356.6067914199286
 21
-519.7941381128892
 31
0.0
  0
LINE
  5
45F
330
1F
100
AcDbEntity
  8
D-0
  6
Continuous
 62
     7
370
     9
100
AcDbLine
 10
-356.6067914199286
 20
-519.7941381128892
 30
0.0
 11
-356.6067914199286
 21
-521.2944108637437
 31
0.0
  0
LINE
  5
460
330
1F
100
AcDbEntity
  8
D-0
  6
Continuous
 62
     7
370
     9
100
AcDbLine
 10
-356.6067914199286
 20
-521.2944108637437
 30
0.0
 11
-358.1070689391547
 21
-521.2944108637437
 31
0.0
  0
LINE
  5
461
330
1F
100
AcDbEntity
  8
D-0
  6
Continuous
 62
     7
370
     9
100
AcDbLine
 10
-508.8782147597724
 20
-510.3559571894273
 30
0.0
 11
-508.8782147597724
 21
-508.8556749018296
 31
0.0
  0
LINE
  5
462
330
1F
100
AcDbEntity
  8
D-0
  6
Continuous
 62
     7
370
     9
100
AcDbLine
 10
-508.8782147597724
 20
-508.8556749018296
 30
0.0
 11
-507.3779420089179
 21
-508.8556749018296
 31
0.0
  0
LINE
  5
463
330
1F
100
AcDbEntity
  8
D-0
  6
Continuous
 62
     7
370
     9
100
AcDbLine
 10
-507.3779420089179
 20
-508.8556749018296
 30
0.0
 11
-507.3779420089179
 21
-510.3559571894273
 31
0.0
  0
LINE
  5
464
330
1F
100
AcDbEntity
  8
D-0
  6
Continuous
 62
     7
370
     9
100
AcDbLine
 10
-507.3779420089179
 20
-510.3559571894273
 30
0.0
 11
-508.8782147597724
 21
-510.3559571894273
 31
0.0
  0
LINE
  5
465
330
1F
100
AcDbEntity
  8
D-0
  6
Continuous
 62
     7
370
     9
100
AcDbLine
 10
-449.639971656745
 20
-615.0093728693589
 30
0.0
 11
-449.639971656745
 21
-613.5090905817613
 31
0.0
  0
LINE
  5
466
330
1F
100
AcDbEntity
  8
D-0
  6
Continuous
 62
     7
370
     9
100
AcDbLine
 10
-449.639971656745
 20
-613.5090905817613
 30
0.0
 11
-448.1401900481634
 21
-613.5090905817613
 31
0.0
  0
LINE
  5
467
330
1F
100
AcDbEntity
  8
D-0
  6
Continuous
 62
     7
370
     9
100
AcDbLine
 10
-448.1401900481634
 20
-613.5090905817613
 30
0.0
 11
-448.1401900481634
 21
-615.0093728693589
 31
0.0
  0
LINE
  5
468
330
1F
100
AcDbEntity
  8
D-0
  6
Continuous
 62
     7
370
     9
100
AcDbLine
 10
-448.1401900481634
 20
-615.0093728693589
 30
0.0
 11
-449.639971656745
 21
-615.0093728693589
 31
0.0
  0
LINE
  5
469
330
1F
100
AcDbEntity
  8
D-0
  6
Continuous
 62
     7
370
     9
100
AcDbLine
 10
-463.4625605773383
 20
-674.2471200617417
 30
0.0
 11
-463.4625605773383
 21
-672.7468377741441
 31
0.0
  0
LINE
  5
46A
330
1F
100
AcDbEntity
  8
D-0
  6
Continuous
 62
     7
370
     9
100
AcDbLine
 10
-463.4625605773383
 20
-672.7468377741441
 30
0.0
 11
-461.9622782897407
 21
-672.7468377741441
 31
0.0
  0
LINE
  5
46B
330
1F
100
AcDbEntity
  8
D-0
  6
Continuous
 62
     7
370
     9
100
AcDbLine
 10
-461.9622782897407
 20
-672.7468377741441
 30
0.0
 11
-461.9622782897407
 21
-674.2471200617417
 31
0.0
  0
LINE
  5
46C
330
1F
100
AcDbEntity
  8
D-0
  6
Continuous
 62
     7
370
     9
100
AcDbLine
 10
-461.9622782897407
 20
-674.2471200617417
 30
0.0
 11
-463.4625605773383
 21
-674.2471200617417
 31
0.0
  0
LINE
  5
46D
330
1F
100
AcDbEntity
  8
D-0
  6
Continuous
 62
     7
370
     9
100
AcDbLine
 10
-494.0686539840156
 20
-685.1073152216538
 30
0.0
 11
-494.0686539840156
 21
-683.6070329340562
 31
0.0
  0
LINE
  5
46E
330
1F
100
AcDbEntity
  8
D-0
  6
Continuous
 62
     7
370
     9
100
AcDbLine
 10
-494.0686539840156
 20
-683.6070329340562
 30
0.0
 11
-492.5683812331611
 21
-683.6070329340562
 31
0.0
  0
LINE
  5
46F
330
1F
100
AcDbEntity
  8
D-0
  6
Continuous
 62
     7
370
     9
100
AcDbLine
 10
-492.5683812331611
 20
-683.6070329340562
 30
0.0
 11
-492.5683812331611
 21
-685.1073152216538
 31
0.0
  0
LINE
  5
470
330
1F
100
AcDbEntity
  8
D-0
  6
Continuous
 62
     7
370
     9
100
AcDbLine
 10
-492.5683812331611
 20
-685.1073152216538
 30
0.0
 11
-494.0686539840156
 21
-685.1073152216538
 31
0.0
  0
LINE
  5
471
330
1F
100
AcDbEntity
  8
D-0
  6
Continuous
 62
     7
370
     9
100
AcDbLine
 10
-516.9221524428779
 20
-618.9587480219468
 30
0.0
 11
-516.9221524428779
 21
-617.4584657343491
 31
0.0
  0
LINE
  5
472
330
1F
100
AcDbEntity
  8
D-0
  6
Continuous
 62
     7
370
     9
100
AcDbLine
 10
-516.9221524428779
 20
-617.4584657343491
 30
0.0
 11
-515.4223660659247
 21
-617.4584657343491
 31
0.0
  0
LINE
  5
473
330
1F
100
AcDbEntity
  8
D-0
  6
Continuous
 62
     7
370
     9
100
AcDbLine
 10
-515.4223660659247
 20
-617.4584657343491
 30
0.0
 11
-515.4223660659247
 21
-618.9587480219468
 31
0.0
  0
LINE
  5
474
330
1F
100
AcDbEntity
  8
D-0
  6
Continuous
 62
     7
370
     9
100
AcDbLine
 10
-515.4223660659247
 20
-618.9587480219468
 30
0.0
 11
-516.9221524428779
 21
-618.9587480219468
 31
0.0
  0
LINE
  5
475
330
1F
100
AcDbEntity
  8
D-0
  6
Continuous
 62
     7
370
     9
100
AcDbLine
 10
-491.1067418288642
 20
-597.2383958490952
 30
0.0
 11
-491.1067418288642
 21
-595.7381135614976
 31
0.0
  0
LINE
  5
476
330
1F
100
AcDbEntity
  8
D-0
  6
Continuous
 62
     7
370
     9
100
AcDbLine
 10
-491.1067418288642
 20
-595.7381135614976
 30
0.0
 11
-489.6064690780097
 21
-595.7381135614976
 31
0.0
  0
LINE
  5
477
330
1F
100
AcDbEntity
  8
D-0
  6
Continuous
 62
     7
370
     9
100
AcDbLine
 10
-489.6064690780097
 20
-595.7381135614976
 30
0.0
 11
-489.6064690780097
 21
-597.2383958490952
 31
0.0
  0
LINE
  5
478
330
1F
100
AcDbEntity
  8
D-0
  6
Continuous
 62
     7
370
     9
100
AcDbLine
 10
-489.6064690780097
 20
-597.2383958490952
 30
0.0
 11
-491.1067418288642
 21
-597.2383958490952
 31
0.0
  0
LINE
  5
479
330
1F
100
AcDbEntity
  8
D-0
  6
Continuous
 62
     7
370
     9
100
AcDbLine
 10
-427.9196123313361
 20
-649.7313195856675
 30
0.0
 11
-427.9196123313361
 21
-648.2310372980699
 31
0.0
  0
LINE
  5
47A
330
1F
100
AcDbEntity
  8
D-0
  6
Continuous
 62
     7
370
     9
100
AcDbLine
 10
-427.9196123313361
 20
-648.2310372980699
 30
0.0
 11
-426.4198283385687
 21
-648.2310372980699
 31
0.0
  0
LINE
  5
47B
330
1F
100
AcDbEntity
  8
D-0
  6
Continuous
 62
     7
370
     9
100
AcDbLine
 10
-426.4198283385687
 20
-648.2310372980699
 30
0.0
 11
-426.4198283385687
 21
-649.7313195856675
 31
0.0
  0
LINE
  5
47C
330
1F
100
AcDbEntity
  8
D-0
  6
Continuous
 62
     7
370
     9
100
AcDbLine
 10
-426.4198283385687
 20
-649.7313195856675
 30
0.0
 11
-427.9196123313361
 21
-649.7313195856675
 31
0.0
  0
LINE
  5
47D
330
1F
100
AcDbEntity
  8
D-0
  6
Continuous
 62
     7
370
     9
100
AcDbLine
 10
-504.9288396071845
 20
-787.6103669794666
 30
0.0
 11
-504.9288396071845
 21
-786.1100846918689
 31
0.0
  0
LINE
  5
47E
330
1F
100
AcDbEntity
  8
D-0
  6
Continuous
 62
     7
370
     9
100
AcDbLine
 10
-504.9288396071845
 20
-786.1100846918689
 30
0.0
 11
-503.4290532302314
 21
-786.1100846918689
 31
0.0
  0
LINE
  5
47F
330
1F
100
AcDbEntity
  8
D-0
  6
Continuous
 62
     7
370
     9
100
AcDbLine
 10
-503.4290532302314
 20
-786.1100846918689
 30
0.0
 11
-503.4290532302314
 21
-787.6103669794666
 31
0.0
  0
LINE
  5
480
330
1F
100
AcDbEntity
  8
D-0
  6
Continuous
 62
     7
370
     9
100
AcDbLine
 10
-503.4290532302314
 20
-787.6103669794666
 30
0.0
 11
-504.9288396071845
 21
-787.6103669794666
 31
0.0
  0
LINE
  5
481
330
1F
100
AcDbEntity
  8
D-0
  6
Continuous
 62
     7
370
     9
100
AcDbLine
 10
-434.5385793876105
 20
-791.3224107416736
 30
0.0
 11
-434.5385793876105
 21
-789.8221284540759
 31
0.0
  0
LINE
  5
482
330
1F
100
AcDbEntity
  8
D-0
  6
Continuous
 62
     7
370
     9
100
AcDbLine
 10
-434.5385793876105
 20
-789.8221284540759
 30
0.0
 11
-433.0387953948431
 21
-789.8221284540759
 31
0.0
  0
LINE
  5
483
330
1F
100
AcDbEntity
  8
D-0
  6
Continuous
 62
     7
370
     9
100
AcDbLine
 10
-433.0387953948431
 20
-789.8221284540759
 30
0.0
 11
-433.0387953948431
 21
-791.3224107416736
 31
0.0
  0
LINE
  5
484
330
1F
100
AcDbEntity
  8
D-0
  6
Continuous
 62
     7
370
     9
100
AcDbLine
 10
-433.0387953948431
 20
-791.3224107416736
 30
0.0
 11
-434.5385793876105
 21
-791.3224107416736
 31
0.0
  0
LINE
  5
485
330
1F
100
AcDbEntity
  8
D-0
  6
Continuous
 62
     7
370
     9
100
AcDbLine
 10
-410.1481376122885
 20
-817.229011693822
 30
0.0
 11
-410.1481376122885
 21
-815.7287294062244
 31
0.0
  0
LINE
  5
486
330
1F
100
AcDbEntity
  8
D-0
  6
Continuous
 62
     7
370
     9
100
AcDbLine
 10
-410.1481376122885
 20
-815.7287294062244
 30
0.0
 11
-408.6483534705096
 21
-815.7287294062244
 31
0.0
  0
LINE
  5
487
330
1F
100
AcDbEntity
  8
D-0
  6
Continuous
 62
     7
370
     9
100
AcDbLine
 10
-408.6483534705096
 20
-815.7287294062244
 30
0.0
 11
-408.6483534705096
 21
-817.229011693822
 31
0.0
  0
LINE
  5
488
330
1F
100
AcDbEntity
  8
D-0
  6
Continuous
 62
     7
370
     9
100
AcDbLine
 10
-408.6483534705096
 20
-817.229011693822
 30
0.0
 11
-410.1481376122885
 21
-817.229011693822
 31
0.0
  0
LINE
  5
489
330
1F
100
AcDbEntity
  8
D-0
  6
Continuous
 62
     7
370
     9
100
AcDbLine
 10
-403.8695571851187
 20
-855.4410249384509
 30
0.0
 11
-403.8695571851187
 21
-853.9407426508533
 31
0.0
  0
LINE
  5
48A
330
1F
100
AcDbEntity
  8
D-0
  6
Continuous
 62
     7
370
     9
100
AcDbLine
 10
-403.8695571851187
 20
-853.9407426508533
 30
0.0
 11
-402.3692778777533
 21
-853.9407426508533
 31
0.0
  0
LINE
  5
48B
330
1F
100
AcDbEntity
  8
D-0
  6
Continuous
 62
     7
370
     9
100
AcDbLine
 10
-402.3692778777533
 20
-853.9407426508533
 30
0.0
 11
-402.3692778777533
 21
-855.4410249384509
 31
0.0
  0
LINE
  5
48C
330
1F
100
AcDbEntity
  8
D-0
  6
Continuous
 62
     7
370
     9
100
AcDbLine
 10
-402.3692778777533
 20
-855.4410249384509
 30
0.0
 11
-403.8695571851187
 21
-855.4410249384509
 31
0.0
  0
LINE
  5
48D
330
1F
100
AcDbEntity
  8
D-0
  6
Continuous
 62
     7
370
     9
100
AcDbLine
 10
-478.0982140731269
 20
-860.8996278437244
 30
0.0
 11
-478.0982140731269
 21
-859.3993455561267
 31
0.0
  0
LINE
  5
48E
330
1F
100
AcDbEntity
  8
D-0
  6
Continuous
 62
     7
370
     9
100
AcDbLine
 10
-478.0982140731269
 20
-859.3993455561267
 30
0.0
 11
-476.5979317855292
 21
-859.3993455561267
 31
0.0
  0
LINE
  5
48F
330
1F
100
AcDbEntity
  8
D-0
  6
Continuous
 62
     7
370
     9
100
AcDbLine
 10
-476.5979317855292
 20
-859.3993455561267
 30
0.0
 11
-476.5979317855292
 21
-860.8996278437244
 31
0.0
  0
LINE
  5
490
330
1F
100
AcDbEntity
  8
D-0
  6
Continuous
 62
     7
370
     9
100
AcDbLine
 10
-476.5979317855292
 20
-860.8996278437244
 30
0.0
 11
-478.0982140731269
 21
-860.8996278437244
 31
0.0
  0
LINE
  5
491
330
1F
100
AcDbEntity
  8
D-0
  6
Continuous
 62
     7
370
     9
100
AcDbLine
 10
-512.8271035384589
 20
-851.6031343134509
 30
0.0
 11
-512.8271035384589
 21
-850.1028520258533
 31
0.0
  0
LINE
  5
492
330
1F
100
AcDbEntity
  8
D-0
  6
Continuous
 62
     7
370
     9
100
AcDbLine
 10
-512.8271035384589
 20
-850.1028520258533
 30
0.0
 11
-511.3268212508613
 21
-850.1028520258533
 31
0.0
  0
LINE
  5
493
330
1F
100
AcDbEntity
  8
D-0
  6
Continuous
 62
     7
370
     9
100
AcDbLine
 10
-511.3268212508613
 20
-850.1028520258533
 30
0.0
 11
-511.3268212508613
 21
-851.6031343134509
 31
0.0
  0
LINE
  5
494
330
1F
100
AcDbEntity
  8
D-0
  6
Continuous
 62
     7
370
     9
100
AcDbLine
 10
-511.3268212508613
 20
-851.6031343134509
 30
0.0
 11
-512.8271035384589
 21
-851.6031343134509
 31
0.0
  0
LINE
  5
495
330
1F
100
AcDbEntity
  8
D-0
  6
Continuous
 62
     7
370
     9
100
AcDbLine
 10
-515.0383786391669
 20
-811.305168310033
 30
0.0
 11
-515.0383786391669
 21
-809.8048860224353
 31
0.0
  0
LINE
  5
496
330
1F
100
AcDbEntity
  8
D-0
  6
Continuous
 62
     7
370
     9
100
AcDbLine
 10
-515.0383786391669
 20
-809.8048860224353
 30
0.0
 11
-513.538601798957
 21
-809.8048860224353
 31
0.0
  0
LINE
  5
497
330
1F
100
AcDbEntity
  8
D-0
  6
Continuous
 62
     7
370
     9
100
AcDbLine
 10
-513.538601798957
 20
-809.8048860224353
 30
0.0
 11
-513.538601798957
 21
-811.305168310033
 31
0.0
  0
LINE
  5
498
330
1F
100
AcDbEntity
  8
D-0
  6
Continuous
 62
     7
370
     9
100
AcDbLine
 10
-513.538601798957
 20
-811.305168310033
 30
0.0
 11
-515.0383786391669
 21
-811.305168310033
 31
0.0
  0
LINE
  5
499
330
1F
100
AcDbEntity
  8
D-0
  6
Continuous
 62
     7
370
     9
100
AcDbLine
 10
-457.5387362670355
 20
-831.0511094721423
 30
0.0
 11
-457.5387362670355
 21
-829.5508271845447
 31
0.0
  0
LINE
  5
49A
330
1F
100
AcDbEntity
  8
D-0
  6
Continuous
 62
     7
370
     9
100
AcDbLine
 10
-457.5387362670355
 20
-829.5508271845447
 30
0.0
 11
-456.0384539794379
 21
-829.5508271845447
 31
0.0
  0
LINE
  5
49B
330
1F
100
AcDbEntity
  8
D-0
  6
Continuous
 62
     7
370
     9
100
AcDbLine
 10
-456.0384539794379
 20
-829.5508271845447
 30
0.0
 11
-456.0384539794379
 21
-831.0511094721423
 31
0.0
  0
LINE
  5
49C
330
1F
100
AcDbEntity
  8
D-0
  6
Continuous
 62
     7
370
     9
100
AcDbLine
 10
-456.0384539794379
 20
-831.0511094721423
 30
0.0
 11
-457.5387362670355
 21
-831.0511094721423
 31
0.0
  0
LINE
  5
49D
330
1F
100
AcDbEntity
  8
D-0
  6
Continuous
 62
     7
370
     9
100
AcDbLine
 10
-469.386384887641
 20
-797.4830705317127
 30
0.0
 11
-469.386384887641
 21
-795.982788244115
 31
0.0
  0
LINE
  5
49E
330
1F
100
AcDbEntity
  8
D-0
  6
Continuous
 62
     7
370
     9
100
AcDbLine
 10
-469.386384887641
 20
-795.982788244115
 30
0.0
 11
-467.8861026000434
 21
-795.982788244115
 31
0.0
  0
LINE
  5
49F
330
1F
100
AcDbEntity
  8
D-0
  6
Continuous
 62
     7
370
     9
100
AcDbLine
 10
-467.8861026000434
 20
-795.982788244115
 30
0.0
 11
-467.8861026000434
 21
-797.4830705317127
 31
0.0
  0
LINE
  5
4A0
330
1F
100
AcDbEntity
  8
D-0
  6
Continuous
 62
     7
370
     9
100
AcDbLine
 10
-467.8861026000434
 20
-797.4830705317127
 30
0.0
 11
-469.386384887641
 21
-797.4830705317127
 31
0.0
  0
LINE
  5
4A1
330
1F
100
AcDbEntity
  8
D-0
  6
Continuous
 62
     7
370
     9
100
AcDbLine
 10
-414.0975193213873
 20
-683.2993394526109
 30
0.0
 11
-414.0975193213873
 21
-681.7990571650132
 31
0.0
  0
LINE
  5
4A2
330
1F
100
AcDbEntity
  8
D-0
  6
Continuous
 62
     7
370
     9
100
AcDbLine
 10
-414.0975193213873
 20
-681.7990571650132
 30
0.0
 11
-412.59773532862
 21
-681.7990571650132
 31
0.0
  0
LINE
  5
4A3
330
1F
100
AcDbEntity
  8
D-0
  6
Continuous
 62
     7
370
     9
100
AcDbLine
 10
-412.59773532862
 20
-681.7990571650132
 30
0.0
 11
-412.59773532862
 21
-683.2993394526109
 31
0.0
  0
LINE
  5
4A4
330
1F
100
AcDbEntity
  8
D-0
  6
Continuous
 62
     7
370
     9
100
AcDbLine
 10
-412.59773532862
 20
-683.2993394526109
 30
0.0
 11
-414.0975193213873
 21
-683.2993394526109
 31
0.0
  0
LINE
  5
4A5
330
1F
100
AcDbEntity
  8
D-0
  6
Continuous
 62
     7
370
     9
100
AcDbLine
 10
-402.2503651213103
 20
-583.4158021601304
 30
0.0
 11
-402.2503651213103
 21
-581.9155198725327
 31
0.0
  0
LINE
  5
4A6
330
1F
100
AcDbEntity
  8
D-0
  6
Continuous
 62
     7
370
     9
100
AcDbLine
 10
-402.2503651213103
 20
-581.9155198725327
 30
0.0
 11
-400.7500855159216
 21
-581.9155198725327
 31
0.0
  0
LINE
  5
4A7
330
1F
100
AcDbEntity
  8
D-0
  6
Continuous
 62
     7
370
     9
100
AcDbLine
 10
-400.7500855159216
 20
-581.9155198725327
 30
0.0
 11
-400.7500855159216
 21
-583.4158021601304
 31
0.0
  0
LINE
  5
4A8
330
1F
100
AcDbEntity
  8
D-0
  6
Continuous
 62
     7
370
     9
100
AcDbLine
 10
-400.7500855159216
 20
-583.4158021601304
 30
0.0
 11
-402.2503651213103
 21
-583.4158021601304
 31
0.0
  0
LINE
  5
4A9
330
1F
100
AcDbEntity
  8
D-0
  6
Continuous
 62
     7
370
     9
100
AcDbLine
 10
-306.1393288802557
 20
-594.6401483210191
 30
0.0
 11
-306.1393288802557
 21
-593.1398660334214
 31
0.0
  0
LINE
  5
4AA
330
1F
100
AcDbEntity
  8
D-0
  6
Continuous
 62
     7
370
     9
100
AcDbLine
 10
-306.1393288802557
 20
-593.1398660334214
 30
0.0
 11
-304.6395520400458
 21
-593.1398660334214
 31
0.0
  0
LINE
  5
4AB
330
1F
100
AcDbEntity
  8
D-0
  6
Continuous
 62
     7
370
     9
100
AcDbLine
 10
-304.6395520400458
 20
-593.1398660334214
 30
0.0
 11
-304.6395520400458
 21
-594.6401483210191
 31
0.0
  0
LINE
  5
4AC
330
1F
100
AcDbEntity
  8
D-0
  6
Continuous
 62
     7
370
     9
100
AcDbLine
 10
-304.6395520400458
 20
-594.6401483210191
 30
0.0
 11
-306.1393288802557
 21
-594.6401483210191
 31
0.0
  0
LINE
  5
4AD
330
1F
100
AcDbEntity
  8
D-0
  6
Continuous
 62
     7
370
     9
100
AcDbLine
 10
-358.6738852691107
 20
-586.0150224360093
 30
0.0
 11
-358.6738852691107
 21
-584.5147401484116
 31
0.0
  0
LINE
  5
4AE
330
1F
100
AcDbEntity
  8
D-0
  6
Continuous
 62
     7
370
     9
100
AcDbLine
 10
-358.6738852691107
 20
-584.5147401484116
 30
0.0
 11
-357.1741036605292
 21
-584.5147401484116
 31
0.0
  0
LINE
  5
4AF
330
1F
100
AcDbEntity
  8
D-0
  6
Continuous
 62
     7
370
     9
100
AcDbLine
 10
-357.1741036605292
 20
-584.5147401484116
 30
0.0
 11
-357.1741036605292
 21
-586.0150224360093
 31
0.0
  0
LINE
  5
4B0
330
1F
100
AcDbEntity
  8
D-0
  6
Continuous
 62
     7
370
     9
100
AcDbLine
 10
-357.1741036605292
 20
-586.0150224360093
 30
0.0
 11
-358.6738852691107
 21
-586.0150224360093
 31
0.0
  0
LINE
  5
4B1
330
1F
100
AcDbEntity
  8
D-0
  6
Continuous
 62
     7
370
     9
100
AcDbLine
 10
-495.0556306075507
 20
-646.6029245051011
 30
0.0
 11
-495.0556306075507
 21
-645.1026612909898
 31
0.0
  0
LINE
  5
4B2
330
1F
100
AcDbEntity
  8
D-0
  6
Continuous
 62
     7
370
     9
100
AcDbLine
 10
-495.0556306075507
 20
-645.1026612909898
 30
0.0
 11
-493.5558442305976
 21
-645.1026612909898
 31
0.0
  0
LINE
  5
4B3
330
1F
100
AcDbEntity
  8
D-0
  6
Continuous
 62
     7
370
     9
100
AcDbLine
 10
-493.5558442305976
 20
-645.1026612909898
 30
0.0
 11
-493.5558442305976
 21
-646.6029245051011
 31
0.0
  0
LINE
  5
4B4
330
1F
100
AcDbEntity
  8
D-0
  6
Continuous
 62
     7
370
     9
100
AcDbLine
 10
-493.5558442305976
 20
-646.6029245051011
 30
0.0
 11
-495.0556306075507
 21
-646.6029245051011
 31
0.0
  0
LINE
  5
4B5
330
1F
100
AcDbEntity
  8
D-0
  6
Continuous
 62
     7
370
     9
100
AcDbLine
 10
-463.9352349471503
 20
-504.831970373021
 30
0.0
 11
-463.9352349471503
 21
-503.3316976221665
 31
0.0
  0
LINE
  5
4B6
330
1F
100
AcDbEntity
  8
D-0
  6
Continuous
 62
     7
370
     9
100
AcDbLine
 10
-463.9352349471503
 20
-503.3316976221665
 30
0.0
 11
-462.4349574279242
 21
-503.3316976221665
 31
0.0
  0
LINE
  5
4B7
330
1F
100
AcDbEntity
  8
D-0
  6
Continuous
 62
     7
370
     9
100
AcDbLine
 10
-462.4349574279242
 20
-503.3316976221665
 30
0.0
 11
-462.4349574279242
 21
-504.831970373021
 31
0.0
  0
LINE
  5
4B8
330
1F
100
AcDbEntity
  8
D-0
  6
Continuous
 62
     7
370
     9
100
AcDbLine
 10
-462.4349574279242
 20
-504.831970373021
 30
0.0
 11
-463.9352349471503
 21
-504.831970373021
 31
0.0
  0
LINE
  5
4B9
330
1F
100
AcDbEntity
  8
D-0
  6
Continuous
 62
     7
370
     9
100
AcDbLine
 10
-408.1741898786478
 20
-616.1633187922105
 30
0.0
 11
-408.1741898786478
 21
-614.6630365046128
 31
0.0
  0
LINE
  5
4BA
330
1F
100
AcDbEntity
  8
D-0
  6
Continuous
 62
     7
370
     9
100
AcDbLine
 10
-408.1741898786478
 20
-614.6630365046128
 30
0.0
 11
-406.6739104595237
 21
-614.6630365046128
 31
0.0
  0
LINE
  5
4BB
330
1F
100
AcDbEntity
  8
D-0
  6
Continuous
 62
     7
370
     9
100
AcDbLine
 10
-406.6739104595237
 20
-614.6630365046128
 30
0.0
 11
-406.6739104595237
 21
-616.1633187922105
 31
0.0
  0
LINE
  5
4BC
330
1F
100
AcDbEntity
  8
D-0
  6
Continuous
 62
     7
370
     9
100
AcDbLine
 10
-406.6739104595237
 20
-616.1633187922105
 30
0.0
 11
-408.1741898786478
 21
-616.1633187922105
 31
0.0
  0
LINE
  5
4BD
330
1F
100
AcDbEntity
  8
D-0
  6
Continuous
 62
     7
370
     9
100
AcDbLine
 10
-467.4114445876532
 20
-638.7046701105699
 30
0.0
 11
-467.4114445876532
 21
-637.2043878229722
 31
0.0
  0
LINE
  5
4BE
330
1F
100
AcDbEntity
  8
D-0
  6
Continuous
 62
     7
370
     9
100
AcDbLine
 10
-467.4114445876532
 20
-637.2043878229722
 30
0.0
 11
-465.9116629790717
 21
-637.2043878229722
 31
0.0
  0
LINE
  5
4BF
330
1F
100
AcDbEntity
  8
D-0
  6
Continuous
 62
     7
370
     9
100
AcDbLine
 10
-465.9116629790717
 20
-637.2043878229722
 30
0.0
 11
-465.9116629790717
 21
-638.7046701105699
 31
0.0
  0
LINE
  5
4C0
330
1F
100
AcDbEntity
  8
D-0
  6
Continuous
 62
     7
370
     9
100
AcDbLine
 10
-465.9116629790717
 20
-638.7046701105699
 30
0.0
 11
-467.4114445876532
 21
-638.7046701105699
 31
0.0
  0
LINE
  5
4C1
330
1F
100
AcDbEntity
  8
D-0
  6
Continuous
 62
     7
370
     9
100
AcDbLine
 10
-455.5637959670477
 20
-711.7644960077866
 30
0.0
 11
-455.5637959670477
 21
-710.264213720189
 31
0.0
  0
LINE
  5
4C2
330
1F
100
AcDbEntity
  8
D-0
  6
Continuous
 62
     7
370
     9
100
AcDbLine
 10
-455.5637959670477
 20
-710.264213720189
 30
0.0
 11
-454.0640143584662
 21
-710.264213720189
 31
0.0
  0
LINE
  5
4C3
330
1F
100
AcDbEntity
  8
D-0
  6
Continuous
 62
     7
370
     9
100
AcDbLine
 10
-454.0640143584662
 20
-710.264213720189
 30
0.0
 11
-454.0640143584662
 21
-711.7644960077866
 31
0.0
  0
LINE
  5
4C4
330
1F
100
AcDbEntity
  8
D-0
  6
Continuous
 62
     7
370
     9
100
AcDbLine
 10
-454.0640143584662
 20
-711.7644960077866
 30
0.0
 11
-455.5637959670477
 21
-711.7644960077866
 31
0.0
  0
LINE
  5
4C5
330
1F
100
AcDbEntity
  8
D-0
  6
Continuous
 62
     7
370
     9
100
AcDbLine
 10
-503.9413670730048
 20
-710.777023473607
 30
0.0
 11
-503.9413670730048
 21
-709.2767411860093
 31
0.0
  0
LINE
  5
4C6
330
1F
100
AcDbEntity
  8
D-0
  6
Continuous
 62
     7
370
     9
100
AcDbLine
 10
-503.9413670730048
 20
-709.2767411860093
 30
0.0
 11
-502.4410847854072
 21
-709.2767411860093
 31
0.0
  0
LINE
  5
4C7
330
1F
100
AcDbEntity
  8
D-0
  6
Continuous
 62
     7
370
     9
100
AcDbLine
 10
-502.4410847854072
 20
-709.2767411860093
 30
0.0
 11
-502.4410847854072
 21
-710.777023473607
 31
0.0
  0
LINE
  5
4C8
330
1F
100
AcDbEntity
  8
D-0
  6
Continuous
 62
     7
370
     9
100
AcDbLine
 10
-502.4410847854072
 20
-710.777023473607
 30
0.0
 11
-503.9413670730048
 21
-710.777023473607
 31
0.0
  0
LINE
  5
4C9
330
1F
100
AcDbEntity
  8
D-0
  6
Continuous
 62
     7
370
     9
100
AcDbLine
 10
-490.988324088996
 20
-829.8827821405994
 30
0.0
 11
-490.988324088996
 21
-828.3824998530017
 31
0.0
  0
LINE
  5
4CA
330
1F
100
AcDbEntity
  8
D-0
  6
Continuous
 62
     7
370
     9
100
AcDbLine
 10
-490.988324088996
 20
-828.3824998530017
 30
0.0
 11
-489.4885472487861
 21
-828.3824998530017
 31
0.0
  0
LINE
  5
4CB
330
1F
100
AcDbEntity
  8
D-0
  6
Continuous
 62
     7
370
     9
100
AcDbLine
 10
-489.4885472487861
 20
-828.3824998530017
 30
0.0
 11
-489.4885472487861
 21
-829.8827821405994
 31
0.0
  0
LINE
  5
4CC
330
1F
100
AcDbEntity
  8
D-0
  6
Continuous
 62
     7
370
     9
100
AcDbLine
 10
-489.4885472487861
 20
-829.8827821405994
 30
0.0
 11
-490.988324088996
 21
-829.8827821405994
 31
0.0
  0
LINE
  5
4CD
330
1F
100
AcDbEntity
  8
D-0
  6
Continuous
 62
     7
370
     9
100
AcDbLine
 10
-440.4624036979132
 20
-859.3904191645252
 30
0.0
 11
-440.4624036979132
 21
-857.8901368769275
 31
0.0
  0
LINE
  5
4CE
330
1F
100
AcDbEntity
  8
D-0
  6
Continuous
 62
     7
370
     9
100
AcDbLine
 10
-440.4624036979132
 20
-857.8901368769275
 30
0.0
 11
-438.9626197051459
 21
-857.8901368769275
 31
0.0
  0
LINE
  5
4CF
330
1F
100
AcDbEntity
  8
D-0
  6
Continuous
 62
     7
370
     9
100
AcDbLine
 10
-438.9626197051459
 20
-857.8901368769275
 30
0.0
 11
-438.9626197051459
 21
-859.3904191645252
 31
0.0
  0
LINE
  5
4D0
330
1F
100
AcDbEntity
  8
D-0
  6
Continuous
 62
     7
370
     9
100
AcDbLine
 10
-438.9626197051459
 20
-859.3904191645252
 30
0.0
 11
-440.4624036979132
 21
-859.3904191645252
 31
0.0
  0
LINE
  5
4D1
330
1F
100
AcDbEntity
  8
D-0
  6
Continuous
 62
     7
370
     9
100
AcDbLine
 10
-404.2248083185606
 20
-783.6609727533923
 30
0.0
 11
-404.2248083185606
 21
-782.1607286127671
 31
0.0
  0
LINE
  5
4D2
330
1F
100
AcDbEntity
  8
D-0
  6
Continuous
 62
     7
370
     9
100
AcDbLine
 10
-404.2248083185606
 20
-782.1607286127671
 30
0.0
 11
-402.724528713172
 21
-782.1607286127671
 31
0.0
  0
LINE
  5
4D3
330
1F
100
AcDbEntity
  8
D-0
  6
Continuous
 62
     7
370
     9
100
AcDbLine
 10
-402.724528713172
 20
-782.1607286127671
 30
0.0
 11
-402.724528713172
 21
-783.6609727533923
 31
0.0
  0
LINE
  5
4D4
330
1F
100
AcDbEntity
  8
D-0
  6
Continuous
 62
     7
370
     9
100
AcDbLine
 10
-402.724528713172
 20
-783.6609727533923
 30
0.0
 11
-404.2248083185606
 21
-783.6609727533923
 31
0.0
  0
LINE
  5
4D5
330
1F
100
AcDbEntity
  8
D-0
  6
Continuous
 62
     7
370
     9
100
AcDbLine
 10
-521.2575082015449
 20
-665.5977136286363
 30
0.0
 11
-521.2575082015449
 21
-664.0974313410386
 31
0.0
  0
LINE
  5
4D6
330
1F
100
AcDbEntity
  8
D-0
  6
Continuous
 62
     7
370
     9
100
AcDbLine
 10
-521.2575082015449
 20
-664.0974313410386
 30
0.0
 11
-519.7572259139472
 21
-664.0974313410386
 31
0.0
  0
LINE
  5
4D7
330
1F
100
AcDbEntity
  8
D-0
  6
Continuous
 62
     7
370
     9
100
AcDbLine
 10
-519.7572259139472
 20
-664.0974313410386
 30
0.0
 11
-519.7572259139472
 21
-665.5977136286363
 31
0.0
  0
LINE
  5
4D8
330
1F
100
AcDbEntity
  8
D-0
  6
Continuous
 62
     7
370
     9
100
AcDbLine
 10
-519.7572259139472
 20
-665.5977136286363
 30
0.0
 11
-521.2575082015449
 21
-665.5977136286363
 31
0.0
  0
LINE
  5
4D9
330
1F
100
AcDbEntity
  8
D-0
  6
Continuous
 62
     7
370
     9
100
AcDbLine
 10
-404.3357933592253
 20
-709.3317491205796
 30
0.0
 11
-404.3357933592253
 21
-707.831466832982
 31
0.0
  0
LINE
  5
4DA
330
1F
100
AcDbEntity
  8
D-0
  6
Continuous
 62
     7
370
     9
100
AcDbLine
 10
-404.3357933592253
 20
-707.831466832982
 30
0.0
 11
-402.8355137538367
 21
-707.831466832982
 31
0.0
  0
LINE
  5
4DB
330
1F
100
AcDbEntity
  8
D-0
  6
Continuous
 62
     7
370
     9
100
AcDbLine
 10
-402.8355137538367
 20
-707.831466832982
 30
0.0
 11
-402.8355137538367
 21
-709.3317491205796
 31
0.0
  0
LINE
  5
4DC
330
1F
100
AcDbEntity
  8
D-0
  6
Continuous
 62
     7
370
     9
100
AcDbLine
 10
-402.8355137538367
 20
-709.3317491205796
 30
0.0
 11
-404.3357933592253
 21
-709.3317491205796
 31
0.0
  0
LINE
  5
4DD
330
1F
100
AcDbEntity
  8
D-0
  6
Continuous
 62
     7
370
     9
100
AcDbLine
 10
-429.066126747077
 20
-832.6777345331775
 30
0.0
 11
-429.066126747077
 21
-831.1774522455798
 31
0.0
  0
LINE
  5
4DE
330
1F
100
AcDbEntity
  8
D-0
  6
Continuous
 62
     7
370
     9
100
AcDbLine
 10
-429.066126747077
 20
-831.1774522455798
 30
0.0
 11
-427.5658468436652
 21
-831.1774522455798
 31
0.0
  0
LINE
  5
4DF
330
1F
100
AcDbEntity
  8
D-0
  6
Continuous
 62
     7
370
     9
100
AcDbLine
 10
-427.5658468436652
 20
-831.1774522455798
 30
0.0
 11
-427.5658468436652
 21
-832.6777345331775
 31
0.0
  0
LINE
  5
4E0
330
1F
100
AcDbEntity
  8
D-0
  6
Continuous
 62
     7
370
     9
100
AcDbLine
 10
-427.5658468436652
 20
-832.6777345331775
 30
0.0
 11
-429.066126747077
 21
-832.6777345331775
 31
0.0
  0
LINE
  5
4E1
330
1F
100
AcDbEntity
  8
D-0
  6
Continuous
 62
     7
370
     9
100
AcDbLine
 10
-397.2223482560568
 20
-520.2157861384019
 30
0.0
 11
-397.2223482560568
 21
-518.7155038508042
 31
0.0
  0
LINE
  5
4E2
330
1F
100
AcDbEntity
  8
D-0
  6
Continuous
 62
     7
370
     9
100
AcDbLine
 10
-397.2223482560568
 20
-518.7155038508042
 30
0.0
 11
-395.7220689486914
 21
-518.7155038508042
 31
0.0
  0
LINE
  5
4E3
330
1F
100
AcDbEntity
  8
D-0
  6
Continuous
 62
     7
370
     9
100
AcDbLine
 10
-395.7220689486914
 20
-518.7155038508042
 30
0.0
 11
-395.7220689486914
 21
-520.2157861384019
 31
0.0
  0
LINE
  5
4E4
330
1F
100
AcDbEntity
  8
D-0
  6
Continuous
 62
     7
370
     9
100
AcDbLine
 10
-395.7220689486914
 20
-520.2157861384019
 30
0.0
 11
-397.2223482560568
 21
-520.2157861384019
 31
0.0
  0
LINE
  5
4E5
330
1F
100
AcDbEntity
  8
D-4
  6
Continuous
 62
     7
370
     9
100
AcDbLine
 10
-231.3849763106757
 20
-507.7265054377183
 30
0.0
 11
-231.3849763106757
 21
-570.2100640925034
 31
0.0
  0
LINE
  5
4E6
330
1F
100
AcDbEntity
  8
D-5
  6
Continuous
 62
     7
370
     9
100
AcDbLine
 10
-241.3855294417792
 20
-445.9004670771226
 30
0.0
 11
-227.573845786994
 21
-425.0610524805647
 31
0.0
  0
LINE
  5
4E7
330
1F
100
AcDbEntity
  8
D-5
  6
Continuous
 62
     7
370
     9
100
AcDbLine
 10
-241.3855294417792
 20
-445.9004670771226
 30
0.0
 11
-222.650864524787
 21
-429.3463641794785
 31
0.0
  0
LINE
  5
4E8
330
1F
100
AcDbEntity
  8
D-5
  6
Continuous
 62
     7
370
     9
100
AcDbLine
 10
-241.3855294417792
 20
-445.9004670771226
 30
0.0
 11
-119.6389321517401
 21
-306.019724050389
 31
0.0
  0
LINE
  5
4E9
330
1F
100
AcDbEntity
  8
D-5
  6
Continuous
 62
     7
370
     9
100
AcDbLine
 10
-119.6389321517401
 20
-306.019724050389
 30
0.0
 11
267.0645399857111
 21
-306.019724050389
 31
0.0
  0
LINE
  5
4EA
330
1F
100
AcDbEntity
  8
D-4
  6
Continuous
 62
     7
370
     9
100
AcDbLine
 10
-219.5581368636542
 20
-495.9006578119859
 30
0.0
 11
-129.8110894393378
 21
-495.9006578119859
 31
0.0
  0
LINE
  5
4EB
330
1F
100
AcDbEntity
  8
D-4
  6
Continuous
 62
     7
370
     9
100
AcDbLine
 10
-219.5581368636542
 20
-445.9004193934068
 30
0.0
 11
-129.8110894393378
 21
-445.9004193934068
 31
0.0
  0
LINE
  5
4EC
330
1F
100
AcDbEntity
  8
D-4
  6
Continuous
 62
     7
370
     9
100
AcDbLine
 10
-132.8116349410467
 20
-445.9004193934068
 30
0.0
 11
-132.8116349410467
 21
-360.9002763422591
 31
0.0
  0
LINE
  5
4ED
330
1F
100
AcDbEntity
  8
D-4
  6
Continuous
 62
     7
370
     9
100
AcDbLine
 10
-132.8116349410467
 20
-495.9006578119859
 30
0.0
 11
-132.8116349410467
 21
-445.9004193934068
 31
0.0
  0
LINE
  5
4EE
330
1F
100
AcDbEntity
  8
D-4
  6
Continuous
 62
     7
370
     9
100
AcDbLine
 10
-376.3854078483038
 20
-567.2095185907945
 30
0.0
 11
-531.3843945693427
 21
-567.2095185907945
 31
0.0
  0
LINE
  5
4EF
330
1F
100
AcDbEntity
  8
D-9
  6
Continuous
 62
     4
370
     9
100
AcDbLine
 10
-516.3850335311347
 20
-438.4009439142808
 30
0.0
 11
-401.3852767180853
 21
-438.4009439142808
 31
0.0
  0
LINE
  5
4F0
330
1F
100
AcDbEntity
  8
D-1
  6
Continuous
 62
     2
370
     9
100
AcDbLine
 10
-376.3854412269049
 20
-363.9002764614684
 30
0.0
 11
-376.3854412269049
 21
-388.4001595171553
 31
0.0
  0
LINE
  5
4F1
330
1F
100
AcDbEntity
  8
D-1
  6
Continuous
 62
     2
370
     9
100
AcDbLine
 10
-376.3854412269049
 20
-482.8999025019273
 30
0.0
 11
-376.3854412269049
 21
-458.4000188501939
 31
0.0
  0
LINE
  5
4F2
330
1F
100
AcDbEntity
  8
D-1
  6
Continuous
 62
     2
370
     9
100
AcDbLine
 10
-398.3851925563269
 20
-360.9006871310389
 30
0.0
 11
-379.3849066924506
 21
-360.9006871310389
 31
0.0
  0
LINE
  5
4F3
330
1F
100
AcDbEntity
  8
D-1
  6
Continuous
 62
     2
370
     9
100
AcDbLine
 10
-526.3850716781074
 20
-455.900200048314
 30
0.0
 11
-526.3850716781074
 21
-448.4002954157456
 31
0.0
  0
LINE
  5
4F4
330
1F
100
AcDbEntity
  8
D-1
  6
Continuous
 62
     2
370
     9
100
AcDbLine
 10
-531.3854626845771
 20
-455.900200048314
 30
0.0
 11
-531.3854626845771
 21
-448.4002954157456
 31
0.0
  0
LINE
  5
4F5
330
1F
100
AcDbEntity
  8
D-1
  6
Continuous
 62
     2
370
     9
100
AcDbLine
 10
-396.3855073880606
 20
-480.9002191218003
 30
0.0
 11
-381.3852099608832
 21
-480.9002191218003
 31
0.0
  0
LINE
  5
4F6
330
1F
100
AcDbEntity
  8
D-1
  6
Continuous
 62
     2
370
     9
100
AcDbLine
 10
-396.3852600287848
 20
-485.9004766138657
 30
0.0
 11
-379.3849066924506
 21
-485.9004766138657
 31
0.0
  0
LINE
  5
4F7
330
1F
100
AcDbEntity
  8
D-1
  6
Continuous
 62
     2
370
     9
100
AcDbLine
 10
-401.3852767180853
 20
-450.8999330195054
 30
0.0
 11
-401.3852767180853
 21
-363.9002764614684
 31
0.0
  0
LINE
  5
4F8
330
1F
100
AcDbEntity
  8
D-1
  6
Continuous
 62
     2
370
     9
100
AcDbLine
 10
-401.3852767180853
 20
-450.8999330195054
 30
0.0
 11
-451.3849477004462
 21
-450.8999330195054
 31
0.0
  0
LINE
  5
4F9
330
1F
100
AcDbEntity
  8
D-1
  6
Continuous
 62
     2
370
     9
100
AcDbLine
 10
-526.3850716781074
 20
-460.9004575403794
 30
0.0
 11
-401.3852767180853
 21
-460.9004575403794
 31
0.0
  0
LINE
  5
4FA
330
1F
100
AcDbEntity
  8
D-1
  6
Continuous
 62
     2
370
     9
100
AcDbLine
 10
-401.3852767180853
 20
-480.9004670771226
 30
0.0
 11
-401.3852767180853
 21
-460.9004575403794
 31
0.0
  0
LINE
  5
4FB
330
1F
100
AcDbEntity
  8
D-1
  6
Continuous
 62
     2
370
     9
100
AcDbLine
 10
-396.3855073880606
 20
-460.9002095850572
 30
0.0
 11
-396.3855073880606
 21
-480.9002191218003
 31
0.0
  0
LINE
  5
4FC
330
1F
100
AcDbEntity
  8
D-1
  6
Continuous
 62
     2
370
     9
100
AcDbLine
 10
-401.3855240773611
 20
-455.900200048314
 30
0.0
 11
-526.3850716781074
 21
-455.900200048314
 31
0.0
  0
LINE
  5
4FD
330
1F
100
AcDbEntity
  8
D-1
  6
Continuous
 62
     2
370
     9
100
AcDbLine
 10
-396.3855073880606
 20
-450.9001809748277
 30
0.0
 11
-396.3855073880606
 21
-365.8999613317114
 31
0.0
  0
LINE
  5
4FE
330
1F
100
AcDbEntity
  8
D-9
  6
Continuous
 62
     4
370
     9
100
AcDbLine
 10
-401.3852767180853
 20
-443.9913541468247
 30
0.0
 11
-408.2938584219866
 21
-450.8999330195054
 31
0.0
  0
LINE
  5
4FF
330
1F
100
AcDbEntity
  8
D-9
  6
Continuous
 62
     4
370
     9
100
AcDbLine
 10
-402.8652141522818
 20
-438.4009439142808
 30
0.0
 11
-415.3643892239981
 21
-450.8999330195054
 31
0.0
  0
LINE
  5
500
330
1F
100
AcDbEntity
  8
D-9
  6
Continuous
 62
     4
370
     9
100
AcDbLine
 10
-409.9365494679861
 20
-438.4009439142808
 30
0.0
 11
-422.4357251357489
 21
-450.8999330195054
 31
0.0
  0
LINE
  5
501
330
1F
100
AcDbEntity
  8
D-9
  6
Continuous
 62
     4
370
     9
100
AcDbLine
 10
-417.0073894690924
 20
-438.4009439142808
 30
0.0
 11
-429.5065645408087
 21
-450.8999330195054
 31
0.0
  0
LINE
  5
502
330
1F
100
AcDbEntity
  8
D-9
  6
Continuous
 62
     4
370
     9
100
AcDbLine
 10
-424.0787247847967
 20
-438.4009439142808
 30
0.0
 11
-436.5778998565131
 21
-450.8999330195054
 31
0.0
  0
LINE
  5
503
330
1F
100
AcDbEntity
  8
D-9
  6
Continuous
 62
     4
370
     9
100
AcDbLine
 10
-431.1495665740424
 20
-438.4009439142808
 30
0.0
 11
-443.6489252280646
 21
-450.8999330195054
 31
0.0
  0
LINE
  5
504
330
1F
100
AcDbEntity
  8
D-9
  6
Continuous
 62
     4
370
     9
100
AcDbLine
 10
-438.2209018897467
 20
-438.4009439142808
 30
0.0
 11
-450.7202605437689
 21
-450.8999330195054
 31
0.0
  0
LINE
  5
505
330
1F
100
AcDbEntity
  8
D-9
  6
Continuous
 62
     4
370
     9
100
AcDbLine
 10
-473.5765866469794
 20
-438.4009439142808
 30
0.0
 11
-478.5756758880073
 21
-443.400028386937
 31
0.0
  0
LINE
  5
506
330
1F
100
AcDbEntity
  8
D-9
  6
Continuous
 62
     4
370
     9
100
AcDbLine
 10
-480.647428436225
 20
-438.4009439142808
 30
0.0
 11
-485.6465796660834
 21
-443.400028386937
 31
0.0
  0
LINE
  5
507
330
1F
100
AcDbEntity
  8
D-9
  6
Continuous
 62
     4
370
     9
100
AcDbLine
 10
-516.0031155776435
 20
-438.4009439142808
 30
0.0
 11
-521.0025719832831
 21
-443.400028386937
 31
0.0
  0
LINE
  5
508
330
1F
100
AcDbEntity
  8
D-9
  6
Continuous
 62
     4
370
     9
100
AcDbLine
 10
-466.5052537154609
 20
-438.4009439142808
 30
0.0
 11
-471.5045193862372
 21
-443.400028386937
 31
0.0
  0
LINE
  5
509
330
1F
100
AcDbEntity
  8
D-9
  6
Continuous
 62
     4
370
     9
100
AcDbLine
 10
-452.3630742263251
 20
-438.4009439142808
 30
0.0
 11
-457.3622683715277
 21
-443.400028386937
 31
0.0
  0
LINE
  5
50A
330
1F
100
AcDbEntity
  8
D-9
  6
Continuous
 62
     4
370
     9
100
AcDbLine
 10
-459.4344119262153
 20
-438.4009439142808
 30
0.0
 11
-464.4335869979316
 21
-443.400028386937
 31
0.0
  0
LINE
  5
50B
330
1F
100
AcDbEntity
  8
D-9
  6
Continuous
 62
     4
370
     9
100
AcDbLine
 10
-487.7187661361152
 20
-438.4009439142808
 30
0.0
 11
-492.7178506087714
 21
-443.400028386937
 31
0.0
  0
LINE
  5
50C
330
1F
100
AcDbEntity
  8
D-9
  6
Continuous
 62
     4
370
     9
100
AcDbLine
 10
-494.7896031569892
 20
-438.4009439142808
 30
0.0
 11
-499.7887829970771
 21
-443.400028386937
 31
0.0
  0
LINE
  5
50D
330
1F
100
AcDbEntity
  8
D-9
  6
Continuous
 62
     4
370
     9
100
AcDbLine
 10
-501.8604401778632
 20
-438.4009439142808
 30
0.0
 11
-506.8596486281806
 21
-443.400028386937
 31
0.0
  0
LINE
  5
50E
330
1F
100
AcDbEntity
  8
D-9
  6
Continuous
 62
     4
370
     9
100
AcDbLine
 10
-508.9317826461249
 20
-438.4009439142808
 30
0.0
 11
-513.9310483169013
 21
-443.400028386937
 31
0.0
  0
LINE
  5
50F
330
1F
100
AcDbEntity
  8
D-1
  6
Continuous
 62
     2
370
     9
100
AcDbLine
 10
-456.3852767180853
 20
-448.4002954157456
 30
0.0
 11
-526.3850716781074
 21
-448.4002954157456
 31
0.0
  0
LINE
  5
510
330
1F
100
AcDbEntity
  8
D-1
  6
Continuous
 62
     2
370
     9
100
AcDbLine
 10
-456.3852767180853
 20
-450.900200048314
 30
0.0
 11
-456.3852767180853
 21
-448.4002954157456
 31
0.0
  0
LINE
  5
511
330
1F
100
AcDbEntity
  8
D-1
  6
Continuous
 62
     2
370
     9
100
AcDbLine
 10
-456.3852767180853
 20
-443.400028386937
 30
0.0
 11
-526.3850716781074
 21
-443.400028386937
 31
0.0
  0
LINE
  5
512
330
1F
100
AcDbEntity
  8
D-1
  6
Continuous
 62
     2
370
     9
100
AcDbLine
 10
-451.3852767180853
 20
-448.400028386937
 30
0.0
 11
-451.3852767180853
 21
-450.8999330195054
 31
0.0
  0
LINE
  5
513
330
1F
100
AcDbEntity
  8
D-9
  6
Continuous
 62
     4
370
     9
100
AcDbLine
 10
-445.292237205451
 20
-438.4009439142808
 30
0.0
 11
-452.3453358840399
 21
-445.4540425928697
 31
0.0
  0
LINE
  5
514
330
1F
100
AcDbEntity
  8
D-3
  6
Continuous
 62
     3
370
     9
100
AcDbLine
 10
-392.8852240275793
 20
-365.8999613317114
 30
0.0
 11
-392.8852240275793
 21
-478.3999616297349
 31
0.0
  0
LINE
  5
515
330
1F
100
AcDbEntity
  8
D-3
  6
Continuous
 62
     3
370
     9
100
AcDbLine
 10
-231.3853387069159
 20
-455.8998853357896
 30
0.0
 11
-231.3853387069159
 21
-495.8998948725327
 31
0.0
  0
LINE
  5
516
330
1F
100
AcDbEntity
  8
D-3
  6
Continuous
 62
     3
370
     9
100
AcDbLine
 10
-356.3852528762274
 20
-477.719629445897
 30
0.0
 11
-356.3852528762274
 21
-495.8998948725327
 31
0.0
  0
LINE
  5
517
330
1F
100
AcDbEntity
  8
D-3
  6
Continuous
 62
     3
370
     9
100
AcDbLine
 10
-359.3141965102606
 20
-470.6485349329575
 30
0.0
 11
-381.3852099608832
 21
-448.5775262507066
 31
0.0
  0
LINE
  5
518
330
1F
100
AcDbEntity
  8
D-3
  6
JWW_CENTER1
 62
     3
370
     9
100
AcDbLine
 10
-331.4467839431219
 20
-417.3998576792342
 30
0.0
 11
-400.1177660655432
 21
-417.3998576792342
 31
0.0
  0
LINE
  5
519
330
1F
100
AcDbEntity
  8
D-3
  6
Continuous
 62
     3
370
     9
100
AcDbLine
 10
-338.7076548766547
 20
-438.5774928721055
 30
0.0
 11
-341.8850306701117
 21
-435.4001170786485
 31
0.0
  0
LINE
  5
51A
330
1F
100
AcDbEntity
  8
D-3
  6
Continuous
 62
     3
370
     9
100
AcDbLine
 10
-369.8856929969244
 20
-407.3993331583602
 30
0.0
 11
-381.3852099608832
 21
-395.8998138102156
 31
0.0
  0
LINE
  5
51B
330
1F
100
AcDbEntity
  8
D-A
  6
Continuous
 62
     7
370
     9
100
AcDbLine
 10
-395.1359371375494
 20
-427.3993951471907
 30
0.0
 11
-395.1359371375494
 21
-407.3993331583602
 31
0.0
  0
LINE
  5
51C
330
1F
100
AcDbEntity
  8
D-A
  6
Continuous
 62
     7
370
     9
100
AcDbLine
 10
-395.1359371375494
 20
-407.3993331583602
 30
0.0
 11
-396.3855073880606
 21
-408.6493951471907
 31
0.0
  0
LINE
  5
51D
330
1F
100
AcDbEntity
  8
D-A
  6
Continuous
 62
     7
370
     9
100
AcDbLine
 10
-395.1359371375494
 20
-427.3993951471907
 30
0.0
 11
-396.3855073880606
 21
-426.1498243006331
 31
0.0
  0
LINE
  5
51E
330
1F
100
AcDbEntity
  8
D-A
  6
Continuous
 62
     7
370
     9
100
AcDbLine
 10
-333.3854750823431
 20
-428.9001208933457
 30
0.0
 11
-333.3854750823431
 21
-405.8995992334944
 31
0.0
  0
LINE
  5
51F
330
1F
100
AcDbEntity
  8
D-A
  6
Continuous
 62
     7
370
     9
100
AcDbLine
 10
-339.8854712676459
 20
-435.4001170786485
 30
0.0
 11
-346.3854674529486
 21
-435.4001170786485
 31
0.0
  0
LINE
  5
520
330
1F
100
AcDbEntity
  8
D-A
  6
Continuous
 62
     7
370
     9
100
AcDbLine
 10
-339.8854712676459
 20
-399.3996006640059
 30
0.0
 11
-346.3854674529486
 21
-399.3996006640059
 31
0.0
  0
LINE
  5
521
330
1F
100
AcDbEntity
  8
D-A
  6
Continuous
 62
     7
370
     9
100
AcDbLine
 10
-346.3854674529486
 20
-399.3996006640059
 30
0.0
 11
-346.3854674529486
 21
-435.4001170786485
 31
0.0
  0
LINE
  5
522
330
1F
100
AcDbEntity
  8
D-A
  6
Continuous
 62
     7
370
     9
100
AcDbLine
 10
-346.3854674529486
 20
-407.3993331583602
 30
0.0
 11
-381.3852099608832
 21
-407.3993331583602
 31
0.0
  0
LINE
  5
523
330
1F
100
AcDbEntity
  8
D-A
  6
Continuous
 62
     7
370
     9
100
AcDbLine
 10
-346.3854674529486
 20
-408.6493951471907
 30
0.0
 11
-381.3852099608832
 21
-408.6493951471907
 31
0.0
  0
LINE
  5
524
330
1F
100
AcDbEntity
  8
D-A
  6
Continuous
 62
     7
370
     9
100
AcDbLine
 10
-346.3854674529486
 20
-426.1498243006331
 30
0.0
 11
-381.3852099608832
 21
-426.1498243006331
 31
0.0
  0
LINE
  5
525
330
1F
100
AcDbEntity
  8
D-A
  6
Continuous
 62
     7
370
     9
100
AcDbLine
 10
-346.3854674529486
 20
-427.3993951471907
 30
0.0
 11
-381.3852099608832
 21
-427.3993951471907
 31
0.0
  0
LINE
  5
526
330
1F
100
AcDbEntity
  8
D-A
  6
Continuous
 62
     7
370
     9
100
AcDbLine
 10
-392.8852240275793
 20
-426.1498243006331
 30
0.0
 11
-396.3855073880606
 21
-426.1498243006331
 31
0.0
  0
LINE
  5
527
330
1F
100
AcDbEntity
  8
D-A
  6
Continuous
 62
     7
370
     9
100
AcDbLine
 10
-392.8852240275793
 20
-427.3993951471907
 30
0.0
 11
-395.1359371375494
 21
-427.3993951471907
 31
0.0
  0
LINE
  5
528
330
1F
100
AcDbEntity
  8
D-A
  6
Continuous
 62
     7
370
     9
100
AcDbLine
 10
-392.8852240275793
 20
-408.6493951471907
 30
0.0
 11
-396.3855073880606
 21
-408.6493951471907
 31
0.0
  0
LINE
  5
529
330
1F
100
AcDbEntity
  8
D-A
  6
Continuous
 62
     7
370
     9
100
AcDbLine
 10
-392.8852240275793
 20
-407.3993331583602
 30
0.0
 11
-395.1359371375494
 21
-407.3993331583602
 31
0.0
  0
LINE
  5
52A
330
1F
100
AcDbEntity
  8
D-3
  6
JWW_DASHED2
 62
     3
370
     9
100
AcDbLine
 10
-356.3852528762274
 20
-484.3998796137437
 30
0.0
 11
-231.3853387069159
 21
-484.3998796137437
 31
0.0
  0
LINE
  5
52B
330
1F
100
AcDbEntity
  8
D-3
  6
Continuous
 62
     3
370
     9
100
AcDbLine
 10
-241.3852433394842
 20
-445.8999807032212
 30
0.0
 11
-321.0299328994208
 21
-445.8999807032212
 31
0.0
  0
LINE
  5
52C
330
1F
100
AcDbEntity
  8
D-3
  6
Continuous
 62
     3
370
     9
100
AcDbLine
 10
-356.3852528762274
 20
-495.8998948725327
 30
0.0
 11
-231.3853387069159
 21
-495.8998948725327
 31
0.0
  0
LINE
  5
52D
330
1F
100
AcDbEntity
  8
D-1
  6
Continuous
 62
     2
370
     9
100
AcDbLine
 10
-396.3855073880606
 20
-365.8999613317114
 30
0.0
 11
-381.3852099608832
 21
-365.8999613317114
 31
0.0
  0
LINE
  5
52E
330
1F
100
AcDbEntity
  8
D-1
  6
Continuous
 62
     2
370
     9
100
AcDbLine
 10
-376.3854412269049
 20
-388.4001595171553
 30
0.0
 11
-381.3852099608832
 21
-388.4001595171553
 31
0.0
  0
LINE
  5
52F
330
1F
100
AcDbEntity
  8
D-1
  6
Continuous
 62
     2
370
     9
100
AcDbLine
 10
-381.3852099608832
 20
-388.4001595171553
 30
0.0
 11
-381.3852099608832
 21
-365.8999613317114
 31
0.0
  0
LINE
  5
530
330
1F
100
AcDbEntity
  8
D-3
  6
Continuous
 62
     3
370
     9
100
AcDbLine
 10
-392.8852240275793
 20
-365.8999613317114
 30
0.0
 11
-381.3852099608832
 21
-365.8999613317114
 31
0.0
  0
LINE
  5
531
330
1F
100
AcDbEntity
  8
D-1
  6
Continuous
 62
     2
370
     9
100
AcDbLine
 10
-376.3854412269049
 20
-458.4000188501939
 30
0.0
 11
-381.3852099608832
 21
-458.4000188501939
 31
0.0
  0
LINE
  5
532
330
1F
100
AcDbEntity
  8
D-1
  6
Continuous
 62
     2
370
     9
100
AcDbLine
 10
-381.3852099608832
 20
-480.9002191218003
 30
0.0
 11
-381.3852099608832
 21
-458.4000188501939
 31
0.0
  0
LINE
  5
533
330
1F
100
AcDbEntity
  8
D-3
  6
Continuous
 62
     3
370
     9
100
AcDbLine
 10
-392.8852240275793
 20
-478.3999616297349
 30
0.0
 11
-381.3852099608832
 21
-478.3999616297349
 31
0.0
  0
LINE
  5
534
330
1F
100
AcDbEntity
  8
D-3
  6
Continuous
 62
     3
370
     9
100
AcDbLine
 10
-381.3852099608832
 20
-365.8999613317114
 30
0.0
 11
-381.3852099608832
 21
-478.3999616297349
 31
0.0
  0
LINE
  5
535
330
1F
100
AcDbEntity
  8
D-6
  6
Continuous
 62
     6
370
     9
100
AcDbLine
 10
-379.3849066924506
 20
-360.9002763422591
 30
0.0
 11
33.61647327428528
 21
-360.9002763422591
 31
0.0
  0
LINE
  5
536
330
1F
100
AcDbEntity
  8
D-6
  6
Continuous
 62
     6
370
     9
100
AcDbLine
 10
-531.3843945693427
 20
-455.900200048314
 30
0.0
 11
-531.3843945693427
 21
-860.8996278437244
 31
0.0
  0
LINE
  5
537
330
1F
100
AcDbEntity
  8
D-4
  6
Continuous
 62
     7
370
     9
100
AcDbLine
 10
-448.2392720412665
 20
-485.9001142176255
 30
0.0
 11
-679.8674706649238
 21
-485.9001142176255
 31
0.0
  0
ARC
  5
538
330
1F
100
AcDbEntity
  8
D-9
  6
Continuous
 62
     4
370
     9
100
AcDbCircle
 10
-516.3850335311347
 20
-443.4002191218003
 30
0.0
 40
5.0
100
AcDbArc
 50
90.0
 51
180.0
  0
ARC
  5
539
330
1F
100
AcDbEntity
  8
D-1
  6
Continuous
 62
     2
370
     9
100
AcDbCircle
 10
-526.3850716781074
 20
-448.4002954157456
 30
0.0
 40
5.0
100
AcDbArc
 50
90.0
 51
180.0
  0
ARC
  5
53A
330
1F
100
AcDbEntity
  8
D-1
  6
Continuous
 62
     2
370
     9
100
AcDbCircle
 10
-379.3849066924506
 20
-363.9002764614684
 30
0.0
 40
3.00000011920929
100
AcDbArc
 50
0.0
 51
90.0
  0
ARC
  5
53B
330
1F
100
AcDbEntity
  8
D-1
  6
Continuous
 62
     2
370
     9
100
AcDbCircle
 10
-398.3851925563269
 20
-363.9002764614684
 30
0.0
 40
3.00000011920929
100
AcDbArc
 50
90.0
 51
180.0
  0
ARC
  5
53C
330
1F
100
AcDbEntity
  8
D-1
  6
Continuous
 62
     2
370
     9
100
AcDbCircle
 10
-379.3849066924506
 20
-482.8999025019273
 30
0.0
 40
3.00000011920929
100
AcDbArc
 50
270.0
 51
0.0
  0
ARC
  5
53D
330
1F
100
AcDbEntity
  8
D-1
  6
Continuous
 62
     2
370
     9
100
AcDbCircle
 10
-526.3850716781074
 20
-455.900200048314
 30
0.0
 40
5.0
100
AcDbArc
 50
180.0
 51
270.0
  0
ARC
  5
53E
330
1F
100
AcDbEntity
  8
D-1
  6
Continuous
 62
     2
370
     9
100
AcDbCircle
 10
-396.3852600287848
 20
-480.9004670771226
 30
0.0
 40
5.0
100
AcDbArc
 50
180.0
 51
270.0
  0
ARC
  5
53F
330
1F
100
AcDbEntity
  8
D-1
  6
Continuous
 62
     2
370
     9
100
AcDbCircle
 10
-401.3855240773611
 20
-460.9002095850572
 30
0.0
 40
5.0
100
AcDbArc
 50
0.0
 51
90.0
  0
ARC
  5
540
330
1F
100
AcDbEntity
  8
D-1
  6
Continuous
 62
     2
370
     9
100
AcDbCircle
 10
-401.3855240773611
 20
-450.9001809748277
 30
0.0
 40
5.0
100
AcDbArc
 50
270.0
 51
0.0
  0
ARC
  5
541
330
1F
100
AcDbEntity
  8
D-1
  6
Continuous
 62
     2
370
     9
100
AcDbCircle
 10
-451.3852767180853
 20
-450.900200048314
 30
0.0
 40
5.0
100
AcDbArc
 50
180.0
 51
270.0
  0
ARC
  5
542
330
1F
100
AcDbEntity
  8
D-1
  6
Continuous
 62
     2
370
     9
100
AcDbCircle
 10
-456.3852767180853
 20
-448.400028386937
 30
0.0
 40
5.0
100
AcDbArc
 50
0.0
 51
90.0
  0
ARC
  5
543
330
1F
100
AcDbEntity
  8
D-3
  6
Continuous
 62
     3
370
     9
100
AcDbCircle
 10
-321.0299328994208
 20
-420.8998948725325
 30
0.0
 40
25.0
100
AcDbArc
 50
225.0
 51
270.0
  0
ARC
  5
544
330
1F
100
AcDbEntity
  8
D-3
  6
Continuous
 62
     3
370
     9
100
AcDbCircle
 10
-241.3852433394842
 20
-455.8998853357896
 30
0.0
 40
10.0
100
AcDbArc
 50
0.0
 51
90.0
  0
ARC
  5
545
330
1F
100
AcDbEntity
  8
D-3
  6
Continuous
 62
     3
370
     9
100
AcDbCircle
 10
-366.3852838706427
 20
-477.719629445897
 30
0.0
 40
10.0
100
AcDbArc
 50
0.0
 51
45.000244140625
  0
ARC
  5
546
330
1F
100
AcDbEntity
  8
D-A
  6
Continuous
 62
     7
370
     9
100
AcDbCircle
 10
-339.8854712676459
 20
-405.8995992334944
 30
0.0
 40
6.499999761581421
100
AcDbArc
 50
0.0
 51
90.0
  0
ARC
  5
547
330
1F
100
AcDbEntity
  8
D-A
  6
Continuous
 62
     7
370
     9
100
AcDbCircle
 10
-339.8854712676459
 20
-428.9001208933457
 30
0.0
 40
6.499999761581421
100
AcDbArc
 50
270.0
 51
0.0
  0
LWPOLYLINE
  5
548
330
1F
100
AcDbEntity
  8
D-4
  6
Continuous
 62
     7
370
     9
100
AcDbPolyline
 90
        4
 70
     1
 43
1.0
 10
-375.8854078483039
 20
-20.53303543649733
 42
0.4142135623731
 10
-376.3854078483038
 20
-20.03303543649733
 42
0.4142135623731
 10
-376.8854078483038
 20
-20.53303543649733
 42
0.4142135623731
 10
-376.3854078483038
 20
-21.03303543649733
 42
0.4142135623731
  0
LWPOLYLINE
  5
549
330
1F
100
AcDbEntity
  8
D-4
  6
Continuous
 62
     7
370
     9
100
AcDbPolyline
 90
        4
 70
     1
 43
1.0
 10
-530.8843945693427
 20
-239.9811250361067
 42
0.4142135623731
 10
-531.3843945693427
 20
-239.4811250361067
 42
0.4142135623731
 10
-531.8843945693427
 20
-239.9811250361067
 42
0.4142135623731
 10
-531.3843945693427
 20
-240.4811250361067
 42
0.4142135623731
  0
LWPOLYLINE
  5
54A
330
1F
100
AcDbEntity
  8
D-4
  6
Continuous
 62
     7
370
     9
100
AcDbPolyline
 90
        4
 70
     1
 43
1.0
 10
-405.8845566939765
 20
-239.9811250361067
 42
0.4142135623731
 10
-406.3845566939764
 20
-239.4811250361067
 42
0.4142135623731
 10
-406.8845566939764
 20
-239.9811250361067
 42
0.4142135623731
 10
-406.3845566939764
 20
-240.4811250361067
 42
0.4142135623731
  0
LWPOLYLINE
  5
54B
330
1F
100
AcDbEntity
  8
D-4
  6
Continuous
 62
     7
370
     9
100
AcDbPolyline
 90
        4
 70
     1
 43
1.0
 10
-405.8845566939765
 20
-131.228702703343
 42
0.4142135623731
 10
-406.3845566939764
 20
-130.728702703343
 42
0.4142135623731
 10
-406.8845566939764
 20
-131.228702703343
 42
0.4142135623731
 10
-406.3845566939764
 20
-131.728702703343
 42
0.4142135623731
  0
LWPOLYLINE
  5
54C
330
1F
100
AcDbEntity
  8
D-4
  6
Continuous
 62
     7
370
     9
100
AcDbPolyline
 90
        4
 70
     1
 43
1.0
 10
-400.8842860888892
 20
-131.228702703343
 42
0.4142135623731
 10
-401.3842860888892
 20
-130.728702703343
 42
0.4142135623731
 10
-401.8842860888891
 20
-131.228702703343
 42
0.4142135623731
 10
-401.3842860888892
 20
-131.728702703343
 42
0.4142135623731
  0
LWPOLYLINE
  5
54D
330
1F
100
AcDbEntity
  8
D-4
  6
Continuous
 62
     7
370
     9
100
AcDbPolyline
 90
        4
 70
     1
 43
1.0
 10
-375.8854078483039
 20
-131.228702703343
 42
0.4142135623731
 10
-376.3854078483038
 20
-130.728702703343
 42
0.4142135623731
 10
-376.8854078483038
 20
-131.228702703343
 42
0.4142135623731
 10
-376.3854078483038
 20
-131.728702703343
 42
0.4142135623731
  0
LWPOLYLINE
  5
54E
330
1F
100
AcDbEntity
  8
D-4
  6
Continuous
 62
     7
370
     9
100
AcDbPolyline
 90
        4
 70
     1
 43
1.0
 10
-676.3669060897284
 20
-485.9001142176255
 42
0.4142135623731
 10
-676.8669060897284
 20
-485.4001142176256
 42
0.4142135623731
 10
-677.3669060897283
 20
-485.9001142176255
 42
0.4142135623731
 10
-676.8669060897284
 20
-486.4001142176255
 42
0.4142135623731
  0
LWPOLYLINE
  5
54F
330
1F
100
AcDbEntity
  8
D-4
  6
Continuous
 62
     7
370
     9
100
AcDbPolyline
 90
        4
 70
     1
 43
1.0
 10
-676.3669060897284
 20
-360.9002763422591
 42
0.4142135623731
 10
-676.8669060897284
 20
-360.4002763422591
 42
0.4142135623731
 10
-677.3669060897283
 20
-360.9002763422591
 42
0.4142135623731
 10
-676.8669060897284
 20
-361.400276342259
 42
0.4142135623731
  0
LWPOLYLINE
  5
550
330
1F
100
AcDbEntity
  8
D-4
  6
Continuous
 62
     7
370
     9
100
AcDbPolyline
 90
        4
 70
     1
 43
1.0
 10
-375.8854078483039
 20
-567.2095185907945
 42
0.4142135623731
 10
-376.3854078483038
 20
-566.7095185907945
 42
0.4142135623731
 10
-376.8854078483038
 20
-567.2095185907945
 42
0.4142135623731
 10
-376.3854078483038
 20
-567.7095185907945
 42
0.4142135623731
  0
LWPOLYLINE
  5
551
330
1F
100
AcDbEntity
  8
D-4
  6
Continuous
 62
     7
370
     9
100
AcDbPolyline
 90
        4
 70
     1
 43
1.0
 10
-230.8849763106757
 20
-567.2095185907945
 42
0.4142135623731
 10
-231.3849763106757
 20
-566.7095185907945
 42
0.4142135623731
 10
-231.8849763106757
 20
-567.2095185907945
 42
0.4142135623731
 10
-231.3849763106757
 20
-567.7095185907945
 42
0.4142135623731
  0
LWPOLYLINE
  5
552
330
1F
100
AcDbEntity
  8
D-4
  6
Continuous
 62
     7
370
     9
100
AcDbPolyline
 90
        4
 70
     1
 43
1.0
 10
-530.8843945693427
 20
-766.5187532099351
 42
0.4142135623731
 10
-531.3843945693427
 20
-766.0187532099351
 42
0.4142135623731
 10
-531.8843945693427
 20
-766.5187532099351
 42
0.4142135623731
 10
-531.3843945693427
 20
-767.0187532099351
 42
0.4142135623731
  0
LWPOLYLINE
  5
553
330
1F
100
AcDbEntity
  8
D-4
  6
Continuous
 62
     7
370
     9
100
AcDbPolyline
 90
        4
 70
     1
 43
1.0
 10
-380.8851837348395
 20
-766.5187532099351
 42
0.4142135623731
 10
-381.3851837348395
 20
-766.0187532099351
 42
0.4142135623731
 10
-381.8851837348394
 20
-766.5187532099351
 42
0.4142135623731
 10
-381.3851837348395
 20
-767.0187532099351
 42
0.4142135623731
  0
LWPOLYLINE
  5
554
330
1F
100
AcDbEntity
  8
D-4
  6
Continuous
 62
     7
370
     9
100
AcDbPolyline
 90
        4
 70
     1
 43
1.0
 10
-530.8843945693427
 20
-920.9831315668689
 42
0.4142135623731
 10
-531.3843945693427
 20
-920.4831315668689
 42
0.4142135623731
 10
-531.8843945693427
 20
-920.9831315668689
 42
0.4142135623731
 10
-531.3843945693427
 20
-921.4831315668688
 42
0.4142135623731
  0
LWPOLYLINE
  5
555
330
1F
100
AcDbEntity
  8
D-4
  6
Continuous
 62
     7
370
     9
100
AcDbPolyline
 90
        4
 70
     1
 43
1.0
 10
-130.8835267257147
 20
-920.9831315668689
 42
0.4142135623731
 10
-131.3835267257147
 20
-920.4831315668689
 42
0.4142135623731
 10
-131.8835267257147
 20
-920.9831315668689
 42
0.4142135623731
 10
-131.3835267257147
 20
-921.4831315668688
 42
0.4142135623731
  0
LWPOLYLINE
  5
556
330
1F
100
AcDbEntity
  8
D-4
  6
Continuous
 62
     7
370
     9
100
AcDbPolyline
 90
        4
 70
     1
 43
1.0
 10
140.8008147049493
 20
-360.9002763422591
 42
0.4142135623731
 10
140.3008147049493
 20
-360.4002763422591
 42
0.4142135623731
 10
139.8008147049493
 20
-360.9002763422591
 42
0.4142135623731
 10
140.3008147049493
 20
-361.400276342259
 42
0.4142135623731
  0
LWPOLYLINE
  5
557
330
1F
100
AcDbEntity
  8
D-4
  6
Continuous
 62
     7
370
     9
100
AcDbPolyline
 90
        4
 70
     1
 43
1.0
 10
140.8008147049493
 20
-610.8999520929917
 42
0.4142135623731
 10
140.3008147049493
 20
-610.3999520929917
 42
0.4142135623731
 10
139.8008147049493
 20
-610.8999520929917
 42
0.4142135623731
 10
140.3008147049493
 20
-611.3999520929917
 42
0.4142135623731
  0
LWPOLYLINE
  5
558
330
1F
100
AcDbEntity
  8
D-4
  6
Continuous
 62
     7
370
     9
100
AcDbPolyline
 90
        4
 70
     1
 43
1.0
 10
-132.3116349410467
 20
-360.9002763422591
 42
0.4142135623731
 10
-132.8116349410467
 20
-360.4002763422591
 42
0.4142135623731
 10
-133.3116349410467
 20
-360.9002763422591
 42
0.4142135623731
 10
-132.8116349410467
 20
-361.400276342259
 42
0.4142135623731
  0
LWPOLYLINE
  5
559
330
1F
100
AcDbEntity
  8
D-4
  6
Continuous
 62
     7
370
     9
100
AcDbPolyline
 90
        4
 70
     1
 43
1.0
 10
-132.3116349410467
 20
-445.9004193934068
 42
0.4142135623731
 10
-132.8116349410467
 20
-445.4004193934068
 42
0.4142135623731
 10
-133.3116349410467
 20
-445.9004193934068
 42
0.4142135623731
 10
-132.8116349410467
 20
-446.4004193934068
 42
0.4142135623731
  0
LWPOLYLINE
  5
55A
330
1F
100
AcDbEntity
  8
D-4
  6
Continuous
 62
     7
370
     9
100
AcDbPolyline
 90
        4
 70
     1
 43
1.0
 10
-132.3116349410467
 20
-495.9006578119859
 42
0.4142135623731
 10
-132.8116349410467
 20
-495.4006578119859
 42
0.4142135623731
 10
-133.3116349410467
 20
-495.9006578119859
 42
0.4142135623731
 10
-132.8116349410467
 20
-496.4006578119859
 42
0.4142135623731
  0
LWPOLYLINE
  5
55B
330
1F
100
AcDbEntity
  8
D-4
  6
Continuous
 62
     7
370
     9
100
AcDbPolyline
 90
        4
 70
     1
 43
1.0
 10
-375.8854078483039
 20
-567.2095185907945
 42
0.4142135623731
 10
-376.3854078483038
 20
-566.7095185907945
 42
0.4142135623731
 10
-376.8854078483038
 20
-567.2095185907945
 42
0.4142135623731
 10
-376.3854078483038
 20
-567.7095185907945
 42
0.4142135623731
  0
LWPOLYLINE
  5
55C
330
1F
100
AcDbEntity
  8
D-4
  6
Continuous
 62
     7
370
     9
100
AcDbPolyline
 90
        4
 70
     1
 43
1.0
 10
-530.8843945693427
 20
-567.2095185907945
 42
0.4142135623731
 10
-531.3843945693427
 20
-566.7095185907945
 42
0.4142135623731
 10
-531.8843945693427
 20
-567.2095185907945
 42
0.4142135623731
 10
-531.3843945693427
 20
-567.7095185907945
 42
0.4142135623731
  0
TEXT
  5
55D
330
1F
100
AcDbEntity
  8
D-4
  6
Continuous
 62
     2
370
     9
100
AcDbText
 10
-439.3292669486456
 20
-120.5894274958235
 30
0.0
 40
30.48
  1
1
 41
0.9999999999999998
  7
ＭＳ ゴシック
100
AcDbText
  0
TEXT
  5
55E
330
1F
100
AcDbEntity
  8
D-4
  6
Continuous
 62
     2
370
     9
100
AcDbText
 10
-490.1336411666327
 20
-229.3408484705549
 30
0.0
 40
30.48
  1
25
 41
1.062500000000002
  7
ＭＳ ゴシック
100
AcDbText
  0
TEXT
  5
55F
330
1F
100
AcDbEntity
  8
D-4
  6
Continuous
 62
     2
370
     9
100
AcDbText
 10
-522.634413642829
 20
-755.8794780024156
 30
0.0
 40
30.48
  1
25～30
 41
1.104166666666667
  7
ＭＳ ゴシック
100
AcDbText
  0
TEXT
  5
560
330
1F
100
AcDbEntity
  8
D-4
  6
Continuous
 62
     2
370
     9
100
AcDbText
 10
-399.2527581792861
 20
-910.3428645380998
 30
0.0
 40
30.48
  1
75～80
 50
359.9997855578314
 41
1.104166666666666
  7
ＭＳ ゴシック
100
AcDbText
  0
TEXT
  5
561
330
1F
100
AcDbEntity
  8
D-4
  6
Continuous
 62
     2
370
     9
100
AcDbText
 10
129.6615394974298
 20
-552.1502384418189
 30
0.0
 40
30.48
  1
40～50
 50
90.00000250447816
 41
1.104166666666667
  7
ＭＳ ゴシック
100
AcDbText
  0
TEXT
  5
562
330
1F
100
AcDbEntity
  8
D-4
  6
Continuous
 62
     2
370
     9
100
AcDbText
 10
-340.8014029760391
 20
-556.5702243101725
 30
0.0
 40
30.48
  1
29
 50
0.0006685549992706
 41
1.0625
  7
ＭＳ ゴシック
100
AcDbText
  0
TEXT
  5
563
330
1F
100
AcDbEntity
  8
D-4
  6
Continuous
 62
     2
370
     9
100
AcDbText
 10
-367.4719266127997
 20
-120.5894274958235
 30
0.0
 40
30.48
  1
5
 41
0.9999999999999998
  7
ＭＳ ゴシック
100
AcDbText
  0
TEXT
  5
564
330
1F
100
AcDbEntity
  8
D-5
  6
Continuous
 62
     2
370
     9
100
AcDbText
 10
-830.87842529525
 20
-1038.702735448705
 30
0.0
 40
30.48
  1
断面詳細図　Ｓ＝１：２
 50
0.0000267631904831
 41
1.113636363636363
  7
ＭＳ ゴシック
100
AcDbText
  0
TEXT
  5
565
330
1F
100
AcDbEntity
  8
D-5
  6
Continuous
 62
     2
370
     9
100
AcDbText
 10
470.3771467972345
 20
-802.9430766352283
 30
0.0
 40
30.48
  1
ステンレス製受枠　ＳＦ１５Ｂ
 41
1.116071428571428
  7
ＭＳ ゴシック
100
AcDbText
  0
TEXT
  5
566
330
1F
100
AcDbEntity
  8
D-5
  6
Continuous
 62
     7
370
     9
100
AcDbText
 10
-182.407887382453
 20
-245.0996224268538
 30
0.0
 40
22.86
  1
塩ビクッション
 41
1.142857142857143
  7
ＭＳ ゴシック
100
AcDbText
  0
TEXT
  5
567
330
1F
100
AcDbEntity
  8
D-5
  6
Continuous
 62
     7
370
     9
100
AcDbText
 10
-241.8958596419745
 20
-189.0006749018294
 30
0.0
 40
22.86
  1
ステンレス製受枠ＳＦ１５Ｂ
 41
1.153846153846154
  7
ＭＳ ゴシック
100
AcDbText
  0
TEXT
  5
568
330
1F
100
AcDbEntity
  8
D-5
  6
Continuous
 62
     2
370
     9
100
AcDbText
 10
530.0890608597344
 20
-867.9426188715564
 30
0.0
 40
30.48
  1
材質：冷間圧延ステンレス鋼板（ＳＵＳ３０４－２Ｂ）
 41
1.12
  7
ＭＳ ゴシック
100
AcDbText
  0
TEXT
  5
569
330
1F
100
AcDbEntity
  8
D-5
  6
Continuous
 62
     7
370
     9
100
AcDbText
 10
-119.1969804000311
 20
-335.5494801386458
 30
0.0
 40
22.86
  1
ｔ＝２．３（ＳＰＨＣ）
 41
1.151515151515152
  7
ＭＳ ゴシック
100
AcDbText
  0
TEXT
  5
56A
330
1F
100
AcDbEntity
  8
D-4
  6
Continuous
 62
     2
370
     9
100
AcDbText
 10
-143.4519210433417
 20
-492.149952339524
 30
0.0
 40
30.48
  1
10
 50
90.00000250447819
 41
1.062500000000001
  7
ＭＳ ゴシック
100
AcDbText
  0
TEXT
  5
56B
330
1F
100
AcDbEntity
  8
D-4
  6
Continuous
 62
     2
370
     9
100
AcDbText
 10
-143.4519210433417
 20
-424.6502622836766
 30
0.0
 40
30.48
  1
17
 50
90.00000250447819
 41
1.062500000000001
  7
ＭＳ ゴシック
100
AcDbText
  0
TEXT
  5
56C
330
1F
100
AcDbEntity
  8
D-4
  6
Continuous
 62
     2
370
     9
100
AcDbText
 10
-475.1349000167304
 20
-555.5695147760972
 30
0.0
 40
30.48
  1
31
 41
1.062500000000002
  7
ＭＳ ゴシック
100
AcDbText
  0
LINE
  5
56D
330
1F
100
AcDbEntity
  8
D-2
  6
Continuous
 62
     3
370
     9
100
AcDbLine
 10
-421.3848535251074
 20
-438.4005290659532
 30
0.0
 11
-421.3848535251074
 21
-363.4004083665473
 31
0.0
  0
LINE
  5
56E
330
1F
100
AcDbEntity
  8
D-2
  6
Continuous
 62
     3
370
     9
100
AcDbLine
 10
-406.3845566939764
 20
-363.4004083665473
 30
0.0
 11
-406.3845566939764
 21
-438.4005290659532
 31
0.0
  0
LINE
  5
56F
330
1F
100
AcDbEntity
  8
D-4
  6
Continuous
 62
     7
370
     9
100
AcDbLine
 10
-888.109791679328
 20
-438.4005290659532
 30
0.0
 11
-888.109791679328
 21
-363.4004083665473
 31
0.0
  0
LINE
  5
570
330
1F
100
AcDbEntity
  8
D-2
  6
Continuous
 62
     3
370
     9
100
AcDbLine
 10
-421.3848535251074
 20
-373.4004408510787
 30
0.0
 11
-1079.053166313117
 21
-373.4004408510787
 31
0.0
  0
LINE
  5
571
330
1F
100
AcDbEntity
  8
D-2
  6
Continuous
 62
     3
370
     9
100
AcDbLine
 10
-406.3845566939764
 20
-438.4005290659532
 30
0.0
 11
-1079.053166313117
 21
-438.4005290659532
 31
0.0
  0
LINE
  5
572
330
1F
100
AcDbEntity
  8
D-2
  6
Continuous
 62
     3
370
     9
100
AcDbLine
 10
-406.3845566939764
 20
-363.4004083665473
 30
0.0
 11
-1079.053166313117
 21
-363.4004083665473
 31
0.0
  0
LINE
  5
573
330
1F
100
AcDbEntity
  8
D-5
  6
Continuous
 62
     7
370
     9
100
AcDbLine
 10
-281.8624428939276
 20
-137.1545488031965
 30
0.0
 11
419.5047255325861
 21
-137.1545488031965
 31
0.0
  0
LINE
  5
574
330
1F
100
AcDbEntity
  8
D-2
  6
Continuous
 62
     3
370
     9
100
AcDbLine
 10
-1079.053166313117
 20
-490.2656537684068
 30
0.0
 11
-1079.053166313117
 21
-313.963044324742
 31
0.0
  0
LINE
  5
575
330
1F
100
AcDbEntity
  8
D-5
  6
Continuous
 62
     7
370
     9
100
AcDbLine
 10
-281.8624428939276
 20
-137.1545488031965
 30
0.0
 11
-479.3753461074286
 21
-365.9005403908354
 31
0.0
  0
LINE
  5
576
330
1F
100
AcDbEntity
  8
D-5
  6
Continuous
 62
     7
370
     9
100
AcDbLine
 10
-479.3753461074286
 20
-365.9005403908354
 30
0.0
 11
-465.6463936995917
 21
-345.0075883062941
 31
0.0
  0
LINE
  5
577
330
1F
100
AcDbEntity
  8
D-5
  6
Continuous
 62
     7
370
     9
100
AcDbLine
 10
-479.3753461074286
 20
-365.9005403908354
 30
0.0
 11
-460.7074956130439
 21
-349.2725843580824
 31
0.0
  0
LINE
  5
578
330
1F
100
AcDbEntity
  8
D-5
  6
Continuous
 62
     2
370
     9
100
AcDbLine
 10
593.287684516961
 20
-348.4010965021712
 30
0.0
 11
368.2876845169611
 21
-348.4010965021712
 31
0.0
  0
LINE
  5
579
330
1F
100
AcDbEntity
  8
D-5
  6
Continuous
 62
     2
370
     9
100
AcDbLine
 10
593.287684516961
 20
-298.4008103998763
 30
0.0
 11
593.287684516961
 21
-348.4010965021712
 31
0.0
  0
LINE
  5
57A
330
1F
100
AcDbEntity
  8
D-5
  6
Continuous
 62
     2
370
     9
100
AcDbLine
 10
368.2876845169611
 20
-298.4008103998763
 30
0.0
 11
593.287684516961
 21
-298.4008103998763
 31
0.0
  0
LINE
  5
57B
330
1F
100
AcDbEntity
  8
D-5
  6
Continuous
 62
     2
370
     9
100
AcDbLine
 10
368.2876845169611
 20
-348.4010965021712
 30
0.0
 11
368.2876845169611
 21
-298.4008103998763
 31
0.0
  0
LWPOLYLINE
  5
57C
330
1F
100
AcDbEntity
  8
D-4
  6
Continuous
 62
     7
370
     9
100
AcDbPolyline
 90
        4
 70
     1
 43
1.0
 10
-887.609791679328
 20
-363.4004083665473
 42
0.4142135623731
 10
-888.109791679328
 20
-362.9004083665473
 42
0.4142135623731
 10
-888.6097916793279
 20
-363.4004083665473
 42
0.4142135623731
 10
-888.109791679328
 20
-363.9004083665472
 42
0.4142135623731
  0
LWPOLYLINE
  5
57D
330
1F
100
AcDbEntity
  8
D-4
  6
Continuous
 62
     7
370
     9
100
AcDbPolyline
 90
        4
 70
     1
 43
1.0
 10
-887.6102875899726
 20
-438.4005290659532
 42
0.4142135623731
 10
-888.1102875899726
 20
-437.9005290659532
 42
0.4142135623731
 10
-888.6102875899725
 20
-438.4005290659532
 42
0.4142135623731
 10
-888.1102875899726
 20
-438.9005290659532
 42
0.4142135623731
  0
TEXT
  5
57E
330
1F
100
AcDbEntity
  8
D-4
  6
Continuous
 62
     2
370
     9
100
AcDbText
 10
-898.7495627974921
 20
-422.1506628268895
 30
0.0
 40
30.48
  1
15
 50
90.00000250447809
 41
1.062500000000001
  7
ＭＳ ゴシック
100
AcDbText
  0
TEXT
  5
57F
330
1F
100
AcDbEntity
  8
D-5
  6
Continuous
 62
     7
370
     9
100
AcDbText
 10
-281.8624457248346
 20
-124.9974362238518
 30
0.0
 40
22.86
  1
ステンレス製グレーチングＤＱｰ１５（h=15）
 50
0.0000383449219533
 41
1.158536585365854
  7
ＭＳ ゴシック
100
AcDbText
  0
TEXT
  5
580
330
1F
100
AcDbEntity
  8
D-5
  6
Continuous
 62
     2
370
     9
100
AcDbText
 10
530.0895186234063
 20
-530.6809993036851
 30
0.0
 40
30.48
  1
材質：メインバー　ＳＵＳ３０４　＠１５
 41
1.118421052631579
  7
ＭＳ ゴシック
100
AcDbText
  0
TEXT
  5
581
330
1F
100
AcDbEntity
  8
D-5
  6
Continuous
 62
     2
370
     9
100
AcDbText
 10
530.0895186234063
 20
-595.6805987604722
 30
0.0
 40
30.48
  1
　　　クロスバー　ＳＵＳ３０４　＠１００
 41
1.11875
  7
ＭＳ ゴシック
100
AcDbText
  0
TEXT
  5
582
330
1F
100
AcDbEntity
  8
D-5
  6
Continuous
 62
     2
370
     9
100
AcDbText
 10
530.0895186234063
 20
-660.6805606134996
 30
0.0
 40
30.48
  1
　　　サイドバー　ＳＵＳ３０４
 41
1.116666666666666
  7
ＭＳ ゴシック
100
AcDbText
  0
TEXT
  5
583
330
1F
100
AcDbEntity
  8
D-5
  6
Continuous
 62
     7
370
     9
100
AcDbText
 10
-281.8624428939276
 20
-92.29258698068678
 30
0.0
 40
22.86
  1
ノンスリップ加工細目タイプ
 41
1.153846153846154
  7
ＭＳ ゴシック
100
AcDbText
  0
TEXT
  5
584
330
1F
100
AcDbEntity
  8
D-5
  6
Continuous
 62
     2
370
     9
100
AcDbText
 10
415.7872267532892
 20
-337.7608342417342
 30
0.0
 40
30.48
  1
仕　様
 41
1.083333333333333
  7
ＭＳ ゴシック
100
AcDbText
  0
TEXT
  5
585
330
1F
100
AcDbEntity
  8
D-5
  6
Continuous
 62
     2
370
     9
100
AcDbText
 10
470.3776045609064
 20
-400.681385541783
 30
0.0
 40
30.48
  1
ステンレス製細目ノンスリップタイプ(デルタ模様）
 41
1.11968085106383
  7
ＭＳ ゴシック
100
AcDbText
  0
TEXT
  5
586
330
1F
100
AcDbEntity
  8
D-4
  6
Continuous
 62
     2
370
     9
100
AcDbText
 10
-687.507173118537
 20
-490.4812151772988
 30
0.0
 40
30.48
  1
25
 50
90.00000250000005
 41
1.062500000000001
  7
ＭＳ ゴシック
100
AcDbText
  0
TEXT
  5
587
330
1F
100
AcDbEntity
  8
D-4
  6
Continuous
 62
     2
370
     9
100
AcDbText
 10
-1101.457539713477
 20
-229.8218663790954
 30
0.0
 40
30.48
  1
□400
 41
1.1
  7
ＭＳ ゴシック
100
AcDbText
  0
TEXT
  5
588
330
1F
100
AcDbEntity
  8
D-4
  6
Continuous
 62
     2
370
     9
100
AcDbText
 10
-1101.457539713477
 20
-121.0218663790955
 30
0.0
 40
30.48
  1
□450
 41
1.1
  7
ＭＳ ゴシック
100
AcDbText
  0
TEXT
  5
589
330
1F
100
AcDbEntity
  8
D-4
  6
Continuous
 62
     2
370
     9
100
AcDbText
 10
-1101.457539713477
 20
-10.32186637909554
 30
0.0
 40
30.48
  1
□462
 41
1.1
  7
ＭＳ ゴシック
100
AcDbText
  0
TEXT
  5
58A
330
1F
100
AcDbEntity
  8
D-5
  6
Continuous
 62
     2
370
     9
100
AcDbText
 10
470.3776072819077
 20
-465.6809420832267
 30
0.0
 40
30.48
  1
グレーチング（すきま９mm）　ＤＱ－１５　４５０×４５０×１５
 50
359.999972357821
 41
1.120833333333333
  7
ＭＳ ゴシック
100
AcDbText
  0
TEXT
  5
58B
330
1F
100
AcDbEntity
  8
D-5
  6
Continuous
 62
     7
370
     9
100
AcDbText
 10
-119.1969804000311
 20
-294.3259827478987
 30
0.0
 40
22.86
  1
溶接用アンカー
 41
1.142857142857143
  7
ＭＳ ゴシック
100
AcDbText
  0
LINE
  5
58C
330
1F
100
AcDbEntity
  8
D-2
  6
JWW_CENTER2
 62
     3
370
     9
100
AcDbLine
 10
-781.3840607833321
 20
-433.8392240198714
 30
0.0
 11
-781.3840607833321
 21
-369.3202823790175
 31
0.0
  0
LINE
  5
58D
330
1F
100
AcDbEntity
  8
D-2
  6
JWW_CENTER2
 62
     3
370
     9
100
AcDbLine
 10
-811.7093018721993
 20
-400.8999139460188
 30
0.0
 11
-750.7371644210274
 21
-400.8999139460188
 31
0.0
  0
LINE
  5
58E
330
1F
100
AcDbEntity
  8
D-2
  6
Continuous
 62
     3
370
     9
100
AcDbLine
 10
-763.7063721846993
 20
-400.8999139460188
 30
0.0
 11
-781.3840607833321
 21
-383.2222444208724
 31
0.0
  0
LINE
  5
58F
330
1F
100
AcDbEntity
  8
D-2
  6
Continuous
 62
     3
370
     9
100
AcDbLine
 10
-781.3840607833321
 20
-418.5775834711653
 30
0.0
 11
-763.7063721846993
 21
-400.8999139460188
 31
0.0
  0
LINE
  5
590
330
1F
100
AcDbEntity
  8
D-2
  6
Continuous
 62
     3
370
     9
100
AcDbLine
 10
-781.3840607833321
 20
-383.2222444208724
 30
0.0
 11
-799.0617493819649
 21
-400.8999139460188
 31
0.0
  0
LINE
  5
591
330
1F
100
AcDbEntity
  8
D-2
  6
Continuous
 62
     3
370
     9
100
AcDbLine
 10
-799.0617493819649
 20
-400.8999139460188
 30
0.0
 11
-781.3840607833321
 21
-418.5775834711653
 31
0.0
  0
LINE
  5
592
330
1F
100
AcDbEntity
  8
D-2
  6
Continuous
 62
     3
370
     9
100
AcDbLine
 10
-793.8840607833321
 20
-388.3999139460188
 30
0.0
 11
-793.8840607833321
 21
-395.7222587259871
 31
0.0
  0
LINE
  5
593
330
1F
100
AcDbEntity
  8
D-2
  6
Continuous
 62
     3
370
     9
100
AcDbLine
 10
-793.8840607833321
 20
-406.0775834711653
 30
0.0
 11
-793.8840607833321
 21
-413.3999282511336
 31
0.0
  0
LINE
  5
594
330
1F
100
AcDbEntity
  8
D-2
  6
Continuous
 62
     3
370
     9
100
AcDbLine
 10
-768.8840607833321
 20
-388.3998996409041
 30
0.0
 11
-776.2063721846993
 21
-388.3999139460188
 31
0.0
  0
LINE
  5
595
330
1F
100
AcDbEntity
  8
D-2
  6
Continuous
 62
     3
370
     9
100
AcDbLine
 10
-786.5617112349922
 20
-388.3998996409041
 30
0.0
 11
-793.8840607833321
 21
-388.3999139460188
 31
0.0
  0
LINE
  5
596
330
1F
100
AcDbEntity
  8
D-2
  6
Continuous
 62
     3
370
     9
100
AcDbLine
 10
-768.8840607833321
 20
-413.3999139460188
 30
0.0
 11
-768.8840607833321
 21
-406.0775691660506
 31
0.0
  0
LINE
  5
597
330
1F
100
AcDbEntity
  8
D-2
  6
Continuous
 62
     3
370
     9
100
AcDbLine
 10
-768.8840607833321
 20
-395.7222444208724
 30
0.0
 11
-768.8840607833321
 21
-388.3998996409041
 31
0.0
  0
LINE
  5
598
330
1F
100
AcDbEntity
  8
D-2
  6
Continuous
 62
     3
370
     9
100
AcDbLine
 10
-793.8840607833321
 20
-413.3999282511336
 30
0.0
 11
-786.5617493819649
 21
-413.3999139460188
 31
0.0
  0
LINE
  5
599
330
1F
100
AcDbEntity
  8
D-2
  6
Continuous
 62
     3
370
     9
100
AcDbLine
 10
-776.2064103316719
 20
-413.3999282511336
 30
0.0
 11
-768.8840607833321
 21
-413.3999139460188
 31
0.0
  0
ENDSEC
  0
SECTION
  2
OBJECTS
  0
DICTIONARY
  5
C
330
0
100
AcDbDictionary
281
     1
  3
ACAD_GROUP
350
D
  3
ACAD_LAYOUT
350
1A
  3
ACAD_MLEADERSTYLE
350
59B
  3
ACAD_MLINESTYLE
350
17
  3
ACAD_PLOTSETTINGS
350
19
  3
ACAD_PLOTSTYLENAME
350
E
  3
ACAD_TABLESTYLE
350
59A
  3
ACAD_VISUALSTYLE
350
2A
  0
DICTIONARY
  5
D
102
{ACAD_REACTORS
330
C
102
}
330
C
100
AcDbDictionary
281
     1
  0
DICTIONARY
  5
1A
102
{ACAD_REACTORS
330
C
102
}
330
C
100
AcDbDictionary
281
     1
  3
Layout1
350
1E
  3
Layout2
350
26
  3
Model
350
22
  0
DICTIONARY
  5
59B
102
{ACAD_REACTORS
330
C
102
}
330
C
100
AcDbDictionary
281
     1
  0
DICTIONARY
  5
17
102
{ACAD_REACTORS
330
C
102
}
330
C
100
AcDbDictionary
281
     1
  3
Standard
350
18
  0
DICTIONARY
  5
19
102
{ACAD_REACTORS
330
C
102
}
330
C
100
AcDbDictionary
281
     1
  0
ACDBDICTIONARYWDFLT
  5
E
102
{ACAD_REACTORS
330
C
102
}
330
C
100
AcDbDictionary
281
     1
  3
Normal
350
F
100
AcDbDictionaryWithDefault
340
F
  0
DICTIONARY
  5
59A
102
{ACAD_REACTORS
330
C
102
}
330
C
100
AcDbDictionary
281
     1
  0
DICTIONARY
  5
2A
102
{ACAD_REACTORS
330
C
102
}
330
C
100
AcDbDictionary
281
     1
  3
2dWireframe
350
2F
  3
3D Hidden
350
31
  3
3dWireframe
350
30
  3
Basic
350
32
  3
Brighten
350
36
  3
ColorChange
350
3A
  3
Conceptual
350
34
  3
Dim
350
35
  3
Facepattern
350
39
  3
Flat
350
2B
  3
FlatWithEdges
350
2C
  3
Gouraud
350
2D
  3
GouraudWithEdges
350
2E
  3
Linepattern
350
38
  3
Realistic
350
33
  3
Thicken
350
37
  0
LAYOUT
  5
1E
102
{ACAD_REACTORS
330
1A
102
}
330
1A
100
AcDbPlotSettings
  1

  2
none_device
  4

  6

 40
0.0
 41
0.0
 42
0.0
 43
0.0
 44
0.0
 45
0.0
 46
0.0
 47
0.0
 48
0.0
 49
0.0
140
0.0
141
0.0
142
1.0
143
1.0
 70
   688
 72
     0
 73
     0
 74
     5
  7

 75
    16
 76
     0
 77
     5
 78
   300
147
1.0
148
0.0
149
0.0
100
AcDbLayout
  1
Layout1
 70
     1
 71
     1
 10
0.0
 20
0.0
 11
420.0
 21
297.0
 12
0.0
 22
0.0
 32
0.0
 14
1.000000000000000E+20
 24
1.000000000000000E+20
 34
1.000000000000000E+20
 15
-1.000000000000000E+20
 25
-1.000000000000000E+20
 35
-1.000000000000000E+20
146
0.0
 13
0.0
 23
0.0
 33
0.0
 16
1.0
 26
0.0
 36
0.0
 17
0.0
 27
1.0
 37
0.0
 76
     0
330
1B
  0
LAYOUT
  5
26
102
{ACAD_REACTORS
330
1A
102
}
330
1A
100
AcDbPlotSettings
  1

  2
none_device
  4

  6

 40
0.0
 41
0.0
 42
0.0
 43
0.0
 44
0.0
 45
0.0
 46
0.0
 47
0.0
 48
0.0
 49
0.0
140
0.0
141
0.0
142
1.0
143
1.0
 70
   688
 72
     0
 73
     0
 74
     5
  7

 75
    16
 76
     0
 77
     5
 78
   300
147
1.0
148
0.0
149
0.0
100
AcDbLayout
  1
Layout2
 70
     1
 71
     2
 10
0.0
 20
0.0
 11
0.0
 21
0.0
 12
0.0
 22
0.0
 32
0.0
 14
0.0
 24
0.0
 34
0.0
 15
0.0
 25
0.0
 35
0.0
146
0.0
 13
0.0
 23
0.0
 33
0.0
 16
1.0
 26
0.0
 36
0.0
 17
0.0
 27
1.0
 37
0.0
 76
     0
330
23
  0
LAYOUT
  5
22
102
{ACAD_REACTORS
330
1A
102
}
330
1A
100
AcDbPlotSettings
  1

  2
none_device
  4

  6

 40
0.0
 41
0.0
 42
0.0
 43
0.0
 44
0.0
 45
0.0
 46
0.0
 47
0.0
 48
0.0
 49
0.0
140
0.0
141
0.0
142
1.0
143
1.0
 70
  1712
 72
     0
 73
     0
 74
     0
  7

 75
     0
 76
     0
 77
     5
 78
   300
147
1.0
148
0.0
149
0.0
100
AcDbLayout
  1
Model
 70
     1
 71
     0
 10
-2100.0
 20
-1485.0
 11
2100.0
 21
1485.0
 12
0.0
 22
0.0
 32
0.0
 14
-2100.0
 24
-1485.0
 34
0.0
 15
2100.0
 25
1485.0
 35
0.0
146
0.0
 13
0.0
 23
0.0
 33
0.0
 16
1.0
 26
0.0
 36
0.0
 17
0.0
 27
1.0
 37
0.0
 76
     0
330
1F
331
29
  0
MLINESTYLE
  5
18
102
{ACAD_REACTORS
330
17
102
}
330
17
100
AcDbMlineStyle
  2
Standard
 70
     0
  3

 62
   256
 51
90.0
 52
90.0
 71
     2
 49
0.5
 62
   256
  6
BYLAYER
 49
-0.5
 62
   256
  6
BYLAYER
  0
ACDBPLACEHOLDER
  5
F
102
{ACAD_REACTORS
330
E
102
}
330
E
  0
VISUALSTYLE
  5
2F
102
{ACAD_REACTORS
330
2A
102
}
330
2A
100
AcDbVisualStyle
  2
2dWireframe
 70
     4
 71
     0
 72
     2
 73
     0
 90
        0
 40
-0.6
 41
-30.0
 62
     5
 63
     7
421
 16777215
 74
     1
 91
        4
 64
     7
 65
   257
 75
     1
175
     1
 42
1.0
 92
        0
 66
   257
 43
1.0
 76
     1
 77
     6
 78
     2
 67
     7
 79
     5
170
     0
171
     0
290
     0
174
     0
 93
        1
 44
0.0
173
     0
291
     0
 45
0.0
1001
ACAD
1000
AcDbSavedByObjectVersion
1070
     0
  0
VISUALSTYLE
  5
31
102
{ACAD_REACTORS
330
2A
102
}
330
2A
100
AcDbVisualStyle
  2
3D Hidden
 70
     6
 71
     1
 72
     2
 73
     2
 90
        0
 40
-0.6
 41
-30.0
 62
     5
 63
     7
421
 16777215
 74
     2
 91
        2
 64
     7
 65
   257
 75
     2
175
     1
 42
40.0
 92
        0
 66
   257
 43
1.0
 76
     1
 77
     6
 78
     2
 67
     7
 79
     3
170
     0
171
     0
290
     0
174
     0
 93
        1
 44
0.0
173
     0
291
     0
 45
0.0
1001
ACAD
1000
AcDbSavedByObjectVersion
1070
     0
  0
VISUALSTYLE
  5
30
102
{ACAD_REACTORS
330
2A
102
}
330
2A
100
AcDbVisualStyle
  2
3dWireframe
 70
     5
 71
     0
 72
     2
 73
     0
 90
        0
 40
-0.6
 41
-30.0
 62
     5
 63
     7
421
 16777215
 74
     1
 91
        4
 64
     7
 65
   257
 75
     1
175
     1
 42
1.0
 92
        0
 66
   257
 43
1.0
 76
     1
 77
     6
 78
     2
 67
     7
 79
     5
170
     0
171
     0
290
     0
174
     0
 93
        1
 44
0.0
173
     0
291
     0
 45
0.0
1001
ACAD
1000
AcDbSavedByObjectVersion
1070
     0
  0
VISUALSTYLE
  5
32
102
{ACAD_REACTORS
330
2A
102
}
330
2A
100
AcDbVisualStyle
  2
Basic
 70
     7
 71
     1
 72
     0
 73
     1
 90
        0
 40
-0.6
 41
-30.0
 62
     5
 63
     7
421
 16777215
 74
     0
 91
        4
 64
     7
 65
   257
 75
     1
175
     1
 42
1.0
 92
        8
 66
     7
 43
1.0
 76
     1
 77
     6
 78
     2
 67
     7
 79
     5
170
     0
171
     0
290
     0
174
     0
 93
        1
 44
0.0
173
     0
291
     1
 45
0.0
1001
ACAD
1000
AcDbSavedByObjectVersion
1070
     0
  0
VISUALSTYLE
  5
36
102
{ACAD_REACTORS
330
2A
102
}
330
2A
100
AcDbVisualStyle
  2
Brighten
 70
    12
 71
     2
 72
     2
 73
     0
 90
        0
 40
-0.6
 41
-30.0
 62
     5
 63
     7
421
 16777215
 74
     1
 91
        4
 64
     7
 65
   257
 75
     1
175
     1
 42
1.0
 92
        8
 66
     7
 43
1.0
 76
     1
 77
     6
 78
     2
 67
     7
 79
     5
170
     0
171
     0
290
     0
174
     0
 93
        1
 44
50.0
173
     0
291
     1
 45
0.0
1001
ACAD
1000
AcDbSavedByObjectVersion
1070
     0
  0
VISUALSTYLE
  5
3A
102
{ACAD_REACTORS
330
2A
102
}
330
2A
100
AcDbVisualStyle
  2
ColorChange
 70
    16
 71
     2
 72
     2
 73
     3
 90
        0
 40
-0.6
 41
-30.0
 62
     5
 63
     8
421
  8421504
 74
     1
 91
        4
 64
     7
 65
   257
 75
     1
175
     1
 42
1.0
 92
        8
 66
     8
424
  8421504
 43
1.0
 76
     1
 77
     6
 78
     2
 67
     7
 79
     5
170
     0
171
     0
290
     0
174
     0
 93
        1
 44
0.0
173
     0
291
     1
 45
0.0
1001
ACAD
1000
AcDbSavedByObjectVersion
1070
     0
  0
VISUALSTYLE
  5
34
102
{ACAD_REACTORS
330
2A
102
}
330
2A
100
AcDbVisualStyle
  2
Conceptual
 70
     9
 71
     3
 72
     2
 73
     0
 90
        0
 40
-0.6
 41
-30.0
 62
     5
 63
     7
421
 16777215
 74
     2
 91
        2
 64
     7
 65
   257
 75
     1
175
     1
 42
40.0
 92
        8
 66
     7
 43
1.0
 76
     1
 77
     6
 78
     2
 67
     7
 79
     3
170
     0
171
     0
290
     0
174
     0
 93
        1
 44
0.0
173
     0
291
     0
 45
0.0
1001
ACAD
1000
AcDbSavedByObjectVersion
1070
     0
  0
VISUALSTYLE
  5
35
102
{ACAD_REACTORS
330
2A
102
}
330
2A
100
AcDbVisualStyle
  2
Dim
 70
    11
 71
     2
 72
     2
 73
     0
 90
        0
 40
-0.6
 41
-30.0
 62
     5
 63
     7
421
 16777215
 74
     1
 91
        4
 64
     7
 65
   257
 75
     1
175
     1
 42
1.0
 92
        8
 66
     7
 43
1.0
 76
     1
 77
     6
 78
     2
 67
     7
 79
     5
170
     0
171
     0
290
     0
174
     0
 93
        1
 44
-50.0
173
     0
291
     1
 45
0.0
1001
ACAD
1000
AcDbSavedByObjectVersion
1070
     0
  0
VISUALSTYLE
  5
39
102
{ACAD_REACTORS
330
2A
102
}
330
2A
100
AcDbVisualStyle
  2
Facepattern
 70
    15
 71
     2
 72
     2
 73
     0
 90
        0
 40
-0.6
 41
-30.0
 62
     5
 63
     7
421
 16777215
 74
     1
 91
        4
 64
     7
 65
   257
 75
     1
175
     1
 42
1.0
 92
        8
 66
     7
 43
1.0
 76
     1
 77
     6
 78
     2
 67
     7
 79
     5
170
     0
171
     0
290
     0
174
     0
 93
        1
 44
0.0
173
     0
291
     1
 45
0.0
1001
ACAD
1000
AcDbSavedByObjectVersion
1070
     0
  0
VISUALSTYLE
  5
2B
102
{ACAD_REACTORS
330
2A
102
}
330
2A
100
AcDbVisualStyle
  2
Flat
 70
     0
 71
     2
 72
     1
 73
     1
 90
        2
 40
-0.6
 41
30.0
 62
     5
 63
     7
421
 16777215
 74
     0
 91
        4
 64
     7
 65
   257
 75
     1
175
     1
 42
1.0
 92
        8
 66
     7
 43
1.0
 76
     1
 77
     6
 78
     2
 67
     7
 79
     5
170
     0
171
     0
290
     0
174
     0
 93
       13
 44
0.0
173
     0
291
     1
 45
0.0
1001
ACAD
1000
AcDbSavedByObjectVersion
1070
     0
  0
VISUALSTYLE
  5
2C
102
{ACAD_REACTORS
330
2A
102
}
330
2A
100
AcDbVisualStyle
  2
FlatWithEdges
 70
     1
 71
     2
 72
     1
 73
     1
 90
        2
 40
-0.6
 41
30.0
 62
     5
 63
     7
421
 16777215
 74
     1
 91
        4
 64
     7
 65
   257
 75
     1
175
     1
 42
1.0
 92
        0
 66
   257
 43
1.0
 76
     1
 77
     6
 78
     2
 67
     7
 79
     5
170
     0
171
     0
290
     0
174
     0
 93
       13
 44
0.0
173
     0
291
     1
 45
0.0
1001
ACAD
1000
AcDbSavedByObjectVersion
1070
     0
  0
VISUALSTYLE
  5
2D
102
{ACAD_REACTORS
330
2A
102
}
330
2A
100
AcDbVisualStyle
  2
Gouraud
 70
     2
 71
     2
 72
     2
 73
     1
 90
        2
 40
-0.6
 41
30.0
 62
     5
 63
     7
421
 16777215
 74
     0
 91
        4
 64
     7
 65
   257
 75
     1
175
     1
 42
1.0
 92
        0
 66
     7
 43
1.0
 76
     1
 77
     6
 78
     2
 67
     7
 79
     5
170
     0
171
     0
290
     0
174
     0
 93
       13
 44
0.0
173
     0
291
     1
 45
0.0
1001
ACAD
1000
AcDbSavedByObjectVersion
1070
     0
  0
VISUALSTYLE
  5
2E
102
{ACAD_REACTORS
330
2A
102
}
330
2A
100
AcDbVisualStyle
  2
GouraudWithEdges
 70
     3
 71
     2
 72
     2
 73
     1
 90
        2
 40
-0.6
 41
30.0
 62
     5
 63
     7
421
 16777215
 74
     1
 91
        4
 64
     7
 65
   257
 75
     1
175
     1
 42
1.0
 92
        0
 66
   257
 43
1.0
 76
     1
 77
     6
 78
     2
 67
     7
 79
     5
170
     0
171
     0
290
     0
174
     0
 93
       13
 44
0.0
173
     0
291
     1
 45
0.0
1001
ACAD
1000
AcDbSavedByObjectVersion
1070
     0
  0
VISUALSTYLE
  5
38
102
{ACAD_REACTORS
330
2A
102
}
330
2A
100
AcDbVisualStyle
  2
Linepattern
 70
    14
 71
     2
 72
     2
 73
     0
 90
        0
 40
-0.6
 41
-30.0
 62
     5
 63
     7
421
 16777215
 74
     1
 91
        4
 64
     7
 65
   257
 75
     7
175
     7
 42
1.0
 92
        8
 66
     7
 43
1.0
 76
     1
 77
     6
 78
     2
 67
     7
 79
     5
170
     0
171
     0
290
     0
174
     0
 93
        1
 44
0.0
173
     0
291
     1
 45
0.0
1001
ACAD
1000
AcDbSavedByObjectVersion
1070
     0
  0
VISUALSTYLE
  5
33
102
{ACAD_REACTORS
330
2A
102
}
330
2A
100
AcDbVisualStyle
  2
Realistic
 70
     8
 71
     2
 72
     2
 73
     0
 90
        0
 40
-0.6
 41
-30.0
 62
     5
 63
     7
421
 16777215
 74
     1
 91
        0
 64
     7
 65
   257
 75
     1
175
     1
 42
1.0
 92
        8
 66
     8
424
  7895160
 43
1.0
 76
     1
 77
     6
 78
     2
 67
     7
 79
     5
170
     0
171
     0
290
     0
174
     0
 93
       13
 44
0.0
173
     0
291
     0
 45
0.0
1001
ACAD
1000
AcDbSavedByObjectVersion
1070
     0
  0
VISUALSTYLE
  5
37
102
{ACAD_REACTORS
330
2A
102
}
330
2A
100
AcDbVisualStyle
  2
Thicken
 70
    13
 71
     2
 72
     2
 73
     0
 90
        0
 40
-0.6
 41
-30.0
 62
     5
 63
     7
421
 16777215
 74
     1
 91
        4
 64
     7
 65
   257
 75
     1
175
     1
 42
1.0
 92
       12
 66
     7
 43
1.0
 76
     1
 77
     6
 78
     2
 67
     7
 79
     5
170
     0
171
     0
290
     0
174
     0
 93
        1
 44
0.0
173
     0
291
     1
 45
0.0
1001
ACAD
1000
AcDbSavedByObjectVersion
1070
     0
  0
ENDSEC
  0
EOF
