  0
SECTION
  2
HEADER
  9
$ACADVER
  1
AC1018
  9
$ACADMAINTVER
 70
     0
  9
$DWGCODEPAGE
  3
ANSI_932
  9
$INSBASE
 10
0.0
 20
0.0
 30
0.0
  9
$EXTMIN
 10
-2100.0
 20
-1485.0
 30
0.0
  9
$EXTMAX
 10
2100.0
 20
1485.0
 30
0.0
  9
$LIMMIN
 10
-2100.0
 20
-1485.0
  9
$LIMMAX
 10
2100.0
 20
1485.0
  9
$ORTHOMODE
 70
     0
  9
$REGENMODE
 70
     1
  9
$FILLMODE
 70
     1
  9
$QTEXTMODE
 70
     0
  9
$MIRRTEXT
 70
     1
  9
$LTSCALE
 40
10.0
  9
$ATTMODE
 70
     1
  9
$TEXTSIZE
 40
2.5
  9
$TRACEWID
 40
1.0
  9
$TEXTSTYLE
  7
Standard
  9
$CLAYER
  8
0
  9
$CELTYPE
  6
ByLayer
  9
$CECOLOR
 62
   256
  9
$CELTSCALE
 40
1.0
  9
$DISPSILH
 70
     0
  9
$DIMSCALE
 40
1.0
  9
$DIMASZ
 40
2.5
  9
$DIMEXO
 40
0.625
  9
$DIMDLI
 40
3.75
  9
$DIMRND
 40
0.0
  9
$DIMDLE
 40
0.0
  9
$DIMEXE
 40
1.25
  9
$DIMTP
 40
0.0
  9
$DIMTM
 40
0.0
  9
$DIMTXT
 40
2.5
  9
$DIMCEN
 40
2.5
  9
$DIMTSZ
 40
0.0
  9
$DIMTOL
 70
     0
  9
$DIMLIM
 70
     0
  9
$DIMTIH
 70
     0
  9
$DIMTOH
 70
     0
  9
$DIMSE1
 70
     0
  9
$DIMSE2
 70
     0
  9
$DIMTAD
 70
     1
  9
$DIMZIN
 70
     8
  9
$DIMBLK
  1

  9
$DIMASO
 70
     1
  9
$DIMSHO
 70
     1
  9
$DIMPOST
  1

  9
$DIMAPOST
  1

  9
$DIMALT
 70
     0
  9
$DIMALTD
 70
     3
  9
$DIMALTF
 40
0.03937007874016
  9
$DIMLFAC
 40
1.0
  9
$DIMTOFL
 70
     1
  9
$DIMTVP
 40
0.0
  9
$DIMTIX
 70
     0
  9
$DIMSOXD
 70
     0
  9
$DIMSAH
 70
     0
  9
$DIMBLK1
  1

  9
$DIMBLK2
  1

  9
$DIMSTYLE
  2
ISO-25
  9
$DIMCLRD
 70
     0
  9
$DIMCLRE
 70
     0
  9
$DIMCLRT
 70
     0
  9
$DIMTFAC
 40
1.0
  9
$DIMGAP
 40
0.625
  9
$DIMJUST
 70
     0
  9
$DIMSD1
 70
     0
  9
$DIMSD2
 70
     0
  9
$DIMTOLJ
 70
     0
  9
$DIMTZIN
 70
     8
  9
$DIMALTZ
 70
     0
  9
$DIMALTTZ
 70
     0
  9
$DIMUPT
 70
     0
  9
$DIMDEC
 70
     2
  9
$DIMTDEC
 70
     2
  9
$DIMALTU
 70
     2
  9
$DIMALTTD
 70
     3
  9
$DIMTXSTY
  7
Standard
  9
$DIMAUNIT
 70
     0
  9
$DIMADEC
 70
     0
  9
$DIMALTRND
 40
0.0
  9
$DIMAZIN
 70
     0
  9
$DIMDSEP
 70
    44
  9
$DIMATFIT
 70
     3
  9
$DIMFRAC
 70
     0
  9
$DIMLDRBLK
  1

  9
$DIMLUNIT
 70
     2
  9
$DIMLWD
 70
    -2
  9
$DIMLWE
 70
    -2
  9
$DIMTMOVE
 70
     0
  9
$LUNITS
 70
     2
  9
$LUPREC
 70
     4
  9
$SKETCHINC
 40
1.0
  9
$FILLETRAD
 40
10.0
  9
$AUNITS
 70
     0
  9
$AUPREC
 70
     0
  9
$MENU
  1
.
  9
$ELEVATION
 40
0.0
  9
$PELEVATION
 40
0.0
  9
$THICKNESS
 40
0.0
  9
$LIMCHECK
 70
     0
  9
$CHAMFERA
 40
10.0
  9
$CHAMFERB
 40
10.0
  9
$CHAMFERC
 40
20.0
  9
$CHAMFERD
 40
0.0
  9
$SKPOLY
 70
     0
  9
$TDCREATE
 40
2458568.380881343
  9
$TDUCREATE
 40
2458568.005881343
  9
$TDUPDATE
 40
2458568.380881354
  9
$TDUUPDATE
 40
2458568.005881354
  9
$TDINDWG
 40
0.0000000116
  9
$TDUSRTIMER
 40
0.0000000116
  9
$USRTIMER
 70
     1
  9
$ANGBASE
 50
0.0
  9
$ANGDIR
 70
     0
  9
$PDMODE
 70
     0
  9
$PDSIZE
 40
0.0
  9
$PLINEWID
 40
0.0
  9
$SPLFRAME
 70
     0
  9
$SPLINETYPE
 70
     6
  9
$SPLINESEGS
 70
     8
  9
$HANDSEED
  5
566
  9
$SURFTAB1
 70
     6
  9
$SURFTAB2
 70
     6
  9
$SURFTYPE
 70
     6
  9
$SURFU
 70
     6
  9
$SURFV
 70
     6
  9
$UCSBASE
  2

  9
$UCSNAME
  2

  9
$UCSORG
 10
0.0
 20
0.0
 30
0.0
  9
$UCSXDIR
 10
1.0
 20
0.0
 30
0.0
  9
$UCSYDIR
 10
0.0
 20
1.0
 30
0.0
  9
$UCSORTHOREF
  2

  9
$UCSORTHOVIEW
 70
     0
  9
$UCSORGTOP
 10
0.0
 20
0.0
 30
0.0
  9
$UCSORGBOTTOM
 10
0.0
 20
0.0
 30
0.0
  9
$UCSORGLEFT
 10
0.0
 20
0.0
 30
0.0
  9
$UCSORGRIGHT
 10
0.0
 20
0.0
 30
0.0
  9
$UCSORGFRONT
 10
0.0
 20
0.0
 30
0.0
  9
$UCSORGBACK
 10
0.0
 20
0.0
 30
0.0
  9
$PUCSBASE
  2

  9
$PUCSNAME
  2

  9
$PUCSORG
 10
0.0
 20
0.0
 30
0.0
  9
$PUCSXDIR
 10
1.0
 20
0.0
 30
0.0
  9
$PUCSYDIR
 10
0.0
 20
1.0
 30
0.0
  9
$PUCSORTHOREF
  2

  9
$PUCSORTHOVIEW
 70
     0
  9
$PUCSORGTOP
 10
0.0
 20
0.0
 30
0.0
  9
$PUCSORGBOTTOM
 10
0.0
 20
0.0
 30
0.0
  9
$PUCSORGLEFT
 10
0.0
 20
0.0
 30
0.0
  9
$PUCSORGRIGHT
 10
0.0
 20
0.0
 30
0.0
  9
$PUCSORGFRONT
 10
0.0
 20
0.0
 30
0.0
  9
$PUCSORGBACK
 10
0.0
 20
0.0
 30
0.0
  9
$USERI1
 70
     0
  9
$USERI2
 70
     0
  9
$USERI3
 70
     0
  9
$USERI4
 70
     0
  9
$USERI5
 70
     0
  9
$USERR1
 40
0.0
  9
$USERR2
 40
0.0
  9
$USERR3
 40
0.0
  9
$USERR4
 40
0.0
  9
$USERR5
 40
0.0
  9
$WORLDVIEW
 70
     1
  9
$SHADEDGE
 70
     3
  9
$SHADEDIF
 70
    70
  9
$TILEMODE
 70
     1
  9
$MAXACTVP
 70
    64
  9
$PINSBASE
 10
0.0
 20
0.0
 30
0.0
  9
$PLIMCHECK
 70
     0
  9
$PEXTMIN
 10
1.000000000000000E+20
 20
1.000000000000000E+20
 30
1.000000000000000E+20
  9
$PEXTMAX
 10
-1.000000000000000E+20
 20
-1.000000000000000E+20
 30
-1.000000000000000E+20
  9
$PLIMMIN
 10
0.0
 20
0.0
  9
$PLIMMAX
 10
420.0
 20
297.0
  9
$UNITMODE
 70
     0
  9
$VISRETAIN
 70
     1
  9
$PLINEGEN
 70
     0
  9
$PSLTSCALE
 70
     1
  9
$TREEDEPTH
 70
  3020
  9
$CMLSTYLE
  2
Standard
  9
$CMLJUST
 70
     0
  9
$CMLSCALE
 40
20.0
  9
$PROXYGRAPHICS
 70
     1
  9
$MEASUREMENT
 70
     1
  9
$CELWEIGHT
370
    -1
  9
$ENDCAPS
280
     0
  9
$JOINSTYLE
280
     0
  9
$LWDISPLAY
290
     0
  9
$INSUNITS
 70
     4
  9
$HYPERLINKBASE
  1

  9
$STYLESHEET
  1

  9
$XEDIT
290
     1
  9
$CEPSNTYPE
380
     0
  9
$PSTYLEMODE
290
     1
  9
$FINGERPRINTGUID
  2
{FADBB508-7673-4B59-89D7-5F5CB292E582}
  9
$VERSIONGUID
  2
{FAEB1C32-E019-11D5-929B-00C0DF256EC4}
  9
$EXTNAMES
290
     1
  9
$PSVPSCALE
 40
0.0
  9
$OLESTARTUP
290
     0
  9
$SORTENTS
280
   127
  9
$INDEXCTL
280
     0
  9
$HIDETEXT
280
     1
  9
$XCLIPFRAME
290
     0
  9
$HALOGAP
280
     0
  9
$OBSCOLOR
 70
   257
  9
$OBSLTYPE
280
     0
  9
$INTERSECTIONDISPLAY
280
     0
  9
$INTERSECTIONCOLOR
 70
   257
  9
$DIMASSOC
280
     2
  9
$PROJECTNAME
  1

  0
ENDSEC
  0
SECTION
  2
CLASSES
  0
CLASS
  1
ACDBDICTIONARYWDFLT
  2
AcDbDictionaryWithDefault
  3
ObjectDBX Classes
 90
        0
 91
        4
280
     0
281
     0
  0
CLASS
  1
VISUALSTYLE
  2
AcDbVisualStyle
  3
ObjectDBX Classes
 90
     4095
 91
        4
280
     0
281
     0
  0
ENDSEC
  0
SECTION
  2
TABLES
  0
TABLE
  2
VPORT
  5
8
330
0
100
AcDbSymbolTable
 70
     1
  0
VPORT
  5
29
330
8
100
AcDbSymbolTableRecord
100
AcDbViewportTableRecord
  2
*Active
 70
     0
 10
0.0
 20
0.0
 11
1.0
 21
1.0
 12
0.0
 22
0.0
 13
0.0
 23
0.0
 14
10.0
 24
10.0
 15
10.0
 25
10.0
 16
0.0
 26
0.0
 36
1.0
 17
0.0
 27
0.0
 37
0.0
 40
3267.0
 41
1.414141414141414
 42
50.0
 43
0.0
 44
0.0
 50
0.0
 51
0.0
 71
     0
 72
 10000
 73
     1
 74
     3
 75
     0
 76
     0
 77
     0
 78
     0
281
     0
 65
     1
110
0.0
120
0.0
130
0.0
111
1.0
121
0.0
131
0.0
112
0.0
122
1.0
132
0.0
 79
     0
146
0.0
  0
ENDTAB
  0
TABLE
  2
LTYPE
  5
5
330
0
100
AcDbSymbolTable
 70
     4
  0
LTYPE
  5
14
330
5
100
AcDbSymbolTableRecord
100
AcDbLinetypeTableRecord
  2
ByBlock
 70
     0
  3

 72
    65
 73
     0
 40
0.0
  0
LTYPE
  5
15
330
5
100
AcDbSymbolTableRecord
100
AcDbLinetypeTableRecord
  2
ByLayer
 70
     0
  3

 72
    65
 73
     0
 40
0.0
  0
LTYPE
  5
16
330
5
100
AcDbSymbolTableRecord
100
AcDbLinetypeTableRecord
  2
Continuous
 70
     0
  3
Solid line
 72
    65
 73
     0
 40
0.0
  0
LTYPE
  5
3C
330
5
100
AcDbSymbolTableRecord
100
AcDbLinetypeTableRecord
  2
JWW_DASHED3
 70
     0
  3
---  ------  ------  ------  ---
 72
    65
 73
     2
 40
3.386666666666667
 49
2.54
 74
     0
 49
-0.8466666666666667
 74
     0
  0
LTYPE
  5
3D
330
5
100
AcDbSymbolTableRecord
100
AcDbLinetypeTableRecord
  2
JWW_CENTER1
 70
     0
  3
-----  --  ----------  --  -----
 72
    65
 73
     4
 40
6.773333333333333
 49
4.233333333333333
 74
     0
 49
-0.8466666666666667
 74
     0
 49
0.8466666666666667
 74
     0
 49
-0.8466666666666667
 74
     0
  0
LTYPE
  5
3E
330
5
100
AcDbSymbolTableRecord
100
AcDbLinetypeTableRecord
  2
JWW_CENTER2
 70
     0
  3
-------------  --  -------------
 72
    65
 73
     4
 40
13.54666666666667
 49
11.00666666666667
 74
     0
 49
-0.8466666666666667
 74
     0
 49
0.8466666666666667
 74
     0
 49
-0.8466666666666667
 74
     0
  0
ENDTAB
  0
TABLE
  2
LAYER
  5
2
330
0
100
AcDbSymbolTable
 70
    15
  0
LAYER
  5
10
330
2
100
AcDbSymbolTableRecord
100
AcDbLayerTableRecord
  2
0
 70
     0
 62
     7
  6
Continuous
370
    -3
390
F
  0
LAYER
  5
3F
330
2
100
AcDbSymbolTableRecord
100
AcDbLayerTableRecord
  2
C-2
 70
     0
 62
     7
  6
Continuous
370
    -1
390
F
  0
LAYER
  5
40
330
2
100
AcDbSymbolTableRecord
100
AcDbLayerTableRecord
  2
C-1
 70
     0
 62
     7
  6
Continuous
370
    -1
390
F
  0
LAYER
  5
41
330
2
100
AcDbSymbolTableRecord
100
AcDbLayerTableRecord
  2
C-4
 70
     0
 62
     7
  6
Continuous
370
    -1
390
F
  0
LAYER
  5
42
330
2
100
AcDbSymbolTableRecord
100
AcDbLayerTableRecord
  2
C-5
 70
     0
 62
     7
  6
Continuous
370
    -1
390
F
  0
LAYER
  5
43
330
2
100
AcDbSymbolTableRecord
100
AcDbLayerTableRecord
  2
C-A
 70
     0
 62
     7
  6
Continuous
370
    -1
390
F
  0
LAYER
  5
44
330
2
100
AcDbSymbolTableRecord
100
AcDbLayerTableRecord
  2
D-9
 70
     0
 62
     7
  6
Continuous
370
    -1
390
F
  0
LAYER
  5
45
330
2
100
AcDbSymbolTableRecord
100
AcDbLayerTableRecord
  2
D-A
 70
     0
 62
     7
  6
Continuous
370
    -1
390
F
  0
LAYER
  5
46
330
2
100
AcDbSymbolTableRecord
100
AcDbLayerTableRecord
  2
D-4
 70
     0
 62
     7
  6
Continuous
370
    -1
390
F
  0
LAYER
  5
47
330
2
100
AcDbSymbolTableRecord
100
AcDbLayerTableRecord
  2
D-5
 70
     0
 62
     7
  6
Continuous
370
    -1
390
F
  0
LAYER
  5
48
330
2
100
AcDbSymbolTableRecord
100
AcDbLayerTableRecord
  2
D-6
 70
     0
 62
     7
  6
Continuous
370
    -1
390
F
  0
LAYER
  5
49
330
2
100
AcDbSymbolTableRecord
100
AcDbLayerTableRecord
  2
D-1
 70
     0
 62
     7
  6
Continuous
370
    -1
390
F
  0
LAYER
  5
4A
330
2
100
AcDbSymbolTableRecord
100
AcDbLayerTableRecord
  2
D-2
 70
     0
 62
     7
  6
Continuous
370
    -1
390
F
  0
LAYER
  5
4B
330
2
100
AcDbSymbolTableRecord
100
AcDbLayerTableRecord
  2
D-0
 70
     0
 62
     7
  6
Continuous
370
    -1
390
F
  0
LAYER
  5
4C
330
2
100
AcDbSymbolTableRecord
100
AcDbLayerTableRecord
  2
F-4ﾚｲﾔ
 70
     0
 62
     7
  6
Continuous
370
    -1
390
F
  0
ENDTAB
  0
TABLE
  2
STYLE
  5
3
330
0
100
AcDbSymbolTable
 70
     2
  0
STYLE
  5
11
330
3
100
AcDbSymbolTableRecord
100
AcDbTextStyleTableRecord
  2
Standard
 70
     0
 40
0.0
 41
1.0
 50
0.0
 71
     0
 42
2.5
  3
txt
  4

1001
ACAD
1000

1071
        0
  0
STYLE
  5
3B
330
3
100
AcDbSymbolTableRecord
100
AcDbTextStyleTableRecord
  2
ＭＳ ゴシック
 70
     0
 40
1.0
 41
1.0
 50
0.0
 71
     0
 42
10.0
  3

  4

1001
ACAD
1000
MS Gothic
1071
    32817
  0
ENDTAB
  0
TABLE
  2
VIEW
  5
6
330
0
100
AcDbSymbolTable
 70
     0
  0
ENDTAB
  0
TABLE
  2
UCS
  5
7
330
0
100
AcDbSymbolTable
 70
     0
  0
ENDTAB
  0
TABLE
  2
APPID
  5
9
330
0
100
AcDbSymbolTable
 70
     1
  0
APPID
  5
12
330
9
100
AcDbSymbolTableRecord
100
AcDbRegAppTableRecord
  2
ACAD
 70
     0
  0
ENDTAB
  0
TABLE
  2
DIMSTYLE
  5
A
330
0
100
AcDbSymbolTable
 70
     1
100
AcDbDimStyleTable
  0
DIMSTYLE
105
27
330
A
100
AcDbSymbolTableRecord
100
AcDbDimStyleTableRecord
  2
ISO-25
 70
     0
 41
2.5
 42
0.625
 43
3.75
 44
1.25
 73
     0
 74
     0
 77
     1
 78
     8
140
2.5
141
2.5
143
0.03937007874016
147
0.625
171
     3
172
     1
271
     2
272
     2
274
     3
278
    44
283
     0
284
     8
340
11
  0
ENDTAB
  0
TABLE
  2
BLOCK_RECORD
  5
1
330
0
100
AcDbSymbolTable
 70
     1
  0
BLOCK_RECORD
  5
1F
330
1
100
AcDbSymbolTableRecord
100
AcDbBlockTableRecord
  2
*Model_Space
340
22
  0
BLOCK_RECORD
  5
1B
330
1
100
AcDbSymbolTableRecord
100
AcDbBlockTableRecord
  2
*Paper_Space
340
1E
  0
BLOCK_RECORD
  5
23
330
1
100
AcDbSymbolTableRecord
100
AcDbBlockTableRecord
  2
*Paper_Space0
340
26
  0
ENDTAB
  0
ENDSEC
  0
SECTION
  2
BLOCKS
  0
BLOCK
  5
20
330
1F
100
AcDbEntity
  8
0
100
AcDbBlockBegin
  2
*Model_Space
 70
     0
 10
0.0
 20
0.0
 30
0.0
  3
*Model_Space
  1

  0
ENDBLK
  5
21
330
1F
100
AcDbEntity
  8
0
100
AcDbBlockEnd
  0
BLOCK
  5
1C
330
1B
100
AcDbEntity
 67
     1
  8
0
100
AcDbBlockBegin
  2
*Paper_Space
 70
     0
 10
0.0
 20
0.0
 30
0.0
  3
*Paper_Space
  1

  0
ENDBLK
  5
1D
330
1B
100
AcDbEntity
 67
     1
  8
0
100
AcDbBlockEnd
  0
BLOCK
  5
24
330
23
100
AcDbEntity
  8
0
100
AcDbBlockBegin
  2
*Paper_Space0
 70
     0
 10
0.0
 20
0.0
 30
0.0
  3
*Paper_Space0
  1

  0
ENDBLK
  5
25
330
23
100
AcDbEntity
  8
0
100
AcDbBlockEnd
  0
ENDSEC
  0
SECTION
  2
ENTITIES
  0
LINE
  5
4D
330
1F
100
AcDbEntity
  8
C-2
  6
Continuous
 62
     3
370
     9
100
AcDbLine
 10
-877.1624139837311
 20
493.4865173133645
 30
0.0
 11
-877.1624139837311
 21
643.4866410332759
 31
0.0
  0
LINE
  5
4E
330
1F
100
AcDbEntity
  8
C-2
  6
Continuous
 62
     3
370
     9
100
AcDbLine
 10
-877.1624139837311
 20
643.4866410332759
 30
0.0
 11
-378.1624007869405
 21
643.4866410332759
 31
0.0
  0
LINE
  5
4F
330
1F
100
AcDbEntity
  8
C-2
  6
Continuous
 62
     3
370
     9
100
AcDbLine
 10
-378.1624007869405
 20
643.4866410332759
 30
0.0
 11
-378.1624007869405
 21
493.4865173133645
 31
0.0
  0
LINE
  5
50
330
1F
100
AcDbEntity
  8
C-2
  6
Continuous
 62
     3
370
     9
100
AcDbLine
 10
-378.1624007869405
 20
493.4865173133645
 30
0.0
 11
-877.1624139837311
 21
493.4865173133645
 31
0.0
  0
LINE
  5
51
330
1F
100
AcDbEntity
  8
C-2
  6
Continuous
 62
     3
370
     9
100
AcDbLine
 10
-878.1621945870884
 20
493.4865173133645
 30
0.0
 11
-878.1621945870884
 21
643.4866410332759
 31
0.0
  0
LINE
  5
52
330
1F
100
AcDbEntity
  8
C-2
  6
Continuous
 62
     3
370
     9
100
AcDbLine
 10
-377.1620015840267
 20
493.4865173133645
 30
0.0
 11
-377.1620015840267
 21
643.4866410332759
 31
0.0
  0
LINE
  5
53
330
1F
100
AcDbEntity
  8
C-2
  6
Continuous
 62
     3
370
     9
100
AcDbLine
 10
-377.1620015840267
 20
643.4866410332759
 30
0.0
 11
121.8380116127636
 21
643.4866410332759
 31
0.0
  0
LINE
  5
54
330
1F
100
AcDbEntity
  8
C-2
  6
Continuous
 62
     3
370
     9
100
AcDbLine
 10
121.8380116127636
 20
643.4866410332759
 30
0.0
 11
121.8380116127636
 21
493.4865173133645
 31
0.0
  0
LINE
  5
55
330
1F
100
AcDbEntity
  8
C-2
  6
Continuous
 62
     3
370
     9
100
AcDbLine
 10
121.8380116127636
 20
493.4865173133645
 30
0.0
 11
-377.1620015840267
 21
493.4865173133645
 31
0.0
  0
LINE
  5
56
330
1F
100
AcDbEntity
  8
C-2
  6
Continuous
 62
     3
370
     9
100
AcDbLine
 10
122.8376684962097
 20
643.4866410332759
 30
0.0
 11
122.8376684962097
 21
493.4865173133645
 31
0.0
  0
LINE
  5
57
330
1F
100
AcDbEntity
  8
C-2
  6
Continuous
 62
     3
370
     9
100
AcDbLine
 10
-878.1621945870884
 20
643.4866410332759
 30
0.0
 11
-1128.162400786941
 21
643.4866410332759
 31
0.0
  0
LINE
  5
58
330
1F
100
AcDbEntity
  8
C-2
  6
Continuous
 62
     3
370
     9
100
AcDbLine
 10
-878.1621945870884
 20
493.4865173133645
 30
0.0
 11
-1128.162400786941
 21
493.4865173133645
 31
0.0
  0
LINE
  5
59
330
1F
100
AcDbEntity
  8
C-2
  6
Continuous
 62
     3
370
     9
100
AcDbLine
 10
122.8376684962097
 20
643.4866410332759
 30
0.0
 11
372.8379984159733
 21
643.4866410332759
 31
0.0
  0
LINE
  5
5A
330
1F
100
AcDbEntity
  8
C-2
  6
Continuous
 62
     3
370
     9
100
AcDbLine
 10
122.8376684962097
 20
493.4865173133645
 30
0.0
 11
372.8379984159733
 21
493.4865173133645
 31
0.0
  0
LINE
  5
5B
330
1F
100
AcDbEntity
  8
C-1
  6
Continuous
 62
     2
370
     9
100
AcDbLine
 10
-1128.162400786941
 20
644.4865453565444
 30
0.0
 11
372.8379984159733
 21
644.4865453565444
 31
0.0
  0
LINE
  5
5C
330
1F
100
AcDbEntity
  8
C-1
  6
JWW_DASHED3
 62
     2
370
     9
100
AcDbLine
 10
-1128.162400786941
 20
618.4863111135123
 30
0.0
 11
372.8379984159733
 21
618.4863111135123
 31
0.0
  0
LINE
  5
5D
330
1F
100
AcDbEntity
  8
C-1
  6
JWW_DASHED3
 62
     2
370
     9
100
AcDbLine
 10
372.8379984159733
 20
518.486847233128
 30
0.0
 11
-1128.162400786941
 21
518.486847233128
 31
0.0
  0
LINE
  5
5E
330
1F
100
AcDbEntity
  8
C-1
  6
Continuous
 62
     2
370
     9
100
AcDbLine
 10
372.8379984159733
 20
492.486612990096
 30
0.0
 11
-1128.162400786941
 21
492.486612990096
 31
0.0
  0
LINE
  5
5F
330
1F
100
AcDbEntity
  8
C-4
  6
Continuous
 62
     7
370
     9
100
AcDbLine
 10
-878.1621945870884
 20
663.4867070172286
 30
0.0
 11
-878.1621945870884
 21
746.4866839228453
 31
0.0
  0
LINE
  5
60
330
1F
100
AcDbEntity
  8
C-4
  6
Continuous
 62
     7
370
     9
100
AcDbLine
 10
-877.1624139837311
 20
663.4867070172286
 30
0.0
 11
-877.1624139837311
 21
826.4862055391882
 31
0.0
  0
LINE
  5
61
330
1F
100
AcDbEntity
  8
C-4
  6
Continuous
 62
     7
370
     9
100
AcDbLine
 10
-877.1624139837311
 20
743.4862286335715
 30
0.0
 11
-378.1624007869405
 21
743.4862286335715
 31
0.0
  0
LINE
  5
62
330
1F
100
AcDbEntity
  8
C-4
  6
Continuous
 62
     7
370
     9
100
AcDbLine
 10
-378.1624007869405
 20
663.4867070172286
 30
0.0
 11
-378.1624007869405
 21
746.4866839228453
 31
0.0
  0
LINE
  5
63
330
1F
100
AcDbEntity
  8
C-4
  6
Continuous
 62
     7
370
     9
100
AcDbLine
 10
-378.1624007869405
 20
743.4862286335715
 30
0.0
 11
-377.1620015840267
 21
743.4862286335715
 31
0.0
  0
LINE
  5
64
330
1F
100
AcDbEntity
  8
C-4
  6
Continuous
 62
     7
370
     9
100
AcDbLine
 10
-377.1620015840267
 20
663.4867070172286
 30
0.0
 11
-377.1620015840267
 21
826.4862055391882
 31
0.0
  0
LINE
  5
65
330
1F
100
AcDbEntity
  8
C-4
  6
Continuous
 62
     7
370
     9
100
AcDbLine
 10
-377.1620015840267
 20
743.4862286335715
 30
0.0
 11
121.8380116127636
 21
743.4862286335715
 31
0.0
  0
LINE
  5
66
330
1F
100
AcDbEntity
  8
C-4
  6
Continuous
 62
     7
370
     9
100
AcDbLine
 10
121.8380116127636
 20
663.4867070172286
 30
0.0
 11
121.8380116127636
 21
746.4866839228453
 31
0.0
  0
LINE
  5
67
330
1F
100
AcDbEntity
  8
C-4
  6
Continuous
 62
     7
370
     9
100
AcDbLine
 10
122.8376684962097
 20
663.4867070172286
 30
0.0
 11
122.8376684962097
 21
826.4862055391882
 31
0.0
  0
LINE
  5
68
330
1F
100
AcDbEntity
  8
C-4
  6
Continuous
 62
     7
370
     9
100
AcDbLine
 10
-1128.162400786941
 20
823.4864925693824
 30
0.0
 11
-377.1620015840267
 21
823.4864925693824
 31
0.0
  0
LINE
  5
69
330
1F
100
AcDbEntity
  8
C-4
  6
Continuous
 62
     7
370
     9
100
AcDbLine
 10
-377.1620015840267
 20
823.4864925693824
 30
0.0
 11
372.8379984159733
 21
823.4864925693824
 31
0.0
  0
LINE
  5
6A
330
1F
100
AcDbEntity
  8
C-4
  6
Continuous
 62
     7
370
     9
100
AcDbLine
 10
-1128.162400786941
 20
743.4862286335715
 30
0.0
 11
-877.1624139837311
 21
743.4862286335715
 31
0.0
  0
LINE
  5
6B
330
1F
100
AcDbEntity
  8
C-4
  6
Continuous
 62
     7
370
     9
100
AcDbLine
 10
121.8380116127636
 20
743.4862286335715
 30
0.0
 11
372.8379984159733
 21
743.4862286335715
 31
0.0
  0
LINE
  5
6C
330
1F
100
AcDbEntity
  8
C-2
  6
Continuous
 62
     3
370
     9
100
AcDbLine
 10
-1148.161971891248
 20
553.4857255059321
 30
0.0
 11
-1108.161839923343
 21
583.4864430814179
 31
0.0
  0
LINE
  5
6D
330
1F
100
AcDbEntity
  8
C-2
  6
Continuous
 62
     3
370
     9
100
AcDbLine
 10
-1148.161971891248
 20
553.4857255059321
 30
0.0
 11
-1128.162400786941
 21
553.4857255059321
 31
0.0
  0
LINE
  5
6E
330
1F
100
AcDbEntity
  8
C-2
  6
Continuous
 62
     3
370
     9
100
AcDbLine
 10
-1128.162400786941
 20
583.4864430814179
 30
0.0
 11
-1108.161839923343
 21
583.4864430814179
 31
0.0
  0
LINE
  5
6F
330
1F
100
AcDbEntity
  8
C-2
  6
Continuous
 62
     3
370
     9
100
AcDbLine
 10
352.8379324320204
 20
553.4857255059321
 30
0.0
 11
392.8380643999259
 21
583.4864430814179
 31
0.0
  0
LINE
  5
70
330
1F
100
AcDbEntity
  8
C-2
  6
Continuous
 62
     3
370
     9
100
AcDbLine
 10
352.8379324320204
 20
553.4857255059321
 30
0.0
 11
372.8379984159733
 21
553.4857255059321
 31
0.0
  0
LINE
  5
71
330
1F
100
AcDbEntity
  8
C-2
  6
Continuous
 62
     3
370
     9
100
AcDbLine
 10
372.8379984159733
 20
583.4864430814179
 30
0.0
 11
392.8380643999259
 21
583.4864430814179
 31
0.0
  0
LINE
  5
72
330
1F
100
AcDbEntity
  8
C-2
  6
Continuous
 62
     3
370
     9
100
AcDbLine
 10
-1128.162400786941
 20
470.4868620795173
 30
0.0
 11
-1128.162400786941
 21
553.4857255059321
 31
0.0
  0
LINE
  5
73
330
1F
100
AcDbEntity
  8
C-2
  6
Continuous
 62
     3
370
     9
100
AcDbLine
 10
-1128.162400786941
 20
583.4864430814179
 30
0.0
 11
-1128.162400786941
 21
666.4864199870342
 31
0.0
  0
LINE
  5
74
330
1F
100
AcDbEntity
  8
C-2
  6
Continuous
 62
     3
370
     9
100
AcDbLine
 10
372.8379984159733
 20
666.4864199870342
 30
0.0
 11
372.8379984159733
 21
583.4864430814179
 31
0.0
  0
LINE
  5
75
330
1F
100
AcDbEntity
  8
C-2
  6
Continuous
 62
     3
370
     9
100
AcDbLine
 10
372.8379984159733
 20
553.4857255059321
 30
0.0
 11
372.8379984159733
 21
470.4868620795173
 31
0.0
  0
LINE
  5
76
330
1F
100
AcDbEntity
  8
C-5
  6
Continuous
 62
     7
370
     9
100
AcDbLine
 10
-90.16174754580874
 20
385.4862104879845
 30
0.0
 11
-90.16174754580874
 21
320.4866146396947
 31
0.0
  0
LINE
  5
77
330
1F
100
AcDbEntity
  8
C-5
  6
Continuous
 62
     7
370
     9
100
AcDbLine
 10
-90.16174754580874
 20
320.4866146396947
 30
0.0
 11
-665.1621599455132
 21
320.4866146396947
 31
0.0
  0
LINE
  5
78
330
1F
100
AcDbEntity
  8
C-5
  6
Continuous
 62
     7
370
     9
100
AcDbLine
 10
-665.1621599455132
 20
385.4862104879845
 30
0.0
 11
-90.16174754580874
 21
385.4862104879845
 31
0.0
  0
LINE
  5
79
330
1F
100
AcDbEntity
  8
C-5
  6
Continuous
 62
     7
370
     9
100
AcDbLine
 10
-665.1621599455132
 20
320.4866146396947
 30
0.0
 11
-665.1621599455132
 21
385.4862104879845
 31
0.0
  0
LINE
  5
7A
330
1F
100
AcDbEntity
  8
C-A
  6
Continuous
 62
     3
370
     9
100
AcDbLine
 10
-584.3609333038324
 20
643.4866410332759
 30
0.0
 11
-670.963757746928
 21
493.4865173133645
 31
0.0
  0
LINE
  5
7B
330
1F
100
AcDbEntity
  8
C-A
  6
Continuous
 62
     3
370
     9
100
AcDbLine
 10
-384.1623216061973
 20
640.4861857440022
 30
0.0
 11
-384.1623216061973
 21
496.486106563259
 31
0.0
  0
LINE
  5
7C
330
1F
100
AcDbEntity
  8
C-A
  6
Continuous
 62
     3
370
     9
100
AcDbLine
 10
-399.1623710941619
 20
640.4861857440022
 30
0.0
 11
-399.1623710941619
 21
496.486106563259
 31
0.0
  0
LINE
  5
7D
330
1F
100
AcDbEntity
  8
C-A
  6
Continuous
 62
     3
370
     9
100
AcDbLine
 10
-393.1623265549939
 20
640.4861857440022
 30
0.0
 11
-393.1623265549939
 21
496.486106563259
 31
0.0
  0
LINE
  5
7E
330
1F
100
AcDbEntity
  8
C-A
  6
Continuous
 62
     3
370
     9
100
AcDbLine
 10
-393.1623265549939
 20
571.486106563259
 30
0.0
 11
-384.1623216061973
 21
571.486106563259
 31
0.0
  0
LINE
  5
7F
330
1F
100
AcDbEntity
  8
C-A
  6
Continuous
 62
     3
370
     9
100
AcDbLine
 10
-393.1623265549939
 20
565.4860620240911
 30
0.0
 11
-384.1623216061973
 21
565.4860620240911
 31
0.0
  0
LINE
  5
80
330
1F
100
AcDbEntity
  8
C-A
  6
Continuous
 62
     3
370
     9
100
AcDbLine
 10
-414.1622968622153
 20
640.4861857440022
 30
0.0
 11
-414.1622968622153
 21
496.486106563259
 31
0.0
  0
LINE
  5
81
330
1F
100
AcDbEntity
  8
C-A
  6
Continuous
 62
     3
370
     9
100
AcDbLine
 10
-408.162252323047
 20
640.4861857440022
 30
0.0
 11
-408.162252323047
 21
496.486106563259
 31
0.0
  0
LINE
  5
82
330
1F
100
AcDbEntity
  8
C-A
  6
Continuous
 62
     3
370
     9
100
AcDbLine
 10
-408.162252323047
 20
571.486106563259
 30
0.0
 11
-399.1623710941619
 21
571.486106563259
 31
0.0
  0
LINE
  5
83
330
1F
100
AcDbEntity
  8
C-A
  6
Continuous
 62
     3
370
     9
100
AcDbLine
 10
-408.162252323047
 20
565.4860620240911
 30
0.0
 11
-399.1623710941619
 21
565.4860620240911
 31
0.0
  0
LINE
  5
84
330
1F
100
AcDbEntity
  8
C-A
  6
Continuous
 62
     3
370
     9
100
AcDbLine
 10
-429.1623463501796
 20
640.4861857440022
 30
0.0
 11
-429.1623463501796
 21
496.486106563259
 31
0.0
  0
LINE
  5
85
330
1F
100
AcDbEntity
  8
C-A
  6
Continuous
 62
     3
370
     9
100
AcDbLine
 10
-423.1623018110116
 20
640.4861857440022
 30
0.0
 11
-423.1623018110116
 21
496.486106563259
 31
0.0
  0
LINE
  5
86
330
1F
100
AcDbEntity
  8
C-A
  6
Continuous
 62
     3
370
     9
100
AcDbLine
 10
-423.1623018110116
 20
571.486106563259
 30
0.0
 11
-414.1624205821265
 21
571.486106563259
 31
0.0
  0
LINE
  5
87
330
1F
100
AcDbEntity
  8
C-A
  6
Continuous
 62
     3
370
     9
100
AcDbLine
 10
-423.1623018110116
 20
565.4860620240911
 30
0.0
 11
-414.1624205821265
 21
565.4860620240911
 31
0.0
  0
LINE
  5
88
330
1F
100
AcDbEntity
  8
C-A
  6
Continuous
 62
     3
370
     9
100
AcDbLine
 10
-444.162272118233
 20
640.4861857440022
 30
0.0
 11
-444.162272118233
 21
496.486106563259
 31
0.0
  0
LINE
  5
89
330
1F
100
AcDbEntity
  8
C-A
  6
Continuous
 62
     3
370
     9
100
AcDbLine
 10
-438.1622275790647
 20
640.4861857440022
 30
0.0
 11
-438.1622275790647
 21
496.486106563259
 31
0.0
  0
LINE
  5
8A
330
1F
100
AcDbEntity
  8
C-A
  6
Continuous
 62
     3
370
     9
100
AcDbLine
 10
-438.1622275790647
 20
571.486106563259
 30
0.0
 11
-429.1623463501796
 21
571.486106563259
 31
0.0
  0
LINE
  5
8B
330
1F
100
AcDbEntity
  8
C-A
  6
Continuous
 62
     3
370
     9
100
AcDbLine
 10
-438.1622275790647
 20
565.4860620240911
 30
0.0
 11
-429.1623463501796
 21
565.4860620240911
 31
0.0
  0
LINE
  5
8C
330
1F
100
AcDbEntity
  8
C-A
  6
Continuous
 62
     3
370
     9
100
AcDbLine
 10
-459.1623216061973
 20
640.4861857440022
 30
0.0
 11
-459.1623216061973
 21
496.486106563259
 31
0.0
  0
LINE
  5
8D
330
1F
100
AcDbEntity
  8
C-A
  6
Continuous
 62
     3
370
     9
100
AcDbLine
 10
-453.1624007869405
 20
640.4861857440022
 30
0.0
 11
-453.1624007869405
 21
496.486106563259
 31
0.0
  0
LINE
  5
8E
330
1F
100
AcDbEntity
  8
C-A
  6
Continuous
 62
     3
370
     9
100
AcDbLine
 10
-453.1624007869405
 20
571.486106563259
 30
0.0
 11
-444.1623958381442
 21
571.486106563259
 31
0.0
  0
LINE
  5
8F
330
1F
100
AcDbEntity
  8
C-A
  6
Continuous
 62
     3
370
     9
100
AcDbLine
 10
-453.1624007869405
 20
565.4860620240911
 30
0.0
 11
-444.1623958381442
 21
565.4860620240911
 31
0.0
  0
LINE
  5
90
330
1F
100
AcDbEntity
  8
C-A
  6
Continuous
 62
     3
370
     9
100
AcDbLine
 10
-474.1622473742507
 20
640.4861857440022
 30
0.0
 11
-474.1622473742507
 21
496.486106563259
 31
0.0
  0
LINE
  5
91
330
1F
100
AcDbEntity
  8
C-A
  6
Continuous
 62
     3
370
     9
100
AcDbLine
 10
-468.1623265549939
 20
640.4861857440022
 30
0.0
 11
-468.1623265549939
 21
496.486106563259
 31
0.0
  0
LINE
  5
92
330
1F
100
AcDbEntity
  8
C-A
  6
Continuous
 62
     3
370
     9
100
AcDbLine
 10
-468.1623265549939
 20
571.486106563259
 30
0.0
 11
-459.1623216061973
 21
571.486106563259
 31
0.0
  0
LINE
  5
93
330
1F
100
AcDbEntity
  8
C-A
  6
Continuous
 62
     3
370
     9
100
AcDbLine
 10
-468.1623265549939
 20
565.4860620240911
 30
0.0
 11
-459.1623216061973
 21
565.4860620240911
 31
0.0
  0
LINE
  5
94
330
1F
100
AcDbEntity
  8
C-A
  6
Continuous
 62
     3
370
     9
100
AcDbLine
 10
-489.1624205821265
 20
640.4861857440022
 30
0.0
 11
-489.1624205821265
 21
496.486106563259
 31
0.0
  0
LINE
  5
95
330
1F
100
AcDbEntity
  8
C-A
  6
Continuous
 62
     3
370
     9
100
AcDbLine
 10
-483.1623760429585
 20
640.4861857440022
 30
0.0
 11
-483.1623760429585
 21
496.486106563259
 31
0.0
  0
LINE
  5
96
330
1F
100
AcDbEntity
  8
C-A
  6
Continuous
 62
     3
370
     9
100
AcDbLine
 10
-483.1623760429585
 20
571.486106563259
 30
0.0
 11
-474.1623710941619
 21
571.486106563259
 31
0.0
  0
LINE
  5
97
330
1F
100
AcDbEntity
  8
C-A
  6
Continuous
 62
     3
370
     9
100
AcDbLine
 10
-483.1623760429585
 20
565.4860620240911
 30
0.0
 11
-474.1623710941619
 21
565.4860620240911
 31
0.0
  0
LINE
  5
98
330
1F
100
AcDbEntity
  8
C-A
  6
Continuous
 62
     3
370
     9
100
AcDbLine
 10
-504.1623463501796
 20
640.4861857440022
 30
0.0
 11
-504.1623463501796
 21
496.486106563259
 31
0.0
  0
LINE
  5
99
330
1F
100
AcDbEntity
  8
C-A
  6
Continuous
 62
     3
370
     9
100
AcDbLine
 10
-498.1623018110116
 20
640.4861857440022
 30
0.0
 11
-498.1623018110116
 21
496.486106563259
 31
0.0
  0
LINE
  5
9A
330
1F
100
AcDbEntity
  8
C-A
  6
Continuous
 62
     3
370
     9
100
AcDbLine
 10
-498.1623018110116
 20
571.486106563259
 30
0.0
 11
-489.1624205821265
 21
571.486106563259
 31
0.0
  0
LINE
  5
9B
330
1F
100
AcDbEntity
  8
C-A
  6
Continuous
 62
     3
370
     9
100
AcDbLine
 10
-498.1623018110116
 20
565.4860620240911
 30
0.0
 11
-489.1624205821265
 21
565.4860620240911
 31
0.0
  0
LINE
  5
9C
330
1F
100
AcDbEntity
  8
C-A
  6
Continuous
 62
     3
370
     9
100
AcDbLine
 10
-519.1623958381442
 20
640.4861857440022
 30
0.0
 11
-519.1623958381442
 21
496.486106563259
 31
0.0
  0
LINE
  5
9D
330
1F
100
AcDbEntity
  8
C-A
  6
Continuous
 62
     3
370
     9
100
AcDbLine
 10
-513.1622275790647
 20
640.4861857440022
 30
0.0
 11
-513.1622275790647
 21
496.486106563259
 31
0.0
  0
LINE
  5
9E
330
1F
100
AcDbEntity
  8
C-A
  6
Continuous
 62
     3
370
     9
100
AcDbLine
 10
-513.1622275790647
 20
571.486106563259
 30
0.0
 11
-504.1623463501796
 21
571.486106563259
 31
0.0
  0
LINE
  5
9F
330
1F
100
AcDbEntity
  8
C-A
  6
Continuous
 62
     3
370
     9
100
AcDbLine
 10
-513.1622275790647
 20
565.4860620240911
 30
0.0
 11
-504.1623463501796
 21
565.4860620240911
 31
0.0
  0
LINE
  5
A0
330
1F
100
AcDbEntity
  8
C-A
  6
Continuous
 62
     3
370
     9
100
AcDbLine
 10
-534.1623216061973
 20
640.4861857440022
 30
0.0
 11
-534.1623216061973
 21
496.486106563259
 31
0.0
  0
LINE
  5
A1
330
1F
100
AcDbEntity
  8
C-A
  6
Continuous
 62
     3
370
     9
100
AcDbLine
 10
-528.1622770670293
 20
640.4861857440022
 30
0.0
 11
-528.1622770670293
 21
496.486106563259
 31
0.0
  0
LINE
  5
A2
330
1F
100
AcDbEntity
  8
C-A
  6
Continuous
 62
     3
370
     9
100
AcDbLine
 10
-528.1622770670293
 20
571.486106563259
 30
0.0
 11
-519.1623958381442
 21
571.486106563259
 31
0.0
  0
LINE
  5
A3
330
1F
100
AcDbEntity
  8
C-A
  6
Continuous
 62
     3
370
     9
100
AcDbLine
 10
-528.1622770670293
 20
565.4860620240911
 30
0.0
 11
-519.1623958381442
 21
565.4860620240911
 31
0.0
  0
LINE
  5
A4
330
1F
100
AcDbEntity
  8
C-A
  6
Continuous
 62
     3
370
     9
100
AcDbLine
 10
-549.1622473742507
 20
640.4861857440022
 30
0.0
 11
-549.1622473742507
 21
496.486106563259
 31
0.0
  0
LINE
  5
A5
330
1F
100
AcDbEntity
  8
C-A
  6
Continuous
 62
     3
370
     9
100
AcDbLine
 10
-543.162450274905
 20
640.4861857440022
 30
0.0
 11
-543.162450274905
 21
496.486106563259
 31
0.0
  0
LINE
  5
A6
330
1F
100
AcDbEntity
  8
C-A
  6
Continuous
 62
     3
370
     9
100
AcDbLine
 10
-543.162450274905
 20
571.486106563259
 30
0.0
 11
-534.1624453261088
 21
571.486106563259
 31
0.0
  0
LINE
  5
A7
330
1F
100
AcDbEntity
  8
C-A
  6
Continuous
 62
     3
370
     9
100
AcDbLine
 10
-543.162450274905
 20
565.4860620240911
 30
0.0
 11
-534.1624453261088
 21
565.4860620240911
 31
0.0
  0
LINE
  5
A8
330
1F
100
AcDbEntity
  8
C-A
  6
Continuous
 62
     3
370
     9
100
AcDbLine
 10
-564.1622968622153
 20
640.4861857440022
 30
0.0
 11
-564.1622968622153
 21
496.486106563259
 31
0.0
  0
LINE
  5
A9
330
1F
100
AcDbEntity
  8
C-A
  6
Continuous
 62
     3
370
     9
100
AcDbLine
 10
-558.1623760429585
 20
640.4861857440022
 30
0.0
 11
-558.1623760429585
 21
496.486106563259
 31
0.0
  0
LINE
  5
AA
330
1F
100
AcDbEntity
  8
C-A
  6
Continuous
 62
     3
370
     9
100
AcDbLine
 10
-558.1623760429585
 20
571.486106563259
 30
0.0
 11
-549.1623710941619
 21
571.486106563259
 31
0.0
  0
LINE
  5
AB
330
1F
100
AcDbEntity
  8
C-A
  6
Continuous
 62
     3
370
     9
100
AcDbLine
 10
-558.1623760429585
 20
565.4860620240911
 30
0.0
 11
-549.1623710941619
 21
565.4860620240911
 31
0.0
  0
LINE
  5
AC
330
1F
100
AcDbEntity
  8
C-A
  6
Continuous
 62
     3
370
     9
100
AcDbLine
 10
-579.1624700700911
 20
640.4861857440022
 30
0.0
 11
-579.1624700700911
 21
496.486106563259
 31
0.0
  0
LINE
  5
AD
330
1F
100
AcDbEntity
  8
C-A
  6
Continuous
 62
     3
370
     9
100
AcDbLine
 10
-573.1623018110116
 20
640.4861857440022
 30
0.0
 11
-573.1623018110116
 21
496.486106563259
 31
0.0
  0
LINE
  5
AE
330
1F
100
AcDbEntity
  8
C-A
  6
Continuous
 62
     3
370
     9
100
AcDbLine
 10
-573.1623018110116
 20
571.486106563259
 30
0.0
 11
-564.1622968622153
 21
571.486106563259
 31
0.0
  0
LINE
  5
AF
330
1F
100
AcDbEntity
  8
C-A
  6
Continuous
 62
     3
370
     9
100
AcDbLine
 10
-573.1623018110116
 20
565.4860620240911
 30
0.0
 11
-564.1622968622153
 21
565.4860620240911
 31
0.0
  0
LINE
  5
B0
330
1F
100
AcDbEntity
  8
C-A
  6
Continuous
 62
     3
370
     9
100
AcDbLine
 10
-588.1623512989762
 20
571.486106563259
 30
0.0
 11
-579.1624700700911
 21
571.486106563259
 31
0.0
  0
LINE
  5
B1
330
1F
100
AcDbEntity
  8
C-A
  6
Continuous
 62
     3
370
     9
100
AcDbLine
 10
-588.1623512989762
 20
565.4860620240911
 30
0.0
 11
-579.1624700700911
 21
565.4860620240911
 31
0.0
  0
LINE
  5
B2
330
1F
100
AcDbEntity
  8
C-A
  6
Continuous
 62
     3
370
     9
100
AcDbLine
 10
-603.1624007869408
 20
571.486106563259
 30
0.0
 11
-594.1625195580557
 21
571.486106563259
 31
0.0
  0
LINE
  5
B3
330
1F
100
AcDbEntity
  8
C-A
  6
Continuous
 62
     3
370
     9
100
AcDbLine
 10
-603.1624007869408
 20
565.4860620240911
 30
0.0
 11
-594.1625195580557
 21
565.4860620240911
 31
0.0
  0
LINE
  5
B4
330
1F
100
AcDbEntity
  8
C-A
  6
Continuous
 62
     3
370
     9
100
AcDbLine
 10
-618.1623265549939
 20
571.486106563259
 30
0.0
 11
-609.1624453261088
 21
571.486106563259
 31
0.0
  0
LINE
  5
B5
330
1F
100
AcDbEntity
  8
C-A
  6
Continuous
 62
     3
370
     9
100
AcDbLine
 10
-618.1623265549939
 20
565.4860620240911
 30
0.0
 11
-609.1624453261088
 21
565.4860620240911
 31
0.0
  0
LINE
  5
B6
330
1F
100
AcDbEntity
  8
C-A
  6
Continuous
 62
     3
370
     9
100
AcDbLine
 10
-586.0930120622786
 20
640.4861857440022
 30
0.0
 11
-378.1624007869405
 21
640.4861857440022
 31
0.0
  0
LINE
  5
B7
330
1F
100
AcDbEntity
  8
C-A
  6
Continuous
 62
     3
370
     9
100
AcDbLine
 10
-588.1623512989762
 20
636.9025147927775
 30
0.0
 11
-588.1623512989762
 21
496.486106563259
 31
0.0
  0
LINE
  5
B8
330
1F
100
AcDbEntity
  8
C-A
  6
Continuous
 62
     3
370
     9
100
AcDbLine
 10
-594.1623958381442
 20
626.5100422421019
 30
0.0
 11
-594.1623958381442
 21
496.486106563259
 31
0.0
  0
LINE
  5
B9
330
1F
100
AcDbEntity
  8
C-A
  6
Continuous
 62
     3
370
     9
100
AcDbLine
 10
-603.1624007869408
 20
610.9214571359996
 30
0.0
 11
-603.1624007869408
 21
496.486106563259
 31
0.0
  0
LINE
  5
BA
330
1F
100
AcDbEntity
  8
C-A
  6
Continuous
 62
     3
370
     9
100
AcDbLine
 10
-609.1623216061973
 20
600.5296031848807
 30
0.0
 11
-609.1623216061973
 21
496.486106563259
 31
0.0
  0
LINE
  5
BB
330
1F
100
AcDbEntity
  8
C-A
  6
Continuous
 62
     3
370
     9
100
AcDbLine
 10
-618.1623265549939
 20
584.9411417986897
 30
0.0
 11
-618.1623265549939
 21
496.486106563259
 31
0.0
  0
LINE
  5
BC
330
1F
100
AcDbEntity
  8
C-A
  6
Continuous
 62
     3
370
     9
100
AcDbLine
 10
-624.1623710941619
 20
574.5481743683689
 30
0.0
 11
-624.1623710941619
 21
496.486106563259
 31
0.0
  0
LINE
  5
BD
330
1F
100
AcDbEntity
  8
C-A
  6
Continuous
 62
     3
370
     9
100
AcDbLine
 10
-625.9303286268901
 20
571.486106563259
 30
0.0
 11
-624.1623710941619
 21
571.486106563259
 31
0.0
  0
LINE
  5
BE
330
1F
100
AcDbEntity
  8
C-A
  6
Continuous
 62
     3
370
     9
100
AcDbLine
 10
-629.3943624238705
 20
565.4860620240911
 30
0.0
 11
-624.1623710941619
 21
565.4860620240911
 31
0.0
  0
LINE
  5
BF
330
1F
100
AcDbEntity
  8
C-A
  6
Continuous
 62
     3
370
     9
100
AcDbLine
 10
-633.162252323047
 20
558.960207861823
 30
0.0
 11
-633.162252323047
 21
496.486106563259
 31
0.0
  0
LINE
  5
C0
330
1F
100
AcDbEntity
  8
C-A
  6
Continuous
 62
     3
370
     9
100
AcDbLine
 10
-639.1624205821265
 20
548.5677353111475
 30
0.0
 11
-639.1624205821265
 21
496.486106563259
 31
0.0
  0
LINE
  5
C1
330
1F
100
AcDbEntity
  8
C-A
  6
Continuous
 62
     3
370
     9
100
AcDbLine
 10
-648.1624255309227
 20
532.9792739249567
 30
0.0
 11
-648.1624255309227
 21
496.486106563259
 31
0.0
  0
LINE
  5
C2
330
1F
100
AcDbEntity
  8
C-A
  6
Continuous
 62
     3
370
     9
100
AcDbLine
 10
-654.1623463501796
 20
522.5872962539262
 30
0.0
 11
-654.1623463501796
 21
496.486106563259
 31
0.0
  0
LINE
  5
C3
330
1F
100
AcDbEntity
  8
C-A
  6
Continuous
 62
     3
370
     9
100
AcDbLine
 10
-663.1624750188873
 20
506.99833998809
 30
0.0
 11
-663.1624750188873
 21
496.486106563259
 31
0.0
  0
LINE
  5
C4
330
1F
100
AcDbEntity
  8
C-A
  6
Continuous
 62
     3
370
     9
100
AcDbLine
 10
-669.162272118233
 20
496.606486036971
 30
0.0
 11
-669.162272118233
 21
496.486106563259
 31
0.0
  0
LINE
  5
C5
330
1F
100
AcDbEntity
  8
C-A
  6
Continuous
 62
     3
370
     9
100
AcDbLine
 10
-378.1624007869405
 20
496.486106563259
 30
0.0
 11
-669.2316789884819
 21
496.486106563259
 31
0.0
  0
LINE
  5
C6
330
1F
100
AcDbEntity
  8
C-A
  6
Continuous
 62
     3
370
     9
100
AcDbLine
 10
-170.9634690671348
 20
493.4865173133645
 30
0.0
 11
-84.36064462403948
 21
643.4866410332759
 31
0.0
  0
LINE
  5
C7
330
1F
100
AcDbEntity
  8
C-A
  6
Continuous
 62
     3
370
     9
100
AcDbLine
 10
-371.1620807647699
 20
496.486106563259
 30
0.0
 11
-371.1620807647699
 21
640.4861857440022
 31
0.0
  0
LINE
  5
C8
330
1F
100
AcDbEntity
  8
C-A
  6
Continuous
 62
     3
370
     9
100
AcDbLine
 10
-356.1620312768056
 20
496.486106563259
 30
0.0
 11
-356.1620312768056
 21
640.4861857440022
 31
0.0
  0
LINE
  5
C9
330
1F
100
AcDbEntity
  8
C-A
  6
Continuous
 62
     3
370
     9
100
AcDbLine
 10
-362.1620758159736
 20
496.486106563259
 30
0.0
 11
-362.1620758159736
 21
640.4861857440022
 31
0.0
  0
LINE
  5
CA
330
1F
100
AcDbEntity
  8
C-A
  6
Continuous
 62
     3
370
     9
100
AcDbLine
 10
-362.1620758159736
 20
565.4860620240911
 30
0.0
 11
-371.1620807647699
 21
565.4860620240911
 31
0.0
  0
LINE
  5
CB
330
1F
100
AcDbEntity
  8
C-A
  6
Continuous
 62
     3
370
     9
100
AcDbLine
 10
-362.1620758159736
 20
571.486106563259
 30
0.0
 11
-371.1620807647699
 21
571.486106563259
 31
0.0
  0
LINE
  5
CC
330
1F
100
AcDbEntity
  8
C-A
  6
Continuous
 62
     3
370
     9
100
AcDbLine
 10
-341.1621055087522
 20
496.486106563259
 30
0.0
 11
-341.1621055087522
 21
640.4861857440022
 31
0.0
  0
LINE
  5
CD
330
1F
100
AcDbEntity
  8
C-A
  6
Continuous
 62
     3
370
     9
100
AcDbLine
 10
-347.1621500479205
 20
496.486106563259
 30
0.0
 11
-347.1621500479205
 21
640.4861857440022
 31
0.0
  0
LINE
  5
CE
330
1F
100
AcDbEntity
  8
C-A
  6
Continuous
 62
     3
370
     9
100
AcDbLine
 10
-347.1621500479205
 20
565.4860620240911
 30
0.0
 11
-356.1620312768056
 21
565.4860620240911
 31
0.0
  0
LINE
  5
CF
330
1F
100
AcDbEntity
  8
C-A
  6
Continuous
 62
     3
370
     9
100
AcDbLine
 10
-347.1621500479205
 20
571.486106563259
 30
0.0
 11
-356.1620312768056
 21
571.486106563259
 31
0.0
  0
LINE
  5
D0
330
1F
100
AcDbEntity
  8
C-A
  6
Continuous
 62
     3
370
     9
100
AcDbLine
 10
-326.1620560207876
 20
496.486106563259
 30
0.0
 11
-326.1620560207876
 21
640.4861857440022
 31
0.0
  0
LINE
  5
D1
330
1F
100
AcDbEntity
  8
C-A
  6
Continuous
 62
     3
370
     9
100
AcDbLine
 10
-332.1621005599559
 20
496.486106563259
 30
0.0
 11
-332.1621005599559
 21
640.4861857440022
 31
0.0
  0
LINE
  5
D2
330
1F
100
AcDbEntity
  8
C-A
  6
Continuous
 62
     3
370
     9
100
AcDbLine
 10
-332.1621005599559
 20
565.4860620240911
 30
0.0
 11
-341.161981788841
 21
565.4860620240911
 31
0.0
  0
LINE
  5
D3
330
1F
100
AcDbEntity
  8
C-A
  6
Continuous
 62
     3
370
     9
100
AcDbLine
 10
-332.1621005599559
 20
571.486106563259
 30
0.0
 11
-341.161981788841
 21
571.486106563259
 31
0.0
  0
LINE
  5
D4
330
1F
100
AcDbEntity
  8
C-A
  6
Continuous
 62
     3
370
     9
100
AcDbLine
 10
-311.1621302527345
 20
496.486106563259
 30
0.0
 11
-311.1621302527345
 21
640.4861857440022
 31
0.0
  0
LINE
  5
D5
330
1F
100
AcDbEntity
  8
C-A
  6
Continuous
 62
     3
370
     9
100
AcDbLine
 10
-317.1620510719913
 20
496.486106563259
 30
0.0
 11
-317.1620510719913
 21
640.4861857440022
 31
0.0
  0
LINE
  5
D6
330
1F
100
AcDbEntity
  8
C-A
  6
Continuous
 62
     3
370
     9
100
AcDbLine
 10
-317.1620510719913
 20
565.4860620240911
 30
0.0
 11
-326.1620560207876
 21
565.4860620240911
 31
0.0
  0
LINE
  5
D7
330
1F
100
AcDbEntity
  8
C-A
  6
Continuous
 62
     3
370
     9
100
AcDbLine
 10
-317.1620510719913
 20
571.486106563259
 30
0.0
 11
-326.1620560207876
 21
571.486106563259
 31
0.0
  0
LINE
  5
D8
330
1F
100
AcDbEntity
  8
C-A
  6
Continuous
 62
     3
370
     9
100
AcDbLine
 10
-296.1620807647699
 20
496.486106563259
 30
0.0
 11
-296.1620807647699
 21
640.4861857440022
 31
0.0
  0
LINE
  5
D9
330
1F
100
AcDbEntity
  8
C-A
  6
Continuous
 62
     3
370
     9
100
AcDbLine
 10
-302.1620015840267
 20
496.486106563259
 30
0.0
 11
-302.1620015840267
 21
640.4861857440022
 31
0.0
  0
LINE
  5
DA
330
1F
100
AcDbEntity
  8
C-A
  6
Continuous
 62
     3
370
     9
100
AcDbLine
 10
-302.1620015840267
 20
565.4860620240911
 30
0.0
 11
-311.1620065328233
 21
565.4860620240911
 31
0.0
  0
LINE
  5
DB
330
1F
100
AcDbEntity
  8
C-A
  6
Continuous
 62
     3
370
     9
100
AcDbLine
 10
-302.1620015840267
 20
571.486106563259
 30
0.0
 11
-311.1620065328233
 21
571.486106563259
 31
0.0
  0
LINE
  5
DC
330
1F
100
AcDbEntity
  8
C-A
  6
Continuous
 62
     3
370
     9
100
AcDbLine
 10
-281.1620312768056
 20
496.486106563259
 30
0.0
 11
-281.1620312768056
 21
640.4861857440022
 31
0.0
  0
LINE
  5
DD
330
1F
100
AcDbEntity
  8
C-A
  6
Continuous
 62
     3
370
     9
100
AcDbLine
 10
-287.1620758159736
 20
496.486106563259
 30
0.0
 11
-287.1620758159736
 21
640.4861857440022
 31
0.0
  0
LINE
  5
DE
330
1F
100
AcDbEntity
  8
C-A
  6
Continuous
 62
     3
370
     9
100
AcDbLine
 10
-287.1620758159736
 20
565.4860620240911
 30
0.0
 11
-296.1620807647699
 21
565.4860620240911
 31
0.0
  0
LINE
  5
DF
330
1F
100
AcDbEntity
  8
C-A
  6
Continuous
 62
     3
370
     9
100
AcDbLine
 10
-287.1620758159736
 20
571.486106563259
 30
0.0
 11
-296.1620807647699
 21
571.486106563259
 31
0.0
  0
LINE
  5
E0
330
1F
100
AcDbEntity
  8
C-A
  6
Continuous
 62
     3
370
     9
100
AcDbLine
 10
-266.161981788841
 20
496.486106563259
 30
0.0
 11
-266.161981788841
 21
640.4861857440022
 31
0.0
  0
LINE
  5
E1
330
1F
100
AcDbEntity
  8
C-A
  6
Continuous
 62
     3
370
     9
100
AcDbLine
 10
-272.162026328009
 20
496.486106563259
 30
0.0
 11
-272.162026328009
 21
640.4861857440022
 31
0.0
  0
LINE
  5
E2
330
1F
100
AcDbEntity
  8
C-A
  6
Continuous
 62
     3
370
     9
100
AcDbLine
 10
-272.162026328009
 20
565.4860620240911
 30
0.0
 11
-281.1620312768056
 21
565.4860620240911
 31
0.0
  0
LINE
  5
E3
330
1F
100
AcDbEntity
  8
C-A
  6
Continuous
 62
     3
370
     9
100
AcDbLine
 10
-272.162026328009
 20
571.486106563259
 30
0.0
 11
-281.1620312768056
 21
571.486106563259
 31
0.0
  0
LINE
  5
E4
330
1F
100
AcDbEntity
  8
C-A
  6
Continuous
 62
     3
370
     9
100
AcDbLine
 10
-251.1620560207876
 20
496.486106563259
 30
0.0
 11
-251.1620560207876
 21
640.4861857440022
 31
0.0
  0
LINE
  5
E5
330
1F
100
AcDbEntity
  8
C-A
  6
Continuous
 62
     3
370
     9
100
AcDbLine
 10
-257.1621005599559
 20
496.486106563259
 30
0.0
 11
-257.1621005599559
 21
640.4861857440022
 31
0.0
  0
LINE
  5
E6
330
1F
100
AcDbEntity
  8
C-A
  6
Continuous
 62
     3
370
     9
100
AcDbLine
 10
-257.1621005599559
 20
565.4860620240911
 30
0.0
 11
-266.161981788841
 21
565.4860620240911
 31
0.0
  0
LINE
  5
E7
330
1F
100
AcDbEntity
  8
C-A
  6
Continuous
 62
     3
370
     9
100
AcDbLine
 10
-257.1621005599559
 20
571.486106563259
 30
0.0
 11
-266.161981788841
 21
571.486106563259
 31
0.0
  0
LINE
  5
E8
330
1F
100
AcDbEntity
  8
C-A
  6
Continuous
 62
     3
370
     9
100
AcDbLine
 10
-236.1620065328233
 20
496.486106563259
 30
0.0
 11
-236.1620065328233
 21
640.4861857440022
 31
0.0
  0
LINE
  5
E9
330
1F
100
AcDbEntity
  8
C-A
  6
Continuous
 62
     3
370
     9
100
AcDbLine
 10
-242.1621747919025
 20
496.486106563259
 30
0.0
 11
-242.1621747919025
 21
640.4861857440022
 31
0.0
  0
LINE
  5
EA
330
1F
100
AcDbEntity
  8
C-A
  6
Continuous
 62
     3
370
     9
100
AcDbLine
 10
-242.1621747919025
 20
565.4860620240911
 30
0.0
 11
-251.1620560207876
 21
565.4860620240911
 31
0.0
  0
LINE
  5
EB
330
1F
100
AcDbEntity
  8
C-A
  6
Continuous
 62
     3
370
     9
100
AcDbLine
 10
-242.1621747919025
 20
571.486106563259
 30
0.0
 11
-251.1620560207876
 21
571.486106563259
 31
0.0
  0
LINE
  5
EC
330
1F
100
AcDbEntity
  8
C-A
  6
Continuous
 62
     3
370
     9
100
AcDbLine
 10
-221.1620807647699
 20
496.486106563259
 30
0.0
 11
-221.1620807647699
 21
640.4861857440022
 31
0.0
  0
LINE
  5
ED
330
1F
100
AcDbEntity
  8
C-A
  6
Continuous
 62
     3
370
     9
100
AcDbLine
 10
-227.1620015840267
 20
496.486106563259
 30
0.0
 11
-227.1620015840267
 21
640.4861857440022
 31
0.0
  0
LINE
  5
EE
330
1F
100
AcDbEntity
  8
C-A
  6
Continuous
 62
     3
370
     9
100
AcDbLine
 10
-227.1620015840267
 20
565.4860620240911
 30
0.0
 11
-236.1620065328233
 21
565.4860620240911
 31
0.0
  0
LINE
  5
EF
330
1F
100
AcDbEntity
  8
C-A
  6
Continuous
 62
     3
370
     9
100
AcDbLine
 10
-227.1620015840267
 20
571.486106563259
 30
0.0
 11
-236.1620065328233
 21
571.486106563259
 31
0.0
  0
LINE
  5
F0
330
1F
100
AcDbEntity
  8
C-A
  6
Continuous
 62
     3
370
     9
100
AcDbLine
 10
-206.1621549967168
 20
496.486106563259
 30
0.0
 11
-206.1621549967168
 21
640.4861857440022
 31
0.0
  0
LINE
  5
F1
330
1F
100
AcDbEntity
  8
C-A
  6
Continuous
 62
     3
370
     9
100
AcDbLine
 10
-212.1619520960621
 20
496.486106563259
 30
0.0
 11
-212.1619520960621
 21
640.4861857440022
 31
0.0
  0
LINE
  5
F2
330
1F
100
AcDbEntity
  8
C-A
  6
Continuous
 62
     3
370
     9
100
AcDbLine
 10
-212.1619520960621
 20
565.4860620240911
 30
0.0
 11
-221.1619570448588
 21
565.4860620240911
 31
0.0
  0
LINE
  5
F3
330
1F
100
AcDbEntity
  8
C-A
  6
Continuous
 62
     3
370
     9
100
AcDbLine
 10
-212.1619520960621
 20
571.486106563259
 30
0.0
 11
-221.1619570448588
 21
571.486106563259
 31
0.0
  0
LINE
  5
F4
330
1F
100
AcDbEntity
  8
C-A
  6
Continuous
 62
     3
370
     9
100
AcDbLine
 10
-191.1621055087522
 20
496.486106563259
 30
0.0
 11
-191.1621055087522
 21
640.4861857440022
 31
0.0
  0
LINE
  5
F5
330
1F
100
AcDbEntity
  8
C-A
  6
Continuous
 62
     3
370
     9
100
AcDbLine
 10
-197.162026328009
 20
496.486106563259
 30
0.0
 11
-197.162026328009
 21
640.4861857440022
 31
0.0
  0
LINE
  5
F6
330
1F
100
AcDbEntity
  8
C-A
  6
Continuous
 62
     3
370
     9
100
AcDbLine
 10
-197.162026328009
 20
565.4860620240911
 30
0.0
 11
-206.1620312768056
 21
565.4860620240911
 31
0.0
  0
LINE
  5
F7
330
1F
100
AcDbEntity
  8
C-A
  6
Continuous
 62
     3
370
     9
100
AcDbLine
 10
-197.162026328009
 20
571.486106563259
 30
0.0
 11
-206.1620312768056
 21
571.486106563259
 31
0.0
  0
LINE
  5
F8
330
1F
100
AcDbEntity
  8
C-A
  6
Continuous
 62
     3
370
     9
100
AcDbLine
 10
-176.1619323008765
 20
496.486106563259
 30
0.0
 11
-176.1619323008765
 21
640.4861857440022
 31
0.0
  0
LINE
  5
F9
330
1F
100
AcDbEntity
  8
C-A
  6
Continuous
 62
     3
370
     9
100
AcDbLine
 10
-182.1621005599559
 20
496.486106563259
 30
0.0
 11
-182.1621005599559
 21
640.4861857440022
 31
0.0
  0
LINE
  5
FA
330
1F
100
AcDbEntity
  8
C-A
  6
Continuous
 62
     3
370
     9
100
AcDbLine
 10
-182.1621005599559
 20
565.4860620240911
 30
0.0
 11
-191.1621055087522
 21
565.4860620240911
 31
0.0
  0
LINE
  5
FB
330
1F
100
AcDbEntity
  8
C-A
  6
Continuous
 62
     3
370
     9
100
AcDbLine
 10
-182.1621005599559
 20
571.486106563259
 30
0.0
 11
-191.1621055087522
 21
571.486106563259
 31
0.0
  0
LINE
  5
FC
330
1F
100
AcDbEntity
  8
C-A
  6
Continuous
 62
     3
370
     9
100
AcDbLine
 10
-167.1620510719913
 20
565.4860620240911
 30
0.0
 11
-176.1619323008765
 21
565.4860620240911
 31
0.0
  0
LINE
  5
FD
330
1F
100
AcDbEntity
  8
C-A
  6
Continuous
 62
     3
370
     9
100
AcDbLine
 10
-167.1620510719913
 20
571.486106563259
 30
0.0
 11
-176.1619323008765
 21
571.486106563259
 31
0.0
  0
LINE
  5
FE
330
1F
100
AcDbEntity
  8
C-A
  6
Continuous
 62
     3
370
     9
100
AcDbLine
 10
-152.1620015840267
 20
565.4860620240911
 30
0.0
 11
-161.1618828129119
 21
565.4860620240911
 31
0.0
  0
LINE
  5
FF
330
1F
100
AcDbEntity
  8
C-A
  6
Continuous
 62
     3
370
     9
100
AcDbLine
 10
-152.1620015840267
 20
571.486106563259
 30
0.0
 11
-161.1618828129119
 21
571.486106563259
 31
0.0
  0
LINE
  5
100
330
1F
100
AcDbEntity
  8
C-A
  6
Continuous
 62
     3
370
     9
100
AcDbLine
 10
-137.1619520960621
 20
565.4860620240911
 30
0.0
 11
-146.1620807647699
 21
565.4860620240911
 31
0.0
  0
LINE
  5
101
330
1F
100
AcDbEntity
  8
C-A
  6
Continuous
 62
     3
370
     9
100
AcDbLine
 10
-137.1619520960621
 20
571.486106563259
 30
0.0
 11
-146.1620807647699
 21
571.486106563259
 31
0.0
  0
LINE
  5
102
330
1F
100
AcDbEntity
  8
C-A
  6
Continuous
 62
     3
370
     9
100
AcDbLine
 10
-169.231390308689
 20
496.486106563259
 30
0.0
 11
-377.1620015840267
 21
496.486106563259
 31
0.0
  0
LINE
  5
103
330
1F
100
AcDbEntity
  8
C-A
  6
Continuous
 62
     3
370
     9
100
AcDbLine
 10
-167.1620510719913
 20
500.0702723941291
 30
0.0
 11
-167.1620510719913
 21
640.4861857440022
 31
0.0
  0
LINE
  5
104
330
1F
100
AcDbEntity
  8
C-A
  6
Continuous
 62
     3
370
     9
100
AcDbLine
 10
-161.1620065328233
 20
510.4627449448046
 30
0.0
 11
-161.1620065328233
 21
640.4861857440022
 31
0.0
  0
LINE
  5
105
330
1F
100
AcDbEntity
  8
C-A
  6
Continuous
 62
     3
370
     9
100
AcDbLine
 10
-152.1620015840267
 20
526.0512063309955
 30
0.0
 11
-152.1620015840267
 21
640.4861857440022
 31
0.0
  0
LINE
  5
106
330
1F
100
AcDbEntity
  8
C-A
  6
Continuous
 62
     3
370
     9
100
AcDbLine
 10
-146.1620807647699
 20
536.4436788816713
 30
0.0
 11
-146.1620807647699
 21
640.4861857440022
 31
0.0
  0
LINE
  5
107
330
1F
100
AcDbEntity
  8
C-A
  6
Continuous
 62
     3
370
     9
100
AcDbLine
 10
-137.1619520960621
 20
552.0320165479507
 30
0.0
 11
-137.1619520960621
 21
640.4861857440022
 31
0.0
  0
LINE
  5
108
330
1F
100
AcDbEntity
  8
C-A
  6
Continuous
 62
     3
370
     9
100
AcDbLine
 10
-131.1620312768054
 20
562.4239942189811
 30
0.0
 11
-131.1620312768054
 21
640.4861857440022
 31
0.0
  0
LINE
  5
109
330
1F
100
AcDbEntity
  8
C-A
  6
Continuous
 62
     3
370
     9
100
AcDbLine
 10
-129.3940737440775
 20
565.4860620240911
 30
0.0
 11
-131.1620312768054
 21
565.4860620240911
 31
0.0
  0
LINE
  5
10A
330
1F
100
AcDbEntity
  8
C-A
  6
Continuous
 62
     3
370
     9
100
AcDbLine
 10
-125.9299162271856
 20
571.486106563259
 30
0.0
 11
-131.1620312768054
 21
571.486106563259
 31
0.0
  0
LINE
  5
10B
330
1F
100
AcDbEntity
  8
C-A
  6
Continuous
 62
     3
370
     9
100
AcDbLine
 10
-122.1621500479205
 20
578.012455605172
 30
0.0
 11
-122.1621500479205
 21
640.4861857440022
 31
0.0
  0
LINE
  5
10C
330
1F
100
AcDbEntity
  8
C-A
  6
Continuous
 62
     3
370
     9
100
AcDbLine
 10
-116.161981788841
 20
588.4049281558478
 30
0.0
 11
-116.161981788841
 21
640.4861857440022
 31
0.0
  0
LINE
  5
10D
330
1F
100
AcDbEntity
  8
C-A
  6
Continuous
 62
     3
370
     9
100
AcDbLine
 10
-107.1619768400444
 20
603.9933895420387
 30
0.0
 11
-107.1619768400444
 21
640.4861857440022
 31
0.0
  0
LINE
  5
10E
330
1F
100
AcDbEntity
  8
C-A
  6
Continuous
 62
     3
370
     9
100
AcDbLine
 10
-101.1619323008765
 20
614.385738372803
 30
0.0
 11
-101.1619323008765
 21
640.4861857440022
 31
0.0
  0
LINE
  5
10F
330
1F
100
AcDbEntity
  8
C-A
  6
Continuous
 62
     3
370
     9
100
AcDbLine
 10
-92.16192735208011
 20
629.9741997589939
 30
0.0
 11
-92.16192735208011
 21
640.4861857440022
 31
0.0
  0
LINE
  5
110
330
1F
100
AcDbEntity
  8
C-A
  6
Continuous
 62
     3
370
     9
100
AcDbLine
 10
-86.16213025273453
 20
640.3661774300241
 30
0.0
 11
-86.16213025273453
 21
640.4861857440022
 31
0.0
  0
LINE
  5
111
330
1F
100
AcDbEntity
  8
C-A
  6
Continuous
 62
     3
370
     9
100
AcDbLine
 10
-377.1620015840267
 20
640.4861857440022
 30
0.0
 11
-86.0927233824853
 21
640.4861857440022
 31
0.0
  0
LINE
  5
112
330
1F
100
AcDbEntity
  8
C-5
  6
Continuous
 62
     7
370
     9
100
AcDbLine
 10
-249.5727500400022
 20
540.6259067638501
 30
0.0
 11
-49.5717190407413
 21
540.6259067638501
 31
0.0
  0
LINE
  5
113
330
1F
100
AcDbEntity
  8
C-5
  6
Continuous
 62
     7
370
     9
100
AcDbLine
 10
-49.5717190407413
 20
540.6259067638501
 30
0.0
 11
-49.5717190407413
 21
616.4409735396102
 31
0.0
  0
LINE
  5
114
330
1F
100
AcDbEntity
  8
C-5
  6
Continuous
 62
     7
370
     9
100
AcDbLine
 10
-49.5717190407413
 20
616.4409735396102
 30
0.0
 11
-29.57264281607905
 21
566.4403137000832
 31
0.0
  0
LINE
  5
115
330
1F
100
AcDbEntity
  8
C-5
  6
Continuous
 62
     7
370
     9
100
AcDbLine
 10
-29.57264281607905
 20
566.4403137000832
 30
0.0
 11
-59.8389870411637
 21
566.4403137000832
 31
0.0
  0
LINE
  5
116
330
1F
100
AcDbEntity
  8
C-A
  6
Continuous
 62
     6
370
     5
100
AcDbLine
 10
-376.6619257024811
 20
610.8258216445512
 30
0.0
 11
-376.6619257024811
 21
614.8259338172707
 31
0.0
  0
LINE
  5
117
330
1F
100
AcDbEntity
  8
C-A
  6
Continuous
 62
     6
370
     5
100
AcDbLine
 10
-376.6619257024811
 20
614.8259338172707
 30
0.0
 11
-371.6621566463155
 21
613.3259536124567
 31
0.0
  0
LINE
  5
118
330
1F
100
AcDbEntity
  8
C-A
  6
Continuous
 62
     6
370
     5
100
AcDbLine
 10
-371.6621566463155
 20
612.3261730090994
 30
0.0
 11
-371.6621566463155
 21
613.3259536124567
 31
0.0
  0
LINE
  5
119
330
1F
100
AcDbEntity
  8
C-A
  6
Continuous
 62
     6
370
     5
100
AcDbLine
 10
-371.6621566463155
 20
612.3261730090994
 30
0.0
 11
-376.6619257024811
 21
610.8258216445512
 31
0.0
  0
LINE
  5
11A
330
1F
100
AcDbEntity
  8
C-A
  6
Continuous
 62
     6
370
     5
100
AcDbLine
 10
-371.1620807647699
 20
611.9540235158561
 30
0.0
 11
-377.1620015840267
 21
610.1540225260967
 31
0.0
  0
LINE
  5
11B
330
1F
100
AcDbEntity
  8
C-A
  6
Continuous
 62
     6
370
     5
100
AcDbLine
 10
-377.1620015840267
 20
615.4979803755477
 30
0.0
 11
-371.1620807647699
 21
613.6981031056998
 31
0.0
  0
LINE
  5
11C
330
1F
100
AcDbEntity
  8
C-A
  6
Continuous
 62
     6
370
     5
100
AcDbLine
 10
-371.6621566463155
 20
621.3256830782507
 30
0.0
 11
-371.6621566463155
 21
625.3257952509703
 31
0.0
  0
LINE
  5
11D
330
1F
100
AcDbEntity
  8
C-A
  6
Continuous
 62
     6
370
     5
100
AcDbLine
 10
-371.6621566463155
 20
625.3257952509703
 30
0.0
 11
-376.6619257024811
 21
623.8260624859786
 31
0.0
  0
LINE
  5
11E
330
1F
100
AcDbEntity
  8
C-A
  6
Continuous
 62
     6
370
     5
100
AcDbLine
 10
-376.6619257024811
 20
622.82615816271
 30
0.0
 11
-376.6619257024811
 21
623.8260624859786
 31
0.0
  0
LINE
  5
11F
330
1F
100
AcDbEntity
  8
C-A
  6
Continuous
 62
     6
370
     5
100
AcDbLine
 10
-376.6619257024811
 20
622.82615816271
 30
0.0
 11
-371.6621566463155
 21
621.3256830782507
 31
0.0
  0
LINE
  5
120
330
1F
100
AcDbEntity
  8
C-A
  6
Continuous
 62
     6
370
     5
100
AcDbLine
 10
-377.1620015840267
 20
622.4540086694668
 30
0.0
 11
-371.1620807647699
 21
620.6541313996189
 31
0.0
  0
LINE
  5
121
330
1F
100
AcDbEntity
  8
C-A
  6
Continuous
 62
     6
370
     5
100
AcDbLine
 10
-371.1620807647699
 20
625.99808924907
 30
0.0
 11
-377.1620015840267
 21
624.1979645393991
 31
0.0
  0
LINE
  5
122
330
1F
100
AcDbEntity
  8
C-A
  6
Continuous
 62
     6
370
     5
100
AcDbLine
 10
-376.6619257024811
 20
631.8257919517725
 30
0.0
 11
-376.6619257024811
 21
635.8256566846694
 31
0.0
  0
LINE
  5
123
330
1F
100
AcDbEntity
  8
C-A
  6
Continuous
 62
     6
370
     5
100
AcDbLine
 10
-376.6619257024811
 20
635.8256566846694
 30
0.0
 11
-371.6621566463155
 21
634.325923919678
 31
0.0
  0
LINE
  5
124
330
1F
100
AcDbEntity
  8
C-A
  6
Continuous
 62
     6
370
     5
100
AcDbLine
 10
-371.6621566463155
 20
633.3260195964092
 30
0.0
 11
-371.6621566463155
 21
634.325923919678
 31
0.0
  0
LINE
  5
125
330
1F
100
AcDbEntity
  8
C-A
  6
Continuous
 62
     6
370
     5
100
AcDbLine
 10
-371.6621566463155
 20
633.3260195964092
 30
0.0
 11
-376.6619257024811
 21
631.8257919517725
 31
0.0
  0
LINE
  5
126
330
1F
100
AcDbEntity
  8
C-A
  6
Continuous
 62
     6
370
     5
100
AcDbLine
 10
-371.1620807647699
 20
632.9538701031661
 30
0.0
 11
-377.1620015840267
 21
631.1539928333182
 31
0.0
  0
LINE
  5
127
330
1F
100
AcDbEntity
  8
C-A
  6
Continuous
 62
     6
370
     5
100
AcDbLine
 10
-377.1620015840267
 20
636.4981981225918
 30
0.0
 11
-371.1620807647699
 21
634.6980734129213
 31
0.0
  0
LINE
  5
128
330
1F
100
AcDbEntity
  8
C-A
  6
Continuous
 62
     6
370
     5
100
AcDbLine
 10
-376.6619257024811
 20
589.8258513373298
 30
0.0
 11
-376.6619257024811
 21
593.8258397901382
 31
0.0
  0
LINE
  5
129
330
1F
100
AcDbEntity
  8
C-A
  6
Continuous
 62
     6
370
     5
100
AcDbLine
 10
-376.6619257024811
 20
593.8258397901382
 30
0.0
 11
-371.6621566463155
 21
592.3259833052352
 31
0.0
  0
LINE
  5
12A
330
1F
100
AcDbEntity
  8
C-A
  6
Continuous
 62
     6
370
     5
100
AcDbLine
 10
-371.6621566463155
 20
591.326202701878
 30
0.0
 11
-371.6621566463155
 21
592.3259833052352
 31
0.0
  0
LINE
  5
12B
330
1F
100
AcDbEntity
  8
C-A
  6
Continuous
 62
     6
370
     5
100
AcDbLine
 10
-371.6621566463155
 20
591.326202701878
 30
0.0
 11
-376.6619257024811
 21
589.8258513373298
 31
0.0
  0
LINE
  5
12C
330
1F
100
AcDbEntity
  8
C-A
  6
Continuous
 62
     6
370
     5
100
AcDbLine
 10
-371.1620807647699
 20
590.9541769285463
 30
0.0
 11
-377.1620015840267
 21
589.1540522188757
 31
0.0
  0
LINE
  5
12D
330
1F
100
AcDbEntity
  8
C-A
  6
Continuous
 62
     6
370
     5
100
AcDbLine
 10
-377.1620015840267
 20
594.4982575081491
 30
0.0
 11
-371.1620807647699
 21
592.6981327984786
 31
0.0
  0
LINE
  5
12E
330
1F
100
AcDbEntity
  8
C-A
  6
Continuous
 62
     6
370
     5
100
AcDbLine
 10
-371.6621566463155
 20
600.3259602108519
 30
0.0
 11
-371.6621566463155
 21
604.3258249437488
 31
0.0
  0
LINE
  5
12F
330
1F
100
AcDbEntity
  8
C-A
  6
Continuous
 62
     6
370
     5
100
AcDbLine
 10
-371.6621566463155
 20
604.3258249437488
 30
0.0
 11
-376.6619257024811
 21
602.8260921787574
 31
0.0
  0
LINE
  5
130
330
1F
100
AcDbEntity
  8
C-A
  6
Continuous
 62
     6
370
     5
100
AcDbLine
 10
-376.6619257024811
 20
601.8261878554887
 30
0.0
 11
-376.6619257024811
 21
602.8260921787574
 31
0.0
  0
LINE
  5
131
330
1F
100
AcDbEntity
  8
C-A
  6
Continuous
 62
     6
370
     5
100
AcDbLine
 10
-376.6619257024811
 20
601.8261878554887
 30
0.0
 11
-371.6621566463155
 21
600.3259602108519
 31
0.0
  0
LINE
  5
132
330
1F
100
AcDbEntity
  8
C-A
  6
Continuous
 62
     6
370
     5
100
AcDbLine
 10
-377.1620015840267
 20
601.4540383622455
 30
0.0
 11
-371.1620807647699
 21
599.6540373724861
 31
0.0
  0
LINE
  5
133
330
1F
100
AcDbEntity
  8
C-A
  6
Continuous
 62
     6
370
     5
100
AcDbLine
 10
-371.1620807647699
 20
604.9981189418486
 30
0.0
 11
-377.1620015840267
 21
603.1981179520892
 31
0.0
  0
LINE
  5
134
330
1F
100
AcDbEntity
  8
C-A
  6
Continuous
 62
     6
370
     5
100
AcDbLine
 10
-376.6619257024811
 20
568.8260047500199
 30
0.0
 11
-376.6619257024811
 21
572.8258694829168
 31
0.0
  0
LINE
  5
135
330
1F
100
AcDbEntity
  8
C-A
  6
Continuous
 62
     6
370
     5
100
AcDbLine
 10
-376.6619257024811
 20
572.8258694829168
 30
0.0
 11
-371.6621566463155
 21
571.3261367179255
 31
0.0
  0
LINE
  5
136
330
1F
100
AcDbEntity
  8
C-A
  6
Continuous
 62
     6
370
     5
100
AcDbLine
 10
-371.6621566463155
 20
570.3262323946569
 30
0.0
 11
-371.6621566463155
 21
571.3261367179255
 31
0.0
  0
LINE
  5
137
330
1F
100
AcDbEntity
  8
C-A
  6
Continuous
 62
     6
370
     5
100
AcDbLine
 10
-371.6621566463155
 20
570.3262323946569
 30
0.0
 11
-376.6619257024811
 21
568.8260047500199
 31
0.0
  0
LINE
  5
138
330
1F
100
AcDbEntity
  8
C-A
  6
Continuous
 62
     6
370
     5
100
AcDbLine
 10
-371.1620807647699
 20
569.9542066213248
 30
0.0
 11
-377.1620015840267
 21
568.1540819116543
 31
0.0
  0
LINE
  5
139
330
1F
100
AcDbEntity
  8
C-A
  6
Continuous
 62
     6
370
     5
100
AcDbLine
 10
-377.1620015840267
 20
573.498287200928
 30
0.0
 11
-371.1620807647699
 21
571.6981624912574
 31
0.0
  0
LINE
  5
13A
330
1F
100
AcDbEntity
  8
C-A
  6
Continuous
 62
     6
370
     5
100
AcDbLine
 10
-371.6621566463155
 20
579.3259899036307
 30
0.0
 11
-371.6621566463155
 21
583.3258546365275
 31
0.0
  0
LINE
  5
13B
330
1F
100
AcDbEntity
  8
C-A
  6
Continuous
 62
     6
370
     5
100
AcDbLine
 10
-371.6621566463155
 20
583.3258546365275
 30
0.0
 11
-376.6619257024811
 21
581.8261218715361
 31
0.0
  0
LINE
  5
13C
330
1F
100
AcDbEntity
  8
C-A
  6
Continuous
 62
     6
370
     5
100
AcDbLine
 10
-376.6619257024811
 20
580.8262175482673
 30
0.0
 11
-376.6619257024811
 21
581.8261218715361
 31
0.0
  0
LINE
  5
13D
330
1F
100
AcDbEntity
  8
C-A
  6
Continuous
 62
     6
370
     5
100
AcDbLine
 10
-376.6619257024811
 20
580.8262175482673
 30
0.0
 11
-371.6621566463155
 21
579.3259899036307
 31
0.0
  0
LINE
  5
13E
330
1F
100
AcDbEntity
  8
C-A
  6
Continuous
 62
     6
370
     5
100
AcDbLine
 10
-377.1620015840267
 20
580.4540680550241
 30
0.0
 11
-371.1620807647699
 21
578.654067065265
 31
0.0
  0
LINE
  5
13F
330
1F
100
AcDbEntity
  8
C-A
  6
Continuous
 62
     6
370
     5
100
AcDbLine
 10
-371.1620807647699
 20
583.9981486346272
 30
0.0
 11
-377.1620015840267
 21
582.1981476448678
 31
0.0
  0
LINE
  5
140
330
1F
100
AcDbEntity
  8
C-A
  6
Continuous
 62
     6
370
     5
100
AcDbLine
 10
-376.6619257024811
 20
547.8260344427986
 30
0.0
 11
-376.6619257024811
 21
551.8258991756957
 31
0.0
  0
LINE
  5
141
330
1F
100
AcDbEntity
  8
C-A
  6
Continuous
 62
     6
370
     5
100
AcDbLine
 10
-376.6619257024811
 20
551.8258991756957
 30
0.0
 11
-371.6621566463155
 21
550.326166410704
 31
0.0
  0
LINE
  5
142
330
1F
100
AcDbEntity
  8
C-A
  6
Continuous
 62
     6
370
     5
100
AcDbLine
 10
-371.6621566463155
 20
549.3262620874356
 30
0.0
 11
-371.6621566463155
 21
550.326166410704
 31
0.0
  0
LINE
  5
143
330
1F
100
AcDbEntity
  8
C-A
  6
Continuous
 62
     6
370
     5
100
AcDbLine
 10
-371.6621566463155
 20
549.3262620874356
 30
0.0
 11
-376.6619257024811
 21
547.8260344427986
 31
0.0
  0
LINE
  5
144
330
1F
100
AcDbEntity
  8
C-A
  6
Continuous
 62
     6
370
     5
100
AcDbLine
 10
-371.1620807647699
 20
548.9542363141036
 30
0.0
 11
-377.1620015840267
 21
547.154111604433
 31
0.0
  0
LINE
  5
145
330
1F
100
AcDbEntity
  8
C-A
  6
Continuous
 62
     6
370
     5
100
AcDbLine
 10
-377.1620015840267
 20
552.4983168937067
 30
0.0
 11
-371.1620807647699
 21
550.6981921840361
 31
0.0
  0
LINE
  5
146
330
1F
100
AcDbEntity
  8
C-A
  6
Continuous
 62
     6
370
     5
100
AcDbLine
 10
-371.6621566463155
 20
558.3260195964092
 30
0.0
 11
-371.6621566463155
 21
562.3258843293064
 31
0.0
  0
LINE
  5
147
330
1F
100
AcDbEntity
  8
C-A
  6
Continuous
 62
     6
370
     5
100
AcDbLine
 10
-371.6621566463155
 20
562.3258843293064
 30
0.0
 11
-376.6619257024811
 21
560.8261515643147
 31
0.0
  0
LINE
  5
148
330
1F
100
AcDbEntity
  8
C-A
  6
Continuous
 62
     6
370
     5
100
AcDbLine
 10
-376.6619257024811
 20
559.8262472410463
 30
0.0
 11
-376.6619257024811
 21
560.8261515643147
 31
0.0
  0
LINE
  5
149
330
1F
100
AcDbEntity
  8
C-A
  6
Continuous
 62
     6
370
     5
100
AcDbLine
 10
-376.6619257024811
 20
559.8262472410463
 30
0.0
 11
-371.6621566463155
 21
558.3260195964092
 31
0.0
  0
LINE
  5
14A
330
1F
100
AcDbEntity
  8
C-A
  6
Continuous
 62
     6
370
     5
100
AcDbLine
 10
-377.1620015840267
 20
559.4542214677142
 30
0.0
 11
-371.1620807647699
 21
557.6540967580436
 31
0.0
  0
LINE
  5
14B
330
1F
100
AcDbEntity
  8
C-A
  6
Continuous
 62
     6
370
     5
100
AcDbLine
 10
-371.1620807647699
 20
562.9983020473173
 30
0.0
 11
-377.1620015840267
 21
561.1981773376467
 31
0.0
  0
LINE
  5
14C
330
1F
100
AcDbEntity
  8
C-A
  6
Continuous
 62
     6
370
     5
100
AcDbLine
 10
-376.6619257024811
 20
526.8260641355776
 30
0.0
 11
-376.6619257024811
 21
530.8260525883856
 31
0.0
  0
LINE
  5
14D
330
1F
100
AcDbEntity
  8
C-A
  6
Continuous
 62
     6
370
     5
100
AcDbLine
 10
-376.6619257024811
 20
530.8260525883856
 30
0.0
 11
-371.6621566463155
 21
529.3261961034827
 31
0.0
  0
LINE
  5
14E
330
1F
100
AcDbEntity
  8
C-A
  6
Continuous
 62
     6
370
     5
100
AcDbLine
 10
-371.6621566463155
 20
528.3262917802142
 30
0.0
 11
-371.6621566463155
 21
529.3261961034827
 31
0.0
  0
LINE
  5
14F
330
1F
100
AcDbEntity
  8
C-A
  6
Continuous
 62
     6
370
     5
100
AcDbLine
 10
-371.6621566463155
 20
528.3262917802142
 30
0.0
 11
-376.6619257024811
 21
526.8260641355776
 31
0.0
  0
LINE
  5
150
330
1F
100
AcDbEntity
  8
C-A
  6
Continuous
 62
     6
370
     5
100
AcDbLine
 10
-371.1620807647699
 20
527.9542660068821
 30
0.0
 11
-377.1620015840267
 21
526.1541412972116
 31
0.0
  0
LINE
  5
151
330
1F
100
AcDbEntity
  8
C-A
  6
Continuous
 62
     6
370
     5
100
AcDbLine
 10
-377.1620015840267
 20
531.4983465864852
 30
0.0
 11
-371.1620807647699
 21
529.6983455967259
 31
0.0
  0
LINE
  5
152
330
1F
100
AcDbEntity
  8
C-A
  6
Continuous
 62
     6
370
     5
100
AcDbLine
 10
-371.6621566463155
 20
537.3260492891882
 30
0.0
 11
-371.6621566463155
 21
541.325914022085
 31
0.0
  0
LINE
  5
153
330
1F
100
AcDbEntity
  8
C-A
  6
Continuous
 62
     6
370
     5
100
AcDbLine
 10
-371.6621566463155
 20
541.325914022085
 30
0.0
 11
-376.6619257024811
 21
539.8261812570934
 31
0.0
  0
LINE
  5
154
330
1F
100
AcDbEntity
  8
C-A
  6
Continuous
 62
     6
370
     5
100
AcDbLine
 10
-376.6619257024811
 20
538.8262769338248
 30
0.0
 11
-376.6619257024811
 21
539.8261812570934
 31
0.0
  0
LINE
  5
155
330
1F
100
AcDbEntity
  8
C-A
  6
Continuous
 62
     6
370
     5
100
AcDbLine
 10
-376.6619257024811
 20
538.8262769338248
 30
0.0
 11
-371.6621566463155
 21
537.3260492891882
 31
0.0
  0
LINE
  5
156
330
1F
100
AcDbEntity
  8
C-A
  6
Continuous
 62
     6
370
     5
100
AcDbLine
 10
-377.1620015840267
 20
538.4542511604928
 30
0.0
 11
-371.1620807647699
 21
536.6542501707338
 31
0.0
  0
LINE
  5
157
330
1F
100
AcDbEntity
  8
C-A
  6
Continuous
 62
     6
370
     5
100
AcDbLine
 10
-371.1620807647699
 20
541.998331740096
 30
0.0
 11
-377.1620015840267
 21
540.1983307503366
 31
0.0
  0
LINE
  5
158
330
1F
100
AcDbEntity
  8
C-A
  6
Continuous
 62
     6
370
     5
100
AcDbLine
 10
-361.661999934428
 20
634.6201298687911
 30
0.0
 11
-361.661999934428
 21
638.6202420415106
 31
0.0
  0
LINE
  5
159
330
1F
100
AcDbEntity
  8
C-A
  6
Continuous
 62
     6
370
     5
100
AcDbLine
 10
-361.661999934428
 20
638.6202420415106
 30
0.0
 11
-356.6621071583512
 21
637.1202618366965
 31
0.0
  0
LINE
  5
15A
330
1F
100
AcDbEntity
  8
C-A
  6
Continuous
 62
     6
370
     5
100
AcDbLine
 10
-356.6621071583512
 20
636.1206049532507
 30
0.0
 11
-356.6621071583512
 21
637.1202618366965
 31
0.0
  0
LINE
  5
15B
330
1F
100
AcDbEntity
  8
C-A
  6
Continuous
 62
     6
370
     5
100
AcDbLine
 10
-356.6621071583512
 20
636.1206049532507
 30
0.0
 11
-361.661999934428
 21
634.6201298687911
 31
0.0
  0
LINE
  5
15C
330
1F
100
AcDbEntity
  8
C-A
  6
Continuous
 62
     6
370
     5
100
AcDbLine
 10
-356.1620312768056
 20
635.7484554600074
 30
0.0
 11
-362.1620758159736
 21
633.9483307503366
 31
0.0
  0
LINE
  5
15D
330
1F
100
AcDbEntity
  8
C-A
  6
Continuous
 62
     6
370
     5
100
AcDbLine
 10
-362.1620758159736
 20
639.2925360396102
 30
0.0
 11
-356.1620312768056
 21
637.4924113299397
 31
0.0
  0
LINE
  5
15E
330
1F
100
AcDbEntity
  8
C-A
  6
Continuous
 62
     6
370
     5
100
AcDbLine
 10
-361.661999934428
 20
613.6204070013923
 30
0.0
 11
-361.661999934428
 21
617.6202717342894
 31
0.0
  0
LINE
  5
15F
330
1F
100
AcDbEntity
  8
C-A
  6
Continuous
 62
     6
370
     5
100
AcDbLine
 10
-361.661999934428
 20
617.6202717342894
 30
0.0
 11
-356.6621071583512
 21
616.1205389692977
 31
0.0
  0
LINE
  5
160
330
1F
100
AcDbEntity
  8
C-A
  6
Continuous
 62
     6
370
     5
100
AcDbLine
 10
-356.6621071583512
 20
615.1206346460293
 30
0.0
 11
-356.6621071583512
 21
616.1205389692977
 31
0.0
  0
LINE
  5
161
330
1F
100
AcDbEntity
  8
C-A
  6
Continuous
 62
     6
370
     5
100
AcDbLine
 10
-356.6621071583512
 20
615.1206346460293
 30
0.0
 11
-361.661999934428
 21
613.6204070013923
 31
0.0
  0
LINE
  5
162
330
1F
100
AcDbEntity
  8
C-A
  6
Continuous
 62
     6
370
     5
100
AcDbLine
 10
-356.1620312768056
 20
614.7484851527861
 30
0.0
 11
-362.1620758159736
 21
612.9483604431155
 31
0.0
  0
LINE
  5
163
330
1F
100
AcDbEntity
  8
C-A
  6
Continuous
 62
     6
370
     5
100
AcDbLine
 10
-362.1620758159736
 20
618.292565732389
 30
0.0
 11
-356.1620312768056
 21
616.4926884625411
 31
0.0
  0
LINE
  5
164
330
1F
100
AcDbEntity
  8
C-A
  6
Continuous
 62
     6
370
     5
100
AcDbLine
 10
-356.6621071583512
 20
624.1202684350918
 30
0.0
 11
-356.6621071583512
 21
628.1201331679887
 31
0.0
  0
LINE
  5
165
330
1F
100
AcDbEntity
  8
C-A
  6
Continuous
 62
     6
370
     5
100
AcDbLine
 10
-356.6621071583512
 20
628.1201331679887
 30
0.0
 11
-361.661999934428
 21
626.6204004029973
 31
0.0
  0
LINE
  5
166
330
1F
100
AcDbEntity
  8
C-A
  6
Continuous
 62
     6
370
     5
100
AcDbLine
 10
-361.661999934428
 20
625.6204960797286
 30
0.0
 11
-361.661999934428
 21
626.6204004029973
 31
0.0
  0
LINE
  5
167
330
1F
100
AcDbEntity
  8
C-A
  6
Continuous
 62
     6
370
     5
100
AcDbLine
 10
-361.661999934428
 20
625.6204960797286
 30
0.0
 11
-356.6621071583512
 21
624.1202684350918
 31
0.0
  0
LINE
  5
168
330
1F
100
AcDbEntity
  8
C-A
  6
Continuous
 62
     6
370
     5
100
AcDbLine
 10
-362.1620758159736
 20
625.248594026308
 30
0.0
 11
-356.1620312768056
 21
623.4484693166373
 31
0.0
  0
LINE
  5
169
330
1F
100
AcDbEntity
  8
C-A
  6
Continuous
 62
     6
370
     5
100
AcDbLine
 10
-356.1620312768056
 20
628.7924271660884
 30
0.0
 11
-362.1620758159736
 21
626.9925498962405
 31
0.0
  0
LINE
  5
16A
330
1F
100
AcDbEntity
  8
C-A
  6
Continuous
 62
     6
370
     5
100
AcDbLine
 10
-361.661999934428
 20
592.6204366941713
 30
0.0
 11
-361.661999934428
 21
596.6203014270682
 31
0.0
  0
LINE
  5
16B
330
1F
100
AcDbEntity
  8
C-A
  6
Continuous
 62
     6
370
     5
100
AcDbLine
 10
-361.661999934428
 20
596.6203014270682
 30
0.0
 11
-356.6621071583512
 21
595.1204449421652
 31
0.0
  0
LINE
  5
16C
330
1F
100
AcDbEntity
  8
C-A
  6
Continuous
 62
     6
370
     5
100
AcDbLine
 10
-356.6621071583512
 20
594.120664338808
 30
0.0
 11
-356.6621071583512
 21
595.1204449421652
 31
0.0
  0
LINE
  5
16D
330
1F
100
AcDbEntity
  8
C-A
  6
Continuous
 62
     6
370
     5
100
AcDbLine
 10
-356.6621071583512
 20
594.120664338808
 30
0.0
 11
-361.661999934428
 21
592.6204366941713
 31
0.0
  0
LINE
  5
16E
330
1F
100
AcDbEntity
  8
C-A
  6
Continuous
 62
     6
370
     5
100
AcDbLine
 10
-356.1620312768056
 20
593.7485148455647
 30
0.0
 11
-362.1620758159736
 21
591.9485138558053
 31
0.0
  0
LINE
  5
16F
330
1F
100
AcDbEntity
  8
C-A
  6
Continuous
 62
     6
370
     5
100
AcDbLine
 10
-362.1620758159736
 20
597.2925954251679
 30
0.0
 11
-356.1620312768056
 21
595.4925944354085
 31
0.0
  0
LINE
  5
170
330
1F
100
AcDbEntity
  8
C-A
  6
Continuous
 62
     6
370
     5
100
AcDbLine
 10
-356.6621071583512
 20
603.1202981278705
 30
0.0
 11
-356.6621071583512
 21
607.1201628607673
 31
0.0
  0
LINE
  5
171
330
1F
100
AcDbEntity
  8
C-A
  6
Continuous
 62
     6
370
     5
100
AcDbLine
 10
-356.6621071583512
 20
607.1201628607673
 30
0.0
 11
-361.661999934428
 21
605.6204300957759
 31
0.0
  0
LINE
  5
172
330
1F
100
AcDbEntity
  8
C-A
  6
Continuous
 62
     6
370
     5
100
AcDbLine
 10
-361.661999934428
 20
604.6206494924186
 30
0.0
 11
-361.661999934428
 21
605.6204300957759
 31
0.0
  0
LINE
  5
173
330
1F
100
AcDbEntity
  8
C-A
  6
Continuous
 62
     6
370
     5
100
AcDbLine
 10
-361.661999934428
 20
604.6206494924186
 30
0.0
 11
-356.6621071583512
 21
603.1202981278705
 31
0.0
  0
LINE
  5
174
330
1F
100
AcDbEntity
  8
C-A
  6
Continuous
 62
     6
370
     5
100
AcDbLine
 10
-362.1620758159736
 20
604.2484999991755
 30
0.0
 11
-356.1620312768056
 21
602.4484990094161
 31
0.0
  0
LINE
  5
175
330
1F
100
AcDbEntity
  8
C-A
  6
Continuous
 62
     6
370
     5
100
AcDbLine
 10
-356.1620312768056
 20
607.7925805787786
 30
0.0
 11
-362.1620758159736
 21
605.9925795890192
 31
0.0
  0
LINE
  5
176
330
1F
100
AcDbEntity
  8
C-A
  6
Continuous
 62
     6
370
     5
100
AcDbLine
 10
-361.661999934428
 20
571.6204663869498
 30
0.0
 11
-361.661999934428
 21
575.6203311198467
 31
0.0
  0
LINE
  5
177
330
1F
100
AcDbEntity
  8
C-A
  6
Continuous
 62
     6
370
     5
100
AcDbLine
 10
-361.661999934428
 20
575.6203311198467
 30
0.0
 11
-356.6621071583512
 21
574.1205983548554
 31
0.0
  0
LINE
  5
178
330
1F
100
AcDbEntity
  8
C-A
  6
Continuous
 62
     6
370
     5
100
AcDbLine
 10
-356.6621071583512
 20
573.1206940315866
 30
0.0
 11
-356.6621071583512
 21
574.1205983548554
 31
0.0
  0
LINE
  5
179
330
1F
100
AcDbEntity
  8
C-A
  6
Continuous
 62
     6
370
     5
100
AcDbLine
 10
-356.6621071583512
 20
573.1206940315866
 30
0.0
 11
-361.661999934428
 21
571.6204663869498
 31
0.0
  0
LINE
  5
17A
330
1F
100
AcDbEntity
  8
C-A
  6
Continuous
 62
     6
370
     5
100
AcDbLine
 10
-356.1620312768056
 20
572.7485445383434
 30
0.0
 11
-362.1620758159736
 21
570.9485435485842
 31
0.0
  0
LINE
  5
17B
330
1F
100
AcDbEntity
  8
C-A
  6
Continuous
 62
     6
370
     5
100
AcDbLine
 10
-362.1620758159736
 20
576.2926251179465
 30
0.0
 11
-356.1620312768056
 21
574.4926241281871
 31
0.0
  0
LINE
  5
17C
330
1F
100
AcDbEntity
  8
C-A
  6
Continuous
 62
     6
370
     5
100
AcDbLine
 10
-356.6621071583512
 20
582.1203278206491
 30
0.0
 11
-356.6621071583512
 21
586.1203162734574
 31
0.0
  0
LINE
  5
17D
330
1F
100
AcDbEntity
  8
C-A
  6
Continuous
 62
     6
370
     5
100
AcDbLine
 10
-356.6621071583512
 20
586.1203162734574
 30
0.0
 11
-361.661999934428
 21
584.6204597885546
 31
0.0
  0
LINE
  5
17E
330
1F
100
AcDbEntity
  8
C-A
  6
Continuous
 62
     6
370
     5
100
AcDbLine
 10
-361.661999934428
 20
583.6206791851973
 30
0.0
 11
-361.661999934428
 21
584.6204597885546
 31
0.0
  0
LINE
  5
17F
330
1F
100
AcDbEntity
  8
C-A
  6
Continuous
 62
     6
370
     5
100
AcDbLine
 10
-361.661999934428
 20
583.6206791851973
 30
0.0
 11
-356.6621071583512
 21
582.1203278206491
 31
0.0
  0
LINE
  5
180
330
1F
100
AcDbEntity
  8
C-A
  6
Continuous
 62
     6
370
     5
100
AcDbLine
 10
-362.1620758159736
 20
583.248529691954
 30
0.0
 11
-356.1620312768056
 21
581.448528702195
 31
0.0
  0
LINE
  5
181
330
1F
100
AcDbEntity
  8
C-A
  6
Continuous
 62
     6
370
     5
100
AcDbLine
 10
-356.1620312768056
 20
586.7927339914684
 30
0.0
 11
-362.1620758159736
 21
584.9926092817977
 31
0.0
  0
LINE
  5
182
330
1F
100
AcDbEntity
  8
C-A
  6
Continuous
 62
     6
370
     5
100
AcDbLine
 10
-361.661999934428
 20
550.6204960797286
 30
0.0
 11
-361.661999934428
 21
554.6203608126257
 31
0.0
  0
LINE
  5
183
330
1F
100
AcDbEntity
  8
C-A
  6
Continuous
 62
     6
370
     5
100
AcDbLine
 10
-361.661999934428
 20
554.6203608126257
 30
0.0
 11
-356.6621071583512
 21
553.120628047634
 31
0.0
  0
LINE
  5
184
330
1F
100
AcDbEntity
  8
C-A
  6
Continuous
 62
     6
370
     5
100
AcDbLine
 10
-356.6621071583512
 20
552.1207237243655
 30
0.0
 11
-356.6621071583512
 21
553.120628047634
 31
0.0
  0
LINE
  5
185
330
1F
100
AcDbEntity
  8
C-A
  6
Continuous
 62
     6
370
     5
100
AcDbLine
 10
-356.6621071583512
 20
552.1207237243655
 30
0.0
 11
-361.661999934428
 21
550.6204960797286
 31
0.0
  0
LINE
  5
186
330
1F
100
AcDbEntity
  8
C-A
  6
Continuous
 62
     6
370
     5
100
AcDbLine
 10
-356.1620312768056
 20
551.7485742311223
 30
0.0
 11
-362.1620758159736
 21
549.948573241363
 31
0.0
  0
LINE
  5
187
330
1F
100
AcDbEntity
  8
C-A
  6
Continuous
 62
     6
370
     5
100
AcDbLine
 10
-362.1620758159736
 20
555.2927785306366
 30
0.0
 11
-356.1620312768056
 21
553.4926538209661
 31
0.0
  0
LINE
  5
188
330
1F
100
AcDbEntity
  8
C-A
  6
Continuous
 62
     6
370
     5
100
AcDbLine
 10
-356.6621071583512
 20
561.1204812333392
 30
0.0
 11
-356.6621071583512
 21
565.1203459662361
 31
0.0
  0
LINE
  5
189
330
1F
100
AcDbEntity
  8
C-A
  6
Continuous
 62
     6
370
     5
100
AcDbLine
 10
-356.6621071583512
 20
565.1203459662361
 30
0.0
 11
-361.661999934428
 21
563.6206132012446
 31
0.0
  0
LINE
  5
18A
330
1F
100
AcDbEntity
  8
C-A
  6
Continuous
 62
     6
370
     5
100
AcDbLine
 10
-361.661999934428
 20
562.6207088779762
 30
0.0
 11
-361.661999934428
 21
563.6206132012446
 31
0.0
  0
LINE
  5
18B
330
1F
100
AcDbEntity
  8
C-A
  6
Continuous
 62
     6
370
     5
100
AcDbLine
 10
-361.661999934428
 20
562.6207088779762
 30
0.0
 11
-356.6621071583512
 21
561.1204812333392
 31
0.0
  0
LINE
  5
18C
330
1F
100
AcDbEntity
  8
C-A
  6
Continuous
 62
     6
370
     5
100
AcDbLine
 10
-362.1620758159736
 20
562.2485593847327
 30
0.0
 11
-356.1620312768056
 21
560.4485583949736
 31
0.0
  0
LINE
  5
18D
330
1F
100
AcDbEntity
  8
C-A
  6
Continuous
 62
     6
370
     5
100
AcDbLine
 10
-356.1620312768056
 20
565.7927636842473
 30
0.0
 11
-362.1620758159736
 21
563.9926389745765
 31
0.0
  0
LINE
  5
18E
330
1F
100
AcDbEntity
  8
C-A
  6
Continuous
 62
     6
370
     5
100
AcDbLine
 10
-346.6620741663746
 20
620.1580145552352
 30
0.0
 11
-346.6620741663746
 21
624.1578792881324
 31
0.0
  0
LINE
  5
18F
330
1F
100
AcDbEntity
  8
C-A
  6
Continuous
 62
     6
370
     5
100
AcDbLine
 10
-346.6620741663746
 20
624.1578792881324
 30
0.0
 11
-341.6621813902978
 21
622.6581465231408
 31
0.0
  0
LINE
  5
190
330
1F
100
AcDbEntity
  8
C-A
  6
Continuous
 62
     6
370
     5
100
AcDbLine
 10
-341.6621813902978
 20
621.6582421998723
 30
0.0
 11
-341.6621813902978
 21
622.6581465231408
 31
0.0
  0
LINE
  5
191
330
1F
100
AcDbEntity
  8
C-A
  6
Continuous
 62
     6
370
     5
100
AcDbLine
 10
-341.6621813902978
 20
621.6582421998723
 30
0.0
 11
-346.6620741663746
 21
620.1580145552352
 31
0.0
  0
LINE
  5
192
330
1F
100
AcDbEntity
  8
C-A
  6
Continuous
 62
     6
370
     5
100
AcDbLine
 10
-341.1621055087522
 20
621.286092706629
 30
0.0
 11
-347.1621500479205
 21
619.4862154367809
 31
0.0
  0
LINE
  5
193
330
1F
100
AcDbEntity
  8
C-A
  6
Continuous
 62
     6
370
     5
100
AcDbLine
 10
-347.1621500479205
 20
624.8304207260546
 30
0.0
 11
-341.1621055087522
 21
623.030296016384
 31
0.0
  0
LINE
  5
194
330
1F
100
AcDbEntity
  8
C-A
  6
Continuous
 62
     6
370
     5
100
AcDbLine
 10
-341.6621813902978
 20
630.6581234287574
 30
0.0
 11
-341.6621813902978
 21
634.6577407218317
 31
0.0
  0
LINE
  5
195
330
1F
100
AcDbEntity
  8
C-A
  6
Continuous
 62
     6
370
     5
100
AcDbLine
 10
-341.6621813902978
 20
634.6577407218317
 30
0.0
 11
-346.6620741663746
 21
633.1582553966626
 31
0.0
  0
LINE
  5
196
330
1F
100
AcDbEntity
  8
C-A
  6
Continuous
 62
     6
370
     5
100
AcDbLine
 10
-346.6620741663746
 20
632.1581036335715
 30
0.0
 11
-346.6620741663746
 21
633.1582553966626
 31
0.0
  0
LINE
  5
197
330
1F
100
AcDbEntity
  8
C-A
  6
Continuous
 62
     6
370
     5
100
AcDbLine
 10
-346.6620741663746
 20
632.1581036335715
 30
0.0
 11
-341.6621813902978
 21
630.6581234287574
 31
0.0
  0
LINE
  5
198
330
1F
100
AcDbEntity
  8
C-A
  6
Continuous
 62
     6
370
     5
100
AcDbLine
 10
-347.1621500479205
 20
631.7862015801509
 30
0.0
 11
-341.1621055087522
 21
629.9860768704804
 31
0.0
  0
LINE
  5
199
330
1F
100
AcDbEntity
  8
C-A
  6
Continuous
 62
     6
370
     5
100
AcDbLine
 10
-341.1621055087522
 20
635.330282159754
 30
0.0
 11
-347.1621500479205
 21
633.5301574500832
 31
0.0
  0
LINE
  5
19A
330
1F
100
AcDbEntity
  8
C-A
  6
Continuous
 62
     6
370
     5
100
AcDbLine
 10
-346.6620741663746
 20
599.158044248014
 30
0.0
 11
-346.6620741663746
 21
603.1580327008223
 31
0.0
  0
LINE
  5
19B
330
1F
100
AcDbEntity
  8
C-A
  6
Continuous
 62
     6
370
     5
100
AcDbLine
 10
-346.6620741663746
 20
603.1580327008223
 30
0.0
 11
-341.6621813902978
 21
601.6581762159194
 31
0.0
  0
LINE
  5
19C
330
1F
100
AcDbEntity
  8
C-A
  6
Continuous
 62
     6
370
     5
100
AcDbLine
 10
-341.6621813902978
 20
600.6583956125621
 30
0.0
 11
-341.6621813902978
 21
601.6581762159194
 31
0.0
  0
LINE
  5
19D
330
1F
100
AcDbEntity
  8
C-A
  6
Continuous
 62
     6
370
     5
100
AcDbLine
 10
-341.6621813902978
 20
600.6583956125621
 30
0.0
 11
-346.6620741663746
 21
599.158044248014
 31
0.0
  0
LINE
  5
19E
330
1F
100
AcDbEntity
  8
C-A
  6
Continuous
 62
     6
370
     5
100
AcDbLine
 10
-341.1621055087522
 20
600.2862461193189
 30
0.0
 11
-347.1621500479205
 21
598.4862451295598
 31
0.0
  0
LINE
  5
19F
330
1F
100
AcDbEntity
  8
C-A
  6
Continuous
 62
     6
370
     5
100
AcDbLine
 10
-347.1621500479205
 20
603.830326698922
 30
0.0
 11
-341.1621055087522
 21
602.0303257091626
 31
0.0
  0
LINE
  5
1A0
330
1F
100
AcDbEntity
  8
C-A
  6
Continuous
 62
     6
370
     5
100
AcDbLine
 10
-341.6621813902978
 20
609.6580294016246
 30
0.0
 11
-341.6621813902978
 21
613.658017854433
 31
0.0
  0
LINE
  5
1A1
330
1F
100
AcDbEntity
  8
C-A
  6
Continuous
 62
     6
370
     5
100
AcDbLine
 10
-341.6621813902978
 20
613.658017854433
 30
0.0
 11
-346.6620741663746
 21
612.15816136953
 31
0.0
  0
LINE
  5
1A2
330
1F
100
AcDbEntity
  8
C-A
  6
Continuous
 62
     6
370
     5
100
AcDbLine
 10
-346.6620741663746
 20
611.1583807661727
 30
0.0
 11
-346.6620741663746
 21
612.15816136953
 31
0.0
  0
LINE
  5
1A3
330
1F
100
AcDbEntity
  8
C-A
  6
Continuous
 62
     6
370
     5
100
AcDbLine
 10
-346.6620741663746
 20
611.1583807661727
 30
0.0
 11
-341.6621813902978
 21
609.6580294016246
 31
0.0
  0
LINE
  5
1A4
330
1F
100
AcDbEntity
  8
C-A
  6
Continuous
 62
     6
370
     5
100
AcDbLine
 10
-347.1621500479205
 20
610.7862312729296
 30
0.0
 11
-341.1621055087522
 21
608.986106563259
 31
0.0
  0
LINE
  5
1A5
330
1F
100
AcDbEntity
  8
C-A
  6
Continuous
 62
     6
370
     5
100
AcDbLine
 10
-341.1621055087522
 20
614.3303118525328
 30
0.0
 11
-347.1621500479205
 21
612.5303108627734
 31
0.0
  0
LINE
  5
1A6
330
1F
100
AcDbEntity
  8
C-A
  6
Continuous
 62
     6
370
     5
100
AcDbLine
 10
-346.6620741663746
 20
578.1580739407929
 30
0.0
 11
-346.6620741663746
 21
582.1580623936012
 31
0.0
  0
LINE
  5
1A7
330
1F
100
AcDbEntity
  8
C-A
  6
Continuous
 62
     6
370
     5
100
AcDbLine
 10
-346.6620741663746
 20
582.1580623936012
 30
0.0
 11
-341.6621813902978
 21
580.658205908698
 31
0.0
  0
LINE
  5
1A8
330
1F
100
AcDbEntity
  8
C-A
  6
Continuous
 62
     6
370
     5
100
AcDbLine
 10
-341.6621813902978
 20
579.6584253053411
 30
0.0
 11
-341.6621813902978
 21
580.658205908698
 31
0.0
  0
LINE
  5
1A9
330
1F
100
AcDbEntity
  8
C-A
  6
Continuous
 62
     6
370
     5
100
AcDbLine
 10
-341.6621813902978
 20
579.6584253053411
 30
0.0
 11
-346.6620741663746
 21
578.1580739407929
 31
0.0
  0
LINE
  5
1AA
330
1F
100
AcDbEntity
  8
C-A
  6
Continuous
 62
     6
370
     5
100
AcDbLine
 10
-341.1621055087522
 20
579.2862758120978
 30
0.0
 11
-347.1621500479205
 21
577.4862748223384
 31
0.0
  0
LINE
  5
1AB
330
1F
100
AcDbEntity
  8
C-A
  6
Continuous
 62
     6
370
     5
100
AcDbLine
 10
-347.1621500479205
 20
582.8303563917007
 30
0.0
 11
-341.1621055087522
 21
581.0303554019415
 31
0.0
  0
LINE
  5
1AC
330
1F
100
AcDbEntity
  8
C-A
  6
Continuous
 62
     6
370
     5
100
AcDbLine
 10
-341.6621813902978
 20
588.6580590944036
 30
0.0
 11
-341.6621813902978
 21
592.6580475472116
 31
0.0
  0
LINE
  5
1AD
330
1F
100
AcDbEntity
  8
C-A
  6
Continuous
 62
     6
370
     5
100
AcDbLine
 10
-341.6621813902978
 20
592.6580475472116
 30
0.0
 11
-346.6620741663746
 21
591.1581910623088
 31
0.0
  0
LINE
  5
1AE
330
1F
100
AcDbEntity
  8
C-A
  6
Continuous
 62
     6
370
     5
100
AcDbLine
 10
-346.6620741663746
 20
590.1584104589515
 30
0.0
 11
-346.6620741663746
 21
591.1581910623088
 31
0.0
  0
LINE
  5
1AF
330
1F
100
AcDbEntity
  8
C-A
  6
Continuous
 62
     6
370
     5
100
AcDbLine
 10
-346.6620741663746
 20
590.1584104589515
 30
0.0
 11
-341.6621813902978
 21
588.6580590944036
 31
0.0
  0
LINE
  5
1B0
330
1F
100
AcDbEntity
  8
C-A
  6
Continuous
 62
     6
370
     5
100
AcDbLine
 10
-347.1621500479205
 20
589.7862609657082
 30
0.0
 11
-341.1621055087522
 21
587.9862599759491
 31
0.0
  0
LINE
  5
1B1
330
1F
100
AcDbEntity
  8
C-A
  6
Continuous
 62
     6
370
     5
100
AcDbLine
 10
-341.1621055087522
 20
593.3303415453113
 30
0.0
 11
-347.1621500479205
 21
591.5303405555519
 31
0.0
  0
LINE
  5
1B2
330
1F
100
AcDbEntity
  8
C-A
  6
Continuous
 62
     6
370
     5
100
AcDbLine
 10
-341.6621813902978
 20
567.6580887871821
 30
0.0
 11
-341.6621813902978
 21
571.6580772399905
 31
0.0
  0
LINE
  5
1B3
330
1F
100
AcDbEntity
  8
C-A
  6
Continuous
 62
     6
370
     5
100
AcDbLine
 10
-341.6621813902978
 20
571.6580772399905
 30
0.0
 11
-346.6620741663746
 21
570.1583444749988
 31
0.0
  0
LINE
  5
1B4
330
1F
100
AcDbEntity
  8
C-A
  6
Continuous
 62
     6
370
     5
100
AcDbLine
 10
-346.6620741663746
 20
569.1584401517304
 30
0.0
 11
-346.6620741663746
 21
570.1583444749988
 31
0.0
  0
LINE
  5
1B5
330
1F
100
AcDbEntity
  8
C-A
  6
Continuous
 62
     6
370
     5
100
AcDbLine
 10
-346.6620741663746
 20
569.1584401517304
 30
0.0
 11
-341.6621813902978
 21
567.6580887871821
 31
0.0
  0
LINE
  5
1B6
330
1F
100
AcDbEntity
  8
C-A
  6
Continuous
 62
     6
370
     5
100
AcDbLine
 10
-347.1621500479205
 20
568.7862906584871
 30
0.0
 11
-341.1621055087522
 21
566.9862896687277
 31
0.0
  0
LINE
  5
1B7
330
1F
100
AcDbEntity
  8
C-A
  6
Continuous
 62
     6
370
     5
100
AcDbLine
 10
-341.1621055087522
 20
572.33037123809
 30
0.0
 11
-347.1621500479205
 21
570.5303702483309
 31
0.0
  0
LINE
  5
1B8
330
1F
100
AcDbEntity
  8
C-A
  6
Continuous
 62
     6
370
     5
100
AcDbLine
 10
-331.6620246784103
 20
633.2300129452269
 30
0.0
 11
-331.6620246784103
 21
637.2298776781238
 31
0.0
  0
LINE
  5
1B9
330
1F
100
AcDbEntity
  8
C-A
  6
Continuous
 62
     6
370
     5
100
AcDbLine
 10
-331.6620246784103
 20
637.2298776781238
 30
0.0
 11
-326.6621319023335
 21
635.7301449131324
 31
0.0
  0
LINE
  5
1BA
330
1F
100
AcDbEntity
  8
C-A
  6
Continuous
 62
     6
370
     5
100
AcDbLine
 10
-326.6621319023335
 20
634.7302405898637
 30
0.0
 11
-326.6621319023335
 21
635.7301449131324
 31
0.0
  0
LINE
  5
1BB
330
1F
100
AcDbEntity
  8
C-A
  6
Continuous
 62
     6
370
     5
100
AcDbLine
 10
-326.6621319023335
 20
634.7302405898637
 30
0.0
 11
-331.6620246784103
 21
633.2300129452269
 31
0.0
  0
LINE
  5
1BC
330
1F
100
AcDbEntity
  8
C-A
  6
Continuous
 62
     6
370
     5
100
AcDbLine
 10
-326.1620560207876
 20
634.3580910966205
 30
0.0
 11
-332.1621005599559
 21
632.5579663869498
 31
0.0
  0
LINE
  5
1BD
330
1F
100
AcDbEntity
  8
C-A
  6
Continuous
 62
     6
370
     5
100
AcDbLine
 10
-332.1621005599559
 20
637.9021716762236
 30
0.0
 11
-326.1620560207876
 21
636.1022944063757
 31
0.0
  0
LINE
  5
1BE
330
1F
100
AcDbEntity
  8
C-A
  6
Continuous
 62
     6
370
     5
100
AcDbLine
 10
-331.6620246784103
 20
612.2300426380057
 30
0.0
 11
-331.6620246784103
 21
616.2299073709025
 31
0.0
  0
LINE
  5
1BF
330
1F
100
AcDbEntity
  8
C-A
  6
Continuous
 62
     6
370
     5
100
AcDbLine
 10
-331.6620246784103
 20
616.2299073709025
 30
0.0
 11
-326.6621319023335
 21
614.7301746059111
 31
0.0
  0
LINE
  5
1C0
330
1F
100
AcDbEntity
  8
C-A
  6
Continuous
 62
     6
370
     5
100
AcDbLine
 10
-326.6621319023335
 20
613.7302702826423
 30
0.0
 11
-326.6621319023335
 21
614.7301746059111
 31
0.0
  0
LINE
  5
1C1
330
1F
100
AcDbEntity
  8
C-A
  6
Continuous
 62
     6
370
     5
100
AcDbLine
 10
-326.6621319023335
 20
613.7302702826423
 30
0.0
 11
-331.6620246784103
 21
612.2300426380057
 31
0.0
  0
LINE
  5
1C2
330
1F
100
AcDbEntity
  8
C-A
  6
Continuous
 62
     6
370
     5
100
AcDbLine
 10
-326.1620560207876
 20
613.3581207893991
 30
0.0
 11
-332.1621005599559
 21
611.55811979964
 31
0.0
  0
LINE
  5
1C3
330
1F
100
AcDbEntity
  8
C-A
  6
Continuous
 62
     6
370
     5
100
AcDbLine
 10
-332.1621005599559
 20
616.9024488088248
 30
0.0
 11
-326.1620560207876
 21
615.1023240991543
 31
0.0
  0
LINE
  5
1C4
330
1F
100
AcDbEntity
  8
C-A
  6
Continuous
 62
     6
370
     5
100
AcDbLine
 10
-326.6621319023335
 20
622.7301515115275
 30
0.0
 11
-326.6621319023335
 21
626.7297688046019
 31
0.0
  0
LINE
  5
1C5
330
1F
100
AcDbEntity
  8
C-A
  6
Continuous
 62
     6
370
     5
100
AcDbLine
 10
-326.6621319023335
 20
626.7297688046019
 30
0.0
 11
-331.6620246784103
 21
625.230283479433
 31
0.0
  0
LINE
  5
1C6
330
1F
100
AcDbEntity
  8
C-A
  6
Continuous
 62
     6
370
     5
100
AcDbLine
 10
-331.6620246784103
 20
624.2301317163418
 30
0.0
 11
-331.6620246784103
 21
625.230283479433
 31
0.0
  0
LINE
  5
1C7
330
1F
100
AcDbEntity
  8
C-A
  6
Continuous
 62
     6
370
     5
100
AcDbLine
 10
-331.6620246784103
 20
624.2301317163418
 30
0.0
 11
-326.6621319023335
 21
622.7301515115275
 31
0.0
  0
LINE
  5
1C8
330
1F
100
AcDbEntity
  8
C-A
  6
Continuous
 62
     6
370
     5
100
AcDbLine
 10
-332.1621005599559
 20
623.8582296629213
 30
0.0
 11
-326.1620560207876
 21
622.0581049532507
 31
0.0
  0
LINE
  5
1C9
330
1F
100
AcDbEntity
  8
C-A
  6
Continuous
 62
     6
370
     5
100
AcDbLine
 10
-326.1620560207876
 20
627.4023102425241
 30
0.0
 11
-332.1621005599559
 21
625.6021855328536
 31
0.0
  0
LINE
  5
1CA
330
1F
100
AcDbEntity
  8
C-A
  6
Continuous
 62
     6
370
     5
100
AcDbLine
 10
-331.6620246784103
 20
591.2300723307842
 30
0.0
 11
-331.6620246784103
 21
595.2299370636814
 31
0.0
  0
LINE
  5
1CB
330
1F
100
AcDbEntity
  8
C-A
  6
Continuous
 62
     6
370
     5
100
AcDbLine
 10
-331.6620246784103
 20
595.2299370636814
 30
0.0
 11
-326.6621319023335
 21
593.7302042986897
 31
0.0
  0
LINE
  5
1CC
330
1F
100
AcDbEntity
  8
C-A
  6
Continuous
 62
     6
370
     5
100
AcDbLine
 10
-326.6621319023335
 20
592.7302999754213
 30
0.0
 11
-326.6621319023335
 21
593.7302042986897
 31
0.0
  0
LINE
  5
1CD
330
1F
100
AcDbEntity
  8
C-A
  6
Continuous
 62
     6
370
     5
100
AcDbLine
 10
-326.6621319023335
 20
592.7302999754213
 30
0.0
 11
-331.6620246784103
 21
591.2300723307842
 31
0.0
  0
LINE
  5
1CE
330
1F
100
AcDbEntity
  8
C-A
  6
Continuous
 62
     6
370
     5
100
AcDbLine
 10
-326.1620560207876
 20
592.3582742020892
 30
0.0
 11
-332.1621005599559
 21
590.5582732123298
 31
0.0
  0
LINE
  5
1CF
330
1F
100
AcDbEntity
  8
C-A
  6
Continuous
 62
     6
370
     5
100
AcDbLine
 10
-332.1621005599559
 20
595.9023547816923
 30
0.0
 11
-326.1620560207876
 21
594.102353791933
 31
0.0
  0
LINE
  5
1D0
330
1F
100
AcDbEntity
  8
C-A
  6
Continuous
 62
     6
370
     5
100
AcDbLine
 10
-326.6621319023335
 20
601.7300574843949
 30
0.0
 11
-326.6621319023335
 21
605.7300459372033
 31
0.0
  0
LINE
  5
1D1
330
1F
100
AcDbEntity
  8
C-A
  6
Continuous
 62
     6
370
     5
100
AcDbLine
 10
-326.6621319023335
 20
605.7300459372033
 30
0.0
 11
-331.6620246784103
 21
604.2301894523005
 31
0.0
  0
LINE
  5
1D2
330
1F
100
AcDbEntity
  8
C-A
  6
Continuous
 62
     6
370
     5
100
AcDbLine
 10
-331.6620246784103
 20
603.2302851290319
 30
0.0
 11
-331.6620246784103
 21
604.2301894523005
 31
0.0
  0
LINE
  5
1D3
330
1F
100
AcDbEntity
  8
C-A
  6
Continuous
 62
     6
370
     5
100
AcDbLine
 10
-331.6620246784103
 20
603.2302851290319
 30
0.0
 11
-326.6621319023335
 21
601.7300574843949
 31
0.0
  0
LINE
  5
1D4
330
1F
100
AcDbEntity
  8
C-A
  6
Continuous
 62
     6
370
     5
100
AcDbLine
 10
-332.1621005599559
 20
602.8582593556998
 30
0.0
 11
-326.1620560207876
 21
601.0581346460293
 31
0.0
  0
LINE
  5
1D5
330
1F
100
AcDbEntity
  8
C-A
  6
Continuous
 62
     6
370
     5
100
AcDbLine
 10
-326.1620560207876
 20
606.402339935303
 30
0.0
 11
-332.1621005599559
 21
604.6023389455436
 31
0.0
  0
LINE
  5
1D6
330
1F
100
AcDbEntity
  8
C-A
  6
Continuous
 62
     6
370
     5
100
AcDbLine
 10
-326.6621319023335
 20
580.7300871771736
 30
0.0
 11
-326.6621319023335
 21
584.7300756299819
 31
0.0
  0
LINE
  5
1D7
330
1F
100
AcDbEntity
  8
C-A
  6
Continuous
 62
     6
370
     5
100
AcDbLine
 10
-326.6621319023335
 20
584.7300756299819
 30
0.0
 11
-331.6620246784103
 21
583.230219145079
 31
0.0
  0
LINE
  5
1D8
330
1F
100
AcDbEntity
  8
C-A
  6
Continuous
 62
     6
370
     5
100
AcDbLine
 10
-331.6620246784103
 20
582.2304385417217
 30
0.0
 11
-331.6620246784103
 21
583.230219145079
 31
0.0
  0
LINE
  5
1D9
330
1F
100
AcDbEntity
  8
C-A
  6
Continuous
 62
     6
370
     5
100
AcDbLine
 10
-331.6620246784103
 20
582.2304385417217
 30
0.0
 11
-326.6621319023335
 21
580.7300871771736
 31
0.0
  0
LINE
  5
1DA
330
1F
100
AcDbEntity
  8
C-A
  6
Continuous
 62
     6
370
     5
100
AcDbLine
 10
-332.1621005599559
 20
581.8582890484786
 30
0.0
 11
-326.1620560207876
 21
580.058164338808
 31
0.0
  0
LINE
  5
1DB
330
1F
100
AcDbEntity
  8
C-A
  6
Continuous
 62
     6
370
     5
100
AcDbLine
 10
-326.1620560207876
 20
585.4023696280817
 30
0.0
 11
-332.1621005599559
 21
583.6023686383223
 31
0.0
  0
LINE
  5
1DC
330
1F
100
AcDbEntity
  8
C-A
  6
Continuous
 62
     6
370
     5
100
AcDbLine
 10
-378.6624766684864
 20
526.147212982178
 30
0.0
 11
-378.6624766684864
 21
522.1473482492809
 31
0.0
  0
LINE
  5
1DD
330
1F
100
AcDbEntity
  8
C-A
  6
Continuous
 62
     6
370
     5
100
AcDbLine
 10
-378.6624766684864
 20
522.1473482492809
 30
0.0
 11
-383.6623694445632
 21
523.6470810142725
 31
0.0
  0
LINE
  5
1DE
330
1F
100
AcDbEntity
  8
C-A
  6
Continuous
 62
     6
370
     5
100
AcDbLine
 10
-383.6623694445632
 20
524.6469853375411
 30
0.0
 11
-383.6623694445632
 21
523.6470810142725
 31
0.0
  0
LINE
  5
1DF
330
1F
100
AcDbEntity
  8
C-A
  6
Continuous
 62
     6
370
     5
100
AcDbLine
 10
-383.6623694445632
 20
524.6469853375411
 30
0.0
 11
-378.6624766684864
 21
526.147212982178
 31
0.0
  0
LINE
  5
1E0
330
1F
100
AcDbEntity
  8
C-A
  6
Continuous
 62
     6
370
     5
100
AcDbLine
 10
-384.1623216061973
 20
525.0191348307842
 30
0.0
 11
-378.1624007869405
 21
526.8191358205436
 31
0.0
  0
LINE
  5
1E1
330
1F
100
AcDbEntity
  8
C-A
  6
Continuous
 62
     6
370
     5
100
AcDbLine
 10
-378.1624007869405
 20
521.4750542511814
 30
0.0
 11
-384.1623216061973
 21
523.2750552409404
 31
0.0
  0
LINE
  5
1E2
330
1F
100
AcDbEntity
  8
C-A
  6
Continuous
 62
     6
370
     5
100
AcDbLine
 10
-383.6623694445632
 20
515.6473515484786
 30
0.0
 11
-383.6623694445632
 21
511.6473630956702
 31
0.0
  0
LINE
  5
1E3
330
1F
100
AcDbEntity
  8
C-A
  6
Continuous
 62
     6
370
     5
100
AcDbLine
 10
-383.6623694445632
 20
511.6473630956702
 30
0.0
 11
-378.6624766684864
 21
513.147219580573
 31
0.0
  0
LINE
  5
1E4
330
1F
100
AcDbEntity
  8
C-A
  6
Continuous
 62
     6
370
     5
100
AcDbLine
 10
-378.6624766684864
 20
514.1470001839303
 30
0.0
 11
-378.6624766684864
 21
513.147219580573
 31
0.0
  0
LINE
  5
1E5
330
1F
100
AcDbEntity
  8
C-A
  6
Continuous
 62
     6
370
     5
100
AcDbLine
 10
-378.6624766684864
 20
514.1470001839303
 30
0.0
 11
-383.6623694445632
 21
515.6473515484786
 31
0.0
  0
LINE
  5
1E6
330
1F
100
AcDbEntity
  8
C-A
  6
Continuous
 62
     6
370
     5
100
AcDbLine
 10
-378.1624007869405
 20
514.5191496771736
 30
0.0
 11
-384.1623216061973
 21
516.319150666933
 31
0.0
  0
LINE
  5
1E7
330
1F
100
AcDbEntity
  8
C-A
  6
Continuous
 62
     6
370
     5
100
AcDbLine
 10
-384.1623216061973
 20
510.9750690975707
 30
0.0
 11
-378.1624007869405
 21
512.7750700873298
 31
0.0
  0
LINE
  5
1E8
330
1F
100
AcDbEntity
  8
C-A
  6
Continuous
 62
     6
370
     5
100
AcDbLine
 10
-378.6624766684864
 20
505.1473663948678
 30
0.0
 11
-378.6624766684864
 21
501.1473779420598
 31
0.0
  0
LINE
  5
1E9
330
1F
100
AcDbEntity
  8
C-A
  6
Continuous
 62
     6
370
     5
100
AcDbLine
 10
-378.6624766684864
 20
501.1473779420598
 30
0.0
 11
-383.6623694445632
 21
502.6472344269627
 31
0.0
  0
LINE
  5
1EA
330
1F
100
AcDbEntity
  8
C-A
  6
Continuous
 62
     6
370
     5
100
AcDbLine
 10
-383.6623694445632
 20
503.6470150303197
 30
0.0
 11
-383.6623694445632
 21
502.6472344269627
 31
0.0
  0
LINE
  5
1EB
330
1F
100
AcDbEntity
  8
C-A
  6
Continuous
 62
     6
370
     5
100
AcDbLine
 10
-383.6623694445632
 20
503.6470150303197
 30
0.0
 11
-378.6624766684864
 21
505.1473663948678
 31
0.0
  0
LINE
  5
1EC
330
1F
100
AcDbEntity
  8
C-A
  6
Continuous
 62
     6
370
     5
100
AcDbLine
 10
-384.1623216061973
 20
504.0191645235632
 30
0.0
 11
-378.1624007869405
 21
505.8191655133223
 31
0.0
  0
LINE
  5
1ED
330
1F
100
AcDbEntity
  8
C-A
  6
Continuous
 62
     6
370
     5
100
AcDbLine
 10
-378.1624007869405
 20
500.47508394396
 30
0.0
 11
-384.1623216061973
 21
502.2750849337194
 31
0.0
  0
LINE
  5
1EE
330
1F
100
AcDbEntity
  8
C-A
  6
Continuous
 62
     6
370
     5
100
AcDbLine
 10
-378.6624766684864
 20
547.1471832893991
 30
0.0
 11
-378.6624766684864
 21
543.1473185565022
 31
0.0
  0
LINE
  5
1EF
330
1F
100
AcDbEntity
  8
C-A
  6
Continuous
 62
     6
370
     5
100
AcDbLine
 10
-378.6624766684864
 20
543.1473185565022
 30
0.0
 11
-383.6623694445632
 21
544.6470513214939
 31
0.0
  0
LINE
  5
1F0
330
1F
100
AcDbEntity
  8
C-A
  6
Continuous
 62
     6
370
     5
100
AcDbLine
 10
-383.6623694445632
 20
545.6469556447623
 30
0.0
 11
-383.6623694445632
 21
544.6470513214939
 31
0.0
  0
LINE
  5
1F1
330
1F
100
AcDbEntity
  8
C-A
  6
Continuous
 62
     6
370
     5
100
AcDbLine
 10
-383.6623694445632
 20
545.6469556447623
 30
0.0
 11
-378.6624766684864
 21
547.1471832893991
 31
0.0
  0
LINE
  5
1F2
330
1F
100
AcDbEntity
  8
C-A
  6
Continuous
 62
     6
370
     5
100
AcDbLine
 10
-384.1623216061973
 20
546.0191051380057
 30
0.0
 11
-378.1624007869405
 21
547.819106127765
 31
0.0
  0
LINE
  5
1F3
330
1F
100
AcDbEntity
  8
C-A
  6
Continuous
 62
     6
370
     5
100
AcDbLine
 10
-378.1624007869405
 20
542.4750245584025
 30
0.0
 11
-384.1623216061973
 21
544.2750255481619
 31
0.0
  0
LINE
  5
1F4
330
1F
100
AcDbEntity
  8
C-A
  6
Continuous
 62
     6
370
     5
100
AcDbLine
 10
-383.6623694445632
 20
536.6471981357884
 30
0.0
 11
-383.6623694445632
 21
532.6473334028915
 31
0.0
  0
LINE
  5
1F5
330
1F
100
AcDbEntity
  8
C-A
  6
Continuous
 62
     6
370
     5
100
AcDbLine
 10
-383.6623694445632
 20
532.6473334028915
 30
0.0
 11
-378.6624766684864
 21
534.1470661678832
 31
0.0
  0
LINE
  5
1F6
330
1F
100
AcDbEntity
  8
C-A
  6
Continuous
 62
     6
370
     5
100
AcDbLine
 10
-378.6624766684864
 20
535.1469704911517
 30
0.0
 11
-378.6624766684864
 21
534.1470661678832
 31
0.0
  0
LINE
  5
1F7
330
1F
100
AcDbEntity
  8
C-A
  6
Continuous
 62
     6
370
     5
100
AcDbLine
 10
-378.6624766684864
 20
535.1469704911517
 30
0.0
 11
-383.6623694445632
 21
536.6471981357884
 31
0.0
  0
LINE
  5
1F8
330
1F
100
AcDbEntity
  8
C-A
  6
Continuous
 62
     6
370
     5
100
AcDbLine
 10
-378.1624007869405
 20
535.5191199843949
 30
0.0
 11
-384.1623216061973
 21
537.3191209741543
 31
0.0
  0
LINE
  5
1F9
330
1F
100
AcDbEntity
  8
C-A
  6
Continuous
 62
     6
370
     5
100
AcDbLine
 10
-384.1623216061973
 20
531.9749156848807
 30
0.0
 11
-378.1624007869405
 21
533.7750403945512
 31
0.0
  0
LINE
  5
1FA
330
1F
100
AcDbEntity
  8
C-A
  6
Continuous
 62
     6
370
     5
100
AcDbLine
 10
-378.6624766684864
 20
568.1471535966205
 30
0.0
 11
-378.6624766684864
 21
564.1472888637236
 31
0.0
  0
LINE
  5
1FB
330
1F
100
AcDbEntity
  8
C-A
  6
Continuous
 62
     6
370
     5
100
AcDbLine
 10
-378.6624766684864
 20
564.1472888637236
 30
0.0
 11
-383.6623694445632
 21
565.647021628715
 31
0.0
  0
LINE
  5
1FC
330
1F
100
AcDbEntity
  8
C-A
  6
Continuous
 62
     6
370
     5
100
AcDbLine
 10
-383.6623694445632
 20
566.6469259519838
 30
0.0
 11
-383.6623694445632
 21
565.647021628715
 31
0.0
  0
LINE
  5
1FD
330
1F
100
AcDbEntity
  8
C-A
  6
Continuous
 62
     6
370
     5
100
AcDbLine
 10
-383.6623694445632
 20
566.6469259519838
 30
0.0
 11
-378.6624766684864
 21
568.1471535966205
 31
0.0
  0
LINE
  5
1FE
330
1F
100
AcDbEntity
  8
C-A
  6
Continuous
 62
     6
370
     5
100
AcDbLine
 10
-384.1623216061973
 20
567.0189517253154
 30
0.0
 11
-378.1624007869405
 21
568.8190764349861
 31
0.0
  0
LINE
  5
1FF
330
1F
100
AcDbEntity
  8
C-A
  6
Continuous
 62
     6
370
     5
100
AcDbLine
 10
-378.1624007869405
 20
563.4748711457127
 30
0.0
 11
-384.1623216061973
 21
565.2748721354717
 31
0.0
  0
LINE
  5
200
330
1F
100
AcDbEntity
  8
C-A
  6
Continuous
 62
     6
370
     5
100
AcDbLine
 10
-383.6623694445632
 20
557.6471684430098
 30
0.0
 11
-383.6623694445632
 21
553.647303710113
 31
0.0
  0
LINE
  5
201
330
1F
100
AcDbEntity
  8
C-A
  6
Continuous
 62
     6
370
     5
100
AcDbLine
 10
-383.6623694445632
 20
553.647303710113
 30
0.0
 11
-378.6624766684864
 21
555.1470364751043
 31
0.0
  0
LINE
  5
202
330
1F
100
AcDbEntity
  8
C-A
  6
Continuous
 62
     6
370
     5
100
AcDbLine
 10
-378.6624766684864
 20
556.1469407983731
 30
0.0
 11
-378.6624766684864
 21
555.1470364751043
 31
0.0
  0
LINE
  5
203
330
1F
100
AcDbEntity
  8
C-A
  6
Continuous
 62
     6
370
     5
100
AcDbLine
 10
-378.6624766684864
 20
556.1469407983731
 30
0.0
 11
-383.6623694445632
 21
557.6471684430098
 31
0.0
  0
LINE
  5
204
330
1F
100
AcDbEntity
  8
C-A
  6
Continuous
 62
     6
370
     5
100
AcDbLine
 10
-378.1624007869405
 20
556.5189665717048
 30
0.0
 11
-384.1623216061973
 21
558.3190912813757
 31
0.0
  0
LINE
  5
205
330
1F
100
AcDbEntity
  8
C-A
  6
Continuous
 62
     6
370
     5
100
AcDbLine
 10
-384.1623216061973
 20
552.9748859921019
 30
0.0
 11
-378.1624007869405
 21
554.7750107017725
 31
0.0
  0
LINE
  5
206
330
1F
100
AcDbEntity
  8
C-A
  6
Continuous
 62
     6
370
     5
100
AcDbLine
 10
-378.6624766684864
 20
589.1471239038418
 30
0.0
 11
-378.6624766684864
 21
585.147259170945
 31
0.0
  0
LINE
  5
207
330
1F
100
AcDbEntity
  8
C-A
  6
Continuous
 62
     6
370
     5
100
AcDbLine
 10
-378.6624766684864
 20
585.147259170945
 30
0.0
 11
-383.6623694445632
 21
586.6469919359363
 31
0.0
  0
LINE
  5
208
330
1F
100
AcDbEntity
  8
C-A
  6
Continuous
 62
     6
370
     5
100
AcDbLine
 10
-383.6623694445632
 20
587.6468962592048
 30
0.0
 11
-383.6623694445632
 21
586.6469919359363
 31
0.0
  0
LINE
  5
209
330
1F
100
AcDbEntity
  8
C-A
  6
Continuous
 62
     6
370
     5
100
AcDbLine
 10
-383.6623694445632
 20
587.6468962592048
 30
0.0
 11
-378.6624766684864
 21
589.1471239038418
 31
0.0
  0
LINE
  5
20A
330
1F
100
AcDbEntity
  8
C-A
  6
Continuous
 62
     6
370
     5
100
AcDbLine
 10
-384.1623216061973
 20
588.0189220325369
 30
0.0
 11
-378.1624007869405
 21
589.8189230222963
 31
0.0
  0
LINE
  5
20B
330
1F
100
AcDbEntity
  8
C-A
  6
Continuous
 62
     6
370
     5
100
AcDbLine
 10
-378.1624007869405
 20
584.4748414529338
 30
0.0
 11
-384.1623216061973
 21
586.2748424426932
 31
0.0
  0
LINE
  5
20C
330
1F
100
AcDbEntity
  8
C-A
  6
Continuous
 62
     6
370
     5
100
AcDbLine
 10
-383.6623694445632
 20
578.6471387502311
 30
0.0
 11
-383.6623694445632
 21
574.6472740173342
 31
0.0
  0
LINE
  5
20D
330
1F
100
AcDbEntity
  8
C-A
  6
Continuous
 62
     6
370
     5
100
AcDbLine
 10
-383.6623694445632
 20
574.6472740173342
 30
0.0
 11
-378.6624766684864
 21
576.1470067823257
 31
0.0
  0
LINE
  5
20E
330
1F
100
AcDbEntity
  8
C-A
  6
Continuous
 62
     6
370
     5
100
AcDbLine
 10
-378.6624766684864
 20
577.1469111055944
 30
0.0
 11
-378.6624766684864
 21
576.1470067823257
 31
0.0
  0
LINE
  5
20F
330
1F
100
AcDbEntity
  8
C-A
  6
Continuous
 62
     6
370
     5
100
AcDbLine
 10
-378.6624766684864
 20
577.1469111055944
 30
0.0
 11
-383.6623694445632
 21
578.6471387502311
 31
0.0
  0
LINE
  5
210
330
1F
100
AcDbEntity
  8
C-A
  6
Continuous
 62
     6
370
     5
100
AcDbLine
 10
-378.1624007869405
 20
577.5189368789262
 30
0.0
 11
-384.1623216061973
 21
579.3190615885967
 31
0.0
  0
LINE
  5
211
330
1F
100
AcDbEntity
  8
C-A
  6
Continuous
 62
     6
370
     5
100
AcDbLine
 10
-384.1623216061973
 20
573.974856299323
 30
0.0
 11
-378.1624007869405
 21
575.7749810089939
 31
0.0
  0
LINE
  5
212
330
1F
100
AcDbEntity
  8
C-A
  6
Continuous
 62
     6
370
     5
100
AcDbLine
 10
-378.6624766684864
 20
610.1470942110632
 30
0.0
 11
-378.6624766684864
 21
606.1472294781661
 31
0.0
  0
LINE
  5
213
330
1F
100
AcDbEntity
  8
C-A
  6
Continuous
 62
     6
370
     5
100
AcDbLine
 10
-378.6624766684864
 20
606.1472294781661
 30
0.0
 11
-383.6623694445632
 21
607.6469622431578
 31
0.0
  0
LINE
  5
214
330
1F
100
AcDbEntity
  8
C-A
  6
Continuous
 62
     6
370
     5
100
AcDbLine
 10
-383.6623694445632
 20
608.646742846515
 30
0.0
 11
-383.6623694445632
 21
607.6469622431578
 31
0.0
  0
LINE
  5
215
330
1F
100
AcDbEntity
  8
C-A
  6
Continuous
 62
     6
370
     5
100
AcDbLine
 10
-383.6623694445632
 20
608.646742846515
 30
0.0
 11
-378.6624766684864
 21
610.1470942110632
 31
0.0
  0
LINE
  5
216
330
1F
100
AcDbEntity
  8
C-A
  6
Continuous
 62
     6
370
     5
100
AcDbLine
 10
-384.1623216061973
 20
609.0188923397582
 30
0.0
 11
-378.1624007869405
 21
610.8188933295173
 31
0.0
  0
LINE
  5
217
330
1F
100
AcDbEntity
  8
C-A
  6
Continuous
 62
     6
370
     5
100
AcDbLine
 10
-378.1624007869405
 20
605.474811760155
 30
0.0
 11
-384.1623216061973
 21
607.2748127499144
 31
0.0
  0
LINE
  5
218
330
1F
100
AcDbEntity
  8
C-A
  6
Continuous
 62
     6
370
     5
100
AcDbLine
 10
-383.6623694445632
 20
599.6471090574526
 30
0.0
 11
-383.6623694445632
 21
595.6471206046442
 31
0.0
  0
LINE
  5
219
330
1F
100
AcDbEntity
  8
C-A
  6
Continuous
 62
     6
370
     5
100
AcDbLine
 10
-383.6623694445632
 20
595.6471206046442
 30
0.0
 11
-378.6624766684864
 21
597.146977089547
 31
0.0
  0
LINE
  5
21A
330
1F
100
AcDbEntity
  8
C-A
  6
Continuous
 62
     6
370
     5
100
AcDbLine
 10
-378.6624766684864
 20
598.1467576929043
 30
0.0
 11
-378.6624766684864
 21
597.146977089547
 31
0.0
  0
LINE
  5
21B
330
1F
100
AcDbEntity
  8
C-A
  6
Continuous
 62
     6
370
     5
100
AcDbLine
 10
-378.6624766684864
 20
598.1467576929043
 30
0.0
 11
-383.6623694445632
 21
599.6471090574526
 31
0.0
  0
LINE
  5
21C
330
1F
100
AcDbEntity
  8
C-A
  6
Continuous
 62
     6
370
     5
100
AcDbLine
 10
-378.1624007869405
 20
598.5189071861475
 30
0.0
 11
-384.1623216061973
 21
600.3189081759069
 31
0.0
  0
LINE
  5
21D
330
1F
100
AcDbEntity
  8
C-A
  6
Continuous
 62
     6
370
     5
100
AcDbLine
 10
-384.1623216061973
 20
594.9748266065444
 30
0.0
 11
-378.1624007869405
 21
596.7748275963038
 31
0.0
  0
LINE
  5
21E
330
1F
100
AcDbEntity
  8
C-A
  6
Continuous
 62
     6
370
     5
100
AcDbLine
 10
-393.662278716628
 20
502.3529047579382
 30
0.0
 11
-393.662278716628
 21
498.3529163051298
 31
0.0
  0
LINE
  5
21F
330
1F
100
AcDbEntity
  8
C-A
  6
Continuous
 62
     6
370
     5
100
AcDbLine
 10
-393.662278716628
 20
498.3529163051298
 30
0.0
 11
-398.6622952126163
 21
499.8527727900327
 31
0.0
  0
LINE
  5
220
330
1F
100
AcDbEntity
  8
C-A
  6
Continuous
 62
     6
370
     5
100
AcDbLine
 10
-398.6622952126163
 20
500.85255339339
 30
0.0
 11
-398.6622952126163
 21
499.8527727900327
 31
0.0
  0
LINE
  5
221
330
1F
100
AcDbEntity
  8
C-A
  6
Continuous
 62
     6
370
     5
100
AcDbLine
 10
-398.6622952126163
 20
500.85255339339
 30
0.0
 11
-393.662278716628
 21
502.3529047579382
 31
0.0
  0
LINE
  5
222
330
1F
100
AcDbEntity
  8
C-A
  6
Continuous
 62
     6
370
     5
100
AcDbLine
 10
-399.1623710941619
 20
501.2247028866332
 30
0.0
 11
-393.1623265549939
 21
503.0247038763923
 31
0.0
  0
LINE
  5
223
330
1F
100
AcDbEntity
  8
C-A
  6
Continuous
 62
     6
370
     5
100
AcDbLine
 10
-393.1623265549939
 20
497.6806223070301
 30
0.0
 11
-399.1623710941619
 21
499.4806232967895
 31
0.0
  0
LINE
  5
224
330
1F
100
AcDbEntity
  8
C-A
  6
Continuous
 62
     6
370
     5
100
AcDbLine
 10
-393.662278716628
 20
523.3528750651592
 30
0.0
 11
-393.662278716628
 21
519.3528866123509
 31
0.0
  0
LINE
  5
225
330
1F
100
AcDbEntity
  8
C-A
  6
Continuous
 62
     6
370
     5
100
AcDbLine
 10
-393.662278716628
 20
519.3528866123509
 30
0.0
 11
-398.6622952126163
 21
520.852743097254
 31
0.0
  0
LINE
  5
226
330
1F
100
AcDbEntity
  8
C-A
  6
Continuous
 62
     6
370
     5
100
AcDbLine
 10
-398.6622952126163
 20
521.8525237006111
 30
0.0
 11
-398.6622952126163
 21
520.852743097254
 31
0.0
  0
LINE
  5
227
330
1F
100
AcDbEntity
  8
C-A
  6
Continuous
 62
     6
370
     5
100
AcDbLine
 10
-398.6622952126163
 20
521.8525237006111
 30
0.0
 11
-393.662278716628
 21
523.3528750651592
 31
0.0
  0
LINE
  5
228
330
1F
100
AcDbEntity
  8
C-A
  6
Continuous
 62
     6
370
     5
100
AcDbLine
 10
-399.1623710941619
 20
522.2246731938543
 30
0.0
 11
-393.1623265549939
 21
524.0246741836137
 31
0.0
  0
LINE
  5
229
330
1F
100
AcDbEntity
  8
C-A
  6
Continuous
 62
     6
370
     5
100
AcDbLine
 10
-393.1623265549939
 20
518.6805926142515
 30
0.0
 11
-399.1623710941619
 21
520.4805936040106
 31
0.0
  0
LINE
  5
22A
330
1F
100
AcDbEntity
  8
C-A
  6
Continuous
 62
     6
370
     5
100
AcDbLine
 10
-398.6622952126163
 20
512.8528899115486
 30
0.0
 11
-398.6622952126163
 21
508.8529014587405
 31
0.0
  0
LINE
  5
22B
330
1F
100
AcDbEntity
  8
C-A
  6
Continuous
 62
     6
370
     5
100
AcDbLine
 10
-398.6622952126163
 20
508.8529014587405
 30
0.0
 11
-393.662278716628
 21
510.3527579436434
 31
0.0
  0
LINE
  5
22C
330
1F
100
AcDbEntity
  8
C-A
  6
Continuous
 62
     6
370
     5
100
AcDbLine
 10
-393.662278716628
 20
511.3525385470007
 30
0.0
 11
-393.662278716628
 21
510.3527579436434
 31
0.0
  0
LINE
  5
22D
330
1F
100
AcDbEntity
  8
C-A
  6
Continuous
 62
     6
370
     5
100
AcDbLine
 10
-393.662278716628
 20
511.3525385470007
 30
0.0
 11
-398.6622952126163
 21
512.8528899115486
 31
0.0
  0
LINE
  5
22E
330
1F
100
AcDbEntity
  8
C-A
  6
Continuous
 62
     6
370
     5
100
AcDbLine
 10
-393.1623265549939
 20
511.7246880402439
 30
0.0
 11
-399.1623710941619
 21
513.524689030003
 31
0.0
  0
LINE
  5
22F
330
1F
100
AcDbEntity
  8
C-A
  6
Continuous
 62
     6
370
     5
100
AcDbLine
 10
-399.1623710941619
 20
508.1806074606408
 30
0.0
 11
-393.1623265549939
 21
509.9806084504002
 31
0.0
  0
LINE
  5
230
330
1F
100
AcDbEntity
  8
C-A
  6
Continuous
 62
     6
370
     5
100
AcDbLine
 10
-393.662278716628
 20
544.3528453723807
 30
0.0
 11
-393.662278716628
 21
540.3528569195723
 31
0.0
  0
LINE
  5
231
330
1F
100
AcDbEntity
  8
C-A
  6
Continuous
 62
     6
370
     5
100
AcDbLine
 10
-393.662278716628
 20
540.3528569195723
 30
0.0
 11
-398.6622952126163
 21
541.8527134044751
 31
0.0
  0
LINE
  5
232
330
1F
100
AcDbEntity
  8
C-A
  6
Continuous
 62
     6
370
     5
100
AcDbLine
 10
-398.6622952126163
 20
542.8524940078324
 30
0.0
 11
-398.6622952126163
 21
541.8527134044751
 31
0.0
  0
LINE
  5
233
330
1F
100
AcDbEntity
  8
C-A
  6
Continuous
 62
     6
370
     5
100
AcDbLine
 10
-398.6622952126163
 20
542.8524940078324
 30
0.0
 11
-393.662278716628
 21
544.3528453723807
 31
0.0
  0
LINE
  5
234
330
1F
100
AcDbEntity
  8
C-A
  6
Continuous
 62
     6
370
     5
100
AcDbLine
 10
-399.1623710941619
 20
543.2246435010757
 30
0.0
 11
-393.1623265549939
 21
545.024644490835
 31
0.0
  0
LINE
  5
235
330
1F
100
AcDbEntity
  8
C-A
  6
Continuous
 62
     6
370
     5
100
AcDbLine
 10
-393.1623265549939
 20
539.6805629214728
 30
0.0
 11
-399.1623710941619
 21
541.4805639112319
 31
0.0
  0
LINE
  5
236
330
1F
100
AcDbEntity
  8
C-A
  6
Continuous
 62
     6
370
     5
100
AcDbLine
 10
-398.6622952126163
 20
533.8527364988588
 30
0.0
 11
-398.6622952126163
 21
529.8528717659616
 31
0.0
  0
LINE
  5
237
330
1F
100
AcDbEntity
  8
C-A
  6
Continuous
 62
     6
370
     5
100
AcDbLine
 10
-398.6622952126163
 20
529.8528717659616
 30
0.0
 11
-393.662278716628
 21
531.3527282508644
 31
0.0
  0
LINE
  5
238
330
1F
100
AcDbEntity
  8
C-A
  6
Continuous
 62
     6
370
     5
100
AcDbLine
 10
-393.662278716628
 20
532.3525088542217
 30
0.0
 11
-393.662278716628
 21
531.3527282508644
 31
0.0
  0
LINE
  5
239
330
1F
100
AcDbEntity
  8
C-A
  6
Continuous
 62
     6
370
     5
100
AcDbLine
 10
-393.662278716628
 20
532.3525088542217
 30
0.0
 11
-398.6622952126163
 21
533.8527364988588
 31
0.0
  0
LINE
  5
23A
330
1F
100
AcDbEntity
  8
C-A
  6
Continuous
 62
     6
370
     5
100
AcDbLine
 10
-393.1623265549939
 20
532.724658347465
 30
0.0
 11
-399.1623710941619
 21
534.5246593372244
 31
0.0
  0
LINE
  5
23B
330
1F
100
AcDbEntity
  8
C-A
  6
Continuous
 62
     6
370
     5
100
AcDbLine
 10
-399.1623710941619
 20
529.1805777678621
 30
0.0
 11
-393.1623265549939
 21
530.9805787576213
 31
0.0
  0
LINE
  5
23C
330
1F
100
AcDbEntity
  8
C-A
  6
Continuous
 62
     6
370
     5
100
AcDbLine
 10
-393.662278716628
 20
565.3526919596904
 30
0.0
 11
-393.662278716628
 21
561.3528272267936
 31
0.0
  0
LINE
  5
23D
330
1F
100
AcDbEntity
  8
C-A
  6
Continuous
 62
     6
370
     5
100
AcDbLine
 10
-393.662278716628
 20
561.3528272267936
 30
0.0
 11
-398.6622952126163
 21
562.8525599917853
 31
0.0
  0
LINE
  5
23E
330
1F
100
AcDbEntity
  8
C-A
  6
Continuous
 62
     6
370
     5
100
AcDbLine
 10
-398.6622952126163
 20
563.8524643150538
 30
0.0
 11
-398.6622952126163
 21
562.8525599917853
 31
0.0
  0
LINE
  5
23F
330
1F
100
AcDbEntity
  8
C-A
  6
Continuous
 62
     6
370
     5
100
AcDbLine
 10
-398.6622952126163
 20
563.8524643150538
 30
0.0
 11
-393.662278716628
 21
565.3526919596904
 31
0.0
  0
LINE
  5
240
330
1F
100
AcDbEntity
  8
C-A
  6
Continuous
 62
     6
370
     5
100
AcDbLine
 10
-399.1623710941619
 20
564.2244900883856
 30
0.0
 11
-393.1623265549939
 21
566.0246147980564
 31
0.0
  0
LINE
  5
241
330
1F
100
AcDbEntity
  8
C-A
  6
Continuous
 62
     6
370
     5
100
AcDbLine
 10
-393.1623265549939
 20
560.6804095087828
 30
0.0
 11
-399.1623710941619
 21
562.4805342184533
 31
0.0
  0
LINE
  5
242
330
1F
100
AcDbEntity
  8
C-A
  6
Continuous
 62
     6
370
     5
100
AcDbLine
 10
-398.6622952126163
 20
554.8527068060798
 30
0.0
 11
-398.6622952126163
 21
550.852842073183
 31
0.0
  0
LINE
  5
243
330
1F
100
AcDbEntity
  8
C-A
  6
Continuous
 62
     6
370
     5
100
AcDbLine
 10
-398.6622952126163
 20
550.852842073183
 30
0.0
 11
-393.662278716628
 21
552.3525748381746
 31
0.0
  0
LINE
  5
244
330
1F
100
AcDbEntity
  8
C-A
  6
Continuous
 62
     6
370
     5
100
AcDbLine
 10
-393.662278716628
 20
553.3524791614432
 30
0.0
 11
-393.662278716628
 21
552.3525748381746
 31
0.0
  0
LINE
  5
245
330
1F
100
AcDbEntity
  8
C-A
  6
Continuous
 62
     6
370
     5
100
AcDbLine
 10
-393.662278716628
 20
553.3524791614432
 30
0.0
 11
-398.6622952126163
 21
554.8527068060798
 31
0.0
  0
LINE
  5
246
330
1F
100
AcDbEntity
  8
C-A
  6
Continuous
 62
     6
370
     5
100
AcDbLine
 10
-393.1623265549939
 20
553.7246286546863
 30
0.0
 11
-399.1623710941619
 21
555.5246296444457
 31
0.0
  0
LINE
  5
247
330
1F
100
AcDbEntity
  8
C-A
  6
Continuous
 62
     6
370
     5
100
AcDbLine
 10
-399.1623710941619
 20
550.1805480750832
 30
0.0
 11
-393.1623265549939
 21
551.9805490648425
 31
0.0
  0
LINE
  5
248
330
1F
100
AcDbEntity
  8
C-A
  6
Continuous
 62
     6
370
     5
100
AcDbLine
 10
-393.662278716628
 20
586.3526622669119
 30
0.0
 11
-393.662278716628
 21
582.352797534015
 31
0.0
  0
LINE
  5
249
330
1F
100
AcDbEntity
  8
C-A
  6
Continuous
 62
     6
370
     5
100
AcDbLine
 10
-393.662278716628
 20
582.352797534015
 30
0.0
 11
-398.6622952126163
 21
583.8525302990064
 31
0.0
  0
LINE
  5
24A
330
1F
100
AcDbEntity
  8
C-A
  6
Continuous
 62
     6
370
     5
100
AcDbLine
 10
-398.6622952126163
 20
584.8523109023637
 30
0.0
 11
-398.6622952126163
 21
583.8525302990064
 31
0.0
  0
LINE
  5
24B
330
1F
100
AcDbEntity
  8
C-A
  6
Continuous
 62
     6
370
     5
100
AcDbLine
 10
-398.6622952126163
 20
584.8523109023637
 30
0.0
 11
-393.662278716628
 21
586.3526622669119
 31
0.0
  0
LINE
  5
24C
330
1F
100
AcDbEntity
  8
C-A
  6
Continuous
 62
     6
370
     5
100
AcDbLine
 10
-399.1623710941619
 20
585.2244603956069
 30
0.0
 11
-393.1623265549939
 21
587.0245851052775
 31
0.0
  0
LINE
  5
24D
330
1F
100
AcDbEntity
  8
C-A
  6
Continuous
 62
     6
370
     5
100
AcDbLine
 10
-393.1623265549939
 20
581.680379816004
 30
0.0
 11
-399.1623710941619
 21
583.4805045256746
 31
0.0
  0
LINE
  5
24E
330
1F
100
AcDbEntity
  8
C-A
  6
Continuous
 62
     6
370
     5
100
AcDbLine
 10
-398.6622952126163
 20
575.8526771133012
 30
0.0
 11
-398.6622952126163
 21
571.8528123804043
 31
0.0
  0
LINE
  5
24F
330
1F
100
AcDbEntity
  8
C-A
  6
Continuous
 62
     6
370
     5
100
AcDbLine
 10
-398.6622952126163
 20
571.8528123804043
 30
0.0
 11
-393.662278716628
 21
573.3525451453957
 31
0.0
  0
LINE
  5
250
330
1F
100
AcDbEntity
  8
C-A
  6
Continuous
 62
     6
370
     5
100
AcDbLine
 10
-393.662278716628
 20
574.3524494686644
 30
0.0
 11
-393.662278716628
 21
573.3525451453957
 31
0.0
  0
LINE
  5
251
330
1F
100
AcDbEntity
  8
C-A
  6
Continuous
 62
     6
370
     5
100
AcDbLine
 10
-393.662278716628
 20
574.3524494686644
 30
0.0
 11
-398.6622952126163
 21
575.8526771133012
 31
0.0
  0
LINE
  5
252
330
1F
100
AcDbEntity
  8
C-A
  6
Continuous
 62
     6
370
     5
100
AcDbLine
 10
-393.1623265549939
 20
574.7244752419963
 30
0.0
 11
-399.1623710941619
 21
576.5245999516668
 31
0.0
  0
LINE
  5
253
330
1F
100
AcDbEntity
  8
C-A
  6
Continuous
 62
     6
370
     5
100
AcDbLine
 10
-399.1623710941619
 20
571.1803946623934
 30
0.0
 11
-393.1623265549939
 21
572.980519372064
 31
0.0
  0
LINE
  5
254
330
1F
100
AcDbEntity
  8
C-A
  6
Continuous
 62
     6
370
     5
100
AcDbLine
 10
-408.6623282045926
 20
516.815143791405
 30
0.0
 11
-408.6623282045926
 21
512.8151553385967
 31
0.0
  0
LINE
  5
255
330
1F
100
AcDbEntity
  8
C-A
  6
Continuous
 62
     6
370
     5
100
AcDbLine
 10
-408.6623282045926
 20
512.8151553385967
 30
0.0
 11
-413.6622209806694
 21
514.3150118234996
 31
0.0
  0
LINE
  5
256
330
1F
100
AcDbEntity
  8
C-A
  6
Continuous
 62
     6
370
     5
100
AcDbLine
 10
-413.6622209806694
 20
515.3147924268569
 30
0.0
 11
-413.6622209806694
 21
514.3150118234996
 31
0.0
  0
LINE
  5
257
330
1F
100
AcDbEntity
  8
C-A
  6
Continuous
 62
     6
370
     5
100
AcDbLine
 10
-413.6622209806694
 20
515.3147924268569
 30
0.0
 11
-408.6623282045926
 21
516.815143791405
 31
0.0
  0
LINE
  5
258
330
1F
100
AcDbEntity
  8
C-A
  6
Continuous
 62
     6
370
     5
100
AcDbLine
 10
-414.1622968622153
 20
515.6869419201001
 30
0.0
 11
-408.162252323047
 21
517.4869429098595
 31
0.0
  0
LINE
  5
259
330
1F
100
AcDbEntity
  8
C-A
  6
Continuous
 62
     6
370
     5
100
AcDbLine
 10
-408.162252323047
 20
512.1428613404973
 30
0.0
 11
-414.1622968622153
 21
513.9428623302564
 31
0.0
  0
LINE
  5
25A
330
1F
100
AcDbEntity
  8
C-A
  6
Continuous
 62
     6
370
     5
100
AcDbLine
 10
-413.6622209806694
 20
506.3151586377944
 30
0.0
 11
-413.6622209806694
 21
502.3152939048975
 31
0.0
  0
LINE
  5
25B
330
1F
100
AcDbEntity
  8
C-A
  6
Continuous
 62
     6
370
     5
100
AcDbLine
 10
-413.6622209806694
 20
502.3152939048975
 30
0.0
 11
-408.6623282045926
 21
503.8150266698889
 31
0.0
  0
LINE
  5
25C
330
1F
100
AcDbEntity
  8
C-A
  6
Continuous
 62
     6
370
     5
100
AcDbLine
 10
-408.6623282045926
 20
504.8149309931577
 30
0.0
 11
-408.6623282045926
 21
503.8150266698889
 31
0.0
  0
LINE
  5
25D
330
1F
100
AcDbEntity
  8
C-A
  6
Continuous
 62
     6
370
     5
100
AcDbLine
 10
-408.6623282045926
 20
504.8149309931577
 30
0.0
 11
-413.6622209806694
 21
506.3151586377944
 31
0.0
  0
LINE
  5
25E
330
1F
100
AcDbEntity
  8
C-A
  6
Continuous
 62
     6
370
     5
100
AcDbLine
 10
-408.162252323047
 20
505.1869567664895
 30
0.0
 11
-414.1622968622153
 21
506.9869577562488
 31
0.0
  0
LINE
  5
25F
330
1F
100
AcDbEntity
  8
C-A
  6
Continuous
 62
     6
370
     5
100
AcDbLine
 10
-414.1622968622153
 20
501.6428761868866
 30
0.0
 11
-408.162252323047
 21
503.4428771766457
 31
0.0
  0
LINE
  5
260
330
1F
100
AcDbEntity
  8
C-A
  6
Continuous
 62
     6
370
     5
100
AcDbLine
 10
-408.6623282045926
 20
537.8151140986265
 30
0.0
 11
-408.6623282045926
 21
533.8151256458182
 31
0.0
  0
LINE
  5
261
330
1F
100
AcDbEntity
  8
C-A
  6
Continuous
 62
     6
370
     5
100
AcDbLine
 10
-408.6623282045926
 20
533.8151256458182
 30
0.0
 11
-413.6622209806694
 21
535.3148584108098
 31
0.0
  0
LINE
  5
262
330
1F
100
AcDbEntity
  8
C-A
  6
Continuous
 62
     6
370
     5
100
AcDbLine
 10
-413.6622209806694
 20
536.3147627340783
 30
0.0
 11
-413.6622209806694
 21
535.3148584108098
 31
0.0
  0
LINE
  5
263
330
1F
100
AcDbEntity
  8
C-A
  6
Continuous
 62
     6
370
     5
100
AcDbLine
 10
-413.6622209806694
 20
536.3147627340783
 30
0.0
 11
-408.6623282045926
 21
537.8151140986265
 31
0.0
  0
LINE
  5
264
330
1F
100
AcDbEntity
  8
C-A
  6
Continuous
 62
     6
370
     5
100
AcDbLine
 10
-414.1622968622153
 20
536.6869122273215
 30
0.0
 11
-408.162252323047
 21
538.4869132170809
 31
0.0
  0
LINE
  5
265
330
1F
100
AcDbEntity
  8
C-A
  6
Continuous
 62
     6
370
     5
100
AcDbLine
 10
-408.162252323047
 20
533.1428316477184
 30
0.0
 11
-414.1622968622153
 21
534.9428326374777
 31
0.0
  0
LINE
  5
266
330
1F
100
AcDbEntity
  8
C-A
  6
Continuous
 62
     6
370
     5
100
AcDbLine
 10
-413.6622209806694
 20
527.3151289450158
 30
0.0
 11
-413.6622209806694
 21
523.3151404922074
 31
0.0
  0
LINE
  5
267
330
1F
100
AcDbEntity
  8
C-A
  6
Continuous
 62
     6
370
     5
100
AcDbLine
 10
-413.6622209806694
 20
523.3151404922074
 30
0.0
 11
-408.6623282045926
 21
524.8149969771102
 31
0.0
  0
LINE
  5
268
330
1F
100
AcDbEntity
  8
C-A
  6
Continuous
 62
     6
370
     5
100
AcDbLine
 10
-408.6623282045926
 20
525.8147775804675
 30
0.0
 11
-408.6623282045926
 21
524.8149969771102
 31
0.0
  0
LINE
  5
269
330
1F
100
AcDbEntity
  8
C-A
  6
Continuous
 62
     6
370
     5
100
AcDbLine
 10
-408.6623282045926
 20
525.8147775804675
 30
0.0
 11
-413.6622209806694
 21
527.3151289450158
 31
0.0
  0
LINE
  5
26A
330
1F
100
AcDbEntity
  8
C-A
  6
Continuous
 62
     6
370
     5
100
AcDbLine
 10
-408.162252323047
 20
526.1869270737109
 30
0.0
 11
-414.1622968622153
 21
527.9869280634703
 31
0.0
  0
LINE
  5
26B
330
1F
100
AcDbEntity
  8
C-A
  6
Continuous
 62
     6
370
     5
100
AcDbLine
 10
-414.1622968622153
 20
522.6428464941077
 30
0.0
 11
-408.162252323047
 21
524.4428474838671
 31
0.0
  0
LINE
  5
26C
330
1F
100
AcDbEntity
  8
C-A
  6
Continuous
 62
     6
370
     5
100
AcDbLine
 10
-408.6623282045926
 20
558.8149606859363
 30
0.0
 11
-408.6623282045926
 21
554.8150959530394
 31
0.0
  0
LINE
  5
26D
330
1F
100
AcDbEntity
  8
C-A
  6
Continuous
 62
     6
370
     5
100
AcDbLine
 10
-408.6623282045926
 20
554.8150959530394
 30
0.0
 11
-413.6622209806694
 21
556.3148287180309
 31
0.0
  0
LINE
  5
26E
330
1F
100
AcDbEntity
  8
C-A
  6
Continuous
 62
     6
370
     5
100
AcDbLine
 10
-413.6622209806694
 20
557.3147330412996
 30
0.0
 11
-413.6622209806694
 21
556.3148287180309
 31
0.0
  0
LINE
  5
26F
330
1F
100
AcDbEntity
  8
C-A
  6
Continuous
 62
     6
370
     5
100
AcDbLine
 10
-413.6622209806694
 20
557.3147330412996
 30
0.0
 11
-408.6623282045926
 21
558.8149606859363
 31
0.0
  0
LINE
  5
270
330
1F
100
AcDbEntity
  8
C-A
  6
Continuous
 62
     6
370
     5
100
AcDbLine
 10
-414.1622968622153
 20
557.6868825345429
 30
0.0
 11
-408.162252323047
 21
559.4868835243019
 31
0.0
  0
LINE
  5
271
330
1F
100
AcDbEntity
  8
C-A
  6
Continuous
 62
     6
370
     5
100
AcDbLine
 10
-408.162252323047
 20
554.1428019549397
 30
0.0
 11
-414.1622968622153
 21
555.9428029446991
 31
0.0
  0
LINE
  5
272
330
1F
100
AcDbEntity
  8
C-A
  6
Continuous
 62
     6
370
     5
100
AcDbLine
 10
-413.6622209806694
 20
548.3150992522371
 30
0.0
 11
-413.6622209806694
 21
544.3151107994288
 31
0.0
  0
LINE
  5
273
330
1F
100
AcDbEntity
  8
C-A
  6
Continuous
 62
     6
370
     5
100
AcDbLine
 10
-413.6622209806694
 20
544.3151107994288
 30
0.0
 11
-408.6623282045926
 21
545.8149672843317
 31
0.0
  0
LINE
  5
274
330
1F
100
AcDbEntity
  8
C-A
  6
Continuous
 62
     6
370
     5
100
AcDbLine
 10
-408.6623282045926
 20
546.814747887689
 30
0.0
 11
-408.6623282045926
 21
545.8149672843317
 31
0.0
  0
LINE
  5
275
330
1F
100
AcDbEntity
  8
C-A
  6
Continuous
 62
     6
370
     5
100
AcDbLine
 10
-408.6623282045926
 20
546.814747887689
 30
0.0
 11
-413.6622209806694
 21
548.3150992522371
 31
0.0
  0
LINE
  5
276
330
1F
100
AcDbEntity
  8
C-A
  6
Continuous
 62
     6
370
     5
100
AcDbLine
 10
-408.162252323047
 20
547.1868973809321
 30
0.0
 11
-414.1622968622153
 21
548.9868983706915
 31
0.0
  0
LINE
  5
277
330
1F
100
AcDbEntity
  8
C-A
  6
Continuous
 62
     6
370
     5
100
AcDbLine
 10
-414.1622968622153
 20
543.642816801329
 30
0.0
 11
-408.162252323047
 21
545.4428177910884
 31
0.0
  0
LINE
  5
278
330
1F
100
AcDbEntity
  8
C-A
  6
Continuous
 62
     6
370
     5
100
AcDbLine
 10
-413.6622209806694
 20
569.314945839547
 30
0.0
 11
-413.6622209806694
 21
565.3150811066502
 31
0.0
  0
LINE
  5
279
330
1F
100
AcDbEntity
  8
C-A
  6
Continuous
 62
     6
370
     5
100
AcDbLine
 10
-413.6622209806694
 20
565.3150811066502
 30
0.0
 11
-408.6623282045926
 21
566.8148138716415
 31
0.0
  0
LINE
  5
27A
330
1F
100
AcDbEntity
  8
C-A
  6
Continuous
 62
     6
370
     5
100
AcDbLine
 10
-408.6623282045926
 20
567.8147181949103
 30
0.0
 11
-408.6623282045926
 21
566.8148138716415
 31
0.0
  0
LINE
  5
27B
330
1F
100
AcDbEntity
  8
C-A
  6
Continuous
 62
     6
370
     5
100
AcDbLine
 10
-408.6623282045926
 20
567.8147181949103
 30
0.0
 11
-413.6622209806694
 21
569.314945839547
 31
0.0
  0
LINE
  5
27C
330
1F
100
AcDbEntity
  8
C-A
  6
Continuous
 62
     6
370
     5
100
AcDbLine
 10
-408.162252323047
 20
568.1867439682421
 30
0.0
 11
-414.1622968622153
 21
569.9868686779126
 31
0.0
  0
LINE
  5
27D
330
1F
100
AcDbEntity
  8
C-A
  6
Continuous
 62
     6
370
     5
100
AcDbLine
 10
-414.1622968622153
 20
564.642663388639
 30
0.0
 11
-408.162252323047
 21
566.4427880983098
 31
0.0
  0
LINE
  5
27E
330
1F
100
AcDbEntity
  8
C-A
  6
Continuous
 62
     6
370
     5
100
AcDbLine
 10
-423.6623776925572
 20
503.7431454014134
 30
0.0
 11
-423.6623776925572
 21
499.7432806685165
 31
0.0
  0
LINE
  5
27F
330
1F
100
AcDbEntity
  8
C-A
  6
Continuous
 62
     6
370
     5
100
AcDbLine
 10
-423.6623776925572
 20
499.7432806685165
 30
0.0
 11
-428.662270468634
 21
501.2430134335082
 31
0.0
  0
LINE
  5
280
330
1F
100
AcDbEntity
  8
C-A
  6
Continuous
 62
     6
370
     5
100
AcDbLine
 10
-428.662270468634
 20
502.2429177567767
 30
0.0
 11
-428.662270468634
 21
501.2430134335082
 31
0.0
  0
LINE
  5
281
330
1F
100
AcDbEntity
  8
C-A
  6
Continuous
 62
     6
370
     5
100
AcDbLine
 10
-428.662270468634
 20
502.2429177567767
 30
0.0
 11
-423.6623776925572
 21
503.7431454014134
 31
0.0
  0
LINE
  5
282
330
1F
100
AcDbEntity
  8
C-A
  6
Continuous
 62
     6
370
     5
100
AcDbLine
 10
-429.1623463501796
 20
502.6149435301087
 30
0.0
 11
-423.1623018110116
 21
504.4150682397793
 31
0.0
  0
LINE
  5
283
330
1F
100
AcDbEntity
  8
C-A
  6
Continuous
 62
     6
370
     5
100
AcDbLine
 10
-423.1623018110116
 20
499.0708629505056
 30
0.0
 11
-429.1623463501796
 21
500.8709876601762
 31
0.0
  0
LINE
  5
284
330
1F
100
AcDbEntity
  8
C-A
  6
Continuous
 62
     6
370
     5
100
AcDbLine
 10
-423.6623776925572
 20
524.7431157086348
 30
0.0
 11
-423.6623776925572
 21
520.743250975738
 31
0.0
  0
LINE
  5
285
330
1F
100
AcDbEntity
  8
C-A
  6
Continuous
 62
     6
370
     5
100
AcDbLine
 10
-423.6623776925572
 20
520.743250975738
 30
0.0
 11
-428.662270468634
 21
522.2429837407293
 31
0.0
  0
LINE
  5
286
330
1F
100
AcDbEntity
  8
C-A
  6
Continuous
 62
     6
370
     5
100
AcDbLine
 10
-428.662270468634
 20
523.2428880639981
 30
0.0
 11
-428.662270468634
 21
522.2429837407293
 31
0.0
  0
LINE
  5
287
330
1F
100
AcDbEntity
  8
C-A
  6
Continuous
 62
     6
370
     5
100
AcDbLine
 10
-428.662270468634
 20
523.2428880639981
 30
0.0
 11
-423.6623776925572
 21
524.7431157086348
 31
0.0
  0
LINE
  5
288
330
1F
100
AcDbEntity
  8
C-A
  6
Continuous
 62
     6
370
     5
100
AcDbLine
 10
-429.1623463501796
 20
523.6149138373298
 30
0.0
 11
-423.1623018110116
 21
525.4150385470007
 31
0.0
  0
LINE
  5
289
330
1F
100
AcDbEntity
  8
C-A
  6
Continuous
 62
     6
370
     5
100
AcDbLine
 10
-423.1623018110116
 20
520.0708332577269
 30
0.0
 11
-429.1623463501796
 21
521.8708342474861
 31
0.0
  0
LINE
  5
28A
330
1F
100
AcDbEntity
  8
C-A
  6
Continuous
 62
     6
370
     5
100
AcDbLine
 10
-428.662270468634
 20
514.2431305550241
 30
0.0
 11
-428.662270468634
 21
510.2432658221272
 31
0.0
  0
LINE
  5
28B
330
1F
100
AcDbEntity
  8
C-A
  6
Continuous
 62
     6
370
     5
100
AcDbLine
 10
-428.662270468634
 20
510.2432658221272
 30
0.0
 11
-423.6623776925572
 21
511.7429985871189
 31
0.0
  0
LINE
  5
28C
330
1F
100
AcDbEntity
  8
C-A
  6
Continuous
 62
     6
370
     5
100
AcDbLine
 10
-423.6623776925572
 20
512.7429029103873
 30
0.0
 11
-423.6623776925572
 21
511.7429985871189
 31
0.0
  0
LINE
  5
28D
330
1F
100
AcDbEntity
  8
C-A
  6
Continuous
 62
     6
370
     5
100
AcDbLine
 10
-423.6623776925572
 20
512.7429029103873
 30
0.0
 11
-428.662270468634
 21
514.2431305550241
 31
0.0
  0
LINE
  5
28E
330
1F
100
AcDbEntity
  8
C-A
  6
Continuous
 62
     6
370
     5
100
AcDbLine
 10
-423.1623018110116
 20
513.1149286837194
 30
0.0
 11
-429.1623463501796
 21
514.9149296734786
 31
0.0
  0
LINE
  5
28F
330
1F
100
AcDbEntity
  8
C-A
  6
Continuous
 62
     6
370
     5
100
AcDbLine
 10
-429.1623463501796
 20
509.5708481041163
 30
0.0
 11
-423.1623018110116
 21
511.3708490938757
 31
0.0
  0
LINE
  5
290
330
1F
100
AcDbEntity
  8
C-A
  6
Continuous
 62
     6
370
     5
100
AcDbLine
 10
-423.6623776925572
 20
545.7430860158561
 30
0.0
 11
-423.6623776925572
 21
541.7430975630477
 31
0.0
  0
LINE
  5
291
330
1F
100
AcDbEntity
  8
C-A
  6
Continuous
 62
     6
370
     5
100
AcDbLine
 10
-423.6623776925572
 20
541.7430975630477
 30
0.0
 11
-428.662270468634
 21
543.2429540479507
 31
0.0
  0
LINE
  5
292
330
1F
100
AcDbEntity
  8
C-A
  6
Continuous
 62
     6
370
     5
100
AcDbLine
 10
-428.662270468634
 20
544.242734651308
 30
0.0
 11
-428.662270468634
 21
543.2429540479507
 31
0.0
  0
LINE
  5
293
330
1F
100
AcDbEntity
  8
C-A
  6
Continuous
 62
     6
370
     5
100
AcDbLine
 10
-428.662270468634
 20
544.242734651308
 30
0.0
 11
-423.6623776925572
 21
545.7430860158561
 31
0.0
  0
LINE
  5
294
330
1F
100
AcDbEntity
  8
C-A
  6
Continuous
 62
     6
370
     5
100
AcDbLine
 10
-429.1623463501796
 20
544.6148841445512
 30
0.0
 11
-423.1623018110116
 21
546.4148851343106
 31
0.0
  0
LINE
  5
295
330
1F
100
AcDbEntity
  8
C-A
  6
Continuous
 62
     6
370
     5
100
AcDbLine
 10
-423.1623018110116
 20
541.070803564948
 30
0.0
 11
-429.1623463501796
 21
542.8708045547074
 31
0.0
  0
LINE
  5
296
330
1F
100
AcDbEntity
  8
C-A
  6
Continuous
 62
     6
370
     5
100
AcDbLine
 10
-428.662270468634
 20
535.2431008622455
 30
0.0
 11
-428.662270468634
 21
531.2431124094371
 31
0.0
  0
LINE
  5
297
330
1F
100
AcDbEntity
  8
C-A
  6
Continuous
 62
     6
370
     5
100
AcDbLine
 10
-428.662270468634
 20
531.2431124094371
 30
0.0
 11
-423.6623776925572
 21
532.74296889434
 31
0.0
  0
LINE
  5
298
330
1F
100
AcDbEntity
  8
C-A
  6
Continuous
 62
     6
370
     5
100
AcDbLine
 10
-423.6623776925572
 20
533.7428732176088
 30
0.0
 11
-423.6623776925572
 21
532.74296889434
 31
0.0
  0
LINE
  5
299
330
1F
100
AcDbEntity
  8
C-A
  6
Continuous
 62
     6
370
     5
100
AcDbLine
 10
-423.6623776925572
 20
533.7428732176088
 30
0.0
 11
-428.662270468634
 21
535.2431008622455
 31
0.0
  0
LINE
  5
29A
330
1F
100
AcDbEntity
  8
C-A
  6
Continuous
 62
     6
370
     5
100
AcDbLine
 10
-423.1623018110116
 20
534.1148989909404
 30
0.0
 11
-429.1623463501796
 21
535.9148999806998
 31
0.0
  0
LINE
  5
29B
330
1F
100
AcDbEntity
  8
C-A
  6
Continuous
 62
     6
370
     5
100
AcDbLine
 10
-429.1623463501796
 20
530.5708184113377
 30
0.0
 11
-423.1623018110116
 21
532.3708194010967
 31
0.0
  0
LINE
  5
29C
330
1F
100
AcDbEntity
  8
C-A
  6
Continuous
 62
     6
370
     5
100
AcDbLine
 10
-428.662270468634
 20
556.2430711694668
 30
0.0
 11
-428.662270468634
 21
552.2430827166585
 31
0.0
  0
LINE
  5
29D
330
1F
100
AcDbEntity
  8
C-A
  6
Continuous
 62
     6
370
     5
100
AcDbLine
 10
-428.662270468634
 20
552.2430827166585
 30
0.0
 11
-423.6623776925572
 21
553.7429392015613
 31
0.0
  0
LINE
  5
29E
330
1F
100
AcDbEntity
  8
C-A
  6
Continuous
 62
     6
370
     5
100
AcDbLine
 10
-423.6623776925572
 20
554.7427198049186
 30
0.0
 11
-423.6623776925572
 21
553.7429392015613
 31
0.0
  0
LINE
  5
29F
330
1F
100
AcDbEntity
  8
C-A
  6
Continuous
 62
     6
370
     5
100
AcDbLine
 10
-423.6623776925572
 20
554.7427198049186
 30
0.0
 11
-428.662270468634
 21
556.2430711694668
 31
0.0
  0
LINE
  5
2A0
330
1F
100
AcDbEntity
  8
C-A
  6
Continuous
 62
     6
370
     5
100
AcDbLine
 10
-423.1623018110116
 20
555.1148692981619
 30
0.0
 11
-429.1623463501796
 21
556.9148702879213
 31
0.0
  0
LINE
  5
2A1
330
1F
100
AcDbEntity
  8
C-A
  6
Continuous
 62
     6
370
     5
100
AcDbLine
 10
-429.1623463501796
 20
551.5707887185588
 30
0.0
 11
-423.1623018110116
 21
553.3707897083182
 31
0.0
  0
LINE
  5
2A2
330
1F
100
AcDbEntity
  8
C-A
  6
Continuous
 62
     6
370
     5
100
AcDbLine
 10
-316.6620989103569
 20
623.3680513742809
 30
0.0
 11
-316.6620989103569
 21
627.3681635470007
 31
0.0
  0
LINE
  5
2A3
330
1F
100
AcDbEntity
  8
C-A
  6
Continuous
 62
     6
370
     5
100
AcDbLine
 10
-316.6620989103569
 20
627.3681635470007
 30
0.0
 11
-311.6622061342801
 21
625.8681833421863
 31
0.0
  0
LINE
  5
2A4
330
1F
100
AcDbEntity
  8
C-A
  6
Continuous
 62
     6
370
     5
100
AcDbLine
 10
-311.6622061342801
 20
624.8685264587405
 30
0.0
 11
-311.6622061342801
 21
625.8681833421863
 31
0.0
  0
LINE
  5
2A5
330
1F
100
AcDbEntity
  8
C-A
  6
Continuous
 62
     6
370
     5
100
AcDbLine
 10
-311.6622061342801
 20
624.8685264587405
 30
0.0
 11
-316.6620989103569
 21
623.3680513742809
 31
0.0
  0
LINE
  5
2A6
330
1F
100
AcDbEntity
  8
C-A
  6
Continuous
 62
     6
370
     5
100
AcDbLine
 10
-311.1621302527345
 20
624.4963769654973
 30
0.0
 11
-317.1620510719913
 21
622.6962522558265
 31
0.0
  0
LINE
  5
2A7
330
1F
100
AcDbEntity
  8
C-A
  6
Continuous
 62
     6
370
     5
100
AcDbLine
 10
-317.1620510719913
 20
628.0404575451001
 30
0.0
 11
-311.1621302527345
 21
626.2403328354296
 31
0.0
  0
LINE
  5
2A8
330
1F
100
AcDbEntity
  8
C-A
  6
Continuous
 62
     6
370
     5
100
AcDbLine
 10
-311.6622061342801
 20
633.868160247803
 30
0.0
 11
-311.6622061342801
 21
637.8680249806998
 31
0.0
  0
LINE
  5
2A9
330
1F
100
AcDbEntity
  8
C-A
  6
Continuous
 62
     6
370
     5
100
AcDbLine
 10
-311.6622061342801
 20
637.8680249806998
 30
0.0
 11
-316.6620989103569
 21
636.3682922157082
 31
0.0
  0
LINE
  5
2AA
330
1F
100
AcDbEntity
  8
C-A
  6
Continuous
 62
     6
370
     5
100
AcDbLine
 10
-316.6620989103569
 20
635.3683878924397
 30
0.0
 11
-316.6620989103569
 21
636.3682922157082
 31
0.0
  0
LINE
  5
2AB
330
1F
100
AcDbEntity
  8
C-A
  6
Continuous
 62
     6
370
     5
100
AcDbLine
 10
-316.6620989103569
 20
635.3683878924397
 30
0.0
 11
-311.6622061342801
 21
633.868160247803
 31
0.0
  0
LINE
  5
2AC
330
1F
100
AcDbEntity
  8
C-A
  6
Continuous
 62
     6
370
     5
100
AcDbLine
 10
-317.1620510719913
 20
634.9962383991965
 30
0.0
 11
-311.1621302527345
 21
633.1963611293486
 31
0.0
  0
LINE
  5
2AD
330
1F
100
AcDbEntity
  8
C-A
  6
Continuous
 62
     6
370
     5
100
AcDbLine
 10
-311.1621302527345
 20
638.5405664186223
 30
0.0
 11
-317.1620510719913
 21
636.740194269129
 31
0.0
  0
LINE
  5
2AE
330
1F
100
AcDbEntity
  8
C-A
  6
Continuous
 62
     6
370
     5
100
AcDbLine
 10
-316.6620989103569
 20
602.368204786971
 30
0.0
 11
-316.6620989103569
 21
606.3681932397793
 31
0.0
  0
LINE
  5
2AF
330
1F
100
AcDbEntity
  8
C-A
  6
Continuous
 62
     6
370
     5
100
AcDbLine
 10
-316.6620989103569
 20
606.3681932397793
 30
0.0
 11
-311.6622061342801
 21
604.8683367548765
 31
0.0
  0
LINE
  5
2B0
330
1F
100
AcDbEntity
  8
C-A
  6
Continuous
 62
     6
370
     5
100
AcDbLine
 10
-311.6622061342801
 20
603.8685561515192
 30
0.0
 11
-311.6622061342801
 21
604.8683367548765
 31
0.0
  0
LINE
  5
2B1
330
1F
100
AcDbEntity
  8
C-A
  6
Continuous
 62
     6
370
     5
100
AcDbLine
 10
-311.6622061342801
 20
603.8685561515192
 30
0.0
 11
-316.6620989103569
 21
602.368204786971
 31
0.0
  0
LINE
  5
2B2
330
1F
100
AcDbEntity
  8
C-A
  6
Continuous
 62
     6
370
     5
100
AcDbLine
 10
-311.1621302527345
 20
603.4964066582759
 30
0.0
 11
-317.1620510719913
 21
601.6962819486054
 31
0.0
  0
LINE
  5
2B3
330
1F
100
AcDbEntity
  8
C-A
  6
Continuous
 62
     6
370
     5
100
AcDbLine
 10
-317.1620510719913
 20
607.040487237879
 30
0.0
 11
-311.1621302527345
 21
605.2404862481196
 31
0.0
  0
LINE
  5
2B4
330
1F
100
AcDbEntity
  8
C-A
  6
Continuous
 62
     6
370
     5
100
AcDbLine
 10
-311.6622061342801
 20
612.8681899405817
 30
0.0
 11
-311.6622061342801
 21
616.8680546734786
 31
0.0
  0
LINE
  5
2B5
330
1F
100
AcDbEntity
  8
C-A
  6
Continuous
 62
     6
370
     5
100
AcDbLine
 10
-311.6622061342801
 20
616.8680546734786
 30
0.0
 11
-316.6620989103569
 21
615.3683219084871
 31
0.0
  0
LINE
  5
2B6
330
1F
100
AcDbEntity
  8
C-A
  6
Continuous
 62
     6
370
     5
100
AcDbLine
 10
-316.6620989103569
 20
614.3684175852184
 30
0.0
 11
-316.6620989103569
 21
615.3683219084871
 31
0.0
  0
LINE
  5
2B7
330
1F
100
AcDbEntity
  8
C-A
  6
Continuous
 62
     6
370
     5
100
AcDbLine
 10
-316.6620989103569
 20
614.3684175852184
 30
0.0
 11
-311.6622061342801
 21
612.8681899405817
 31
0.0
  0
LINE
  5
2B8
330
1F
100
AcDbEntity
  8
C-A
  6
Continuous
 62
     6
370
     5
100
AcDbLine
 10
-317.1620510719913
 20
613.9965155317977
 30
0.0
 11
-311.1621302527345
 21
612.1963908221272
 31
0.0
  0
LINE
  5
2B9
330
1F
100
AcDbEntity
  8
C-A
  6
Continuous
 62
     6
370
     5
100
AcDbLine
 10
-311.1621302527345
 20
617.5403486715783
 30
0.0
 11
-317.1620510719913
 21
615.7404714017304
 31
0.0
  0
LINE
  5
2BA
330
1F
100
AcDbEntity
  8
C-A
  6
Continuous
 62
     6
370
     5
100
AcDbLine
 10
-438.6623034606103
 20
513.604983252448
 30
0.0
 11
-438.6623034606103
 21
509.6051185195512
 31
0.0
  0
LINE
  5
2BB
330
1F
100
AcDbEntity
  8
C-A
  6
Continuous
 62
     6
370
     5
100
AcDbLine
 10
-438.6623034606103
 20
509.6051185195512
 30
0.0
 11
-443.6621962366874
 21
511.1048512845429
 31
0.0
  0
LINE
  5
2BC
330
1F
100
AcDbEntity
  8
C-A
  6
Continuous
 62
     6
370
     5
100
AcDbLine
 10
-443.6621962366874
 20
512.1047556078113
 30
0.0
 11
-443.6621962366874
 21
511.1048512845429
 31
0.0
  0
LINE
  5
2BD
330
1F
100
AcDbEntity
  8
C-A
  6
Continuous
 62
     6
370
     5
100
AcDbLine
 10
-443.6621962366874
 20
512.1047556078113
 30
0.0
 11
-438.6623034606103
 21
513.604983252448
 31
0.0
  0
LINE
  5
2BE
330
1F
100
AcDbEntity
  8
C-A
  6
Continuous
 62
     6
370
     5
100
AcDbLine
 10
-444.162272118233
 20
512.4767813811434
 30
0.0
 11
-438.1622275790647
 21
514.2767823709025
 31
0.0
  0
LINE
  5
2BF
330
1F
100
AcDbEntity
  8
C-A
  6
Continuous
 62
     6
370
     5
100
AcDbLine
 10
-438.1622275790647
 20
508.9327008015402
 30
0.0
 11
-444.162272118233
 21
510.7327017912996
 31
0.0
  0
LINE
  5
2C0
330
1F
100
AcDbEntity
  8
C-A
  6
Continuous
 62
     6
370
     5
100
AcDbLine
 10
-443.6621962366874
 20
503.1049980988377
 30
0.0
 11
-443.6621962366874
 21
499.1051333659405
 31
0.0
  0
LINE
  5
2C1
330
1F
100
AcDbEntity
  8
C-A
  6
Continuous
 62
     6
370
     5
100
AcDbLine
 10
-443.6621962366874
 20
499.1051333659405
 30
0.0
 11
-438.6623034606103
 21
500.6048661309322
 31
0.0
  0
LINE
  5
2C2
330
1F
100
AcDbEntity
  8
C-A
  6
Continuous
 62
     6
370
     5
100
AcDbLine
 10
-438.6623034606103
 20
501.6047704542007
 30
0.0
 11
-438.6623034606103
 21
500.6048661309322
 31
0.0
  0
LINE
  5
2C3
330
1F
100
AcDbEntity
  8
C-A
  6
Continuous
 62
     6
370
     5
100
AcDbLine
 10
-438.6623034606103
 20
501.6047704542007
 30
0.0
 11
-443.6621962366874
 21
503.1049980988377
 31
0.0
  0
LINE
  5
2C4
330
1F
100
AcDbEntity
  8
C-A
  6
Continuous
 62
     6
370
     5
100
AcDbLine
 10
-438.1622275790647
 20
501.9767962275327
 30
0.0
 11
-444.162272118233
 21
503.7769209372033
 31
0.0
  0
LINE
  5
2C5
330
1F
100
AcDbEntity
  8
C-A
  6
Continuous
 62
     6
370
     5
100
AcDbLine
 10
-444.162272118233
 20
498.4327156479296
 30
0.0
 11
-438.1622275790647
 21
500.2328403576001
 31
0.0
  0
LINE
  5
2C6
330
1F
100
AcDbEntity
  8
C-A
  6
Continuous
 62
     6
370
     5
100
AcDbLine
 10
-438.6623034606103
 20
534.6049535596694
 30
0.0
 11
-438.6623034606103
 21
530.6049651068611
 31
0.0
  0
LINE
  5
2C7
330
1F
100
AcDbEntity
  8
C-A
  6
Continuous
 62
     6
370
     5
100
AcDbLine
 10
-438.6623034606103
 20
530.6049651068611
 30
0.0
 11
-443.6621962366874
 21
532.104821591764
 31
0.0
  0
LINE
  5
2C8
330
1F
100
AcDbEntity
  8
C-A
  6
Continuous
 62
     6
370
     5
100
AcDbLine
 10
-443.6621962366874
 20
533.1046021951213
 30
0.0
 11
-443.6621962366874
 21
532.104821591764
 31
0.0
  0
LINE
  5
2C9
330
1F
100
AcDbEntity
  8
C-A
  6
Continuous
 62
     6
370
     5
100
AcDbLine
 10
-443.6621962366874
 20
533.1046021951213
 30
0.0
 11
-438.6623034606103
 21
534.6049535596694
 31
0.0
  0
LINE
  5
2CA
330
1F
100
AcDbEntity
  8
C-A
  6
Continuous
 62
     6
370
     5
100
AcDbLine
 10
-444.162272118233
 20
533.4767516883644
 30
0.0
 11
-438.1622275790647
 21
535.2767526781238
 31
0.0
  0
LINE
  5
2CB
330
1F
100
AcDbEntity
  8
C-A
  6
Continuous
 62
     6
370
     5
100
AcDbLine
 10
-438.1622275790647
 20
529.9326711087616
 30
0.0
 11
-444.162272118233
 21
531.7326720985207
 31
0.0
  0
LINE
  5
2CC
330
1F
100
AcDbEntity
  8
C-A
  6
Continuous
 62
     6
370
     5
100
AcDbLine
 10
-443.6621962366874
 20
524.1049684060588
 30
0.0
 11
-443.6621962366874
 21
520.1049799532507
 31
0.0
  0
LINE
  5
2CD
330
1F
100
AcDbEntity
  8
C-A
  6
Continuous
 62
     6
370
     5
100
AcDbLine
 10
-443.6621962366874
 20
520.1049799532507
 30
0.0
 11
-438.6623034606103
 21
521.6048364381536
 31
0.0
  0
LINE
  5
2CE
330
1F
100
AcDbEntity
  8
C-A
  6
Continuous
 62
     6
370
     5
100
AcDbLine
 10
-438.6623034606103
 20
522.6046170415106
 30
0.0
 11
-438.6623034606103
 21
521.6048364381536
 31
0.0
  0
LINE
  5
2CF
330
1F
100
AcDbEntity
  8
C-A
  6
Continuous
 62
     6
370
     5
100
AcDbLine
 10
-438.6623034606103
 20
522.6046170415106
 30
0.0
 11
-443.6621962366874
 21
524.1049684060588
 31
0.0
  0
LINE
  5
2D0
330
1F
100
AcDbEntity
  8
C-A
  6
Continuous
 62
     6
370
     5
100
AcDbLine
 10
-438.1622275790647
 20
522.976766534754
 30
0.0
 11
-444.162272118233
 21
524.7767675245132
 31
0.0
  0
LINE
  5
2D1
330
1F
100
AcDbEntity
  8
C-A
  6
Continuous
 62
     6
370
     5
100
AcDbLine
 10
-444.162272118233
 20
519.4326859551509
 30
0.0
 11
-438.1622275790647
 21
521.2326869449103
 31
0.0
  0
LINE
  5
2D2
330
1F
100
AcDbEntity
  8
C-5
  6
Continuous
 62
     7
370
     9
100
AcDbLine
 10
581.5846662263618
 20
803.3555309192557
 30
0.0
 11
1019.619466163017
 21
803.3555309192557
 31
0.0
  0
LINE
  5
2D3
330
1F
100
AcDbEntity
  8
C-5
  6
Continuous
 62
     7
370
     9
100
AcDbLine
 10
861.3633890409733
 20
1155.382722906164
 30
0.0
 11
1107.072370116776
 21
1155.382722906164
 31
0.0
  0
LINE
  5
2D4
330
1F
100
AcDbEntity
  8
C-2
  6
Continuous
 62
     3
370
     9
100
AcDbLine
 10
770.3297834138618
 20
879.8015692427352
 30
0.0
 11
770.3297834138618
 21
1219.157367912499
 31
0.0
  0
LINE
  5
2D5
330
1F
100
AcDbEntity
  8
C-2
  6
Continuous
 62
     3
370
     9
100
AcDbLine
 10
830.3299813657196
 20
866.3168412285884
 30
0.0
 11
830.3299813657196
 21
1205.672887338174
 31
0.0
  0
LINE
  5
2D6
330
1F
100
AcDbEntity
  8
C-2
  6
Continuous
 62
     3
370
     9
100
AcDbLine
 10
652.6320624995884
 20
438.0935251390613
 30
0.0
 11
652.6320624995884
 21
448.094053010683
 31
0.0
  0
LINE
  5
2D7
330
1F
100
AcDbEntity
  8
C-2
  6
Continuous
 62
     3
370
     9
100
AcDbLine
 10
652.6320624995884
 20
538.0939787787361
 30
0.0
 11
652.6320624995884
 21
528.0939457867598
 31
0.0
  0
LINE
  5
2D8
330
1F
100
AcDbEntity
  8
C-2
  6
Continuous
 62
     3
370
     9
100
AcDbLine
 10
699.4833082766149
 20
503.0941107466415
 30
0.0
 11
764.4822855253483
 21
503.0941107466415
 31
0.0
  0
LINE
  5
2D9
330
1F
100
AcDbEntity
  8
C-2
  6
Continuous
 62
     3
370
     9
100
AcDbLine
 10
699.4833082766149
 20
473.0935168910673
 30
0.0
 11
764.481790645703
 21
473.0935168910673
 31
0.0
  0
LINE
  5
2DA
330
1F
100
AcDbEntity
  8
C-2
  6
Continuous
 62
     3
370
     9
100
AcDbLine
 10
684.483011348828
 20
528.0939457867598
 30
0.0
 11
679.48299485284
 21
528.0939457867598
 31
0.0
  0
LINE
  5
2DB
330
1F
100
AcDbEntity
  8
C-2
  6
Continuous
 62
     3
370
     9
100
AcDbLine
 10
704.4830773327806
 20
528.0939457867598
 30
0.0
 11
709.4828463889462
 21
528.0939457867598
 31
0.0
  0
LINE
  5
2DC
330
1F
100
AcDbEntity
  8
C-2
  6
Continuous
 62
     3
370
     9
100
AcDbLine
 10
689.4827804049936
 20
523.0936818509491
 30
0.0
 11
689.4808008864123
 21
438.0935251390613
 31
0.0
  0
LINE
  5
2DD
330
1F
100
AcDbEntity
  8
C-2
  6
Continuous
 62
     3
370
     9
100
AcDbLine
 10
699.4833082766149
 20
523.0941767305944
 30
0.0
 11
699.4833082766149
 21
438.0935251390613
 31
0.0
  0
LINE
  5
2DE
330
1F
100
AcDbEntity
  8
C-2
  6
Continuous
 62
     3
370
     9
100
AcDbLine
 10
774.4835557164379
 20
503.0941107466415
 30
0.0
 11
839.4822855253483
 21
503.0941107466415
 31
0.0
  0
LINE
  5
2DF
330
1F
100
AcDbEntity
  8
C-2
  6
Continuous
 62
     3
370
     9
100
AcDbLine
 10
774.4835557164379
 20
473.0935168910673
 30
0.0
 11
839.481790645703
 21
473.0935168910673
 31
0.0
  0
LINE
  5
2E0
330
1F
100
AcDbEntity
  8
C-2
  6
Continuous
 62
     3
370
     9
100
AcDbLine
 10
886.3290773855681
 20
438.0875865833181
 30
0.0
 11
886.3295722652134
 21
448.0871246956491
 31
0.0
  0
LINE
  5
2E1
330
1F
100
AcDbEntity
  8
C-2
  6
Continuous
 62
     3
370
     9
100
AcDbLine
 10
886.3350159413113
 20
538.0870504637026
 30
0.0
 11
886.334521061666
 21
528.0875123513713
 31
0.0
  0
LINE
  5
2E2
330
1F
100
AcDbEntity
  8
C-2
  6
Continuous
 62
     3
370
     9
100
AcDbLine
 10
886.3350159413113
 20
538.0939787787361
 30
0.0
 11
652.6320624995884
 21
538.0939787787361
 31
0.0
  0
LINE
  5
2E3
330
1F
100
AcDbEntity
  8
C-2
  6
Continuous
 62
     3
370
     9
100
AcDbLine
 10
652.6320624995884
 20
438.0935251390613
 30
0.0
 11
886.3295722652134
 21
438.0935251390613
 31
0.0
  0
LINE
  5
2E4
330
1F
100
AcDbEntity
  8
C-2
  6
Continuous
 62
     3
370
     9
100
AcDbLine
 10
679.48299485284
 20
535.5938468108309
 30
0.0
 11
681.9828793809228
 21
538.0939787787361
 31
0.0
  0
LINE
  5
2E5
330
1F
100
AcDbEntity
  8
C-2
  6
Continuous
 62
     3
370
     9
100
AcDbLine
 10
679.48299485284
 20
528.0939457867598
 30
0.0
 11
679.48299485284
 21
535.5938468108309
 31
0.0
  0
LINE
  5
2E6
330
1F
100
AcDbEntity
  8
C-2
  6
Continuous
 62
     3
370
     9
100
AcDbLine
 10
709.4828463889462
 20
535.5938468108309
 30
0.0
 11
706.982714421041
 21
538.0939787787361
 31
0.0
  0
LINE
  5
2E7
330
1F
100
AcDbEntity
  8
C-2
  6
Continuous
 62
     3
370
     9
100
AcDbLine
 10
709.4828463889462
 20
535.5938468108309
 30
0.0
 11
679.48299485284
 21
535.5938468108309
 31
0.0
  0
LINE
  5
2E8
330
1F
100
AcDbEntity
  8
C-2
  6
Continuous
 62
     3
370
     9
100
AcDbLine
 10
709.4828463889462
 20
535.5938468108309
 30
0.0
 11
709.4828463889462
 21
528.0939457867598
 31
0.0
  0
LINE
  5
2E9
330
1F
100
AcDbEntity
  8
C-2
  6
Continuous
 62
     3
370
     9
100
AcDbLine
 10
759.483011348828
 20
528.0939457867598
 30
0.0
 11
754.4832422926623
 21
528.0939457867598
 31
0.0
  0
LINE
  5
2EA
330
1F
100
AcDbEntity
  8
C-2
  6
Continuous
 62
     3
370
     9
100
AcDbLine
 10
779.4835722124259
 20
528.0939457867598
 30
0.0
 11
784.4828463889462
 21
528.0939457867598
 31
0.0
  0
LINE
  5
2EB
330
1F
100
AcDbEntity
  8
C-2
  6
Continuous
 62
     3
370
     9
100
AcDbLine
 10
764.4827804049936
 20
523.0936818509491
 30
0.0
 11
764.4808008864123
 21
438.0935251390613
 31
0.0
  0
LINE
  5
2EC
330
1F
100
AcDbEntity
  8
C-2
  6
Continuous
 62
     3
370
     9
100
AcDbLine
 10
774.4835557164379
 20
523.0941767305944
 30
0.0
 11
774.4835557164379
 21
438.0935251390613
 31
0.0
  0
LINE
  5
2ED
330
1F
100
AcDbEntity
  8
C-2
  6
Continuous
 62
     3
370
     9
100
AcDbLine
 10
754.4832422926623
 20
535.5938468108309
 30
0.0
 11
756.9828793809228
 21
538.0939787787361
 31
0.0
  0
LINE
  5
2EE
330
1F
100
AcDbEntity
  8
C-2
  6
Continuous
 62
     3
370
     9
100
AcDbLine
 10
754.4832422926623
 20
528.0939457867598
 30
0.0
 11
754.4832422926623
 21
535.5938468108309
 31
0.0
  0
LINE
  5
2EF
330
1F
100
AcDbEntity
  8
C-2
  6
Continuous
 62
     3
370
     9
100
AcDbLine
 10
784.4828463889462
 20
535.5938468108309
 30
0.0
 11
781.9829618608634
 21
538.0939787787361
 31
0.0
  0
LINE
  5
2F0
330
1F
100
AcDbEntity
  8
C-2
  6
Continuous
 62
     3
370
     9
100
AcDbLine
 10
784.4828463889462
 20
535.5938468108309
 30
0.0
 11
754.4832422926623
 21
535.5938468108309
 31
0.0
  0
LINE
  5
2F1
330
1F
100
AcDbEntity
  8
C-2
  6
Continuous
 62
     3
370
     9
100
AcDbLine
 10
784.4828463889462
 20
535.5938468108309
 30
0.0
 11
784.4828463889462
 21
528.0939457867598
 31
0.0
  0
LINE
  5
2F2
330
1F
100
AcDbEntity
  8
C-2
  6
Continuous
 62
     3
370
     9
100
AcDbLine
 10
834.483011348828
 20
528.0939457867598
 30
0.0
 11
829.4834897324853
 21
528.0939457867598
 31
0.0
  0
LINE
  5
2F3
330
1F
100
AcDbEntity
  8
C-2
  6
Continuous
 62
     3
370
     9
100
AcDbLine
 10
854.4835722124259
 20
528.0939457867598
 30
0.0
 11
859.4828463889462
 21
528.0939457867598
 31
0.0
  0
LINE
  5
2F4
330
1F
100
AcDbEntity
  8
C-2
  6
Continuous
 62
     3
370
     9
100
AcDbLine
 10
839.4825329651707
 20
523.0936818509491
 30
0.0
 11
839.4808008864123
 21
438.0935251390613
 31
0.0
  0
LINE
  5
2F5
330
1F
100
AcDbEntity
  8
C-2
  6
Continuous
 62
     3
370
     9
100
AcDbLine
 10
849.4828133969696
 20
523.0941767305944
 30
0.0
 11
849.4828133969696
 21
438.0935251390613
 31
0.0
  0
LINE
  5
2F6
330
1F
100
AcDbEntity
  8
C-2
  6
Continuous
 62
     3
370
     9
100
AcDbLine
 10
829.4834897324853
 20
535.5938468108309
 30
0.0
 11
831.9833742605681
 21
538.0939787787361
 31
0.0
  0
LINE
  5
2F7
330
1F
100
AcDbEntity
  8
C-2
  6
Continuous
 62
     3
370
     9
100
AcDbLine
 10
829.4834897324853
 20
528.0939457867598
 30
0.0
 11
829.4834897324853
 21
535.5938468108309
 31
0.0
  0
LINE
  5
2F8
330
1F
100
AcDbEntity
  8
C-2
  6
Continuous
 62
     3
370
     9
100
AcDbLine
 10
859.4828463889462
 20
535.5938468108309
 30
0.0
 11
856.9832093006863
 21
538.0939787787361
 31
0.0
  0
LINE
  5
2F9
330
1F
100
AcDbEntity
  8
C-2
  6
Continuous
 62
     3
370
     9
100
AcDbLine
 10
859.4828463889462
 20
535.5938468108309
 30
0.0
 11
829.4834897324853
 21
535.5938468108309
 31
0.0
  0
LINE
  5
2FA
330
1F
100
AcDbEntity
  8
C-2
  6
Continuous
 62
     3
370
     9
100
AcDbLine
 10
859.4828463889462
 20
535.5938468108309
 30
0.0
 11
859.4828463889462
 21
528.0939457867598
 31
0.0
  0
LINE
  5
2FB
330
1F
100
AcDbEntity
  8
C-2
  6
Continuous
 62
     3
370
     9
100
AcDbLine
 10
775.3300473496728
 20
922.5554589967473
 30
0.0
 11
775.3300473496728
 21
962.5555909646525
 31
0.0
  0
LINE
  5
2FC
330
1F
100
AcDbEntity
  8
C-2
  6
Continuous
 62
     3
370
     9
100
AcDbLine
 10
775.3300473496728
 20
962.5555909646525
 30
0.0
 11
825.3297174299092
 21
947.5552940368655
 31
0.0
  0
LINE
  5
2FD
330
1F
100
AcDbEntity
  8
C-2
  6
Continuous
 62
     3
370
     9
100
AcDbLine
 10
825.3297174299092
 20
937.5557559245342
 30
0.0
 11
825.3297174299092
 21
947.5552940368655
 31
0.0
  0
LINE
  5
2FE
330
1F
100
AcDbEntity
  8
C-2
  6
Continuous
 62
     3
370
     9
100
AcDbLine
 10
825.3297174299092
 20
937.5557559245342
 30
0.0
 11
775.3300473496728
 21
922.5554589967473
 31
0.0
  0
LINE
  5
2FF
330
1F
100
AcDbEntity
  8
C-2
  6
Continuous
 62
     3
370
     9
100
AcDbLine
 10
830.3299813657196
 20
933.8357456310376
 30
0.0
 11
770.3297834138618
 21
915.8349934139769
 31
0.0
  0
LINE
  5
300
330
1F
100
AcDbEntity
  8
C-2
  6
Continuous
 62
     3
370
     9
100
AcDbLine
 10
770.3297834138618
 20
969.2763039872455
 30
0.0
 11
830.3299813657196
 21
951.2753043303621
 31
0.0
  0
LINE
  5
301
330
1F
100
AcDbEntity
  8
C-2
  6
Continuous
 62
     3
370
     9
100
AcDbLine
 10
825.3297174299092
 20
1027.555805412499
 30
0.0
 11
825.3297174299092
 21
1067.555937380404
 31
0.0
  0
LINE
  5
302
330
1F
100
AcDbEntity
  8
C-2
  6
Continuous
 62
     3
370
     9
100
AcDbLine
 10
825.3297174299092
 20
1067.555937380404
 30
0.0
 11
775.3300473496728
 21
1052.555640452617
 31
0.0
  0
LINE
  5
303
330
1F
100
AcDbEntity
  8
C-2
  6
Continuous
 62
     3
370
     9
100
AcDbLine
 10
775.3300473496728
 20
1042.556102340286
 30
0.0
 11
775.3300473496728
 21
1052.555640452617
 31
0.0
  0
LINE
  5
304
330
1F
100
AcDbEntity
  8
C-2
  6
Continuous
 62
     3
370
     9
100
AcDbLine
 10
775.3300473496728
 20
1042.556102340286
 30
0.0
 11
825.3297174299092
 21
1027.555805412499
 31
0.0
  0
LINE
  5
305
330
1F
100
AcDbEntity
  8
C-2
  6
Continuous
 62
     3
370
     9
100
AcDbLine
 10
770.3297834138618
 20
1038.836092046789
 30
0.0
 11
830.3299813657196
 21
1020.835339829729
 31
0.0
  0
LINE
  5
306
330
1F
100
AcDbEntity
  8
C-2
  6
Continuous
 62
     3
370
     9
100
AcDbLine
 10
830.3299813657196
 20
1074.276402963175
 30
0.0
 11
770.3297834138618
 21
1056.275650746114
 31
0.0
  0
LINE
  5
307
330
1F
100
AcDbEntity
  8
C-2
  6
Continuous
 62
     3
370
     9
100
AcDbLine
 10
775.3300473496728
 20
1132.555409508783
 30
0.0
 11
775.3300473496728
 21
1172.555541476688
 31
0.0
  0
LINE
  5
308
330
1F
100
AcDbEntity
  8
C-2
  6
Continuous
 62
     3
370
     9
100
AcDbLine
 10
775.3300473496728
 20
1172.555541476688
 30
0.0
 11
825.3297174299092
 21
1157.555244548901
 31
0.0
  0
LINE
  5
309
330
1F
100
AcDbEntity
  8
C-2
  6
Continuous
 62
     3
370
     9
100
AcDbLine
 10
825.3297174299092
 20
1147.55570643657
 30
0.0
 11
825.3297174299092
 21
1157.555244548901
 31
0.0
  0
LINE
  5
30A
330
1F
100
AcDbEntity
  8
C-2
  6
Continuous
 62
     3
370
     9
100
AcDbLine
 10
825.3297174299092
 20
1147.55570643657
 30
0.0
 11
775.3300473496728
 21
1132.555409508783
 31
0.0
  0
LINE
  5
30B
330
1F
100
AcDbEntity
  8
C-2
  6
Continuous
 62
     3
370
     9
100
AcDbLine
 10
830.3299813657196
 20
1143.835696143073
 30
0.0
 11
770.3297834138618
 21
1125.834943926012
 31
0.0
  0
LINE
  5
30C
330
1F
100
AcDbEntity
  8
C-2
  6
Continuous
 62
     3
370
     9
100
AcDbLine
 10
770.3297834138618
 20
1179.276254499281
 30
0.0
 11
830.3299813657196
 21
1161.275254842397
 31
0.0
  0
LINE
  5
30D
330
1F
100
AcDbEntity
  8
C-5
  6
Continuous
 62
     7
370
     9
100
AcDbLine
 10
572.8379159360321
 20
320.4866146396947
 30
0.0
 11
572.8379159360321
 21
385.4862104879845
 31
0.0
  0
LINE
  5
30E
330
1F
100
AcDbEntity
  8
C-5
  6
Continuous
 62
     7
370
     9
100
AcDbLine
 10
572.8379159360321
 20
385.4862104879845
 30
0.0
 11
1047.838493295619
 21
385.4862104879845
 31
0.0
  0
LINE
  5
30F
330
1F
100
AcDbEntity
  8
C-5
  6
Continuous
 62
     7
370
     9
100
AcDbLine
 10
1047.838493295619
 20
385.4862104879845
 30
0.0
 11
1047.838493295619
 21
320.4866146396947
 31
0.0
  0
LINE
  5
310
330
1F
100
AcDbEntity
  8
C-5
  6
Continuous
 62
     7
370
     9
100
AcDbLine
 10
1047.838493295619
 20
320.4866146396947
 30
0.0
 11
572.8379159360321
 21
320.4866146396947
 31
0.0
  0
LINE
  5
311
330
1F
100
AcDbEntity
  8
C-4
  6
Continuous
 62
     7
370
     9
100
AcDbLine
 10
974.7752047873837
 20
438.0935251390613
 30
0.0
 11
974.7752047873837
 21
538.0934838990911
 31
0.0
  0
LINE
  5
312
330
1F
100
AcDbEntity
  8
C-4
  6
Continuous
 62
     7
370
     9
100
AcDbLine
 10
897.9869571891999
 20
438.0935251390613
 30
0.0
 11
977.7754126368347
 21
438.0935251390613
 31
0.0
  0
LINE
  5
313
330
1F
100
AcDbEntity
  8
C-4
  6
Continuous
 62
     7
370
     9
100
AcDbLine
 10
897.9869571891999
 20
538.0934838990911
 30
0.0
 11
977.7754126368347
 21
538.0934838990911
 31
0.0
  0
LINE
  5
314
330
1F
100
AcDbEntity
  8
C-4
  6
Continuous
 62
     7
370
     9
100
AcDbLine
 10
679.4824999731946
 20
548.5533838014348
 30
0.0
 11
679.4824999731946
 21
667.0958642701848
 31
0.0
  0
LINE
  5
315
330
1F
100
AcDbEntity
  8
C-4
  6
Continuous
 62
     7
370
     9
100
AcDbLine
 10
709.4823515093009
 20
548.5533838014348
 30
0.0
 11
709.4823515093009
 21
603.9784194327692
 31
0.0
  0
LINE
  5
316
330
1F
100
AcDbEntity
  8
C-4
  6
Continuous
 62
     7
370
     9
100
AcDbLine
 10
754.482747413017
 20
548.5533838014348
 30
0.0
 11
754.482747413017
 21
667.0958642701848
 31
0.0
  0
LINE
  5
317
330
1F
100
AcDbEntity
  8
C-4
  6
Continuous
 62
     7
370
     9
100
AcDbLine
 10
784.4823515093009
 20
548.5533838014348
 30
0.0
 11
784.4823515093009
 21
603.9784194327692
 31
0.0
  0
LINE
  5
318
330
1F
100
AcDbEntity
  8
C-4
  6
Continuous
 62
     7
370
     9
100
AcDbLine
 10
829.482747413017
 20
548.5533838014348
 30
0.0
 11
829.482747413017
 21
667.0958642701848
 31
0.0
  0
LINE
  5
319
330
1F
100
AcDbEntity
  8
C-4
  6
Continuous
 62
     7
370
     9
100
AcDbLine
 10
859.4823515093009
 20
548.5533838014348
 30
0.0
 11
859.4823515093009
 21
603.9784194327692
 31
0.0
  0
LINE
  5
31A
330
1F
100
AcDbEntity
  8
C-4
  6
Continuous
 62
     7
370
     9
100
AcDbLine
 10
652.6320624995884
 20
600.9784590231408
 30
0.0
 11
886.3340261820207
 21
600.9784590231408
 31
0.0
  0
LINE
  5
31B
330
1F
100
AcDbEntity
  8
C-4
  6
Continuous
 62
     7
370
     9
100
AcDbLine
 10
652.6320624995884
 20
664.0956564207338
 30
0.0
 11
886.3340261820207
 21
664.0956564207338
 31
0.0
  0
LINE
  5
31C
330
1F
100
AcDbEntity
  8
C-4
  6
Continuous
 62
     7
370
     9
100
AcDbLine
 10
698.6165265779243
 20
922.5554589967473
 30
0.0
 11
698.6165265779243
 21
962.5555909646525
 31
0.0
  0
LINE
  5
31D
330
1F
100
AcDbEntity
  8
C-4
  6
Continuous
 62
     7
370
     9
100
AcDbLine
 10
759.0796844379327
 20
922.5554589967473
 30
0.0
 11
695.6165661682957
 21
922.5554589967473
 31
0.0
  0
LINE
  5
31E
330
1F
100
AcDbEntity
  8
C-4
  6
Continuous
 62
     7
370
     9
100
AcDbLine
 10
759.0796844379327
 20
962.5555909646525
 30
0.0
 11
695.6165661682957
 21
962.5555909646525
 31
0.0
  0
LINE
  5
31F
330
1F
100
AcDbEntity
  8
C-4
  6
Continuous
 62
     7
370
     9
100
AcDbLine
 10
698.6165265779243
 20
962.5555909646525
 30
0.0
 11
698.6165265779243
 21
1042.556102340286
 31
0.0
  0
LINE
  5
320
330
1F
100
AcDbEntity
  8
C-4
  6
Continuous
 62
     7
370
     9
100
AcDbLine
 10
759.0796844379327
 20
1042.556102340286
 30
0.0
 11
695.6165661682957
 21
1042.556102340286
 31
0.0
  0
LINE
  5
321
330
1F
100
AcDbEntity
  8
C-4
  6
Continuous
 62
     7
370
     9
100
AcDbLine
 10
698.6165265779243
 20
1042.556102340286
 30
0.0
 11
698.6165265779243
 21
1052.555640452617
 31
0.0
  0
LINE
  5
322
330
1F
100
AcDbEntity
  8
C-4
  6
Continuous
 62
     7
370
     9
100
AcDbLine
 10
759.0796844379327
 20
1052.555640452617
 30
0.0
 11
695.6165661682957
 21
1052.555640452617
 31
0.0
  0
LINE
  5
323
330
1F
100
AcDbEntity
  8
C-4
  6
Continuous
 62
     7
370
     9
100
AcDbLine
 10
698.6165265779243
 20
1052.555640452617
 30
0.0
 11
698.6165265779243
 21
1132.555409508783
 31
0.0
  0
LINE
  5
324
330
1F
100
AcDbEntity
  8
C-4
  6
Continuous
 62
     7
370
     9
100
AcDbLine
 10
759.0796844379327
 20
1132.555409508783
 30
0.0
 11
695.6165661682957
 21
1132.555409508783
 31
0.0
  0
LINE
  5
325
330
1F
100
AcDbEntity
  8
C-4
  6
Continuous
 62
     7
370
     9
100
AcDbLine
 10
698.6165265779243
 20
1132.555409508783
 30
0.0
 11
698.6165265779243
 21
1172.555541476688
 31
0.0
  0
LINE
  5
326
330
1F
100
AcDbEntity
  8
C-4
  6
Continuous
 62
     7
370
     9
100
AcDbLine
 10
759.0796844379327
 20
1172.555541476688
 30
0.0
 11
695.6165661682957
 21
1172.555541476688
 31
0.0
  0
LINE
  5
327
330
1F
100
AcDbEntity
  8
C-4
  6
Continuous
 62
     7
370
     9
100
AcDbLine
 10
839.3494103405931
 20
1018.129337929391
 30
0.0
 11
915.6546554049936
 21
995.2371952984786
 31
0.0
  0
LINE
  5
328
330
1F
100
AcDbEntity
  8
C-4
  6
Continuous
 62
     7
370
     9
100
AcDbLine
 10
840.7862933906353
 20
1022.918783136317
 30
0.0
 11
917.0915384550358
 21
1000.026640505404
 31
0.0
  0
LINE
  5
329
330
1F
100
AcDbEntity
  8
C-4
  6
Continuous
 62
     7
370
     9
100
AcDbLine
 10
912.7813841845546
 20
996.0992756405394
 30
0.0
 11
934.6931702381863
 21
1069.136582967398
 31
0.0
  0
LINE
  5
32A
330
1F
100
AcDbEntity
  8
C-4
  6
Continuous
 62
     7
370
     9
100
AcDbLine
 10
770.3297834138618
 20
1265.17325684831
 30
0.0
 11
830.3299813657196
 21
1265.17325684831
 31
0.0
  0
LINE
  5
32B
330
1F
100
AcDbEntity
  8
C-4
  6
Continuous
 62
     7
370
     9
100
AcDbLine
 10
770.3297834138618
 20
1225.898371000548
 30
0.0
 11
770.3297834138618
 21
1268.172722378293
 31
0.0
  0
LINE
  5
32C
330
1F
100
AcDbEntity
  8
C-4
  6
Continuous
 62
     7
370
     9
100
AcDbLine
 10
830.3299813657196
 20
1216.995733621958
 30
0.0
 11
830.3299813657196
 21
1268.172722378293
 31
0.0
  0
LINE
  5
32D
330
1F
100
AcDbEntity
  8
C-5
  6
Continuous
 62
     7
370
     9
100
AcDbLine
 10
804.9827408146217
 20
1057.729112264273
 30
0.0
 11
861.3633890409733
 21
1155.382722906164
 31
0.0
  0
LINE
  5
32E
330
1F
100
AcDbEntity
  8
C-5
  6
Continuous
 62
     7
370
     9
100
AcDbLine
 10
804.9827408146217
 20
1057.729112264273
 30
0.0
 11
814.5497541169868
 21
1080.826135068327
 31
0.0
  0
LINE
  5
32F
330
1F
100
AcDbEntity
  8
C-5
  6
Continuous
 62
     7
370
     9
100
AcDbLine
 10
804.9827408146217
 20
1057.729112264273
 30
0.0
 11
820.2017745456186
 21
1077.562898687414
 31
0.0
  0
LINE
  5
330
330
1F
100
AcDbEntity
  8
C-2
  6
Continuous
 62
     3
370
     9
100
AcDbLine
 10
652.6320624995884
 20
503.0941107466415
 30
0.0
 11
689.4822855253483
 21
503.0941107466415
 31
0.0
  0
LINE
  5
331
330
1F
100
AcDbEntity
  8
C-2
  6
Continuous
 62
     3
370
     9
100
AcDbLine
 10
652.6320624995884
 20
473.0935168910673
 30
0.0
 11
689.4837701642842
 21
473.0935168910673
 31
0.0
  0
LINE
  5
332
330
1F
100
AcDbEntity
  8
C-2
  6
Continuous
 62
     3
370
     9
100
AcDbLine
 10
849.4828133969696
 20
473.0935168910673
 30
0.0
 11
886.3305620245035
 21
473.0935168910673
 31
0.0
  0
LINE
  5
333
330
1F
100
AcDbEntity
  8
C-2
  6
JWW_CENTER1
 62
     3
370
     9
100
AcDbLine
 10
652.6320624995884
 20
488.0943086984996
 30
0.0
 11
886.3315517837941
 21
488.0943086984996
 31
0.0
  0
LINE
  5
334
330
1F
100
AcDbEntity
  8
C-2
  6
Continuous
 62
     3
370
     9
100
AcDbLine
 10
849.4828133969696
 20
503.0941107466415
 30
0.0
 11
886.3320466634394
 21
503.0941107466415
 31
0.0
  0
LINE
  5
335
330
1F
100
AcDbEntity
  8
D-9
  6
Continuous
 62
     4
370
     9
100
AcDbLine
 10
-592.864202808689
 20
-398.5261252119733
 30
0.0
 11
-596.4890724903825
 21
-402.1507474538441
 31
0.0
  0
LINE
  5
336
330
1F
100
AcDbEntity
  8
D-9
  6
Continuous
 62
     4
370
     9
100
AcDbLine
 10
-707.8644584965057
 20
-389.6505824939624
 30
0.0
 11
-592.864202808689
 21
-389.6505824939624
 31
0.0
  0
LINE
  5
337
330
1F
100
AcDbEntity
  8
D-9
  6
Continuous
 62
     4
370
     9
100
AcDbLine
 10
-592.864202808689
 20
-391.455037400529
 30
0.0
 11
-603.5604077416494
 21
-402.1507474538441
 31
0.0
  0
LINE
  5
338
330
1F
100
AcDbEntity
  8
D-9
  6
Continuous
 62
     4
370
     9
100
AcDbLine
 10
-598.1310831533892
 20
-389.6505824939624
 30
0.0
 11
-610.6317429929161
 21
-402.1507474538441
 31
0.0
  0
LINE
  5
339
330
1F
100
AcDbEntity
  8
D-9
  6
Continuous
 62
     4
370
     9
100
AcDbLine
 10
-605.2024184046561
 20
-389.6505824939624
 30
0.0
 11
-617.703078244183
 21
-402.1507474538441
 31
0.0
  0
LINE
  5
33A
330
1F
100
AcDbEntity
  8
D-9
  6
Continuous
 62
     4
370
     9
100
AcDbLine
 10
-612.2736299360116
 20
-389.6505824939624
 30
0.0
 11
-624.7734237361595
 21
-402.1507474538441
 31
0.0
  0
LINE
  5
33B
330
1F
100
AcDbEntity
  8
D-9
  6
Continuous
 62
     4
370
     9
100
AcDbLine
 10
-619.343975427988
 20
-389.6505824939624
 30
0.0
 11
-631.8447589874262
 21
-402.1507474538441
 31
0.0
  0
LINE
  5
33C
330
1F
100
AcDbEntity
  8
D-9
  6
Continuous
 62
     4
370
     9
100
AcDbLine
 10
-626.4153106792548
 20
-389.6505824939624
 30
0.0
 11
-638.9160942386932
 21
-402.1507474538441
 31
0.0
  0
LINE
  5
33D
330
1F
100
AcDbEntity
  8
D-9
  6
Continuous
 62
     4
370
     9
100
AcDbLine
 10
-633.4866459305217
 20
-389.6505824939624
 30
0.0
 11
-644.9716890180429
 21
-401.1348832620156
 31
0.0
  0
LINE
  5
33E
330
1F
100
AcDbEntity
  8
D-9
  6
Continuous
 62
     4
370
     9
100
AcDbLine
 10
-640.5579811817887
 20
-389.6505824939624
 30
0.0
 11
-650.3851774576543
 21
-399.4777787698281
 31
0.0
  0
LINE
  5
33F
330
1F
100
AcDbEntity
  8
D-9
  6
Continuous
 62
     4
370
     9
100
AcDbLine
 10
-647.6283266737651
 20
-389.6505824939624
 30
0.0
 11
-655.6014563586257
 21
-397.6234647390004
 31
0.0
  0
LINE
  5
340
330
1F
100
AcDbEntity
  8
D-9
  6
Continuous
 62
     4
370
     9
100
AcDbLine
 10
-654.6996619250319
 20
-389.6505824939624
 30
0.0
 11
-660.817735259597
 21
-395.7691507081727
 31
0.0
  0
LINE
  5
341
330
1F
100
AcDbEntity
  8
D-9
  6
Continuous
 62
     4
370
     9
100
AcDbLine
 10
-661.7709971762988
 20
-389.6505824939624
 30
0.0
 11
-666.7712611121095
 21
-394.6508464297732
 31
0.0
  0
LINE
  5
342
330
1F
100
AcDbEntity
  8
D-9
  6
Continuous
 62
     4
370
     9
100
AcDbLine
 10
-668.8423324275658
 20
-389.6505824939624
 30
0.0
 11
-673.8416066040859
 21
-394.6508464297732
 31
0.0
  0
LINE
  5
343
330
1F
100
AcDbEntity
  8
D-9
  6
Continuous
 62
     4
370
     9
100
AcDbLine
 10
-704.1980189246095
 20
-389.6505824939624
 30
0.0
 11
-709.1972931011298
 21
-394.6508464297732
 31
0.0
  0
LINE
  5
344
330
1F
100
AcDbEntity
  8
D-A
  6
JWW_DASHED3
 62
     3
370
     9
100
AcDbLine
 10
-572.8641368247363
 20
-372.1506484779151
 30
0.0
 11
-572.8641368247363
 21
-322.1506072379447
 31
0.0
  0
LINE
  5
345
330
1F
100
AcDbEntity
  8
D-A
  6
Continuous
 62
     3
370
     9
100
AcDbLine
 10
-547.8636831850613
 20
-347.1508134377967
 30
0.0
 11
-547.8636831850613
 21
-331.650811788198
 31
0.0
  0
LINE
  5
346
330
1F
100
AcDbEntity
  8
D-A
  6
Continuous
 62
     3
370
     9
100
AcDbLine
 10
-572.8641368247363
 20
-322.1506072379447
 30
0.0
 11
-572.8641368247363
 21
-292.1510031416608
 31
0.0
  0
LINE
  5
347
330
1F
100
AcDbEntity
  8
D-A
  6
Continuous
 62
     3
370
     9
100
AcDbLine
 10
-422.8638893849137
 20
-410.6503053613609
 30
0.0
 11
-547.8636831850613
 21
-410.6503053613609
 31
0.0
  0
LINE
  5
348
330
1F
100
AcDbEntity
  8
D-A
  6
Continuous
 62
     3
370
     9
100
AcDbLine
 10
-550.7939892846182
 20
-394.2215383375012
 30
0.0
 11
-572.8641368247363
 21
-372.1506484779151
 31
0.0
  0
LINE
  5
349
330
1F
100
AcDbEntity
  8
D-A
  6
Continuous
 62
     3
370
     9
100
AcDbLine
 10
-547.8636831850613
 20
-422.1505659979742
 30
0.0
 11
-547.8636831850613
 21
-401.2928735887681
 31
0.0
  0
LINE
  5
34A
330
1F
100
AcDbEntity
  8
D-A
  6
Continuous
 62
     3
370
     9
100
AcDbLine
 10
-422.8638893849137
 20
-422.1505659979742
 30
0.0
 11
-547.8636831850613
 21
-422.1505659979742
 31
0.0
  0
LINE
  5
34B
330
1F
100
AcDbEntity
  8
D-A
  6
Continuous
 62
     3
370
     9
100
AcDbLine
 10
-572.8641368247363
 20
-404.6506319819268
 30
0.0
 11
-572.8641368247363
 21
-372.1506484779151
 31
0.0
  0
LINE
  5
34C
330
1F
100
AcDbEntity
  8
D-A
  6
Continuous
 62
     3
370
     9
100
AcDbLine
 10
-572.8641368247363
 20
-404.6506319819268
 30
0.0
 11
-584.363902581704
 21
-404.6506319819268
 31
0.0
  0
LINE
  5
34D
330
1F
100
AcDbEntity
  8
D-A
  6
Continuous
 62
     3
370
     9
100
AcDbLine
 10
-584.363902581704
 20
-292.1510031416608
 30
0.0
 11
-584.363902581704
 21
-404.6506319819268
 31
0.0
  0
LINE
  5
34E
330
1F
100
AcDbEntity
  8
D-A
  6
JWW_CENTER2
 62
     3
370
     9
100
AcDbLine
 10
-529.8692406834778
 20
-349.6509454057022
 30
0.0
 11
-590.28674589621
 21
-349.6509454057022
 31
0.0
  0
LINE
  5
34F
330
1F
100
AcDbEntity
  8
D-A
  6
JWW_DASHED3
 62
     3
370
     9
100
AcDbLine
 10
-547.8636831850613
 20
-359.6509783976785
 30
0.0
 11
-584.363902581704
 21
-359.6509783976785
 31
0.0
  0
LINE
  5
350
330
1F
100
AcDbEntity
  8
D-A
  6
JWW_DASHED3
 62
     3
370
     9
100
AcDbLine
 10
-547.8636831850613
 20
-367.6505841435612
 30
0.0
 11
-547.8636831850613
 21
-347.1508134377967
 31
0.0
  0
LINE
  5
351
330
1F
100
AcDbEntity
  8
D-A
  6
JWW_DASHED3
 62
     3
370
     9
100
AcDbLine
 10
-547.8636831850613
 20
-358.4014072933711
 30
0.0
 11
-584.363902581704
 21
-358.4014072933711
 31
0.0
  0
LINE
  5
352
330
1F
100
AcDbEntity
  8
D-A
  6
Continuous
 62
     3
370
     9
100
AcDbLine
 10
-586.6143677685707
 20
-339.6509124137259
 30
0.0
 11
-587.8639388728783
 21
-340.9009783976785
 31
0.0
  0
LINE
  5
353
330
1F
100
AcDbEntity
  8
D-A
  6
Continuous
 62
     3
370
     9
100
AcDbLine
 10
-586.6143677685707
 20
-359.6509783976785
 30
0.0
 11
-587.8639388728783
 21
-358.4014072933711
 31
0.0
  0
LINE
  5
354
330
1F
100
AcDbEntity
  8
D-A
  6
Continuous
 62
     3
370
     9
100
AcDbLine
 10
-586.6143677685707
 20
-339.6509124137259
 30
0.0
 11
-586.6143677685707
 21
-359.6509783976785
 31
0.0
  0
LINE
  5
355
330
1F
100
AcDbEntity
  8
D-A
  6
Continuous
 62
     3
370
     9
100
AcDbLine
 10
-584.363902581704
 20
-340.9009783976785
 30
0.0
 11
-587.8639388728783
 21
-340.9009783976785
 31
0.0
  0
LINE
  5
356
330
1F
100
AcDbEntity
  8
D-A
  6
Continuous
 62
     3
370
     9
100
AcDbLine
 10
-584.363902581704
 20
-339.6509124137259
 30
0.0
 11
-586.6143677685707
 21
-339.6509124137259
 31
0.0
  0
LINE
  5
357
330
1F
100
AcDbEntity
  8
D-A
  6
Continuous
 62
     3
370
     9
100
AcDbLine
 10
-584.363902581704
 20
-358.4014072933711
 30
0.0
 11
-587.8639388728783
 21
-358.4014072933711
 31
0.0
  0
LINE
  5
358
330
1F
100
AcDbEntity
  8
D-A
  6
Continuous
 62
     3
370
     9
100
AcDbLine
 10
-584.363902581704
 20
-359.6509783976785
 30
0.0
 11
-586.6143677685707
 21
-359.6509783976785
 31
0.0
  0
LINE
  5
359
330
1F
100
AcDbEntity
  8
D-A
  6
Continuous
 62
     3
370
     9
100
AcDbLine
 10
-541.3641813639043
 20
-331.650811788198
 30
0.0
 11
-547.8636831850613
 21
-331.650811788198
 31
0.0
  0
LINE
  5
35A
330
1F
100
AcDbEntity
  8
D-A
  6
JWW_DASHED3
 62
     3
370
     9
100
AcDbLine
 10
-541.3641813639043
 20
-367.6505841435612
 30
0.0
 11
-547.8636831850613
 21
-367.6505841435612
 31
0.0
  0
LINE
  5
35B
330
1F
100
AcDbEntity
  8
D-A
  6
JWW_DASHED3
 62
     3
370
     9
100
AcDbLine
 10
-534.8646795427474
 20
-361.1507111626702
 30
0.0
 11
-534.8646795427474
 21
-360.1511779991355
 31
0.0
  0
LINE
  5
35C
330
1F
100
AcDbEntity
  8
D-A
  6
Continuous
 62
     3
370
     9
100
AcDbLine
 10
-534.8646795427474
 20
-338.1503136093551
 30
0.0
 11
-534.8646795427474
 21
-360.1511779991355
 31
0.0
  0
LINE
  5
35D
330
1F
100
AcDbEntity
  8
D-A
  6
Continuous
 62
     3
370
     9
100
AcDbLine
 10
-547.8636831850613
 20
-339.6509124137259
 30
0.0
 11
-555.364202808689
 21
-339.6509124137259
 31
0.0
  0
LINE
  5
35E
330
1F
100
AcDbEntity
  8
D-A
  6
Continuous
 62
     3
370
     9
100
AcDbLine
 10
-547.8636831850613
 20
-340.9009783976785
 30
0.0
 11
-554.1146317043814
 21
-340.9009783976785
 31
0.0
  0
LINE
  5
35F
330
1F
100
AcDbEntity
  8
D-A
  6
JWW_DASHED3
 62
     3
370
     9
100
AcDbLine
 10
-555.364202808689
 20
-339.6509124137259
 30
0.0
 11
-584.363902581704
 21
-339.6509124137259
 31
0.0
  0
LINE
  5
360
330
1F
100
AcDbEntity
  8
D-A
  6
JWW_DASHED3
 62
     3
370
     9
100
AcDbLine
 10
-584.363902581704
 20
-340.9009783976785
 30
0.0
 11
-554.1146317043814
 21
-340.9009783976785
 31
0.0
  0
LINE
  5
361
330
1F
100
AcDbEntity
  8
D-A
  6
Continuous
 62
     3
370
     9
100
AcDbLine
 10
-531.652044605564
 20
-363.3636892164074
 30
0.0
 11
-572.8641368247363
 21
-322.1506072379447
 31
0.0
  0
LINE
  5
362
330
1F
100
AcDbEntity
  8
D-A
  6
Continuous
 62
     3
370
     9
100
AcDbLine
 10
-510.4380388517632
 20
-372.1506484779151
 30
0.0
 11
-432.8644172565353
 21
-372.1506484779151
 31
0.0
  0
LINE
  5
363
330
1F
100
AcDbEntity
  8
D-4
  6
Continuous
 62
     7
370
     9
100
AcDbLine
 10
-1295.532119596326
 20
-166.2315992406894
 30
0.0
 11
-722.8642605446475
 21
-166.2315992406894
 31
0.0
  0
LINE
  5
364
330
1F
100
AcDbEntity
  8
D-4
  6
Continuous
 62
     7
370
     9
100
AcDbLine
 10
-722.8642605446475
 20
-271.6947818446802
 30
0.0
 11
-722.8642605446475
 21
-163.2310202315045
 31
0.0
  0
LINE
  5
365
330
1F
100
AcDbEntity
  8
D-4
  6
Continuous
 62
     7
370
     9
100
AcDbLine
 10
-722.8642605446475
 20
-166.2315992406894
 30
0.0
 11
-597.8634769852092
 21
-166.2315992406894
 31
0.0
  0
LINE
  5
366
330
1F
100
AcDbEntity
  8
D-4
  6
Continuous
 62
     7
370
     9
100
AcDbLine
 10
-597.8634769852092
 20
-271.6947818446802
 30
0.0
 11
-597.8634769852092
 21
-54.47960982451548
 31
0.0
  0
LINE
  5
367
330
1F
100
AcDbEntity
  8
D-4
  6
Continuous
 62
     7
370
     9
100
AcDbLine
 10
-592.8632130493984
 20
-271.6947818446802
 30
0.0
 11
-592.8632130493984
 21
-54.47960982451548
 31
0.0
  0
LINE
  5
368
330
1F
100
AcDbEntity
  8
D-4
  6
Continuous
 62
     7
370
     9
100
AcDbLine
 10
-567.8648626482161
 20
-271.6947818446802
 30
0.0
 11
-567.8648626482161
 21
56.21704874811968
 31
0.0
  0
LINE
  5
369
330
1F
100
AcDbEntity
  8
D-5
  6
Continuous
 62
     7
370
     9
100
AcDbLine
 10
-431.4334727622364
 20
-179.1019341752335
 30
0.0
 11
-172.0517094070843
 21
-179.1019341752335
 31
0.0
  0
LINE
  5
36A
330
1F
100
AcDbEntity
  8
D-4
  6
Continuous
 62
     7
370
     9
100
AcDbLine
 10
-722.8632707853569
 20
-847.2341800380398
 30
0.0
 11
-322.8624459859483
 21
-847.2341800380398
 31
0.0
  0
LINE
  5
36B
330
1F
100
AcDbEntity
  8
D-4
  6
Continuous
 62
     7
370
     9
100
AcDbLine
 10
-322.8624459859483
 20
-607.0243634404362
 30
0.0
 11
-322.8624459859483
 21
-850.2336455680228
 31
0.0
  0
LINE
  5
36C
330
1F
100
AcDbEntity
  8
D-4
  6
Continuous
 62
     7
370
     9
100
AcDbLine
 10
-722.8632707853569
 20
-692.7696851781895
 30
0.0
 11
-572.8641368247363
 21
-692.7696851781895
 31
0.0
  0
LINE
  5
36D
330
1F
100
AcDbEntity
  8
D-4
  6
Continuous
 62
     7
370
     9
100
AcDbLine
 10
-51.17908812857905
 20
-537.1509454057023
 30
0.0
 11
-51.17908812857905
 21
-287.15073920585
 31
0.0
  0
LINE
  5
36E
330
1F
100
AcDbEntity
  8
D-4
  6
Continuous
 62
     7
370
     9
100
AcDbLine
 10
-146.834127323047
 20
-287.15073920585
 30
0.0
 11
-48.17838539948298
 21
-287.15073920585
 31
0.0
  0
LINE
  5
36F
330
1F
100
AcDbEntity
  8
D-6
  6
Continuous
 62
     6
370
     5
100
AcDbLine
 10
-572.8641368247363
 20
-537.1509454057023
 30
0.0
 11
-572.8641368247363
 21
-787.1506567259091
 31
0.0
  0
LINE
  5
370
330
1F
100
AcDbEntity
  8
D-6
  6
JWW_DASHED3
 62
     6
370
     5
100
AcDbLine
 10
-479.362195246928
 20
-664.6508093137998
 30
0.0
 11
-479.362195246928
 21
-537.1509454057023
 31
0.0
  0
LINE
  5
371
330
1F
100
AcDbEntity
  8
D-6
  6
JWW_DASHED3
 62
     6
370
     5
100
AcDbLine
 10
-434.3627891025022
 20
-537.1509454057023
 30
0.0
 11
-434.3627891025022
 21
-664.6508093137998
 31
0.0
  0
LINE
  5
372
330
1F
100
AcDbEntity
  8
D-6
  6
Continuous
 62
     6
370
     5
100
AcDbLine
 10
-322.8644255045293
 20
-437.1509866456727
 30
0.0
 11
-157.8635099771856
 21
-437.1509866456727
 31
0.0
  0
LINE
  5
373
330
1F
100
AcDbEntity
  8
D-6
  6
Continuous
 62
     6
370
     5
100
AcDbLine
 10
-557.8643347765944
 20
-782.2999701628812
 30
0.0
 11
-212.7127531412481
 21
-437.1509866456727
 31
0.0
  0
LINE
  5
374
330
1F
100
AcDbEntity
  8
D-6
  6
Continuous
 62
     6
370
     5
100
AcDbLine
 10
-557.8643347765944
 20
-775.2276451523238
 30
0.0
 11
-219.7870576703866
 21
-437.1509866456727
 31
0.0
  0
LINE
  5
375
330
1F
100
AcDbEntity
  8
D-6
  6
Continuous
 62
     6
370
     5
100
AcDbLine
 10
-557.8643347765944
 20
-768.1592791789286
 30
0.0
 11
-326.8540214847869
 21
-537.1509454057023
 31
0.0
  0
LINE
  5
376
330
1F
100
AcDbEntity
  8
D-6
  6
Continuous
 62
     6
370
     5
100
AcDbLine
 10
-322.8644255045293
 20
-437.1509866456727
 30
0.0
 11
-322.8644255045293
 21
-537.1509454057023
 31
0.0
  0
LINE
  5
377
330
1F
100
AcDbEntity
  8
D-6
  6
Continuous
 62
     6
370
     5
100
AcDbLine
 10
-322.8644255045293
 20
-533.1608545457993
 30
0.0
 11
-226.8534441252007
 21
-437.1509866456727
 31
0.0
  0
LINE
  5
378
330
1F
100
AcDbEntity
  8
D-4
  6
Continuous
 62
     7
370
     9
100
AcDbLine
 10
-267.0845611675361
 20
-537.1509454057023
 30
0.0
 11
-48.17838539948298
 21
-537.1509454057023
 31
0.0
  0
LINE
  5
379
330
1F
100
AcDbEntity
  8
D-6
  6
Continuous
 62
     6
370
     5
100
AcDbLine
 10
-572.8641368247363
 20
-537.1509454057023
 30
0.0
 11
-322.8644255045293
 21
-537.1509454057023
 31
0.0
  0
LINE
  5
37A
330
1F
100
AcDbEntity
  8
D-6
  6
Continuous
 62
     6
370
     5
100
AcDbLine
 10
-479.362195246928
 20
-339.6514072933711
 30
0.0
 11
-434.3627891025022
 21
-339.6514072933711
 31
0.0
  0
LINE
  5
37B
330
1F
100
AcDbEntity
  8
D-6
  6
JWW_CENTER2
 62
     6
370
     5
100
AcDbLine
 10
-456.8629870543603
 20
-335.5713720579404
 30
0.0
 11
-456.8629870543603
 21
-664.6508093137998
 31
0.0
  0
LINE
  5
37C
330
1F
100
AcDbEntity
  8
D-4
  6
Continuous
 62
     7
370
     9
100
AcDbLine
 10
-567.8638728889255
 20
-425.1184829505713
 30
0.0
 11
-567.8638728889255
 21
-480.6818374427588
 31
0.0
  0
LINE
  5
37D
330
1F
100
AcDbEntity
  8
D-4
  6
Continuous
 62
     7
370
     9
100
AcDbLine
 10
-422.8638893849137
 20
-425.1184829505713
 30
0.0
 11
-422.8638893849137
 21
-480.6818374427588
 31
0.0
  0
LINE
  5
37E
330
1F
100
AcDbEntity
  8
D-4
  6
Continuous
 62
     7
370
     9
100
AcDbLine
 10
-411.037008182422
 20
-422.1510608776194
 30
0.0
 11
-331.8135815697744
 21
-422.1510608776194
 31
0.0
  0
LINE
  5
37F
330
1F
100
AcDbEntity
  8
D-4
  6
Continuous
 62
     7
370
     9
100
AcDbLine
 10
-411.037008182422
 20
-372.1511433575603
 30
0.0
 11
-331.8135815697744
 21
-372.1511433575603
 31
0.0
  0
LINE
  5
380
330
1F
100
AcDbEntity
  8
D-4
  6
Continuous
 62
     7
370
     9
100
AcDbLine
 10
-334.8131708196686
 20
-372.1511433575603
 30
0.0
 11
-334.8131708196686
 21
-287.15073920585
 31
0.0
  0
LINE
  5
381
330
1F
100
AcDbEntity
  8
D-6
  6
Continuous
 62
     6
370
     5
100
AcDbLine
 10
-479.362195246928
 20
-372.1506484779151
 30
0.0
 11
-479.362195246928
 21
-339.6514072933711
 31
0.0
  0
LINE
  5
382
330
1F
100
AcDbEntity
  8
D-6
  6
Continuous
 62
     6
370
     5
100
AcDbLine
 10
-434.3627891025022
 20
-372.1506484779151
 30
0.0
 11
-434.3627891025022
 21
-339.6514072933711
 31
0.0
  0
LINE
  5
383
330
1F
100
AcDbEntity
  8
D-6
  6
Continuous
 62
     6
370
     5
100
AcDbLine
 10
-479.362195246928
 20
-537.1509454057023
 30
0.0
 11
-479.362195246928
 21
-422.1505659979742
 31
0.0
  0
LINE
  5
384
330
1F
100
AcDbEntity
  8
D-6
  6
Continuous
 62
     6
370
     5
100
AcDbLine
 10
-434.3627891025022
 20
-537.1509454057023
 30
0.0
 11
-434.3627891025022
 21
-422.1505659979742
 31
0.0
  0
LINE
  5
385
330
1F
100
AcDbEntity
  8
D-4
  6
Continuous
 62
     7
370
     9
100
AcDbLine
 10
-868.3468754227092
 20
-412.1507804458204
 30
0.0
 11
-868.3468754227092
 21
-287.15073920585
 31
0.0
  0
LINE
  5
386
330
1F
100
AcDbEntity
  8
D-4
  6
Continuous
 62
     7
370
     9
100
AcDbLine
 10
-727.7883130150867
 20
-412.1507804458204
 30
0.0
 11
-871.3463409526923
 21
-412.1507804458204
 31
0.0
  0
LINE
  5
387
330
1F
100
AcDbEntity
  8
D-4
  6
Continuous
 62
     7
370
     9
100
AcDbLine
 10
-1295.532119596326
 20
53.21622229911213
 30
0.0
 11
-567.8648626482161
 21
53.21622229911213
 31
0.0
  0
LINE
  5
388
330
1F
100
AcDbEntity
  8
D-4
  6
Continuous
 62
     7
370
     9
100
AcDbLine
 10
-605.1438988866028
 20
-287.15073920585
 30
0.0
 11
-871.3463409526923
 21
-287.15073920585
 31
0.0
  0
LINE
  5
389
330
1F
100
AcDbEntity
  8
D-4
  6
Continuous
 62
     7
370
     9
100
AcDbLine
 10
-1295.532119596326
 20
-57.47944651423268
 30
0.0
 11
-567.8648626482161
 21
-57.47944651423268
 31
0.0
  0
LINE
  5
38A
330
1F
100
AcDbEntity
  8
D-4
  6
Continuous
 62
     7
370
     9
100
AcDbLine
 10
-567.8638728889255
 20
-477.6815058733965
 30
0.0
 11
-422.8638893849137
 21
-477.6815058733965
 31
0.0
  0
LINE
  5
38B
330
1F
100
AcDbEntity
  8
D-5
  6
Continuous
 62
     2
370
     9
100
AcDbLine
 10
-1064.858633763081
 20
-983.093117894353
 30
0.0
 11
-1064.858633763081
 21
-918.0935220460633
 31
0.0
  0
LINE
  5
38C
330
1F
100
AcDbEntity
  8
D-5
  6
Continuous
 62
     2
370
     9
100
AcDbLine
 10
-1064.858633763081
 20
-918.0935220460633
 30
0.0
 11
-489.8582213633765
 21
-918.0935220460633
 31
0.0
  0
LINE
  5
38D
330
1F
100
AcDbEntity
  8
D-5
  6
Continuous
 62
     2
370
     9
100
AcDbLine
 10
-489.8582213633765
 20
-918.0935220460633
 30
0.0
 11
-489.8582213633765
 21
-983.093117894353
 31
0.0
  0
LINE
  5
38E
330
1F
100
AcDbEntity
  8
D-5
  6
Continuous
 62
     2
370
     9
100
AcDbLine
 10
-489.8582213633765
 20
-983.093117894353
 30
0.0
 11
-1064.858633763081
 21
-983.093117894353
 31
0.0
  0
LINE
  5
38F
330
1F
100
AcDbEntity
  8
D-4
  6
Continuous
 62
     7
370
     9
100
AcDbLine
 10
-334.8131708196686
 20
-422.1510608776194
 30
0.0
 11
-334.8131708196686
 21
-372.1511433575603
 31
0.0
  0
LINE
  5
390
330
1F
100
AcDbEntity
  8
D-4
  6
Continuous
 62
     7
370
     9
100
AcDbLine
 10
-722.8632707853569
 20
-812.150924785717
 30
0.0
 11
-722.8632707853569
 21
-850.2336455680228
 31
0.0
  0
LINE
  5
391
330
1F
100
AcDbEntity
  8
D-A
  6
Continuous
 62
     3
370
     9
100
AcDbLine
 10
-584.363902581704
 20
-292.1510031416608
 30
0.0
 11
-572.8641368247363
 21
-292.1510031416608
 31
0.0
  0
LINE
  5
392
330
1F
100
AcDbEntity
  8
D-5
  6
Continuous
 62
     7
370
     9
100
AcDbLine
 10
-542.6653436712311
 20
-380.8684483089961
 30
0.0
 11
-528.8546136907623
 21
-360.0291901665764
 31
0.0
  0
LINE
  5
393
330
1F
100
AcDbEntity
  8
D-5
  6
Continuous
 62
     7
370
     9
100
AcDbLine
 10
-542.6653436712311
 20
-380.8684483089961
 30
0.0
 11
-523.9305612203234
 21
-364.3141055751489
 31
0.0
  0
LINE
  5
394
330
1F
100
AcDbEntity
  8
D-5
  6
Continuous
 62
     7
370
     9
100
AcDbLine
 10
-542.6643539119405
 20
-380.8674585497056
 30
0.0
 11
-416.7557136432541
 21
-236.2051066836794
 31
0.0
  0
LINE
  5
395
330
1F
100
AcDbEntity
  8
D-5
  6
Continuous
 62
     7
370
     9
100
AcDbLine
 10
-416.7557136432541
 20
-236.2051066836794
 30
0.0
 11
-30.05440815074962
 21
-236.2051066836794
 31
0.0
  0
LINE
  5
396
330
1F
100
AcDbEntity
  8
D-5
  6
Continuous
 62
     7
370
     9
100
AcDbLine
 10
-613.3449206481102
 20
-388.106929160453
 30
0.0
 11
-599.5322111490606
 21
-367.2685370574125
 31
0.0
  0
LINE
  5
397
330
1F
100
AcDbEntity
  8
D-5
  6
Continuous
 62
     7
370
     9
100
AcDbLine
 10
-613.3449206481102
 20
-388.106929160453
 30
0.0
 11
-594.6112516764043
 21
-371.552586426606
 31
0.0
  0
LINE
  5
398
330
1F
100
AcDbEntity
  8
D-5
  6
Continuous
 62
     7
370
     9
100
AcDbLine
 10
-569.8159256496939
 20
-289.9466854817157
 30
0.0
 11
-556.0053193891366
 21
-269.1082933786751
 31
0.0
  0
LINE
  5
399
330
1F
100
AcDbEntity
  8
D-5
  6
Continuous
 62
     7
370
     9
100
AcDbLine
 10
-569.8159256496939
 20
-289.9466854817157
 30
0.0
 11
-551.0812669186973
 21
-273.3925901876913
 31
0.0
  0
LINE
  5
39A
330
1F
100
AcDbEntity
  8
D-5
  6
Continuous
 62
     7
370
     9
100
AcDbLine
 10
-425.5899339108848
 20
-124.2395767005712
 30
0.0
 11
-569.8159256496939
 21
-289.9466854817157
 31
0.0
  0
LINE
  5
39B
330
1F
100
AcDbEntity
  8
D-5
  6
Continuous
 62
     7
370
     9
100
AcDbLine
 10
-431.4334727622364
 20
-179.1019341752335
 30
0.0
 11
-613.3449206481102
 21
-388.106929160453
 31
0.0
  0
LINE
  5
39C
330
1F
100
AcDbEntity
  8
D-5
  6
Continuous
 62
     7
370
     9
100
AcDbLine
 10
-425.5899339108848
 20
-124.2395767005712
 30
0.0
 11
23.1986007174936
 21
-124.2395767005712
 31
0.0
  0
LINE
  5
39D
330
1F
100
AcDbEntity
  8
D-6
  6
Continuous
 62
     6
370
     5
100
AcDbLine
 10
-570.8644518981102
 20
-287.15073920585
 30
0.0
 11
-157.8635099771856
 21
-287.15073920585
 31
0.0
  0
LINE
  5
39E
330
1F
100
AcDbEntity
  8
D-6
  6
Continuous
 62
     6
370
     5
100
AcDbLine
 10
-722.8632707853569
 20
-407.1507639498323
 30
0.0
 11
-722.8632707853569
 21
-787.1506567259091
 31
0.0
  0
LINE
  5
39F
330
1F
100
AcDbEntity
  8
D-A
  6
Continuous
 62
     3
370
     9
100
AcDbLine
 10
-422.8638893849137
 20
-382.150928909714
 30
0.0
 11
-422.8638893849137
 21
-422.1505659979742
 31
0.0
  0
LINE
  5
3A0
330
1F
100
AcDbEntity
  8
D-1
  6
Continuous
 62
     2
370
     9
100
AcDbLine
 10
-572.864879144204
 20
-292.1507557018381
 30
0.0
 11
-587.8649286321686
 21
-292.1507557018381
 31
0.0
  0
LINE
  5
3A1
330
1F
100
AcDbEntity
  8
D-1
  6
Continuous
 62
     2
370
     9
100
AcDbLine
 10
-567.8648626482161
 20
-384.6506897178855
 30
0.0
 11
-572.864879144204
 21
-384.6506897178855
 31
0.0
  0
LINE
  5
3A2
330
1F
100
AcDbEntity
  8
D-1
  6
Continuous
 62
     2
370
     9
100
AcDbLine
 10
-572.864879144204
 20
-407.1507639498323
 30
0.0
 11
-572.864879144204
 21
-384.6506897178855
 31
0.0
  0
LINE
  5
3A3
330
1F
100
AcDbEntity
  8
D-1
  6
Continuous
 62
     2
370
     9
100
AcDbLine
 10
-567.8648626482161
 20
-314.6507062138737
 30
0.0
 11
-572.864879144204
 21
-314.6507062138737
 31
0.0
  0
LINE
  5
3A4
330
1F
100
AcDbEntity
  8
D-1
  6
Continuous
 62
     2
370
     9
100
AcDbLine
 10
-572.864879144204
 20
-314.6507062138737
 30
0.0
 11
-572.864879144204
 21
-292.1507557018381
 31
0.0
  0
LINE
  5
3A5
330
1F
100
AcDbEntity
  8
D-1
  6
Continuous
 62
     2
370
     9
100
AcDbLine
 10
-567.8648626482161
 20
-290.1506996154784
 30
0.0
 11
-567.8648626482161
 21
-314.6507062138737
 31
0.0
  0
LINE
  5
3A6
330
1F
100
AcDbEntity
  8
D-1
  6
Continuous
 62
     2
370
     9
100
AcDbLine
 10
-567.8648626482161
 20
-409.1506963162807
 30
0.0
 11
-567.8648626482161
 21
-384.6506897178855
 31
0.0
  0
LINE
  5
3A7
330
1F
100
AcDbEntity
  8
D-1
  6
Continuous
 62
     2
370
     9
100
AcDbLine
 10
-592.8649451281569
 20
-402.1507474538441
 30
0.0
 11
-642.8648626482161
 21
-402.1507474538441
 31
0.0
  0
LINE
  5
3A8
330
1F
100
AcDbEntity
  8
D-1
  6
Continuous
 62
     2
370
     9
100
AcDbLine
 10
-587.8649286321686
 20
-402.1507474538441
 30
0.0
 11
-587.8649286321686
 21
-292.1507557018381
 31
0.0
  0
LINE
  5
3A9
330
1F
100
AcDbEntity
  8
D-1
  6
Continuous
 62
     2
370
     9
100
AcDbLine
 10
-592.8649451281569
 20
-402.1507474538441
 30
0.0
 11
-592.8649451281569
 21
-290.1506996154784
 31
0.0
  0
LINE
  5
3AA
330
1F
100
AcDbEntity
  8
D-1
  6
Continuous
 62
     2
370
     9
100
AcDbLine
 10
-663.1523299861595
 20
-394.939484982877
 30
0.0
 11
-642.8648626482161
 21
-402.1507474538441
 31
0.0
  0
LINE
  5
3AB
330
1F
100
AcDbEntity
  8
D-1
  6
Continuous
 62
     2
370
     9
100
AcDbLine
 10
-644.2354318257921
 20
-406.8621253967284
 30
0.0
 11
-664.5314358376163
 21
-399.65073920585
 31
0.0
  0
LINE
  5
3AC
330
1F
100
AcDbEntity
  8
D-1
  6
Continuous
 62
     2
370
     9
100
AcDbLine
 10
-589.8648609986171
 20
-287.15073920585
 30
0.0
 11
-570.8648230578444
 21
-287.15073920585
 31
0.0
  0
LINE
  5
3AD
330
1F
100
AcDbEntity
  8
D-1
  6
Continuous
 62
     2
370
     9
100
AcDbLine
 10
-717.8648626482161
 20
-407.1507639498323
 30
0.0
 11
-572.864879144204
 21
-407.1507639498323
 31
0.0
  0
LINE
  5
3AE
330
1F
100
AcDbEntity
  8
D-1
  6
Continuous
 62
     2
370
     9
100
AcDbLine
 10
-717.8648626482161
 20
-407.1507639498323
 30
0.0
 11
-717.8648626482161
 21
-399.65073920585
 31
0.0
  0
LINE
  5
3AF
330
1F
100
AcDbEntity
  8
D-1
  6
Continuous
 62
     2
370
     9
100
AcDbLine
 10
-717.8648626482161
 20
-412.1507804458204
 30
0.0
 11
-570.8648230578444
 21
-412.1507804458204
 31
0.0
  0
LINE
  5
3B0
330
1F
100
AcDbEntity
  8
D-1
  6
Continuous
 62
     2
370
     9
100
AcDbLine
 10
-722.864879144204
 20
-407.1507639498323
 30
0.0
 11
-722.864879144204
 21
-399.65073920585
 31
0.0
  0
LINE
  5
3B1
330
1F
100
AcDbEntity
  8
D-1
  6
Continuous
 62
     2
370
     9
100
AcDbLine
 10
-681.0346822480892
 20
-395.3205423097352
 30
0.0
 11
-692.8649038881863
 21
-402.1507474538441
 31
0.0
  0
LINE
  5
3B2
330
1F
100
AcDbEntity
  8
D-1
  6
Continuous
 62
     2
370
     9
100
AcDbLine
 10
-690.3648956401923
 20
-406.4808206300477
 30
0.0
 11
-678.5347977200064
 21
-399.65073920585
 31
0.0
  0
LINE
  5
3B3
330
1F
100
AcDbEntity
  8
D-1
  6
Continuous
 62
     2
370
     9
100
AcDbLine
 10
-695.3649121361807
 20
-406.4808206300477
 30
0.0
 11
-707.1951337762778
 21
-399.65073920585
 31
0.0
  0
LINE
  5
3B4
330
1F
100
AcDbEntity
  8
D-1
  6
Continuous
 62
     2
370
     9
100
AcDbLine
 10
-704.6951255282835
 20
-395.3205423097352
 30
0.0
 11
-692.8649038881863
 21
-402.1507474538441
 31
0.0
  0
LINE
  5
3B5
330
1F
100
AcDbEntity
  8
D-1
  6
Continuous
 62
     2
370
     9
100
AcDbLine
 10
-664.5314358376163
 20
-399.65073920585
 30
0.0
 11
-678.5347977200064
 21
-399.65073920585
 31
0.0
  0
LINE
  5
3B6
330
1F
100
AcDbEntity
  8
D-1
  6
Continuous
 62
     2
370
     9
100
AcDbLine
 10
-707.1951337762778
 20
-399.65073920585
 30
0.0
 11
-717.8648626482161
 21
-399.65073920585
 31
0.0
  0
LINE
  5
3B7
330
1F
100
AcDbEntity
  8
D-1
  6
Continuous
 62
     2
370
     9
100
AcDbLine
 10
-664.827002705754
 20
-394.6507227098618
 30
0.0
 11
-678.5346740000953
 21
-394.6507227098618
 31
0.0
  0
LINE
  5
3B8
330
1F
100
AcDbEntity
  8
D-1
  6
Continuous
 62
     2
370
     9
100
AcDbLine
 10
-707.1951337762778
 20
-394.6507227098618
 30
0.0
 11
-717.8648626482161
 21
-394.6507227098618
 31
0.0
  0
LINE
  5
3B9
330
1F
100
AcDbEntity
  8
D-9
  6
Continuous
 62
     4
370
     9
100
AcDbLine
 10
-675.9126779195421
 20
-389.6505824939624
 30
0.0
 11
-682.3311431987861
 21
-396.0690477732064
 31
0.0
  0
LINE
  5
3BA
330
1F
100
AcDbEntity
  8
D-9
  6
Continuous
 62
     4
370
     9
100
AcDbLine
 10
-682.984013170809
 20
-389.6505824939624
 30
0.0
 11
-694.5254725378908
 21
-401.1920418610442
 31
0.0
  0
LINE
  5
3BB
330
1F
100
AcDbEntity
  8
D-9
  6
Continuous
 62
     4
370
     9
100
AcDbLine
 10
-690.0553484220757
 20
-389.6505824939624
 30
0.0
 11
-699.008463524483
 21
-398.6036975963694
 31
0.0
  0
LINE
  5
3BC
330
1F
100
AcDbEntity
  8
D-9
  6
Continuous
 62
     4
370
     9
100
AcDbLine
 10
-697.1266836733425
 20
-389.6505824939624
 30
0.0
 11
-703.4907121916069
 21
-396.0159719312512
 31
0.0
  0
LINE
  5
3BD
330
1F
100
AcDbEntity
  8
D-2
  6
Continuous
 62
     3
370
     9
100
AcDbLine
 10
-612.8637739129965
 20
-289.6506237339328
 30
0.0
 11
-612.8637739129965
 21
-389.6505824939624
 31
0.0
  0
LINE
  5
3BE
330
1F
100
AcDbEntity
  8
D-2
  6
Continuous
 62
     3
370
     9
100
AcDbLine
 10
-1270.532160836296
 20
-444.8943684552165
 30
0.0
 11
-1270.532160836296
 21
-220.9519262571591
 31
0.0
  0
LINE
  5
3BF
330
1F
100
AcDbEntity
  8
D-4
  6
Continuous
 62
     7
370
     9
100
AcDbLine
 10
-1079.589963603664
 20
-389.6505824939624
 30
0.0
 11
-1079.589963603664
 21
-289.6506237339328
 31
0.0
  0
LINE
  5
3C0
330
1F
100
AcDbEntity
  8
D-2
  6
Continuous
 62
     3
370
     9
100
AcDbLine
 10
-612.8637739129965
 20
-299.6501618462638
 30
0.0
 11
-1270.532160836296
 21
-299.6501618462638
 31
0.0
  0
LINE
  5
3C1
330
1F
100
AcDbEntity
  8
D-2
  6
Continuous
 62
     3
370
     9
100
AcDbLine
 10
-597.8634769852092
 20
-289.6506237339328
 30
0.0
 11
-597.8634769852092
 21
-389.6505824939624
 31
0.0
  0
LINE
  5
3C2
330
1F
100
AcDbEntity
  8
D-2
  6
Continuous
 62
     3
370
     9
100
AcDbLine
 10
-597.8659513834356
 20
-389.6505824939624
 30
0.0
 11
-1270.532160836296
 21
-389.6505824939624
 31
0.0
  0
LINE
  5
3C3
330
1F
100
AcDbEntity
  8
D-2
  6
Continuous
 62
     3
370
     9
100
AcDbLine
 10
-597.8634769852092
 20
-289.6506237339328
 30
0.0
 11
-1270.532160836296
 21
-289.6506237339328
 31
0.0
  0
LINE
  5
3C4
330
1F
100
AcDbEntity
  8
D-2
  6
JWW_CENTER2
 62
     3
370
     9
100
AcDbLine
 10
-972.8634769852092
 20
-372.5896067232698
 30
0.0
 11
-972.8634769852092
 21
-308.0706627304488
 31
0.0
  0
LINE
  5
3C5
330
1F
100
AcDbEntity
  8
D-2
  6
JWW_CENTER2
 62
     3
370
     9
100
AcDbLine
 10
-1003.188217008436
 20
-339.6504175340806
 30
0.0
 11
-942.2168177527345
 21
-339.6504175340806
 31
0.0
  0
LINE
  5
3C6
330
1F
100
AcDbEntity
  8
D-5
  6
Continuous
 62
     7
370
     9
100
AcDbLine
 10
-473.3412420427473
 20
-63.40476422696497
 30
0.0
 11
-670.8540181855892
 21
-292.1507557018381
 31
0.0
  0
LINE
  5
3C7
330
1F
100
AcDbEntity
  8
D-5
  6
Continuous
 62
     7
370
     9
100
AcDbLine
 10
-670.8540181855892
 20
-292.1507557018381
 30
0.0
 11
-657.1255619461467
 21
-271.2578031179066
 31
0.0
  0
LINE
  5
3C8
330
1F
100
AcDbEntity
  8
D-5
  6
Continuous
 62
     7
370
     9
100
AcDbLine
 10
-670.8540181855892
 20
-292.1507557018381
 30
0.0
 11
-652.185673327059
 21
-275.5227996207572
 31
0.0
  0
ARC
  5
3C9
330
1F
100
AcDbEntity
  8
C-2
  6
Continuous
 62
     3
370
     9
100
AcDbCircle
 10
777.8299318777556
 20
1182.415028649408
 30
0.0
 40
37.50013918490023
100
AcDbArc
 50
53.13009643554688
 51
126.8699035644531
  0
ARC
  5
3CA
330
1F
100
AcDbEntity
  8
C-2
  6
Continuous
 62
     3
370
     9
100
AcDbCircle
 10
822.8298329018264
 20
1242.415226601266
 30
0.0
 40
37.50013918490023
100
AcDbArc
 50
233.1300964355469
 51
306.8699035644531
  0
ARC
  5
3CB
330
1F
100
AcDbEntity
  8
C-2
  6
Continuous
 62
     3
370
     9
100
AcDbCircle
 10
777.8299318777556
 20
843.0589825398215
 30
0.0
 40
37.50013918490023
100
AcDbArc
 50
53.13009643554688
 51
126.8699035644531
  0
ARC
  5
3CC
330
1F
100
AcDbEntity
  8
C-2
  6
Continuous
 62
     3
370
     9
100
AcDbCircle
 10
822.8298329018264
 20
903.0594279315022
 30
0.0
 40
37.50013918490023
100
AcDbArc
 50
233.1300964355469
 51
306.8699035644531
  0
ARC
  5
3CD
330
1F
100
AcDbEntity
  8
C-2
  6
Continuous
 62
     3
370
     9
100
AcDbCircle
 10
684.483011348828
 20
523.0941767305944
 30
0.0
 40
4.99999958115655
100
AcDbArc
 50
359.9943237304688
 51
90.0
  0
ARC
  5
3CE
330
1F
100
AcDbEntity
  8
C-2
  6
Continuous
 62
     3
370
     9
100
AcDbCircle
 10
704.4830773327806
 20
523.0941767305944
 30
0.0
 40
4.99999958115655
100
AcDbArc
 50
90.0
 51
180.0
  0
ARC
  5
3CF
330
1F
100
AcDbEntity
  8
C-2
  6
Continuous
 62
     3
370
     9
100
AcDbCircle
 10
759.483011348828
 20
523.0941767305944
 30
0.0
 40
4.99999958115655
100
AcDbArc
 50
359.9943237304688
 51
90.0
  0
ARC
  5
3D0
330
1F
100
AcDbEntity
  8
C-2
  6
Continuous
 62
     3
370
     9
100
AcDbCircle
 10
779.4835722124259
 20
523.0941767305944
 30
0.0
 40
4.99999958115655
100
AcDbArc
 50
90.0
 51
180.0
  0
ARC
  5
3D1
330
1F
100
AcDbEntity
  8
C-2
  6
Continuous
 62
     3
370
     9
100
AcDbCircle
 10
834.483011348828
 20
523.0941767305944
 30
0.0
 40
4.99999958115655
100
AcDbArc
 50
359.9943237304688
 51
90.0
  0
ARC
  5
3D2
330
1F
100
AcDbEntity
  8
C-2
  6
Continuous
 62
     3
370
     9
100
AcDbCircle
 10
854.4835722124259
 20
523.0941767305944
 30
0.0
 40
4.99999958115655
100
AcDbArc
 50
90.0
 51
180.0
  0
ARC
  5
3D3
330
1F
100
AcDbEntity
  8
D-9
  6
Continuous
 62
     4
370
     9
100
AcDbCircle
 10
-707.8644584965057
 20
-394.6508464297732
 30
0.0
 40
5.000000064437454
100
AcDbArc
 50
90.0
 51
180.0
  0
ARC
  5
3D4
330
1F
100
AcDbEntity
  8
D-A
  6
Continuous
 62
     3
370
     9
100
AcDbCircle
 10
-541.3641813639043
 20
-338.1503136093551
 30
0.0
 40
6.50000008376869
100
AcDbArc
 50
0.0
 51
90.0
  0
ARC
  5
3D5
330
1F
100
AcDbEntity
  8
D-A
  6
JWW_DASHED3
 62
     3
370
     9
100
AcDbCircle
 10
-541.3641813639043
 20
-361.1507111626702
 30
0.0
 40
6.50000008376869
100
AcDbArc
 50
270.0
 51
0.0
  0
ARC
  5
3D6
330
1F
100
AcDbEntity
  8
D-A
  6
Continuous
 62
     3
370
     9
100
AcDbCircle
 10
-557.8643347765944
 20
-401.2928735887681
 30
0.0
 40
10.00000012887491
100
AcDbArc
 50
0.0
 51
45.0
  0
ARC
  5
3D7
330
1F
100
AcDbEntity
  8
D-A
  6
Continuous
 62
     3
370
     9
100
AcDbCircle
 10
-510.4380388517632
 20
-342.1510443816312
 30
0.0
 40
30.00000038662472
100
AcDbArc
 50
224.9996643066406
 51
270.0
  0
ARC
  5
3D8
330
1F
100
AcDbEntity
  8
D-A
  6
Continuous
 62
     3
370
     9
100
AcDbCircle
 10
-432.8644172565353
 20
-382.150928909714
 30
0.0
 40
10.00000012887491
100
AcDbArc
 50
0.0
 51
90.0
  0
ARC
  5
3D9
330
1F
100
AcDbEntity
  8
D-1
  6
Continuous
 62
     2
370
     9
100
AcDbCircle
 10
-717.8648626482161
 20
-399.65073920585
 30
0.0
 40
5.000000064437454
100
AcDbArc
 50
90.0
 51
180.0
  0
ARC
  5
3DA
330
1F
100
AcDbEntity
  8
D-1
  6
Continuous
 62
     2
370
     9
100
AcDbCircle
 10
-570.8648230578444
 20
-290.1506996154784
 30
0.0
 40
3.000000038662472
100
AcDbArc
 50
0.0
 51
90.0
  0
ARC
  5
3DB
330
1F
100
AcDbEntity
  8
D-1
  6
Continuous
 62
     2
370
     9
100
AcDbCircle
 10
-589.8648609986171
 20
-290.1506996154784
 30
0.0
 40
3.000000038662472
100
AcDbArc
 50
90.0
 51
180.0
  0
ARC
  5
3DC
330
1F
100
AcDbEntity
  8
D-1
  6
Continuous
 62
     2
370
     9
100
AcDbCircle
 10
-570.8648230578444
 20
-409.1506963162807
 30
0.0
 40
3.000000038662472
100
AcDbArc
 50
270.0
 51
0.0
  0
ARC
  5
3DD
330
1F
100
AcDbEntity
  8
D-1
  6
Continuous
 62
     2
370
     9
100
AcDbCircle
 10
-592.8649451281569
 20
-402.1507474538441
 30
0.0
 40
5.000000064437454
100
AcDbArc
 50
270.0
 51
0.0
  0
ARC
  5
3DE
330
1F
100
AcDbEntity
  8
D-1
  6
Continuous
 62
     2
370
     9
100
AcDbCircle
 10
-664.827002705754
 20
-399.65073920585
 30
0.0
 40
5.000000064437454
100
AcDbArc
 50
70.43162536621098
 51
90.00000000000006
  0
ARC
  5
3DF
330
1F
100
AcDbEntity
  8
D-1
  6
Continuous
 62
     2
370
     9
100
AcDbCircle
 10
-642.561377705754
 20
-402.1507474538441
 30
0.0
 40
5.000000064437454
100
AcDbArc
 50
250.4390106201172
 51
270.0
  0
ARC
  5
3E0
330
1F
100
AcDbEntity
  8
D-1
  6
Continuous
 62
     2
370
     9
100
AcDbCircle
 10
-717.8648626482161
 20
-407.1507639498323
 30
0.0
 40
5.000000064437454
100
AcDbArc
 50
180.0
 51
270.0
  0
ARC
  5
3E1
330
1F
100
AcDbEntity
  8
D-1
  6
Continuous
 62
     2
370
     9
100
AcDbCircle
 10
-707.1951337762778
 20
-399.65073920585
 30
0.0
 40
5.000000064437454
100
AcDbArc
 50
59.99996948242189
 51
90.00000000000003
  0
ARC
  5
3E2
330
1F
100
AcDbEntity
  8
D-1
  6
Continuous
 62
     2
370
     9
100
AcDbCircle
 10
-678.5346740000953
 20
-399.65073920585
 30
0.0
 40
5.000000064437454
100
AcDbArc
 50
90.0
 51
120.0000305175781
  0
ARC
  5
3E3
330
1F
100
AcDbEntity
  8
D-1
  6
Continuous
 62
     2
370
     9
100
AcDbCircle
 10
-692.8649038881863
 20
-402.1507474538441
 30
0.0
 40
5.000000064437454
100
AcDbArc
 50
239.9999694824219
 51
300.0000305175781
  0
CIRCLE
  5
3E4
330
1F
100
AcDbEntity
  8
D-2
  6
Continuous
 62
     3
370
     9
100
AcDbCircle
 10
-972.8634769852092
 20
-339.6504175340806
 30
0.0
 40
15.00000019331236
  0
TEXT
  5
3E5
330
1F
100
AcDbEntity
  8
C-4
  6
Continuous
 62
     2
370
     9
100
AcDbText
 10
-908.862453409143
 20
754.1264925693824
 30
0.0
 40
30.48
  1
1
 41
0.9999999999999998
  7
ＭＳ ゴシック
100
AcDbText
  0
TEXT
  5
3E6
330
1F
100
AcDbEntity
  8
C-4
  6
Continuous
 62
     2
370
     9
100
AcDbText
 10
-660.162407385336
 20
754.1264925693824
 30
0.0
 40
30.48
  1
499
 41
1.083333333333333
  7
ＭＳ ゴシック
100
AcDbText
  0
TEXT
  5
3E7
330
1F
100
AcDbEntity
  8
C-4
  6
Continuous
 62
     2
370
     9
100
AcDbText
 10
-408.862659608995
 20
754.1264925693824
 30
0.0
 40
30.48
  1
1
 41
0.9999999999999998
  7
ＭＳ ゴシック
100
AcDbText
  0
TEXT
  5
3E8
330
1F
100
AcDbEntity
  8
C-4
  6
Continuous
 62
     2
370
     9
100
AcDbText
 10
-160.1621187055427
 20
754.1264925693824
 30
0.0
 40
30.48
  1
499
 41
1.083333333333333
  7
ＭＳ ゴシック
100
AcDbText
  0
TEXT
  5
3E9
330
1F
100
AcDbEntity
  8
C-4
  6
Continuous
 62
     2
370
     9
100
AcDbText
 10
91.13769093075362
 20
754.1264925693824
 30
0.0
 40
30.48
  1
1
 41
0.9999999999999998
  7
ＭＳ ゴシック
100
AcDbText
  0
TEXT
  5
3EA
330
1F
100
AcDbEntity
  8
C-4
  6
Continuous
 62
     2
370
     9
100
AcDbText
 10
-659.6619603440563
 20
834.1257667459025
 30
0.0
 40
30.48
  1
500
 41
1.083333333333333
  7
ＭＳ ゴシック
100
AcDbText
  0
TEXT
  5
3EB
330
1F
100
AcDbEntity
  8
C-4
  6
Continuous
 62
     2
370
     9
100
AcDbText
 10
-159.6621665439086
 20
834.1257667459025
 30
0.0
 40
30.48
  1
500
 41
1.083333333333333
  7
ＭＳ ゴシック
100
AcDbText
  0
TEXT
  5
3EC
330
1F
100
AcDbEntity
  8
C-5
  6
Continuous
 62
     2
370
     9
100
AcDbText
 10
-645.1620774655725
 20
338.6262847199314
 30
0.0
 40
30.48
  1
平面詳細図　Ｓ＝１：１０
 41
1.114583333333333
  7
ＭＳ ゴシック
100
AcDbText
  0
TEXT
  5
3ED
330
1F
100
AcDbEntity
  8
C-5
  6
Continuous
 62
     2
370
     9
100
AcDbText
 10
-26.48434226577294
 20
581.7538498460925
 30
0.0
 40
30.48
  1
Ａ
 41
0.9999999999999998
  7
ＭＳ ゴシック
100
AcDbText
  0
TEXT
  5
3EE
330
1F
100
AcDbEntity
  8
C-5
  6
Continuous
 62
     7
370
     9
100
AcDbText
 10
439.4579773185948
 20
755.6053524986553
 30
0.0
 40
22.86
  1
※デルタパターンの配列は一定ではありません。
 50
0.000018532361573
 41
1.159090909090909
  7
ＭＳ ゴシック
100
AcDbText
  0
TEXT
  5
3EF
330
1F
100
AcDbEntity
  8
C-5
  6
Continuous
 62
     7
370
     9
100
AcDbText
 10
578.0235122989967
 20
814.2866961958603
 30
0.0
 40
22.86
  1
メインバー表面　Ｓ＝１：１
 41
1.153846153846154
  7
ＭＳ ゴシック
100
AcDbText
  0
TEXT
  5
3F0
330
1F
100
AcDbEntity
  8
C-5
  6
Continuous
 62
     7
370
     9
100
AcDbText
 10
864.2693470619827
 20
1161.71101260211
 30
0.0
 40
22.86
  1
デルタパターン
 41
1.142857142857143
  7
ＭＳ ゴシック
100
AcDbText
  0
TEXT
  5
3F1
330
1F
100
AcDbEntity
  8
C-5
  6
Continuous
 62
     2
370
     9
100
AcDbText
 10
588.7633821126582
 20
342.0965045124777
 30
0.0
 40
30.48
  1
Ａ断面図　Ｓ＝１：２
 41
1.1125
  7
ＭＳ ゴシック
100
AcDbText
  0
TEXT
  5
3F2
330
1F
100
AcDbEntity
  8
C-4
  6
Continuous
 62
     2
370
     9
100
AcDbText
 10
964.1351882913957
 20
466.8436900989431
 30
0.0
 40
30.48
  1
20
 50
90.0
 41
1.0625
  7
ＭＳ ゴシック
100
AcDbText
  0
TEXT
  5
3F3
330
1F
100
AcDbEntity
  8
C-4
  6
Continuous
 62
     2
370
     9
100
AcDbText
 10
684.4825494611589
 20
611.6182280793064
 30
0.0
 40
30.48
  1
6
 41
0.9999999999999998
  7
ＭＳ ゴシック
100
AcDbText
  0
TEXT
  5
3F4
330
1F
100
AcDbEntity
  8
C-4
  6
Continuous
 62
     2
370
     9
100
AcDbText
 10
721.9825494611589
 20
611.6182280793064
 30
0.0
 40
30.48
  1
9
 41
0.9999999999999998
  7
ＭＳ ゴシック
100
AcDbText
  0
TEXT
  5
3F5
330
1F
100
AcDbEntity
  8
C-4
  6
Continuous
 62
     2
370
     9
100
AcDbText
 10
759.4825494611589
 20
611.6182280793064
 30
0.0
 40
30.48
  1
6
 41
0.9999999999999998
  7
ＭＳ ゴシック
100
AcDbText
  0
TEXT
  5
3F6
330
1F
100
AcDbEntity
  8
C-4
  6
Continuous
 62
     2
370
     9
100
AcDbText
 10
796.9825494611589
 20
611.6182280793064
 30
0.0
 40
30.48
  1
9
 41
0.9999999999999998
  7
ＭＳ ゴシック
100
AcDbText
  0
TEXT
  5
3F7
330
1F
100
AcDbEntity
  8
C-4
  6
Continuous
 62
     2
370
     9
100
AcDbText
 10
834.4825494611589
 20
611.6182280793064
 30
0.0
 40
30.48
  1
6
 41
0.9999999999999998
  7
ＭＳ ゴシック
100
AcDbText
  0
TEXT
  5
3F8
330
1F
100
AcDbEntity
  8
C-4
  6
Continuous
 62
     2
370
     9
100
AcDbText
 10
695.7326236931058
 20
674.7354254768991
 30
0.0
 40
30.48
  1
15
 41
1.0625
  7
ＭＳ ゴシック
100
AcDbText
  0
TEXT
  5
3F9
330
1F
100
AcDbEntity
  8
C-4
  6
Continuous
 62
     2
370
     9
100
AcDbText
 10
770.7326236931058
 20
674.7354254768991
 30
0.0
 40
30.48
  1
15
 41
1.0625
  7
ＭＳ ゴシック
100
AcDbText
  0
TEXT
  5
3FA
330
1F
100
AcDbEntity
  8
C-4
  6
Continuous
 62
     2
370
     9
100
AcDbText
 10
687.9765100819363
 20
932.5555249806998
 30
0.0
 40
30.48
  1
4
 50
90.0
 41
0.9999999999999998
  7
ＭＳ ゴシック
100
AcDbText
  0
TEXT
  5
3FB
330
1F
100
AcDbEntity
  8
C-4
  6
Continuous
 62
     2
370
     9
100
AcDbText
 10
687.9765100819363
 20
992.5559703723807
 30
0.0
 40
30.48
  1
8
 50
90.0
 41
0.9999999999999998
  7
ＭＳ ゴシック
100
AcDbText
  0
TEXT
  5
3FC
330
1F
100
AcDbEntity
  8
C-4
  6
Continuous
 62
     2
370
     9
100
AcDbText
 10
687.9765100819363
 20
1037.555871396451
 30
0.0
 40
30.48
  1
1
 50
90.0
 41
0.9999999999999998
  7
ＭＳ ゴシック
100
AcDbText
  0
TEXT
  5
3FD
330
1F
100
AcDbEntity
  8
C-4
  6
Continuous
 62
     2
370
     9
100
AcDbText
 10
687.9765100819363
 20
1082.555277540877
 30
0.0
 40
30.48
  1
8
 50
90.0
 41
0.9999999999999998
  7
ＭＳ ゴシック
100
AcDbText
  0
TEXT
  5
3FE
330
1F
100
AcDbEntity
  8
C-4
  6
Continuous
 62
     2
370
     9
100
AcDbText
 10
687.9765100819363
 20
1142.555475492736
 30
0.0
 40
30.48
  1
4
 50
90.0
 41
0.9999999999999998
  7
ＭＳ ゴシック
100
AcDbText
  0
TEXT
  5
3FF
330
1F
100
AcDbEntity
  8
C-4
  6
Continuous
 62
     2
370
     9
100
AcDbText
 10
906.7438106596202
 20
1013.55900960276
 30
0.0
 40
30.48
  1
0.5
 50
73.30060952666646
 41
1.083333333333333
  7
ＭＳ ゴシック
100
AcDbText
  0
TEXT
  5
400
330
1F
100
AcDbEntity
  8
C-4
  6
Continuous
 62
     2
370
     9
100
AcDbText
 10
790.3298823897908
 20
1275.813025904476
 30
0.0
 40
30.48
  1
6
 41
0.9999999999999998
  7
ＭＳ ゴシック
100
AcDbText
  0
TEXT
  5
401
330
1F
100
AcDbEntity
  8
D-4
  6
Continuous
 62
     2
370
     9
100
AcDbText
 10
-630.8092521976777
 20
-46.84004861780089
 30
0.0
 40
30.48
  1
1
 41
0.9999999999999998
  7
ＭＳ ゴシック
100
AcDbText
  0
TEXT
  5
402
330
1F
100
AcDbEntity
  8
D-4
  6
Continuous
 62
     2
370
     9
100
AcDbText
 10
-681.6135594651502
 20
-155.5913353048788
 30
0.0
 40
30.48
  1
25
 41
1.0625
  7
ＭＳ ゴシック
100
AcDbText
  0
TEXT
  5
403
330
1F
100
AcDbEntity
  8
D-5
  6
Continuous
 62
     7
370
     9
100
AcDbText
 10
-430.6010604549094
 20
-171.3501231796676
 30
0.0
 40
22.86
  1
塩ビクッション
 41
1.142857142857143
  7
ＭＳ ゴシック
100
AcDbText
  0
TEXT
  5
404
330
1F
100
AcDbEntity
  8
D-4
  6
Continuous
 62
     2
370
     9
100
AcDbText
 10
-714.113270785357
 20
-682.1299161220239
 30
0.0
 40
30.48
  1
25～30
 41
1.104166666666667
  7
ＭＳ ゴシック
100
AcDbText
  0
TEXT
  5
405
330
1F
100
AcDbEntity
  8
D-4
  6
Continuous
 62
     2
370
     9
100
AcDbText
 10
-590.7316070721926
 20
-836.5938542422891
 30
0.0
 40
30.48
  1
75～80
 50
359.9999732504708
 41
1.104166666666667
  7
ＭＳ ゴシック
100
AcDbText
  0
TEXT
  5
406
330
1F
100
AcDbEntity
  8
D-4
  6
Continuous
 62
     2
370
     9
100
AcDbText
 10
-61.81836230509937
 20
-478.4006567259092
 30
0.0
 40
30.48
  1
40～50
 50
90.0
 41
1.104166666666667
  7
ＭＳ ゴシック
100
AcDbText
  0
TEXT
  5
407
330
1F
100
AcDbEntity
  8
D-4
  6
Continuous
 62
     2
370
     9
100
AcDbText
 10
-525.8728318601037
 20
-467.041736817231
 30
0.0
 40
30.48
  1
29
 41
1.0625
  7
ＭＳ ゴシック
100
AcDbText
  0
TEXT
  5
408
330
1F
100
AcDbEntity
  8
D-4
  6
Continuous
 62
     2
370
     9
100
AcDbText
 10
-345.4534347554796
 20
-418.4008546777673
 30
0.0
 40
30.48
  1
10
 50
90.0
 41
1.0625
  7
ＭＳ ゴシック
100
AcDbText
  0
TEXT
  5
409
330
1F
100
AcDbEntity
  8
D-4
  6
Continuous
 62
     2
370
     9
100
AcDbText
 10
-345.4534347554796
 20
-350.9010031416609
 30
0.0
 40
30.48
  1
17
 50
90.0
 41
1.0625
  7
ＭＳ ゴシック
100
AcDbText
  0
TEXT
  5
40A
330
1F
100
AcDbEntity
  8
D-4
  6
Continuous
 62
     2
370
     9
100
AcDbText
 10
-590.2214506510138
 20
-46.84004861780089
 30
0.0
 40
30.48
  1
5
 41
0.9999999999999998
  7
ＭＳ ゴシック
100
AcDbText
  0
TEXT
  5
40B
330
1F
100
AcDbEntity
  8
D-5
  6
Continuous
 62
     2
370
     9
100
AcDbText
 10
-1022.358365703273
 20
-964.9534478141165
 30
0.0
 40
30.48
  1
断面詳細図　Ｓ＝１：２
 41
1.113636363636364
  7
ＭＳ ゴシック
100
AcDbText
  0
TEXT
  5
40C
330
1F
100
AcDbEntity
  8
D-5
  6
Continuous
 62
     7
370
     9
100
AcDbText
 10
-415.9233178319153
 20
-229.1650563379234
 30
0.0
 40
22.86
  1
溶接用アンカ－＠５００
 41
1.151515151515152
  7
ＭＳ ゴシック
100
AcDbText
  0
TEXT
  5
40D
330
1F
100
AcDbEntity
  8
D-5
  6
Continuous
 62
     7
370
     9
100
AcDbText
 10
-416.3137778720336
 20
-265.734930044638
 30
0.0
 40
22.86
  1
ｔ＝２．３（ＳＰＨＣ）
 41
1.151515151515152
  7
ＭＳ ゴシック
100
AcDbText
  0
TEXT
  5
40E
330
1F
100
AcDbEntity
  8
D-5
  6
Continuous
 62
     2
370
     9
100
AcDbText
 10
338.6101334479869
 20
-794.1940508744538
 30
0.0
 40
30.48
  1
材質：冷間圧延ステンレス鋼板（ＳＵＳ３０４一２Ｂ）
 50
0.0000094936993723
 41
1.12
  7
ＭＳ ゴシック
100
AcDbText
  0
TEXT
  5
40F
330
1F
100
AcDbEntity
  8
D-5
  6
Continuous
 62
     2
370
     9
100
AcDbText
 10
338.6101591264884
 20
-859.1942034623429
 30
0.0
 40
30.48
  1
定尺：３０００
 41
1.107142857142857
  7
ＭＳ ゴシック
100
AcDbText
  0
TEXT
  5
410
330
1F
100
AcDbEntity
  8
D-5
  6
Continuous
 62
     7
370
     9
100
AcDbText
 10
-425.9516909315775
 20
-115.251432631209
 30
0.0
 40
22.86
  1
ステンレス製受枠ＳＦ２０Ｂ
 41
1.153846153846154
  7
ＭＳ ゴシック
100
AcDbText
  0
TEXT
  5
411
330
1F
100
AcDbEntity
  8
D-5
  6
Continuous
 62
     2
370
     9
100
AcDbText
 10
278.8982533119826
 20
-729.1940838664286
 30
0.0
 40
30.48
  1
ステンレス製受枠　ＳＦ２０Ｂ
 41
1.116071428571428
  7
ＭＳ ゴシック
100
AcDbText
  0
TEXT
  5
412
330
1F
100
AcDbEntity
  8
D-4
  6
Continuous
 62
     2
370
     9
100
AcDbText
 10
-878.98713935852
 20
-370.9010691256135
 30
0.0
 40
30.48
  1
25
 50
90.0
 41
1.0625
  7
ＭＳ ゴシック
100
AcDbText
  0
TEXT
  5
413
330
1F
100
AcDbEntity
  8
D-4
  6
Continuous
 62
     2
370
     9
100
AcDbText
 10
-1090.229732659829
 20
-360.9005412539918
 30
0.0
 40
30.48
  1
20
 50
90.0
 41
1.0625
  7
ＭＳ ゴシック
100
AcDbText
  0
TEXT
  5
414
330
1F
100
AcDbEntity
  8
D-5
  6
Continuous
 62
     2
370
     9
100
AcDbText
 10
338.6106787501159
 20
-456.9312219444481
 30
0.0
 40
30.48
  1
材質：メインバー　ＳＵＳ３０４　＠１５
 41
1.118421052631579
  7
ＭＳ ゴシック
100
AcDbText
  0
TEXT
  5
415
330
1F
100
AcDbEntity
  8
D-5
  6
Continuous
 62
     2
370
     9
100
AcDbText
 10
338.6106292621515
 20
-521.9312508124274
 30
0.0
 40
30.48
  1
　　　クロスバー　ＳＵＳ３０４　＠１００
 41
1.11875
  7
ＭＳ ゴシック
100
AcDbText
  0
TEXT
  5
416
330
1F
100
AcDbEntity
  8
D-5
  6
Continuous
 62
     2
370
     9
100
AcDbText
 10
338.6106292621515
 20
-586.9312796804066
 30
0.0
 40
30.48
  1
　　　サイドバー　ＳＵＳ３０４
 41
1.116666666666666
  7
ＭＳ ゴシック
100
AcDbText
  0
TEXT
  5
417
330
1F
100
AcDbEntity
  8
D-4
  6
Continuous
 62
     2
370
     9
100
AcDbText
 10
-1293.790932990409
 20
65.7199555391879
 30
0.0
 40
30.48
  1
162
 41
1.083333333333333
  7
ＭＳ ゴシック
100
AcDbText
  0
TEXT
  5
418
330
1F
100
AcDbEntity
  8
D-4
  6
Continuous
 62
     2
370
     9
100
AcDbText
 10
-1293.790932990409
 20
-45.24220596313448
 30
0.0
 40
30.48
  1
150
 41
1.083333333333333
  7
ＭＳ ゴシック
100
AcDbText
  0
TEXT
  5
419
330
1F
100
AcDbEntity
  8
D-4
  6
Continuous
 62
     2
370
     9
100
AcDbText
 10
-1291.615256489933
 20
-154.0286291050264
 30
0.0
 40
30.48
  1
100
 41
1.083333333333333
  7
ＭＳ ゴシック
100
AcDbText
  0
LWPOLYLINE
  5
41A
330
1F
100
AcDbEntity
  8
C-4
  6
Continuous
 62
     7
370
     9
100
AcDbPolyline
 90
        4
 70
     1
 43
1.0
 10
-877.6621945870885
 20
743.4862286335715
 42
0.4142135623731
 10
-878.1621945870884
 20
743.9862286335715
 42
0.4142135623731
 10
-878.6621945870884
 20
743.4862286335715
 42
0.4142135623731
 10
-878.1621945870884
 20
742.9862286335715
 42
0.4142135623731
  0
LWPOLYLINE
  5
41B
330
1F
100
AcDbEntity
  8
C-4
  6
Continuous
 62
     7
370
     9
100
AcDbPolyline
 90
        4
 70
     1
 43
1.0
 10
-876.6624139837312
 20
743.4862286335715
 42
0.4142135623731
 10
-877.1624139837311
 20
743.9862286335715
 42
0.4142135623731
 10
-877.6624139837311
 20
743.4862286335715
 42
0.4142135623731
 10
-877.1624139837311
 20
742.9862286335715
 42
0.4142135623731
  0
LWPOLYLINE
  5
41C
330
1F
100
AcDbEntity
  8
C-4
  6
Continuous
 62
     7
370
     9
100
AcDbPolyline
 90
        4
 70
     1
 43
1.0
 10
-377.6624007869406
 20
743.4862286335715
 42
0.4142135623731
 10
-378.1624007869405
 20
743.9862286335715
 42
0.4142135623731
 10
-378.6624007869405
 20
743.4862286335715
 42
0.4142135623731
 10
-378.1624007869405
 20
742.9862286335715
 42
0.4142135623731
  0
LWPOLYLINE
  5
41D
330
1F
100
AcDbEntity
  8
C-4
  6
Continuous
 62
     7
370
     9
100
AcDbPolyline
 90
        4
 70
     1
 43
1.0
 10
-376.6620015840267
 20
743.4862286335715
 42
0.4142135623731
 10
-377.1620015840267
 20
743.9862286335715
 42
0.4142135623731
 10
-377.6620015840267
 20
743.4862286335715
 42
0.4142135623731
 10
-377.1620015840267
 20
742.9862286335715
 42
0.4142135623731
  0
LWPOLYLINE
  5
41E
330
1F
100
AcDbEntity
  8
C-4
  6
Continuous
 62
     7
370
     9
100
AcDbPolyline
 90
        4
 70
     1
 43
1.0
 10
122.3380116127636
 20
743.4862286335715
 42
0.4142135623731
 10
121.8380116127636
 20
743.9862286335715
 42
0.4142135623731
 10
121.3380116127636
 20
743.4862286335715
 42
0.4142135623731
 10
121.8380116127636
 20
742.9862286335715
 42
0.4142135623731
  0
LWPOLYLINE
  5
41F
330
1F
100
AcDbEntity
  8
C-4
  6
Continuous
 62
     7
370
     9
100
AcDbPolyline
 90
        4
 70
     1
 43
1.0
 10
123.3376684962097
 20
743.4862286335715
 42
0.4142135623731
 10
122.8376684962097
 20
743.9862286335715
 42
0.4142135623731
 10
122.3376684962097
 20
743.4862286335715
 42
0.4142135623731
 10
122.8376684962097
 20
742.9862286335715
 42
0.4142135623731
  0
LWPOLYLINE
  5
420
330
1F
100
AcDbEntity
  8
C-4
  6
Continuous
 62
     7
370
     9
100
AcDbPolyline
 90
        4
 70
     1
 43
1.0
 10
-876.6624139837312
 20
823.4864925693824
 42
0.4142135623731
 10
-877.1624139837311
 20
823.9864925693824
 42
0.4142135623731
 10
-877.6624139837311
 20
823.4864925693824
 42
0.4142135623731
 10
-877.1624139837311
 20
822.9864925693824
 42
0.4142135623731
  0
LWPOLYLINE
  5
421
330
1F
100
AcDbEntity
  8
C-4
  6
Continuous
 62
     7
370
     9
100
AcDbPolyline
 90
        4
 70
     1
 43
1.0
 10
-376.6620015840267
 20
823.4864925693824
 42
0.4142135623731
 10
-377.1620015840267
 20
823.9864925693824
 42
0.4142135623731
 10
-377.6620015840267
 20
823.4864925693824
 42
0.4142135623731
 10
-377.1620015840267
 20
822.9864925693824
 42
0.4142135623731
  0
LWPOLYLINE
  5
422
330
1F
100
AcDbEntity
  8
C-4
  6
Continuous
 62
     7
370
     9
100
AcDbPolyline
 90
        4
 70
     1
 43
1.0
 10
123.3376684962097
 20
823.4864925693824
 42
0.4142135623731
 10
122.8376684962097
 20
823.9864925693824
 42
0.4142135623731
 10
122.3376684962097
 20
823.4864925693824
 42
0.4142135623731
 10
122.8376684962097
 20
822.9864925693824
 42
0.4142135623731
  0
LWPOLYLINE
  5
423
330
1F
100
AcDbEntity
  8
C-4
  6
Continuous
 62
     7
370
     9
100
AcDbPolyline
 90
        4
 70
     1
 43
1.0
 10
975.2752047873837
 20
438.0935251390613
 42
0.4142135623731
 10
974.7752047873837
 20
438.5935251390613
 42
0.4142135623731
 10
974.2752047873837
 20
438.0935251390613
 42
0.4142135623731
 10
974.7752047873837
 20
437.5935251390614
 42
0.4142135623731
  0
LWPOLYLINE
  5
424
330
1F
100
AcDbEntity
  8
C-4
  6
Continuous
 62
     7
370
     9
100
AcDbPolyline
 90
        4
 70
     1
 43
1.0
 10
975.2752047873837
 20
538.0934838990911
 42
0.4142135623731
 10
974.7752047873837
 20
538.593483899091
 42
0.4142135623731
 10
974.2752047873837
 20
538.0934838990911
 42
0.4142135623731
 10
974.7752047873837
 20
537.5934838990911
 42
0.4142135623731
  0
LWPOLYLINE
  5
425
330
1F
100
AcDbEntity
  8
C-4
  6
Continuous
 62
     7
370
     9
100
AcDbPolyline
 90
        4
 70
     1
 43
1.0
 10
679.9824999731946
 20
600.9784590231408
 42
0.4142135623731
 10
679.4824999731946
 20
601.4784590231408
 42
0.4142135623731
 10
678.9824999731946
 20
600.9784590231408
 42
0.4142135623731
 10
679.4824999731946
 20
600.4784590231408
 42
0.4142135623731
  0
LWPOLYLINE
  5
426
330
1F
100
AcDbEntity
  8
C-4
  6
Continuous
 62
     7
370
     9
100
AcDbPolyline
 90
        4
 70
     1
 43
1.0
 10
709.9823515093009
 20
600.9784590231408
 42
0.4142135623731
 10
709.4823515093009
 20
601.4784590231408
 42
0.4142135623731
 10
708.9823515093009
 20
600.9784590231408
 42
0.4142135623731
 10
709.4823515093009
 20
600.4784590231408
 42
0.4142135623731
  0
LWPOLYLINE
  5
427
330
1F
100
AcDbEntity
  8
C-4
  6
Continuous
 62
     7
370
     9
100
AcDbPolyline
 90
        4
 70
     1
 43
1.0
 10
754.982747413017
 20
600.9784590231408
 42
0.4142135623731
 10
754.482747413017
 20
601.4784590231408
 42
0.4142135623731
 10
753.982747413017
 20
600.9784590231408
 42
0.4142135623731
 10
754.482747413017
 20
600.4784590231408
 42
0.4142135623731
  0
LWPOLYLINE
  5
428
330
1F
100
AcDbEntity
  8
C-4
  6
Continuous
 62
     7
370
     9
100
AcDbPolyline
 90
        4
 70
     1
 43
1.0
 10
784.9823515093009
 20
600.9784590231408
 42
0.4142135623731
 10
784.4823515093009
 20
601.4784590231408
 42
0.4142135623731
 10
783.9823515093009
 20
600.9784590231408
 42
0.4142135623731
 10
784.4823515093009
 20
600.4784590231408
 42
0.4142135623731
  0
LWPOLYLINE
  5
429
330
1F
100
AcDbEntity
  8
C-4
  6
Continuous
 62
     7
370
     9
100
AcDbPolyline
 90
        4
 70
     1
 43
1.0
 10
829.982747413017
 20
600.9784590231408
 42
0.4142135623731
 10
829.482747413017
 20
601.4784590231408
 42
0.4142135623731
 10
828.982747413017
 20
600.9784590231408
 42
0.4142135623731
 10
829.482747413017
 20
600.4784590231408
 42
0.4142135623731
  0
LWPOLYLINE
  5
42A
330
1F
100
AcDbEntity
  8
C-4
  6
Continuous
 62
     7
370
     9
100
AcDbPolyline
 90
        4
 70
     1
 43
1.0
 10
859.9823515093009
 20
600.9784590231408
 42
0.4142135623731
 10
859.4823515093009
 20
601.4784590231408
 42
0.4142135623731
 10
858.9823515093009
 20
600.9784590231408
 42
0.4142135623731
 10
859.4823515093009
 20
600.4784590231408
 42
0.4142135623731
  0
LWPOLYLINE
  5
42B
330
1F
100
AcDbEntity
  8
C-4
  6
Continuous
 62
     7
370
     9
100
AcDbPolyline
 90
        4
 70
     1
 43
1.0
 10
679.9824999731946
 20
664.0956564207338
 42
0.4142135623731
 10
679.4824999731946
 20
664.5956564207337
 42
0.4142135623731
 10
678.9824999731946
 20
664.0956564207338
 42
0.4142135623731
 10
679.4824999731946
 20
663.5956564207338
 42
0.4142135623731
  0
LWPOLYLINE
  5
42C
330
1F
100
AcDbEntity
  8
C-4
  6
Continuous
 62
     7
370
     9
100
AcDbPolyline
 90
        4
 70
     1
 43
1.0
 10
754.982747413017
 20
664.0956564207338
 42
0.4142135623731
 10
754.482747413017
 20
664.5956564207337
 42
0.4142135623731
 10
753.982747413017
 20
664.0956564207338
 42
0.4142135623731
 10
754.482747413017
 20
663.5956564207338
 42
0.4142135623731
  0
LWPOLYLINE
  5
42D
330
1F
100
AcDbEntity
  8
C-4
  6
Continuous
 62
     7
370
     9
100
AcDbPolyline
 90
        4
 70
     1
 43
1.0
 10
829.982747413017
 20
664.0956564207338
 42
0.4142135623731
 10
829.482747413017
 20
664.5956564207337
 42
0.4142135623731
 10
828.982747413017
 20
664.0956564207338
 42
0.4142135623731
 10
829.482747413017
 20
663.5956564207338
 42
0.4142135623731
  0
LWPOLYLINE
  5
42E
330
1F
100
AcDbEntity
  8
C-4
  6
Continuous
 62
     7
370
     9
100
AcDbPolyline
 90
        4
 70
     1
 43
1.0
 10
699.1165265779243
 20
922.5554589967473
 42
0.4142135623731
 10
698.6165265779243
 20
923.0554589967472
 42
0.4142135623731
 10
698.1165265779243
 20
922.5554589967473
 42
0.4142135623731
 10
698.6165265779243
 20
922.0554589967473
 42
0.4142135623731
  0
LWPOLYLINE
  5
42F
330
1F
100
AcDbEntity
  8
C-4
  6
Continuous
 62
     7
370
     9
100
AcDbPolyline
 90
        4
 70
     1
 43
1.0
 10
699.1165265779243
 20
962.5555909646525
 42
0.4142135623731
 10
698.6165265779243
 20
963.0555909646524
 42
0.4142135623731
 10
698.1165265779243
 20
962.5555909646525
 42
0.4142135623731
 10
698.6165265779243
 20
962.0555909646525
 42
0.4142135623731
  0
LWPOLYLINE
  5
430
330
1F
100
AcDbEntity
  8
C-4
  6
Continuous
 62
     7
370
     9
100
AcDbPolyline
 90
        4
 70
     1
 43
1.0
 10
699.1165265779243
 20
1042.556102340286
 42
0.4142135623731
 10
698.6165265779243
 20
1043.056102340286
 42
0.4142135623731
 10
698.1165265779243
 20
1042.556102340286
 42
0.4142135623731
 10
698.6165265779243
 20
1042.056102340286
 42
0.4142135623731
  0
LWPOLYLINE
  5
431
330
1F
100
AcDbEntity
  8
C-4
  6
Continuous
 62
     7
370
     9
100
AcDbPolyline
 90
        4
 70
     1
 43
1.0
 10
699.1165265779243
 20
1052.555640452617
 42
0.4142135623731
 10
698.6165265779243
 20
1053.055640452617
 42
0.4142135623731
 10
698.1165265779243
 20
1052.555640452617
 42
0.4142135623731
 10
698.6165265779243
 20
1052.055640452617
 42
0.4142135623731
  0
LWPOLYLINE
  5
432
330
1F
100
AcDbEntity
  8
C-4
  6
Continuous
 62
     7
370
     9
100
AcDbPolyline
 90
        4
 70
     1
 43
1.0
 10
699.1165265779243
 20
1132.555409508783
 42
0.4142135623731
 10
698.6165265779243
 20
1133.055409508783
 42
0.4142135623731
 10
698.1165265779243
 20
1132.555409508783
 42
0.4142135623731
 10
698.6165265779243
 20
1132.055409508783
 42
0.4142135623731
  0
LWPOLYLINE
  5
433
330
1F
100
AcDbEntity
  8
C-4
  6
Continuous
 62
     7
370
     9
100
AcDbPolyline
 90
        4
 70
     1
 43
1.0
 10
699.1165265779243
 20
1172.555541476688
 42
0.4142135623731
 10
698.6165265779243
 20
1173.055541476688
 42
0.4142135623731
 10
698.1165265779243
 20
1172.555541476688
 42
0.4142135623731
 10
698.6165265779243
 20
1172.055541476688
 42
0.4142135623731
  0
LWPOLYLINE
  5
434
330
1F
100
AcDbEntity
  8
C-4
  6
Continuous
 62
     7
370
     9
100
AcDbPolyline
 90
        4
 70
     1
 43
1.0
 10
913.2813841845546
 20
996.0992756405394
 42
0.4142135623731
 10
912.7813841845546
 20
996.5992756405394
 42
0.4142135623731
 10
912.2813841845546
 20
996.0992756405394
 42
0.4142135623731
 10
912.7813841845546
 20
995.5992756405395
 42
0.4142135623731
  0
LWPOLYLINE
  5
435
330
1F
100
AcDbEntity
  8
C-4
  6
Continuous
 62
     7
370
     9
100
AcDbPolyline
 90
        4
 70
     1
 43
1.0
 10
914.7180197947738
 20
1000.888720847465
 42
0.4142135623731
 10
914.2180197947738
 20
1001.388720847465
 42
0.4142135623731
 10
913.7180197947738
 20
1000.888720847465
 42
0.4142135623731
 10
914.2180197947738
 20
1000.388720847465
 42
0.4142135623731
  0
LWPOLYLINE
  5
436
330
1F
100
AcDbEntity
  8
C-4
  6
Continuous
 62
     7
370
     9
100
AcDbPolyline
 90
        4
 70
     1
 43
1.0
 10
770.8297834138618
 20
1265.17325684831
 42
0.4142135623731
 10
770.3297834138618
 20
1265.67325684831
 42
0.4142135623731
 10
769.8297834138618
 20
1265.17325684831
 42
0.4142135623731
 10
770.3297834138618
 20
1264.67325684831
 42
0.4142135623731
  0
LWPOLYLINE
  5
437
330
1F
100
AcDbEntity
  8
C-4
  6
Continuous
 62
     7
370
     9
100
AcDbPolyline
 90
        4
 70
     1
 43
1.0
 10
830.8299813657196
 20
1265.17325684831
 42
0.4142135623731
 10
830.3299813657196
 20
1265.67325684831
 42
0.4142135623731
 10
829.8299813657196
 20
1265.17325684831
 42
0.4142135623731
 10
830.3299813657196
 20
1264.67325684831
 42
0.4142135623731
  0
LWPOLYLINE
  5
438
330
1F
100
AcDbEntity
  8
D-4
  6
Continuous
 62
     7
370
     9
100
AcDbPolyline
 90
        4
 70
     1
 43
1.0
 10
-567.3648626482161
 20
53.21622229911213
 42
0.4142135623731
 10
-567.8648626482161
 20
53.71622229911213
 42
0.4142135623731
 10
-568.364862648216
 20
53.21622229911213
 42
0.4142135623731
 10
-567.8648626482161
 20
52.71622229911213
 42
0.4142135623731
  0
LWPOLYLINE
  5
439
330
1F
100
AcDbEntity
  8
D-4
  6
Continuous
 62
     7
370
     9
100
AcDbPolyline
 90
        4
 70
     1
 43
1.0
 10
-722.3642605446475
 20
-166.2315992406894
 42
0.4142135623731
 10
-722.8642605446475
 20
-165.7315992406894
 42
0.4142135623731
 10
-723.3642605446475
 20
-166.2315992406894
 42
0.4142135623731
 10
-722.8642605446475
 20
-166.7315992406894
 42
0.4142135623731
  0
LWPOLYLINE
  5
43A
330
1F
100
AcDbEntity
  8
D-4
  6
Continuous
 62
     7
370
     9
100
AcDbPolyline
 90
        4
 70
     1
 43
1.0
 10
-597.3634769852093
 20
-166.2315992406894
 42
0.4142135623731
 10
-597.8634769852092
 20
-165.7315992406894
 42
0.4142135623731
 10
-598.3634769852092
 20
-166.2315992406894
 42
0.4142135623731
 10
-597.8634769852092
 20
-166.7315992406894
 42
0.4142135623731
  0
LWPOLYLINE
  5
43B
330
1F
100
AcDbEntity
  8
D-4
  6
Continuous
 62
     7
370
     9
100
AcDbPolyline
 90
        4
 70
     1
 43
1.0
 10
-597.3634769852093
 20
-57.47944651423268
 42
0.4142135623731
 10
-597.8634769852092
 20
-56.97944651423268
 42
0.4142135623731
 10
-598.3634769852092
 20
-57.47944651423268
 42
0.4142135623731
 10
-597.8634769852092
 20
-57.97944651423268
 42
0.4142135623731
  0
LWPOLYLINE
  5
43C
330
1F
100
AcDbEntity
  8
D-4
  6
Continuous
 62
     7
370
     9
100
AcDbPolyline
 90
        4
 70
     1
 43
1.0
 10
-592.3632130493984
 20
-57.47944651423268
 42
0.4142135623731
 10
-592.8632130493984
 20
-56.97944651423268
 42
0.4142135623731
 10
-593.3632130493983
 20
-57.47944651423268
 42
0.4142135623731
 10
-592.8632130493984
 20
-57.97944651423268
 42
0.4142135623731
  0
LWPOLYLINE
  5
43D
330
1F
100
AcDbEntity
  8
D-4
  6
Continuous
 62
     7
370
     9
100
AcDbPolyline
 90
        4
 70
     1
 43
1.0
 10
-567.3648626482161
 20
-57.47944651423268
 42
0.4142135623731
 10
-567.8648626482161
 20
-56.97944651423268
 42
0.4142135623731
 10
-568.364862648216
 20
-57.47944651423268
 42
0.4142135623731
 10
-567.8648626482161
 20
-57.97944651423268
 42
0.4142135623731
  0
LWPOLYLINE
  5
43E
330
1F
100
AcDbEntity
  8
D-4
  6
Continuous
 62
     7
370
     9
100
AcDbPolyline
 90
        4
 70
     1
 43
1.0
 10
-867.8468754227093
 20
-412.1507804458204
 42
0.4142135623731
 10
-868.3468754227092
 20
-411.6507804458205
 42
0.4142135623731
 10
-868.8468754227092
 20
-412.1507804458204
 42
0.4142135623731
 10
-868.3468754227092
 20
-412.6507804458204
 42
0.4142135623731
  0
LWPOLYLINE
  5
43F
330
1F
100
AcDbEntity
  8
D-4
  6
Continuous
 62
     7
370
     9
100
AcDbPolyline
 90
        4
 70
     1
 43
1.0
 10
-867.8468754227093
 20
-287.15073920585
 42
0.4142135623731
 10
-868.3468754227092
 20
-286.65073920585
 42
0.4142135623731
 10
-868.8468754227092
 20
-287.15073920585
 42
0.4142135623731
 10
-868.3468754227092
 20
-287.65073920585
 42
0.4142135623731
  0
LWPOLYLINE
  5
440
330
1F
100
AcDbEntity
  8
D-4
  6
Continuous
 62
     7
370
     9
100
AcDbPolyline
 90
        4
 70
     1
 43
1.0
 10
-567.3638728889255
 20
-477.6815058733965
 42
0.4142135623731
 10
-567.8638728889255
 20
-477.1815058733965
 42
0.4142135623731
 10
-568.3638728889254
 20
-477.6815058733965
 42
0.4142135623731
 10
-567.8638728889255
 20
-478.1815058733964
 42
0.4142135623731
  0
LWPOLYLINE
  5
441
330
1F
100
AcDbEntity
  8
D-4
  6
Continuous
 62
     7
370
     9
100
AcDbPolyline
 90
        4
 70
     1
 43
1.0
 10
-422.3638893849137
 20
-477.6815058733965
 42
0.4142135623731
 10
-422.8638893849137
 20
-477.1815058733965
 42
0.4142135623731
 10
-423.3638893849137
 20
-477.6815058733965
 42
0.4142135623731
 10
-422.8638893849137
 20
-478.1815058733964
 42
0.4142135623731
  0
LWPOLYLINE
  5
442
330
1F
100
AcDbEntity
  8
D-4
  6
Continuous
 62
     7
370
     9
100
AcDbPolyline
 90
        4
 70
     1
 43
1.0
 10
-334.3131708196687
 20
-287.15073920585
 42
0.4142135623731
 10
-334.8131708196686
 20
-286.65073920585
 42
0.4142135623731
 10
-335.3131708196686
 20
-287.15073920585
 42
0.4142135623731
 10
-334.8131708196686
 20
-287.65073920585
 42
0.4142135623731
  0
LWPOLYLINE
  5
443
330
1F
100
AcDbEntity
  8
D-4
  6
Continuous
 62
     7
370
     9
100
AcDbPolyline
 90
        4
 70
     1
 43
1.0
 10
-334.3131708196687
 20
-372.1511433575603
 42
0.4142135623731
 10
-334.8131708196686
 20
-371.6511433575603
 42
0.4142135623731
 10
-335.3131708196686
 20
-372.1511433575603
 42
0.4142135623731
 10
-334.8131708196686
 20
-372.6511433575603
 42
0.4142135623731
  0
LWPOLYLINE
  5
444
330
1F
100
AcDbEntity
  8
D-4
  6
Continuous
 62
     7
370
     9
100
AcDbPolyline
 90
        4
 70
     1
 43
1.0
 10
-334.3131708196687
 20
-422.1510608776194
 42
0.4142135623731
 10
-334.8131708196686
 20
-421.6510608776194
 42
0.4142135623731
 10
-335.3131708196686
 20
-422.1510608776194
 42
0.4142135623731
 10
-334.8131708196686
 20
-422.6510608776193
 42
0.4142135623731
  0
LWPOLYLINE
  5
445
330
1F
100
AcDbEntity
  8
D-4
  6
Continuous
 62
     7
370
     9
100
AcDbPolyline
 90
        4
 70
     1
 43
1.0
 10
-50.67908812857905
 20
-537.1509454057023
 42
0.4142135623731
 10
-51.17908812857905
 20
-536.6509454057023
 42
0.4142135623731
 10
-51.67908812857905
 20
-537.1509454057023
 42
0.4142135623731
 10
-51.17908812857905
 20
-537.6509454057021
 42
0.4142135623731
  0
LWPOLYLINE
  5
446
330
1F
100
AcDbEntity
  8
D-4
  6
Continuous
 62
     7
370
     9
100
AcDbPolyline
 90
        4
 70
     1
 43
1.0
 10
-50.67908812857905
 20
-287.15073920585
 42
0.4142135623731
 10
-51.17908812857905
 20
-286.65073920585
 42
0.4142135623731
 10
-51.67908812857905
 20
-287.15073920585
 42
0.4142135623731
 10
-51.17908812857905
 20
-287.65073920585
 42
0.4142135623731
  0
LWPOLYLINE
  5
447
330
1F
100
AcDbEntity
  8
D-4
  6
Continuous
 62
     7
370
     9
100
AcDbPolyline
 90
        4
 70
     1
 43
1.0
 10
-722.3632707853569
 20
-692.7696851781895
 42
0.4142135623731
 10
-722.8632707853569
 20
-692.2696851781895
 42
0.4142135623731
 10
-723.3632707853569
 20
-692.7696851781895
 42
0.4142135623731
 10
-722.8632707853569
 20
-693.2696851781895
 42
0.4142135623731
  0
LWPOLYLINE
  5
448
330
1F
100
AcDbEntity
  8
D-4
  6
Continuous
 62
     7
370
     9
100
AcDbPolyline
 90
        4
 70
     1
 43
1.0
 10
-572.3641368247364
 20
-692.7696851781895
 42
0.4142135623731
 10
-572.8641368247363
 20
-692.2696851781895
 42
0.4142135623731
 10
-573.3641368247363
 20
-692.7696851781895
 42
0.4142135623731
 10
-572.8641368247363
 20
-693.2696851781895
 42
0.4142135623731
  0
LWPOLYLINE
  5
449
330
1F
100
AcDbEntity
  8
D-4
  6
Continuous
 62
     7
370
     9
100
AcDbPolyline
 90
        4
 70
     1
 43
1.0
 10
-722.3632707853569
 20
-847.2341800380398
 42
0.4142135623731
 10
-722.8632707853569
 20
-846.7341800380398
 42
0.4142135623731
 10
-723.3632707853569
 20
-847.2341800380398
 42
0.4142135623731
 10
-722.8632707853569
 20
-847.7341800380397
 42
0.4142135623731
  0
LWPOLYLINE
  5
44A
330
1F
100
AcDbEntity
  8
D-4
  6
Continuous
 62
     7
370
     9
100
AcDbPolyline
 90
        4
 70
     1
 43
1.0
 10
-322.3624459859484
 20
-847.2341800380398
 42
0.4142135623731
 10
-322.8624459859483
 20
-846.7341800380398
 42
0.4142135623731
 10
-323.3624459859483
 20
-847.2341800380398
 42
0.4142135623731
 10
-322.8624459859483
 20
-847.7341800380397
 42
0.4142135623731
  0
LWPOLYLINE
  5
44B
330
1F
100
AcDbEntity
  8
D-4
  6
Continuous
 62
     7
370
     9
100
AcDbPolyline
 90
        4
 70
     1
 43
1.0
 10
-1079.089963603664
 20
-289.6506237339328
 42
0.4142135623731
 10
-1079.589963603664
 20
-289.1506237339328
 42
0.4142135623731
 10
-1080.089963603664
 20
-289.6506237339328
 42
0.4142135623731
 10
-1079.589963603664
 20
-290.1506237339328
 42
0.4142135623731
  0
LWPOLYLINE
  5
44C
330
1F
100
AcDbEntity
  8
D-4
  6
Continuous
 62
     7
370
     9
100
AcDbPolyline
 90
        4
 70
     1
 43
1.0
 10
-1079.089963603664
 20
-389.6505824939624
 42
0.4142135623731
 10
-1079.589963603664
 20
-389.1505824939624
 42
0.4142135623731
 10
-1080.089963603664
 20
-389.6505824939624
 42
0.4142135623731
 10
-1079.589963603664
 20
-390.1505824939624
 42
0.4142135623731
  0
LINE
  5
44D
330
1F
100
AcDbEntity
  8
C-1
  6
Continuous
 62
     2
370
     9
100
AcDbLine
 10
-1128.162400786941
 20
649.4865453565444
 30
0.0
 11
372.8379984159734
 21
649.4865453565444
 31
0.0
  0
LINE
  5
44E
330
1F
100
AcDbEntity
  8
C-1
  6
Continuous
 62
     2
370
     9
100
AcDbLine
 10
372.8379984159733
 20
487.486612990096
 30
0.0
 11
-1128.162400786941
 21
487.486612990096
 31
0.0
  0
LINE
  5
44F
330
1F
100
AcDbEntity
  8
D-0
  6
Continuous
 62
     7
370
     9
100
AcDbLine
 10
-296.0179783202503
 20
-308.1006810471817
 30
0.0
 11
-296.0179783202503
 21
-306.6004011437698
 31
0.0
  0
LINE
  5
450
330
1F
100
AcDbEntity
  8
D-0
  6
Continuous
 62
     7
370
     9
100
AcDbLine
 10
-296.0179783202503
 20
-306.6004011437698
 30
0.0
 11
-294.5182110167835
 21
-306.6004011437698
 31
0.0
  0
LINE
  5
451
330
1F
100
AcDbEntity
  8
D-0
  6
Continuous
 62
     7
370
     9
100
AcDbLine
 10
-294.5182110167835
 20
-306.6004011437698
 30
0.0
 11
-294.5182110167835
 21
-308.1006810471817
 31
0.0
  0
LINE
  5
452
330
1F
100
AcDbEntity
  8
D-0
  6
Continuous
 62
     7
370
     9
100
AcDbLine
 10
-294.5182110167835
 20
-308.1006810471817
 30
0.0
 11
-296.0179783202503
 21
-308.1006810471817
 31
0.0
  0
LINE
  5
453
330
1F
100
AcDbEntity
  8
D-0
  6
Continuous
 62
     7
370
     9
100
AcDbLine
 10
-245.2621532775257
 20
-310.8079216286941
 30
0.0
 11
-245.2621532775257
 21
-309.3076417252823
 31
0.0
  0
LINE
  5
454
330
1F
100
AcDbEntity
  8
D-0
  6
Continuous
 62
     7
370
     9
100
AcDbLine
 10
-245.2621532775257
 20
-309.3076417252823
 30
0.0
 11
-243.761870989928
 21
-309.3076417252823
 31
0.0
  0
LINE
  5
455
330
1F
100
AcDbEntity
  8
D-0
  6
Continuous
 62
     7
370
     9
100
AcDbLine
 10
-243.761870989928
 20
-309.3076417252823
 30
0.0
 11
-243.761870989928
 21
-310.8079216286941
 31
0.0
  0
LINE
  5
456
330
1F
100
AcDbEntity
  8
D-0
  6
Continuous
 62
     7
370
     9
100
AcDbLine
 10
-243.761870989928
 20
-310.8079216286941
 30
0.0
 11
-245.2621532775257
 21
-310.8079216286941
 31
0.0
  0
LINE
  5
457
330
1F
100
AcDbEntity
  8
D-0
  6
Continuous
 62
     7
370
     9
100
AcDbLine
 10
-180.2943111754749
 20
-308.7774917886063
 30
0.0
 11
-180.2943111754749
 21
-307.2772118851944
 31
0.0
  0
LINE
  5
458
330
1F
100
AcDbEntity
  8
D-0
  6
Continuous
 62
     7
370
     9
100
AcDbLine
 10
-180.2943111754749
 20
-307.2772118851944
 30
0.0
 11
-178.7945247985218
 21
-307.2772118851944
 31
0.0
  0
LINE
  5
459
330
1F
100
AcDbEntity
  8
D-0
  6
Continuous
 62
     7
370
     9
100
AcDbLine
 10
-178.7945247985218
 20
-307.2772118851944
 30
0.0
 11
-178.7945247985218
 21
-308.7774917886063
 31
0.0
  0
LINE
  5
45A
330
1F
100
AcDbEntity
  8
D-0
  6
Continuous
 62
     7
370
     9
100
AcDbLine
 10
-178.7945247985218
 20
-308.7774917886063
 30
0.0
 11
-180.2943111754749
 21
-308.7774917886063
 31
0.0
  0
LINE
  5
45B
330
1F
100
AcDbEntity
  8
D-0
  6
Continuous
 62
     7
370
     9
100
AcDbLine
 10
-204.6575237609241
 20
-341.2614152238174
 30
0.0
 11
-204.6575237609241
 21
-339.7611329362198
 31
0.0
  0
LINE
  5
45C
330
1F
100
AcDbEntity
  8
D-0
  6
Continuous
 62
     7
370
     9
100
AcDbLine
 10
-204.6575237609241
 20
-339.7611329362198
 30
0.0
 11
-203.1572414733265
 21
-339.7611329362198
 31
0.0
  0
LINE
  5
45D
330
1F
100
AcDbEntity
  8
D-0
  6
Continuous
 62
     7
370
     9
100
AcDbLine
 10
-203.1572414733265
 20
-339.7611329362198
 30
0.0
 11
-203.1572414733265
 21
-341.2614152238174
 31
0.0
  0
LINE
  5
45E
330
1F
100
AcDbEntity
  8
D-0
  6
Continuous
 62
     7
370
     9
100
AcDbLine
 10
-203.1572414733265
 20
-341.2614152238174
 30
0.0
 11
-204.6575237609241
 21
-341.2614152238174
 31
0.0
  0
LINE
  5
45F
330
1F
100
AcDbEntity
  8
D-0
  6
Continuous
 62
     7
370
     9
100
AcDbLine
 10
-255.2225567199085
 20
-345.1924655244156
 30
0.0
 11
-255.2225567199085
 21
-343.6921832368179
 31
0.0
  0
LINE
  5
460
330
1F
100
AcDbEntity
  8
D-0
  6
Continuous
 62
     7
370
     9
100
AcDbLine
 10
-255.2225567199085
 20
-343.6921832368179
 30
0.0
 11
-253.722808489928
 21
-343.6921832368179
 31
0.0
  0
LINE
  5
461
330
1F
100
AcDbEntity
  8
D-0
  6
Continuous
 62
     7
370
     9
100
AcDbLine
 10
-253.722808489928
 20
-343.6921832368179
 30
0.0
 11
-253.722808489928
 21
-345.1924655244156
 31
0.0
  0
LINE
  5
462
330
1F
100
AcDbEntity
  8
D-0
  6
Continuous
 62
     7
370
     9
100
AcDbLine
 10
-253.722808489928
 20
-345.1924655244156
 30
0.0
 11
-255.2225567199085
 21
-345.1924655244156
 31
0.0
  0
LINE
  5
463
330
1F
100
AcDbEntity
  8
D-0
  6
Continuous
 62
     7
370
     9
100
AcDbLine
 10
-272.3320843077991
 20
-379.1593262955948
 30
0.0
 11
-272.3320843077991
 21
-377.6590440079971
 31
0.0
  0
LINE
  5
464
330
1F
100
AcDbEntity
  8
D-0
  6
Continuous
 62
     7
370
     9
100
AcDbLine
 10
-272.3320843077991
 20
-377.6590440079971
 30
0.0
 11
-270.8318401671741
 21
-377.6590440079971
 31
0.0
  0
LINE
  5
465
330
1F
100
AcDbEntity
  8
D-0
  6
Continuous
 62
     7
370
     9
100
AcDbLine
 10
-270.8318401671741
 20
-377.6590440079971
 30
0.0
 11
-270.8318401671741
 21
-379.1593262955948
 31
0.0
  0
LINE
  5
466
330
1F
100
AcDbEntity
  8
D-0
  6
Continuous
 62
     7
370
     9
100
AcDbLine
 10
-270.8318401671741
 20
-379.1593262955948
 30
0.0
 11
-272.3320843077991
 21
-379.1593262955948
 31
0.0
  0
LINE
  5
467
330
1F
100
AcDbEntity
  8
D-0
  6
Continuous
 62
     7
370
     9
100
AcDbLine
 10
-303.6883427001331
 20
-364.5875880524918
 30
0.0
 11
-303.6883427001331
 21
-363.0873105332657
 31
0.0
  0
LINE
  5
468
330
1F
100
AcDbEntity
  8
D-0
  6
Continuous
 62
     7
370
     9
100
AcDbLine
 10
-303.6883427001331
 20
-363.0873105332657
 30
0.0
 11
-302.18855632318
 21
-363.0873105332657
 31
0.0
  0
LINE
  5
469
330
1F
100
AcDbEntity
  8
D-0
  6
Continuous
 62
     7
370
     9
100
AcDbLine
 10
-302.18855632318
 20
-363.0873105332657
 30
0.0
 11
-302.18855632318
 21
-364.5875880524918
 31
0.0
  0
LINE
  5
46A
330
1F
100
AcDbEntity
  8
D-0
  6
Continuous
 62
     7
370
     9
100
AcDbLine
 10
-302.18855632318
 20
-364.5875880524918
 30
0.0
 11
-303.6883427001331
 21
-364.5875880524918
 31
0.0
  0
LINE
  5
46B
330
1F
100
AcDbEntity
  8
D-0
  6
Continuous
 62
     7
370
     9
100
AcDbLine
 10
-314.4127537108753
 20
-405.8076188370987
 30
0.0
 11
-314.4127537108753
 21
-404.307336549501
 31
0.0
  0
LINE
  5
46C
330
1F
100
AcDbEntity
  8
D-0
  6
Continuous
 62
     7
370
     9
100
AcDbLine
 10
-314.4127537108753
 20
-404.307336549501
 30
0.0
 11
-312.9124714232776
 21
-404.307336549501
 31
0.0
  0
LINE
  5
46D
330
1F
100
AcDbEntity
  8
D-0
  6
Continuous
 62
     7
370
     9
100
AcDbLine
 10
-312.9124714232776
 20
-404.307336549501
 30
0.0
 11
-312.9124714232776
 21
-405.8076188370987
 31
0.0
  0
LINE
  5
46E
330
1F
100
AcDbEntity
  8
D-0
  6
Continuous
 62
     7
370
     9
100
AcDbLine
 10
-312.9124714232776
 20
-405.8076188370987
 30
0.0
 11
-314.4127537108753
 21
-405.8076188370987
 31
0.0
  0
LINE
  5
46F
330
1F
100
AcDbEntity
  8
D-0
  6
Continuous
 62
     7
370
     9
100
AcDbLine
 10
-277.0692898131702
 20
-414.3499944016739
 30
0.0
 11
-277.0692898131702
 21
-412.8497121140762
 31
0.0
  0
LINE
  5
470
330
1F
100
AcDbEntity
  8
D-0
  6
Continuous
 62
     7
370
     9
100
AcDbLine
 10
-277.0692898131702
 20
-412.8497121140762
 30
0.0
 11
-275.5690075255725
 21
-412.8497121140762
 31
0.0
  0
LINE
  5
471
330
1F
100
AcDbEntity
  8
D-0
  6
Continuous
 62
     7
370
     9
100
AcDbLine
 10
-275.5690075255725
 20
-412.8497121140762
 30
0.0
 11
-275.5690075255725
 21
-414.3499944016739
 31
0.0
  0
LINE
  5
472
330
1F
100
AcDbEntity
  8
D-0
  6
Continuous
 62
     7
370
     9
100
AcDbLine
 10
-275.5690075255725
 20
-414.3499944016739
 30
0.0
 11
-277.0692898131702
 21
-414.3499944016739
 31
0.0
  0
LINE
  5
473
330
1F
100
AcDbEntity
  8
D-0
  6
Continuous
 62
     7
370
     9
100
AcDbLine
 10
-224.8642040587757
 20
-419.0747830674454
 30
0.0
 11
-224.8642040587757
 21
-417.5745103165909
 31
0.0
  0
LINE
  5
474
330
1F
100
AcDbEntity
  8
D-0
  6
Continuous
 62
     7
370
     9
100
AcDbLine
 10
-224.8642040587757
 20
-417.5745103165909
 30
0.0
 11
-223.3644176818225
 21
-417.5745103165909
 31
0.0
  0
LINE
  5
475
330
1F
100
AcDbEntity
  8
D-0
  6
Continuous
 62
     7
370
     9
100
AcDbLine
 10
-223.3644176818225
 20
-417.5745103165909
 30
0.0
 11
-223.3644176818225
 21
-419.0747830674454
 31
0.0
  0
LINE
  5
476
330
1F
100
AcDbEntity
  8
D-0
  6
Continuous
 62
     7
370
     9
100
AcDbLine
 10
-223.3644176818225
 20
-419.0747830674454
 30
0.0
 11
-224.8642040587757
 21
-419.0747830674454
 31
0.0
  0
LINE
  5
477
330
1F
100
AcDbEntity
  8
D-0
  6
Continuous
 62
     7
370
     9
100
AcDbLine
 10
-170.1431347228382
 20
-412.319564561586
 30
0.0
 11
-170.1431347228382
 21
-410.8192822739883
 31
0.0
  0
LINE
  5
478
330
1F
100
AcDbEntity
  8
D-0
  6
Continuous
 62
     7
370
     9
100
AcDbLine
 10
-170.1431347228382
 20
-410.8192822739883
 30
0.0
 11
-168.6433864928577
 21
-410.8192822739883
 31
0.0
  0
LINE
  5
479
330
1F
100
AcDbEntity
  8
D-0
  6
Continuous
 62
     7
370
     9
100
AcDbLine
 10
-168.6433864928577
 20
-410.8192822739883
 30
0.0
 11
-168.6433864928577
 21
-412.319564561586
 31
0.0
  0
LINE
  5
47A
330
1F
100
AcDbEntity
  8
D-0
  6
Continuous
 62
     7
370
     9
100
AcDbLine
 10
-168.6433864928577
 20
-412.319564561586
 30
0.0
 11
-170.1431347228382
 21
-412.319564561586
 31
0.0
  0
LINE
  5
47B
330
1F
100
AcDbEntity
  8
D-0
  6
Continuous
 62
     7
370
     9
100
AcDbLine
 10
-182.3247600890491
 20
-372.3917195603653
 30
0.0
 11
-182.3247600890491
 21
-370.8914372727676
 31
0.0
  0
LINE
  5
47C
330
1F
100
AcDbEntity
  8
D-0
  6
Continuous
 62
     7
370
     9
100
AcDbLine
 10
-182.3247600890491
 20
-370.8914372727676
 30
0.0
 11
-180.8244778014515
 21
-370.8914372727676
 31
0.0
  0
LINE
  5
47D
330
1F
100
AcDbEntity
  8
D-0
  6
Continuous
 62
     7
370
     9
100
AcDbLine
 10
-180.8244778014515
 20
-370.8914372727676
 30
0.0
 11
-180.8244778014515
 21
-372.3917195603653
 31
0.0
  0
LINE
  5
47E
330
1F
100
AcDbEntity
  8
D-0
  6
Continuous
 62
     7
370
     9
100
AcDbLine
 10
-180.8244778014515
 20
-372.3917195603653
 30
0.0
 11
-182.3247600890491
 21
-372.3917195603653
 31
0.0
  0
LINE
  5
47F
330
1F
100
AcDbEntity
  8
D-0
  6
Continuous
 62
     7
370
     9
100
AcDbLine
 10
-223.3535076476429
 20
-381.5093323991104
 30
0.0
 11
-223.3535076476429
 21
-380.0090501115127
 31
0.0
  0
LINE
  5
480
330
1F
100
AcDbEntity
  8
D-0
  6
Continuous
 62
     7
370
     9
100
AcDbLine
 10
-223.3535076476429
 20
-380.0090501115127
 30
0.0
 11
-221.8537594176624
 21
-380.0090501115127
 31
0.0
  0
LINE
  5
481
330
1F
100
AcDbEntity
  8
D-0
  6
Continuous
 62
     7
370
     9
100
AcDbLine
 10
-221.8537594176624
 20
-380.0090501115127
 30
0.0
 11
-221.8537594176624
 21
-381.5093323991104
 31
0.0
  0
LINE
  5
482
330
1F
100
AcDbEntity
  8
D-0
  6
Continuous
 62
     7
370
     9
100
AcDbLine
 10
-221.8537594176624
 20
-381.5093323991104
 30
0.0
 11
-223.3535076476429
 21
-381.5093323991104
 31
0.0
  0
LINE
  5
483
330
1F
100
AcDbEntity
  8
D-0
  6
Continuous
 62
     7
370
     9
100
AcDbLine
 10
-162.8686977721546
 20
-342.0209691331192
 30
0.0
 11
-162.8686977721546
 21
-340.5206868455215
 31
0.0
  0
LINE
  5
484
330
1F
100
AcDbEntity
  8
D-0
  6
Continuous
 62
     7
370
     9
100
AcDbLine
 10
-162.8686977721546
 20
-340.5206868455215
 30
0.0
 11
-161.3684154845569
 21
-340.5206868455215
 31
0.0
  0
LINE
  5
485
330
1F
100
AcDbEntity
  8
D-0
  6
Continuous
 62
     7
370
     9
100
AcDbLine
 10
-161.3684154845569
 20
-340.5206868455215
 30
0.0
 11
-161.3684154845569
 21
-342.0209691331192
 31
0.0
  0
LINE
  5
486
330
1F
100
AcDbEntity
  8
D-0
  6
Continuous
 62
     7
370
     9
100
AcDbLine
 10
-161.3684154845569
 20
-342.0209691331192
 30
0.0
 11
-162.8686977721546
 21
-342.0209691331192
 31
0.0
  0
LINE
  5
487
330
1F
100
AcDbEntity
  8
D-0
  6
Continuous
 62
     7
370
     9
100
AcDbLine
 10
-316.8692852355335
 20
-331.1280867860123
 30
0.0
 11
-316.8692852355335
 21
-329.6278092667862
 31
0.0
  0
LINE
  5
488
330
1F
100
AcDbEntity
  8
D-0
  6
Continuous
 62
     7
370
     9
100
AcDbLine
 10
-316.8692852355335
 20
-329.6278092667862
 30
0.0
 11
-315.3690220214222
 21
-329.6278092667862
 31
0.0
  0
LINE
  5
489
330
1F
100
AcDbEntity
  8
D-0
  6
Continuous
 62
     7
370
     9
100
AcDbLine
 10
-315.3690220214222
 20
-329.6278092667862
 30
0.0
 11
-315.3690220214222
 21
-331.1280867860123
 31
0.0
  0
LINE
  5
48A
330
1F
100
AcDbEntity
  8
D-0
  6
Continuous
 62
     7
370
     9
100
AcDbLine
 10
-315.3690220214222
 20
-331.1280867860123
 30
0.0
 11
-316.8692852355335
 21
-331.1280867860123
 31
0.0
  0
LINE
  5
48B
330
1F
100
AcDbEntity
  8
D-0
  6
Continuous
 62
     7
370
     9
100
AcDbLine
 10
-400.2190281249378
 20
-454.378423433046
 30
0.0
 11
-400.2190281249378
 21
-452.8781411454483
 31
0.0
  0
LINE
  5
48C
330
1F
100
AcDbEntity
  8
D-0
  6
Continuous
 62
     7
370
     9
100
AcDbLine
 10
-400.2190281249378
 20
-452.8781411454483
 30
0.0
 11
-398.7187458373401
 21
-452.8781411454483
 31
0.0
  0
LINE
  5
48D
330
1F
100
AcDbEntity
  8
D-0
  6
Continuous
 62
     7
370
     9
100
AcDbLine
 10
-398.7187458373401
 20
-452.8781411454483
 30
0.0
 11
-398.7187458373401
 21
-454.378423433046
 31
0.0
  0
LINE
  5
48E
330
1F
100
AcDbEntity
  8
D-0
  6
Continuous
 62
     7
370
     9
100
AcDbLine
 10
-398.7187458373401
 20
-454.378423433046
 30
0.0
 11
-400.2190281249378
 21
-454.378423433046
 31
0.0
  0
LINE
  5
48F
330
1F
100
AcDbEntity
  8
D-0
  6
Continuous
 62
     7
370
     9
100
AcDbLine
 10
-350.8544803954456
 20
-462.2766969010635
 30
0.0
 11
-350.8544803954456
 21
-460.7764146134659
 31
0.0
  0
LINE
  5
490
330
1F
100
AcDbEntity
  8
D-0
  6
Continuous
 62
     7
370
     9
100
AcDbLine
 10
-350.8544803954456
 20
-460.7764146134659
 30
0.0
 11
-349.3542171813343
 21
-460.7764146134659
 31
0.0
  0
LINE
  5
491
330
1F
100
AcDbEntity
  8
D-0
  6
Continuous
 62
     7
370
     9
100
AcDbLine
 10
-349.3542171813343
 20
-460.7764146134659
 30
0.0
 11
-349.3542171813343
 21
-462.2766969010635
 31
0.0
  0
LINE
  5
492
330
1F
100
AcDbEntity
  8
D-0
  6
Continuous
 62
     7
370
     9
100
AcDbLine
 10
-349.3542171813343
 20
-462.2766969010635
 30
0.0
 11
-350.8544803954456
 21
-462.2766969010635
 31
0.0
  0
LINE
  5
493
330
1F
100
AcDbEntity
  8
D-0
  6
Continuous
 62
     7
370
     9
100
AcDbLine
 10
-367.7356029845569
 20
-482.8574654862686
 30
0.0
 11
-367.7356029845569
 21
-481.3572022721573
 31
0.0
  0
LINE
  5
494
330
1F
100
AcDbEntity
  8
D-0
  6
Continuous
 62
     7
370
     9
100
AcDbLine
 10
-367.7356029845569
 20
-481.3572022721573
 30
0.0
 11
-366.2358166076038
 21
-481.3572022721573
 31
0.0
  0
LINE
  5
495
330
1F
100
AcDbEntity
  8
D-0
  6
Continuous
 62
     7
370
     9
100
AcDbLine
 10
-366.2358166076038
 20
-481.3572022721573
 30
0.0
 11
-366.2358166076038
 21
-482.8574654862686
 31
0.0
  0
LINE
  5
496
330
1F
100
AcDbEntity
  8
D-0
  6
Continuous
 62
     7
370
     9
100
AcDbLine
 10
-366.2358166076038
 20
-482.8574654862686
 30
0.0
 11
-367.7356029845569
 21
-482.8574654862686
 31
0.0
  0
LINE
  5
497
330
1F
100
AcDbEntity
  8
D-0
  6
Continuous
 62
     7
370
     9
100
AcDbLine
 10
-416.0155750609729
 20
-517.565564851503
 30
0.0
 11
-416.0155750609729
 21
-516.0652825639054
 31
0.0
  0
LINE
  5
498
330
1F
100
AcDbEntity
  8
D-0
  6
Continuous
 62
     7
370
     9
100
AcDbLine
 10
-416.0155750609729
 20
-516.0652825639054
 30
0.0
 11
-414.5157886840198
 21
-516.0652825639054
 31
0.0
  0
LINE
  5
499
330
1F
100
AcDbEntity
  8
D-0
  6
Continuous
 62
     7
370
     9
100
AcDbLine
 10
-414.5157886840198
 20
-516.0652825639054
 30
0.0
 11
-414.5157886840198
 21
-517.565564851503
 31
0.0
  0
LINE
  5
49A
330
1F
100
AcDbEntity
  8
D-0
  6
Continuous
 62
     7
370
     9
100
AcDbLine
 10
-414.5157886840198
 20
-517.565564851503
 30
0.0
 11
-416.0155750609729
 21
-517.565564851503
 31
0.0
  0
LINE
  5
49B
330
1F
100
AcDbEntity
  8
D-0
  6
Continuous
 62
     7
370
     9
100
AcDbLine
 10
-344.9306560851429
 20
-515.5906197831437
 30
0.0
 11
-344.9306560851429
 21
-514.090337495546
 31
0.0
  0
LINE
  5
49C
330
1F
100
AcDbEntity
  8
D-0
  6
Continuous
 62
     7
370
     9
100
AcDbLine
 10
-344.9306560851429
 20
-514.090337495546
 30
0.0
 11
-343.4303928710315
 21
-514.090337495546
 31
0.0
  0
LINE
  5
49D
330
1F
100
AcDbEntity
  8
D-0
  6
Continuous
 62
     7
370
     9
100
AcDbLine
 10
-343.4303928710315
 20
-514.090337495546
 30
0.0
 11
-343.4303928710315
 21
-515.5906197831437
 31
0.0
  0
LINE
  5
49E
330
1F
100
AcDbEntity
  8
D-0
  6
Continuous
 62
     7
370
     9
100
AcDbLine
 10
-343.4303928710315
 20
-515.5906197831437
 30
0.0
 11
-344.9306560851429
 21
-515.5906197831437
 31
0.0
  0
LINE
  5
49F
330
1F
100
AcDbEntity
  8
D-0
  6
Continuous
 62
     7
370
     9
100
AcDbLine
 10
-402.1934772826526
 20
-483.9975449845596
 30
0.0
 11
-402.1934772826526
 21
-482.497262696962
 31
0.0
  0
LINE
  5
4A0
330
1F
100
AcDbEntity
  8
D-0
  6
Continuous
 62
     7
370
     9
100
AcDbLine
 10
-402.1934772826526
 20
-482.497262696962
 30
0.0
 11
-400.6936909056995
 21
-482.497262696962
 31
0.0
  0
LINE
  5
4A1
330
1F
100
AcDbEntity
  8
D-0
  6
Continuous
 62
     7
370
     9
100
AcDbLine
 10
-400.6936909056995
 20
-482.497262696962
 30
0.0
 11
-400.6936909056995
 21
-483.9975449845596
 31
0.0
  0
LINE
  5
4A2
330
1F
100
AcDbEntity
  8
D-0
  6
Continuous
 62
     7
370
     9
100
AcDbLine
 10
-400.6936909056995
 20
-483.9975449845596
 30
0.0
 11
-402.1934772826526
 21
-483.9975449845596
 31
0.0
  0
LINE
  5
4A3
330
1F
100
AcDbEntity
  8
D-0
  6
Continuous
 62
     7
370
     9
100
AcDbLine
 10
-370.3264118529651
 20
-440.1188275620743
 30
0.0
 11
-370.3264118529651
 21
-438.6185548112198
 31
0.0
  0
LINE
  5
4A4
330
1F
100
AcDbEntity
  8
D-0
  6
Continuous
 62
     7
370
     9
100
AcDbLine
 10
-370.3264118529651
 20
-438.6185548112198
 30
0.0
 11
-368.8261295653675
 21
-438.6185548112198
 31
0.0
  0
LINE
  5
4A5
330
1F
100
AcDbEntity
  8
D-0
  6
Continuous
 62
     7
370
     9
100
AcDbLine
 10
-368.8261295653675
 20
-438.6185548112198
 30
0.0
 11
-368.8261295653675
 21
-440.1188275620743
 31
0.0
  0
LINE
  5
4A6
330
1F
100
AcDbEntity
  8
D-0
  6
Continuous
 62
     7
370
     9
100
AcDbLine
 10
-368.8261295653675
 20
-440.1188275620743
 30
0.0
 11
-370.3264118529651
 21
-440.1188275620743
 31
0.0
  0
LINE
  5
4A7
330
1F
100
AcDbEntity
  8
D-0
  6
Continuous
 62
     7
370
     9
100
AcDbLine
 10
-379.6100117064807
 20
-511.558484773378
 30
0.0
 11
-379.6100117064807
 21
-510.0582215592667
 31
0.0
  0
LINE
  5
4A8
330
1F
100
AcDbEntity
  8
D-0
  6
Continuous
 62
     7
370
     9
100
AcDbLine
 10
-379.6100117064807
 20
-510.0582215592667
 30
0.0
 11
-378.1097294188831
 21
-510.0582215592667
 31
0.0
  0
LINE
  5
4A9
330
1F
100
AcDbEntity
  8
D-0
  6
Continuous
 62
     7
370
     9
100
AcDbLine
 10
-378.1097294188831
 20
-510.0582215592667
 30
0.0
 11
-378.1097294188831
 21
-511.558484773378
 31
0.0
  0
LINE
  5
4AA
330
1F
100
AcDbEntity
  8
D-0
  6
Continuous
 62
     7
370
     9
100
AcDbLine
 10
-378.1097294188831
 20
-511.558484773378
 30
0.0
 11
-379.6100117064807
 21
-511.558484773378
 31
0.0
  0
LINE
  5
4AB
330
1F
100
AcDbEntity
  8
D-0
  6
Continuous
 62
     7
370
     9
100
AcDbLine
 10
-542.735669741759
 20
-301.6823777959152
 30
0.0
 11
-542.735669741759
 21
-300.1820978925034
 31
0.0
  0
LINE
  5
4AC
330
1F
100
AcDbEntity
  8
D-0
  6
Continuous
 62
     7
370
     9
100
AcDbLine
 10
-542.735669741759
 20
-300.1820978925034
 30
0.0
 11
-541.2353922225329
 21
-300.1820978925034
 31
0.0
  0
LINE
  5
4AD
330
1F
100
AcDbEntity
  8
D-0
  6
Continuous
 62
     7
370
     9
100
AcDbLine
 10
-541.2353922225329
 20
-300.1820978925034
 30
0.0
 11
-541.2353922225329
 21
-301.6823777959152
 31
0.0
  0
LINE
  5
4AE
330
1F
100
AcDbEntity
  8
D-0
  6
Continuous
 62
     7
370
     9
100
AcDbLine
 10
-541.2353922225329
 20
-301.6823777959152
 30
0.0
 11
-542.735669741759
 21
-301.6823777959152
 31
0.0
  0
LINE
  5
4AF
330
1F
100
AcDbEntity
  8
D-0
  6
Continuous
 62
     7
370
     9
100
AcDbLine
 10
-521.4909626342151
 20
-317.4808952615066
 30
0.0
 11
-521.4909626342151
 21
-315.9806153580948
 31
0.0
  0
LINE
  5
4B0
330
1F
100
AcDbEntity
  8
D-0
  6
Continuous
 62
     7
370
     9
100
AcDbLine
 10
-521.4909626342151
 20
-315.9806153580948
 30
0.0
 11
-519.9906803466174
 21
-315.9806153580948
 31
0.0
  0
LINE
  5
4B1
330
1F
100
AcDbEntity
  8
D-0
  6
Continuous
 62
     7
370
     9
100
AcDbLine
 10
-519.9906803466174
 20
-315.9806153580948
 30
0.0
 11
-519.9906803466174
 21
-317.4808952615066
 31
0.0
  0
LINE
  5
4B2
330
1F
100
AcDbEntity
  8
D-0
  6
Continuous
 62
     7
370
     9
100
AcDbLine
 10
-519.9906803466174
 20
-317.4808952615066
 30
0.0
 11
-521.4909626342151
 21
-317.4808952615066
 31
0.0
  0
LINE
  5
4B3
330
1F
100
AcDbEntity
  8
D-0
  6
Continuous
 62
     7
370
     9
100
AcDbLine
 10
-497.6247288085315
 20
-358.5612008378311
 30
0.0
 11
-497.6247288085315
 21
-357.060923318605
 31
0.0
  0
LINE
  5
4B4
330
1F
100
AcDbEntity
  8
D-0
  6
Continuous
 62
     7
370
     9
100
AcDbLine
 10
-497.6247288085315
 20
-357.060923318605
 30
0.0
 11
-496.1249424315784
 21
-357.060923318605
 31
0.0
  0
LINE
  5
4B5
330
1F
100
AcDbEntity
  8
D-0
  6
Continuous
 62
     7
370
     9
100
AcDbLine
 10
-496.1249424315784
 20
-357.060923318605
 30
0.0
 11
-496.1249424315784
 21
-358.5612008378311
 31
0.0
  0
LINE
  5
4B6
330
1F
100
AcDbEntity
  8
D-0
  6
Continuous
 62
     7
370
     9
100
AcDbLine
 10
-496.1249424315784
 20
-358.5612008378311
 30
0.0
 11
-497.6247288085315
 21
-358.5612008378311
 31
0.0
  0
LINE
  5
4B7
330
1F
100
AcDbEntity
  8
D-0
  6
Continuous
 62
     7
370
     9
100
AcDbLine
 10
-451.8602539397571
 20
-305.6050047681137
 30
0.0
 11
-451.8602539397571
 21
-304.1047248647018
 31
0.0
  0
LINE
  5
4B8
330
1F
100
AcDbEntity
  8
D-0
  6
Continuous
 62
     7
370
     9
100
AcDbLine
 10
-451.8602539397571
 20
-304.1047248647018
 30
0.0
 11
-450.3604770995472
 21
-304.1047248647018
 31
0.0
  0
LINE
  5
4B9
330
1F
100
AcDbEntity
  8
D-0
  6
Continuous
 62
     7
370
     9
100
AcDbLine
 10
-450.3604770995472
 20
-304.1047248647018
 30
0.0
 11
-450.3604770995472
 21
-305.6050047681137
 31
0.0
  0
LINE
  5
4BA
330
1F
100
AcDbEntity
  8
D-0
  6
Continuous
 62
     7
370
     9
100
AcDbLine
 10
-450.3604770995472
 20
-305.6050047681137
 30
0.0
 11
-451.8602539397571
 21
-305.6050047681137
 31
0.0
  0
LINE
  5
4BB
330
1F
100
AcDbEntity
  8
D-0
  6
Continuous
 62
     7
370
     9
100
AcDbLine
 10
-404.3021847106311
 20
-300.2068719670578
 30
0.0
 11
-404.3021847106311
 21
-298.7065920636459
 31
0.0
  0
LINE
  5
4BC
330
1F
100
AcDbEntity
  8
D-0
  6
Continuous
 62
     7
370
     9
100
AcDbLine
 10
-404.3021847106311
 20
-298.7065920636459
 30
0.0
 11
-402.802398333678
 21
-298.7065920636459
 31
0.0
  0
LINE
  5
4BD
330
1F
100
AcDbEntity
  8
D-0
  6
Continuous
 62
     7
370
     9
100
AcDbLine
 10
-402.802398333678
 20
-298.7065920636459
 30
0.0
 11
-402.802398333678
 21
-300.2068719670578
 31
0.0
  0
LINE
  5
4BE
330
1F
100
AcDbEntity
  8
D-0
  6
Continuous
 62
     7
370
     9
100
AcDbLine
 10
-402.802398333678
 20
-300.2068719670578
 30
0.0
 11
-404.3021847106311
 21
-300.2068719670578
 31
0.0
  0
LINE
  5
4BF
330
1F
100
AcDbEntity
  8
D-0
  6
Continuous
 62
     7
370
     9
100
AcDbLine
 10
-423.9158130980823
 20
-321.7815635011002
 30
0.0
 11
-423.9158130980823
 21
-320.2812859818741
 31
0.0
  0
LINE
  5
4C0
330
1F
100
AcDbEntity
  8
D-0
  6
Continuous
 62
     7
370
     9
100
AcDbLine
 10
-423.9158130980823
 20
-320.2812859818741
 30
0.0
 11
-422.4155308104847
 21
-320.2812859818741
 31
0.0
  0
LINE
  5
4C1
330
1F
100
AcDbEntity
  8
D-0
  6
Continuous
 62
     7
370
     9
100
AcDbLine
 10
-422.4155308104847
 20
-320.2812859818741
 30
0.0
 11
-422.4155308104847
 21
-321.7815635011002
 31
0.0
  0
LINE
  5
4C2
330
1F
100
AcDbEntity
  8
D-0
  6
Continuous
 62
     7
370
     9
100
AcDbLine
 10
-422.4155308104847
 20
-321.7815635011002
 30
0.0
 11
-423.9158130980823
 21
-321.7815635011002
 31
0.0
  0
LINE
  5
4C3
330
1F
100
AcDbEntity
  8
D-0
  6
Continuous
 62
     7
370
     9
100
AcDbLine
 10
-399.5580746032093
 20
-357.907681207399
 30
0.0
 11
-399.5580746032093
 21
-356.4073989198013
 31
0.0
  0
LINE
  5
4C4
330
1F
100
AcDbEntity
  8
D-0
  6
Continuous
 62
     7
370
     9
100
AcDbLine
 10
-399.5580746032093
 20
-356.4073989198013
 30
0.0
 11
-398.0577923156116
 21
-356.4073989198013
 31
0.0
  0
LINE
  5
4C5
330
1F
100
AcDbEntity
  8
D-0
  6
Continuous
 62
     7
370
     9
100
AcDbLine
 10
-398.0577923156116
 20
-356.4073989198013
 30
0.0
 11
-398.0577923156116
 21
-357.907681207399
 31
0.0
  0
LINE
  5
4C6
330
1F
100
AcDbEntity
  8
D-0
  6
Continuous
 62
     7
370
     9
100
AcDbLine
 10
-398.0577923156116
 20
-357.907681207399
 30
0.0
 11
-399.5580746032093
 21
-357.907681207399
 31
0.0
  0
LINE
  5
4C7
330
1F
100
AcDbEntity
  8
D-0
  6
Continuous
 62
     7
370
     9
100
AcDbLine
 10
-395.6349636412952
 20
-396.480416993837
 30
0.0
 11
-395.6349636412952
 21
-394.9801347062393
 31
0.0
  0
LINE
  5
4C8
330
1F
100
AcDbEntity
  8
D-0
  6
Continuous
 62
     7
370
     9
100
AcDbLine
 10
-395.6349636412952
 20
-394.9801347062393
 30
0.0
 11
-394.1351772643421
 21
-394.9801347062393
 31
0.0
  0
LINE
  5
4C9
330
1F
100
AcDbEntity
  8
D-0
  6
Continuous
 62
     7
370
     9
100
AcDbLine
 10
-394.1351772643421
 20
-394.9801347062393
 30
0.0
 11
-394.1351772643421
 21
-396.480416993837
 31
0.0
  0
LINE
  5
4CA
330
1F
100
AcDbEntity
  8
D-0
  6
Continuous
 62
     7
370
     9
100
AcDbLine
 10
-394.1351772643421
 20
-396.480416993837
 30
0.0
 11
-395.6349636412952
 21
-396.480416993837
 31
0.0
  0
LINE
  5
4CB
330
1F
100
AcDbEntity
  8
D-0
  6
Continuous
 62
     7
370
     9
100
AcDbLine
 10
-471.3039375640247
 20
-320.106384496431
 30
0.0
 11
-471.3039375640247
 21
-318.6061045930191
 31
0.0
  0
LINE
  5
4CC
330
1F
100
AcDbEntity
  8
D-0
  6
Continuous
 62
     7
370
     9
100
AcDbLine
 10
-471.3039375640247
 20
-318.6061045930191
 30
0.0
 11
-469.803655276427
 21
-318.6061045930191
 31
0.0
  0
LINE
  5
4CD
330
1F
100
AcDbEntity
  8
D-0
  6
Continuous
 62
     7
370
     9
100
AcDbLine
 10
-469.803655276427
 20
-318.6061045930191
 30
0.0
 11
-469.803655276427
 21
-320.106384496431
 31
0.0
  0
LINE
  5
4CE
330
1F
100
AcDbEntity
  8
D-0
  6
Continuous
 62
     7
370
     9
100
AcDbLine
 10
-469.803655276427
 20
-320.106384496431
 30
0.0
 11
-471.3039375640247
 21
-320.106384496431
 31
0.0
  0
LINE
  5
4CF
330
1F
100
AcDbEntity
  8
D-0
  6
Continuous
 62
     7
370
     9
100
AcDbLine
 10
-549.5860220290515
 20
-447.5454041764542
 30
0.0
 11
-549.5860220290515
 21
-446.0451314255997
 31
0.0
  0
LINE
  5
4D0
330
1F
100
AcDbEntity
  8
D-0
  6
Continuous
 62
     7
370
     9
100
AcDbLine
 10
-549.5860220290515
 20
-446.0451314255997
 30
0.0
 11
-548.0857445098254
 21
-446.0451314255997
 31
0.0
  0
LINE
  5
4D1
330
1F
100
AcDbEntity
  8
D-0
  6
Continuous
 62
     7
370
     9
100
AcDbLine
 10
-548.0857445098254
 20
-446.0451314255997
 30
0.0
 11
-548.0857445098254
 21
-447.5454041764542
 31
0.0
  0
LINE
  5
4D2
330
1F
100
AcDbEntity
  8
D-0
  6
Continuous
 62
     7
370
     9
100
AcDbLine
 10
-548.0857445098254
 20
-447.5454041764542
 30
0.0
 11
-549.5860220290515
 21
-447.5454041764542
 31
0.0
  0
LINE
  5
4D3
330
1F
100
AcDbEntity
  8
D-0
  6
Continuous
 62
     7
370
     9
100
AcDbLine
 10
-700.3571678496692
 20
-436.6069505021377
 30
0.0
 11
-700.3571678496692
 21
-435.1066682145401
 31
0.0
  0
LINE
  5
4D4
330
1F
100
AcDbEntity
  8
D-0
  6
Continuous
 62
     7
370
     9
100
AcDbLine
 10
-700.3571678496692
 20
-435.1066682145401
 30
0.0
 11
-698.8568950988147
 21
-435.1066682145401
 31
0.0
  0
LINE
  5
4D5
330
1F
100
AcDbEntity
  8
D-0
  6
Continuous
 62
     7
370
     9
100
AcDbLine
 10
-698.8568950988147
 20
-435.1066682145401
 30
0.0
 11
-698.8568950988147
 21
-436.6069505021377
 31
0.0
  0
LINE
  5
4D6
330
1F
100
AcDbEntity
  8
D-0
  6
Continuous
 62
     7
370
     9
100
AcDbLine
 10
-698.8568950988147
 20
-436.6069505021377
 30
0.0
 11
-700.3571678496692
 21
-436.6069505021377
 31
0.0
  0
LINE
  5
4D7
330
1F
100
AcDbEntity
  8
D-0
  6
Continuous
 62
     7
370
     9
100
AcDbLine
 10
-641.1189247466418
 20
-541.2603661820694
 30
0.0
 11
-641.1189247466418
 21
-539.7600838944718
 31
0.0
  0
LINE
  5
4D8
330
1F
100
AcDbEntity
  8
D-0
  6
Continuous
 62
     7
370
     9
100
AcDbLine
 10
-641.1189247466418
 20
-539.7600838944718
 30
0.0
 11
-639.6191431380603
 21
-539.7600838944718
 31
0.0
  0
LINE
  5
4D9
330
1F
100
AcDbEntity
  8
D-0
  6
Continuous
 62
     7
370
     9
100
AcDbLine
 10
-639.6191431380603
 20
-539.7600838944718
 30
0.0
 11
-639.6191431380603
 21
-541.2603661820694
 31
0.0
  0
LINE
  5
4DA
330
1F
100
AcDbEntity
  8
D-0
  6
Continuous
 62
     7
370
     9
100
AcDbLine
 10
-639.6191431380603
 20
-541.2603661820694
 30
0.0
 11
-641.1189247466418
 21
-541.2603661820694
 31
0.0
  0
LINE
  5
4DB
330
1F
100
AcDbEntity
  8
D-0
  6
Continuous
 62
     7
370
     9
100
AcDbLine
 10
-654.9415136672351
 20
-600.4981133744523
 30
0.0
 11
-654.9415136672351
 21
-598.9978310868546
 31
0.0
  0
LINE
  5
4DC
330
1F
100
AcDbEntity
  8
D-0
  6
Continuous
 62
     7
370
     9
100
AcDbLine
 10
-654.9415136672351
 20
-598.9978310868546
 30
0.0
 11
-653.4412313796374
 21
-598.9978310868546
 31
0.0
  0
LINE
  5
4DD
330
1F
100
AcDbEntity
  8
D-0
  6
Continuous
 62
     7
370
     9
100
AcDbLine
 10
-653.4412313796374
 20
-598.9978310868546
 30
0.0
 11
-653.4412313796374
 21
-600.4981133744523
 31
0.0
  0
LINE
  5
4DE
330
1F
100
AcDbEntity
  8
D-0
  6
Continuous
 62
     7
370
     9
100
AcDbLine
 10
-653.4412313796374
 20
-600.4981133744523
 30
0.0
 11
-654.9415136672351
 21
-600.4981133744523
 31
0.0
  0
LINE
  5
4DF
330
1F
100
AcDbEntity
  8
D-0
  6
Continuous
 62
     7
370
     9
100
AcDbLine
 10
-685.5476070739123
 20
-611.3583085343644
 30
0.0
 11
-685.5476070739123
 21
-609.8580262467667
 31
0.0
  0
LINE
  5
4E0
330
1F
100
AcDbEntity
  8
D-0
  6
Continuous
 62
     7
370
     9
100
AcDbLine
 10
-685.5476070739123
 20
-609.8580262467667
 30
0.0
 11
-684.0473343230578
 21
-609.8580262467667
 31
0.0
  0
LINE
  5
4E1
330
1F
100
AcDbEntity
  8
D-0
  6
Continuous
 62
     7
370
     9
100
AcDbLine
 10
-684.0473343230578
 20
-609.8580262467667
 30
0.0
 11
-684.0473343230578
 21
-611.3583085343644
 31
0.0
  0
LINE
  5
4E2
330
1F
100
AcDbEntity
  8
D-0
  6
Continuous
 62
     7
370
     9
100
AcDbLine
 10
-684.0473343230578
 20
-611.3583085343644
 30
0.0
 11
-685.5476070739123
 21
-611.3583085343644
 31
0.0
  0
LINE
  5
4E3
330
1F
100
AcDbEntity
  8
D-0
  6
Continuous
 62
     7
370
     9
100
AcDbLine
 10
-708.4011055327746
 20
-545.2097413346573
 30
0.0
 11
-708.4011055327746
 21
-543.7094590470597
 31
0.0
  0
LINE
  5
4E4
330
1F
100
AcDbEntity
  8
D-0
  6
Continuous
 62
     7
370
     9
100
AcDbLine
 10
-708.4011055327746
 20
-543.7094590470597
 30
0.0
 11
-706.9013191558215
 21
-543.7094590470597
 31
0.0
  0
LINE
  5
4E5
330
1F
100
AcDbEntity
  8
D-0
  6
Continuous
 62
     7
370
     9
100
AcDbLine
 10
-706.9013191558215
 20
-543.7094590470597
 30
0.0
 11
-706.9013191558215
 21
-545.2097413346573
 31
0.0
  0
LINE
  5
4E6
330
1F
100
AcDbEntity
  8
D-0
  6
Continuous
 62
     7
370
     9
100
AcDbLine
 10
-706.9013191558215
 20
-545.2097413346573
 30
0.0
 11
-708.4011055327746
 21
-545.2097413346573
 31
0.0
  0
LINE
  5
4E7
330
1F
100
AcDbEntity
  8
D-0
  6
Continuous
 62
     7
370
     9
100
AcDbLine
 10
-682.585694918761
 20
-523.4893891618058
 30
0.0
 11
-682.585694918761
 21
-521.9891068742081
 31
0.0
  0
LINE
  5
4E8
330
1F
100
AcDbEntity
  8
D-0
  6
Continuous
 62
     7
370
     9
100
AcDbLine
 10
-682.585694918761
 20
-521.9891068742081
 30
0.0
 11
-681.0854221679065
 21
-521.9891068742081
 31
0.0
  0
LINE
  5
4E9
330
1F
100
AcDbEntity
  8
D-0
  6
Continuous
 62
     7
370
     9
100
AcDbLine
 10
-681.0854221679065
 20
-521.9891068742081
 30
0.0
 11
-681.0854221679065
 21
-523.4893891618058
 31
0.0
  0
LINE
  5
4EA
330
1F
100
AcDbEntity
  8
D-0
  6
Continuous
 62
     7
370
     9
100
AcDbLine
 10
-681.0854221679065
 20
-523.4893891618058
 30
0.0
 11
-682.585694918761
 21
-523.4893891618058
 31
0.0
  0
LINE
  5
4EB
330
1F
100
AcDbEntity
  8
D-0
  6
Continuous
 62
     7
370
     9
100
AcDbLine
 10
-619.3985654212329
 20
-575.982312898378
 30
0.0
 11
-619.3985654212329
 21
-574.4820306107804
 31
0.0
  0
LINE
  5
4EC
330
1F
100
AcDbEntity
  8
D-0
  6
Continuous
 62
     7
370
     9
100
AcDbLine
 10
-619.3985654212329
 20
-574.4820306107804
 30
0.0
 11
-617.8987814284656
 21
-574.4820306107804
 31
0.0
  0
LINE
  5
4ED
330
1F
100
AcDbEntity
  8
D-0
  6
Continuous
 62
     7
370
     9
100
AcDbLine
 10
-617.8987814284656
 20
-574.4820306107804
 30
0.0
 11
-617.8987814284656
 21
-575.982312898378
 31
0.0
  0
LINE
  5
4EE
330
1F
100
AcDbEntity
  8
D-0
  6
Continuous
 62
     7
370
     9
100
AcDbLine
 10
-617.8987814284656
 20
-575.982312898378
 30
0.0
 11
-619.3985654212329
 21
-575.982312898378
 31
0.0
  0
LINE
  5
4EF
330
1F
100
AcDbEntity
  8
D-0
  6
Continuous
 62
     7
370
     9
100
AcDbLine
 10
-696.4077926970813
 20
-713.8613602921769
 30
0.0
 11
-696.4077926970813
 21
-712.3610780045792
 31
0.0
  0
LINE
  5
4F0
330
1F
100
AcDbEntity
  8
D-0
  6
Continuous
 62
     7
370
     9
100
AcDbLine
 10
-696.4077926970813
 20
-712.3610780045792
 30
0.0
 11
-694.9080063201282
 21
-712.3610780045792
 31
0.0
  0
LINE
  5
4F1
330
1F
100
AcDbEntity
  8
D-0
  6
Continuous
 62
     7
370
     9
100
AcDbLine
 10
-694.9080063201282
 20
-712.3610780045792
 30
0.0
 11
-694.9080063201282
 21
-713.8613602921769
 31
0.0
  0
LINE
  5
4F2
330
1F
100
AcDbEntity
  8
D-0
  6
Continuous
 62
     7
370
     9
100
AcDbLine
 10
-694.9080063201282
 20
-713.8613602921769
 30
0.0
 11
-696.4077926970813
 21
-713.8613602921769
 31
0.0
  0
LINE
  5
4F3
330
1F
100
AcDbEntity
  8
D-0
  6
Continuous
 62
     7
370
     9
100
AcDbLine
 10
-626.0175324775073
 20
-717.5734040543839
 30
0.0
 11
-626.0175324775073
 21
-716.0731217667862
 31
0.0
  0
LINE
  5
4F4
330
1F
100
AcDbEntity
  8
D-0
  6
Continuous
 62
     7
370
     9
100
AcDbLine
 10
-626.0175324775073
 20
-716.0731217667862
 30
0.0
 11
-624.51774848474
 21
-716.0731217667862
 31
0.0
  0
LINE
  5
4F5
330
1F
100
AcDbEntity
  8
D-0
  6
Continuous
 62
     7
370
     9
100
AcDbLine
 10
-624.51774848474
 20
-716.0731217667862
 30
0.0
 11
-624.51774848474
 21
-717.5734040543839
 31
0.0
  0
LINE
  5
4F6
330
1F
100
AcDbEntity
  8
D-0
  6
Continuous
 62
     7
370
     9
100
AcDbLine
 10
-624.51774848474
 20
-717.5734040543839
 30
0.0
 11
-626.0175324775073
 21
-717.5734040543839
 31
0.0
  0
LINE
  5
4F7
330
1F
100
AcDbEntity
  8
D-0
  6
Continuous
 62
     7
370
     9
100
AcDbLine
 10
-601.6270907021853
 20
-743.4800050065323
 30
0.0
 11
-601.6270907021853
 21
-741.9797227189347
 31
0.0
  0
LINE
  5
4F8
330
1F
100
AcDbEntity
  8
D-0
  6
Continuous
 62
     7
370
     9
100
AcDbLine
 10
-601.6270907021853
 20
-741.9797227189347
 30
0.0
 11
-600.1273065604064
 21
-741.9797227189347
 31
0.0
  0
LINE
  5
4F9
330
1F
100
AcDbEntity
  8
D-0
  6
Continuous
 62
     7
370
     9
100
AcDbLine
 10
-600.1273065604064
 20
-741.9797227189347
 30
0.0
 11
-600.1273065604064
 21
-743.4800050065323
 31
0.0
  0
LINE
  5
4FA
330
1F
100
AcDbEntity
  8
D-0
  6
Continuous
 62
     7
370
     9
100
AcDbLine
 10
-600.1273065604064
 20
-743.4800050065323
 30
0.0
 11
-601.6270907021853
 21
-743.4800050065323
 31
0.0
  0
LINE
  5
4FB
330
1F
100
AcDbEntity
  8
D-0
  6
Continuous
 62
     7
370
     9
100
AcDbLine
 10
-595.3485102750155
 20
-781.6920182511612
 30
0.0
 11
-595.3485102750155
 21
-780.1917359635636
 31
0.0
  0
LINE
  5
4FC
330
1F
100
AcDbEntity
  8
D-0
  6
Continuous
 62
     7
370
     9
100
AcDbLine
 10
-595.3485102750155
 20
-780.1917359635636
 30
0.0
 11
-593.8482309676501
 21
-780.1917359635636
 31
0.0
  0
LINE
  5
4FD
330
1F
100
AcDbEntity
  8
D-0
  6
Continuous
 62
     7
370
     9
100
AcDbLine
 10
-593.8482309676501
 20
-780.1917359635636
 30
0.0
 11
-593.8482309676501
 21
-781.6920182511612
 31
0.0
  0
LINE
  5
4FE
330
1F
100
AcDbEntity
  8
D-0
  6
Continuous
 62
     7
370
     9
100
AcDbLine
 10
-593.8482309676501
 20
-781.6920182511612
 30
0.0
 11
-595.3485102750155
 21
-781.6920182511612
 31
0.0
  0
LINE
  5
4FF
330
1F
100
AcDbEntity
  8
D-0
  6
Continuous
 62
     7
370
     9
100
AcDbLine
 10
-669.5771671630237
 20
-787.1506211564347
 30
0.0
 11
-669.5771671630237
 21
-785.650338868837
 31
0.0
  0
LINE
  5
500
330
1F
100
AcDbEntity
  8
D-0
  6
Continuous
 62
     7
370
     9
100
AcDbLine
 10
-669.5771671630237
 20
-785.650338868837
 30
0.0
 11
-668.076884875426
 21
-785.650338868837
 31
0.0
  0
LINE
  5
501
330
1F
100
AcDbEntity
  8
D-0
  6
Continuous
 62
     7
370
     9
100
AcDbLine
 10
-668.076884875426
 20
-785.650338868837
 30
0.0
 11
-668.076884875426
 21
-787.1506211564347
 31
0.0
  0
LINE
  5
502
330
1F
100
AcDbEntity
  8
D-0
  6
Continuous
 62
     7
370
     9
100
AcDbLine
 10
-668.076884875426
 20
-787.1506211564347
 30
0.0
 11
-669.5771671630237
 21
-787.1506211564347
 31
0.0
  0
LINE
  5
503
330
1F
100
AcDbEntity
  8
D-0
  6
Continuous
 62
     7
370
     9
100
AcDbLine
 10
-704.3060566283557
 20
-777.8541276261612
 30
0.0
 11
-704.3060566283557
 21
-776.3538453385636
 31
0.0
  0
LINE
  5
504
330
1F
100
AcDbEntity
  8
D-0
  6
Continuous
 62
     7
370
     9
100
AcDbLine
 10
-704.3060566283557
 20
-776.3538453385636
 30
0.0
 11
-702.805774340758
 21
-776.3538453385636
 31
0.0
  0
LINE
  5
505
330
1F
100
AcDbEntity
  8
D-0
  6
Continuous
 62
     7
370
     9
100
AcDbLine
 10
-702.805774340758
 20
-776.3538453385636
 30
0.0
 11
-702.805774340758
 21
-777.8541276261612
 31
0.0
  0
LINE
  5
506
330
1F
100
AcDbEntity
  8
D-0
  6
Continuous
 62
     7
370
     9
100
AcDbLine
 10
-702.805774340758
 20
-777.8541276261612
 30
0.0
 11
-704.3060566283557
 21
-777.8541276261612
 31
0.0
  0
LINE
  5
507
330
1F
100
AcDbEntity
  8
D-0
  6
Continuous
 62
     7
370
     9
100
AcDbLine
 10
-706.5173317290637
 20
-737.5561616227433
 30
0.0
 11
-706.5173317290637
 21
-736.0558793351456
 31
0.0
  0
LINE
  5
508
330
1F
100
AcDbEntity
  8
D-0
  6
Continuous
 62
     7
370
     9
100
AcDbLine
 10
-706.5173317290637
 20
-736.0558793351456
 30
0.0
 11
-705.0175548888537
 21
-736.0558793351456
 31
0.0
  0
LINE
  5
509
330
1F
100
AcDbEntity
  8
D-0
  6
Continuous
 62
     7
370
     9
100
AcDbLine
 10
-705.0175548888537
 20
-736.0558793351456
 30
0.0
 11
-705.0175548888537
 21
-737.5561616227433
 31
0.0
  0
LINE
  5
50A
330
1F
100
AcDbEntity
  8
D-0
  6
Continuous
 62
     7
370
     9
100
AcDbLine
 10
-705.0175548888537
 20
-737.5561616227433
 30
0.0
 11
-706.5173317290637
 21
-737.5561616227433
 31
0.0
  0
LINE
  5
50B
330
1F
100
AcDbEntity
  8
D-0
  6
Continuous
 62
     7
370
     9
100
AcDbLine
 10
-649.0176893569324
 20
-757.3021027848527
 30
0.0
 11
-649.0176893569324
 21
-755.801820497255
 31
0.0
  0
LINE
  5
50C
330
1F
100
AcDbEntity
  8
D-0
  6
Continuous
 62
     7
370
     9
100
AcDbLine
 10
-649.0176893569324
 20
-755.801820497255
 30
0.0
 11
-647.5174070693347
 21
-755.801820497255
 31
0.0
  0
LINE
  5
50D
330
1F
100
AcDbEntity
  8
D-0
  6
Continuous
 62
     7
370
     9
100
AcDbLine
 10
-647.5174070693347
 20
-755.801820497255
 30
0.0
 11
-647.5174070693347
 21
-757.3021027848527
 31
0.0
  0
LINE
  5
50E
330
1F
100
AcDbEntity
  8
D-0
  6
Continuous
 62
     7
370
     9
100
AcDbLine
 10
-647.5174070693347
 20
-757.3021027848527
 30
0.0
 11
-649.0176893569324
 21
-757.3021027848527
 31
0.0
  0
LINE
  5
50F
330
1F
100
AcDbEntity
  8
D-0
  6
Continuous
 62
     7
370
     9
100
AcDbLine
 10
-660.8653379775378
 20
-723.734063844423
 30
0.0
 11
-660.8653379775378
 21
-722.2337815568253
 31
0.0
  0
LINE
  5
510
330
1F
100
AcDbEntity
  8
D-0
  6
Continuous
 62
     7
370
     9
100
AcDbLine
 10
-660.8653379775378
 20
-722.2337815568253
 30
0.0
 11
-659.3650556899402
 21
-722.2337815568253
 31
0.0
  0
LINE
  5
511
330
1F
100
AcDbEntity
  8
D-0
  6
Continuous
 62
     7
370
     9
100
AcDbLine
 10
-659.3650556899402
 20
-722.2337815568253
 30
0.0
 11
-659.3650556899402
 21
-723.734063844423
 31
0.0
  0
LINE
  5
512
330
1F
100
AcDbEntity
  8
D-0
  6
Continuous
 62
     7
370
     9
100
AcDbLine
 10
-659.3650556899402
 20
-723.734063844423
 30
0.0
 11
-660.8653379775378
 21
-723.734063844423
 31
0.0
  0
LINE
  5
513
330
1F
100
AcDbEntity
  8
D-0
  6
Continuous
 62
     7
370
     9
100
AcDbLine
 10
-605.5764724112842
 20
-609.5503327653214
 30
0.0
 11
-605.5764724112842
 21
-608.0500504777237
 31
0.0
  0
LINE
  5
514
330
1F
100
AcDbEntity
  8
D-0
  6
Continuous
 62
     7
370
     9
100
AcDbLine
 10
-605.5764724112842
 20
-608.0500504777237
 30
0.0
 11
-604.0766884185168
 21
-608.0500504777237
 31
0.0
  0
LINE
  5
515
330
1F
100
AcDbEntity
  8
D-0
  6
Continuous
 62
     7
370
     9
100
AcDbLine
 10
-604.0766884185168
 20
-608.0500504777237
 30
0.0
 11
-604.0766884185168
 21
-609.5503327653214
 31
0.0
  0
LINE
  5
516
330
1F
100
AcDbEntity
  8
D-0
  6
Continuous
 62
     7
370
     9
100
AcDbLine
 10
-604.0766884185168
 20
-609.5503327653214
 30
0.0
 11
-605.5764724112842
 21
-609.5503327653214
 31
0.0
  0
LINE
  5
517
330
1F
100
AcDbEntity
  8
D-0
  6
Continuous
 62
     7
370
     9
100
AcDbLine
 10
-593.7293182112071
 20
-509.6667954728409
 30
0.0
 11
-593.7293182112071
 21
-508.1665131852432
 31
0.0
  0
LINE
  5
518
330
1F
100
AcDbEntity
  8
D-0
  6
Continuous
 62
     7
370
     9
100
AcDbLine
 10
-593.7293182112071
 20
-508.1665131852432
 30
0.0
 11
-592.2290386058185
 21
-508.1665131852432
 31
0.0
  0
LINE
  5
519
330
1F
100
AcDbEntity
  8
D-0
  6
Continuous
 62
     7
370
     9
100
AcDbLine
 10
-592.2290386058185
 20
-508.1665131852432
 30
0.0
 11
-592.2290386058185
 21
-509.6667954728409
 31
0.0
  0
LINE
  5
51A
330
1F
100
AcDbEntity
  8
D-0
  6
Continuous
 62
     7
370
     9
100
AcDbLine
 10
-592.2290386058185
 20
-509.6667954728409
 30
0.0
 11
-593.7293182112071
 21
-509.6667954728409
 31
0.0
  0
LINE
  5
51B
330
1F
100
AcDbEntity
  8
D-0
  6
Continuous
 62
     7
370
     9
100
AcDbLine
 10
-497.6182819701526
 20
-520.8911416337296
 30
0.0
 11
-497.6182819701526
 21
-519.390859346132
 31
0.0
  0
LINE
  5
51C
330
1F
100
AcDbEntity
  8
D-0
  6
Continuous
 62
     7
370
     9
100
AcDbLine
 10
-497.6182819701526
 20
-519.390859346132
 30
0.0
 11
-496.1185051299427
 21
-519.390859346132
 31
0.0
  0
LINE
  5
51D
330
1F
100
AcDbEntity
  8
D-0
  6
Continuous
 62
     7
370
     9
100
AcDbLine
 10
-496.1185051299427
 20
-519.390859346132
 30
0.0
 11
-496.1185051299427
 21
-520.8911416337296
 31
0.0
  0
LINE
  5
51E
330
1F
100
AcDbEntity
  8
D-0
  6
Continuous
 62
     7
370
     9
100
AcDbLine
 10
-496.1185051299427
 20
-520.8911416337296
 30
0.0
 11
-497.6182819701526
 21
-520.8911416337296
 31
0.0
  0
LINE
  5
51F
330
1F
100
AcDbEntity
  8
D-0
  6
Continuous
 62
     7
370
     9
100
AcDbLine
 10
-550.1528383590075
 20
-512.2660157487198
 30
0.0
 11
-550.1528383590075
 21
-510.7657334611221
 31
0.0
  0
LINE
  5
520
330
1F
100
AcDbEntity
  8
D-0
  6
Continuous
 62
     7
370
     9
100
AcDbLine
 10
-550.1528383590075
 20
-510.7657334611221
 30
0.0
 11
-548.653056750426
 21
-510.7657334611221
 31
0.0
  0
LINE
  5
521
330
1F
100
AcDbEntity
  8
D-0
  6
Continuous
 62
     7
370
     9
100
AcDbLine
 10
-548.653056750426
 20
-510.7657334611221
 30
0.0
 11
-548.653056750426
 21
-512.2660157487198
 31
0.0
  0
LINE
  5
522
330
1F
100
AcDbEntity
  8
D-0
  6
Continuous
 62
     7
370
     9
100
AcDbLine
 10
-548.653056750426
 20
-512.2660157487198
 30
0.0
 11
-550.1528383590075
 21
-512.2660157487198
 31
0.0
  0
LINE
  5
523
330
1F
100
AcDbEntity
  8
D-0
  6
Continuous
 62
     7
370
     9
100
AcDbLine
 10
-686.5345836974475
 20
-572.8539178178116
 30
0.0
 11
-686.5345836974475
 21
-571.3536546037003
 31
0.0
  0
LINE
  5
524
330
1F
100
AcDbEntity
  8
D-0
  6
Continuous
 62
     7
370
     9
100
AcDbLine
 10
-686.5345836974475
 20
-571.3536546037003
 30
0.0
 11
-685.0347973204944
 21
-571.3536546037003
 31
0.0
  0
LINE
  5
525
330
1F
100
AcDbEntity
  8
D-0
  6
Continuous
 62
     7
370
     9
100
AcDbLine
 10
-685.0347973204944
 20
-571.3536546037003
 30
0.0
 11
-685.0347973204944
 21
-572.8539178178116
 31
0.0
  0
LINE
  5
526
330
1F
100
AcDbEntity
  8
D-0
  6
Continuous
 62
     7
370
     9
100
AcDbLine
 10
-685.0347973204944
 20
-572.8539178178116
 30
0.0
 11
-686.5345836974475
 21
-572.8539178178116
 31
0.0
  0
LINE
  5
527
330
1F
100
AcDbEntity
  8
D-0
  6
Continuous
 62
     7
370
     9
100
AcDbLine
 10
-655.4141880370471
 20
-431.0829636857315
 30
0.0
 11
-655.4141880370471
 21
-429.582690934877
 31
0.0
  0
LINE
  5
528
330
1F
100
AcDbEntity
  8
D-0
  6
Continuous
 62
     7
370
     9
100
AcDbLine
 10
-655.4141880370471
 20
-429.582690934877
 30
0.0
 11
-653.913910517821
 21
-429.582690934877
 31
0.0
  0
LINE
  5
529
330
1F
100
AcDbEntity
  8
D-0
  6
Continuous
 62
     7
370
     9
100
AcDbLine
 10
-653.913910517821
 20
-429.582690934877
 30
0.0
 11
-653.913910517821
 21
-431.0829636857315
 31
0.0
  0
LINE
  5
52A
330
1F
100
AcDbEntity
  8
D-0
  6
Continuous
 62
     7
370
     9
100
AcDbLine
 10
-653.913910517821
 20
-431.0829636857315
 30
0.0
 11
-655.4141880370471
 21
-431.0829636857315
 31
0.0
  0
LINE
  5
52B
330
1F
100
AcDbEntity
  8
D-0
  6
Continuous
 62
     7
370
     9
100
AcDbLine
 10
-599.6531429685447
 20
-542.414312104921
 30
0.0
 11
-599.6531429685447
 21
-540.9140298173234
 31
0.0
  0
LINE
  5
52C
330
1F
100
AcDbEntity
  8
D-0
  6
Continuous
 62
     7
370
     9
100
AcDbLine
 10
-599.6531429685447
 20
-540.9140298173234
 30
0.0
 11
-598.1528635494205
 21
-540.9140298173234
 31
0.0
  0
LINE
  5
52D
330
1F
100
AcDbEntity
  8
D-0
  6
Continuous
 62
     7
370
     9
100
AcDbLine
 10
-598.1528635494205
 20
-540.9140298173234
 30
0.0
 11
-598.1528635494205
 21
-542.414312104921
 31
0.0
  0
LINE
  5
52E
330
1F
100
AcDbEntity
  8
D-0
  6
Continuous
 62
     7
370
     9
100
AcDbLine
 10
-598.1528635494205
 20
-542.414312104921
 30
0.0
 11
-599.6531429685447
 21
-542.414312104921
 31
0.0
  0
LINE
  5
52F
330
1F
100
AcDbEntity
  8
D-0
  6
Continuous
 62
     7
370
     9
100
AcDbLine
 10
-658.89039767755
 20
-564.9556634232804
 30
0.0
 11
-658.89039767755
 21
-563.4553811356827
 31
0.0
  0
LINE
  5
530
330
1F
100
AcDbEntity
  8
D-0
  6
Continuous
 62
     7
370
     9
100
AcDbLine
 10
-658.89039767755
 20
-563.4553811356827
 30
0.0
 11
-657.3906160689685
 21
-563.4553811356827
 31
0.0
  0
LINE
  5
531
330
1F
100
AcDbEntity
  8
D-0
  6
Continuous
 62
     7
370
     9
100
AcDbLine
 10
-657.3906160689685
 20
-563.4553811356827
 30
0.0
 11
-657.3906160689685
 21
-564.9556634232804
 31
0.0
  0
LINE
  5
532
330
1F
100
AcDbEntity
  8
D-0
  6
Continuous
 62
     7
370
     9
100
AcDbLine
 10
-657.3906160689685
 20
-564.9556634232804
 30
0.0
 11
-658.89039767755
 21
-564.9556634232804
 31
0.0
  0
LINE
  5
533
330
1F
100
AcDbEntity
  8
D-0
  6
Continuous
 62
     7
370
     9
100
AcDbLine
 10
-647.0427490569446
 20
-638.0154893204972
 30
0.0
 11
-647.0427490569446
 21
-636.5152070328995
 31
0.0
  0
LINE
  5
534
330
1F
100
AcDbEntity
  8
D-0
  6
Continuous
 62
     7
370
     9
100
AcDbLine
 10
-647.0427490569446
 20
-636.5152070328995
 30
0.0
 11
-645.542967448363
 21
-636.5152070328995
 31
0.0
  0
LINE
  5
535
330
1F
100
AcDbEntity
  8
D-0
  6
Continuous
 62
     7
370
     9
100
AcDbLine
 10
-645.542967448363
 20
-636.5152070328995
 30
0.0
 11
-645.542967448363
 21
-638.0154893204972
 31
0.0
  0
LINE
  5
536
330
1F
100
AcDbEntity
  8
D-0
  6
Continuous
 62
     7
370
     9
100
AcDbLine
 10
-645.542967448363
 20
-638.0154893204972
 30
0.0
 11
-647.0427490569446
 21
-638.0154893204972
 31
0.0
  0
LINE
  5
537
330
1F
100
AcDbEntity
  8
D-0
  6
Continuous
 62
     7
370
     9
100
AcDbLine
 10
-695.4203201629016
 20
-637.0280167863175
 30
0.0
 11
-695.4203201629016
 21
-635.5277344987198
 31
0.0
  0
LINE
  5
538
330
1F
100
AcDbEntity
  8
D-0
  6
Continuous
 62
     7
370
     9
100
AcDbLine
 10
-695.4203201629016
 20
-635.5277344987198
 30
0.0
 11
-693.9200378753039
 21
-635.5277344987198
 31
0.0
  0
LINE
  5
539
330
1F
100
AcDbEntity
  8
D-0
  6
Continuous
 62
     7
370
     9
100
AcDbLine
 10
-693.9200378753039
 20
-635.5277344987198
 30
0.0
 11
-693.9200378753039
 21
-637.0280167863175
 31
0.0
  0
LINE
  5
53A
330
1F
100
AcDbEntity
  8
D-0
  6
Continuous
 62
     7
370
     9
100
AcDbLine
 10
-693.9200378753039
 20
-637.0280167863175
 30
0.0
 11
-695.4203201629016
 21
-637.0280167863175
 31
0.0
  0
LINE
  5
53B
330
1F
100
AcDbEntity
  8
D-0
  6
Continuous
 62
     7
370
     9
100
AcDbLine
 10
-682.4672771788928
 20
-756.1337754533097
 30
0.0
 11
-682.4672771788928
 21
-754.633493165712
 31
0.0
  0
LINE
  5
53C
330
1F
100
AcDbEntity
  8
D-0
  6
Continuous
 62
     7
370
     9
100
AcDbLine
 10
-682.4672771788928
 20
-754.633493165712
 30
0.0
 11
-680.9675003386828
 21
-754.633493165712
 31
0.0
  0
LINE
  5
53D
330
1F
100
AcDbEntity
  8
D-0
  6
Continuous
 62
     7
370
     9
100
AcDbLine
 10
-680.9675003386828
 20
-754.633493165712
 30
0.0
 11
-680.9675003386828
 21
-756.1337754533097
 31
0.0
  0
LINE
  5
53E
330
1F
100
AcDbEntity
  8
D-0
  6
Continuous
 62
     7
370
     9
100
AcDbLine
 10
-680.9675003386828
 20
-756.1337754533097
 30
0.0
 11
-682.4672771788928
 21
-756.1337754533097
 31
0.0
  0
LINE
  5
53F
330
1F
100
AcDbEntity
  8
D-0
  6
Continuous
 62
     7
370
     9
100
AcDbLine
 10
-631.94135678781
 20
-785.6414124772355
 30
0.0
 11
-631.94135678781
 21
-784.1411301896378
 31
0.0
  0
LINE
  5
540
330
1F
100
AcDbEntity
  8
D-0
  6
Continuous
 62
     7
370
     9
100
AcDbLine
 10
-631.94135678781
 20
-784.1411301896378
 30
0.0
 11
-630.4415727950427
 21
-784.1411301896378
 31
0.0
  0
LINE
  5
541
330
1F
100
AcDbEntity
  8
D-0
  6
Continuous
 62
     7
370
     9
100
AcDbLine
 10
-630.4415727950427
 20
-784.1411301896378
 30
0.0
 11
-630.4415727950427
 21
-785.6414124772355
 31
0.0
  0
LINE
  5
542
330
1F
100
AcDbEntity
  8
D-0
  6
Continuous
 62
     7
370
     9
100
AcDbLine
 10
-630.4415727950427
 20
-785.6414124772355
 30
0.0
 11
-631.94135678781
 21
-785.6414124772355
 31
0.0
  0
LINE
  5
543
330
1F
100
AcDbEntity
  8
D-0
  6
Continuous
 62
     7
370
     9
100
AcDbLine
 10
-595.7037614084575
 20
-709.9119660661027
 30
0.0
 11
-595.7037614084575
 21
-708.4117219254777
 31
0.0
  0
LINE
  5
544
330
1F
100
AcDbEntity
  8
D-0
  6
Continuous
 62
     7
370
     9
100
AcDbLine
 10
-595.7037614084575
 20
-708.4117219254777
 30
0.0
 11
-594.2034818030688
 21
-708.4117219254777
 31
0.0
  0
LINE
  5
545
330
1F
100
AcDbEntity
  8
D-0
  6
Continuous
 62
     7
370
     9
100
AcDbLine
 10
-594.2034818030688
 20
-708.4117219254777
 30
0.0
 11
-594.2034818030688
 21
-709.9119660661027
 31
0.0
  0
LINE
  5
546
330
1F
100
AcDbEntity
  8
D-0
  6
Continuous
 62
     7
370
     9
100
AcDbLine
 10
-594.2034818030688
 20
-709.9119660661027
 30
0.0
 11
-595.7037614084575
 21
-709.9119660661027
 31
0.0
  0
LINE
  5
547
330
1F
100
AcDbEntity
  8
D-0
  6
Continuous
 62
     7
370
     9
100
AcDbLine
 10
-712.7364612914416
 20
-591.8487069413468
 30
0.0
 11
-712.7364612914416
 21
-590.3484246537491
 31
0.0
  0
LINE
  5
548
330
1F
100
AcDbEntity
  8
D-0
  6
Continuous
 62
     7
370
     9
100
AcDbLine
 10
-712.7364612914416
 20
-590.3484246537491
 30
0.0
 11
-711.236179003844
 21
-590.3484246537491
 31
0.0
  0
LINE
  5
549
330
1F
100
AcDbEntity
  8
D-0
  6
Continuous
 62
     7
370
     9
100
AcDbLine
 10
-711.236179003844
 20
-590.3484246537491
 30
0.0
 11
-711.236179003844
 21
-591.8487069413468
 31
0.0
  0
LINE
  5
54A
330
1F
100
AcDbEntity
  8
D-0
  6
Continuous
 62
     7
370
     9
100
AcDbLine
 10
-711.236179003844
 20
-591.8487069413468
 30
0.0
 11
-712.7364612914416
 21
-591.8487069413468
 31
0.0
  0
LINE
  5
54B
330
1F
100
AcDbEntity
  8
D-0
  6
Continuous
 62
     7
370
     9
100
AcDbLine
 10
-595.8147464491221
 20
-635.5827424332902
 30
0.0
 11
-595.8147464491221
 21
-634.0824601456925
 31
0.0
  0
LINE
  5
54C
330
1F
100
AcDbEntity
  8
D-0
  6
Continuous
 62
     7
370
     9
100
AcDbLine
 10
-595.8147464491221
 20
-634.0824601456925
 30
0.0
 11
-594.3144668437335
 21
-634.0824601456925
 31
0.0
  0
LINE
  5
54D
330
1F
100
AcDbEntity
  8
D-0
  6
Continuous
 62
     7
370
     9
100
AcDbLine
 10
-594.3144668437335
 20
-634.0824601456925
 30
0.0
 11
-594.3144668437335
 21
-635.5827424332902
 31
0.0
  0
LINE
  5
54E
330
1F
100
AcDbEntity
  8
D-0
  6
Continuous
 62
     7
370
     9
100
AcDbLine
 10
-594.3144668437335
 20
-635.5827424332902
 30
0.0
 11
-595.8147464491221
 21
-635.5827424332902
 31
0.0
  0
LINE
  5
54F
330
1F
100
AcDbEntity
  8
D-0
  6
Continuous
 62
     7
370
     9
100
AcDbLine
 10
-620.5450798369739
 20
-758.9287278458878
 30
0.0
 11
-620.5450798369739
 21
-757.4284455582902
 31
0.0
  0
LINE
  5
550
330
1F
100
AcDbEntity
  8
D-0
  6
Continuous
 62
     7
370
     9
100
AcDbLine
 10
-620.5450798369739
 20
-757.4284455582902
 30
0.0
 11
-619.044799933562
 21
-757.4284455582902
 31
0.0
  0
LINE
  5
551
330
1F
100
AcDbEntity
  8
D-0
  6
Continuous
 62
     7
370
     9
100
AcDbLine
 10
-619.044799933562
 20
-757.4284455582902
 30
0.0
 11
-619.044799933562
 21
-758.9287278458878
 31
0.0
  0
LINE
  5
552
330
1F
100
AcDbEntity
  8
D-0
  6
Continuous
 62
     7
370
     9
100
AcDbLine
 10
-619.044799933562
 20
-758.9287278458878
 30
0.0
 11
-620.5450798369739
 21
-758.9287278458878
 31
0.0
  0
LINE
  5
553
330
1F
100
AcDbEntity
  8
D-0
  6
Continuous
 62
     7
370
     9
100
AcDbLine
 10
-588.7013013459537
 20
-446.4667794511124
 30
0.0
 11
-588.7013013459537
 21
-444.9664971635147
 31
0.0
  0
LINE
  5
554
330
1F
100
AcDbEntity
  8
D-0
  6
Continuous
 62
     7
370
     9
100
AcDbLine
 10
-588.7013013459537
 20
-444.9664971635147
 30
0.0
 11
-587.2010220385882
 21
-444.9664971635147
 31
0.0
  0
LINE
  5
555
330
1F
100
AcDbEntity
  8
D-0
  6
Continuous
 62
     7
370
     9
100
AcDbLine
 10
-587.2010220385882
 20
-444.9664971635147
 30
0.0
 11
-587.2010220385882
 21
-446.4667794511124
 31
0.0
  0
LINE
  5
556
330
1F
100
AcDbEntity
  8
D-0
  6
Continuous
 62
     7
370
     9
100
AcDbLine
 10
-587.2010220385882
 20
-446.4667794511124
 30
0.0
 11
-588.7013013459537
 21
-446.4667794511124
 31
0.0
  0
TEXT
  5
557
330
1F
100
AcDbEntity
  8
F-4ﾚｲﾔ
  6
Continuous
 62
     2
370
     9
100
AcDbText
 10
-775.331362538484
 20
-1307.432516289369
 30
0.0
 40
30.48
  1
ステンレス製　細目ノンスリップタイプ（デルタ模様）
 41
0.7739999999999999
  7
ＭＳ ゴシック
100
AcDbText
  0
LINE
  5
558
330
1F
100
AcDbEntity
  8
D-5
  6
Continuous
 62
     7
370
     9
100
AcDbLine
 10
-473.3412420427473
 20
-63.40476422696497
 30
0.0
 11
387.2865558656579
 21
-63.40476422696497
 31
0.0
  0
TEXT
  5
559
330
1F
100
AcDbEntity
  8
D-5
  6
Continuous
 62
     7
370
     9
100
AcDbText
 10
-473.3412448057887
 20
-51.24774701505181
 30
0.0
 40
22.86
  1
グレーチング（すきま9mm）ＤＱ－２０（h=20）
 50
0.0000374256994594
 41
1.158914728682171
  7
ＭＳ ゴシック
100
AcDbText
  0
TEXT
  5
55A
330
1F
100
AcDbEntity
  8
D-5
  6
Continuous
 62
     7
370
     9
100
AcDbText
 10
-473.3412420427473
 20
-18.54278333096888
 30
0.0
 40
22.86
  1
ステンレス製　細目ノンスリップタイプ（デルタ模様）
 41
1.16
  7
ＭＳ ゴシック
100
AcDbText
  0
LINE
  5
55B
330
1F
100
AcDbEntity
  8
D-5
  6
Continuous
 62
     2
370
     9
100
AcDbLine
 10
401.8082528500949
 20
-280.922849653906
 30
0.0
 11
176.8089951695629
 21
-280.922849653906
 31
0.0
  0
LINE
  5
55C
330
1F
100
AcDbEntity
  8
D-5
  6
Continuous
 62
     2
370
     9
100
AcDbLine
 10
176.8089951695629
 20
-230.9225609741129
 30
0.0
 11
401.8082528500949
 21
-230.9225609741129
 31
0.0
  0
LINE
  5
55D
330
1F
100
AcDbEntity
  8
D-5
  6
Continuous
 62
     2
370
     9
100
AcDbLine
 10
176.8089951695629
 20
-280.922849653906
 30
0.0
 11
176.8089951695629
 21
-230.9225609741129
 31
0.0
  0
TEXT
  5
55E
330
1F
100
AcDbEntity
  8
D-5
  6
Continuous
 62
     2
370
     9
100
AcDbText
 10
278.8987832456027
 20
-333.2031551895059
 30
0.0
 40
30.48
  1
ステンレス製　細目ノンスリップタイプ（デルタ模様）
 41
1.12
  7
ＭＳ ゴシック
100
AcDbText
  0
LINE
  5
55F
330
1F
100
AcDbEntity
  8
D-5
  6
Continuous
 62
     2
370
     9
100
AcDbLine
 10
401.8082528500949
 20
-230.9225609741129
 30
0.0
 11
401.8082528500949
 21
-280.922849653906
 31
0.0
  0
TEXT
  5
560
330
1F
100
AcDbEntity
  8
D-5
  6
Continuous
 62
     2
370
     9
100
AcDbText
 10
224.3085002899176
 20
-270.2825857180952
 30
0.0
 40
30.48
  1
仕　様
 41
1.083333333333333
  7
ＭＳ ゴシック
100
AcDbText
  0
TEXT
  5
561
330
1F
100
AcDbEntity
  8
D-5
  6
Continuous
 62
     2
370
     9
100
AcDbText
 10
278.8987836252785
 20
-398.2026497421182
 30
0.0
 40
30.48
  1
グレーチング（すきま9mm）ＤＱ－２０　１５０×５００×２０
 50
359.999996142952
 41
1.120614035087719
  7
ＭＳ ゴシック
100
AcDbText
  0
TEXT
  5
562
330
1F
100
AcDbEntity
  8
D-5
  6
Continuous
 62
     2
370
     9
100
AcDbText
 10
338.6107034940982
 20
-651.1782873081515
 30
0.0
 40
30.48
  1
定尺：４９９
 41
1.104166666666667
  7
ＭＳ ゴシック
100
AcDbText
  0
TEXT
  5
563
330
1F
100
AcDbEntity
  8
F-4ﾚｲﾔ
  6
Continuous
 62
     2
370
     9
100
AcDbText
 10
-775.3313625384842
 20
-1349.635414840094
 30
0.0
 40
30.48
  1
グレーチング（すきま9mm）ＤＱ－２０　１５０×５００×２０＋ＳＦ２０Ｂ
 41
0.7742753623188404
  7
ＭＳ ゴシック
100
AcDbText
  0
ENDSEC
  0
SECTION
  2
OBJECTS
  0
DICTIONARY
  5
C
330
0
100
AcDbDictionary
281
     1
  3
ACAD_GROUP
350
D
  3
ACAD_LAYOUT
350
1A
  3
ACAD_MLEADERSTYLE
350
565
  3
ACAD_MLINESTYLE
350
17
  3
ACAD_PLOTSETTINGS
350
19
  3
ACAD_PLOTSTYLENAME
350
E
  3
ACAD_TABLESTYLE
350
564
  3
ACAD_VISUALSTYLE
350
2A
  0
DICTIONARY
  5
D
102
{ACAD_REACTORS
330
C
102
}
330
C
100
AcDbDictionary
281
     1
  0
DICTIONARY
  5
1A
102
{ACAD_REACTORS
330
C
102
}
330
C
100
AcDbDictionary
281
     1
  3
Layout1
350
1E
  3
Layout2
350
26
  3
Model
350
22
  0
DICTIONARY
  5
565
102
{ACAD_REACTORS
330
C
102
}
330
C
100
AcDbDictionary
281
     1
  0
DICTIONARY
  5
17
102
{ACAD_REACTORS
330
C
102
}
330
C
100
AcDbDictionary
281
     1
  3
Standard
350
18
  0
DICTIONARY
  5
19
102
{ACAD_REACTORS
330
C
102
}
330
C
100
AcDbDictionary
281
     1
  0
ACDBDICTIONARYWDFLT
  5
E
102
{ACAD_REACTORS
330
C
102
}
330
C
100
AcDbDictionary
281
     1
  3
Normal
350
F
100
AcDbDictionaryWithDefault
340
F
  0
DICTIONARY
  5
564
102
{ACAD_REACTORS
330
C
102
}
330
C
100
AcDbDictionary
281
     1
  0
DICTIONARY
  5
2A
102
{ACAD_REACTORS
330
C
102
}
330
C
100
AcDbDictionary
281
     1
  3
2dWireframe
350
2F
  3
3D Hidden
350
31
  3
3dWireframe
350
30
  3
Basic
350
32
  3
Brighten
350
36
  3
ColorChange
350
3A
  3
Conceptual
350
34
  3
Dim
350
35
  3
Facepattern
350
39
  3
Flat
350
2B
  3
FlatWithEdges
350
2C
  3
Gouraud
350
2D
  3
GouraudWithEdges
350
2E
  3
Linepattern
350
38
  3
Realistic
350
33
  3
Thicken
350
37
  0
LAYOUT
  5
1E
102
{ACAD_REACTORS
330
1A
102
}
330
1A
100
AcDbPlotSettings
  1

  2
none_device
  4

  6

 40
0.0
 41
0.0
 42
0.0
 43
0.0
 44
0.0
 45
0.0
 46
0.0
 47
0.0
 48
0.0
 49
0.0
140
0.0
141
0.0
142
1.0
143
1.0
 70
   688
 72
     0
 73
     0
 74
     5
  7

 75
    16
 76
     0
 77
     5
 78
   300
147
1.0
148
0.0
149
0.0
100
AcDbLayout
  1
Layout1
 70
     1
 71
     1
 10
0.0
 20
0.0
 11
420.0
 21
297.0
 12
0.0
 22
0.0
 32
0.0
 14
1.000000000000000E+20
 24
1.000000000000000E+20
 34
1.000000000000000E+20
 15
-1.000000000000000E+20
 25
-1.000000000000000E+20
 35
-1.000000000000000E+20
146
0.0
 13
0.0
 23
0.0
 33
0.0
 16
1.0
 26
0.0
 36
0.0
 17
0.0
 27
1.0
 37
0.0
 76
     0
330
1B
  0
LAYOUT
  5
26
102
{ACAD_REACTORS
330
1A
102
}
330
1A
100
AcDbPlotSettings
  1

  2
none_device
  4

  6

 40
0.0
 41
0.0
 42
0.0
 43
0.0
 44
0.0
 45
0.0
 46
0.0
 47
0.0
 48
0.0
 49
0.0
140
0.0
141
0.0
142
1.0
143
1.0
 70
   688
 72
     0
 73
     0
 74
     5
  7

 75
    16
 76
     0
 77
     5
 78
   300
147
1.0
148
0.0
149
0.0
100
AcDbLayout
  1
Layout2
 70
     1
 71
     2
 10
0.0
 20
0.0
 11
0.0
 21
0.0
 12
0.0
 22
0.0
 32
0.0
 14
0.0
 24
0.0
 34
0.0
 15
0.0
 25
0.0
 35
0.0
146
0.0
 13
0.0
 23
0.0
 33
0.0
 16
1.0
 26
0.0
 36
0.0
 17
0.0
 27
1.0
 37
0.0
 76
     0
330
23
  0
LAYOUT
  5
22
102
{ACAD_REACTORS
330
1A
102
}
330
1A
100
AcDbPlotSettings
  1

  2
none_device
  4

  6

 40
0.0
 41
0.0
 42
0.0
 43
0.0
 44
0.0
 45
0.0
 46
0.0
 47
0.0
 48
0.0
 49
0.0
140
0.0
141
0.0
142
1.0
143
1.0
 70
  1712
 72
     0
 73
     0
 74
     0
  7

 75
     0
 76
     0
 77
     5
 78
   300
147
1.0
148
0.0
149
0.0
100
AcDbLayout
  1
Model
 70
     1
 71
     0
 10
-2100.0
 20
-1485.0
 11
2100.0
 21
1485.0
 12
0.0
 22
0.0
 32
0.0
 14
-2100.0
 24
-1485.0
 34
0.0
 15
2100.0
 25
1485.0
 35
0.0
146
0.0
 13
0.0
 23
0.0
 33
0.0
 16
1.0
 26
0.0
 36
0.0
 17
0.0
 27
1.0
 37
0.0
 76
     0
330
1F
331
29
  0
MLINESTYLE
  5
18
102
{ACAD_REACTORS
330
17
102
}
330
17
100
AcDbMlineStyle
  2
Standard
 70
     0
  3

 62
   256
 51
90.0
 52
90.0
 71
     2
 49
0.5
 62
   256
  6
BYLAYER
 49
-0.5
 62
   256
  6
BYLAYER
  0
ACDBPLACEHOLDER
  5
F
102
{ACAD_REACTORS
330
E
102
}
330
E
  0
VISUALSTYLE
  5
2F
102
{ACAD_REACTORS
330
2A
102
}
330
2A
100
AcDbVisualStyle
  2
2dWireframe
 70
     4
 71
     0
 72
     2
 73
     0
 90
        0
 40
-0.6
 41
-30.0
 62
     5
 63
     7
421
 16777215
 74
     1
 91
        4
 64
     7
 65
   257
 75
     1
175
     1
 42
1.0
 92
        0
 66
   257
 43
1.0
 76
     1
 77
     6
 78
     2
 67
     7
 79
     5
170
     0
171
     0
290
     0
174
     0
 93
        1
 44
0.0
173
     0
291
     0
 45
0.0
1001
ACAD
1000
AcDbSavedByObjectVersion
1070
     0
  0
VISUALSTYLE
  5
31
102
{ACAD_REACTORS
330
2A
102
}
330
2A
100
AcDbVisualStyle
  2
3D Hidden
 70
     6
 71
     1
 72
     2
 73
     2
 90
        0
 40
-0.6
 41
-30.0
 62
     5
 63
     7
421
 16777215
 74
     2
 91
        2
 64
     7
 65
   257
 75
     2
175
     1
 42
40.0
 92
        0
 66
   257
 43
1.0
 76
     1
 77
     6
 78
     2
 67
     7
 79
     3
170
     0
171
     0
290
     0
174
     0
 93
        1
 44
0.0
173
     0
291
     0
 45
0.0
1001
ACAD
1000
AcDbSavedByObjectVersion
1070
     0
  0
VISUALSTYLE
  5
30
102
{ACAD_REACTORS
330
2A
102
}
330
2A
100
AcDbVisualStyle
  2
3dWireframe
 70
     5
 71
     0
 72
     2
 73
     0
 90
        0
 40
-0.6
 41
-30.0
 62
     5
 63
     7
421
 16777215
 74
     1
 91
        4
 64
     7
 65
   257
 75
     1
175
     1
 42
1.0
 92
        0
 66
   257
 43
1.0
 76
     1
 77
     6
 78
     2
 67
     7
 79
     5
170
     0
171
     0
290
     0
174
     0
 93
        1
 44
0.0
173
     0
291
     0
 45
0.0
1001
ACAD
1000
AcDbSavedByObjectVersion
1070
     0
  0
VISUALSTYLE
  5
32
102
{ACAD_REACTORS
330
2A
102
}
330
2A
100
AcDbVisualStyle
  2
Basic
 70
     7
 71
     1
 72
     0
 73
     1
 90
        0
 40
-0.6
 41
-30.0
 62
     5
 63
     7
421
 16777215
 74
     0
 91
        4
 64
     7
 65
   257
 75
     1
175
     1
 42
1.0
 92
        8
 66
     7
 43
1.0
 76
     1
 77
     6
 78
     2
 67
     7
 79
     5
170
     0
171
     0
290
     0
174
     0
 93
        1
 44
0.0
173
     0
291
     1
 45
0.0
1001
ACAD
1000
AcDbSavedByObjectVersion
1070
     0
  0
VISUALSTYLE
  5
36
102
{ACAD_REACTORS
330
2A
102
}
330
2A
100
AcDbVisualStyle
  2
Brighten
 70
    12
 71
     2
 72
     2
 73
     0
 90
        0
 40
-0.6
 41
-30.0
 62
     5
 63
     7
421
 16777215
 74
     1
 91
        4
 64
     7
 65
   257
 75
     1
175
     1
 42
1.0
 92
        8
 66
     7
 43
1.0
 76
     1
 77
     6
 78
     2
 67
     7
 79
     5
170
     0
171
     0
290
     0
174
     0
 93
        1
 44
50.0
173
     0
291
     1
 45
0.0
1001
ACAD
1000
AcDbSavedByObjectVersion
1070
     0
  0
VISUALSTYLE
  5
3A
102
{ACAD_REACTORS
330
2A
102
}
330
2A
100
AcDbVisualStyle
  2
ColorChange
 70
    16
 71
     2
 72
     2
 73
     3
 90
        0
 40
-0.6
 41
-30.0
 62
     5
 63
     8
421
  8421504
 74
     1
 91
        4
 64
     7
 65
   257
 75
     1
175
     1
 42
1.0
 92
        8
 66
     8
424
  8421504
 43
1.0
 76
     1
 77
     6
 78
     2
 67
     7
 79
     5
170
     0
171
     0
290
     0
174
     0
 93
        1
 44
0.0
173
     0
291
     1
 45
0.0
1001
ACAD
1000
AcDbSavedByObjectVersion
1070
     0
  0
VISUALSTYLE
  5
34
102
{ACAD_REACTORS
330
2A
102
}
330
2A
100
AcDbVisualStyle
  2
Conceptual
 70
     9
 71
     3
 72
     2
 73
     0
 90
        0
 40
-0.6
 41
-30.0
 62
     5
 63
     7
421
 16777215
 74
     2
 91
        2
 64
     7
 65
   257
 75
     1
175
     1
 42
40.0
 92
        8
 66
     7
 43
1.0
 76
     1
 77
     6
 78
     2
 67
     7
 79
     3
170
     0
171
     0
290
     0
174
     0
 93
        1
 44
0.0
173
     0
291
     0
 45
0.0
1001
ACAD
1000
AcDbSavedByObjectVersion
1070
     0
  0
VISUALSTYLE
  5
35
102
{ACAD_REACTORS
330
2A
102
}
330
2A
100
AcDbVisualStyle
  2
Dim
 70
    11
 71
     2
 72
     2
 73
     0
 90
        0
 40
-0.6
 41
-30.0
 62
     5
 63
     7
421
 16777215
 74
     1
 91
        4
 64
     7
 65
   257
 75
     1
175
     1
 42
1.0
 92
        8
 66
     7
 43
1.0
 76
     1
 77
     6
 78
     2
 67
     7
 79
     5
170
     0
171
     0
290
     0
174
     0
 93
        1
 44
-50.0
173
     0
291
     1
 45
0.0
1001
ACAD
1000
AcDbSavedByObjectVersion
1070
     0
  0
VISUALSTYLE
  5
39
102
{ACAD_REACTORS
330
2A
102
}
330
2A
100
AcDbVisualStyle
  2
Facepattern
 70
    15
 71
     2
 72
     2
 73
     0
 90
        0
 40
-0.6
 41
-30.0
 62
     5
 63
     7
421
 16777215
 74
     1
 91
        4
 64
     7
 65
   257
 75
     1
175
     1
 42
1.0
 92
        8
 66
     7
 43
1.0
 76
     1
 77
     6
 78
     2
 67
     7
 79
     5
170
     0
171
     0
290
     0
174
     0
 93
        1
 44
0.0
173
     0
291
     1
 45
0.0
1001
ACAD
1000
AcDbSavedByObjectVersion
1070
     0
  0
VISUALSTYLE
  5
2B
102
{ACAD_REACTORS
330
2A
102
}
330
2A
100
AcDbVisualStyle
  2
Flat
 70
     0
 71
     2
 72
     1
 73
     1
 90
        2
 40
-0.6
 41
30.0
 62
     5
 63
     7
421
 16777215
 74
     0
 91
        4
 64
     7
 65
   257
 75
     1
175
     1
 42
1.0
 92
        8
 66
     7
 43
1.0
 76
     1
 77
     6
 78
     2
 67
     7
 79
     5
170
     0
171
     0
290
     0
174
     0
 93
       13
 44
0.0
173
     0
291
     1
 45
0.0
1001
ACAD
1000
AcDbSavedByObjectVersion
1070
     0
  0
VISUALSTYLE
  5
2C
102
{ACAD_REACTORS
330
2A
102
}
330
2A
100
AcDbVisualStyle
  2
FlatWithEdges
 70
     1
 71
     2
 72
     1
 73
     1
 90
        2
 40
-0.6
 41
30.0
 62
     5
 63
     7
421
 16777215
 74
     1
 91
        4
 64
     7
 65
   257
 75
     1
175
     1
 42
1.0
 92
        0
 66
   257
 43
1.0
 76
     1
 77
     6
 78
     2
 67
     7
 79
     5
170
     0
171
     0
290
     0
174
     0
 93
       13
 44
0.0
173
     0
291
     1
 45
0.0
1001
ACAD
1000
AcDbSavedByObjectVersion
1070
     0
  0
VISUALSTYLE
  5
2D
102
{ACAD_REACTORS
330
2A
102
}
330
2A
100
AcDbVisualStyle
  2
Gouraud
 70
     2
 71
     2
 72
     2
 73
     1
 90
        2
 40
-0.6
 41
30.0
 62
     5
 63
     7
421
 16777215
 74
     0
 91
        4
 64
     7
 65
   257
 75
     1
175
     1
 42
1.0
 92
        0
 66
     7
 43
1.0
 76
     1
 77
     6
 78
     2
 67
     7
 79
     5
170
     0
171
     0
290
     0
174
     0
 93
       13
 44
0.0
173
     0
291
     1
 45
0.0
1001
ACAD
1000
AcDbSavedByObjectVersion
1070
     0
  0
VISUALSTYLE
  5
2E
102
{ACAD_REACTORS
330
2A
102
}
330
2A
100
AcDbVisualStyle
  2
GouraudWithEdges
 70
     3
 71
     2
 72
     2
 73
     1
 90
        2
 40
-0.6
 41
30.0
 62
     5
 63
     7
421
 16777215
 74
     1
 91
        4
 64
     7
 65
   257
 75
     1
175
     1
 42
1.0
 92
        0
 66
   257
 43
1.0
 76
     1
 77
     6
 78
     2
 67
     7
 79
     5
170
     0
171
     0
290
     0
174
     0
 93
       13
 44
0.0
173
     0
291
     1
 45
0.0
1001
ACAD
1000
AcDbSavedByObjectVersion
1070
     0
  0
VISUALSTYLE
  5
38
102
{ACAD_REACTORS
330
2A
102
}
330
2A
100
AcDbVisualStyle
  2
Linepattern
 70
    14
 71
     2
 72
     2
 73
     0
 90
        0
 40
-0.6
 41
-30.0
 62
     5
 63
     7
421
 16777215
 74
     1
 91
        4
 64
     7
 65
   257
 75
     7
175
     7
 42
1.0
 92
        8
 66
     7
 43
1.0
 76
     1
 77
     6
 78
     2
 67
     7
 79
     5
170
     0
171
     0
290
     0
174
     0
 93
        1
 44
0.0
173
     0
291
     1
 45
0.0
1001
ACAD
1000
AcDbSavedByObjectVersion
1070
     0
  0
VISUALSTYLE
  5
33
102
{ACAD_REACTORS
330
2A
102
}
330
2A
100
AcDbVisualStyle
  2
Realistic
 70
     8
 71
     2
 72
     2
 73
     0
 90
        0
 40
-0.6
 41
-30.0
 62
     5
 63
     7
421
 16777215
 74
     1
 91
        0
 64
     7
 65
   257
 75
     1
175
     1
 42
1.0
 92
        8
 66
     8
424
  7895160
 43
1.0
 76
     1
 77
     6
 78
     2
 67
     7
 79
     5
170
     0
171
     0
290
     0
174
     0
 93
       13
 44
0.0
173
     0
291
     0
 45
0.0
1001
ACAD
1000
AcDbSavedByObjectVersion
1070
     0
  0
VISUALSTYLE
  5
37
102
{ACAD_REACTORS
330
2A
102
}
330
2A
100
AcDbVisualStyle
  2
Thicken
 70
    13
 71
     2
 72
     2
 73
     0
 90
        0
 40
-0.6
 41
-30.0
 62
     5
 63
     7
421
 16777215
 74
     1
 91
        4
 64
     7
 65
   257
 75
     1
175
     1
 42
1.0
 92
       12
 66
     7
 43
1.0
 76
     1
 77
     6
 78
     2
 67
     7
 79
     5
170
     0
171
     0
290
     0
174
     0
 93
        1
 44
0.0
173
     0
291
     1
 45
0.0
1001
ACAD
1000
AcDbSavedByObjectVersion
1070
     0
  0
ENDSEC
  0
EOF
