  0
SECTION
  2
HEADER
  9
$ACADVER
  1
AC1018
  9
$ACADMAINTVER
 70
     0
  9
$DWGCODEPAGE
  3
ANSI_932
  9
$INSBASE
 10
0.0
 20
0.0
 30
0.0
  9
$EXTMIN
 10
-2100.0
 20
-1485.0
 30
0.0
  9
$EXTMAX
 10
2100.0
 20
1485.0
 30
0.0
  9
$LIMMIN
 10
-2100.0
 20
-1485.0
  9
$LIMMAX
 10
2100.0
 20
1485.0
  9
$ORTHOMODE
 70
     0
  9
$REGENMODE
 70
     1
  9
$FILLMODE
 70
     1
  9
$QTEXTMODE
 70
     0
  9
$MIRRTEXT
 70
     1
  9
$LTSCALE
 40
10.0
  9
$ATTMODE
 70
     1
  9
$TEXTSIZE
 40
2.5
  9
$TRACEWID
 40
1.0
  9
$TEXTSTYLE
  7
Standard
  9
$CLAYER
  8
0
  9
$CELTYPE
  6
ByLayer
  9
$CECOLOR
 62
   256
  9
$CELTSCALE
 40
1.0
  9
$DISPSILH
 70
     0
  9
$DIMSCALE
 40
1.0
  9
$DIMASZ
 40
2.5
  9
$DIMEXO
 40
0.625
  9
$DIMDLI
 40
3.75
  9
$DIMRND
 40
0.0
  9
$DIMDLE
 40
0.0
  9
$DIMEXE
 40
1.25
  9
$DIMTP
 40
0.0
  9
$DIMTM
 40
0.0
  9
$DIMTXT
 40
2.5
  9
$DIMCEN
 40
2.5
  9
$DIMTSZ
 40
0.0
  9
$DIMTOL
 70
     0
  9
$DIMLIM
 70
     0
  9
$DIMTIH
 70
     0
  9
$DIMTOH
 70
     0
  9
$DIMSE1
 70
     0
  9
$DIMSE2
 70
     0
  9
$DIMTAD
 70
     1
  9
$DIMZIN
 70
     8
  9
$DIMBLK
  1

  9
$DIMASO
 70
     1
  9
$DIMSHO
 70
     1
  9
$DIMPOST
  1

  9
$DIMAPOST
  1

  9
$DIMALT
 70
     0
  9
$DIMALTD
 70
     3
  9
$DIMALTF
 40
0.03937007874016
  9
$DIMLFAC
 40
1.0
  9
$DIMTOFL
 70
     1
  9
$DIMTVP
 40
0.0
  9
$DIMTIX
 70
     0
  9
$DIMSOXD
 70
     0
  9
$DIMSAH
 70
     0
  9
$DIMBLK1
  1

  9
$DIMBLK2
  1

  9
$DIMSTYLE
  2
ISO-25
  9
$DIMCLRD
 70
     0
  9
$DIMCLRE
 70
     0
  9
$DIMCLRT
 70
     0
  9
$DIMTFAC
 40
1.0
  9
$DIMGAP
 40
0.625
  9
$DIMJUST
 70
     0
  9
$DIMSD1
 70
     0
  9
$DIMSD2
 70
     0
  9
$DIMTOLJ
 70
     0
  9
$DIMTZIN
 70
     8
  9
$DIMALTZ
 70
     0
  9
$DIMALTTZ
 70
     0
  9
$DIMUPT
 70
     0
  9
$DIMDEC
 70
     2
  9
$DIMTDEC
 70
     2
  9
$DIMALTU
 70
     2
  9
$DIMALTTD
 70
     3
  9
$DIMTXSTY
  7
Standard
  9
$DIMAUNIT
 70
     0
  9
$DIMADEC
 70
     0
  9
$DIMALTRND
 40
0.0
  9
$DIMAZIN
 70
     0
  9
$DIMDSEP
 70
    44
  9
$DIMATFIT
 70
     3
  9
$DIMFRAC
 70
     0
  9
$DIMLDRBLK
  1

  9
$DIMLUNIT
 70
     2
  9
$DIMLWD
 70
    -2
  9
$DIMLWE
 70
    -2
  9
$DIMTMOVE
 70
     0
  9
$LUNITS
 70
     2
  9
$LUPREC
 70
     4
  9
$SKETCHINC
 40
1.0
  9
$FILLETRAD
 40
10.0
  9
$AUNITS
 70
     0
  9
$AUPREC
 70
     0
  9
$MENU
  1
.
  9
$ELEVATION
 40
0.0
  9
$PELEVATION
 40
0.0
  9
$THICKNESS
 40
0.0
  9
$LIMCHECK
 70
     0
  9
$CHAMFERA
 40
10.0
  9
$CHAMFERB
 40
10.0
  9
$CHAMFERC
 40
20.0
  9
$CHAMFERD
 40
0.0
  9
$SKPOLY
 70
     0
  9
$TDCREATE
 40
2458568.380892616
  9
$TDUCREATE
 40
2458568.005892616
  9
$TDUPDATE
 40
2458568.380892627
  9
$TDUUPDATE
 40
2458568.005892627
  9
$TDINDWG
 40
0.0000000116
  9
$TDUSRTIMER
 40
0.0000000116
  9
$USRTIMER
 70
     1
  9
$ANGBASE
 50
0.0
  9
$ANGDIR
 70
     0
  9
$PDMODE
 70
     0
  9
$PDSIZE
 40
0.0
  9
$PLINEWID
 40
0.0
  9
$SPLFRAME
 70
     0
  9
$SPLINETYPE
 70
     6
  9
$SPLINESEGS
 70
     8
  9
$HANDSEED
  5
5B4
  9
$SURFTAB1
 70
     6
  9
$SURFTAB2
 70
     6
  9
$SURFTYPE
 70
     6
  9
$SURFU
 70
     6
  9
$SURFV
 70
     6
  9
$UCSBASE
  2

  9
$UCSNAME
  2

  9
$UCSORG
 10
0.0
 20
0.0
 30
0.0
  9
$UCSXDIR
 10
1.0
 20
0.0
 30
0.0
  9
$UCSYDIR
 10
0.0
 20
1.0
 30
0.0
  9
$UCSORTHOREF
  2

  9
$UCSORTHOVIEW
 70
     0
  9
$UCSORGTOP
 10
0.0
 20
0.0
 30
0.0
  9
$UCSORGBOTTOM
 10
0.0
 20
0.0
 30
0.0
  9
$UCSORGLEFT
 10
0.0
 20
0.0
 30
0.0
  9
$UCSORGRIGHT
 10
0.0
 20
0.0
 30
0.0
  9
$UCSORGFRONT
 10
0.0
 20
0.0
 30
0.0
  9
$UCSORGBACK
 10
0.0
 20
0.0
 30
0.0
  9
$PUCSBASE
  2

  9
$PUCSNAME
  2

  9
$PUCSORG
 10
0.0
 20
0.0
 30
0.0
  9
$PUCSXDIR
 10
1.0
 20
0.0
 30
0.0
  9
$PUCSYDIR
 10
0.0
 20
1.0
 30
0.0
  9
$PUCSORTHOREF
  2

  9
$PUCSORTHOVIEW
 70
     0
  9
$PUCSORGTOP
 10
0.0
 20
0.0
 30
0.0
  9
$PUCSORGBOTTOM
 10
0.0
 20
0.0
 30
0.0
  9
$PUCSORGLEFT
 10
0.0
 20
0.0
 30
0.0
  9
$PUCSORGRIGHT
 10
0.0
 20
0.0
 30
0.0
  9
$PUCSORGFRONT
 10
0.0
 20
0.0
 30
0.0
  9
$PUCSORGBACK
 10
0.0
 20
0.0
 30
0.0
  9
$USERI1
 70
     0
  9
$USERI2
 70
     0
  9
$USERI3
 70
     0
  9
$USERI4
 70
     0
  9
$USERI5
 70
     0
  9
$USERR1
 40
0.0
  9
$USERR2
 40
0.0
  9
$USERR3
 40
0.0
  9
$USERR4
 40
0.0
  9
$USERR5
 40
0.0
  9
$WORLDVIEW
 70
     1
  9
$SHADEDGE
 70
     3
  9
$SHADEDIF
 70
    70
  9
$TILEMODE
 70
     1
  9
$MAXACTVP
 70
    64
  9
$PINSBASE
 10
0.0
 20
0.0
 30
0.0
  9
$PLIMCHECK
 70
     0
  9
$PEXTMIN
 10
1.000000000000000E+20
 20
1.000000000000000E+20
 30
1.000000000000000E+20
  9
$PEXTMAX
 10
-1.000000000000000E+20
 20
-1.000000000000000E+20
 30
-1.000000000000000E+20
  9
$PLIMMIN
 10
0.0
 20
0.0
  9
$PLIMMAX
 10
420.0
 20
297.0
  9
$UNITMODE
 70
     0
  9
$VISRETAIN
 70
     1
  9
$PLINEGEN
 70
     0
  9
$PSLTSCALE
 70
     1
  9
$TREEDEPTH
 70
  3020
  9
$CMLSTYLE
  2
Standard
  9
$CMLJUST
 70
     0
  9
$CMLSCALE
 40
20.0
  9
$PROXYGRAPHICS
 70
     1
  9
$MEASUREMENT
 70
     1
  9
$CELWEIGHT
370
    -1
  9
$ENDCAPS
280
     0
  9
$JOINSTYLE
280
     0
  9
$LWDISPLAY
290
     0
  9
$INSUNITS
 70
     4
  9
$HYPERLINKBASE
  1

  9
$STYLESHEET
  1

  9
$XEDIT
290
     1
  9
$CEPSNTYPE
380
     0
  9
$PSTYLEMODE
290
     1
  9
$FINGERPRINTGUID
  2
{8F59EB45-AB70-4983-A584-D1AEB616B639}
  9
$VERSIONGUID
  2
{FAEB1C32-E019-11D5-929B-00C0DF256EC4}
  9
$EXTNAMES
290
     1
  9
$PSVPSCALE
 40
0.0
  9
$OLESTARTUP
290
     0
  9
$SORTENTS
280
   127
  9
$INDEXCTL
280
     0
  9
$HIDETEXT
280
     1
  9
$XCLIPFRAME
290
     0
  9
$HALOGAP
280
     0
  9
$OBSCOLOR
 70
   257
  9
$OBSLTYPE
280
     0
  9
$INTERSECTIONDISPLAY
280
     0
  9
$INTERSECTIONCOLOR
 70
   257
  9
$DIMASSOC
280
     2
  9
$PROJECTNAME
  1

  0
ENDSEC
  0
SECTION
  2
CLASSES
  0
CLASS
  1
ACDBDICTIONARYWDFLT
  2
AcDbDictionaryWithDefault
  3
ObjectDBX Classes
 90
        0
 91
        4
280
     0
281
     0
  0
CLASS
  1
VISUALSTYLE
  2
AcDbVisualStyle
  3
ObjectDBX Classes
 90
     4095
 91
        4
280
     0
281
     0
  0
ENDSEC
  0
SECTION
  2
TABLES
  0
TABLE
  2
VPORT
  5
8
330
0
100
AcDbSymbolTable
 70
     1
  0
VPORT
  5
29
330
8
100
AcDbSymbolTableRecord
100
AcDbViewportTableRecord
  2
*Active
 70
     0
 10
0.0
 20
0.0
 11
1.0
 21
1.0
 12
0.0
 22
0.0
 13
0.0
 23
0.0
 14
10.0
 24
10.0
 15
10.0
 25
10.0
 16
0.0
 26
0.0
 36
1.0
 17
0.0
 27
0.0
 37
0.0
 40
3267.0
 41
1.414141414141414
 42
50.0
 43
0.0
 44
0.0
 50
0.0
 51
0.0
 71
     0
 72
 10000
 73
     1
 74
     3
 75
     0
 76
     0
 77
     0
 78
     0
281
     0
 65
     1
110
0.0
120
0.0
130
0.0
111
1.0
121
0.0
131
0.0
112
0.0
122
1.0
132
0.0
 79
     0
146
0.0
  0
ENDTAB
  0
TABLE
  2
LTYPE
  5
5
330
0
100
AcDbSymbolTable
 70
     4
  0
LTYPE
  5
14
330
5
100
AcDbSymbolTableRecord
100
AcDbLinetypeTableRecord
  2
ByBlock
 70
     0
  3

 72
    65
 73
     0
 40
0.0
  0
LTYPE
  5
15
330
5
100
AcDbSymbolTableRecord
100
AcDbLinetypeTableRecord
  2
ByLayer
 70
     0
  3

 72
    65
 73
     0
 40
0.0
  0
LTYPE
  5
16
330
5
100
AcDbSymbolTableRecord
100
AcDbLinetypeTableRecord
  2
Continuous
 70
     0
  3
Solid line
 72
    65
 73
     0
 40
0.0
  0
LTYPE
  5
3C
330
5
100
AcDbSymbolTableRecord
100
AcDbLinetypeTableRecord
  2
JWW_DASHED3
 70
     0
  3
---  ------  ------  ------  ---
 72
    65
 73
     2
 40
3.386666666666667
 49
2.54
 74
     0
 49
-0.8466666666666667
 74
     0
  0
LTYPE
  5
3D
330
5
100
AcDbSymbolTableRecord
100
AcDbLinetypeTableRecord
  2
JWW_CENTER1
 70
     0
  3
-----  --  ----------  --  -----
 72
    65
 73
     4
 40
6.773333333333333
 49
4.233333333333333
 74
     0
 49
-0.8466666666666667
 74
     0
 49
0.8466666666666667
 74
     0
 49
-0.8466666666666667
 74
     0
  0
LTYPE
  5
3E
330
5
100
AcDbSymbolTableRecord
100
AcDbLinetypeTableRecord
  2
JWW_CENTER2
 70
     0
  3
-------------  --  -------------
 72
    65
 73
     4
 40
13.54666666666667
 49
11.00666666666667
 74
     0
 49
-0.8466666666666667
 74
     0
 49
0.8466666666666667
 74
     0
 49
-0.8466666666666667
 74
     0
  0
ENDTAB
  0
TABLE
  2
LAYER
  5
2
330
0
100
AcDbSymbolTable
 70
    15
  0
LAYER
  5
10
330
2
100
AcDbSymbolTableRecord
100
AcDbLayerTableRecord
  2
0
 70
     0
 62
     7
  6
Continuous
370
    -3
390
F
  0
LAYER
  5
3F
330
2
100
AcDbSymbolTableRecord
100
AcDbLayerTableRecord
  2
C-2
 70
     0
 62
     7
  6
Continuous
370
    -1
390
F
  0
LAYER
  5
40
330
2
100
AcDbSymbolTableRecord
100
AcDbLayerTableRecord
  2
C-1
 70
     0
 62
     7
  6
Continuous
370
    -1
390
F
  0
LAYER
  5
41
330
2
100
AcDbSymbolTableRecord
100
AcDbLayerTableRecord
  2
C-4
 70
     0
 62
     7
  6
Continuous
370
    -1
390
F
  0
LAYER
  5
42
330
2
100
AcDbSymbolTableRecord
100
AcDbLayerTableRecord
  2
C-5
 70
     0
 62
     7
  6
Continuous
370
    -1
390
F
  0
LAYER
  5
43
330
2
100
AcDbSymbolTableRecord
100
AcDbLayerTableRecord
  2
C-A
 70
     0
 62
     7
  6
Continuous
370
    -1
390
F
  0
LAYER
  5
44
330
2
100
AcDbSymbolTableRecord
100
AcDbLayerTableRecord
  2
D-9
 70
     0
 62
     7
  6
Continuous
370
    -1
390
F
  0
LAYER
  5
45
330
2
100
AcDbSymbolTableRecord
100
AcDbLayerTableRecord
  2
D-A
 70
     0
 62
     7
  6
Continuous
370
    -1
390
F
  0
LAYER
  5
46
330
2
100
AcDbSymbolTableRecord
100
AcDbLayerTableRecord
  2
D-4
 70
     0
 62
     7
  6
Continuous
370
    -1
390
F
  0
LAYER
  5
47
330
2
100
AcDbSymbolTableRecord
100
AcDbLayerTableRecord
  2
D-5
 70
     0
 62
     7
  6
Continuous
370
    -1
390
F
  0
LAYER
  5
48
330
2
100
AcDbSymbolTableRecord
100
AcDbLayerTableRecord
  2
D-6
 70
     0
 62
     7
  6
Continuous
370
    -1
390
F
  0
LAYER
  5
49
330
2
100
AcDbSymbolTableRecord
100
AcDbLayerTableRecord
  2
D-1
 70
     0
 62
     7
  6
Continuous
370
    -1
390
F
  0
LAYER
  5
4A
330
2
100
AcDbSymbolTableRecord
100
AcDbLayerTableRecord
  2
D-2
 70
     0
 62
     7
  6
Continuous
370
    -1
390
F
  0
LAYER
  5
4B
330
2
100
AcDbSymbolTableRecord
100
AcDbLayerTableRecord
  2
D-0
 70
     0
 62
     7
  6
Continuous
370
    -1
390
F
  0
LAYER
  5
4C
330
2
100
AcDbSymbolTableRecord
100
AcDbLayerTableRecord
  2
F-4ﾚｲﾔ
 70
     0
 62
     7
  6
Continuous
370
    -1
390
F
  0
ENDTAB
  0
TABLE
  2
STYLE
  5
3
330
0
100
AcDbSymbolTable
 70
     2
  0
STYLE
  5
11
330
3
100
AcDbSymbolTableRecord
100
AcDbTextStyleTableRecord
  2
Standard
 70
     0
 40
0.0
 41
1.0
 50
0.0
 71
     0
 42
2.5
  3
txt
  4

1001
ACAD
1000

1071
        0
  0
STYLE
  5
3B
330
3
100
AcDbSymbolTableRecord
100
AcDbTextStyleTableRecord
  2
ＭＳ ゴシック
 70
     0
 40
1.0
 41
1.0
 50
0.0
 71
     0
 42
10.0
  3

  4

1001
ACAD
1000
MS Gothic
1071
    32817
  0
ENDTAB
  0
TABLE
  2
VIEW
  5
6
330
0
100
AcDbSymbolTable
 70
     0
  0
ENDTAB
  0
TABLE
  2
UCS
  5
7
330
0
100
AcDbSymbolTable
 70
     0
  0
ENDTAB
  0
TABLE
  2
APPID
  5
9
330
0
100
AcDbSymbolTable
 70
     1
  0
APPID
  5
12
330
9
100
AcDbSymbolTableRecord
100
AcDbRegAppTableRecord
  2
ACAD
 70
     0
  0
ENDTAB
  0
TABLE
  2
DIMSTYLE
  5
A
330
0
100
AcDbSymbolTable
 70
     1
100
AcDbDimStyleTable
  0
DIMSTYLE
105
27
330
A
100
AcDbSymbolTableRecord
100
AcDbDimStyleTableRecord
  2
ISO-25
 70
     0
 41
2.5
 42
0.625
 43
3.75
 44
1.25
 73
     0
 74
     0
 77
     1
 78
     8
140
2.5
141
2.5
143
0.03937007874016
147
0.625
171
     3
172
     1
271
     2
272
     2
274
     3
278
    44
283
     0
284
     8
340
11
  0
ENDTAB
  0
TABLE
  2
BLOCK_RECORD
  5
1
330
0
100
AcDbSymbolTable
 70
     1
  0
BLOCK_RECORD
  5
1F
330
1
100
AcDbSymbolTableRecord
100
AcDbBlockTableRecord
  2
*Model_Space
340
22
  0
BLOCK_RECORD
  5
1B
330
1
100
AcDbSymbolTableRecord
100
AcDbBlockTableRecord
  2
*Paper_Space
340
1E
  0
BLOCK_RECORD
  5
23
330
1
100
AcDbSymbolTableRecord
100
AcDbBlockTableRecord
  2
*Paper_Space0
340
26
  0
ENDTAB
  0
ENDSEC
  0
SECTION
  2
BLOCKS
  0
BLOCK
  5
20
330
1F
100
AcDbEntity
  8
0
100
AcDbBlockBegin
  2
*Model_Space
 70
     0
 10
0.0
 20
0.0
 30
0.0
  3
*Model_Space
  1

  0
ENDBLK
  5
21
330
1F
100
AcDbEntity
  8
0
100
AcDbBlockEnd
  0
BLOCK
  5
1C
330
1B
100
AcDbEntity
 67
     1
  8
0
100
AcDbBlockBegin
  2
*Paper_Space
 70
     0
 10
0.0
 20
0.0
 30
0.0
  3
*Paper_Space
  1

  0
ENDBLK
  5
1D
330
1B
100
AcDbEntity
 67
     1
  8
0
100
AcDbBlockEnd
  0
BLOCK
  5
24
330
23
100
AcDbEntity
  8
0
100
AcDbBlockBegin
  2
*Paper_Space0
 70
     0
 10
0.0
 20
0.0
 30
0.0
  3
*Paper_Space0
  1

  0
ENDBLK
  5
25
330
23
100
AcDbEntity
  8
0
100
AcDbBlockEnd
  0
ENDSEC
  0
SECTION
  2
ENTITIES
  0
LINE
  5
4D
330
1F
100
AcDbEntity
  8
C-2
  6
Continuous
 62
     3
370
     9
100
AcDbLine
 10
-876.621696111318
 20
378.3783469329009
 30
0.0
 11
-876.621696111318
 21
678.3784706528124
 31
0.0
  0
LINE
  5
4E
330
1F
100
AcDbEntity
  8
C-2
  6
Continuous
 62
     3
370
     9
100
AcDbLine
 10
-876.621696111318
 20
678.3784706528124
 30
0.0
 11
-377.6216829145275
 21
678.3784706528124
 31
0.0
  0
LINE
  5
4F
330
1F
100
AcDbEntity
  8
C-2
  6
Continuous
 62
     3
370
     9
100
AcDbLine
 10
-377.6216829145275
 20
678.3784706528124
 30
0.0
 11
-377.6216829145275
 21
378.3783469329009
 31
0.0
  0
LINE
  5
50
330
1F
100
AcDbEntity
  8
C-2
  6
Continuous
 62
     3
370
     9
100
AcDbLine
 10
-377.6216829145275
 20
378.3783469329009
 30
0.0
 11
-876.621696111318
 21
378.3783469329009
 31
0.0
  0
LINE
  5
51
330
1F
100
AcDbEntity
  8
C-2
  6
Continuous
 62
     3
370
     9
100
AcDbLine
 10
-877.6214767146753
 20
378.3783469329009
 30
0.0
 11
-877.6214767146753
 21
678.3784706528124
 31
0.0
  0
LINE
  5
52
330
1F
100
AcDbEntity
  8
C-2
  6
Continuous
 62
     3
370
     9
100
AcDbLine
 10
-376.6212837116137
 20
378.3783469329009
 30
0.0
 11
-376.6212837116137
 21
678.3784706528124
 31
0.0
  0
LINE
  5
53
330
1F
100
AcDbEntity
  8
C-2
  6
Continuous
 62
     3
370
     9
100
AcDbLine
 10
-376.6212837116137
 20
678.3784706528124
 30
0.0
 11
122.3787294851769
 21
678.3784706528124
 31
0.0
  0
LINE
  5
54
330
1F
100
AcDbEntity
  8
C-2
  6
Continuous
 62
     3
370
     9
100
AcDbLine
 10
122.3787294851769
 20
678.3784706528124
 30
0.0
 11
122.3787294851769
 21
378.3783469329009
 31
0.0
  0
LINE
  5
55
330
1F
100
AcDbEntity
  8
C-2
  6
Continuous
 62
     3
370
     9
100
AcDbLine
 10
122.3787294851769
 20
378.3783469329009
 30
0.0
 11
-376.6212837116137
 21
378.3783469329009
 31
0.0
  0
LINE
  5
56
330
1F
100
AcDbEntity
  8
C-2
  6
Continuous
 62
     3
370
     9
100
AcDbLine
 10
123.378386368623
 20
678.3784706528124
 30
0.0
 11
123.378386368623
 21
378.3783469329009
 31
0.0
  0
LINE
  5
57
330
1F
100
AcDbEntity
  8
C-2
  6
Continuous
 62
     3
370
     9
100
AcDbLine
 10
-877.6214767146753
 20
678.3784706528124
 30
0.0
 11
-1127.621621054572
 21
678.3784706528124
 31
0.0
  0
LINE
  5
58
330
1F
100
AcDbEntity
  8
C-2
  6
Continuous
 62
     3
370
     9
100
AcDbLine
 10
-877.6214767146753
 20
378.3783469329009
 30
0.0
 11
-1127.621621054572
 21
378.3783469329009
 31
0.0
  0
LINE
  5
59
330
1F
100
AcDbEntity
  8
C-2
  6
Continuous
 62
     3
370
     9
100
AcDbLine
 10
123.378386368623
 20
678.3784706528124
 30
0.0
 11
373.3787162883866
 21
678.3784706528124
 31
0.0
  0
LINE
  5
5A
330
1F
100
AcDbEntity
  8
C-2
  6
Continuous
 62
     3
370
     9
100
AcDbLine
 10
123.378386368623
 20
378.3783469329009
 30
0.0
 11
373.3787162883866
 21
378.3783469329009
 31
0.0
  0
LINE
  5
5B
330
1F
100
AcDbEntity
  8
C-1
  6
Continuous
 62
     2
370
     9
100
AcDbLine
 10
-1127.621621054572
 20
679.3783749760809
 30
0.0
 11
373.3787162883866
 21
679.3783749760809
 31
0.0
  0
LINE
  5
5C
330
1F
100
AcDbEntity
  8
C-1
  6
JWW_DASHED3
 62
     2
370
     9
100
AcDbLine
 10
-1127.621621054572
 20
653.3781407330489
 30
0.0
 11
373.3787162883866
 21
653.3781407330489
 31
0.0
  0
LINE
  5
5D
330
1F
100
AcDbEntity
  8
C-1
  6
JWW_DASHED3
 62
     2
370
     9
100
AcDbLine
 10
373.3787162883866
 20
403.3786768526645
 30
0.0
 11
-1127.621621054572
 21
403.3786768526645
 31
0.0
  0
LINE
  5
5E
330
1F
100
AcDbEntity
  8
C-1
  6
Continuous
 62
     2
370
     9
100
AcDbLine
 10
373.3787162883866
 20
377.3781951698098
 30
0.0
 11
-1127.621621054572
 21
377.3781951698098
 31
0.0
  0
LINE
  5
5F
330
1F
100
AcDbEntity
  8
C-4
  6
Continuous
 62
     7
370
     9
100
AcDbLine
 10
-877.6214767146753
 20
698.3785366367649
 30
0.0
 11
-877.6214767146753
 21
781.3785135423816
 31
0.0
  0
LINE
  5
60
330
1F
100
AcDbEntity
  8
C-4
  6
Continuous
 62
     7
370
     9
100
AcDbLine
 10
-876.621696111318
 20
698.3785366367649
 30
0.0
 11
-876.621696111318
 21
861.378282598547
 31
0.0
  0
LINE
  5
61
330
1F
100
AcDbEntity
  8
C-4
  6
Continuous
 62
     7
370
     9
100
AcDbLine
 10
-876.621696111318
 20
778.3785531327533
 30
0.0
 11
-377.6216829145275
 21
778.3785531327533
 31
0.0
  0
LINE
  5
62
330
1F
100
AcDbEntity
  8
C-4
  6
Continuous
 62
     7
370
     9
100
AcDbLine
 10
-377.6216829145275
 20
698.3785366367649
 30
0.0
 11
-377.6216829145275
 21
781.3785135423816
 31
0.0
  0
LINE
  5
63
330
1F
100
AcDbEntity
  8
C-4
  6
Continuous
 62
     7
370
     9
100
AcDbLine
 10
-377.6216829145275
 20
778.3785531327533
 30
0.0
 11
-376.6212837116137
 21
778.3785531327533
 31
0.0
  0
LINE
  5
64
330
1F
100
AcDbEntity
  8
C-4
  6
Continuous
 62
     7
370
     9
100
AcDbLine
 10
-376.6212837116137
 20
698.3785366367649
 30
0.0
 11
-376.6212837116137
 21
861.378282598547
 31
0.0
  0
LINE
  5
65
330
1F
100
AcDbEntity
  8
C-4
  6
Continuous
 62
     7
370
     9
100
AcDbLine
 10
-376.6212837116137
 20
778.3785531327533
 30
0.0
 11
122.3787294851769
 21
778.3785531327533
 31
0.0
  0
LINE
  5
66
330
1F
100
AcDbEntity
  8
C-4
  6
Continuous
 62
     7
370
     9
100
AcDbLine
 10
122.3787294851769
 20
698.3785366367649
 30
0.0
 11
122.3787294851769
 21
781.3785135423816
 31
0.0
  0
LINE
  5
67
330
1F
100
AcDbEntity
  8
C-4
  6
Continuous
 62
     7
370
     9
100
AcDbLine
 10
123.378386368623
 20
698.3785366367649
 30
0.0
 11
123.378386368623
 21
861.378282598547
 31
0.0
  0
LINE
  5
68
330
1F
100
AcDbEntity
  8
C-4
  6
Continuous
 62
     7
370
     9
100
AcDbLine
 10
-1127.621621054572
 20
858.3783221889187
 30
0.0
 11
-376.6212837116137
 21
858.3783221889187
 31
0.0
  0
LINE
  5
69
330
1F
100
AcDbEntity
  8
C-4
  6
Continuous
 62
     7
370
     9
100
AcDbLine
 10
-376.6212837116137
 20
858.3783221889187
 30
0.0
 11
373.3787162883866
 21
858.3783221889187
 31
0.0
  0
LINE
  5
6A
330
1F
100
AcDbEntity
  8
C-4
  6
Continuous
 62
     7
370
     9
100
AcDbLine
 10
-1127.621621054572
 20
778.3785531327533
 30
0.0
 11
-876.621696111318
 21
778.3785531327533
 31
0.0
  0
LINE
  5
6B
330
1F
100
AcDbEntity
  8
C-4
  6
Continuous
 62
     7
370
     9
100
AcDbLine
 10
122.3787294851769
 20
778.3785531327533
 30
0.0
 11
373.3787162883866
 21
778.3785531327533
 31
0.0
  0
LINE
  5
6C
330
1F
100
AcDbEntity
  8
C-2
  6
Continuous
 62
     3
370
     9
100
AcDbLine
 10
-1147.621254018835
 20
513.3781737250251
 30
0.0
 11
-1107.621060190974
 21
543.3787675805993
 31
0.0
  0
LINE
  5
6D
330
1F
100
AcDbEntity
  8
C-2
  6
Continuous
 62
     3
370
     9
100
AcDbLine
 10
-1147.621254018835
 20
513.3781737250251
 30
0.0
 11
-1127.621621054572
 21
513.3781737250251
 31
0.0
  0
LINE
  5
6E
330
1F
100
AcDbEntity
  8
C-2
  6
Continuous
 62
     3
370
     9
100
AcDbLine
 10
-1127.621621054572
 20
543.3787675805993
 30
0.0
 11
-1107.621060190974
 21
543.3787675805993
 31
0.0
  0
LINE
  5
6F
330
1F
100
AcDbEntity
  8
C-2
  6
Continuous
 62
     3
370
     9
100
AcDbLine
 10
353.3786503044337
 20
513.3781737250251
 30
0.0
 11
393.3787822723392
 21
543.3787675805993
 31
0.0
  0
LINE
  5
70
330
1F
100
AcDbEntity
  8
C-2
  6
Continuous
 62
     3
370
     9
100
AcDbLine
 10
353.3786503044337
 20
513.3781737250251
 30
0.0
 11
373.3787162883866
 21
513.3781737250251
 31
0.0
  0
LINE
  5
71
330
1F
100
AcDbEntity
  8
C-2
  6
Continuous
 62
     3
370
     9
100
AcDbLine
 10
373.3787162883866
 20
543.3787675805993
 30
0.0
 11
393.3787822723392
 21
543.3787675805993
 31
0.0
  0
LINE
  5
72
330
1F
100
AcDbEntity
  8
C-2
  6
Continuous
 62
     3
370
     9
100
AcDbLine
 10
-1127.621621054572
 20
355.3786916990538
 30
0.0
 11
-1127.621621054572
 21
513.3781737250251
 31
0.0
  0
LINE
  5
73
330
1F
100
AcDbEntity
  8
C-2
  6
Continuous
 62
     3
370
     9
100
AcDbLine
 10
-1127.621621054572
 20
543.3787675805993
 30
0.0
 11
-1127.621621054572
 21
701.3782496065708
 31
0.0
  0
LINE
  5
74
330
1F
100
AcDbEntity
  8
C-2
  6
Continuous
 62
     3
370
     9
100
AcDbLine
 10
373.3787162883866
 20
701.3782496065708
 30
0.0
 11
373.3787162883866
 21
543.3787675805993
 31
0.0
  0
LINE
  5
75
330
1F
100
AcDbEntity
  8
C-2
  6
Continuous
 62
     3
370
     9
100
AcDbLine
 10
373.3787162883866
 20
513.3781737250251
 30
0.0
 11
373.3787162883866
 21
355.3786916990538
 31
0.0
  0
LINE
  5
76
330
1F
100
AcDbEntity
  8
C-5
  6
Continuous
 62
     7
370
     9
100
AcDbLine
 10
-89.62102967339575
 20
270.3785349871663
 30
0.0
 11
-89.62102967339575
 21
205.3786916990538
 31
0.0
  0
LINE
  5
77
330
1F
100
AcDbEntity
  8
C-5
  6
Continuous
 62
     7
370
     9
100
AcDbLine
 10
-89.62102967339575
 20
205.3786916990538
 30
0.0
 11
-664.6214420731002
 21
205.3786916990538
 31
0.0
  0
LINE
  5
78
330
1F
100
AcDbEntity
  8
C-5
  6
Continuous
 62
     7
370
     9
100
AcDbLine
 10
-664.6214420731002
 20
270.3785349871663
 30
0.0
 11
-89.62102967339575
 21
270.3785349871663
 31
0.0
  0
LINE
  5
79
330
1F
100
AcDbEntity
  8
C-5
  6
Continuous
 62
     7
370
     9
100
AcDbLine
 10
-664.6214420731002
 20
205.3786916990538
 30
0.0
 11
-664.6214420731002
 21
270.3785349871663
 31
0.0
  0
LINE
  5
7A
330
1F
100
AcDbEntity
  8
C-A
  6
Continuous
 62
     3
370
     9
100
AcDbLine
 10
-213.7238541164911
 20
378.3783469329009
 30
0.0
 11
-40.5185763900343
 21
678.3784706528124
 31
0.0
  0
LINE
  5
7B
330
1F
100
AcDbEntity
  8
C-A
  6
Continuous
 62
     3
370
     9
100
AcDbLine
 10
-361.6213579435603
 20
475.3782215633908
 30
0.0
 11
-370.621362892357
 21
475.3782215633908
 31
0.0
  0
LINE
  5
7C
330
1F
100
AcDbEntity
  8
C-A
  6
Continuous
 62
     3
370
     9
100
AcDbLine
 10
-361.6213579435603
 20
481.378266102559
 30
0.0
 11
-370.621362892357
 21
481.378266102559
 31
0.0
  0
LINE
  5
7D
330
1F
100
AcDbEntity
  8
C-A
  6
Continuous
 62
     3
370
     9
100
AcDbLine
 10
-346.6214321755072
 20
475.3782215633908
 30
0.0
 11
-355.6213134043924
 21
475.3782215633908
 31
0.0
  0
LINE
  5
7E
330
1F
100
AcDbEntity
  8
C-A
  6
Continuous
 62
     3
370
     9
100
AcDbLine
 10
-346.6214321755072
 20
481.378266102559
 30
0.0
 11
-355.6213134043924
 21
481.378266102559
 31
0.0
  0
LINE
  5
7F
330
1F
100
AcDbEntity
  8
C-A
  6
Continuous
 62
     3
370
     9
100
AcDbLine
 10
-331.6213826875426
 20
475.3782215633908
 30
0.0
 11
-340.6212639164278
 21
475.3782215633908
 31
0.0
  0
LINE
  5
80
330
1F
100
AcDbEntity
  8
C-A
  6
Continuous
 62
     3
370
     9
100
AcDbLine
 10
-331.6213826875426
 20
481.378266102559
 30
0.0
 11
-340.6212639164278
 21
481.378266102559
 31
0.0
  0
LINE
  5
81
330
1F
100
AcDbEntity
  8
C-A
  6
Continuous
 62
     3
370
     9
100
AcDbLine
 10
-316.621333199578
 20
475.3782215633908
 30
0.0
 11
-325.6213381483747
 21
475.3782215633908
 31
0.0
  0
LINE
  5
82
330
1F
100
AcDbEntity
  8
C-A
  6
Continuous
 62
     3
370
     9
100
AcDbLine
 10
-316.621333199578
 20
481.378266102559
 30
0.0
 11
-325.6213381483747
 21
481.378266102559
 31
0.0
  0
LINE
  5
83
330
1F
100
AcDbEntity
  8
C-A
  6
Continuous
 62
     3
370
     9
100
AcDbLine
 10
-361.6213579435603
 20
575.3781803234205
 30
0.0
 11
-370.621362892357
 21
575.3781803234205
 31
0.0
  0
LINE
  5
84
330
1F
100
AcDbEntity
  8
C-A
  6
Continuous
 62
     3
370
     9
100
AcDbLine
 10
-361.6213579435603
 20
581.3783485824999
 30
0.0
 11
-370.621362892357
 21
581.3783485824999
 31
0.0
  0
LINE
  5
85
330
1F
100
AcDbEntity
  8
C-A
  6
Continuous
 62
     3
370
     9
100
AcDbLine
 10
-346.6214321755072
 20
575.3781803234205
 30
0.0
 11
-355.6213134043924
 21
575.3781803234205
 31
0.0
  0
LINE
  5
86
330
1F
100
AcDbEntity
  8
C-A
  6
Continuous
 62
     3
370
     9
100
AcDbLine
 10
-346.6214321755072
 20
581.3783485824999
 30
0.0
 11
-355.6213134043924
 21
581.3783485824999
 31
0.0
  0
LINE
  5
87
330
1F
100
AcDbEntity
  8
C-A
  6
Continuous
 62
     3
370
     9
100
AcDbLine
 10
-331.6213826875426
 20
575.3781803234205
 30
0.0
 11
-340.6212639164278
 21
575.3781803234205
 31
0.0
  0
LINE
  5
88
330
1F
100
AcDbEntity
  8
C-A
  6
Continuous
 62
     3
370
     9
100
AcDbLine
 10
-331.6213826875426
 20
581.3783485824999
 30
0.0
 11
-340.6212639164278
 21
581.3783485824999
 31
0.0
  0
LINE
  5
89
330
1F
100
AcDbEntity
  8
C-A
  6
Continuous
 62
     3
370
     9
100
AcDbLine
 10
-316.621333199578
 20
575.3781803234205
 30
0.0
 11
-325.6213381483747
 21
575.3781803234205
 31
0.0
  0
LINE
  5
8A
330
1F
100
AcDbEntity
  8
C-A
  6
Continuous
 62
     3
370
     9
100
AcDbLine
 10
-316.621333199578
 20
581.3783485824999
 30
0.0
 11
-325.6213381483747
 21
581.3783485824999
 31
0.0
  0
LINE
  5
8B
330
1F
100
AcDbEntity
  8
C-A
  6
Continuous
 62
     3
370
     9
100
AcDbLine
 10
-370.621362892357
 20
381.3781836226181
 30
0.0
 11
-370.621362892357
 21
675.3782628033614
 31
0.0
  0
LINE
  5
8C
330
1F
100
AcDbEntity
  8
C-A
  6
Continuous
 62
     3
370
     9
100
AcDbLine
 10
-355.6213134043924
 20
381.3781836226181
 30
0.0
 11
-355.6213134043924
 21
675.3782628033614
 31
0.0
  0
LINE
  5
8D
330
1F
100
AcDbEntity
  8
C-A
  6
Continuous
 62
     3
370
     9
100
AcDbLine
 10
-361.6213579435603
 20
381.3781836226181
 30
0.0
 11
-361.6213579435603
 21
675.3782628033614
 31
0.0
  0
LINE
  5
8E
330
1F
100
AcDbEntity
  8
C-A
  6
Continuous
 62
     3
370
     9
100
AcDbLine
 10
-340.6213876363393
 20
381.3781836226181
 30
0.0
 11
-340.6213876363393
 21
675.3782628033614
 31
0.0
  0
LINE
  5
8F
330
1F
100
AcDbEntity
  8
C-A
  6
Continuous
 62
     3
370
     9
100
AcDbLine
 10
-346.6214321755072
 20
381.3781836226181
 30
0.0
 11
-346.6214321755072
 21
675.3782628033614
 31
0.0
  0
LINE
  5
90
330
1F
100
AcDbEntity
  8
C-A
  6
Continuous
 62
     3
370
     9
100
AcDbLine
 10
-325.6213381483747
 20
381.3781836226181
 30
0.0
 11
-325.6213381483747
 21
675.3782628033614
 31
0.0
  0
LINE
  5
91
330
1F
100
AcDbEntity
  8
C-A
  6
Continuous
 62
     3
370
     9
100
AcDbLine
 10
-331.6213826875426
 20
381.3781836226181
 30
0.0
 11
-331.6213826875426
 21
675.3782628033614
 31
0.0
  0
LINE
  5
92
330
1F
100
AcDbEntity
  8
C-A
  6
Continuous
 62
     3
370
     9
100
AcDbLine
 10
-301.6215311514361
 20
475.3782215633908
 30
0.0
 11
-310.6214123803213
 21
475.3782215633908
 31
0.0
  0
LINE
  5
93
330
1F
100
AcDbEntity
  8
C-A
  6
Continuous
 62
     3
370
     9
100
AcDbLine
 10
-301.6215311514361
 20
481.378266102559
 30
0.0
 11
-310.6214123803213
 21
481.378266102559
 31
0.0
  0
LINE
  5
94
330
1F
100
AcDbEntity
  8
C-A
  6
Continuous
 62
     3
370
     9
100
AcDbLine
 10
-301.6215311514361
 20
575.3781803234205
 30
0.0
 11
-310.6214123803213
 21
575.3781803234205
 31
0.0
  0
LINE
  5
95
330
1F
100
AcDbEntity
  8
C-A
  6
Continuous
 62
     3
370
     9
100
AcDbLine
 10
-301.6215311514361
 20
581.3783485824999
 30
0.0
 11
-310.6214123803213
 21
581.3783485824999
 31
0.0
  0
LINE
  5
96
330
1F
100
AcDbEntity
  8
C-A
  6
Continuous
 62
     3
370
     9
100
AcDbLine
 10
-310.6214123803213
 20
381.3781836226181
 30
0.0
 11
-310.6214123803213
 21
675.3782628033614
 31
0.0
  0
LINE
  5
97
330
1F
100
AcDbEntity
  8
C-A
  6
Continuous
 62
     3
370
     9
100
AcDbLine
 10
-316.621333199578
 20
381.3781836226181
 30
0.0
 11
-316.621333199578
 21
675.3782628033614
 31
0.0
  0
LINE
  5
98
330
1F
100
AcDbEntity
  8
C-A
  6
Continuous
 62
     3
370
     9
100
AcDbLine
 10
-286.6213579435603
 20
475.3782215633908
 30
0.0
 11
-295.621362892357
 21
475.3782215633908
 31
0.0
  0
LINE
  5
99
330
1F
100
AcDbEntity
  8
C-A
  6
Continuous
 62
     3
370
     9
100
AcDbLine
 10
-286.6213579435603
 20
481.378266102559
 30
0.0
 11
-295.621362892357
 21
481.378266102559
 31
0.0
  0
LINE
  5
9A
330
1F
100
AcDbEntity
  8
C-A
  6
Continuous
 62
     3
370
     9
100
AcDbLine
 10
-286.6213579435603
 20
575.3781803234205
 30
0.0
 11
-295.621362892357
 21
575.3781803234205
 31
0.0
  0
LINE
  5
9B
330
1F
100
AcDbEntity
  8
C-A
  6
Continuous
 62
     3
370
     9
100
AcDbLine
 10
-286.6213579435603
 20
581.3783485824999
 30
0.0
 11
-295.621362892357
 21
581.3783485824999
 31
0.0
  0
LINE
  5
9C
330
1F
100
AcDbEntity
  8
C-A
  6
Continuous
 62
     3
370
     9
100
AcDbLine
 10
-295.621362892357
 20
381.3781836226181
 30
0.0
 11
-295.621362892357
 21
675.3782628033614
 31
0.0
  0
LINE
  5
9D
330
1F
100
AcDbEntity
  8
C-A
  6
Continuous
 62
     3
370
     9
100
AcDbLine
 10
-301.6212837116137
 20
381.3781836226181
 30
0.0
 11
-301.6212837116137
 21
675.3782628033614
 31
0.0
  0
LINE
  5
9E
330
1F
100
AcDbEntity
  8
C-A
  6
Continuous
 62
     3
370
     9
100
AcDbLine
 10
-271.6214321755072
 20
475.3782215633908
 30
0.0
 11
-280.6213134043924
 21
475.3782215633908
 31
0.0
  0
LINE
  5
9F
330
1F
100
AcDbEntity
  8
C-A
  6
Continuous
 62
     3
370
     9
100
AcDbLine
 10
-271.6214321755072
 20
481.378266102559
 30
0.0
 11
-280.6213134043924
 21
481.378266102559
 31
0.0
  0
LINE
  5
A0
330
1F
100
AcDbEntity
  8
C-A
  6
Continuous
 62
     3
370
     9
100
AcDbLine
 10
-271.6214321755072
 20
575.3781803234205
 30
0.0
 11
-280.6213134043924
 21
575.3781803234205
 31
0.0
  0
LINE
  5
A1
330
1F
100
AcDbEntity
  8
C-A
  6
Continuous
 62
     3
370
     9
100
AcDbLine
 10
-271.6214321755072
 20
581.3783485824999
 30
0.0
 11
-280.6213134043924
 21
581.3783485824999
 31
0.0
  0
LINE
  5
A2
330
1F
100
AcDbEntity
  8
C-A
  6
Continuous
 62
     3
370
     9
100
AcDbLine
 10
-280.6213134043924
 20
381.3781836226181
 30
0.0
 11
-280.6213134043924
 21
675.3782628033614
 31
0.0
  0
LINE
  5
A3
330
1F
100
AcDbEntity
  8
C-A
  6
Continuous
 62
     3
370
     9
100
AcDbLine
 10
-286.6213579435603
 20
381.3781836226181
 30
0.0
 11
-286.6213579435603
 21
675.3782628033614
 31
0.0
  0
LINE
  5
A4
330
1F
100
AcDbEntity
  8
C-A
  6
Continuous
 62
     3
370
     9
100
AcDbLine
 10
-256.6213826875426
 20
475.3782215633908
 30
0.0
 11
-265.6212639164278
 21
475.3782215633908
 31
0.0
  0
LINE
  5
A5
330
1F
100
AcDbEntity
  8
C-A
  6
Continuous
 62
     3
370
     9
100
AcDbLine
 10
-256.6213826875426
 20
481.378266102559
 30
0.0
 11
-265.6212639164278
 21
481.378266102559
 31
0.0
  0
LINE
  5
A6
330
1F
100
AcDbEntity
  8
C-A
  6
Continuous
 62
     3
370
     9
100
AcDbLine
 10
-256.6213826875426
 20
575.3781803234205
 30
0.0
 11
-265.6212639164278
 21
575.3781803234205
 31
0.0
  0
LINE
  5
A7
330
1F
100
AcDbEntity
  8
C-A
  6
Continuous
 62
     3
370
     9
100
AcDbLine
 10
-256.6213826875426
 20
581.3783485824999
 30
0.0
 11
-265.6212639164278
 21
581.3783485824999
 31
0.0
  0
LINE
  5
A8
330
1F
100
AcDbEntity
  8
C-A
  6
Continuous
 62
     3
370
     9
100
AcDbLine
 10
-265.6212639164278
 20
381.3781836226181
 30
0.0
 11
-265.6212639164278
 21
675.3782628033614
 31
0.0
  0
LINE
  5
A9
330
1F
100
AcDbEntity
  8
C-A
  6
Continuous
 62
     3
370
     9
100
AcDbLine
 10
-271.6213084555957
 20
381.3781836226181
 30
0.0
 11
-271.6213084555957
 21
675.3782628033614
 31
0.0
  0
LINE
  5
AA
330
1F
100
AcDbEntity
  8
C-A
  6
Continuous
 62
     3
370
     9
100
AcDbLine
 10
-241.6214569194895
 20
475.3782215633908
 30
0.0
 11
-250.6213381483747
 21
475.3782215633908
 31
0.0
  0
LINE
  5
AB
330
1F
100
AcDbEntity
  8
C-A
  6
Continuous
 62
     3
370
     9
100
AcDbLine
 10
-241.6214569194895
 20
481.378266102559
 30
0.0
 11
-250.6213381483747
 21
481.378266102559
 31
0.0
  0
LINE
  5
AC
330
1F
100
AcDbEntity
  8
C-A
  6
Continuous
 62
     3
370
     9
100
AcDbLine
 10
-241.6214569194895
 20
575.3781803234205
 30
0.0
 11
-250.6213381483747
 21
575.3781803234205
 31
0.0
  0
LINE
  5
AD
330
1F
100
AcDbEntity
  8
C-A
  6
Continuous
 62
     3
370
     9
100
AcDbLine
 10
-241.6214569194895
 20
581.3783485824999
 30
0.0
 11
-250.6213381483747
 21
581.3783485824999
 31
0.0
  0
LINE
  5
AE
330
1F
100
AcDbEntity
  8
C-A
  6
Continuous
 62
     3
370
     9
100
AcDbLine
 10
-250.6213381483747
 20
381.3781836226181
 30
0.0
 11
-250.6213381483747
 21
675.3782628033614
 31
0.0
  0
LINE
  5
AF
330
1F
100
AcDbEntity
  8
C-A
  6
Continuous
 62
     3
370
     9
100
AcDbLine
 10
-256.6213826875426
 20
381.3781836226181
 30
0.0
 11
-256.6213826875426
 21
675.3782628033614
 31
0.0
  0
LINE
  5
B0
330
1F
100
AcDbEntity
  8
C-A
  6
Continuous
 62
     3
370
     9
100
AcDbLine
 10
-226.6212837116137
 20
475.3782215633908
 30
0.0
 11
-235.6212886604101
 21
475.3782215633908
 31
0.0
  0
LINE
  5
B1
330
1F
100
AcDbEntity
  8
C-A
  6
Continuous
 62
     3
370
     9
100
AcDbLine
 10
-226.6212837116137
 20
481.378266102559
 30
0.0
 11
-235.6212886604101
 21
481.378266102559
 31
0.0
  0
LINE
  5
B2
330
1F
100
AcDbEntity
  8
C-A
  6
Continuous
 62
     3
370
     9
100
AcDbLine
 10
-226.6212837116137
 20
575.3781803234205
 30
0.0
 11
-235.6212886604101
 21
575.3781803234205
 31
0.0
  0
LINE
  5
B3
330
1F
100
AcDbEntity
  8
C-A
  6
Continuous
 62
     3
370
     9
100
AcDbLine
 10
-226.6212837116137
 20
581.3783485824999
 30
0.0
 11
-235.6212886604101
 21
581.3783485824999
 31
0.0
  0
LINE
  5
B4
330
1F
100
AcDbEntity
  8
C-A
  6
Continuous
 62
     3
370
     9
100
AcDbLine
 10
-235.6212886604101
 20
381.3781836226181
 30
0.0
 11
-235.6212886604101
 21
675.3782628033614
 31
0.0
  0
LINE
  5
B5
330
1F
100
AcDbEntity
  8
C-A
  6
Continuous
 62
     3
370
     9
100
AcDbLine
 10
-241.621333199578
 20
381.3781836226181
 30
0.0
 11
-241.621333199578
 21
675.3782628033614
 31
0.0
  0
LINE
  5
B6
330
1F
100
AcDbEntity
  8
C-A
  6
Continuous
 62
     3
370
     9
100
AcDbLine
 10
-211.6213579435603
 20
475.3782215633908
 30
0.0
 11
-220.621362892357
 21
475.3782215633908
 31
0.0
  0
LINE
  5
B7
330
1F
100
AcDbEntity
  8
C-A
  6
Continuous
 62
     3
370
     9
100
AcDbLine
 10
-211.6213579435603
 20
481.378266102559
 30
0.0
 11
-220.621362892357
 21
481.378266102559
 31
0.0
  0
LINE
  5
B8
330
1F
100
AcDbEntity
  8
C-A
  6
Continuous
 62
     3
370
     9
100
AcDbLine
 10
-211.6213579435603
 20
575.3781803234205
 30
0.0
 11
-220.621362892357
 21
575.3781803234205
 31
0.0
  0
LINE
  5
B9
330
1F
100
AcDbEntity
  8
C-A
  6
Continuous
 62
     3
370
     9
100
AcDbLine
 10
-211.6213579435603
 20
581.3783485824999
 30
0.0
 11
-220.621362892357
 21
581.3783485824999
 31
0.0
  0
LINE
  5
BA
330
1F
100
AcDbEntity
  8
C-A
  6
Continuous
 62
     3
370
     9
100
AcDbLine
 10
-220.621362892357
 20
381.3781836226181
 30
0.0
 11
-220.621362892357
 21
675.3782628033614
 31
0.0
  0
LINE
  5
BB
330
1F
100
AcDbEntity
  8
C-A
  6
Continuous
 62
     3
370
     9
100
AcDbLine
 10
-226.6212837116137
 20
381.3781836226181
 30
0.0
 11
-226.6212837116137
 21
675.3782628033614
 31
0.0
  0
LINE
  5
BC
330
1F
100
AcDbEntity
  8
C-A
  6
Continuous
 62
     3
370
     9
100
AcDbLine
 10
-196.6214321755072
 20
475.3782215633908
 30
0.0
 11
-205.6214371243036
 21
475.3782215633908
 31
0.0
  0
LINE
  5
BD
330
1F
100
AcDbEntity
  8
C-A
  6
Continuous
 62
     3
370
     9
100
AcDbLine
 10
-196.6214321755072
 20
481.378266102559
 30
0.0
 11
-205.6214371243036
 21
481.378266102559
 31
0.0
  0
LINE
  5
BE
330
1F
100
AcDbEntity
  8
C-A
  6
Continuous
 62
     3
370
     9
100
AcDbLine
 10
-196.6214321755072
 20
575.3781803234205
 30
0.0
 11
-205.6214371243036
 21
575.3781803234205
 31
0.0
  0
LINE
  5
BF
330
1F
100
AcDbEntity
  8
C-A
  6
Continuous
 62
     3
370
     9
100
AcDbLine
 10
-196.6214321755072
 20
581.3783485824999
 30
0.0
 11
-205.6214371243036
 21
581.3783485824999
 31
0.0
  0
LINE
  5
C0
330
1F
100
AcDbEntity
  8
C-A
  6
Continuous
 62
     3
370
     9
100
AcDbLine
 10
-181.6213826875426
 20
475.3782215633908
 30
0.0
 11
-190.6213876363393
 21
475.3782215633908
 31
0.0
  0
LINE
  5
C1
330
1F
100
AcDbEntity
  8
C-A
  6
Continuous
 62
     3
370
     9
100
AcDbLine
 10
-181.6213826875426
 20
481.378266102559
 30
0.0
 11
-190.6213876363393
 21
481.378266102559
 31
0.0
  0
LINE
  5
C2
330
1F
100
AcDbEntity
  8
C-A
  6
Continuous
 62
     3
370
     9
100
AcDbLine
 10
-181.6213826875426
 20
575.3781803234205
 30
0.0
 11
-190.6213876363393
 21
575.3781803234205
 31
0.0
  0
LINE
  5
C3
330
1F
100
AcDbEntity
  8
C-A
  6
Continuous
 62
     3
370
     9
100
AcDbLine
 10
-181.6213826875426
 20
581.3783485824999
 30
0.0
 11
-190.6213876363393
 21
581.3783485824999
 31
0.0
  0
LINE
  5
C4
330
1F
100
AcDbEntity
  8
C-A
  6
Continuous
 62
     3
370
     9
100
AcDbLine
 10
-166.621333199578
 20
475.3782215633908
 30
0.0
 11
-175.6212144284632
 21
475.3782215633908
 31
0.0
  0
LINE
  5
C5
330
1F
100
AcDbEntity
  8
C-A
  6
Continuous
 62
     3
370
     9
100
AcDbLine
 10
-166.621333199578
 20
481.378266102559
 30
0.0
 11
-175.6212144284632
 21
481.378266102559
 31
0.0
  0
LINE
  5
C6
330
1F
100
AcDbEntity
  8
C-A
  6
Continuous
 62
     3
370
     9
100
AcDbLine
 10
-166.621333199578
 20
575.3781803234205
 30
0.0
 11
-175.6212144284632
 21
575.3781803234205
 31
0.0
  0
LINE
  5
C7
330
1F
100
AcDbEntity
  8
C-A
  6
Continuous
 62
     3
370
     9
100
AcDbLine
 10
-166.621333199578
 20
581.3783485824999
 30
0.0
 11
-175.6212144284632
 21
581.3783485824999
 31
0.0
  0
LINE
  5
C8
330
1F
100
AcDbEntity
  8
C-A
  6
Continuous
 62
     3
370
     9
100
AcDbLine
 10
-151.6214074315249
 20
575.3781803234205
 30
0.0
 11
-160.6212886604101
 21
575.3781803234205
 31
0.0
  0
LINE
  5
C9
330
1F
100
AcDbEntity
  8
C-A
  6
Continuous
 62
     3
370
     9
100
AcDbLine
 10
-151.6214074315249
 20
581.3783485824999
 30
0.0
 11
-160.6212886604101
 21
581.3783485824999
 31
0.0
  0
LINE
  5
CA
330
1F
100
AcDbEntity
  8
C-A
  6
Continuous
 62
     3
370
     9
100
AcDbLine
 10
-136.6214816634718
 20
575.3781803234205
 30
0.0
 11
-145.621362892357
 21
575.3781803234205
 31
0.0
  0
LINE
  5
CB
330
1F
100
AcDbEntity
  8
C-A
  6
Continuous
 62
     3
370
     9
100
AcDbLine
 10
-136.6214816634718
 20
581.3783485824999
 30
0.0
 11
-145.621362892357
 21
581.3783485824999
 31
0.0
  0
LINE
  5
CC
330
1F
100
AcDbEntity
  8
C-A
  6
Continuous
 62
     3
370
     9
100
AcDbLine
 10
-121.6214321755072
 20
575.3781803234205
 30
0.0
 11
-130.6213134043924
 21
575.3781803234205
 31
0.0
  0
LINE
  5
CD
330
1F
100
AcDbEntity
  8
C-A
  6
Continuous
 62
     3
370
     9
100
AcDbLine
 10
-121.6214321755072
 20
581.3783485824999
 30
0.0
 11
-130.6213134043924
 21
581.3783485824999
 31
0.0
  0
LINE
  5
CE
330
1F
100
AcDbEntity
  8
C-A
  6
Continuous
 62
     3
370
     9
100
AcDbLine
 10
-106.6212589676314
 20
575.3781803234205
 30
0.0
 11
-115.6212639164278
 21
575.3781803234205
 31
0.0
  0
LINE
  5
CF
330
1F
100
AcDbEntity
  8
C-A
  6
Continuous
 62
     3
370
     9
100
AcDbLine
 10
-106.6212589676314
 20
581.3783485824999
 30
0.0
 11
-115.6212639164278
 21
581.3783485824999
 31
0.0
  0
LINE
  5
D0
330
1F
100
AcDbEntity
  8
C-A
  6
Continuous
 62
     3
370
     9
100
AcDbLine
 10
-376.6212837116137
 20
675.3782628033614
 30
0.0
 11
-42.25065514848012
 21
675.3782628033614
 31
0.0
  0
LINE
  5
D1
330
1F
100
AcDbEntity
  8
C-A
  6
Continuous
 62
     3
370
     9
100
AcDbLine
 10
-211.9917753580452
 20
381.3781836226181
 30
0.0
 11
-376.6212837116137
 21
381.3781836226181
 31
0.0
  0
LINE
  5
D2
330
1F
100
AcDbEntity
  8
C-A
  6
Continuous
 62
     3
370
     9
100
AcDbLine
 10
-205.6214371243036
 20
392.4122676333866
 30
0.0
 11
-205.6214371243036
 21
675.3782628033614
 31
0.0
  0
LINE
  5
D3
330
1F
100
AcDbEntity
  8
C-A
  6
Continuous
 62
     3
370
     9
100
AcDbLine
 10
-211.6212342236491
 20
382.0200425225335
 30
0.0
 11
-211.6212342236491
 21
675.3782628033614
 31
0.0
  0
LINE
  5
D4
330
1F
100
AcDbEntity
  8
C-A
  6
Continuous
 62
     3
370
     9
100
AcDbLine
 10
-190.6213876363393
 20
418.3930778503418
 30
0.0
 11
-190.6213876363393
 21
675.3782628033614
 31
0.0
  0
LINE
  5
D5
330
1F
100
AcDbEntity
  8
C-A
  6
Continuous
 62
     3
370
     9
100
AcDbLine
 10
-196.6213084555957
 20
408.0006052996663
 30
0.0
 11
-196.6213084555957
 21
675.3782628033614
 31
0.0
  0
LINE
  5
D6
330
1F
100
AcDbEntity
  8
C-A
  6
Continuous
 62
     3
370
     9
100
AcDbLine
 10
-175.6212144284632
 20
444.3740117872085
 30
0.0
 11
-175.6212144284632
 21
675.3782628033614
 31
0.0
  0
LINE
  5
D7
330
1F
100
AcDbEntity
  8
C-A
  6
Continuous
 62
     3
370
     9
100
AcDbLine
 10
-181.6213826875426
 20
433.98129179671
 30
0.0
 11
-181.6213826875426
 21
675.3782628033614
 31
0.0
  0
LINE
  5
D8
330
1F
100
AcDbEntity
  8
C-A
  6
Continuous
 62
     3
370
     9
100
AcDbLine
 10
-157.7209227793924
 20
475.3782215633908
 30
0.0
 11
-160.6212886604101
 21
475.3782215633908
 31
0.0
  0
LINE
  5
D9
330
1F
100
AcDbEntity
  8
C-A
  6
Continuous
 62
     3
370
     9
100
AcDbLine
 10
-154.256641542589
 20
481.378266102559
 30
0.0
 11
-160.6212886604101
 21
481.378266102559
 31
0.0
  0
LINE
  5
DA
330
1F
100
AcDbEntity
  8
C-A
  6
Continuous
 62
     3
370
     9
100
AcDbLine
 10
-160.6212886604101
 20
470.3543271245184
 30
0.0
 11
-160.6212886604101
 21
675.3782628033614
 31
0.0
  0
LINE
  5
DB
330
1F
100
AcDbEntity
  8
C-A
  6
Continuous
 62
     3
370
     9
100
AcDbLine
 10
-166.621333199578
 20
459.9622257335767
 30
0.0
 11
-166.621333199578
 21
675.3782628033614
 31
0.0
  0
LINE
  5
DC
330
1F
100
AcDbEntity
  8
C-A
  6
Continuous
 62
     3
370
     9
100
AcDbLine
 10
-145.621362892357
 20
496.335261061385
 30
0.0
 11
-145.621362892357
 21
675.3782628033614
 31
0.0
  0
LINE
  5
DD
330
1F
100
AcDbEntity
  8
C-A
  6
Continuous
 62
     3
370
     9
100
AcDbLine
 10
-151.6212837116137
 20
485.9430359505319
 30
0.0
 11
-151.6212837116137
 21
675.3782628033614
 31
0.0
  0
LINE
  5
DE
330
1F
100
AcDbEntity
  8
C-A
  6
Continuous
 62
     3
370
     9
100
AcDbLine
 10
-130.6213134043924
 20
522.3161949982514
 30
0.0
 11
-130.6213134043924
 21
675.3782628033614
 31
0.0
  0
LINE
  5
DF
330
1F
100
AcDbEntity
  8
C-A
  6
Continuous
 62
     3
370
     9
100
AcDbLine
 10
-136.6212342236491
 20
511.9237224475759
 30
0.0
 11
-136.6212342236491
 21
675.3782628033614
 31
0.0
  0
LINE
  5
E0
330
1F
100
AcDbEntity
  8
C-A
  6
Continuous
 62
     3
370
     9
100
AcDbLine
 10
-115.6212639164278
 20
548.297128935118
 30
0.0
 11
-115.6212639164278
 21
675.3782628033614
 31
0.0
  0
LINE
  5
E1
330
1F
100
AcDbEntity
  8
C-A
  6
Continuous
 62
     3
370
     9
100
AcDbLine
 10
-121.6214321755072
 20
537.9044089446197
 30
0.0
 11
-121.6214321755072
 21
675.3782628033614
 31
0.0
  0
LINE
  5
E2
330
1F
100
AcDbEntity
  8
C-A
  6
Continuous
 62
     3
370
     9
100
AcDbLine
 10
-99.9857889639361
 20
575.3781803234205
 30
0.0
 11
-100.6212144284632
 21
575.3781803234205
 31
0.0
  0
LINE
  5
E3
330
1F
100
AcDbEntity
  8
C-A
  6
Continuous
 62
     3
370
     9
100
AcDbLine
 10
-96.52163144704446
 20
581.3783485824999
 30
0.0
 11
-100.6212144284632
 21
581.3783485824999
 31
0.0
  0
LINE
  5
E4
330
1F
100
AcDbEntity
  8
C-A
  6
Continuous
 62
     3
370
     9
100
AcDbLine
 10
-100.6212144284632
 20
574.277444272428
 30
0.0
 11
-100.6212144284632
 21
675.3782628033614
 31
0.0
  0
LINE
  5
E5
330
1F
100
AcDbEntity
  8
C-A
  6
Continuous
 62
     3
370
     9
100
AcDbLine
 10
-106.6212589676314
 20
563.8853428814864
 30
0.0
 11
-106.6212589676314
 21
675.3782628033614
 31
0.0
  0
LINE
  5
E6
330
1F
100
AcDbEntity
  8
C-A
  6
Continuous
 62
     3
370
     9
100
AcDbLine
 10
-85.62141238032126
 20
600.2583782092947
 30
0.0
 11
-85.62141238032126
 21
675.3782628033614
 31
0.0
  0
LINE
  5
E7
330
1F
100
AcDbEntity
  8
C-A
  6
Continuous
 62
     3
370
     9
100
AcDbLine
 10
-91.62120947966685
 20
589.8661530984416
 30
0.0
 11
-91.62120947966685
 21
675.3782628033614
 31
0.0
  0
LINE
  5
E8
330
1F
100
AcDbEntity
  8
C-A
  6
Continuous
 62
     3
370
     9
100
AcDbLine
 10
-70.62136289235696
 20
626.2391884262499
 30
0.0
 11
-70.62136289235696
 21
675.3782628033614
 31
0.0
  0
LINE
  5
E9
330
1F
100
AcDbEntity
  8
C-A
  6
Continuous
 62
     3
370
     9
100
AcDbLine
 10
-76.62128371161373
 20
615.8467158755741
 30
0.0
 11
-76.62128371161373
 21
675.3782628033614
 31
0.0
  0
LINE
  5
EA
330
1F
100
AcDbEntity
  8
C-A
  6
Continuous
 62
     3
370
     9
100
AcDbLine
 10
-55.62131340439237
 20
652.2201223631163
 30
0.0
 11
-55.62131340439237
 21
675.3782628033614
 31
0.0
  0
LINE
  5
EB
330
1F
100
AcDbEntity
  8
C-A
  6
Continuous
 62
     3
370
     9
100
AcDbLine
 10
-61.62135794356033
 20
641.827402372618
 30
0.0
 11
-61.62135794356033
 21
675.3782628033614
 31
0.0
  0
LINE
  5
EC
330
1F
100
AcDbEntity
  8
C-A
  6
Continuous
 62
     3
370
     9
100
AcDbLine
 10
-46.62130845559574
 20
667.8083363094845
 30
0.0
 11
-46.62130845559574
 21
675.3782628033614
 31
0.0
  0
LINE
  5
ED
330
1F
100
AcDbEntity
  8
C-A
  6
Continuous
 62
     3
370
     9
100
AcDbLine
 10
-540.5191125096499
 20
678.3784706528124
 30
0.0
 11
-713.724390236107
 21
378.3783469329009
 31
0.0
  0
LINE
  5
EE
330
1F
100
AcDbEntity
  8
C-A
  6
Continuous
 62
     3
370
     9
100
AcDbLine
 10
-392.6216086825806
 20
581.3785960223225
 30
0.0
 11
-383.6216037337843
 21
581.3785960223225
 31
0.0
  0
LINE
  5
EF
330
1F
100
AcDbEntity
  8
C-A
  6
Continuous
 62
     3
370
     9
100
AcDbLine
 10
-392.6216086825806
 20
575.378427763243
 30
0.0
 11
-383.6216037337843
 21
575.378427763243
 31
0.0
  0
LINE
  5
F0
330
1F
100
AcDbEntity
  8
C-A
  6
Continuous
 62
     3
370
     9
100
AcDbLine
 10
-407.6215344506338
 20
581.3785960223225
 30
0.0
 11
-398.6216532217489
 21
581.3785960223225
 31
0.0
  0
LINE
  5
F1
330
1F
100
AcDbEntity
  8
C-A
  6
Continuous
 62
     3
370
     9
100
AcDbLine
 10
-407.6215344506338
 20
575.378427763243
 30
0.0
 11
-398.6216532217489
 21
575.378427763243
 31
0.0
  0
LINE
  5
F2
330
1F
100
AcDbEntity
  8
C-A
  6
Continuous
 62
     3
370
     9
100
AcDbLine
 10
-422.6215839385983
 20
581.3785960223225
 30
0.0
 11
-413.6217027097132
 21
581.3785960223225
 31
0.0
  0
LINE
  5
F3
330
1F
100
AcDbEntity
  8
C-A
  6
Continuous
 62
     3
370
     9
100
AcDbLine
 10
-422.6215839385983
 20
575.378427763243
 30
0.0
 11
-413.6217027097132
 21
575.378427763243
 31
0.0
  0
LINE
  5
F4
330
1F
100
AcDbEntity
  8
C-A
  6
Continuous
 62
     3
370
     9
100
AcDbLine
 10
-437.6215097066518
 20
581.3785960223225
 30
0.0
 11
-428.6216284777666
 21
581.3785960223225
 31
0.0
  0
LINE
  5
F5
330
1F
100
AcDbEntity
  8
C-A
  6
Continuous
 62
     3
370
     9
100
AcDbLine
 10
-437.6215097066518
 20
575.378427763243
 30
0.0
 11
-428.6216284777666
 21
575.378427763243
 31
0.0
  0
LINE
  5
F6
330
1F
100
AcDbEntity
  8
C-A
  6
Continuous
 62
     3
370
     9
100
AcDbLine
 10
-392.6216086825806
 20
481.3785135423817
 30
0.0
 11
-383.6216037337843
 21
481.3785135423817
 31
0.0
  0
LINE
  5
F7
330
1F
100
AcDbEntity
  8
C-A
  6
Continuous
 62
     3
370
     9
100
AcDbLine
 10
-392.6216086825806
 20
475.3784690032134
 30
0.0
 11
-383.6216037337843
 21
475.3784690032134
 31
0.0
  0
LINE
  5
F8
330
1F
100
AcDbEntity
  8
C-A
  6
Continuous
 62
     3
370
     9
100
AcDbLine
 10
-407.6215344506338
 20
481.3785135423817
 30
0.0
 11
-398.6216532217489
 21
481.3785135423817
 31
0.0
  0
LINE
  5
F9
330
1F
100
AcDbEntity
  8
C-A
  6
Continuous
 62
     3
370
     9
100
AcDbLine
 10
-407.6215344506338
 20
475.3784690032134
 30
0.0
 11
-398.6216532217489
 21
475.3784690032134
 31
0.0
  0
LINE
  5
FA
330
1F
100
AcDbEntity
  8
C-A
  6
Continuous
 62
     3
370
     9
100
AcDbLine
 10
-422.6215839385983
 20
481.3785135423817
 30
0.0
 11
-413.6217027097132
 21
481.3785135423817
 31
0.0
  0
LINE
  5
FB
330
1F
100
AcDbEntity
  8
C-A
  6
Continuous
 62
     3
370
     9
100
AcDbLine
 10
-422.6215839385983
 20
475.3784690032134
 30
0.0
 11
-413.6217027097132
 21
475.3784690032134
 31
0.0
  0
LINE
  5
FC
330
1F
100
AcDbEntity
  8
C-A
  6
Continuous
 62
     3
370
     9
100
AcDbLine
 10
-437.6215097066518
 20
481.3785135423817
 30
0.0
 11
-428.6216284777666
 21
481.3785135423817
 31
0.0
  0
LINE
  5
FD
330
1F
100
AcDbEntity
  8
C-A
  6
Continuous
 62
     3
370
     9
100
AcDbLine
 10
-437.6215097066518
 20
475.3784690032134
 30
0.0
 11
-428.6216284777666
 21
475.3784690032134
 31
0.0
  0
LINE
  5
FE
330
1F
100
AcDbEntity
  8
C-A
  6
Continuous
 62
     3
370
     9
100
AcDbLine
 10
-383.6216037337843
 20
675.3782628033614
 30
0.0
 11
-383.6216037337843
 21
381.3781836226181
 31
0.0
  0
LINE
  5
FF
330
1F
100
AcDbEntity
  8
C-A
  6
Continuous
 62
     3
370
     9
100
AcDbLine
 10
-398.6216532217489
 20
675.3782628033614
 30
0.0
 11
-398.6216532217489
 21
381.3781836226181
 31
0.0
  0
LINE
  5
100
330
1F
100
AcDbEntity
  8
C-A
  6
Continuous
 62
     3
370
     9
100
AcDbLine
 10
-392.6216086825806
 20
675.3782628033614
 30
0.0
 11
-392.6216086825806
 21
381.3781836226181
 31
0.0
  0
LINE
  5
101
330
1F
100
AcDbEntity
  8
C-A
  6
Continuous
 62
     3
370
     9
100
AcDbLine
 10
-413.621578989802
 20
675.3782628033614
 30
0.0
 11
-413.621578989802
 21
381.3781836226181
 31
0.0
  0
LINE
  5
102
330
1F
100
AcDbEntity
  8
C-A
  6
Continuous
 62
     3
370
     9
100
AcDbLine
 10
-407.6215344506338
 20
675.3782628033614
 30
0.0
 11
-407.6215344506338
 21
381.3781836226181
 31
0.0
  0
LINE
  5
103
330
1F
100
AcDbEntity
  8
C-A
  6
Continuous
 62
     3
370
     9
100
AcDbLine
 10
-428.6216284777666
 20
675.3782628033614
 30
0.0
 11
-428.6216284777666
 21
381.3781836226181
 31
0.0
  0
LINE
  5
104
330
1F
100
AcDbEntity
  8
C-A
  6
Continuous
 62
     3
370
     9
100
AcDbLine
 10
-422.6215839385983
 20
675.3782628033614
 30
0.0
 11
-422.6215839385983
 21
381.3781836226181
 31
0.0
  0
LINE
  5
105
330
1F
100
AcDbEntity
  8
C-A
  6
Continuous
 62
     3
370
     9
100
AcDbLine
 10
-452.6214354747049
 20
581.3785960223225
 30
0.0
 11
-443.6215542458197
 21
581.3785960223225
 31
0.0
  0
LINE
  5
106
330
1F
100
AcDbEntity
  8
C-A
  6
Continuous
 62
     3
370
     9
100
AcDbLine
 10
-452.6214354747049
 20
575.378427763243
 30
0.0
 11
-443.6215542458197
 21
575.378427763243
 31
0.0
  0
LINE
  5
107
330
1F
100
AcDbEntity
  8
C-A
  6
Continuous
 62
     3
370
     9
100
AcDbLine
 10
-452.6214354747049
 20
481.3785135423817
 30
0.0
 11
-443.6215542458197
 21
481.3785135423817
 31
0.0
  0
LINE
  5
108
330
1F
100
AcDbEntity
  8
C-A
  6
Continuous
 62
     3
370
     9
100
AcDbLine
 10
-452.6214354747049
 20
475.3784690032134
 30
0.0
 11
-443.6215542458197
 21
475.3784690032134
 31
0.0
  0
LINE
  5
109
330
1F
100
AcDbEntity
  8
C-A
  6
Continuous
 62
     3
370
     9
100
AcDbLine
 10
-443.6215542458197
 20
675.3782628033614
 30
0.0
 11
-443.6215542458197
 21
381.3781836226181
 31
0.0
  0
LINE
  5
10A
330
1F
100
AcDbEntity
  8
C-A
  6
Continuous
 62
     3
370
     9
100
AcDbLine
 10
-437.6215097066518
 20
675.3782628033614
 30
0.0
 11
-437.6215097066518
 21
381.3781836226181
 31
0.0
  0
LINE
  5
10B
330
1F
100
AcDbEntity
  8
C-A
  6
Continuous
 62
     3
370
     9
100
AcDbLine
 10
-467.6216086825806
 20
581.3785960223225
 30
0.0
 11
-458.6216037337843
 21
581.3785960223225
 31
0.0
  0
LINE
  5
10C
330
1F
100
AcDbEntity
  8
C-A
  6
Continuous
 62
     3
370
     9
100
AcDbLine
 10
-467.6216086825806
 20
575.378427763243
 30
0.0
 11
-458.6216037337843
 21
575.378427763243
 31
0.0
  0
LINE
  5
10D
330
1F
100
AcDbEntity
  8
C-A
  6
Continuous
 62
     3
370
     9
100
AcDbLine
 10
-467.6216086825806
 20
481.3785135423817
 30
0.0
 11
-458.6216037337843
 21
481.3785135423817
 31
0.0
  0
LINE
  5
10E
330
1F
100
AcDbEntity
  8
C-A
  6
Continuous
 62
     3
370
     9
100
AcDbLine
 10
-467.6216086825806
 20
475.3784690032134
 30
0.0
 11
-458.6216037337843
 21
475.3784690032134
 31
0.0
  0
LINE
  5
10F
330
1F
100
AcDbEntity
  8
C-A
  6
Continuous
 62
     3
370
     9
100
AcDbLine
 10
-458.6216037337843
 20
675.3782628033614
 30
0.0
 11
-458.6216037337843
 21
381.3781836226181
 31
0.0
  0
LINE
  5
110
330
1F
100
AcDbEntity
  8
C-A
  6
Continuous
 62
     3
370
     9
100
AcDbLine
 10
-452.6216829145275
 20
675.3782628033614
 30
0.0
 11
-452.6216829145275
 21
381.3781836226181
 31
0.0
  0
LINE
  5
111
330
1F
100
AcDbEntity
  8
C-A
  6
Continuous
 62
     3
370
     9
100
AcDbLine
 10
-482.6215344506338
 20
581.3785960223225
 30
0.0
 11
-473.6215295018374
 21
581.3785960223225
 31
0.0
  0
LINE
  5
112
330
1F
100
AcDbEntity
  8
C-A
  6
Continuous
 62
     3
370
     9
100
AcDbLine
 10
-482.6215344506338
 20
575.378427763243
 30
0.0
 11
-473.6215295018374
 21
575.378427763243
 31
0.0
  0
LINE
  5
113
330
1F
100
AcDbEntity
  8
C-A
  6
Continuous
 62
     3
370
     9
100
AcDbLine
 10
-482.6215344506338
 20
481.3785135423817
 30
0.0
 11
-473.6215295018374
 21
481.3785135423817
 31
0.0
  0
LINE
  5
114
330
1F
100
AcDbEntity
  8
C-A
  6
Continuous
 62
     3
370
     9
100
AcDbLine
 10
-482.6215344506338
 20
475.3784690032134
 30
0.0
 11
-473.6215295018374
 21
475.3784690032134
 31
0.0
  0
LINE
  5
115
330
1F
100
AcDbEntity
  8
C-A
  6
Continuous
 62
     3
370
     9
100
AcDbLine
 10
-473.6215295018374
 20
675.3782628033614
 30
0.0
 11
-473.6215295018374
 21
381.3781836226181
 31
0.0
  0
LINE
  5
116
330
1F
100
AcDbEntity
  8
C-A
  6
Continuous
 62
     3
370
     9
100
AcDbLine
 10
-467.6216086825806
 20
675.3782628033614
 30
0.0
 11
-467.6216086825806
 21
381.3781836226181
 31
0.0
  0
LINE
  5
117
330
1F
100
AcDbEntity
  8
C-A
  6
Continuous
 62
     3
370
     9
100
AcDbLine
 10
-497.6215839385983
 20
581.3785960223225
 30
0.0
 11
-488.6217027097132
 21
581.3785960223225
 31
0.0
  0
LINE
  5
118
330
1F
100
AcDbEntity
  8
C-A
  6
Continuous
 62
     3
370
     9
100
AcDbLine
 10
-497.6215839385983
 20
575.378427763243
 30
0.0
 11
-488.6217027097132
 21
575.378427763243
 31
0.0
  0
LINE
  5
119
330
1F
100
AcDbEntity
  8
C-A
  6
Continuous
 62
     3
370
     9
100
AcDbLine
 10
-497.6215839385983
 20
481.3785135423817
 30
0.0
 11
-488.6217027097132
 21
481.3785135423817
 31
0.0
  0
LINE
  5
11A
330
1F
100
AcDbEntity
  8
C-A
  6
Continuous
 62
     3
370
     9
100
AcDbLine
 10
-497.6215839385983
 20
475.3784690032134
 30
0.0
 11
-488.6217027097132
 21
475.3784690032134
 31
0.0
  0
LINE
  5
11B
330
1F
100
AcDbEntity
  8
C-A
  6
Continuous
 62
     3
370
     9
100
AcDbLine
 10
-488.6217027097132
 20
675.3782628033614
 30
0.0
 11
-488.6217027097132
 21
381.3781836226181
 31
0.0
  0
LINE
  5
11C
330
1F
100
AcDbEntity
  8
C-A
  6
Continuous
 62
     3
370
     9
100
AcDbLine
 10
-482.6216581705452
 20
675.3782628033614
 30
0.0
 11
-482.6216581705452
 21
381.3781836226181
 31
0.0
  0
LINE
  5
11D
330
1F
100
AcDbEntity
  8
C-A
  6
Continuous
 62
     3
370
     9
100
AcDbLine
 10
-512.6215097066518
 20
581.3785960223225
 30
0.0
 11
-503.6216284777666
 21
581.3785960223225
 31
0.0
  0
LINE
  5
11E
330
1F
100
AcDbEntity
  8
C-A
  6
Continuous
 62
     3
370
     9
100
AcDbLine
 10
-512.6215097066518
 20
575.378427763243
 30
0.0
 11
-503.6216284777666
 21
575.378427763243
 31
0.0
  0
LINE
  5
11F
330
1F
100
AcDbEntity
  8
C-A
  6
Continuous
 62
     3
370
     9
100
AcDbLine
 10
-512.6215097066518
 20
481.3785135423817
 30
0.0
 11
-503.6216284777666
 21
481.3785135423817
 31
0.0
  0
LINE
  5
120
330
1F
100
AcDbEntity
  8
C-A
  6
Continuous
 62
     3
370
     9
100
AcDbLine
 10
-512.6215097066518
 20
475.3784690032134
 30
0.0
 11
-503.6216284777666
 21
475.3784690032134
 31
0.0
  0
LINE
  5
121
330
1F
100
AcDbEntity
  8
C-A
  6
Continuous
 62
     3
370
     9
100
AcDbLine
 10
-503.6216284777666
 20
675.3782628033614
 30
0.0
 11
-503.6216284777666
 21
381.3781836226181
 31
0.0
  0
LINE
  5
122
330
1F
100
AcDbEntity
  8
C-A
  6
Continuous
 62
     3
370
     9
100
AcDbLine
 10
-497.6215839385983
 20
675.3782628033614
 30
0.0
 11
-497.6215839385983
 21
381.3781836226181
 31
0.0
  0
LINE
  5
123
330
1F
100
AcDbEntity
  8
C-A
  6
Continuous
 62
     3
370
     9
100
AcDbLine
 10
-527.6215591946161
 20
581.3785960223225
 30
0.0
 11
-518.6216779657309
 21
581.3785960223225
 31
0.0
  0
LINE
  5
124
330
1F
100
AcDbEntity
  8
C-A
  6
Continuous
 62
     3
370
     9
100
AcDbLine
 10
-527.6215591946161
 20
575.378427763243
 30
0.0
 11
-518.6216779657309
 21
575.378427763243
 31
0.0
  0
LINE
  5
125
330
1F
100
AcDbEntity
  8
C-A
  6
Continuous
 62
     3
370
     9
100
AcDbLine
 10
-527.6215591946161
 20
481.3785135423817
 30
0.0
 11
-518.6216779657309
 21
481.3785135423817
 31
0.0
  0
LINE
  5
126
330
1F
100
AcDbEntity
  8
C-A
  6
Continuous
 62
     3
370
     9
100
AcDbLine
 10
-527.6215591946161
 20
475.3784690032134
 30
0.0
 11
-518.6216779657309
 21
475.3784690032134
 31
0.0
  0
LINE
  5
127
330
1F
100
AcDbEntity
  8
C-A
  6
Continuous
 62
     3
370
     9
100
AcDbLine
 10
-518.6216779657309
 20
675.3782628033614
 30
0.0
 11
-518.6216779657309
 21
381.3781836226181
 31
0.0
  0
LINE
  5
128
330
1F
100
AcDbEntity
  8
C-A
  6
Continuous
 62
     3
370
     9
100
AcDbLine
 10
-512.621633426563
 20
675.3782628033614
 30
0.0
 11
-512.621633426563
 21
381.3781836226181
 31
0.0
  0
LINE
  5
129
330
1F
100
AcDbEntity
  8
C-A
  6
Continuous
 62
     3
370
     9
100
AcDbLine
 10
-542.6214849626695
 20
581.3785960223225
 30
0.0
 11
-533.6216037337842
 21
581.3785960223225
 31
0.0
  0
LINE
  5
12A
330
1F
100
AcDbEntity
  8
C-A
  6
Continuous
 62
     3
370
     9
100
AcDbLine
 10
-542.6214849626695
 20
575.378427763243
 30
0.0
 11
-533.6216037337842
 21
575.378427763243
 31
0.0
  0
LINE
  5
12B
330
1F
100
AcDbEntity
  8
C-A
  6
Continuous
 62
     3
370
     9
100
AcDbLine
 10
-542.6214849626695
 20
481.3785135423817
 30
0.0
 11
-533.6216037337842
 21
481.3785135423817
 31
0.0
  0
LINE
  5
12C
330
1F
100
AcDbEntity
  8
C-A
  6
Continuous
 62
     3
370
     9
100
AcDbLine
 10
-542.6214849626695
 20
475.3784690032134
 30
0.0
 11
-533.6216037337842
 21
475.3784690032134
 31
0.0
  0
LINE
  5
12D
330
1F
100
AcDbEntity
  8
C-A
  6
Continuous
 62
     3
370
     9
100
AcDbLine
 10
-533.6216037337842
 20
675.3782628033614
 30
0.0
 11
-533.6216037337842
 21
381.3781836226181
 31
0.0
  0
LINE
  5
12E
330
1F
100
AcDbEntity
  8
C-A
  6
Continuous
 62
     3
370
     9
100
AcDbLine
 10
-527.6215591946161
 20
675.3782628033614
 30
0.0
 11
-527.6215591946161
 21
381.3781836226181
 31
0.0
  0
LINE
  5
12F
330
1F
100
AcDbEntity
  8
C-A
  6
Continuous
 62
     3
370
     9
100
AcDbLine
 10
-557.6215344506338
 20
581.3785960223225
 30
0.0
 11
-548.6215295018374
 21
581.3785960223225
 31
0.0
  0
LINE
  5
130
330
1F
100
AcDbEntity
  8
C-A
  6
Continuous
 62
     3
370
     9
100
AcDbLine
 10
-557.6215344506338
 20
575.378427763243
 30
0.0
 11
-548.6215295018374
 21
575.378427763243
 31
0.0
  0
LINE
  5
131
330
1F
100
AcDbEntity
  8
C-A
  6
Continuous
 62
     3
370
     9
100
AcDbLine
 10
-557.6215344506338
 20
481.3785135423817
 30
0.0
 11
-548.6215295018374
 21
481.3785135423817
 31
0.0
  0
LINE
  5
132
330
1F
100
AcDbEntity
  8
C-A
  6
Continuous
 62
     3
370
     9
100
AcDbLine
 10
-557.6215344506338
 20
475.3784690032134
 30
0.0
 11
-548.6215295018374
 21
475.3784690032134
 31
0.0
  0
LINE
  5
133
330
1F
100
AcDbEntity
  8
C-A
  6
Continuous
 62
     3
370
     9
100
AcDbLine
 10
-572.6215839385984
 20
581.3785960223225
 30
0.0
 11
-563.621578989802
 21
581.3785960223225
 31
0.0
  0
LINE
  5
134
330
1F
100
AcDbEntity
  8
C-A
  6
Continuous
 62
     3
370
     9
100
AcDbLine
 10
-572.6215839385984
 20
575.378427763243
 30
0.0
 11
-563.621578989802
 21
575.378427763243
 31
0.0
  0
LINE
  5
135
330
1F
100
AcDbEntity
  8
C-A
  6
Continuous
 62
     3
370
     9
100
AcDbLine
 10
-572.6215839385984
 20
481.3785135423817
 30
0.0
 11
-563.621578989802
 21
481.3785135423817
 31
0.0
  0
LINE
  5
136
330
1F
100
AcDbEntity
  8
C-A
  6
Continuous
 62
     3
370
     9
100
AcDbLine
 10
-572.6215839385984
 20
475.3784690032134
 30
0.0
 11
-563.621578989802
 21
475.3784690032134
 31
0.0
  0
LINE
  5
137
330
1F
100
AcDbEntity
  8
C-A
  6
Continuous
 62
     3
370
     9
100
AcDbLine
 10
-587.621633426563
 20
581.3785960223225
 30
0.0
 11
-578.6217521976778
 21
581.3785960223225
 31
0.0
  0
LINE
  5
138
330
1F
100
AcDbEntity
  8
C-A
  6
Continuous
 62
     3
370
     9
100
AcDbLine
 10
-587.621633426563
 20
575.378427763243
 30
0.0
 11
-578.6217521976778
 21
575.378427763243
 31
0.0
  0
LINE
  5
139
330
1F
100
AcDbEntity
  8
C-A
  6
Continuous
 62
     3
370
     9
100
AcDbLine
 10
-587.621633426563
 20
481.3785135423817
 30
0.0
 11
-578.6217521976778
 21
481.3785135423817
 31
0.0
  0
LINE
  5
13A
330
1F
100
AcDbEntity
  8
C-A
  6
Continuous
 62
     3
370
     9
100
AcDbLine
 10
-587.621633426563
 20
475.3784690032134
 30
0.0
 11
-578.6217521976778
 21
475.3784690032134
 31
0.0
  0
LINE
  5
13B
330
1F
100
AcDbEntity
  8
C-A
  6
Continuous
 62
     3
370
     9
100
AcDbLine
 10
-602.6215591946161
 20
481.3785135423817
 30
0.0
 11
-593.6216779657309
 21
481.3785135423817
 31
0.0
  0
LINE
  5
13C
330
1F
100
AcDbEntity
  8
C-A
  6
Continuous
 62
     3
370
     9
100
AcDbLine
 10
-602.6215591946161
 20
475.3784690032134
 30
0.0
 11
-593.6216779657309
 21
475.3784690032134
 31
0.0
  0
LINE
  5
13D
330
1F
100
AcDbEntity
  8
C-A
  6
Continuous
 62
     3
370
     9
100
AcDbLine
 10
-617.6214849626695
 20
481.3785135423817
 30
0.0
 11
-608.6216037337842
 21
481.3785135423817
 31
0.0
  0
LINE
  5
13E
330
1F
100
AcDbEntity
  8
C-A
  6
Continuous
 62
     3
370
     9
100
AcDbLine
 10
-617.6214849626695
 20
475.3784690032134
 30
0.0
 11
-608.6216037337842
 21
475.3784690032134
 31
0.0
  0
LINE
  5
13F
330
1F
100
AcDbEntity
  8
C-A
  6
Continuous
 62
     3
370
     9
100
AcDbLine
 10
-632.6215344506338
 20
481.3785135423817
 30
0.0
 11
-623.6216532217488
 21
481.3785135423817
 31
0.0
  0
LINE
  5
140
330
1F
100
AcDbEntity
  8
C-A
  6
Continuous
 62
     3
370
     9
100
AcDbLine
 10
-632.6215344506338
 20
475.3784690032134
 30
0.0
 11
-623.6216532217488
 21
475.3784690032134
 31
0.0
  0
LINE
  5
141
330
1F
100
AcDbEntity
  8
C-A
  6
Continuous
 62
     3
370
     9
100
AcDbLine
 10
-647.6217076585099
 20
481.3785135423817
 30
0.0
 11
-638.6217027097132
 21
481.3785135423817
 31
0.0
  0
LINE
  5
142
330
1F
100
AcDbEntity
  8
C-A
  6
Continuous
 62
     3
370
     9
100
AcDbLine
 10
-647.6217076585099
 20
475.3784690032134
 30
0.0
 11
-638.6217027097132
 21
475.3784690032134
 31
0.0
  0
LINE
  5
143
330
1F
100
AcDbEntity
  8
C-A
  6
Continuous
 62
     3
370
     9
100
AcDbLine
 10
-377.6216829145275
 20
381.3781836226181
 30
0.0
 11
-711.9923114776609
 21
381.3781836226181
 31
0.0
  0
LINE
  5
144
330
1F
100
AcDbEntity
  8
C-A
  6
Continuous
 62
     3
370
     9
100
AcDbLine
 10
-542.251191268096
 20
675.3782628033614
 30
0.0
 11
-377.6216829145275
 21
675.3782628033614
 31
0.0
  0
LINE
  5
145
330
1F
100
AcDbEntity
  8
C-A
  6
Continuous
 62
     3
370
     9
100
AcDbLine
 10
-548.6215295018374
 20
664.3449211120605
 30
0.0
 11
-548.6215295018374
 21
381.3781836226181
 31
0.0
  0
LINE
  5
146
330
1F
100
AcDbEntity
  8
C-A
  6
Continuous
 62
     3
370
     9
100
AcDbLine
 10
-542.6217324024922
 20
674.736898783091
 30
0.0
 11
-542.6217324024922
 21
381.3781836226181
 31
0.0
  0
LINE
  5
147
330
1F
100
AcDbEntity
  8
C-A
  6
Continuous
 62
     3
370
     9
100
AcDbLine
 10
-563.621578989802
 20
638.3639871751941
 30
0.0
 11
-563.621578989802
 21
381.3781836226181
 31
0.0
  0
LINE
  5
148
330
1F
100
AcDbEntity
  8
C-A
  6
Continuous
 62
     3
370
     9
100
AcDbLine
 10
-557.6216581705453
 20
648.756212286047
 30
0.0
 11
-557.6216581705453
 21
381.3781836226181
 31
0.0
  0
LINE
  5
149
330
1F
100
AcDbEntity
  8
C-A
  6
Continuous
 62
     3
370
     9
100
AcDbLine
 10
-578.6217521976778
 20
612.3830532383274
 30
0.0
 11
-578.6217521976778
 21
381.3781836226181
 31
0.0
  0
LINE
  5
14A
330
1F
100
AcDbEntity
  8
C-A
  6
Continuous
 62
     3
370
     9
100
AcDbLine
 10
-572.6215839385984
 20
622.7755257890033
 30
0.0
 11
-572.6215839385984
 21
381.3781836226181
 31
0.0
  0
LINE
  5
14B
330
1F
100
AcDbEntity
  8
C-A
  6
Continuous
 62
     3
370
     9
100
AcDbLine
 10
-596.5221675666601
 20
581.3785960223225
 30
0.0
 11
-593.6216779657309
 21
581.3785960223225
 31
0.0
  0
LINE
  5
14C
330
1F
100
AcDbEntity
  8
C-A
  6
Continuous
 62
     3
370
     9
100
AcDbLine
 10
-599.986325083552
 20
575.378427763243
 30
0.0
 11
-593.6216779657309
 21
575.378427763243
 31
0.0
  0
LINE
  5
14D
330
1F
100
AcDbEntity
  8
C-A
  6
Continuous
 62
     3
370
     9
100
AcDbLine
 10
-593.6216779657309
 20
586.4021193014607
 30
0.0
 11
-593.6216779657309
 21
381.3781836226181
 31
0.0
  0
LINE
  5
14E
330
1F
100
AcDbEntity
  8
C-A
  6
Continuous
 62
     3
370
     9
100
AcDbLine
 10
-587.621633426563
 20
596.7945918521366
 30
0.0
 11
-587.621633426563
 21
381.3781836226181
 31
0.0
  0
LINE
  5
14F
330
1F
100
AcDbEntity
  8
C-A
  6
Continuous
 62
     3
370
     9
100
AcDbLine
 10
-608.6216037337842
 20
560.4216802442397
 30
0.0
 11
-608.6216037337842
 21
381.3781836226181
 31
0.0
  0
LINE
  5
150
330
1F
100
AcDbEntity
  8
C-A
  6
Continuous
 62
     3
370
     9
100
AcDbLine
 10
-602.6216829145276
 20
570.8136579152701
 30
0.0
 11
-602.6216829145276
 21
381.3781836226181
 31
0.0
  0
LINE
  5
151
330
1F
100
AcDbEntity
  8
C-A
  6
Continuous
 62
     3
370
     9
100
AcDbLine
 10
-623.6216532217488
 20
534.440746307373
 30
0.0
 11
-623.6216532217488
 21
381.3781836226181
 31
0.0
  0
LINE
  5
152
330
1F
100
AcDbEntity
  8
C-A
  6
Continuous
 62
     3
370
     9
100
AcDbLine
 10
-617.6216086825807
 20
544.8329714182262
 30
0.0
 11
-617.6216086825807
 21
381.3781836226181
 31
0.0
  0
LINE
  5
153
330
1F
100
AcDbEntity
  8
C-A
  6
Continuous
 62
     3
370
     9
100
AcDbLine
 10
-638.6217027097132
 20
508.4599360904178
 30
0.0
 11
-638.6217027097132
 21
381.3781836226181
 31
0.0
  0
LINE
  5
154
330
1F
100
AcDbEntity
  8
C-A
  6
Continuous
 62
     3
370
     9
100
AcDbLine
 10
-632.6215344506338
 20
518.8524086410937
 30
0.0
 11
-632.6215344506338
 21
381.3781836226181
 31
0.0
  0
LINE
  5
155
330
1F
100
AcDbEntity
  8
C-A
  6
Continuous
 62
     3
370
     9
100
AcDbLine
 10
-654.2570539422934
 20
481.3785135423817
 30
0.0
 11
-653.6216284777665
 21
481.3785135423817
 31
0.0
  0
LINE
  5
156
330
1F
100
AcDbEntity
  8
C-A
  6
Continuous
 62
     3
370
     9
100
AcDbLine
 10
-657.7213351790967
 20
475.3784690032134
 30
0.0
 11
-653.6216284777665
 21
475.3784690032134
 31
0.0
  0
LINE
  5
157
330
1F
100
AcDbEntity
  8
C-A
  6
Continuous
 62
     3
370
     9
100
AcDbLine
 10
-653.6216284777665
 20
482.4790021535512
 30
0.0
 11
-653.6216284777665
 21
381.3781836226181
 31
0.0
  0
LINE
  5
158
330
1F
100
AcDbEntity
  8
C-A
  6
Continuous
 62
     3
370
     9
100
AcDbLine
 10
-647.6217076585099
 20
492.871474704227
 30
0.0
 11
-647.6217076585099
 21
381.3781836226181
 31
0.0
  0
LINE
  5
159
330
1F
100
AcDbEntity
  8
C-A
  6
Continuous
 62
     3
370
     9
100
AcDbLine
 10
-668.6215542458197
 20
456.4985630963301
 30
0.0
 11
-668.6215542458197
 21
381.3781836226181
 31
0.0
  0
LINE
  5
15A
330
1F
100
AcDbEntity
  8
C-A
  6
Continuous
 62
     3
370
     9
100
AcDbLine
 10
-662.6217571464745
 20
466.8905407673606
 30
0.0
 11
-662.6217571464745
 21
381.3781836226181
 31
0.0
  0
LINE
  5
15B
330
1F
100
AcDbEntity
  8
C-A
  6
Continuous
 62
     3
370
     9
100
AcDbLine
 10
-683.6217274536955
 20
430.5177528793749
 30
0.0
 11
-683.6217274536955
 21
381.3781836226181
 31
0.0
  0
LINE
  5
15C
330
1F
100
AcDbEntity
  8
C-A
  6
Continuous
 62
     3
370
     9
100
AcDbLine
 10
-677.6216829145276
 20
440.9099779902277
 30
0.0
 11
-677.6216829145276
 21
381.3781836226181
 31
0.0
  0
LINE
  5
15D
330
1F
100
AcDbEntity
  8
C-A
  6
Continuous
 62
     3
370
     9
100
AcDbLine
 10
-698.6217769416601
 20
404.5368189425082
 30
0.0
 11
-698.6217769416601
 21
381.3781836226181
 31
0.0
  0
LINE
  5
15E
330
1F
100
AcDbEntity
  8
C-A
  6
Continuous
 62
     3
370
     9
100
AcDbLine
 10
-692.6216086825807
 20
414.929291493184
 30
0.0
 11
-692.6216086825807
 21
381.3781836226181
 31
0.0
  0
LINE
  5
15F
330
1F
100
AcDbEntity
  8
C-A
  6
Continuous
 62
     3
370
     9
100
AcDbLine
 10
-707.6216581705453
 20
388.9483575563173
 30
0.0
 11
-707.6216581705453
 21
381.3781836226181
 31
0.0
  0
LINE
  5
160
330
1F
100
AcDbEntity
  8
C-5
  6
Continuous
 62
     7
370
     9
100
AcDbLine
 10
-273.1446717236491
 20
444.1108595358358
 30
0.0
 11
-73.14376444429939
 21
444.1108595358358
 31
0.0
  0
LINE
  5
161
330
1F
100
AcDbEntity
  8
C-5
  6
Continuous
 62
     7
370
     9
100
AcDbLine
 10
-73.14376444429939
 20
444.1108595358358
 30
0.0
 11
-73.14376444429939
 21
544.111436895422
 31
0.0
  0
LINE
  5
162
330
1F
100
AcDbEntity
  8
C-5
  6
Continuous
 62
     7
370
     9
100
AcDbLine
 10
-73.14376444429939
 20
544.111436895422
 30
0.0
 11
-53.14468821963715
 21
494.111148215629
 31
0.0
  0
LINE
  5
163
330
1F
100
AcDbEntity
  8
C-5
  6
Continuous
 62
     7
370
     9
100
AcDbLine
 10
-53.14468821963715
 20
494.111148215629
 30
0.0
 11
-83.4110324447218
 21
494.111148215629
 31
0.0
  0
LINE
  5
164
330
1F
100
AcDbEntity
  8
C-5
  6
Continuous
 62
     7
370
     9
100
AcDbLine
 10
582.1253840987752
 20
688.2478554184374
 30
0.0
 11
1020.16018403543
 21
688.2478554184374
 31
0.0
  0
LINE
  5
165
330
1F
100
AcDbEntity
  8
C-5
  6
Continuous
 62
     7
370
     9
100
AcDbLine
 10
861.9041069133866
 20
1040.274799965523
 30
0.0
 11
1107.613087989189
 21
1040.274799965523
 31
0.0
  0
LINE
  5
166
330
1F
100
AcDbEntity
  8
C-2
  6
Continuous
 62
     3
370
     9
100
AcDbLine
 10
770.8705012862752
 20
764.6936463020944
 30
0.0
 11
770.8705012862752
 21
1104.04969241168
 31
0.0
  0
LINE
  5
167
330
1F
100
AcDbEntity
  8
C-2
  6
Continuous
 62
     3
370
     9
100
AcDbLine
 10
830.8706992381328
 20
751.2089182879475
 30
0.0
 11
830.8706992381328
 21
1090.564964397533
 31
0.0
  0
LINE
  5
168
330
1F
100
AcDbEntity
  8
C-2
  6
Continuous
 62
     3
370
     9
100
AcDbLine
 10
653.1727803720012
 20
322.9856021984205
 30
0.0
 11
653.1727803720012
 21
332.9861300700421
 31
0.0
  0
LINE
  5
169
330
1F
100
AcDbEntity
  8
C-2
  6
Continuous
 62
     3
370
     9
100
AcDbLine
 10
653.1727803720012
 20
422.9860558380952
 30
0.0
 11
653.1727803720012
 21
412.9860228461189
 31
0.0
  0
LINE
  5
16A
330
1F
100
AcDbEntity
  8
C-2
  6
Continuous
 62
     3
370
     9
100
AcDbLine
 10
700.0240261490283
 20
387.9861878060007
 30
0.0
 11
765.0230033977616
 21
387.9861878060007
 31
0.0
  0
LINE
  5
16B
330
1F
100
AcDbEntity
  8
C-2
  6
Continuous
 62
     3
370
     9
100
AcDbLine
 10
700.0240261490283
 20
357.9855939504262
 30
0.0
 11
765.0225085181162
 21
357.9855939504262
 31
0.0
  0
LINE
  5
16C
330
1F
100
AcDbEntity
  8
C-2
  6
Continuous
 62
     3
370
     9
100
AcDbLine
 10
685.0237292212412
 20
412.9860228461189
 30
0.0
 11
680.0237127252533
 21
412.9860228461189
 31
0.0
  0
LINE
  5
16D
330
1F
100
AcDbEntity
  8
C-2
  6
Continuous
 62
     3
370
     9
100
AcDbLine
 10
705.0237952051939
 20
412.9860228461189
 30
0.0
 11
710.0235642613595
 21
412.9860228461189
 31
0.0
  0
LINE
  5
16E
330
1F
100
AcDbEntity
  8
C-2
  6
Continuous
 62
     3
370
     9
100
AcDbLine
 10
690.0234982774068
 20
407.9857589103079
 30
0.0
 11
690.0215187588256
 21
322.9856021984205
 31
0.0
  0
LINE
  5
16F
330
1F
100
AcDbEntity
  8
C-2
  6
Continuous
 62
     3
370
     9
100
AcDbLine
 10
700.0240261490283
 20
407.9862537899533
 30
0.0
 11
700.0240261490283
 21
322.9856021984205
 31
0.0
  0
LINE
  5
170
330
1F
100
AcDbEntity
  8
C-2
  6
Continuous
 62
     3
370
     9
100
AcDbLine
 10
775.0242735888512
 20
387.9861878060007
 30
0.0
 11
840.0230033977616
 21
387.9861878060007
 31
0.0
  0
LINE
  5
171
330
1F
100
AcDbEntity
  8
C-2
  6
Continuous
 62
     3
370
     9
100
AcDbLine
 10
775.0242735888512
 20
357.9855939504262
 30
0.0
 11
840.0225085181162
 21
357.9855939504262
 31
0.0
  0
LINE
  5
172
330
1F
100
AcDbEntity
  8
C-2
  6
Continuous
 62
     3
370
     9
100
AcDbLine
 10
886.8697952579807
 20
322.9796636426772
 30
0.0
 11
886.8702901376262
 21
332.9792017550082
 31
0.0
  0
LINE
  5
173
330
1F
100
AcDbEntity
  8
C-2
  6
Continuous
 62
     3
370
     9
100
AcDbLine
 10
886.8757338137241
 20
422.9791275230613
 30
0.0
 11
886.8752389340793
 21
412.9795894107303
 31
0.0
  0
LINE
  5
174
330
1F
100
AcDbEntity
  8
C-2
  6
Continuous
 62
     3
370
     9
100
AcDbLine
 10
886.8757338137241
 20
422.9860558380952
 30
0.0
 11
653.1727803720012
 21
422.9860558380952
 31
0.0
  0
LINE
  5
175
330
1F
100
AcDbEntity
  8
C-2
  6
Continuous
 62
     3
370
     9
100
AcDbLine
 10
653.1727803720012
 20
322.9856021984205
 30
0.0
 11
886.8702901376262
 21
322.9856021984205
 31
0.0
  0
LINE
  5
176
330
1F
100
AcDbEntity
  8
C-2
  6
Continuous
 62
     3
370
     9
100
AcDbLine
 10
680.0237127252533
 20
420.4859238701897
 30
0.0
 11
682.523597253336
 21
422.9860558380952
 31
0.0
  0
LINE
  5
177
330
1F
100
AcDbEntity
  8
C-2
  6
Continuous
 62
     3
370
     9
100
AcDbLine
 10
680.0237127252533
 20
412.9860228461189
 30
0.0
 11
680.0237127252533
 21
420.4859238701897
 31
0.0
  0
LINE
  5
178
330
1F
100
AcDbEntity
  8
C-2
  6
Continuous
 62
     3
370
     9
100
AcDbLine
 10
710.0235642613595
 20
420.4859238701897
 30
0.0
 11
707.5234322934543
 21
422.9860558380952
 31
0.0
  0
LINE
  5
179
330
1F
100
AcDbEntity
  8
C-2
  6
Continuous
 62
     3
370
     9
100
AcDbLine
 10
710.0235642613595
 20
420.4859238701897
 30
0.0
 11
680.0237127252533
 21
420.4859238701897
 31
0.0
  0
LINE
  5
17A
330
1F
100
AcDbEntity
  8
C-2
  6
Continuous
 62
     3
370
     9
100
AcDbLine
 10
710.0235642613595
 20
420.4859238701897
 30
0.0
 11
710.0235642613595
 21
412.9860228461189
 31
0.0
  0
LINE
  5
17B
330
1F
100
AcDbEntity
  8
C-2
  6
Continuous
 62
     3
370
     9
100
AcDbLine
 10
760.0237292212412
 20
412.9860228461189
 30
0.0
 11
755.0239601650756
 21
412.9860228461189
 31
0.0
  0
LINE
  5
17C
330
1F
100
AcDbEntity
  8
C-2
  6
Continuous
 62
     3
370
     9
100
AcDbLine
 10
780.0242900848391
 20
412.9860228461189
 30
0.0
 11
785.0235642613595
 21
412.9860228461189
 31
0.0
  0
LINE
  5
17D
330
1F
100
AcDbEntity
  8
C-2
  6
Continuous
 62
     3
370
     9
100
AcDbLine
 10
765.0234982774068
 20
407.9857589103079
 30
0.0
 11
765.0215187588256
 21
322.9856021984205
 31
0.0
  0
LINE
  5
17E
330
1F
100
AcDbEntity
  8
C-2
  6
Continuous
 62
     3
370
     9
100
AcDbLine
 10
775.0242735888512
 20
407.9862537899533
 30
0.0
 11
775.0242735888512
 21
322.9856021984205
 31
0.0
  0
LINE
  5
17F
330
1F
100
AcDbEntity
  8
C-2
  6
Continuous
 62
     3
370
     9
100
AcDbLine
 10
755.0239601650756
 20
420.4859238701897
 30
0.0
 11
757.523597253336
 21
422.9860558380952
 31
0.0
  0
LINE
  5
180
330
1F
100
AcDbEntity
  8
C-2
  6
Continuous
 62
     3
370
     9
100
AcDbLine
 10
755.0239601650756
 20
412.9860228461189
 30
0.0
 11
755.0239601650756
 21
420.4859238701897
 31
0.0
  0
LINE
  5
181
330
1F
100
AcDbEntity
  8
C-2
  6
Continuous
 62
     3
370
     9
100
AcDbLine
 10
785.0235642613595
 20
420.4859238701897
 30
0.0
 11
782.5236797332766
 21
422.9860558380952
 31
0.0
  0
LINE
  5
182
330
1F
100
AcDbEntity
  8
C-2
  6
Continuous
 62
     3
370
     9
100
AcDbLine
 10
785.0235642613595
 20
420.4859238701897
 30
0.0
 11
755.0239601650756
 21
420.4859238701897
 31
0.0
  0
LINE
  5
183
330
1F
100
AcDbEntity
  8
C-2
  6
Continuous
 62
     3
370
     9
100
AcDbLine
 10
785.0235642613595
 20
420.4859238701897
 30
0.0
 11
785.0235642613595
 21
412.9860228461189
 31
0.0
  0
LINE
  5
184
330
1F
100
AcDbEntity
  8
C-2
  6
Continuous
 62
     3
370
     9
100
AcDbLine
 10
835.0237292212412
 20
412.9860228461189
 30
0.0
 11
830.0242076048985
 21
412.9860228461189
 31
0.0
  0
LINE
  5
185
330
1F
100
AcDbEntity
  8
C-2
  6
Continuous
 62
     3
370
     9
100
AcDbLine
 10
855.0242900848391
 20
412.9860228461189
 30
0.0
 11
860.0235642613595
 21
412.9860228461189
 31
0.0
  0
LINE
  5
186
330
1F
100
AcDbEntity
  8
C-2
  6
Continuous
 62
     3
370
     9
100
AcDbLine
 10
840.0232508375839
 20
407.9857589103079
 30
0.0
 11
840.0215187588256
 21
322.9856021984205
 31
0.0
  0
LINE
  5
187
330
1F
100
AcDbEntity
  8
C-2
  6
Continuous
 62
     3
370
     9
100
AcDbLine
 10
850.0235312693828
 20
407.9862537899533
 30
0.0
 11
850.0235312693828
 21
322.9856021984205
 31
0.0
  0
LINE
  5
188
330
1F
100
AcDbEntity
  8
C-2
  6
Continuous
 62
     3
370
     9
100
AcDbLine
 10
830.0242076048985
 20
420.4859238701897
 30
0.0
 11
832.5240921329807
 21
422.9860558380952
 31
0.0
  0
LINE
  5
189
330
1F
100
AcDbEntity
  8
C-2
  6
Continuous
 62
     3
370
     9
100
AcDbLine
 10
830.0242076048985
 20
412.9860228461189
 30
0.0
 11
830.0242076048985
 21
420.4859238701897
 31
0.0
  0
LINE
  5
18A
330
1F
100
AcDbEntity
  8
C-2
  6
Continuous
 62
     3
370
     9
100
AcDbLine
 10
860.0235642613595
 20
420.4859238701897
 30
0.0
 11
857.5239271730991
 21
422.9860558380952
 31
0.0
  0
LINE
  5
18B
330
1F
100
AcDbEntity
  8
C-2
  6
Continuous
 62
     3
370
     9
100
AcDbLine
 10
860.0235642613595
 20
420.4859238701897
 30
0.0
 11
830.0242076048985
 21
420.4859238701897
 31
0.0
  0
LINE
  5
18C
330
1F
100
AcDbEntity
  8
C-2
  6
Continuous
 62
     3
370
     9
100
AcDbLine
 10
860.0235642613595
 20
420.4859238701897
 30
0.0
 11
860.0235642613595
 21
412.9860228461189
 31
0.0
  0
LINE
  5
18D
330
1F
100
AcDbEntity
  8
C-2
  6
Continuous
 62
     3
370
     9
100
AcDbLine
 10
775.870765222086
 20
807.4477834959288
 30
0.0
 11
775.870765222086
 21
847.4479154638343
 31
0.0
  0
LINE
  5
18E
330
1F
100
AcDbEntity
  8
C-2
  6
Continuous
 62
     3
370
     9
100
AcDbLine
 10
775.870765222086
 20
847.4479154638343
 30
0.0
 11
825.8704353023224
 21
832.447618536047
 31
0.0
  0
LINE
  5
18F
330
1F
100
AcDbEntity
  8
C-2
  6
Continuous
 62
     3
370
     9
100
AcDbLine
 10
825.8704353023224
 20
822.448080423716
 30
0.0
 11
825.8704353023224
 21
832.447618536047
 31
0.0
  0
LINE
  5
190
330
1F
100
AcDbEntity
  8
C-2
  6
Continuous
 62
     3
370
     9
100
AcDbLine
 10
825.8704353023224
 20
822.448080423716
 30
0.0
 11
775.870765222086
 21
807.4477834959288
 31
0.0
  0
LINE
  5
191
330
1F
100
AcDbEntity
  8
C-2
  6
Continuous
 62
     3
370
     9
100
AcDbLine
 10
830.8706992381328
 20
818.7280701302194
 30
0.0
 11
770.8705012862752
 21
800.7273179131585
 31
0.0
  0
LINE
  5
192
330
1F
100
AcDbEntity
  8
C-2
  6
Continuous
 62
     3
370
     9
100
AcDbLine
 10
770.8705012862752
 20
854.1683810466045
 30
0.0
 11
830.8706992381328
 21
836.1676288295437
 31
0.0
  0
LINE
  5
193
330
1F
100
AcDbEntity
  8
C-2
  6
Continuous
 62
     3
370
     9
100
AcDbLine
 10
825.8704353023224
 20
912.447882471858
 30
0.0
 11
825.8704353023224
 21
952.4480144397635
 31
0.0
  0
LINE
  5
194
330
1F
100
AcDbEntity
  8
C-2
  6
Continuous
 62
     3
370
     9
100
AcDbLine
 10
825.8704353023224
 20
952.4480144397635
 30
0.0
 11
775.870765222086
 21
937.4477175119762
 31
0.0
  0
LINE
  5
195
330
1F
100
AcDbEntity
  8
C-2
  6
Continuous
 62
     3
370
     9
100
AcDbLine
 10
775.870765222086
 20
927.4481793996451
 30
0.0
 11
775.870765222086
 21
937.4477175119762
 31
0.0
  0
LINE
  5
196
330
1F
100
AcDbEntity
  8
C-2
  6
Continuous
 62
     3
370
     9
100
AcDbLine
 10
775.870765222086
 20
927.4481793996451
 30
0.0
 11
825.8704353023224
 21
912.447882471858
 31
0.0
  0
LINE
  5
197
330
1F
100
AcDbEntity
  8
C-2
  6
Continuous
 62
     3
370
     9
100
AcDbLine
 10
770.8705012862752
 20
923.7281691061486
 30
0.0
 11
830.8706992381328
 21
905.7274168890876
 31
0.0
  0
LINE
  5
198
330
1F
100
AcDbEntity
  8
C-2
  6
Continuous
 62
     3
370
     9
100
AcDbLine
 10
830.8706992381328
 20
959.1684800225335
 30
0.0
 11
770.8705012862752
 21
941.1677278054729
 31
0.0
  0
LINE
  5
199
330
1F
100
AcDbEntity
  8
C-2
  6
Continuous
 62
     3
370
     9
100
AcDbLine
 10
775.870765222086
 20
1017.447734007965
 30
0.0
 11
775.870765222086
 21
1057.44786597587
 31
0.0
  0
LINE
  5
19A
330
1F
100
AcDbEntity
  8
C-2
  6
Continuous
 62
     3
370
     9
100
AcDbLine
 10
775.870765222086
 20
1057.44786597587
 30
0.0
 11
825.8704353023224
 21
1042.447569048083
 31
0.0
  0
LINE
  5
19B
330
1F
100
AcDbEntity
  8
C-2
  6
Continuous
 62
     3
370
     9
100
AcDbLine
 10
825.8704353023224
 20
1032.448030935751
 30
0.0
 11
825.8704353023224
 21
1042.447569048083
 31
0.0
  0
LINE
  5
19C
330
1F
100
AcDbEntity
  8
C-2
  6
Continuous
 62
     3
370
     9
100
AcDbLine
 10
825.8704353023224
 20
1032.448030935751
 30
0.0
 11
775.870765222086
 21
1017.447734007965
 31
0.0
  0
LINE
  5
19D
330
1F
100
AcDbEntity
  8
C-2
  6
Continuous
 62
     3
370
     9
100
AcDbLine
 10
830.8706992381328
 20
1028.728020642255
 30
0.0
 11
770.8705012862752
 21
1010.727020985371
 31
0.0
  0
LINE
  5
19E
330
1F
100
AcDbEntity
  8
C-2
  6
Continuous
 62
     3
370
     9
100
AcDbLine
 10
770.8705012862752
 20
1064.16833155864
 30
0.0
 11
830.8706992381328
 21
1046.167579341579
 31
0.0
  0
LINE
  5
19F
330
1F
100
AcDbEntity
  8
C-A
  6
Continuous
 62
     6
370
     5
100
AcDbLine
 10
-378.1217587960731
 20
411.0392900415368
 30
0.0
 11
-378.1217587960731
 21
407.03942530864
 31
0.0
  0
LINE
  5
1A0
330
1F
100
AcDbEntity
  8
C-A
  6
Continuous
 62
     6
370
     5
100
AcDbLine
 10
-378.1217587960731
 20
407.03942530864
 30
0.0
 11
-383.1216515721499
 21
408.5391580736317
 31
0.0
  0
LINE
  5
1A1
330
1F
100
AcDbEntity
  8
C-A
  6
Continuous
 62
     6
370
     5
100
AcDbLine
 10
-383.1216515721499
 20
409.5390623969001
 30
0.0
 11
-383.1216515721499
 21
408.5391580736317
 31
0.0
  0
LINE
  5
1A2
330
1F
100
AcDbEntity
  8
C-A
  6
Continuous
 62
     6
370
     5
100
AcDbLine
 10
-383.1216515721499
 20
409.5390623969001
 30
0.0
 11
-378.1217587960731
 21
411.0392900415368
 31
0.0
  0
LINE
  5
1A3
330
1F
100
AcDbEntity
  8
C-A
  6
Continuous
 62
     6
370
     5
100
AcDbLine
 10
-383.6216037337843
 20
409.9112118901434
 30
0.0
 11
-377.6216829145275
 21
411.7112128799027
 31
0.0
  0
LINE
  5
1A4
330
1F
100
AcDbEntity
  8
C-A
  6
Continuous
 62
     6
370
     5
100
AcDbLine
 10
-377.6216829145275
 20
406.3671313105402
 30
0.0
 11
-383.6216037337843
 21
408.1671323002996
 31
0.0
  0
LINE
  5
1A5
330
1F
100
AcDbEntity
  8
C-A
  6
Continuous
 62
     6
370
     5
100
AcDbLine
 10
-383.1216515721499
 20
400.5394286078376
 30
0.0
 11
-383.1216515721499
 21
396.5394401550293
 31
0.0
  0
LINE
  5
1A6
330
1F
100
AcDbEntity
  8
C-A
  6
Continuous
 62
     6
370
     5
100
AcDbLine
 10
-383.1216515721499
 20
396.5394401550293
 30
0.0
 11
-378.1217587960731
 21
398.0392966399322
 31
0.0
  0
LINE
  5
1A7
330
1F
100
AcDbEntity
  8
C-A
  6
Continuous
 62
     6
370
     5
100
AcDbLine
 10
-378.1217587960731
 20
399.0390772432895
 30
0.0
 11
-378.1217587960731
 21
398.0392966399322
 31
0.0
  0
LINE
  5
1A8
330
1F
100
AcDbEntity
  8
C-A
  6
Continuous
 62
     6
370
     5
100
AcDbLine
 10
-378.1217587960731
 20
399.0390772432895
 30
0.0
 11
-383.1216515721499
 21
400.5394286078376
 31
0.0
  0
LINE
  5
1A9
330
1F
100
AcDbEntity
  8
C-A
  6
Continuous
 62
     6
370
     5
100
AcDbLine
 10
-377.6216829145275
 20
399.4112267365327
 30
0.0
 11
-383.6216037337843
 21
401.2112277262921
 31
0.0
  0
LINE
  5
1AA
330
1F
100
AcDbEntity
  8
C-A
  6
Continuous
 62
     6
370
     5
100
AcDbLine
 10
-383.6216037337843
 20
395.8671461569296
 30
0.0
 11
-377.6216829145275
 21
397.6671471466889
 31
0.0
  0
LINE
  5
1AB
330
1F
100
AcDbEntity
  8
C-A
  6
Continuous
 62
     6
370
     5
100
AcDbLine
 10
-378.1217587960731
 20
390.039443454227
 30
0.0
 11
-378.1217587960731
 21
386.0394550014186
 31
0.0
  0
LINE
  5
1AC
330
1F
100
AcDbEntity
  8
C-A
  6
Continuous
 62
     6
370
     5
100
AcDbLine
 10
-378.1217587960731
 20
386.0394550014186
 30
0.0
 11
-383.1216515721499
 21
387.5393114863215
 31
0.0
  0
LINE
  5
1AD
330
1F
100
AcDbEntity
  8
C-A
  6
Continuous
 62
     6
370
     5
100
AcDbLine
 10
-383.1216515721499
 20
388.5390920896788
 30
0.0
 11
-383.1216515721499
 21
387.5393114863215
 31
0.0
  0
LINE
  5
1AE
330
1F
100
AcDbEntity
  8
C-A
  6
Continuous
 62
     6
370
     5
100
AcDbLine
 10
-383.1216515721499
 20
388.5390920896788
 30
0.0
 11
-378.1217587960731
 21
390.039443454227
 31
0.0
  0
LINE
  5
1AF
330
1F
100
AcDbEntity
  8
C-A
  6
Continuous
 62
     6
370
     5
100
AcDbLine
 10
-383.6216037337843
 20
388.911241582922
 30
0.0
 11
-377.6216829145275
 21
390.7112425726814
 31
0.0
  0
LINE
  5
1B0
330
1F
100
AcDbEntity
  8
C-A
  6
Continuous
 62
     6
370
     5
100
AcDbLine
 10
-377.6216829145275
 20
385.3671610033192
 30
0.0
 11
-383.6216037337843
 21
387.1671619930783
 31
0.0
  0
LINE
  5
1B1
330
1F
100
AcDbEntity
  8
C-A
  6
Continuous
 62
     6
370
     5
100
AcDbLine
 10
-378.1217587960731
 20
432.0392603487582
 30
0.0
 11
-378.1217587960731
 21
428.0393956158613
 31
0.0
  0
LINE
  5
1B2
330
1F
100
AcDbEntity
  8
C-A
  6
Continuous
 62
     6
370
     5
100
AcDbLine
 10
-378.1217587960731
 20
428.0393956158613
 30
0.0
 11
-383.1216515721499
 21
429.5391283808527
 31
0.0
  0
LINE
  5
1B3
330
1F
100
AcDbEntity
  8
C-A
  6
Continuous
 62
     6
370
     5
100
AcDbLine
 10
-383.1216515721499
 20
430.5390327041215
 30
0.0
 11
-383.1216515721499
 21
429.5391283808527
 31
0.0
  0
LINE
  5
1B4
330
1F
100
AcDbEntity
  8
C-A
  6
Continuous
 62
     6
370
     5
100
AcDbLine
 10
-383.1216515721499
 20
430.5390327041215
 30
0.0
 11
-378.1217587960731
 21
432.0392603487582
 31
0.0
  0
LINE
  5
1B5
330
1F
100
AcDbEntity
  8
C-A
  6
Continuous
 62
     6
370
     5
100
AcDbLine
 10
-383.6216037337843
 20
430.9111821973647
 30
0.0
 11
-377.6216829145275
 21
432.7111831871238
 31
0.0
  0
LINE
  5
1B6
330
1F
100
AcDbEntity
  8
C-A
  6
Continuous
 62
     6
370
     5
100
AcDbLine
 10
-377.6216829145275
 20
427.3671016177616
 30
0.0
 11
-383.6216037337843
 21
429.167102607521
 31
0.0
  0
LINE
  5
1B7
330
1F
100
AcDbEntity
  8
C-A
  6
Continuous
 62
     6
370
     5
100
AcDbLine
 10
-383.1216515721499
 20
421.5392751951475
 30
0.0
 11
-383.1216515721499
 21
417.5394104622507
 31
0.0
  0
LINE
  5
1B8
330
1F
100
AcDbEntity
  8
C-A
  6
Continuous
 62
     6
370
     5
100
AcDbLine
 10
-383.1216515721499
 20
417.5394104622507
 30
0.0
 11
-378.1217587960731
 21
419.0391432272421
 31
0.0
  0
LINE
  5
1B9
330
1F
100
AcDbEntity
  8
C-A
  6
Continuous
 62
     6
370
     5
100
AcDbLine
 10
-378.1217587960731
 20
420.0390475505108
 30
0.0
 11
-378.1217587960731
 21
419.0391432272421
 31
0.0
  0
LINE
  5
1BA
330
1F
100
AcDbEntity
  8
C-A
  6
Continuous
 62
     6
370
     5
100
AcDbLine
 10
-378.1217587960731
 20
420.0390475505108
 30
0.0
 11
-383.1216515721499
 21
421.5392751951475
 31
0.0
  0
LINE
  5
1BB
330
1F
100
AcDbEntity
  8
C-A
  6
Continuous
 62
     6
370
     5
100
AcDbLine
 10
-377.6216829145275
 20
420.411197043754
 30
0.0
 11
-383.6216037337843
 21
422.2111980335134
 31
0.0
  0
LINE
  5
1BC
330
1F
100
AcDbEntity
  8
C-A
  6
Continuous
 62
     6
370
     5
100
AcDbLine
 10
-383.6216037337843
 20
416.8669927442397
 30
0.0
 11
-377.6216829145275
 21
418.6671174539103
 31
0.0
  0
LINE
  5
1BD
330
1F
100
AcDbEntity
  8
C-A
  6
Continuous
 62
     6
370
     5
100
AcDbLine
 10
-378.1217587960731
 20
453.0392306559796
 30
0.0
 11
-378.1217587960731
 21
449.0393659230824
 31
0.0
  0
LINE
  5
1BE
330
1F
100
AcDbEntity
  8
C-A
  6
Continuous
 62
     6
370
     5
100
AcDbLine
 10
-378.1217587960731
 20
449.0393659230824
 30
0.0
 11
-383.1216515721499
 21
450.5390986880741
 31
0.0
  0
LINE
  5
1BF
330
1F
100
AcDbEntity
  8
C-A
  6
Continuous
 62
     6
370
     5
100
AcDbLine
 10
-383.1216515721499
 20
451.5390030113426
 30
0.0
 11
-383.1216515721499
 21
450.5390986880741
 31
0.0
  0
LINE
  5
1C0
330
1F
100
AcDbEntity
  8
C-A
  6
Continuous
 62
     6
370
     5
100
AcDbLine
 10
-383.1216515721499
 20
451.5390030113426
 30
0.0
 11
-378.1217587960731
 21
453.0392306559796
 31
0.0
  0
LINE
  5
1C1
330
1F
100
AcDbEntity
  8
C-A
  6
Continuous
 62
     6
370
     5
100
AcDbLine
 10
-383.6216037337843
 20
451.9110287846746
 30
0.0
 11
-377.6216829145275
 21
453.7111534943452
 31
0.0
  0
LINE
  5
1C2
330
1F
100
AcDbEntity
  8
C-A
  6
Continuous
 62
     6
370
     5
100
AcDbLine
 10
-377.6216829145275
 20
448.3669482050715
 30
0.0
 11
-383.6216037337843
 21
450.1669491948309
 31
0.0
  0
LINE
  5
1C3
330
1F
100
AcDbEntity
  8
C-A
  6
Continuous
 62
     6
370
     5
100
AcDbLine
 10
-383.1216515721499
 20
442.5392455023689
 30
0.0
 11
-383.1216515721499
 21
438.539380769472
 31
0.0
  0
LINE
  5
1C4
330
1F
100
AcDbEntity
  8
C-A
  6
Continuous
 62
     6
370
     5
100
AcDbLine
 10
-383.1216515721499
 20
438.539380769472
 30
0.0
 11
-378.1217587960731
 21
440.0391135344634
 31
0.0
  0
LINE
  5
1C5
330
1F
100
AcDbEntity
  8
C-A
  6
Continuous
 62
     6
370
     5
100
AcDbLine
 10
-378.1217587960731
 20
441.0390178577322
 30
0.0
 11
-378.1217587960731
 21
440.0391135344634
 31
0.0
  0
LINE
  5
1C6
330
1F
100
AcDbEntity
  8
C-A
  6
Continuous
 62
     6
370
     5
100
AcDbLine
 10
-378.1217587960731
 20
441.0390178577322
 30
0.0
 11
-383.1216515721499
 21
442.5392455023689
 31
0.0
  0
LINE
  5
1C7
330
1F
100
AcDbEntity
  8
C-A
  6
Continuous
 62
     6
370
     5
100
AcDbLine
 10
-377.6216829145275
 20
441.4110436310639
 30
0.0
 11
-383.6216037337843
 21
443.2111683407345
 31
0.0
  0
LINE
  5
1C8
330
1F
100
AcDbEntity
  8
C-A
  6
Continuous
 62
     6
370
     5
100
AcDbLine
 10
-383.6216037337843
 20
437.8669630514608
 30
0.0
 11
-377.6216829145275
 21
439.6670877611317
 31
0.0
  0
LINE
  5
1C9
330
1F
100
AcDbEntity
  8
C-A
  6
Continuous
 62
     6
370
     5
100
AcDbLine
 10
-378.1217587960731
 20
474.0392009632009
 30
0.0
 11
-378.1217587960731
 21
470.0393362303038
 31
0.0
  0
LINE
  5
1CA
330
1F
100
AcDbEntity
  8
C-A
  6
Continuous
 62
     6
370
     5
100
AcDbLine
 10
-378.1217587960731
 20
470.0393362303038
 30
0.0
 11
-383.1216515721499
 21
471.5390689952955
 31
0.0
  0
LINE
  5
1CB
330
1F
100
AcDbEntity
  8
C-A
  6
Continuous
 62
     6
370
     5
100
AcDbLine
 10
-383.1216515721499
 20
472.5389733185639
 30
0.0
 11
-383.1216515721499
 21
471.5390689952955
 31
0.0
  0
LINE
  5
1CC
330
1F
100
AcDbEntity
  8
C-A
  6
Continuous
 62
     6
370
     5
100
AcDbLine
 10
-383.1216515721499
 20
472.5389733185639
 30
0.0
 11
-378.1217587960731
 21
474.0392009632009
 31
0.0
  0
LINE
  5
1CD
330
1F
100
AcDbEntity
  8
C-A
  6
Continuous
 62
     6
370
     5
100
AcDbLine
 10
-383.6216037337843
 20
472.910999091896
 30
0.0
 11
-377.6216829145275
 21
474.7110000816551
 31
0.0
  0
LINE
  5
1CE
330
1F
100
AcDbEntity
  8
C-A
  6
Continuous
 62
     6
370
     5
100
AcDbLine
 10
-377.6216829145275
 20
469.3669185122928
 30
0.0
 11
-383.6216037337843
 21
471.1669195020522
 31
0.0
  0
LINE
  5
1CF
330
1F
100
AcDbEntity
  8
C-A
  6
Continuous
 62
     6
370
     5
100
AcDbLine
 10
-383.1216515721499
 20
463.5392158095902
 30
0.0
 11
-383.1216515721499
 21
459.5393510766931
 31
0.0
  0
LINE
  5
1D0
330
1F
100
AcDbEntity
  8
C-A
  6
Continuous
 62
     6
370
     5
100
AcDbLine
 10
-383.1216515721499
 20
459.5393510766931
 30
0.0
 11
-378.1217587960731
 21
461.0390838416848
 31
0.0
  0
LINE
  5
1D1
330
1F
100
AcDbEntity
  8
C-A
  6
Continuous
 62
     6
370
     5
100
AcDbLine
 10
-378.1217587960731
 20
462.0389881649533
 30
0.0
 11
-378.1217587960731
 21
461.0390838416848
 31
0.0
  0
LINE
  5
1D2
330
1F
100
AcDbEntity
  8
C-A
  6
Continuous
 62
     6
370
     5
100
AcDbLine
 10
-378.1217587960731
 20
462.0389881649533
 30
0.0
 11
-383.1216515721499
 21
463.5392158095902
 31
0.0
  0
LINE
  5
1D3
330
1F
100
AcDbEntity
  8
C-A
  6
Continuous
 62
     6
370
     5
100
AcDbLine
 10
-377.6216829145275
 20
462.4110139382853
 30
0.0
 11
-383.6216037337843
 21
464.2111386479559
 31
0.0
  0
LINE
  5
1D4
330
1F
100
AcDbEntity
  8
C-A
  6
Continuous
 62
     6
370
     5
100
AcDbLine
 10
-383.6216037337843
 20
458.8669333586822
 30
0.0
 11
-377.6216829145275
 21
460.6670580683527
 31
0.0
  0
LINE
  5
1D5
330
1F
100
AcDbEntity
  8
C-A
  6
Continuous
 62
     6
370
     5
100
AcDbLine
 10
-378.1217587960731
 20
495.039171270422
 30
0.0
 11
-378.1217587960731
 21
491.0393065375251
 31
0.0
  0
LINE
  5
1D6
330
1F
100
AcDbEntity
  8
C-A
  6
Continuous
 62
     6
370
     5
100
AcDbLine
 10
-378.1217587960731
 20
491.0393065375251
 30
0.0
 11
-383.1216515721499
 21
492.5390393025168
 31
0.0
  0
LINE
  5
1D7
330
1F
100
AcDbEntity
  8
C-A
  6
Continuous
 62
     6
370
     5
100
AcDbLine
 10
-383.1216515721499
 20
493.5388199058738
 30
0.0
 11
-383.1216515721499
 21
492.5390393025168
 31
0.0
  0
LINE
  5
1D8
330
1F
100
AcDbEntity
  8
C-A
  6
Continuous
 62
     6
370
     5
100
AcDbLine
 10
-383.1216515721499
 20
493.5388199058738
 30
0.0
 11
-378.1217587960731
 21
495.039171270422
 31
0.0
  0
LINE
  5
1D9
330
1F
100
AcDbEntity
  8
C-A
  6
Continuous
 62
     6
370
     5
100
AcDbLine
 10
-383.6216037337843
 20
493.9109693991171
 30
0.0
 11
-377.6216829145275
 21
495.7109703888764
 31
0.0
  0
LINE
  5
1DA
330
1F
100
AcDbEntity
  8
C-A
  6
Continuous
 62
     6
370
     5
100
AcDbLine
 10
-377.6216829145275
 20
490.3668888195142
 30
0.0
 11
-383.6216037337843
 21
492.1668898092733
 31
0.0
  0
LINE
  5
1DB
330
1F
100
AcDbEntity
  8
C-A
  6
Continuous
 62
     6
370
     5
100
AcDbLine
 10
-383.1216515721499
 20
484.5391861168113
 30
0.0
 11
-383.1216515721499
 21
480.5391976640033
 31
0.0
  0
LINE
  5
1DC
330
1F
100
AcDbEntity
  8
C-A
  6
Continuous
 62
     6
370
     5
100
AcDbLine
 10
-383.1216515721499
 20
480.5391976640033
 30
0.0
 11
-378.1217587960731
 21
482.0390541489061
 31
0.0
  0
LINE
  5
1DD
330
1F
100
AcDbEntity
  8
C-A
  6
Continuous
 62
     6
370
     5
100
AcDbLine
 10
-378.1217587960731
 20
483.0388347522634
 30
0.0
 11
-378.1217587960731
 21
482.0390541489061
 31
0.0
  0
LINE
  5
1DE
330
1F
100
AcDbEntity
  8
C-A
  6
Continuous
 62
     6
370
     5
100
AcDbLine
 10
-378.1217587960731
 20
483.0388347522634
 30
0.0
 11
-383.1216515721499
 21
484.5391861168113
 31
0.0
  0
LINE
  5
1DF
330
1F
100
AcDbEntity
  8
C-A
  6
Continuous
 62
     6
370
     5
100
AcDbLine
 10
-377.6216829145275
 20
483.4109842455067
 30
0.0
 11
-383.6216037337843
 21
485.2109852352658
 31
0.0
  0
LINE
  5
1E0
330
1F
100
AcDbEntity
  8
C-A
  6
Continuous
 62
     6
370
     5
100
AcDbLine
 10
-383.6216037337843
 20
479.8669036659035
 30
0.0
 11
-377.6216829145275
 21
481.6669046556629
 31
0.0
  0
LINE
  5
1E1
330
1F
100
AcDbEntity
  8
C-A
  6
Continuous
 62
     6
370
     5
100
AcDbLine
 10
-393.121560844215
 20
387.244981817297
 30
0.0
 11
-393.121560844215
 21
383.2449933644887
 31
0.0
  0
LINE
  5
1E2
330
1F
100
AcDbEntity
  8
C-A
  6
Continuous
 62
     6
370
     5
100
AcDbLine
 10
-393.121560844215
 20
383.2449933644887
 30
0.0
 11
-398.121577340203
 21
384.7448498493915
 31
0.0
  0
LINE
  5
1E3
330
1F
100
AcDbEntity
  8
C-A
  6
Continuous
 62
     6
370
     5
100
AcDbLine
 10
-398.121577340203
 20
385.7446304527488
 30
0.0
 11
-398.121577340203
 21
384.7448498493915
 31
0.0
  0
LINE
  5
1E4
330
1F
100
AcDbEntity
  8
C-A
  6
Continuous
 62
     6
370
     5
100
AcDbLine
 10
-398.121577340203
 20
385.7446304527488
 30
0.0
 11
-393.121560844215
 21
387.244981817297
 31
0.0
  0
LINE
  5
1E5
330
1F
100
AcDbEntity
  8
C-A
  6
Continuous
 62
     6
370
     5
100
AcDbLine
 10
-398.6216532217489
 20
386.1167799459921
 30
0.0
 11
-392.6216086825806
 21
387.9167809357514
 31
0.0
  0
LINE
  5
1E6
330
1F
100
AcDbEntity
  8
C-A
  6
Continuous
 62
     6
370
     5
100
AcDbLine
 10
-392.6216086825806
 20
382.5726993663892
 30
0.0
 11
-398.6216532217489
 21
384.3727003561483
 31
0.0
  0
LINE
  5
1E7
330
1F
100
AcDbEntity
  8
C-A
  6
Continuous
 62
     6
370
     5
100
AcDbLine
 10
-393.121560844215
 20
408.2449521245184
 30
0.0
 11
-393.121560844215
 21
404.24496367171
 31
0.0
  0
LINE
  5
1E8
330
1F
100
AcDbEntity
  8
C-A
  6
Continuous
 62
     6
370
     5
100
AcDbLine
 10
-393.121560844215
 20
404.24496367171
 30
0.0
 11
-398.121577340203
 21
405.7448201566129
 31
0.0
  0
LINE
  5
1E9
330
1F
100
AcDbEntity
  8
C-A
  6
Continuous
 62
     6
370
     5
100
AcDbLine
 10
-398.121577340203
 20
406.7446007599702
 30
0.0
 11
-398.121577340203
 21
405.7448201566129
 31
0.0
  0
LINE
  5
1EA
330
1F
100
AcDbEntity
  8
C-A
  6
Continuous
 62
     6
370
     5
100
AcDbLine
 10
-398.121577340203
 20
406.7446007599702
 30
0.0
 11
-393.121560844215
 21
408.2449521245184
 31
0.0
  0
LINE
  5
1EB
330
1F
100
AcDbEntity
  8
C-A
  6
Continuous
 62
     6
370
     5
100
AcDbLine
 10
-398.6216532217489
 20
407.1167502532134
 30
0.0
 11
-392.6216086825806
 21
408.9167512429728
 31
0.0
  0
LINE
  5
1EC
330
1F
100
AcDbEntity
  8
C-A
  6
Continuous
 62
     6
370
     5
100
AcDbLine
 10
-392.6216086825806
 20
403.5726696736106
 30
0.0
 11
-398.6216532217489
 21
405.3726706633697
 31
0.0
  0
LINE
  5
1ED
330
1F
100
AcDbEntity
  8
C-A
  6
Continuous
 62
     6
370
     5
100
AcDbLine
 10
-398.121577340203
 20
397.7449669709077
 30
0.0
 11
-398.121577340203
 21
393.7449785180993
 31
0.0
  0
LINE
  5
1EE
330
1F
100
AcDbEntity
  8
C-A
  6
Continuous
 62
     6
370
     5
100
AcDbLine
 10
-398.121577340203
 20
393.7449785180993
 30
0.0
 11
-393.121560844215
 21
395.2448350030022
 31
0.0
  0
LINE
  5
1EF
330
1F
100
AcDbEntity
  8
C-A
  6
Continuous
 62
     6
370
     5
100
AcDbLine
 10
-393.121560844215
 20
396.2446156063595
 30
0.0
 11
-393.121560844215
 21
395.2448350030022
 31
0.0
  0
LINE
  5
1F0
330
1F
100
AcDbEntity
  8
C-A
  6
Continuous
 62
     6
370
     5
100
AcDbLine
 10
-393.121560844215
 20
396.2446156063595
 30
0.0
 11
-398.121577340203
 21
397.7449669709077
 31
0.0
  0
LINE
  5
1F1
330
1F
100
AcDbEntity
  8
C-A
  6
Continuous
 62
     6
370
     5
100
AcDbLine
 10
-392.6216086825806
 20
396.6167650996027
 30
0.0
 11
-398.6216532217489
 21
398.4167660893621
 31
0.0
  0
LINE
  5
1F2
330
1F
100
AcDbEntity
  8
C-A
  6
Continuous
 62
     6
370
     5
100
AcDbLine
 10
-398.6216532217489
 20
393.0726845199999
 30
0.0
 11
-392.6216086825806
 21
394.872685509759
 31
0.0
  0
LINE
  5
1F3
330
1F
100
AcDbEntity
  8
C-A
  6
Continuous
 62
     6
370
     5
100
AcDbLine
 10
-393.121560844215
 20
429.2449224317397
 30
0.0
 11
-393.121560844215
 21
425.2449339789314
 31
0.0
  0
LINE
  5
1F4
330
1F
100
AcDbEntity
  8
C-A
  6
Continuous
 62
     6
370
     5
100
AcDbLine
 10
-393.121560844215
 20
425.2449339789314
 30
0.0
 11
-398.121577340203
 21
426.7447904638342
 31
0.0
  0
LINE
  5
1F5
330
1F
100
AcDbEntity
  8
C-A
  6
Continuous
 62
     6
370
     5
100
AcDbLine
 10
-398.121577340203
 20
427.7445710671915
 30
0.0
 11
-398.121577340203
 21
426.7447904638342
 31
0.0
  0
LINE
  5
1F6
330
1F
100
AcDbEntity
  8
C-A
  6
Continuous
 62
     6
370
     5
100
AcDbLine
 10
-398.121577340203
 20
427.7445710671915
 30
0.0
 11
-393.121560844215
 21
429.2449224317397
 31
0.0
  0
LINE
  5
1F7
330
1F
100
AcDbEntity
  8
C-A
  6
Continuous
 62
     6
370
     5
100
AcDbLine
 10
-398.6216532217489
 20
428.1167205604348
 30
0.0
 11
-392.6216086825806
 21
429.9167215501942
 31
0.0
  0
LINE
  5
1F8
330
1F
100
AcDbEntity
  8
C-A
  6
Continuous
 62
     6
370
     5
100
AcDbLine
 10
-392.6216086825806
 20
424.5726399808316
 30
0.0
 11
-398.6216532217489
 21
426.372640970591
 31
0.0
  0
LINE
  5
1F9
330
1F
100
AcDbEntity
  8
C-A
  6
Continuous
 62
     6
370
     5
100
AcDbLine
 10
-398.121577340203
 20
418.7448135582176
 30
0.0
 11
-398.121577340203
 21
414.7449488253207
 31
0.0
  0
LINE
  5
1FA
330
1F
100
AcDbEntity
  8
C-A
  6
Continuous
 62
     6
370
     5
100
AcDbLine
 10
-398.121577340203
 20
414.7449488253207
 30
0.0
 11
-393.121560844215
 21
416.2448053102236
 31
0.0
  0
LINE
  5
1FB
330
1F
100
AcDbEntity
  8
C-A
  6
Continuous
 62
     6
370
     5
100
AcDbLine
 10
-393.121560844215
 20
417.2445859135809
 30
0.0
 11
-393.121560844215
 21
416.2448053102236
 31
0.0
  0
LINE
  5
1FC
330
1F
100
AcDbEntity
  8
C-A
  6
Continuous
 62
     6
370
     5
100
AcDbLine
 10
-393.121560844215
 20
417.2445859135809
 30
0.0
 11
-398.121577340203
 21
418.7448135582176
 31
0.0
  0
LINE
  5
1FD
330
1F
100
AcDbEntity
  8
C-A
  6
Continuous
 62
     6
370
     5
100
AcDbLine
 10
-392.6216086825806
 20
417.6167354068241
 30
0.0
 11
-398.6216532217489
 21
419.4167363965835
 31
0.0
  0
LINE
  5
1FE
330
1F
100
AcDbEntity
  8
C-A
  6
Continuous
 62
     6
370
     5
100
AcDbLine
 10
-398.6216532217489
 20
414.072654827221
 30
0.0
 11
-392.6216086825806
 21
415.8726558169803
 31
0.0
  0
LINE
  5
1FF
330
1F
100
AcDbEntity
  8
C-A
  6
Continuous
 62
     6
370
     5
100
AcDbLine
 10
-393.121560844215
 20
450.2447690190496
 30
0.0
 11
-393.121560844215
 21
446.2449042861527
 31
0.0
  0
LINE
  5
200
330
1F
100
AcDbEntity
  8
C-A
  6
Continuous
 62
     6
370
     5
100
AcDbLine
 10
-393.121560844215
 20
446.2449042861527
 30
0.0
 11
-398.121577340203
 21
447.7446370511441
 31
0.0
  0
LINE
  5
201
330
1F
100
AcDbEntity
  8
C-A
  6
Continuous
 62
     6
370
     5
100
AcDbLine
 10
-398.121577340203
 20
448.7445413744129
 30
0.0
 11
-398.121577340203
 21
447.7446370511441
 31
0.0
  0
LINE
  5
202
330
1F
100
AcDbEntity
  8
C-A
  6
Continuous
 62
     6
370
     5
100
AcDbLine
 10
-398.121577340203
 20
448.7445413744129
 30
0.0
 11
-393.121560844215
 21
450.2447690190496
 31
0.0
  0
LINE
  5
203
330
1F
100
AcDbEntity
  8
C-A
  6
Continuous
 62
     6
370
     5
100
AcDbLine
 10
-398.6216532217489
 20
449.1165671477447
 30
0.0
 11
-392.6216086825806
 21
450.9166918574152
 31
0.0
  0
LINE
  5
204
330
1F
100
AcDbEntity
  8
C-A
  6
Continuous
 62
     6
370
     5
100
AcDbLine
 10
-392.6216086825806
 20
445.5724865681418
 30
0.0
 11
-398.6216532217489
 21
447.3726112778124
 31
0.0
  0
LINE
  5
205
330
1F
100
AcDbEntity
  8
C-A
  6
Continuous
 62
     6
370
     5
100
AcDbLine
 10
-398.121577340203
 20
439.7447838654389
 30
0.0
 11
-398.121577340203
 21
435.7449191325421
 31
0.0
  0
LINE
  5
206
330
1F
100
AcDbEntity
  8
C-A
  6
Continuous
 62
     6
370
     5
100
AcDbLine
 10
-398.121577340203
 20
435.7449191325421
 30
0.0
 11
-393.121560844215
 21
437.2446518975335
 31
0.0
  0
LINE
  5
207
330
1F
100
AcDbEntity
  8
C-A
  6
Continuous
 62
     6
370
     5
100
AcDbLine
 10
-393.121560844215
 20
438.2445562208022
 30
0.0
 11
-393.121560844215
 21
437.2446518975335
 31
0.0
  0
LINE
  5
208
330
1F
100
AcDbEntity
  8
C-A
  6
Continuous
 62
     6
370
     5
100
AcDbLine
 10
-393.121560844215
 20
438.2445562208022
 30
0.0
 11
-398.121577340203
 21
439.7447838654389
 31
0.0
  0
LINE
  5
209
330
1F
100
AcDbEntity
  8
C-A
  6
Continuous
 62
     6
370
     5
100
AcDbLine
 10
-392.6216086825806
 20
438.6167057140455
 30
0.0
 11
-398.6216532217489
 21
440.4167067038046
 31
0.0
  0
LINE
  5
20A
330
1F
100
AcDbEntity
  8
C-A
  6
Continuous
 62
     6
370
     5
100
AcDbLine
 10
-398.6216532217489
 20
435.0726251344423
 30
0.0
 11
-392.6216086825806
 21
436.8726261242017
 31
0.0
  0
LINE
  5
20B
330
1F
100
AcDbEntity
  8
C-A
  6
Continuous
 62
     6
370
     5
100
AcDbLine
 10
-393.121560844215
 20
471.244739326271
 30
0.0
 11
-393.121560844215
 21
467.2448745933738
 31
0.0
  0
LINE
  5
20C
330
1F
100
AcDbEntity
  8
C-A
  6
Continuous
 62
     6
370
     5
100
AcDbLine
 10
-393.121560844215
 20
467.2448745933738
 30
0.0
 11
-398.121577340203
 21
468.7446073583655
 31
0.0
  0
LINE
  5
20D
330
1F
100
AcDbEntity
  8
C-A
  6
Continuous
 62
     6
370
     5
100
AcDbLine
 10
-398.121577340203
 20
469.7443879617228
 30
0.0
 11
-398.121577340203
 21
468.7446073583655
 31
0.0
  0
LINE
  5
20E
330
1F
100
AcDbEntity
  8
C-A
  6
Continuous
 62
     6
370
     5
100
AcDbLine
 10
-398.121577340203
 20
469.7443879617228
 30
0.0
 11
-393.121560844215
 21
471.244739326271
 31
0.0
  0
LINE
  5
20F
330
1F
100
AcDbEntity
  8
C-A
  6
Continuous
 62
     6
370
     5
100
AcDbLine
 10
-398.6216532217489
 20
470.116537454966
 30
0.0
 11
-392.6216086825806
 21
471.9166621646366
 31
0.0
  0
LINE
  5
210
330
1F
100
AcDbEntity
  8
C-A
  6
Continuous
 62
     6
370
     5
100
AcDbLine
 10
-392.6216086825806
 20
466.5724568753629
 30
0.0
 11
-398.6216532217489
 21
468.3725815850335
 31
0.0
  0
LINE
  5
211
330
1F
100
AcDbEntity
  8
C-A
  6
Continuous
 62
     6
370
     5
100
AcDbLine
 10
-398.121577340203
 20
460.7447541726603
 30
0.0
 11
-398.121577340203
 21
456.7448894397634
 31
0.0
  0
LINE
  5
212
330
1F
100
AcDbEntity
  8
C-A
  6
Continuous
 62
     6
370
     5
100
AcDbLine
 10
-398.121577340203
 20
456.7448894397634
 30
0.0
 11
-393.121560844215
 21
458.2446222047548
 31
0.0
  0
LINE
  5
213
330
1F
100
AcDbEntity
  8
C-A
  6
Continuous
 62
     6
370
     5
100
AcDbLine
 10
-393.121560844215
 20
459.2445265280233
 30
0.0
 11
-393.121560844215
 21
458.2446222047548
 31
0.0
  0
LINE
  5
214
330
1F
100
AcDbEntity
  8
C-A
  6
Continuous
 62
     6
370
     5
100
AcDbLine
 10
-393.121560844215
 20
459.2445265280233
 30
0.0
 11
-398.121577340203
 21
460.7447541726603
 31
0.0
  0
LINE
  5
215
330
1F
100
AcDbEntity
  8
C-A
  6
Continuous
 62
     6
370
     5
100
AcDbLine
 10
-392.6216086825806
 20
459.6165523013553
 30
0.0
 11
-398.6216532217489
 21
461.4166770110259
 31
0.0
  0
LINE
  5
216
330
1F
100
AcDbEntity
  8
C-A
  6
Continuous
 62
     6
370
     5
100
AcDbLine
 10
-398.6216532217489
 20
456.0724717217522
 30
0.0
 11
-392.6216086825806
 21
457.8725964314231
 31
0.0
  0
LINE
  5
217
330
1F
100
AcDbEntity
  8
C-A
  6
Continuous
 62
     6
370
     5
100
AcDbLine
 10
-408.1216103321796
 20
401.7072208507642
 30
0.0
 11
-408.1216103321796
 21
397.7072323979559
 31
0.0
  0
LINE
  5
218
330
1F
100
AcDbEntity
  8
C-A
  6
Continuous
 62
     6
370
     5
100
AcDbLine
 10
-408.1216103321796
 20
397.7072323979559
 30
0.0
 11
-413.1215031082564
 21
399.2070888828587
 31
0.0
  0
LINE
  5
219
330
1F
100
AcDbEntity
  8
C-A
  6
Continuous
 62
     6
370
     5
100
AcDbLine
 10
-413.1215031082564
 20
400.206869486216
 30
0.0
 11
-413.1215031082564
 21
399.2070888828587
 31
0.0
  0
LINE
  5
21A
330
1F
100
AcDbEntity
  8
C-A
  6
Continuous
 62
     6
370
     5
100
AcDbLine
 10
-413.1215031082564
 20
400.206869486216
 30
0.0
 11
-408.1216103321796
 21
401.7072208507642
 31
0.0
  0
LINE
  5
21B
330
1F
100
AcDbEntity
  8
C-A
  6
Continuous
 62
     6
370
     5
100
AcDbLine
 10
-413.621578989802
 20
400.5790189794592
 30
0.0
 11
-407.6215344506338
 21
402.3790199692186
 31
0.0
  0
LINE
  5
21C
330
1F
100
AcDbEntity
  8
C-A
  6
Continuous
 62
     6
370
     5
100
AcDbLine
 10
-407.6215344506338
 20
397.0349383998561
 30
0.0
 11
-413.621578989802
 21
398.8349393896155
 31
0.0
  0
LINE
  5
21D
330
1F
100
AcDbEntity
  8
C-A
  6
Continuous
 62
     6
370
     5
100
AcDbLine
 10
-413.1215031082564
 20
391.2072356971535
 30
0.0
 11
-413.1215031082564
 21
387.2073709642567
 31
0.0
  0
LINE
  5
21E
330
1F
100
AcDbEntity
  8
C-A
  6
Continuous
 62
     6
370
     5
100
AcDbLine
 10
-413.1215031082564
 20
387.2073709642567
 30
0.0
 11
-408.1216103321796
 21
388.707103729248
 31
0.0
  0
LINE
  5
21F
330
1F
100
AcDbEntity
  8
C-A
  6
Continuous
 62
     6
370
     5
100
AcDbLine
 10
-408.1216103321796
 20
389.7070080525165
 30
0.0
 11
-408.1216103321796
 21
388.707103729248
 31
0.0
  0
LINE
  5
220
330
1F
100
AcDbEntity
  8
C-A
  6
Continuous
 62
     6
370
     5
100
AcDbLine
 10
-408.1216103321796
 20
389.7070080525165
 30
0.0
 11
-413.1215031082564
 21
391.2072356971535
 31
0.0
  0
LINE
  5
221
330
1F
100
AcDbEntity
  8
C-A
  6
Continuous
 62
     6
370
     5
100
AcDbLine
 10
-407.6215344506338
 20
390.0790338258486
 30
0.0
 11
-413.621578989802
 21
391.879034815608
 31
0.0
  0
LINE
  5
222
330
1F
100
AcDbEntity
  8
C-A
  6
Continuous
 62
     6
370
     5
100
AcDbLine
 10
-413.621578989802
 20
386.5349532462454
 30
0.0
 11
-407.6215344506338
 21
388.3349542360048
 31
0.0
  0
LINE
  5
223
330
1F
100
AcDbEntity
  8
C-A
  6
Continuous
 62
     6
370
     5
100
AcDbLine
 10
-408.1216103321796
 20
422.7071911579856
 30
0.0
 11
-408.1216103321796
 21
418.7072027051772
 31
0.0
  0
LINE
  5
224
330
1F
100
AcDbEntity
  8
C-A
  6
Continuous
 62
     6
370
     5
100
AcDbLine
 10
-408.1216103321796
 20
418.7072027051772
 30
0.0
 11
-413.1215031082564
 21
420.2069354701686
 31
0.0
  0
LINE
  5
225
330
1F
100
AcDbEntity
  8
C-A
  6
Continuous
 62
     6
370
     5
100
AcDbLine
 10
-413.1215031082564
 20
421.2068397934374
 30
0.0
 11
-413.1215031082564
 21
420.2069354701686
 31
0.0
  0
LINE
  5
226
330
1F
100
AcDbEntity
  8
C-A
  6
Continuous
 62
     6
370
     5
100
AcDbLine
 10
-413.1215031082564
 20
421.2068397934374
 30
0.0
 11
-408.1216103321796
 21
422.7071911579856
 31
0.0
  0
LINE
  5
227
330
1F
100
AcDbEntity
  8
C-A
  6
Continuous
 62
     6
370
     5
100
AcDbLine
 10
-413.621578989802
 20
421.5789892866806
 30
0.0
 11
-407.6215344506338
 21
423.3789902764397
 31
0.0
  0
LINE
  5
228
330
1F
100
AcDbEntity
  8
C-A
  6
Continuous
 62
     6
370
     5
100
AcDbLine
 10
-407.6215344506338
 20
418.0349087070775
 30
0.0
 11
-413.621578989802
 21
419.8349096968369
 31
0.0
  0
LINE
  5
229
330
1F
100
AcDbEntity
  8
C-A
  6
Continuous
 62
     6
370
     5
100
AcDbLine
 10
-413.1215031082564
 20
412.2072060043749
 30
0.0
 11
-413.1215031082564
 21
408.2072175515665
 31
0.0
  0
LINE
  5
22A
330
1F
100
AcDbEntity
  8
C-A
  6
Continuous
 62
     6
370
     5
100
AcDbLine
 10
-413.1215031082564
 20
408.2072175515665
 30
0.0
 11
-408.1216103321796
 21
409.7070740364694
 31
0.0
  0
LINE
  5
22B
330
1F
100
AcDbEntity
  8
C-A
  6
Continuous
 62
     6
370
     5
100
AcDbLine
 10
-408.1216103321796
 20
410.7068546398267
 30
0.0
 11
-408.1216103321796
 21
409.7070740364694
 31
0.0
  0
LINE
  5
22C
330
1F
100
AcDbEntity
  8
C-A
  6
Continuous
 62
     6
370
     5
100
AcDbLine
 10
-408.1216103321796
 20
410.7068546398267
 30
0.0
 11
-413.1215031082564
 21
412.2072060043749
 31
0.0
  0
LINE
  5
22D
330
1F
100
AcDbEntity
  8
C-A
  6
Continuous
 62
     6
370
     5
100
AcDbLine
 10
-407.6215344506338
 20
411.0790041330699
 30
0.0
 11
-413.621578989802
 21
412.8790051228293
 31
0.0
  0
LINE
  5
22E
330
1F
100
AcDbEntity
  8
C-A
  6
Continuous
 62
     6
370
     5
100
AcDbLine
 10
-413.621578989802
 20
407.5349235534668
 30
0.0
 11
-407.6215344506338
 21
409.3349245432262
 31
0.0
  0
LINE
  5
22F
330
1F
100
AcDbEntity
  8
C-A
  6
Continuous
 62
     6
370
     5
100
AcDbLine
 10
-408.1216103321796
 20
443.7070377452955
 30
0.0
 11
-408.1216103321796
 21
439.7071730123983
 31
0.0
  0
LINE
  5
230
330
1F
100
AcDbEntity
  8
C-A
  6
Continuous
 62
     6
370
     5
100
AcDbLine
 10
-408.1216103321796
 20
439.7071730123983
 30
0.0
 11
-413.1215031082564
 21
441.20690577739
 31
0.0
  0
LINE
  5
231
330
1F
100
AcDbEntity
  8
C-A
  6
Continuous
 62
     6
370
     5
100
AcDbLine
 10
-413.1215031082564
 20
442.2068101006585
 30
0.0
 11
-413.1215031082564
 21
441.20690577739
 31
0.0
  0
LINE
  5
232
330
1F
100
AcDbEntity
  8
C-A
  6
Continuous
 62
     6
370
     5
100
AcDbLine
 10
-413.1215031082564
 20
442.2068101006585
 30
0.0
 11
-408.1216103321796
 21
443.7070377452955
 31
0.0
  0
LINE
  5
233
330
1F
100
AcDbEntity
  8
C-A
  6
Continuous
 62
     6
370
     5
100
AcDbLine
 10
-413.621578989802
 20
442.5789595939017
 30
0.0
 11
-407.6215344506338
 21
444.3789605836611
 31
0.0
  0
LINE
  5
234
330
1F
100
AcDbEntity
  8
C-A
  6
Continuous
 62
     6
370
     5
100
AcDbLine
 10
-407.6215344506338
 20
439.0348790142988
 30
0.0
 11
-413.621578989802
 21
440.8348800040579
 31
0.0
  0
LINE
  5
235
330
1F
100
AcDbEntity
  8
C-A
  6
Continuous
 62
     6
370
     5
100
AcDbLine
 10
-413.1215031082564
 20
433.207176311596
 30
0.0
 11
-413.1215031082564
 21
429.2071878587879
 31
0.0
  0
LINE
  5
236
330
1F
100
AcDbEntity
  8
C-A
  6
Continuous
 62
     6
370
     5
100
AcDbLine
 10
-413.1215031082564
 20
429.2071878587879
 30
0.0
 11
-408.1216103321796
 21
430.7070443436908
 31
0.0
  0
LINE
  5
237
330
1F
100
AcDbEntity
  8
C-A
  6
Continuous
 62
     6
370
     5
100
AcDbLine
 10
-408.1216103321796
 20
431.7068249470481
 30
0.0
 11
-408.1216103321796
 21
430.7070443436908
 31
0.0
  0
LINE
  5
238
330
1F
100
AcDbEntity
  8
C-A
  6
Continuous
 62
     6
370
     5
100
AcDbLine
 10
-408.1216103321796
 20
431.7068249470481
 30
0.0
 11
-413.1215031082564
 21
433.207176311596
 31
0.0
  0
LINE
  5
239
330
1F
100
AcDbEntity
  8
C-A
  6
Continuous
 62
     6
370
     5
100
AcDbLine
 10
-407.6215344506338
 20
432.0789744402913
 30
0.0
 11
-413.621578989802
 21
433.8789754300504
 31
0.0
  0
LINE
  5
23A
330
1F
100
AcDbEntity
  8
C-A
  6
Continuous
 62
     6
370
     5
100
AcDbLine
 10
-413.621578989802
 20
428.5348938606882
 30
0.0
 11
-407.6215344506338
 21
430.3348948504475
 31
0.0
  0
LINE
  5
23B
330
1F
100
AcDbEntity
  8
C-A
  6
Continuous
 62
     6
370
     5
100
AcDbLine
 10
-413.1215031082564
 20
454.2070228989061
 30
0.0
 11
-413.1215031082564
 21
450.207158166009
 31
0.0
  0
LINE
  5
23C
330
1F
100
AcDbEntity
  8
C-A
  6
Continuous
 62
     6
370
     5
100
AcDbLine
 10
-413.1215031082564
 20
450.207158166009
 30
0.0
 11
-408.1216103321796
 21
451.7068909310007
 31
0.0
  0
LINE
  5
23D
330
1F
100
AcDbEntity
  8
C-A
  6
Continuous
 62
     6
370
     5
100
AcDbLine
 10
-408.1216103321796
 20
452.7067952542691
 30
0.0
 11
-408.1216103321796
 21
451.7068909310007
 31
0.0
  0
LINE
  5
23E
330
1F
100
AcDbEntity
  8
C-A
  6
Continuous
 62
     6
370
     5
100
AcDbLine
 10
-408.1216103321796
 20
452.7067952542691
 30
0.0
 11
-413.1215031082564
 21
454.2070228989061
 31
0.0
  0
LINE
  5
23F
330
1F
100
AcDbEntity
  8
C-A
  6
Continuous
 62
     6
370
     5
100
AcDbLine
 10
-407.6215344506338
 20
453.0788210276012
 30
0.0
 11
-413.621578989802
 21
454.8789457372717
 31
0.0
  0
LINE
  5
240
330
1F
100
AcDbEntity
  8
C-A
  6
Continuous
 62
     6
370
     5
100
AcDbLine
 10
-413.621578989802
 20
449.534740447998
 30
0.0
 11
-407.6215344506338
 21
451.3348651576686
 31
0.0
  0
LINE
  5
241
330
1F
100
AcDbEntity
  8
C-A
  6
Continuous
 62
     6
370
     5
100
AcDbLine
 10
-423.1216598201439
 20
388.6352224607725
 30
0.0
 11
-423.1216598201439
 21
384.6353577278757
 31
0.0
  0
LINE
  5
242
330
1F
100
AcDbEntity
  8
C-A
  6
Continuous
 62
     6
370
     5
100
AcDbLine
 10
-423.1216598201439
 20
384.6353577278757
 30
0.0
 11
-428.1215525962207
 21
386.1350904928671
 31
0.0
  0
LINE
  5
243
330
1F
100
AcDbEntity
  8
C-A
  6
Continuous
 62
     6
370
     5
100
AcDbLine
 10
-428.1215525962207
 20
387.1349948161358
 30
0.0
 11
-428.1215525962207
 21
386.1350904928671
 31
0.0
  0
LINE
  5
244
330
1F
100
AcDbEntity
  8
C-A
  6
Continuous
 62
     6
370
     5
100
AcDbLine
 10
-428.1215525962207
 20
387.1349948161358
 30
0.0
 11
-423.1216598201439
 21
388.6352224607725
 31
0.0
  0
LINE
  5
245
330
1F
100
AcDbEntity
  8
C-A
  6
Continuous
 62
     6
370
     5
100
AcDbLine
 10
-428.6216284777666
 20
387.5070205894676
 30
0.0
 11
-422.6215839385983
 21
389.3071452991384
 31
0.0
  0
LINE
  5
246
330
1F
100
AcDbEntity
  8
C-A
  6
Continuous
 62
     6
370
     5
100
AcDbLine
 10
-422.6215839385983
 20
383.9629400098647
 30
0.0
 11
-428.6216284777666
 21
385.7630647195353
 31
0.0
  0
LINE
  5
247
330
1F
100
AcDbEntity
  8
C-A
  6
Continuous
 62
     6
370
     5
100
AcDbLine
 10
-423.1216598201439
 20
409.6351927679939
 30
0.0
 11
-423.1216598201439
 21
405.635328035097
 31
0.0
  0
LINE
  5
248
330
1F
100
AcDbEntity
  8
C-A
  6
Continuous
 62
     6
370
     5
100
AcDbLine
 10
-423.1216598201439
 20
405.635328035097
 30
0.0
 11
-428.1215525962207
 21
407.1350608000884
 31
0.0
  0
LINE
  5
249
330
1F
100
AcDbEntity
  8
C-A
  6
Continuous
 62
     6
370
     5
100
AcDbLine
 10
-428.1215525962207
 20
408.1349651233572
 30
0.0
 11
-428.1215525962207
 21
407.1350608000884
 31
0.0
  0
LINE
  5
24A
330
1F
100
AcDbEntity
  8
C-A
  6
Continuous
 62
     6
370
     5
100
AcDbLine
 10
-428.1215525962207
 20
408.1349651233572
 30
0.0
 11
-423.1216598201439
 21
409.6351927679939
 31
0.0
  0
LINE
  5
24B
330
1F
100
AcDbEntity
  8
C-A
  6
Continuous
 62
     6
370
     5
100
AcDbLine
 10
-428.6216284777666
 20
408.5069908966889
 30
0.0
 11
-422.6215839385983
 21
410.3071156063595
 31
0.0
  0
LINE
  5
24C
330
1F
100
AcDbEntity
  8
C-A
  6
Continuous
 62
     6
370
     5
100
AcDbLine
 10
-422.6215839385983
 20
404.9629103170858
 30
0.0
 11
-428.6216284777666
 21
406.7629113068452
 31
0.0
  0
LINE
  5
24D
330
1F
100
AcDbEntity
  8
C-A
  6
Continuous
 62
     6
370
     5
100
AcDbLine
 10
-428.1215525962207
 20
399.1352076143832
 30
0.0
 11
-428.1215525962207
 21
395.1353428814863
 31
0.0
  0
LINE
  5
24E
330
1F
100
AcDbEntity
  8
C-A
  6
Continuous
 62
     6
370
     5
100
AcDbLine
 10
-428.1215525962207
 20
395.1353428814863
 30
0.0
 11
-423.1216598201439
 21
396.6350756464777
 31
0.0
  0
LINE
  5
24F
330
1F
100
AcDbEntity
  8
C-A
  6
Continuous
 62
     6
370
     5
100
AcDbLine
 10
-423.1216598201439
 20
397.6349799697465
 30
0.0
 11
-423.1216598201439
 21
396.6350756464777
 31
0.0
  0
LINE
  5
250
330
1F
100
AcDbEntity
  8
C-A
  6
Continuous
 62
     6
370
     5
100
AcDbLine
 10
-423.1216598201439
 20
397.6349799697465
 30
0.0
 11
-428.1215525962207
 21
399.1352076143832
 31
0.0
  0
LINE
  5
251
330
1F
100
AcDbEntity
  8
C-A
  6
Continuous
 62
     6
370
     5
100
AcDbLine
 10
-422.6215839385983
 20
398.0070057430783
 30
0.0
 11
-428.6216284777666
 21
399.8070067328376
 31
0.0
  0
LINE
  5
252
330
1F
100
AcDbEntity
  8
C-A
  6
Continuous
 62
     6
370
     5
100
AcDbLine
 10
-428.6216284777666
 20
394.4629251634754
 30
0.0
 11
-422.6215839385983
 21
396.2629261532345
 31
0.0
  0
LINE
  5
253
330
1F
100
AcDbEntity
  8
C-A
  6
Continuous
 62
     6
370
     5
100
AcDbLine
 10
-423.1216598201439
 20
430.6351630752152
 30
0.0
 11
-423.1216598201439
 21
426.6351746224069
 31
0.0
  0
LINE
  5
254
330
1F
100
AcDbEntity
  8
C-A
  6
Continuous
 62
     6
370
     5
100
AcDbLine
 10
-423.1216598201439
 20
426.6351746224069
 30
0.0
 11
-428.1215525962207
 21
428.1350311073098
 31
0.0
  0
LINE
  5
255
330
1F
100
AcDbEntity
  8
C-A
  6
Continuous
 62
     6
370
     5
100
AcDbLine
 10
-428.1215525962207
 20
429.1348117106671
 30
0.0
 11
-428.1215525962207
 21
428.1350311073098
 31
0.0
  0
LINE
  5
256
330
1F
100
AcDbEntity
  8
C-A
  6
Continuous
 62
     6
370
     5
100
AcDbLine
 10
-428.1215525962207
 20
429.1348117106671
 30
0.0
 11
-423.1216598201439
 21
430.6351630752152
 31
0.0
  0
LINE
  5
257
330
1F
100
AcDbEntity
  8
C-A
  6
Continuous
 62
     6
370
     5
100
AcDbLine
 10
-428.6216284777666
 20
429.5069612039103
 30
0.0
 11
-422.6215839385983
 21
431.3069621936697
 31
0.0
  0
LINE
  5
258
330
1F
100
AcDbEntity
  8
C-A
  6
Continuous
 62
     6
370
     5
100
AcDbLine
 10
-422.6215839385983
 20
425.9628806243072
 30
0.0
 11
-428.6216284777666
 21
427.7628816140665
 31
0.0
  0
LINE
  5
259
330
1F
100
AcDbEntity
  8
C-A
  6
Continuous
 62
     6
370
     5
100
AcDbLine
 10
-428.1215525962207
 20
420.1351779216046
 30
0.0
 11
-428.1215525962207
 21
416.1351894687962
 31
0.0
  0
LINE
  5
25A
330
1F
100
AcDbEntity
  8
C-A
  6
Continuous
 62
     6
370
     5
100
AcDbLine
 10
-428.1215525962207
 20
416.1351894687962
 30
0.0
 11
-423.1216598201439
 21
417.6350459536991
 31
0.0
  0
LINE
  5
25B
330
1F
100
AcDbEntity
  8
C-A
  6
Continuous
 62
     6
370
     5
100
AcDbLine
 10
-423.1216598201439
 20
418.6349502769676
 30
0.0
 11
-423.1216598201439
 21
417.6350459536991
 31
0.0
  0
LINE
  5
25C
330
1F
100
AcDbEntity
  8
C-A
  6
Continuous
 62
     6
370
     5
100
AcDbLine
 10
-423.1216598201439
 20
418.6349502769676
 30
0.0
 11
-428.1215525962207
 21
420.1351779216046
 31
0.0
  0
LINE
  5
25D
330
1F
100
AcDbEntity
  8
C-A
  6
Continuous
 62
     6
370
     5
100
AcDbLine
 10
-422.6215839385983
 20
419.0069760502996
 30
0.0
 11
-428.6216284777666
 21
420.806977040059
 31
0.0
  0
LINE
  5
25E
330
1F
100
AcDbEntity
  8
C-A
  6
Continuous
 62
     6
370
     5
100
AcDbLine
 10
-428.6216284777666
 20
415.4628954706965
 30
0.0
 11
-422.6215839385983
 21
417.2628964604559
 31
0.0
  0
LINE
  5
25F
330
1F
100
AcDbEntity
  8
C-A
  6
Continuous
 62
     6
370
     5
100
AcDbLine
 10
-428.1215525962207
 20
441.1351482288259
 30
0.0
 11
-428.1215525962207
 21
437.1351597760176
 31
0.0
  0
LINE
  5
260
330
1F
100
AcDbEntity
  8
C-A
  6
Continuous
 62
     6
370
     5
100
AcDbLine
 10
-428.1215525962207
 20
437.1351597760176
 30
0.0
 11
-423.1216598201439
 21
438.6350162609205
 31
0.0
  0
LINE
  5
261
330
1F
100
AcDbEntity
  8
C-A
  6
Continuous
 62
     6
370
     5
100
AcDbLine
 10
-423.1216598201439
 20
439.6347968642777
 30
0.0
 11
-423.1216598201439
 21
438.6350162609205
 31
0.0
  0
LINE
  5
262
330
1F
100
AcDbEntity
  8
C-A
  6
Continuous
 62
     6
370
     5
100
AcDbLine
 10
-423.1216598201439
 20
439.6347968642777
 30
0.0
 11
-428.1215525962207
 21
441.1351482288259
 31
0.0
  0
LINE
  5
263
330
1F
100
AcDbEntity
  8
C-A
  6
Continuous
 62
     6
370
     5
100
AcDbLine
 10
-422.6215839385983
 20
440.006946357521
 30
0.0
 11
-428.6216284777666
 21
441.8069473472801
 31
0.0
  0
LINE
  5
264
330
1F
100
AcDbEntity
  8
C-A
  6
Continuous
 62
     6
370
     5
100
AcDbLine
 10
-428.6216284777666
 20
436.4628657779178
 30
0.0
 11
-422.6215839385983
 21
438.2628667676772
 31
0.0
  0
LINE
  5
265
330
1F
100
AcDbEntity
  8
C-A
  6
Continuous
 62
     6
370
     5
100
AcDbLine
 10
-438.1215855881973
 20
398.4970603118072
 30
0.0
 11
-438.1215855881973
 21
394.4971955789103
 31
0.0
  0
LINE
  5
266
330
1F
100
AcDbEntity
  8
C-A
  6
Continuous
 62
     6
370
     5
100
AcDbLine
 10
-438.1215855881973
 20
394.4971955789103
 30
0.0
 11
-443.1214783642741
 21
395.9969283439017
 31
0.0
  0
LINE
  5
267
330
1F
100
AcDbEntity
  8
C-A
  6
Continuous
 62
     6
370
     5
100
AcDbLine
 10
-443.1214783642741
 20
396.9968326671705
 30
0.0
 11
-443.1214783642741
 21
395.9969283439017
 31
0.0
  0
LINE
  5
268
330
1F
100
AcDbEntity
  8
C-A
  6
Continuous
 62
     6
370
     5
100
AcDbLine
 10
-443.1214783642741
 20
396.9968326671705
 30
0.0
 11
-438.1215855881973
 21
398.4970603118072
 31
0.0
  0
LINE
  5
269
330
1F
100
AcDbEntity
  8
C-A
  6
Continuous
 62
     6
370
     5
100
AcDbLine
 10
-443.6215542458197
 20
397.3688584405022
 30
0.0
 11
-437.6215097066518
 21
399.1688594302616
 31
0.0
  0
LINE
  5
26A
330
1F
100
AcDbEntity
  8
C-A
  6
Continuous
 62
     6
370
     5
100
AcDbLine
 10
-437.6215097066518
 20
393.8247778608994
 30
0.0
 11
-443.6215542458197
 21
395.6247788506585
 31
0.0
  0
LINE
  5
26B
330
1F
100
AcDbEntity
  8
C-A
  6
Continuous
 62
     6
370
     5
100
AcDbLine
 10
-443.1214783642741
 20
387.9970751581965
 30
0.0
 11
-443.1214783642741
 21
383.9972104252996
 31
0.0
  0
LINE
  5
26C
330
1F
100
AcDbEntity
  8
C-A
  6
Continuous
 62
     6
370
     5
100
AcDbLine
 10
-443.1214783642741
 20
383.9972104252996
 30
0.0
 11
-438.1215855881973
 21
385.4969431902913
 31
0.0
  0
LINE
  5
26D
330
1F
100
AcDbEntity
  8
C-A
  6
Continuous
 62
     6
370
     5
100
AcDbLine
 10
-438.1215855881973
 20
386.4968475135598
 30
0.0
 11
-438.1215855881973
 21
385.4969431902913
 31
0.0
  0
LINE
  5
26E
330
1F
100
AcDbEntity
  8
C-A
  6
Continuous
 62
     6
370
     5
100
AcDbLine
 10
-438.1215855881973
 20
386.4968475135598
 30
0.0
 11
-443.1214783642741
 21
387.9970751581965
 31
0.0
  0
LINE
  5
26F
330
1F
100
AcDbEntity
  8
C-A
  6
Continuous
 62
     6
370
     5
100
AcDbLine
 10
-437.6215097066518
 20
386.8688732868915
 30
0.0
 11
-443.6215542458197
 21
388.6689979965624
 31
0.0
  0
LINE
  5
270
330
1F
100
AcDbEntity
  8
C-A
  6
Continuous
 62
     6
370
     5
100
AcDbLine
 10
-443.6215542458197
 20
383.3247927072887
 30
0.0
 11
-437.6215097066518
 21
385.1249174169592
 31
0.0
  0
LINE
  5
271
330
1F
100
AcDbEntity
  8
C-A
  6
Continuous
 62
     6
370
     5
100
AcDbLine
 10
-438.1215855881973
 20
419.4970306190285
 30
0.0
 11
-438.1215855881973
 21
415.4970421662202
 31
0.0
  0
LINE
  5
272
330
1F
100
AcDbEntity
  8
C-A
  6
Continuous
 62
     6
370
     5
100
AcDbLine
 10
-438.1215855881973
 20
415.4970421662202
 30
0.0
 11
-443.1214783642741
 21
416.996898651123
 31
0.0
  0
LINE
  5
273
330
1F
100
AcDbEntity
  8
C-A
  6
Continuous
 62
     6
370
     5
100
AcDbLine
 10
-443.1214783642741
 20
417.9966792544803
 30
0.0
 11
-443.1214783642741
 21
416.996898651123
 31
0.0
  0
LINE
  5
274
330
1F
100
AcDbEntity
  8
C-A
  6
Continuous
 62
     6
370
     5
100
AcDbLine
 10
-443.1214783642741
 20
417.9966792544803
 30
0.0
 11
-438.1215855881973
 21
419.4970306190285
 31
0.0
  0
LINE
  5
275
330
1F
100
AcDbEntity
  8
C-A
  6
Continuous
 62
     6
370
     5
100
AcDbLine
 10
-443.6215542458197
 20
418.3688287477236
 30
0.0
 11
-437.6215097066518
 21
420.168829737483
 31
0.0
  0
LINE
  5
276
330
1F
100
AcDbEntity
  8
C-A
  6
Continuous
 62
     6
370
     5
100
AcDbLine
 10
-437.6215097066518
 20
414.8247481681204
 30
0.0
 11
-443.6215542458197
 21
416.6247491578798
 31
0.0
  0
LINE
  5
277
330
1F
100
AcDbEntity
  8
C-A
  6
Continuous
 62
     6
370
     5
100
AcDbLine
 10
-443.1214783642741
 20
408.9970454654178
 30
0.0
 11
-443.1214783642741
 21
404.9970570126095
 31
0.0
  0
LINE
  5
278
330
1F
100
AcDbEntity
  8
C-A
  6
Continuous
 62
     6
370
     5
100
AcDbLine
 10
-443.1214783642741
 20
404.9970570126095
 30
0.0
 11
-438.1215855881973
 21
406.4969134975124
 31
0.0
  0
LINE
  5
279
330
1F
100
AcDbEntity
  8
C-A
  6
Continuous
 62
     6
370
     5
100
AcDbLine
 10
-438.1215855881973
 20
407.4966941008697
 30
0.0
 11
-438.1215855881973
 21
406.4969134975124
 31
0.0
  0
LINE
  5
27A
330
1F
100
AcDbEntity
  8
C-A
  6
Continuous
 62
     6
370
     5
100
AcDbLine
 10
-438.1215855881973
 20
407.4966941008697
 30
0.0
 11
-443.1214783642741
 21
408.9970454654178
 31
0.0
  0
LINE
  5
27B
330
1F
100
AcDbEntity
  8
C-A
  6
Continuous
 62
     6
370
     5
100
AcDbLine
 10
-437.6215097066518
 20
407.8688435941129
 30
0.0
 11
-443.6215542458197
 21
409.6688445838723
 31
0.0
  0
LINE
  5
27C
330
1F
100
AcDbEntity
  8
C-A
  6
Continuous
 62
     6
370
     5
100
AcDbLine
 10
-443.6215542458197
 20
404.32476301451
 30
0.0
 11
-437.6215097066518
 21
406.1247640042691
 31
0.0
  0
LINE
  5
27D
330
1F
100
AcDbEntity
  8
C-A
  6
Continuous
 62
     6
370
     5
100
AcDbLine
 10
-376.1212078300679
 20
645.718146143733
 30
0.0
 11
-376.1212078300679
 21
649.7180108766298
 31
0.0
  0
LINE
  5
27E
330
1F
100
AcDbEntity
  8
C-A
  6
Continuous
 62
     6
370
     5
100
AcDbLine
 10
-376.1212078300679
 20
649.7180108766298
 30
0.0
 11
-371.1214387739025
 21
648.2182781116385
 31
0.0
  0
LINE
  5
27F
330
1F
100
AcDbEntity
  8
C-A
  6
Continuous
 62
     6
370
     5
100
AcDbLine
 10
-371.1214387739025
 20
647.2183737883697
 30
0.0
 11
-371.1214387739025
 21
648.2182781116385
 31
0.0
  0
LINE
  5
280
330
1F
100
AcDbEntity
  8
C-A
  6
Continuous
 62
     6
370
     5
100
AcDbLine
 10
-371.1214387739025
 20
647.2183737883697
 30
0.0
 11
-376.1212078300679
 21
645.718146143733
 31
0.0
  0
LINE
  5
281
330
1F
100
AcDbEntity
  8
C-A
  6
Continuous
 62
     6
370
     5
100
AcDbLine
 10
-370.621362892357
 20
646.8462242951264
 30
0.0
 11
-376.6212837116137
 21
645.0463470252785
 31
0.0
  0
LINE
  5
282
330
1F
100
AcDbEntity
  8
C-A
  6
Continuous
 62
     6
370
     5
100
AcDbLine
 10
-376.6212837116137
 20
650.3903048747295
 30
0.0
 11
-370.621362892357
 21
648.5904276048816
 31
0.0
  0
LINE
  5
283
330
1F
100
AcDbEntity
  8
C-A
  6
Continuous
 62
     6
370
     5
100
AcDbLine
 10
-371.1214387739025
 20
656.2180075774322
 30
0.0
 11
-371.1214387739025
 21
660.2181197501517
 31
0.0
  0
LINE
  5
284
330
1F
100
AcDbEntity
  8
C-A
  6
Continuous
 62
     6
370
     5
100
AcDbLine
 10
-371.1214387739025
 20
660.2181197501517
 30
0.0
 11
-376.1212078300679
 21
658.7181395453376
 31
0.0
  0
LINE
  5
285
330
1F
100
AcDbEntity
  8
C-A
  6
Continuous
 62
     6
370
     5
100
AcDbLine
 10
-376.1212078300679
 20
657.7184826618918
 30
0.0
 11
-376.1212078300679
 21
658.7181395453376
 31
0.0
  0
LINE
  5
286
330
1F
100
AcDbEntity
  8
C-A
  6
Continuous
 62
     6
370
     5
100
AcDbLine
 10
-376.1212078300679
 20
657.7184826618918
 30
0.0
 11
-371.1214387739025
 21
656.2180075774322
 31
0.0
  0
LINE
  5
287
330
1F
100
AcDbEntity
  8
C-A
  6
Continuous
 62
     6
370
     5
100
AcDbLine
 10
-376.6212837116137
 20
657.3463331686482
 30
0.0
 11
-370.621362892357
 21
655.5462084589777
 31
0.0
  0
LINE
  5
288
330
1F
100
AcDbEntity
  8
C-A
  6
Continuous
 62
     6
370
     5
100
AcDbLine
 10
-370.621362892357
 20
660.8904137482514
 30
0.0
 11
-376.6212837116137
 21
659.0902890385809
 31
0.0
  0
LINE
  5
289
330
1F
100
AcDbEntity
  8
C-A
  6
Continuous
 62
     6
370
     5
100
AcDbLine
 10
-376.1212078300679
 20
666.7181164509543
 30
0.0
 11
-376.1212078300679
 21
670.7179811838512
 31
0.0
  0
LINE
  5
28A
330
1F
100
AcDbEntity
  8
C-A
  6
Continuous
 62
     6
370
     5
100
AcDbLine
 10
-376.1212078300679
 20
670.7179811838512
 30
0.0
 11
-371.1214387739025
 21
669.2182484188595
 31
0.0
  0
LINE
  5
28B
330
1F
100
AcDbEntity
  8
C-A
  6
Continuous
 62
     6
370
     5
100
AcDbLine
 10
-371.1214387739025
 20
668.218344095591
 30
0.0
 11
-371.1214387739025
 21
669.2182484188595
 31
0.0
  0
LINE
  5
28C
330
1F
100
AcDbEntity
  8
C-A
  6
Continuous
 62
     6
370
     5
100
AcDbLine
 10
-371.1214387739025
 20
668.218344095591
 30
0.0
 11
-376.1212078300679
 21
666.7181164509543
 31
0.0
  0
LINE
  5
28D
330
1F
100
AcDbEntity
  8
C-A
  6
Continuous
 62
     6
370
     5
100
AcDbLine
 10
-370.621362892357
 20
667.8461946023479
 30
0.0
 11
-376.6212837116137
 21
666.0463173324999
 31
0.0
  0
LINE
  5
28E
330
1F
100
AcDbEntity
  8
C-A
  6
Continuous
 62
     6
370
     5
100
AcDbLine
 10
-376.6212837116137
 20
671.390275181951
 30
0.0
 11
-370.621362892357
 21
669.5903979121027
 31
0.0
  0
LINE
  5
28F
330
1F
100
AcDbEntity
  8
C-A
  6
Continuous
 62
     6
370
     5
100
AcDbLine
 10
-376.1212078300679
 20
624.7181758365116
 30
0.0
 11
-376.1212078300679
 21
628.7180405694085
 31
0.0
  0
LINE
  5
290
330
1F
100
AcDbEntity
  8
C-A
  6
Continuous
 62
     6
370
     5
100
AcDbLine
 10
-376.1212078300679
 20
628.7180405694085
 30
0.0
 11
-371.1214387739025
 21
627.218307804417
 31
0.0
  0
LINE
  5
291
330
1F
100
AcDbEntity
  8
C-A
  6
Continuous
 62
     6
370
     5
100
AcDbLine
 10
-371.1214387739025
 20
626.2184034811482
 30
0.0
 11
-371.1214387739025
 21
627.218307804417
 31
0.0
  0
LINE
  5
292
330
1F
100
AcDbEntity
  8
C-A
  6
Continuous
 62
     6
370
     5
100
AcDbLine
 10
-371.1214387739025
 20
626.2184034811482
 30
0.0
 11
-376.1212078300679
 21
624.7181758365116
 31
0.0
  0
LINE
  5
293
330
1F
100
AcDbEntity
  8
C-A
  6
Continuous
 62
     6
370
     5
100
AcDbLine
 10
-370.621362892357
 20
625.8462539879051
 30
0.0
 11
-376.6212837116137
 21
624.0463767180572
 31
0.0
  0
LINE
  5
294
330
1F
100
AcDbEntity
  8
C-A
  6
Continuous
 62
     6
370
     5
100
AcDbLine
 10
-376.6212837116137
 20
629.3905820073309
 30
0.0
 11
-370.621362892357
 21
627.5904572976604
 31
0.0
  0
LINE
  5
295
330
1F
100
AcDbEntity
  8
C-A
  6
Continuous
 62
     6
370
     5
100
AcDbLine
 10
-371.1214387739025
 20
635.2182847100335
 30
0.0
 11
-371.1214387739025
 21
639.2181494429306
 31
0.0
  0
LINE
  5
296
330
1F
100
AcDbEntity
  8
C-A
  6
Continuous
 62
     6
370
     5
100
AcDbLine
 10
-371.1214387739025
 20
639.2181494429306
 30
0.0
 11
-376.1212078300679
 21
637.7184166779389
 31
0.0
  0
LINE
  5
297
330
1F
100
AcDbEntity
  8
C-A
  6
Continuous
 62
     6
370
     5
100
AcDbLine
 10
-376.1212078300679
 20
636.7185123546705
 30
0.0
 11
-376.1212078300679
 21
637.7184166779389
 31
0.0
  0
LINE
  5
298
330
1F
100
AcDbEntity
  8
C-A
  6
Continuous
 62
     6
370
     5
100
AcDbLine
 10
-376.1212078300679
 20
636.7185123546705
 30
0.0
 11
-371.1214387739025
 21
635.2182847100335
 31
0.0
  0
LINE
  5
299
330
1F
100
AcDbEntity
  8
C-A
  6
Continuous
 62
     6
370
     5
100
AcDbLine
 10
-376.6212837116137
 20
636.3463628614272
 30
0.0
 11
-370.621362892357
 21
634.5462381517566
 31
0.0
  0
LINE
  5
29A
330
1F
100
AcDbEntity
  8
C-A
  6
Continuous
 62
     6
370
     5
100
AcDbLine
 10
-370.621362892357
 20
639.8904434410301
 30
0.0
 11
-376.6212837116137
 21
638.0903187313595
 31
0.0
  0
LINE
  5
29B
330
1F
100
AcDbEntity
  8
C-A
  6
Continuous
 62
     6
370
     5
100
AcDbLine
 10
-376.1212078300679
 20
603.7182055292902
 30
0.0
 11
-376.1212078300679
 21
607.7181939820986
 31
0.0
  0
LINE
  5
29C
330
1F
100
AcDbEntity
  8
C-A
  6
Continuous
 62
     6
370
     5
100
AcDbLine
 10
-376.1212078300679
 20
607.7181939820986
 30
0.0
 11
-371.1214387739025
 21
606.2183374971958
 31
0.0
  0
LINE
  5
29D
330
1F
100
AcDbEntity
  8
C-A
  6
Continuous
 62
     6
370
     5
100
AcDbLine
 10
-371.1214387739025
 20
605.2185568938385
 30
0.0
 11
-371.1214387739025
 21
606.2183374971958
 31
0.0
  0
LINE
  5
29E
330
1F
100
AcDbEntity
  8
C-A
  6
Continuous
 62
     6
370
     5
100
AcDbLine
 10
-371.1214387739025
 20
605.2185568938385
 30
0.0
 11
-376.1212078300679
 21
603.7182055292902
 31
0.0
  0
LINE
  5
29F
330
1F
100
AcDbEntity
  8
C-A
  6
Continuous
 62
     6
370
     5
100
AcDbLine
 10
-370.621362892357
 20
604.8464074005951
 30
0.0
 11
-376.6212837116137
 21
603.0464064108357
 31
0.0
  0
LINE
  5
2A0
330
1F
100
AcDbEntity
  8
C-A
  6
Continuous
 62
     6
370
     5
100
AcDbLine
 10
-376.6212837116137
 20
608.3904879801983
 30
0.0
 11
-370.621362892357
 21
606.5904869904389
 31
0.0
  0
LINE
  5
2A1
330
1F
100
AcDbEntity
  8
C-A
  6
Continuous
 62
     6
370
     5
100
AcDbLine
 10
-371.1214387739025
 20
614.2183144028124
 30
0.0
 11
-371.1214387739025
 21
618.2181791357093
 31
0.0
  0
LINE
  5
2A2
330
1F
100
AcDbEntity
  8
C-A
  6
Continuous
 62
     6
370
     5
100
AcDbLine
 10
-371.1214387739025
 20
618.2181791357093
 30
0.0
 11
-376.1212078300679
 21
616.7184463707176
 31
0.0
  0
LINE
  5
2A3
330
1F
100
AcDbEntity
  8
C-A
  6
Continuous
 62
     6
370
     5
100
AcDbLine
 10
-376.1212078300679
 20
615.7185420474491
 30
0.0
 11
-376.1212078300679
 21
616.7184463707176
 31
0.0
  0
LINE
  5
2A4
330
1F
100
AcDbEntity
  8
C-A
  6
Continuous
 62
     6
370
     5
100
AcDbLine
 10
-376.1212078300679
 20
615.7185420474491
 30
0.0
 11
-371.1214387739025
 21
614.2183144028124
 31
0.0
  0
LINE
  5
2A5
330
1F
100
AcDbEntity
  8
C-A
  6
Continuous
 62
     6
370
     5
100
AcDbLine
 10
-376.6212837116137
 20
615.3463925542059
 30
0.0
 11
-370.621362892357
 21
613.5462678445354
 31
0.0
  0
LINE
  5
2A6
330
1F
100
AcDbEntity
  8
C-A
  6
Continuous
 62
     6
370
     5
100
AcDbLine
 10
-370.621362892357
 20
618.890473133809
 30
0.0
 11
-376.6212837116137
 21
617.0903484241385
 31
0.0
  0
LINE
  5
2A7
330
1F
100
AcDbEntity
  8
C-A
  6
Continuous
 62
     6
370
     5
100
AcDbLine
 10
-376.1212078300679
 20
582.7182352220691
 30
0.0
 11
-376.1212078300679
 21
586.7182236748772
 31
0.0
  0
LINE
  5
2A8
330
1F
100
AcDbEntity
  8
C-A
  6
Continuous
 62
     6
370
     5
100
AcDbLine
 10
-376.1212078300679
 20
586.7182236748772
 30
0.0
 11
-371.1214387739025
 21
585.2183671899743
 31
0.0
  0
LINE
  5
2A9
330
1F
100
AcDbEntity
  8
C-A
  6
Continuous
 62
     6
370
     5
100
AcDbLine
 10
-371.1214387739025
 20
584.218586586617
 30
0.0
 11
-371.1214387739025
 21
585.2183671899743
 31
0.0
  0
LINE
  5
2AA
330
1F
100
AcDbEntity
  8
C-A
  6
Continuous
 62
     6
370
     5
100
AcDbLine
 10
-371.1214387739025
 20
584.218586586617
 30
0.0
 11
-376.1212078300679
 21
582.7182352220691
 31
0.0
  0
LINE
  5
2AB
330
1F
100
AcDbEntity
  8
C-A
  6
Continuous
 62
     6
370
     5
100
AcDbLine
 10
-370.621362892357
 20
583.8464370933739
 30
0.0
 11
-376.6212837116137
 21
582.0464361036147
 31
0.0
  0
LINE
  5
2AC
330
1F
100
AcDbEntity
  8
C-A
  6
Continuous
 62
     6
370
     5
100
AcDbLine
 10
-376.6212837116137
 20
587.3906413928885
 30
0.0
 11
-370.621362892357
 21
585.5905166832176
 31
0.0
  0
LINE
  5
2AD
330
1F
100
AcDbEntity
  8
C-A
  6
Continuous
 62
     6
370
     5
100
AcDbLine
 10
-371.1214387739025
 20
593.218344095591
 30
0.0
 11
-371.1214387739025
 21
597.2182088284878
 31
0.0
  0
LINE
  5
2AE
330
1F
100
AcDbEntity
  8
C-A
  6
Continuous
 62
     6
370
     5
100
AcDbLine
 10
-371.1214387739025
 20
597.2182088284878
 30
0.0
 11
-376.1212078300679
 21
595.718352343585
 31
0.0
  0
LINE
  5
2AF
330
1F
100
AcDbEntity
  8
C-A
  6
Continuous
 62
     6
370
     5
100
AcDbLine
 10
-376.1212078300679
 20
594.7185717402277
 30
0.0
 11
-376.1212078300679
 21
595.718352343585
 31
0.0
  0
LINE
  5
2B0
330
1F
100
AcDbEntity
  8
C-A
  6
Continuous
 62
     6
370
     5
100
AcDbLine
 10
-376.1212078300679
 20
594.7185717402277
 30
0.0
 11
-371.1214387739025
 21
593.218344095591
 31
0.0
  0
LINE
  5
2B1
330
1F
100
AcDbEntity
  8
C-A
  6
Continuous
 62
     6
370
     5
100
AcDbLine
 10
-376.6212837116137
 20
594.3464222469845
 30
0.0
 11
-370.621362892357
 21
592.5464212572253
 31
0.0
  0
LINE
  5
2B2
330
1F
100
AcDbEntity
  8
C-A
  6
Continuous
 62
     6
370
     5
100
AcDbLine
 10
-370.621362892357
 20
597.8905028265876
 30
0.0
 11
-376.6212837116137
 21
596.0905018368283
 31
0.0
  0
LINE
  5
2B3
330
1F
100
AcDbEntity
  8
C-A
  6
Continuous
 62
     6
370
     5
100
AcDbLine
 10
-376.1212078300679
 20
561.7182649148479
 30
0.0
 11
-376.1212078300679
 21
565.7182533676562
 31
0.0
  0
LINE
  5
2B4
330
1F
100
AcDbEntity
  8
C-A
  6
Continuous
 62
     6
370
     5
100
AcDbLine
 10
-376.1212078300679
 20
565.7182533676562
 30
0.0
 11
-371.1214387739025
 21
564.2185206026645
 31
0.0
  0
LINE
  5
2B5
330
1F
100
AcDbEntity
  8
C-A
  6
Continuous
 62
     6
370
     5
100
AcDbLine
 10
-371.1214387739025
 20
563.218616279396
 30
0.0
 11
-371.1214387739025
 21
564.2185206026645
 31
0.0
  0
LINE
  5
2B6
330
1F
100
AcDbEntity
  8
C-A
  6
Continuous
 62
     6
370
     5
100
AcDbLine
 10
-371.1214387739025
 20
563.218616279396
 30
0.0
 11
-376.1212078300679
 21
561.7182649148479
 31
0.0
  0
LINE
  5
2B7
330
1F
100
AcDbEntity
  8
C-A
  6
Continuous
 62
     6
370
     5
100
AcDbLine
 10
-370.621362892357
 20
562.8465905060639
 30
0.0
 11
-376.6212837116137
 21
561.0464657963934
 31
0.0
  0
LINE
  5
2B8
330
1F
100
AcDbEntity
  8
C-A
  6
Continuous
 62
     6
370
     5
100
AcDbLine
 10
-376.6212837116137
 20
566.390671085667
 30
0.0
 11
-370.621362892357
 21
564.5905463759965
 31
0.0
  0
LINE
  5
2B9
330
1F
100
AcDbEntity
  8
C-A
  6
Continuous
 62
     6
370
     5
100
AcDbLine
 10
-371.1214387739025
 20
572.2183737883697
 30
0.0
 11
-371.1214387739025
 21
576.2182385212668
 31
0.0
  0
LINE
  5
2BA
330
1F
100
AcDbEntity
  8
C-A
  6
Continuous
 62
     6
370
     5
100
AcDbLine
 10
-371.1214387739025
 20
576.2182385212668
 30
0.0
 11
-376.1212078300679
 21
574.7185057562751
 31
0.0
  0
LINE
  5
2BB
330
1F
100
AcDbEntity
  8
C-A
  6
Continuous
 62
     6
370
     5
100
AcDbLine
 10
-376.1212078300679
 20
573.7186014330066
 30
0.0
 11
-376.1212078300679
 21
574.7185057562751
 31
0.0
  0
LINE
  5
2BC
330
1F
100
AcDbEntity
  8
C-A
  6
Continuous
 62
     6
370
     5
100
AcDbLine
 10
-376.1212078300679
 20
573.7186014330066
 30
0.0
 11
-371.1214387739025
 21
572.2183737883697
 31
0.0
  0
LINE
  5
2BD
330
1F
100
AcDbEntity
  8
C-A
  6
Continuous
 62
     6
370
     5
100
AcDbLine
 10
-376.6212837116137
 20
573.3464519397635
 30
0.0
 11
-370.621362892357
 21
571.5464509500041
 31
0.0
  0
LINE
  5
2BE
330
1F
100
AcDbEntity
  8
C-A
  6
Continuous
 62
     6
370
     5
100
AcDbLine
 10
-370.621362892357
 20
576.8905325193663
 30
0.0
 11
-376.6212837116137
 21
575.0905315296072
 31
0.0
  0
LINE
  5
2BF
330
1F
100
AcDbEntity
  8
C-A
  6
Continuous
 62
     6
370
     5
100
AcDbLine
 10
-361.1212820620148
 20
669.5124543679729
 30
0.0
 11
-361.1212820620148
 21
673.5125665406923
 31
0.0
  0
LINE
  5
2C0
330
1F
100
AcDbEntity
  8
C-A
  6
Continuous
 62
     6
370
     5
100
AcDbLine
 10
-361.1212820620148
 20
673.5125665406923
 30
0.0
 11
-356.1213892859379
 21
672.0125863358783
 31
0.0
  0
LINE
  5
2C1
330
1F
100
AcDbEntity
  8
C-A
  6
Continuous
 62
     6
370
     5
100
AcDbLine
 10
-356.1213892859379
 20
671.0129294524322
 30
0.0
 11
-356.1213892859379
 21
672.0125863358783
 31
0.0
  0
LINE
  5
2C2
330
1F
100
AcDbEntity
  8
C-A
  6
Continuous
 62
     6
370
     5
100
AcDbLine
 10
-356.1213892859379
 20
671.0129294524322
 30
0.0
 11
-361.1212820620148
 21
669.5124543679729
 31
0.0
  0
LINE
  5
2C3
330
1F
100
AcDbEntity
  8
C-A
  6
Continuous
 62
     6
370
     5
100
AcDbLine
 10
-355.6213134043924
 20
670.6407799591889
 30
0.0
 11
-361.6213579435603
 21
668.8406552495184
 31
0.0
  0
LINE
  5
2C4
330
1F
100
AcDbEntity
  8
C-A
  6
Continuous
 62
     6
370
     5
100
AcDbLine
 10
-361.6213579435603
 20
674.184860538792
 30
0.0
 11
-355.6213134043924
 21
672.3847358291215
 31
0.0
  0
LINE
  5
2C5
330
1F
100
AcDbEntity
  8
C-A
  6
Continuous
 62
     6
370
     5
100
AcDbLine
 10
-361.1212820620148
 20
648.5124840607514
 30
0.0
 11
-361.1212820620148
 21
652.512596233471
 31
0.0
  0
LINE
  5
2C6
330
1F
100
AcDbEntity
  8
C-A
  6
Continuous
 62
     6
370
     5
100
AcDbLine
 10
-361.1212820620148
 20
652.512596233471
 30
0.0
 11
-356.1213892859379
 21
651.0126160286569
 31
0.0
  0
LINE
  5
2C7
330
1F
100
AcDbEntity
  8
C-A
  6
Continuous
 62
     6
370
     5
100
AcDbLine
 10
-356.1213892859379
 20
650.0129591452107
 30
0.0
 11
-356.1213892859379
 21
651.0126160286569
 31
0.0
  0
LINE
  5
2C8
330
1F
100
AcDbEntity
  8
C-A
  6
Continuous
 62
     6
370
     5
100
AcDbLine
 10
-356.1213892859379
 20
650.0129591452107
 30
0.0
 11
-361.1212820620148
 21
648.5124840607514
 31
0.0
  0
LINE
  5
2C9
330
1F
100
AcDbEntity
  8
C-A
  6
Continuous
 62
     6
370
     5
100
AcDbLine
 10
-355.6213134043924
 20
649.6408096519676
 30
0.0
 11
-361.6213579435603
 21
647.840684942297
 31
0.0
  0
LINE
  5
2CA
330
1F
100
AcDbEntity
  8
C-A
  6
Continuous
 62
     6
370
     5
100
AcDbLine
 10
-361.6213579435603
 20
653.1848902315708
 30
0.0
 11
-355.6213134043924
 21
651.3847655219001
 31
0.0
  0
LINE
  5
2CB
330
1F
100
AcDbEntity
  8
C-A
  6
Continuous
 62
     6
370
     5
100
AcDbLine
 10
-356.1213892859379
 20
659.0125929342732
 30
0.0
 11
-356.1213892859379
 21
663.0124576671705
 31
0.0
  0
LINE
  5
2CC
330
1F
100
AcDbEntity
  8
C-A
  6
Continuous
 62
     6
370
     5
100
AcDbLine
 10
-356.1213892859379
 20
663.0124576671705
 30
0.0
 11
-361.1212820620148
 21
661.5127249021788
 31
0.0
  0
LINE
  5
2CD
330
1F
100
AcDbEntity
  8
C-A
  6
Continuous
 62
     6
370
     5
100
AcDbLine
 10
-361.1212820620148
 20
660.5128205789104
 30
0.0
 11
-361.1212820620148
 21
661.5127249021788
 31
0.0
  0
LINE
  5
2CE
330
1F
100
AcDbEntity
  8
C-A
  6
Continuous
 62
     6
370
     5
100
AcDbLine
 10
-361.1212820620148
 20
660.5128205789104
 30
0.0
 11
-356.1213892859379
 21
659.0125929342732
 31
0.0
  0
LINE
  5
2CF
330
1F
100
AcDbEntity
  8
C-A
  6
Continuous
 62
     6
370
     5
100
AcDbLine
 10
-361.6213579435603
 20
660.140671085667
 30
0.0
 11
-355.6213134043924
 21
658.3407938158191
 31
0.0
  0
LINE
  5
2D0
330
1F
100
AcDbEntity
  8
C-A
  6
Continuous
 62
     6
370
     5
100
AcDbLine
 10
-355.6213134043924
 20
663.6847516652701
 30
0.0
 11
-361.6213579435603
 21
661.884874395422
 31
0.0
  0
LINE
  5
2D1
330
1F
100
AcDbEntity
  8
C-A
  6
Continuous
 62
     6
370
     5
100
AcDbLine
 10
-361.1212820620148
 20
627.5125137535301
 30
0.0
 11
-361.1212820620148
 21
631.5126259262499
 31
0.0
  0
LINE
  5
2D2
330
1F
100
AcDbEntity
  8
C-A
  6
Continuous
 62
     6
370
     5
100
AcDbLine
 10
-361.1212820620148
 20
631.5126259262499
 30
0.0
 11
-356.1213892859379
 21
630.0126457214355
 31
0.0
  0
LINE
  5
2D3
330
1F
100
AcDbEntity
  8
C-A
  6
Continuous
 62
     6
370
     5
100
AcDbLine
 10
-356.1213892859379
 20
629.0129888379897
 30
0.0
 11
-356.1213892859379
 21
630.0126457214355
 31
0.0
  0
LINE
  5
2D4
330
1F
100
AcDbEntity
  8
C-A
  6
Continuous
 62
     6
370
     5
100
AcDbLine
 10
-356.1213892859379
 20
629.0129888379897
 30
0.0
 11
-361.1212820620148
 21
627.5125137535301
 31
0.0
  0
LINE
  5
2D5
330
1F
100
AcDbEntity
  8
C-A
  6
Continuous
 62
     6
370
     5
100
AcDbLine
 10
-355.6213134043924
 20
628.6408393447465
 30
0.0
 11
-361.6213579435603
 21
626.840714635076
 31
0.0
  0
LINE
  5
2D6
330
1F
100
AcDbEntity
  8
C-A
  6
Continuous
 62
     6
370
     5
100
AcDbLine
 10
-361.6213579435603
 20
632.1849199243493
 30
0.0
 11
-355.6213134043924
 21
630.3847952146788
 31
0.0
  0
LINE
  5
2D7
330
1F
100
AcDbEntity
  8
C-A
  6
Continuous
 62
     6
370
     5
100
AcDbLine
 10
-356.1213892859379
 20
638.0126226270522
 30
0.0
 11
-356.1213892859379
 21
642.0124873599491
 31
0.0
  0
LINE
  5
2D8
330
1F
100
AcDbEntity
  8
C-A
  6
Continuous
 62
     6
370
     5
100
AcDbLine
 10
-356.1213892859379
 20
642.0124873599491
 30
0.0
 11
-361.1212820620148
 21
640.5127545949576
 31
0.0
  0
LINE
  5
2D9
330
1F
100
AcDbEntity
  8
C-A
  6
Continuous
 62
     6
370
     5
100
AcDbLine
 10
-361.1212820620148
 20
639.5128502716889
 30
0.0
 11
-361.1212820620148
 21
640.5127545949576
 31
0.0
  0
LINE
  5
2DA
330
1F
100
AcDbEntity
  8
C-A
  6
Continuous
 62
     6
370
     5
100
AcDbLine
 10
-361.1212820620148
 20
639.5128502716889
 30
0.0
 11
-356.1213892859379
 21
638.0126226270522
 31
0.0
  0
LINE
  5
2DB
330
1F
100
AcDbEntity
  8
C-A
  6
Continuous
 62
     6
370
     5
100
AcDbLine
 10
-361.6213579435603
 20
639.1407007784458
 30
0.0
 11
-355.6213134043924
 21
637.3408235085979
 31
0.0
  0
LINE
  5
2DC
330
1F
100
AcDbEntity
  8
C-A
  6
Continuous
 62
     6
370
     5
100
AcDbLine
 10
-355.6213134043924
 20
642.6847813580489
 30
0.0
 11
-361.6213579435603
 21
640.884904088201
 31
0.0
  0
LINE
  5
2DD
330
1F
100
AcDbEntity
  8
C-A
  6
Continuous
 62
     6
370
     5
100
AcDbLine
 10
-361.1212820620148
 20
606.5126671662201
 30
0.0
 11
-361.1212820620148
 21
610.5126556190285
 31
0.0
  0
LINE
  5
2DE
330
1F
100
AcDbEntity
  8
C-A
  6
Continuous
 62
     6
370
     5
100
AcDbLine
 10
-361.1212820620148
 20
610.5126556190285
 30
0.0
 11
-356.1213892859379
 21
609.0127991341257
 31
0.0
  0
LINE
  5
2DF
330
1F
100
AcDbEntity
  8
C-A
  6
Continuous
 62
     6
370
     5
100
AcDbLine
 10
-356.1213892859379
 20
608.0130185307684
 30
0.0
 11
-356.1213892859379
 21
609.0127991341257
 31
0.0
  0
LINE
  5
2E0
330
1F
100
AcDbEntity
  8
C-A
  6
Continuous
 62
     6
370
     5
100
AcDbLine
 10
-356.1213892859379
 20
608.0130185307684
 30
0.0
 11
-361.1212820620148
 21
606.5126671662201
 31
0.0
  0
LINE
  5
2E1
330
1F
100
AcDbEntity
  8
C-A
  6
Continuous
 62
     6
370
     5
100
AcDbLine
 10
-355.6213134043924
 20
607.6408690375251
 30
0.0
 11
-361.6213579435603
 21
605.8408680477658
 31
0.0
  0
LINE
  5
2E2
330
1F
100
AcDbEntity
  8
C-A
  6
Continuous
 62
     6
370
     5
100
AcDbLine
 10
-361.6213579435603
 20
611.1849496171283
 30
0.0
 11
-355.6213134043924
 21
609.3849486273689
 31
0.0
  0
LINE
  5
2E3
330
1F
100
AcDbEntity
  8
C-A
  6
Continuous
 62
     6
370
     5
100
AcDbLine
 10
-356.1213892859379
 20
617.0126523198309
 30
0.0
 11
-356.1213892859379
 21
621.0125170527277
 31
0.0
  0
LINE
  5
2E4
330
1F
100
AcDbEntity
  8
C-A
  6
Continuous
 62
     6
370
     5
100
AcDbLine
 10
-356.1213892859379
 20
621.0125170527277
 30
0.0
 11
-361.1212820620148
 21
619.5127842877364
 31
0.0
  0
LINE
  5
2E5
330
1F
100
AcDbEntity
  8
C-A
  6
Continuous
 62
     6
370
     5
100
AcDbLine
 10
-361.1212820620148
 20
618.5128799644676
 30
0.0
 11
-361.1212820620148
 21
619.5127842877364
 31
0.0
  0
LINE
  5
2E6
330
1F
100
AcDbEntity
  8
C-A
  6
Continuous
 62
     6
370
     5
100
AcDbLine
 10
-361.1212820620148
 20
618.5128799644676
 30
0.0
 11
-356.1213892859379
 21
617.0126523198309
 31
0.0
  0
LINE
  5
2E7
330
1F
100
AcDbEntity
  8
C-A
  6
Continuous
 62
     6
370
     5
100
AcDbLine
 10
-361.6213579435603
 20
618.140977911047
 30
0.0
 11
-355.6213134043924
 21
616.3408532013764
 31
0.0
  0
LINE
  5
2E8
330
1F
100
AcDbEntity
  8
C-A
  6
Continuous
 62
     6
370
     5
100
AcDbLine
 10
-355.6213134043924
 20
621.6848110508274
 30
0.0
 11
-361.6213579435603
 21
619.8849337809795
 31
0.0
  0
LINE
  5
2E9
330
1F
100
AcDbEntity
  8
C-A
  6
Continuous
 62
     6
370
     5
100
AcDbLine
 10
-361.1212820620148
 20
585.5126968589989
 30
0.0
 11
-361.1212820620148
 21
589.5126853118072
 31
0.0
  0
LINE
  5
2EA
330
1F
100
AcDbEntity
  8
C-A
  6
Continuous
 62
     6
370
     5
100
AcDbLine
 10
-361.1212820620148
 20
589.5126853118072
 30
0.0
 11
-356.1213892859379
 21
588.0128288269043
 31
0.0
  0
LINE
  5
2EB
330
1F
100
AcDbEntity
  8
C-A
  6
Continuous
 62
     6
370
     5
100
AcDbLine
 10
-356.1213892859379
 20
587.013048223547
 30
0.0
 11
-356.1213892859379
 21
588.0128288269043
 31
0.0
  0
LINE
  5
2EC
330
1F
100
AcDbEntity
  8
C-A
  6
Continuous
 62
     6
370
     5
100
AcDbLine
 10
-356.1213892859379
 20
587.013048223547
 30
0.0
 11
-361.1212820620148
 21
585.5126968589989
 31
0.0
  0
LINE
  5
2ED
330
1F
100
AcDbEntity
  8
C-A
  6
Continuous
 62
     6
370
     5
100
AcDbLine
 10
-355.6213134043924
 20
586.6408987303038
 30
0.0
 11
-361.6213579435603
 21
584.8408977405447
 31
0.0
  0
LINE
  5
2EE
330
1F
100
AcDbEntity
  8
C-A
  6
Continuous
 62
     6
370
     5
100
AcDbLine
 10
-361.6213579435603
 20
590.1849793099069
 30
0.0
 11
-355.6213134043924
 21
588.3849783201475
 31
0.0
  0
LINE
  5
2EF
330
1F
100
AcDbEntity
  8
C-A
  6
Continuous
 62
     6
370
     5
100
AcDbLine
 10
-356.1213892859379
 20
596.0126820126095
 30
0.0
 11
-356.1213892859379
 21
600.0125467455066
 31
0.0
  0
LINE
  5
2F0
330
1F
100
AcDbEntity
  8
C-A
  6
Continuous
 62
     6
370
     5
100
AcDbLine
 10
-356.1213892859379
 20
600.0125467455066
 30
0.0
 11
-361.1212820620148
 21
598.5128139805149
 31
0.0
  0
LINE
  5
2F1
330
1F
100
AcDbEntity
  8
C-A
  6
Continuous
 62
     6
370
     5
100
AcDbLine
 10
-361.1212820620148
 20
597.5129096572465
 30
0.0
 11
-361.1212820620148
 21
598.5128139805149
 31
0.0
  0
LINE
  5
2F2
330
1F
100
AcDbEntity
  8
C-A
  6
Continuous
 62
     6
370
     5
100
AcDbLine
 10
-361.1212820620148
 20
597.5129096572465
 30
0.0
 11
-356.1213892859379
 21
596.0126820126095
 31
0.0
  0
LINE
  5
2F3
330
1F
100
AcDbEntity
  8
C-A
  6
Continuous
 62
     6
370
     5
100
AcDbLine
 10
-361.6213579435603
 20
597.1408838839145
 30
0.0
 11
-355.6213134043924
 21
595.3408828941551
 31
0.0
  0
LINE
  5
2F4
330
1F
100
AcDbEntity
  8
C-A
  6
Continuous
 62
     6
370
     5
100
AcDbLine
 10
-355.6213134043924
 20
600.6849644635176
 30
0.0
 11
-361.6213579435603
 21
598.8849634737583
 31
0.0
  0
LINE
  5
2F5
330
1F
100
AcDbEntity
  8
C-A
  6
Continuous
 62
     6
370
     5
100
AcDbLine
 10
-346.1213562939616
 20
655.050339054417
 30
0.0
 11
-346.1213562939616
 21
659.0502037873139
 31
0.0
  0
LINE
  5
2F6
330
1F
100
AcDbEntity
  8
C-A
  6
Continuous
 62
     6
370
     5
100
AcDbLine
 10
-346.1213562939616
 20
659.0502037873139
 30
0.0
 11
-341.1214635178848
 21
657.5504710223225
 31
0.0
  0
LINE
  5
2F7
330
1F
100
AcDbEntity
  8
C-A
  6
Continuous
 62
     6
370
     5
100
AcDbLine
 10
-341.1214635178848
 20
656.5505666990538
 30
0.0
 11
-341.1214635178848
 21
657.5504710223225
 31
0.0
  0
LINE
  5
2F8
330
1F
100
AcDbEntity
  8
C-A
  6
Continuous
 62
     6
370
     5
100
AcDbLine
 10
-341.1214635178848
 20
656.5505666990538
 30
0.0
 11
-346.1213562939616
 21
655.050339054417
 31
0.0
  0
LINE
  5
2F9
330
1F
100
AcDbEntity
  8
C-A
  6
Continuous
 62
     6
370
     5
100
AcDbLine
 10
-340.6213876363393
 20
656.1784172058105
 30
0.0
 11
-346.6214321755072
 21
654.3785399359626
 31
0.0
  0
LINE
  5
2FA
330
1F
100
AcDbEntity
  8
C-A
  6
Continuous
 62
     6
370
     5
100
AcDbLine
 10
-346.6214321755072
 20
659.7224977854137
 30
0.0
 11
-340.6213876363393
 21
657.9226205155658
 31
0.0
  0
LINE
  5
2FB
330
1F
100
AcDbEntity
  8
C-A
  6
Continuous
 62
     6
370
     5
100
AcDbLine
 10
-341.1214635178848
 20
665.5502004881163
 30
0.0
 11
-341.1214635178848
 21
669.5500652210135
 31
0.0
  0
LINE
  5
2FC
330
1F
100
AcDbEntity
  8
C-A
  6
Continuous
 62
     6
370
     5
100
AcDbLine
 10
-341.1214635178848
 20
669.5500652210135
 30
0.0
 11
-346.1213562939616
 21
668.0503324560218
 31
0.0
  0
LINE
  5
2FD
330
1F
100
AcDbEntity
  8
C-A
  6
Continuous
 62
     6
370
     5
100
AcDbLine
 10
-346.1213562939616
 20
667.0504281327533
 30
0.0
 11
-346.1213562939616
 21
668.0503324560218
 31
0.0
  0
LINE
  5
2FE
330
1F
100
AcDbEntity
  8
C-A
  6
Continuous
 62
     6
370
     5
100
AcDbLine
 10
-346.1213562939616
 20
667.0504281327533
 30
0.0
 11
-341.1214635178848
 21
665.5502004881163
 31
0.0
  0
LINE
  5
2FF
330
1F
100
AcDbEntity
  8
C-A
  6
Continuous
 62
     6
370
     5
100
AcDbLine
 10
-346.6214321755072
 20
666.6785260793326
 30
0.0
 11
-340.6213876363393
 21
664.8784013696618
 31
0.0
  0
LINE
  5
300
330
1F
100
AcDbEntity
  8
C-A
  6
Continuous
 62
     6
370
     5
100
AcDbLine
 10
-340.6213876363393
 20
670.2226066589355
 30
0.0
 11
-346.6214321755072
 21
668.4224819492649
 31
0.0
  0
LINE
  5
301
330
1F
100
AcDbEntity
  8
C-A
  6
Continuous
 62
     6
370
     5
100
AcDbLine
 10
-346.1213562939616
 20
634.0503687471958
 30
0.0
 11
-346.1213562939616
 21
638.0502334800926
 31
0.0
  0
LINE
  5
302
330
1F
100
AcDbEntity
  8
C-A
  6
Continuous
 62
     6
370
     5
100
AcDbLine
 10
-346.1213562939616
 20
638.0502334800926
 30
0.0
 11
-341.1214635178848
 21
636.5505007151012
 31
0.0
  0
LINE
  5
303
330
1F
100
AcDbEntity
  8
C-A
  6
Continuous
 62
     6
370
     5
100
AcDbLine
 10
-341.1214635178848
 20
635.5505963918326
 30
0.0
 11
-341.1214635178848
 21
636.5505007151012
 31
0.0
  0
LINE
  5
304
330
1F
100
AcDbEntity
  8
C-A
  6
Continuous
 62
     6
370
     5
100
AcDbLine
 10
-341.1214635178848
 20
635.5505963918326
 30
0.0
 11
-346.1213562939616
 21
634.0503687471958
 31
0.0
  0
LINE
  5
305
330
1F
100
AcDbEntity
  8
C-A
  6
Continuous
 62
     6
370
     5
100
AcDbLine
 10
-340.6213876363393
 20
635.1784468985892
 30
0.0
 11
-346.6214321755072
 21
633.3785696287413
 31
0.0
  0
LINE
  5
306
330
1F
100
AcDbEntity
  8
C-A
  6
Continuous
 62
     6
370
     5
100
AcDbLine
 10
-346.6214321755072
 20
638.7225274781923
 30
0.0
 11
-340.6213876363393
 21
636.9226502083444
 31
0.0
  0
LINE
  5
307
330
1F
100
AcDbEntity
  8
C-A
  6
Continuous
 62
     6
370
     5
100
AcDbLine
 10
-341.1214635178848
 20
644.5502301808951
 30
0.0
 11
-341.1214635178848
 21
648.5503423536147
 31
0.0
  0
LINE
  5
308
330
1F
100
AcDbEntity
  8
C-A
  6
Continuous
 62
     6
370
     5
100
AcDbLine
 10
-341.1214635178848
 20
648.5503423536147
 30
0.0
 11
-346.1213562939616
 21
647.0503621488003
 31
0.0
  0
LINE
  5
309
330
1F
100
AcDbEntity
  8
C-A
  6
Continuous
 62
     6
370
     5
100
AcDbLine
 10
-346.1213562939616
 20
646.0507052653545
 30
0.0
 11
-346.1213562939616
 21
647.0503621488003
 31
0.0
  0
LINE
  5
30A
330
1F
100
AcDbEntity
  8
C-A
  6
Continuous
 62
     6
370
     5
100
AcDbLine
 10
-346.1213562939616
 20
646.0507052653545
 30
0.0
 11
-341.1214635178848
 21
644.5502301808951
 31
0.0
  0
LINE
  5
30B
330
1F
100
AcDbEntity
  8
C-A
  6
Continuous
 62
     6
370
     5
100
AcDbLine
 10
-346.6214321755072
 20
645.6785557721114
 30
0.0
 11
-340.6213876363393
 21
643.8784310624408
 31
0.0
  0
LINE
  5
30C
330
1F
100
AcDbEntity
  8
C-A
  6
Continuous
 62
     6
370
     5
100
AcDbLine
 10
-340.6213876363393
 20
649.2226363517142
 30
0.0
 11
-346.6214321755072
 21
647.4225116420437
 31
0.0
  0
LINE
  5
30D
330
1F
100
AcDbEntity
  8
C-A
  6
Continuous
 62
     6
370
     5
100
AcDbLine
 10
-346.1213562939616
 20
613.0503984399743
 30
0.0
 11
-346.1213562939616
 21
617.0502631728715
 31
0.0
  0
LINE
  5
30E
330
1F
100
AcDbEntity
  8
C-A
  6
Continuous
 62
     6
370
     5
100
AcDbLine
 10
-346.1213562939616
 20
617.0502631728715
 30
0.0
 11
-341.1214635178848
 21
615.5505304078798
 31
0.0
  0
LINE
  5
30F
330
1F
100
AcDbEntity
  8
C-A
  6
Continuous
 62
     6
370
     5
100
AcDbLine
 10
-341.1214635178848
 20
614.5506260846114
 30
0.0
 11
-341.1214635178848
 21
615.5505304078798
 31
0.0
  0
LINE
  5
310
330
1F
100
AcDbEntity
  8
C-A
  6
Continuous
 62
     6
370
     5
100
AcDbLine
 10
-341.1214635178848
 20
614.5506260846114
 30
0.0
 11
-346.1213562939616
 21
613.0503984399743
 31
0.0
  0
LINE
  5
311
330
1F
100
AcDbEntity
  8
C-A
  6
Continuous
 62
     6
370
     5
100
AcDbLine
 10
-340.6213876363393
 20
614.178476591368
 30
0.0
 11
-346.6214321755072
 21
612.3785993215201
 31
0.0
  0
LINE
  5
312
330
1F
100
AcDbEntity
  8
C-A
  6
Continuous
 62
     6
370
     5
100
AcDbLine
 10
-346.6214321755072
 20
617.7228046107937
 30
0.0
 11
-340.6213876363393
 21
615.922679901123
 31
0.0
  0
LINE
  5
313
330
1F
100
AcDbEntity
  8
C-A
  6
Continuous
 62
     6
370
     5
100
AcDbLine
 10
-341.1214635178848
 20
623.5502598736739
 30
0.0
 11
-341.1214635178848
 21
627.5503720463934
 31
0.0
  0
LINE
  5
314
330
1F
100
AcDbEntity
  8
C-A
  6
Continuous
 62
     6
370
     5
100
AcDbLine
 10
-341.1214635178848
 20
627.5503720463934
 30
0.0
 11
-346.1213562939616
 21
626.0506392814017
 31
0.0
  0
LINE
  5
315
330
1F
100
AcDbEntity
  8
C-A
  6
Continuous
 62
     6
370
     5
100
AcDbLine
 10
-346.1213562939616
 20
625.0507349581333
 30
0.0
 11
-346.1213562939616
 21
626.0506392814017
 31
0.0
  0
LINE
  5
316
330
1F
100
AcDbEntity
  8
C-A
  6
Continuous
 62
     6
370
     5
100
AcDbLine
 10
-346.1213562939616
 20
625.0507349581333
 30
0.0
 11
-341.1214635178848
 21
623.5502598736739
 31
0.0
  0
LINE
  5
317
330
1F
100
AcDbEntity
  8
C-A
  6
Continuous
 62
     6
370
     5
100
AcDbLine
 10
-346.6214321755072
 20
624.6785854648899
 30
0.0
 11
-340.6213876363393
 21
622.8784607552194
 31
0.0
  0
LINE
  5
318
330
1F
100
AcDbEntity
  8
C-A
  6
Continuous
 62
     6
370
     5
100
AcDbLine
 10
-340.6213876363393
 20
628.222666044493
 30
0.0
 11
-346.6214321755072
 21
626.4225413348225
 31
0.0
  0
LINE
  5
319
330
1F
100
AcDbEntity
  8
C-A
  6
Continuous
 62
     6
370
     5
100
AcDbLine
 10
-341.1214635178848
 20
602.5504132863639
 30
0.0
 11
-341.1214635178848
 21
606.550401739172
 31
0.0
  0
LINE
  5
31A
330
1F
100
AcDbEntity
  8
C-A
  6
Continuous
 62
     6
370
     5
100
AcDbLine
 10
-341.1214635178848
 20
606.550401739172
 30
0.0
 11
-346.1213562939616
 21
605.0505452542691
 31
0.0
  0
LINE
  5
31B
330
1F
100
AcDbEntity
  8
C-A
  6
Continuous
 62
     6
370
     5
100
AcDbLine
 10
-346.1213562939616
 20
604.0507646509118
 30
0.0
 11
-346.1213562939616
 21
605.0505452542691
 31
0.0
  0
LINE
  5
31C
330
1F
100
AcDbEntity
  8
C-A
  6
Continuous
 62
     6
370
     5
100
AcDbLine
 10
-346.1213562939616
 20
604.0507646509118
 30
0.0
 11
-341.1214635178848
 21
602.5504132863639
 31
0.0
  0
LINE
  5
31D
330
1F
100
AcDbEntity
  8
C-A
  6
Continuous
 62
     6
370
     5
100
AcDbLine
 10
-346.6214321755072
 20
603.6786151576687
 30
0.0
 11
-340.6213876363393
 21
601.878490447998
 31
0.0
  0
LINE
  5
31E
330
1F
100
AcDbEntity
  8
C-A
  6
Continuous
 62
     6
370
     5
100
AcDbLine
 10
-340.6213876363393
 20
607.2226957372718
 30
0.0
 11
-346.6214321755072
 21
605.4226947475124
 31
0.0
  0
LINE
  5
31F
330
1F
100
AcDbEntity
  8
C-A
  6
Continuous
 62
     6
370
     5
100
AcDbLine
 10
-331.1213068059971
 20
668.1223374444085
 30
0.0
 11
-331.1213068059971
 21
672.1222021773056
 31
0.0
  0
LINE
  5
320
330
1F
100
AcDbEntity
  8
C-A
  6
Continuous
 62
     6
370
     5
100
AcDbLine
 10
-331.1213068059971
 20
672.1222021773056
 30
0.0
 11
-326.1214140299202
 21
670.6224694123139
 31
0.0
  0
LINE
  5
321
330
1F
100
AcDbEntity
  8
C-A
  6
Continuous
 62
     6
370
     5
100
AcDbLine
 10
-326.1214140299202
 20
669.6225650890455
 30
0.0
 11
-326.1214140299202
 21
670.6224694123139
 31
0.0
  0
LINE
  5
322
330
1F
100
AcDbEntity
  8
C-A
  6
Continuous
 62
     6
370
     5
100
AcDbLine
 10
-326.1214140299202
 20
669.6225650890455
 30
0.0
 11
-331.1213068059971
 21
668.1223374444085
 31
0.0
  0
LINE
  5
323
330
1F
100
AcDbEntity
  8
C-A
  6
Continuous
 62
     6
370
     5
100
AcDbLine
 10
-325.6213381483747
 20
669.2504155958022
 30
0.0
 11
-331.6213826875426
 21
667.4502908861316
 31
0.0
  0
LINE
  5
324
330
1F
100
AcDbEntity
  8
C-A
  6
Continuous
 62
     6
370
     5
100
AcDbLine
 10
-331.6213826875426
 20
672.7944961754051
 30
0.0
 11
-325.6213381483747
 21
670.9946189055572
 31
0.0
  0
LINE
  5
325
330
1F
100
AcDbEntity
  8
C-A
  6
Continuous
 62
     6
370
     5
100
AcDbLine
 10
-331.1213068059971
 20
647.1223671371874
 30
0.0
 11
-331.1213068059971
 21
651.1222318700843
 31
0.0
  0
LINE
  5
326
330
1F
100
AcDbEntity
  8
C-A
  6
Continuous
 62
     6
370
     5
100
AcDbLine
 10
-331.1213068059971
 20
651.1222318700843
 30
0.0
 11
-326.1214140299202
 21
649.6224991050926
 31
0.0
  0
LINE
  5
327
330
1F
100
AcDbEntity
  8
C-A
  6
Continuous
 62
     6
370
     5
100
AcDbLine
 10
-326.1214140299202
 20
648.6225947818241
 30
0.0
 11
-326.1214140299202
 21
649.6224991050926
 31
0.0
  0
LINE
  5
328
330
1F
100
AcDbEntity
  8
C-A
  6
Continuous
 62
     6
370
     5
100
AcDbLine
 10
-326.1214140299202
 20
648.6225947818241
 30
0.0
 11
-331.1213068059971
 21
647.1223671371874
 31
0.0
  0
LINE
  5
329
330
1F
100
AcDbEntity
  8
C-A
  6
Continuous
 62
     6
370
     5
100
AcDbLine
 10
-325.6213381483747
 20
648.2504452885809
 30
0.0
 11
-331.6213826875426
 21
646.450568018733
 31
0.0
  0
LINE
  5
32A
330
1F
100
AcDbEntity
  8
C-A
  6
Continuous
 62
     6
370
     5
100
AcDbLine
 10
-331.6213826875426
 20
651.794525868184
 30
0.0
 11
-325.6213381483747
 21
649.9944011585135
 31
0.0
  0
LINE
  5
32B
330
1F
100
AcDbEntity
  8
C-A
  6
Continuous
 62
     6
370
     5
100
AcDbLine
 10
-326.1214140299202
 20
657.6222285708866
 30
0.0
 11
-326.1214140299202
 21
661.6220933037835
 31
0.0
  0
LINE
  5
32C
330
1F
100
AcDbEntity
  8
C-A
  6
Continuous
 62
     6
370
     5
100
AcDbLine
 10
-326.1214140299202
 20
661.6220933037835
 30
0.0
 11
-331.1213068059971
 21
660.122360538792
 31
0.0
  0
LINE
  5
32D
330
1F
100
AcDbEntity
  8
C-A
  6
Continuous
 62
     6
370
     5
100
AcDbLine
 10
-331.1213068059971
 20
659.1224562155232
 30
0.0
 11
-331.1213068059971
 21
660.122360538792
 31
0.0
  0
LINE
  5
32E
330
1F
100
AcDbEntity
  8
C-A
  6
Continuous
 62
     6
370
     5
100
AcDbLine
 10
-331.1213068059971
 20
659.1224562155232
 30
0.0
 11
-326.1214140299202
 21
657.6222285708866
 31
0.0
  0
LINE
  5
32F
330
1F
100
AcDbEntity
  8
C-A
  6
Continuous
 62
     6
370
     5
100
AcDbLine
 10
-331.6213826875426
 20
658.7503067222801
 30
0.0
 11
-325.6213381483747
 21
656.9504294524322
 31
0.0
  0
LINE
  5
330
330
1F
100
AcDbEntity
  8
C-A
  6
Continuous
 62
     6
370
     5
100
AcDbLine
 10
-325.6213381483747
 20
662.2946347417059
 30
0.0
 11
-331.6213826875426
 21
660.4945100320354
 31
0.0
  0
LINE
  5
331
330
1F
100
AcDbEntity
  8
C-A
  6
Continuous
 62
     6
370
     5
100
AcDbLine
 10
-331.1213068059971
 20
626.122396829966
 30
0.0
 11
-331.1213068059971
 21
630.1222615628628
 31
0.0
  0
LINE
  5
332
330
1F
100
AcDbEntity
  8
C-A
  6
Continuous
 62
     6
370
     5
100
AcDbLine
 10
-331.1213068059971
 20
630.1222615628628
 30
0.0
 11
-326.1214140299202
 21
628.6225287978715
 31
0.0
  0
LINE
  5
333
330
1F
100
AcDbEntity
  8
C-A
  6
Continuous
 62
     6
370
     5
100
AcDbLine
 10
-326.1214140299202
 20
627.6226244746027
 30
0.0
 11
-326.1214140299202
 21
628.6225287978715
 31
0.0
  0
LINE
  5
334
330
1F
100
AcDbEntity
  8
C-A
  6
Continuous
 62
     6
370
     5
100
AcDbLine
 10
-326.1214140299202
 20
627.6226244746027
 30
0.0
 11
-331.1213068059971
 21
626.122396829966
 31
0.0
  0
LINE
  5
335
330
1F
100
AcDbEntity
  8
C-A
  6
Continuous
 62
     6
370
     5
100
AcDbLine
 10
-325.6213381483747
 20
627.2504749813595
 30
0.0
 11
-331.6213826875426
 21
625.4503502716889
 31
0.0
  0
LINE
  5
336
330
1F
100
AcDbEntity
  8
C-A
  6
Continuous
 62
     6
370
     5
100
AcDbLine
 10
-331.6213826875426
 20
630.7945555609626
 30
0.0
 11
-325.6213381483747
 21
628.9946782911147
 31
0.0
  0
LINE
  5
337
330
1F
100
AcDbEntity
  8
C-A
  6
Continuous
 62
     6
370
     5
100
AcDbLine
 10
-326.1214140299202
 20
636.6222582636652
 30
0.0
 11
-326.1214140299202
 21
640.622370436385
 31
0.0
  0
LINE
  5
338
330
1F
100
AcDbEntity
  8
C-A
  6
Continuous
 62
     6
370
     5
100
AcDbLine
 10
-326.1214140299202
 20
640.622370436385
 30
0.0
 11
-331.1213068059971
 21
639.1223902315708
 31
0.0
  0
LINE
  5
339
330
1F
100
AcDbEntity
  8
C-A
  6
Continuous
 62
     6
370
     5
100
AcDbLine
 10
-331.1213068059971
 20
638.1227333481249
 30
0.0
 11
-331.1213068059971
 21
639.1223902315708
 31
0.0
  0
LINE
  5
33A
330
1F
100
AcDbEntity
  8
C-A
  6
Continuous
 62
     6
370
     5
100
AcDbLine
 10
-331.1213068059971
 20
638.1227333481249
 30
0.0
 11
-326.1214140299202
 21
636.6222582636652
 31
0.0
  0
LINE
  5
33B
330
1F
100
AcDbEntity
  8
C-A
  6
Continuous
 62
     6
370
     5
100
AcDbLine
 10
-331.6213826875426
 20
637.7505838548816
 30
0.0
 11
-325.6213381483747
 21
635.9504591452107
 31
0.0
  0
LINE
  5
33C
330
1F
100
AcDbEntity
  8
C-A
  6
Continuous
 62
     6
370
     5
100
AcDbLine
 10
-325.6213381483747
 20
641.2946644344845
 30
0.0
 11
-331.6213826875426
 21
639.4945397248139
 31
0.0
  0
LINE
  5
33D
330
1F
100
AcDbEntity
  8
C-A
  6
Continuous
 62
     6
370
     5
100
AcDbLine
 10
-326.1214140299202
 20
615.6222879564441
 30
0.0
 11
-326.1214140299202
 21
619.6224001291637
 31
0.0
  0
LINE
  5
33E
330
1F
100
AcDbEntity
  8
C-A
  6
Continuous
 62
     6
370
     5
100
AcDbLine
 10
-326.1214140299202
 20
619.6224001291637
 30
0.0
 11
-331.1213068059971
 21
618.1224199243493
 31
0.0
  0
LINE
  5
33F
330
1F
100
AcDbEntity
  8
C-A
  6
Continuous
 62
     6
370
     5
100
AcDbLine
 10
-331.1213068059971
 20
617.1227630409035
 30
0.0
 11
-331.1213068059971
 21
618.1224199243493
 31
0.0
  0
LINE
  5
340
330
1F
100
AcDbEntity
  8
C-A
  6
Continuous
 62
     6
370
     5
100
AcDbLine
 10
-331.1213068059971
 20
617.1227630409035
 30
0.0
 11
-326.1214140299202
 21
615.6222879564441
 31
0.0
  0
LINE
  5
341
330
1F
100
AcDbEntity
  8
C-A
  6
Continuous
 62
     6
370
     5
100
AcDbLine
 10
-331.6213826875426
 20
616.7506135476604
 30
0.0
 11
-325.6213381483747
 21
614.9504888379897
 31
0.0
  0
LINE
  5
342
330
1F
100
AcDbEntity
  8
C-A
  6
Continuous
 62
     6
370
     5
100
AcDbLine
 10
-325.6213381483747
 20
620.2946941272635
 30
0.0
 11
-331.6213826875426
 21
618.4945694175926
 31
0.0
  0
LINE
  5
343
330
1F
100
AcDbEntity
  8
C-A
  6
Continuous
 62
     6
370
     5
100
AcDbLine
 10
-316.1213810379439
 20
658.2603758734626
 30
0.0
 11
-316.1213810379439
 21
662.2604880461822
 31
0.0
  0
LINE
  5
344
330
1F
100
AcDbEntity
  8
C-A
  6
Continuous
 62
     6
370
     5
100
AcDbLine
 10
-316.1213810379439
 20
662.2604880461822
 30
0.0
 11
-311.1214882618671
 21
660.760507841368
 31
0.0
  0
LINE
  5
345
330
1F
100
AcDbEntity
  8
C-A
  6
Continuous
 62
     6
370
     5
100
AcDbLine
 10
-311.1214882618671
 20
659.760850957922
 30
0.0
 11
-311.1214882618671
 21
660.760507841368
 31
0.0
  0
LINE
  5
346
330
1F
100
AcDbEntity
  8
C-A
  6
Continuous
 62
     6
370
     5
100
AcDbLine
 10
-311.1214882618671
 20
659.760850957922
 30
0.0
 11
-316.1213810379439
 21
658.2603758734626
 31
0.0
  0
LINE
  5
347
330
1F
100
AcDbEntity
  8
C-A
  6
Continuous
 62
     6
370
     5
100
AcDbLine
 10
-310.6214123803213
 20
659.3887014646788
 30
0.0
 11
-316.621333199578
 21
657.5885767550083
 31
0.0
  0
LINE
  5
348
330
1F
100
AcDbEntity
  8
C-A
  6
Continuous
 62
     6
370
     5
100
AcDbLine
 10
-316.621333199578
 20
662.9327820442819
 30
0.0
 11
-310.6214123803213
 21
661.1326573346114
 31
0.0
  0
LINE
  5
349
330
1F
100
AcDbEntity
  8
C-A
  6
Continuous
 62
     6
370
     5
100
AcDbLine
 10
-311.1214882618671
 20
668.7604847469845
 30
0.0
 11
-311.1214882618671
 21
672.7603494798816
 31
0.0
  0
LINE
  5
34A
330
1F
100
AcDbEntity
  8
C-A
  6
Continuous
 62
     6
370
     5
100
AcDbLine
 10
-311.1214882618671
 20
672.7603494798816
 30
0.0
 11
-316.1213810379439
 21
671.2606167148899
 31
0.0
  0
LINE
  5
34B
330
1F
100
AcDbEntity
  8
C-A
  6
Continuous
 62
     6
370
     5
100
AcDbLine
 10
-316.1213810379439
 20
670.2607123916215
 30
0.0
 11
-316.1213810379439
 21
671.2606167148899
 31
0.0
  0
LINE
  5
34C
330
1F
100
AcDbEntity
  8
C-A
  6
Continuous
 62
     6
370
     5
100
AcDbLine
 10
-316.1213810379439
 20
670.2607123916215
 30
0.0
 11
-311.1214882618671
 21
668.7604847469845
 31
0.0
  0
LINE
  5
34D
330
1F
100
AcDbEntity
  8
C-A
  6
Continuous
 62
     6
370
     5
100
AcDbLine
 10
-316.621333199578
 20
669.8885628983783
 30
0.0
 11
-310.6214123803213
 21
668.0884381887076
 31
0.0
  0
LINE
  5
34E
330
1F
100
AcDbEntity
  8
C-A
  6
Continuous
 62
     6
370
     5
100
AcDbLine
 10
-310.6214123803213
 20
673.4326434779812
 30
0.0
 11
-316.621333199578
 21
671.6325187683105
 31
0.0
  0
LINE
  5
34F
330
1F
100
AcDbEntity
  8
C-A
  6
Continuous
 62
     6
370
     5
100
AcDbLine
 10
-316.1213810379439
 20
637.2604055662413
 30
0.0
 11
-316.1213810379439
 21
641.2605177389607
 31
0.0
  0
LINE
  5
350
330
1F
100
AcDbEntity
  8
C-A
  6
Continuous
 62
     6
370
     5
100
AcDbLine
 10
-316.1213810379439
 20
641.2605177389607
 30
0.0
 11
-311.1214882618671
 21
639.7605375341468
 31
0.0
  0
LINE
  5
351
330
1F
100
AcDbEntity
  8
C-A
  6
Continuous
 62
     6
370
     5
100
AcDbLine
 10
-311.1214882618671
 20
638.7606332108783
 30
0.0
 11
-311.1214882618671
 21
639.7605375341468
 31
0.0
  0
LINE
  5
352
330
1F
100
AcDbEntity
  8
C-A
  6
Continuous
 62
     6
370
     5
100
AcDbLine
 10
-311.1214882618671
 20
638.7606332108783
 30
0.0
 11
-316.1213810379439
 21
637.2604055662413
 31
0.0
  0
LINE
  5
353
330
1F
100
AcDbEntity
  8
C-A
  6
Continuous
 62
     6
370
     5
100
AcDbLine
 10
-310.6214123803213
 20
638.3887311574576
 30
0.0
 11
-316.621333199578
 21
636.5886064477868
 31
0.0
  0
LINE
  5
354
330
1F
100
AcDbEntity
  8
C-A
  6
Continuous
 62
     6
370
     5
100
AcDbLine
 10
-316.621333199578
 20
641.9328117370605
 30
0.0
 11
-310.6214123803213
 21
640.1326870273899
 31
0.0
  0
LINE
  5
355
330
1F
100
AcDbEntity
  8
C-A
  6
Continuous
 62
     6
370
     5
100
AcDbLine
 10
-311.1214882618671
 20
647.7605144397635
 30
0.0
 11
-311.1214882618671
 21
651.7603791726604
 31
0.0
  0
LINE
  5
356
330
1F
100
AcDbEntity
  8
C-A
  6
Continuous
 62
     6
370
     5
100
AcDbLine
 10
-311.1214882618671
 20
651.7603791726604
 30
0.0
 11
-316.1213810379439
 21
650.2606464076687
 31
0.0
  0
LINE
  5
357
330
1F
100
AcDbEntity
  8
C-A
  6
Continuous
 62
     6
370
     5
100
AcDbLine
 10
-316.1213810379439
 20
649.2607420844001
 30
0.0
 11
-316.1213810379439
 21
650.2606464076687
 31
0.0
  0
LINE
  5
358
330
1F
100
AcDbEntity
  8
C-A
  6
Continuous
 62
     6
370
     5
100
AcDbLine
 10
-316.1213810379439
 20
649.2607420844001
 30
0.0
 11
-311.1214882618671
 21
647.7605144397635
 31
0.0
  0
LINE
  5
359
330
1F
100
AcDbEntity
  8
C-A
  6
Continuous
 62
     6
370
     5
100
AcDbLine
 10
-316.621333199578
 20
648.8885925911569
 30
0.0
 11
-310.6214123803213
 21
647.0884678814864
 31
0.0
  0
LINE
  5
35A
330
1F
100
AcDbEntity
  8
C-A
  6
Continuous
 62
     6
370
     5
100
AcDbLine
 10
-310.6214123803213
 20
652.43267317076
 30
0.0
 11
-316.621333199578
 21
650.6327959009118
 31
0.0
  0
LINE
  5
35B
330
1F
100
AcDbEntity
  8
C-5
  6
Continuous
 62
     7
370
     9
100
AcDbLine
 10
573.3786338084453
 20
205.3786916990538
 30
0.0
 11
573.3786338084453
 21
270.3782875473436
 31
0.0
  0
LINE
  5
35C
330
1F
100
AcDbEntity
  8
C-5
  6
Continuous
 62
     7
370
     9
100
AcDbLine
 10
573.3786338084453
 20
270.3782875473436
 30
0.0
 11
1048.379211168032
 21
270.3782875473436
 31
0.0
  0
LINE
  5
35D
330
1F
100
AcDbEntity
  8
C-5
  6
Continuous
 62
     7
370
     9
100
AcDbLine
 10
1048.379211168032
 20
270.3782875473436
 30
0.0
 11
1048.379211168032
 21
205.3786916990538
 31
0.0
  0
LINE
  5
35E
330
1F
100
AcDbEntity
  8
C-5
  6
Continuous
 62
     7
370
     9
100
AcDbLine
 10
1048.379211168032
 20
205.3786916990538
 30
0.0
 11
573.3786338084453
 21
205.3786916990538
 31
0.0
  0
LINE
  5
35F
330
1F
100
AcDbEntity
  8
C-4
  6
Continuous
 62
     7
370
     9
100
AcDbLine
 10
975.315922659797
 20
322.9856021984205
 30
0.0
 11
975.315922659797
 21
422.9855609584499
 31
0.0
  0
LINE
  5
360
330
1F
100
AcDbEntity
  8
C-4
  6
Continuous
 62
     7
370
     9
100
AcDbLine
 10
898.5276750616126
 20
322.9856021984205
 30
0.0
 11
978.3161305092481
 21
322.9856021984205
 31
0.0
  0
LINE
  5
361
330
1F
100
AcDbEntity
  8
C-4
  6
Continuous
 62
     7
370
     9
100
AcDbLine
 10
898.5276750616126
 20
422.9855609584499
 30
0.0
 11
978.3161305092481
 21
422.9855609584499
 31
0.0
  0
LINE
  5
362
330
1F
100
AcDbEntity
  8
C-4
  6
Continuous
 62
     7
370
     9
100
AcDbLine
 10
680.0232178456079
 20
433.4454608607936
 30
0.0
 11
680.0232178456079
 21
551.9878176096324
 31
0.0
  0
LINE
  5
363
330
1F
100
AcDbEntity
  8
C-4
  6
Continuous
 62
     7
370
     9
100
AcDbLine
 10
710.0230693817141
 20
433.4454608607936
 30
0.0
 11
710.0230693817141
 21
488.8704964921283
 31
0.0
  0
LINE
  5
364
330
1F
100
AcDbEntity
  8
C-4
  6
Continuous
 62
     7
370
     9
100
AcDbLine
 10
755.0234652854303
 20
433.4454608607936
 30
0.0
 11
755.0234652854303
 21
551.9878176096324
 31
0.0
  0
LINE
  5
365
330
1F
100
AcDbEntity
  8
C-4
  6
Continuous
 62
     7
370
     9
100
AcDbLine
 10
785.0230693817141
 20
433.4454608607936
 30
0.0
 11
785.0230693817141
 21
488.8704964921283
 31
0.0
  0
LINE
  5
366
330
1F
100
AcDbEntity
  8
C-4
  6
Continuous
 62
     7
370
     9
100
AcDbLine
 10
830.0234652854303
 20
433.4454608607936
 30
0.0
 11
830.0234652854303
 21
551.9878176096324
 31
0.0
  0
LINE
  5
367
330
1F
100
AcDbEntity
  8
C-4
  6
Continuous
 62
     7
370
     9
100
AcDbLine
 10
860.0230693817141
 20
433.4454608607936
 30
0.0
 11
860.0230693817141
 21
488.8704964921283
 31
0.0
  0
LINE
  5
368
330
1F
100
AcDbEntity
  8
C-4
  6
Continuous
 62
     7
370
     9
100
AcDbLine
 10
653.1727803720012
 20
485.8705360824999
 30
0.0
 11
886.8747440544339
 21
485.8705360824999
 31
0.0
  0
LINE
  5
369
330
1F
100
AcDbEntity
  8
C-4
  6
Continuous
 62
     7
370
     9
100
AcDbLine
 10
653.1727803720012
 20
548.9877334800926
 30
0.0
 11
886.8747440544339
 21
548.9877334800926
 31
0.0
  0
LINE
  5
36A
330
1F
100
AcDbEntity
  8
C-4
  6
Continuous
 62
     7
370
     9
100
AcDbLine
 10
699.1572444503377
 20
807.4477834959288
 30
0.0
 11
699.1572444503377
 21
847.4479154638343
 31
0.0
  0
LINE
  5
36B
330
1F
100
AcDbEntity
  8
C-4
  6
Continuous
 62
     7
370
     9
100
AcDbLine
 10
759.620402310346
 20
807.4477834959288
 30
0.0
 11
696.1572840407089
 21
807.4477834959288
 31
0.0
  0
LINE
  5
36C
330
1F
100
AcDbEntity
  8
C-4
  6
Continuous
 62
     7
370
     9
100
AcDbLine
 10
759.620402310346
 20
847.4479154638343
 30
0.0
 11
696.1572840407089
 21
847.4479154638343
 31
0.0
  0
LINE
  5
36D
330
1F
100
AcDbEntity
  8
C-4
  6
Continuous
 62
     7
370
     9
100
AcDbLine
 10
699.1572444503377
 20
847.4479154638343
 30
0.0
 11
699.1572444503377
 21
927.4481793996451
 31
0.0
  0
LINE
  5
36E
330
1F
100
AcDbEntity
  8
C-4
  6
Continuous
 62
     7
370
     9
100
AcDbLine
 10
759.620402310346
 20
927.4481793996451
 30
0.0
 11
696.1572840407089
 21
927.4481793996451
 31
0.0
  0
LINE
  5
36F
330
1F
100
AcDbEntity
  8
C-4
  6
Continuous
 62
     7
370
     9
100
AcDbLine
 10
699.1572444503377
 20
927.4481793996451
 30
0.0
 11
699.1572444503377
 21
937.4477175119762
 31
0.0
  0
LINE
  5
370
330
1F
100
AcDbEntity
  8
C-4
  6
Continuous
 62
     7
370
     9
100
AcDbLine
 10
759.620402310346
 20
937.4477175119762
 30
0.0
 11
696.1572840407089
 21
937.4477175119762
 31
0.0
  0
LINE
  5
371
330
1F
100
AcDbEntity
  8
C-4
  6
Continuous
 62
     7
370
     9
100
AcDbLine
 10
699.1572444503377
 20
937.4477175119762
 30
0.0
 11
699.1572444503377
 21
1017.447734007965
 31
0.0
  0
LINE
  5
372
330
1F
100
AcDbEntity
  8
C-4
  6
Continuous
 62
     7
370
     9
100
AcDbLine
 10
759.620402310346
 20
1017.447734007965
 30
0.0
 11
696.1572840407089
 21
1017.447734007965
 31
0.0
  0
LINE
  5
373
330
1F
100
AcDbEntity
  8
C-4
  6
Continuous
 62
     7
370
     9
100
AcDbLine
 10
699.1572444503377
 20
1017.447734007965
 30
0.0
 11
699.1572444503377
 21
1057.44786597587
 31
0.0
  0
LINE
  5
374
330
1F
100
AcDbEntity
  8
C-4
  6
Continuous
 62
     7
370
     9
100
AcDbLine
 10
759.620402310346
 20
1057.44786597587
 30
0.0
 11
696.1572840407089
 21
1057.44786597587
 31
0.0
  0
LINE
  5
375
330
1F
100
AcDbEntity
  8
C-4
  6
Continuous
 62
     7
370
     9
100
AcDbLine
 10
839.8901282130064
 20
903.0216624285725
 30
0.0
 11
916.1953732774068
 21
880.1295197976604
 31
0.0
  0
LINE
  5
376
330
1F
100
AcDbEntity
  8
C-4
  6
Continuous
 62
     7
370
     9
100
AcDbLine
 10
841.3270112630485
 20
907.8108601956753
 30
0.0
 11
917.6322563274491
 21
884.9187175647635
 31
0.0
  0
LINE
  5
377
330
1F
100
AcDbEntity
  8
C-4
  6
Continuous
 62
     7
370
     9
100
AcDbLine
 10
913.3221020569679
 20
880.991600139721
 30
0.0
 11
935.2338881105991
 21
954.0286600267566
 31
0.0
  0
LINE
  5
378
330
1F
100
AcDbEntity
  8
C-4
  6
Continuous
 62
     7
370
     9
100
AcDbLine
 10
770.8705012862752
 20
1150.065086467846
 30
0.0
 11
830.8706992381328
 21
1150.065086467846
 31
0.0
  0
LINE
  5
379
330
1F
100
AcDbEntity
  8
C-4
  6
Continuous
 62
     7
370
     9
100
AcDbLine
 10
770.8705012862752
 20
1110.790200620085
 30
0.0
 11
770.8705012862752
 21
1153.064799437652
 31
0.0
  0
LINE
  5
37A
330
1F
100
AcDbEntity
  8
C-4
  6
Continuous
 62
     7
370
     9
100
AcDbLine
 10
830.8706992381328
 20
1101.887810681317
 30
0.0
 11
830.8706992381328
 21
1153.064799437652
 31
0.0
  0
LINE
  5
37B
330
1F
100
AcDbEntity
  8
C-5
  6
Continuous
 62
     7
370
     9
100
AcDbLine
 10
805.5234586870349
 20
942.6214367634543
 30
0.0
 11
861.9041069133866
 21
1040.274799965523
 31
0.0
  0
LINE
  5
37C
330
1F
100
AcDbEntity
  8
C-5
  6
Continuous
 62
     7
370
     9
100
AcDbLine
 10
805.5234586870349
 20
942.6214367634543
 30
0.0
 11
815.0904719894002
 21
965.7184595675083
 31
0.0
  0
LINE
  5
37D
330
1F
100
AcDbEntity
  8
C-5
  6
Continuous
 62
     7
370
     9
100
AcDbLine
 10
805.5234586870349
 20
942.6214367634543
 30
0.0
 11
820.7424924180318
 21
962.455223186596
 31
0.0
  0
LINE
  5
37E
330
1F
100
AcDbEntity
  8
C-2
  6
Continuous
 62
     3
370
     9
100
AcDbLine
 10
653.1727803720012
 20
387.9861878060007
 30
0.0
 11
690.0230033977616
 21
387.9861878060007
 31
0.0
  0
LINE
  5
37F
330
1F
100
AcDbEntity
  8
C-2
  6
Continuous
 62
     3
370
     9
100
AcDbLine
 10
653.1727803720012
 20
357.9855939504262
 30
0.0
 11
690.0244880366974
 21
357.9855939504262
 31
0.0
  0
LINE
  5
380
330
1F
100
AcDbEntity
  8
C-2
  6
Continuous
 62
     3
370
     9
100
AcDbLine
 10
850.0235312693828
 20
357.9855939504262
 30
0.0
 11
886.8712798969168
 21
357.9855939504262
 31
0.0
  0
LINE
  5
381
330
1F
100
AcDbEntity
  8
C-2
  6
JWW_CENTER1
 62
     3
370
     9
100
AcDbLine
 10
653.1727803720012
 20
372.9863857578587
 30
0.0
 11
886.8722696562074
 21
372.9863857578587
 31
0.0
  0
LINE
  5
382
330
1F
100
AcDbEntity
  8
C-2
  6
Continuous
 62
     3
370
     9
100
AcDbLine
 10
850.0235312693828
 20
387.9861878060007
 30
0.0
 11
886.8727645358526
 21
387.9861878060007
 31
0.0
  0
LINE
  5
383
330
1F
100
AcDbEntity
  8
D-9
  6
Continuous
 62
     4
370
     9
100
AcDbLine
 10
-505.5681138425257
 20
-381.8751881573651
 30
0.0
 11
-509.1929835242192
 21
-385.4998103992359
 31
0.0
  0
LINE
  5
384
330
1F
100
AcDbEntity
  8
D-9
  6
Continuous
 62
     4
370
     9
100
AcDbLine
 10
-620.5683695303426
 20
-372.9996454393541
 30
0.0
 11
-505.5681138425257
 21
-372.9996454393541
 31
0.0
  0
LINE
  5
385
330
1F
100
AcDbEntity
  8
D-9
  6
Continuous
 62
     4
370
     9
100
AcDbLine
 10
-505.5681138425257
 20
-374.8041003459208
 30
0.0
 11
-516.2643187754861
 21
-385.4998103992359
 31
0.0
  0
LINE
  5
386
330
1F
100
AcDbEntity
  8
D-9
  6
Continuous
 62
     4
370
     9
100
AcDbLine
 10
-510.834994187226
 20
-372.9996454393541
 30
0.0
 11
-523.335654026753
 21
-385.4998103992359
 31
0.0
  0
LINE
  5
387
330
1F
100
AcDbEntity
  8
D-9
  6
Continuous
 62
     4
370
     9
100
AcDbLine
 10
-517.9063294384929
 20
-372.9996454393541
 30
0.0
 11
-530.40698927802
 21
-385.4998103992359
 31
0.0
  0
LINE
  5
388
330
1F
100
AcDbEntity
  8
D-9
  6
Continuous
 62
     4
370
     9
100
AcDbLine
 10
-524.9775409698484
 20
-372.9996454393541
 30
0.0
 11
-537.4773347699963
 21
-385.4998103992359
 31
0.0
  0
LINE
  5
389
330
1F
100
AcDbEntity
  8
D-9
  6
Continuous
 62
     4
370
     9
100
AcDbLine
 10
-532.0478864618246
 20
-372.9996454393541
 30
0.0
 11
-544.5486700212632
 21
-385.4998103992359
 31
0.0
  0
LINE
  5
38A
330
1F
100
AcDbEntity
  8
D-9
  6
Continuous
 62
     4
370
     9
100
AcDbLine
 10
-539.1192217130915
 20
-372.9996454393541
 30
0.0
 11
-551.6200052725301
 21
-385.4998103992359
 31
0.0
  0
LINE
  5
38B
330
1F
100
AcDbEntity
  8
D-9
  6
Continuous
 62
     4
370
     9
100
AcDbLine
 10
-546.1905569643585
 20
-372.9996454393541
 30
0.0
 11
-557.6756000518797
 21
-384.4839462074074
 31
0.0
  0
LINE
  5
38C
330
1F
100
AcDbEntity
  8
D-9
  6
Continuous
 62
     4
370
     9
100
AcDbLine
 10
-553.2618922156255
 20
-372.9996454393541
 30
0.0
 11
-563.0890884914911
 21
-382.8268417152199
 31
0.0
  0
LINE
  5
38D
330
1F
100
AcDbEntity
  8
D-9
  6
Continuous
 62
     4
370
     9
100
AcDbLine
 10
-560.3322377076017
 20
-372.9996454393541
 30
0.0
 11
-568.3053673924624
 21
-380.9725276843922
 31
0.0
  0
LINE
  5
38E
330
1F
100
AcDbEntity
  8
D-9
  6
Continuous
 62
     4
370
     9
100
AcDbLine
 10
-567.4035729588686
 20
-372.9996454393541
 30
0.0
 11
-573.5216462934338
 21
-379.1182136535645
 31
0.0
  0
LINE
  5
38F
330
1F
100
AcDbEntity
  8
D-9
  6
Continuous
 62
     4
370
     9
100
AcDbLine
 10
-574.4749082101356
 20
-372.9996454393541
 30
0.0
 11
-579.4751721459463
 21
-377.999909375165
 31
0.0
  0
LINE
  5
390
330
1F
100
AcDbEntity
  8
D-9
  6
Continuous
 62
     4
370
     9
100
AcDbLine
 10
-581.5462434614026
 20
-372.9996454393541
 30
0.0
 11
-586.5455176379228
 21
-377.999909375165
 31
0.0
  0
LINE
  5
391
330
1F
100
AcDbEntity
  8
D-9
  6
Continuous
 62
     4
370
     9
100
AcDbLine
 10
-616.9019299584463
 20
-372.9996454393541
 30
0.0
 11
-621.9012041349665
 21
-377.999909375165
 31
0.0
  0
LINE
  5
392
330
1F
100
AcDbEntity
  8
D-A
  6
JWW_DASHED3
 62
     3
370
     9
100
AcDbLine
 10
-485.5680478585731
 20
-355.4997114233069
 30
0.0
 11
-485.5680478585731
 21
-305.4996701833364
 31
0.0
  0
LINE
  5
393
330
1F
100
AcDbEntity
  8
D-A
  6
Continuous
 62
     3
370
     9
100
AcDbLine
 10
-460.5675942188984
 20
-330.4998763831887
 30
0.0
 11
-460.5675942188984
 21
-314.9998747335899
 31
0.0
  0
LINE
  5
394
330
1F
100
AcDbEntity
  8
D-A
  6
Continuous
 62
     3
370
     9
100
AcDbLine
 10
-485.5680478585731
 20
-305.4996701833364
 30
0.0
 11
-485.5680478585731
 21
-275.5000660870526
 31
0.0
  0
LINE
  5
395
330
1F
100
AcDbEntity
  8
D-A
  6
Continuous
 62
     3
370
     9
100
AcDbLine
 10
-335.5678004187504
 20
-393.9993683067529
 30
0.0
 11
-460.5675942188984
 21
-393.9993683067529
 31
0.0
  0
LINE
  5
396
330
1F
100
AcDbEntity
  8
D-A
  6
Continuous
 62
     3
370
     9
100
AcDbLine
 10
-463.4979003184549
 20
-377.570601282893
 30
0.0
 11
-485.5680478585731
 21
-355.4997114233069
 31
0.0
  0
LINE
  5
397
330
1F
100
AcDbEntity
  8
D-A
  6
Continuous
 62
     3
370
     9
100
AcDbLine
 10
-460.5675942188984
 20
-405.499628943366
 30
0.0
 11
-460.5675942188984
 21
-384.6419365341599
 31
0.0
  0
LINE
  5
398
330
1F
100
AcDbEntity
  8
D-A
  6
Continuous
 62
     3
370
     9
100
AcDbLine
 10
-335.5678004187504
 20
-405.499628943366
 30
0.0
 11
-460.5675942188984
 21
-405.499628943366
 31
0.0
  0
LINE
  5
399
330
1F
100
AcDbEntity
  8
D-A
  6
Continuous
 62
     3
370
     9
100
AcDbLine
 10
-485.5680478585731
 20
-387.9996949273186
 30
0.0
 11
-485.5680478585731
 21
-355.4997114233069
 31
0.0
  0
LINE
  5
39A
330
1F
100
AcDbEntity
  8
D-A
  6
Continuous
 62
     3
370
     9
100
AcDbLine
 10
-485.5680478585731
 20
-387.9996949273186
 30
0.0
 11
-497.0678136155411
 21
-387.9996949273186
 31
0.0
  0
LINE
  5
39B
330
1F
100
AcDbEntity
  8
D-A
  6
Continuous
 62
     3
370
     9
100
AcDbLine
 10
-497.0678136155411
 20
-275.5000660870526
 30
0.0
 11
-497.0678136155411
 21
-387.9996949273186
 31
0.0
  0
LINE
  5
39C
330
1F
100
AcDbEntity
  8
D-A
  6
JWW_CENTER2
 62
     3
370
     9
100
AcDbLine
 10
-442.5731517173145
 20
-333.000008351094
 30
0.0
 11
-502.9906569300468
 21
-333.000008351094
 31
0.0
  0
LINE
  5
39D
330
1F
100
AcDbEntity
  8
D-A
  6
JWW_DASHED3
 62
     3
370
     9
100
AcDbLine
 10
-460.5675942188984
 20
-343.0000413430703
 30
0.0
 11
-497.0678136155411
 21
-343.0000413430703
 31
0.0
  0
LINE
  5
39E
330
1F
100
AcDbEntity
  8
D-A
  6
JWW_DASHED3
 62
     3
370
     9
100
AcDbLine
 10
-460.5675942188984
 20
-350.999647088953
 30
0.0
 11
-460.5675942188984
 21
-330.4998763831887
 31
0.0
  0
LINE
  5
39F
330
1F
100
AcDbEntity
  8
D-A
  6
JWW_DASHED3
 62
     3
370
     9
100
AcDbLine
 10
-460.5675942188984
 20
-341.7504702387629
 30
0.0
 11
-497.0678136155411
 21
-341.7504702387629
 31
0.0
  0
LINE
  5
3A0
330
1F
100
AcDbEntity
  8
D-A
  6
Continuous
 62
     3
370
     9
100
AcDbLine
 10
-499.3182788024075
 20
-322.9999753591177
 30
0.0
 11
-500.567849906715
 21
-324.2500413430703
 31
0.0
  0
LINE
  5
3A1
330
1F
100
AcDbEntity
  8
D-A
  6
Continuous
 62
     3
370
     9
100
AcDbLine
 10
-499.3182788024075
 20
-343.0000413430703
 30
0.0
 11
-500.567849906715
 21
-341.7504702387629
 31
0.0
  0
LINE
  5
3A2
330
1F
100
AcDbEntity
  8
D-A
  6
Continuous
 62
     3
370
     9
100
AcDbLine
 10
-499.3182788024075
 20
-322.9999753591177
 30
0.0
 11
-499.3182788024075
 21
-343.0000413430703
 31
0.0
  0
LINE
  5
3A3
330
1F
100
AcDbEntity
  8
D-A
  6
Continuous
 62
     3
370
     9
100
AcDbLine
 10
-497.0678136155411
 20
-324.2500413430703
 30
0.0
 11
-500.567849906715
 21
-324.2500413430703
 31
0.0
  0
LINE
  5
3A4
330
1F
100
AcDbEntity
  8
D-A
  6
Continuous
 62
     3
370
     9
100
AcDbLine
 10
-497.0678136155411
 20
-322.9999753591177
 30
0.0
 11
-499.3182788024075
 21
-322.9999753591177
 31
0.0
  0
LINE
  5
3A5
330
1F
100
AcDbEntity
  8
D-A
  6
Continuous
 62
     3
370
     9
100
AcDbLine
 10
-497.0678136155411
 20
-341.7504702387629
 30
0.0
 11
-500.567849906715
 21
-341.7504702387629
 31
0.0
  0
LINE
  5
3A6
330
1F
100
AcDbEntity
  8
D-A
  6
Continuous
 62
     3
370
     9
100
AcDbLine
 10
-497.0678136155411
 20
-343.0000413430703
 30
0.0
 11
-499.3182788024075
 21
-343.0000413430703
 31
0.0
  0
LINE
  5
3A7
330
1F
100
AcDbEntity
  8
D-A
  6
Continuous
 62
     3
370
     9
100
AcDbLine
 10
-454.0680923977411
 20
-314.9998747335899
 30
0.0
 11
-460.5675942188984
 21
-314.9998747335899
 31
0.0
  0
LINE
  5
3A8
330
1F
100
AcDbEntity
  8
D-A
  6
JWW_DASHED3
 62
     3
370
     9
100
AcDbLine
 10
-454.0680923977411
 20
-350.999647088953
 30
0.0
 11
-460.5675942188984
 21
-350.999647088953
 31
0.0
  0
LINE
  5
3A9
330
1F
100
AcDbEntity
  8
D-A
  6
JWW_DASHED3
 62
     3
370
     9
100
AcDbLine
 10
-447.568590576584
 20
-344.499774108062
 30
0.0
 11
-447.568590576584
 21
-343.5002409445274
 31
0.0
  0
LINE
  5
3AA
330
1F
100
AcDbEntity
  8
D-A
  6
Continuous
 62
     3
370
     9
100
AcDbLine
 10
-447.568590576584
 20
-321.4993765547468
 30
0.0
 11
-447.568590576584
 21
-343.5002409445274
 31
0.0
  0
LINE
  5
3AB
330
1F
100
AcDbEntity
  8
D-A
  6
Continuous
 62
     3
370
     9
100
AcDbLine
 10
-460.5675942188984
 20
-322.9999753591177
 30
0.0
 11
-468.0681138425257
 21
-322.9999753591177
 31
0.0
  0
LINE
  5
3AC
330
1F
100
AcDbEntity
  8
D-A
  6
Continuous
 62
     3
370
     9
100
AcDbLine
 10
-460.5675942188984
 20
-324.2500413430703
 30
0.0
 11
-466.8185427382184
 21
-324.2500413430703
 31
0.0
  0
LINE
  5
3AD
330
1F
100
AcDbEntity
  8
D-A
  6
JWW_DASHED3
 62
     3
370
     9
100
AcDbLine
 10
-468.0681138425257
 20
-322.9999753591177
 30
0.0
 11
-497.0678136155411
 21
-322.9999753591177
 31
0.0
  0
LINE
  5
3AE
330
1F
100
AcDbEntity
  8
D-A
  6
JWW_DASHED3
 62
     3
370
     9
100
AcDbLine
 10
-497.0678136155411
 20
-324.2500413430703
 30
0.0
 11
-466.8185427382184
 21
-324.2500413430703
 31
0.0
  0
LINE
  5
3AF
330
1F
100
AcDbEntity
  8
D-A
  6
Continuous
 62
     3
370
     9
100
AcDbLine
 10
-444.3559556394007
 20
-346.7127521617992
 30
0.0
 11
-485.5680478585731
 21
-305.4996701833364
 31
0.0
  0
LINE
  5
3B0
330
1F
100
AcDbEntity
  8
D-A
  6
Continuous
 62
     3
370
     9
100
AcDbLine
 10
-423.1419498856002
 20
-355.4997114233069
 30
0.0
 11
-345.5683282903721
 21
-355.4997114233069
 31
0.0
  0
LINE
  5
3B1
330
1F
100
AcDbEntity
  8
D-4
  6
Continuous
 62
     7
370
     9
100
AcDbLine
 10
-1208.236030630163
 20
-149.5806621860814
 30
0.0
 11
-635.5681715784842
 21
-149.5806621860814
 31
0.0
  0
LINE
  5
3B2
330
1F
100
AcDbEntity
  8
D-4
  6
Continuous
 62
     7
370
     9
100
AcDbLine
 10
-635.5681715784842
 20
-255.043844790072
 30
0.0
 11
-635.5681715784842
 21
-146.5800831768965
 31
0.0
  0
LINE
  5
3B3
330
1F
100
AcDbEntity
  8
D-4
  6
Continuous
 62
     7
370
     9
100
AcDbLine
 10
-635.5681715784842
 20
-149.5806621860814
 30
0.0
 11
-510.567388019046
 21
-149.5806621860814
 31
0.0
  0
LINE
  5
3B4
330
1F
100
AcDbEntity
  8
D-4
  6
Continuous
 62
     7
370
     9
100
AcDbLine
 10
-510.567388019046
 20
-255.043844790072
 30
0.0
 11
-510.567388019046
 21
-37.82867276990743
 31
0.0
  0
LINE
  5
3B5
330
1F
100
AcDbEntity
  8
D-4
  6
Continuous
 62
     7
370
     9
100
AcDbLine
 10
-505.5671240832353
 20
-255.043844790072
 30
0.0
 11
-505.5671240832353
 21
-37.82867276990743
 31
0.0
  0
LINE
  5
3B6
330
1F
100
AcDbEntity
  8
D-4
  6
Continuous
 62
     7
370
     9
100
AcDbLine
 10
-480.5687736820528
 20
-255.043844790072
 30
0.0
 11
-480.5687736820528
 21
72.86798580272773
 31
0.0
  0
LINE
  5
3B7
330
1F
100
AcDbEntity
  8
D-5
  6
Continuous
 62
     7
370
     9
100
AcDbLine
 10
-344.1373837960731
 20
-162.4509971206251
 30
0.0
 11
-84.755620440921
 21
-162.4509971206251
 31
0.0
  0
LINE
  5
3B8
330
1F
100
AcDbEntity
  8
D-4
  6
Continuous
 62
     7
370
     9
100
AcDbLine
 10
-635.5671818191939
 20
-830.5831811234758
 30
0.0
 11
-235.5663570197851
 21
-830.5831811234758
 31
0.0
  0
LINE
  5
3B9
330
1F
100
AcDbEntity
  8
D-4
  6
Continuous
 62
     7
370
     9
100
AcDbLine
 10
-235.5663570197851
 20
-590.373426385828
 30
0.0
 11
-235.5663570197851
 21
-833.5827085134146
 31
0.0
  0
LINE
  5
3BA
330
1F
100
AcDbEntity
  8
D-4
  6
Continuous
 62
     7
370
     9
100
AcDbLine
 10
-635.5671818191939
 20
-676.1187481235813
 30
0.0
 11
-485.5680478585731
 21
-676.1187481235813
 31
0.0
  0
LINE
  5
3BB
330
1F
100
AcDbEntity
  8
D-4
  6
Continuous
 62
     7
370
     9
100
AcDbLine
 10
36.11700083758393
 20
-520.500008351094
 30
0.0
 11
36.11700083758393
 21
-270.4998021512418
 31
0.0
  0
LINE
  5
3BC
330
1F
100
AcDbEntity
  8
D-4
  6
Continuous
 62
     7
370
     9
100
AcDbLine
 10
-59.53803835688376
 20
-270.4998021512418
 30
0.0
 11
39.11770356668029
 21
-270.4998021512418
 31
0.0
  0
LINE
  5
3BD
330
1F
100
AcDbEntity
  8
D-6
  6
Continuous
 62
     6
370
     5
100
AcDbLine
 10
-485.5680478585731
 20
-520.500008351094
 30
0.0
 11
-485.5680478585731
 21
-770.4997196713009
 31
0.0
  0
LINE
  5
3BE
330
1F
100
AcDbEntity
  8
D-6
  6
JWW_DASHED3
 62
     6
370
     5
100
AcDbLine
 10
-392.0661062807648
 20
-647.9999341191473
 30
0.0
 11
-392.0661062807648
 21
-520.500008351094
 31
0.0
  0
LINE
  5
3BF
330
1F
100
AcDbEntity
  8
D-6
  6
JWW_DASHED3
 62
     6
370
     5
100
AcDbLine
 10
-347.0667001363393
 20
-520.500008351094
 30
0.0
 11
-347.0667001363393
 21
-647.9999341191473
 31
0.0
  0
LINE
  5
3C0
330
1F
100
AcDbEntity
  8
D-6
  6
Continuous
 62
     6
370
     5
100
AcDbLine
 10
-235.5683365383661
 20
-420.5000495910645
 30
0.0
 11
-70.5674210110223
 21
-420.5000495910645
 31
0.0
  0
LINE
  5
3C1
330
1F
100
AcDbEntity
  8
D-6
  6
Continuous
 62
     6
370
     5
100
AcDbLine
 10
-470.5682458104312
 20
-765.649033108273
 30
0.0
 11
-125.4166641750848
 21
-420.5000495910645
 31
0.0
  0
LINE
  5
3C2
330
1F
100
AcDbEntity
  8
D-6
  6
Continuous
 62
     6
370
     5
100
AcDbLine
 10
-470.5682458104312
 20
-758.5767080977156
 30
0.0
 11
-132.4909687042233
 21
-420.5000495910645
 31
0.0
  0
LINE
  5
3C3
330
1F
100
AcDbEntity
  8
D-6
  6
Continuous
 62
     6
370
     5
100
AcDbLine
 10
-470.5682458104312
 20
-751.5083421243205
 30
0.0
 11
-239.5579325186236
 21
-520.500008351094
 31
0.0
  0
LINE
  5
3C4
330
1F
100
AcDbEntity
  8
D-6
  6
Continuous
 62
     6
370
     5
100
AcDbLine
 10
-235.5683365383661
 20
-420.5000495910645
 30
0.0
 11
-235.5683365383661
 21
-520.500008351094
 31
0.0
  0
LINE
  5
3C5
330
1F
100
AcDbEntity
  8
D-6
  6
Continuous
 62
     6
370
     5
100
AcDbLine
 10
-235.5683365383661
 20
-516.5099174911911
 30
0.0
 11
-139.5573551590377
 21
-420.5000495910645
 31
0.0
  0
LINE
  5
3C6
330
1F
100
AcDbEntity
  8
D-4
  6
Continuous
 62
     7
370
     9
100
AcDbLine
 10
-179.7884722013728
 20
-520.500008351094
 30
0.0
 11
39.11770356668029
 21
-520.500008351094
 31
0.0
  0
LINE
  5
3C7
330
1F
100
AcDbEntity
  8
D-6
  6
Continuous
 62
     6
370
     5
100
AcDbLine
 10
-485.5680478585731
 20
-520.500008351094
 30
0.0
 11
-235.5683365383661
 21
-520.500008351094
 31
0.0
  0
LINE
  5
3C8
330
1F
100
AcDbEntity
  8
D-6
  6
Continuous
 62
     6
370
     5
100
AcDbLine
 10
-392.0661062807648
 20
-323.0004702387629
 30
0.0
 11
-347.0667001363393
 21
-323.0004702387629
 31
0.0
  0
LINE
  5
3C9
330
1F
100
AcDbEntity
  8
D-6
  6
JWW_CENTER2
 62
     6
370
     5
100
AcDbLine
 10
-369.5668980881973
 20
-318.9204350033322
 30
0.0
 11
-369.5668980881973
 21
-647.9999341191473
 31
0.0
  0
LINE
  5
3CA
330
1F
100
AcDbEntity
  8
D-4
  6
Continuous
 62
     7
370
     9
100
AcDbLine
 10
-480.5677839227621
 20
-408.4675458959632
 30
0.0
 11
-480.5677839227621
 21
-464.0309003881507
 31
0.0
  0
LINE
  5
3CB
330
1F
100
AcDbEntity
  8
D-4
  6
Continuous
 62
     7
370
     9
100
AcDbLine
 10
-335.5678004187504
 20
-408.4675458959632
 30
0.0
 11
-335.5678004187504
 21
-464.0309003881507
 31
0.0
  0
LINE
  5
3CC
330
1F
100
AcDbEntity
  8
D-4
  6
Continuous
 62
     7
370
     9
100
AcDbLine
 10
-323.7409192162588
 20
-405.5001238230112
 30
0.0
 11
-244.5174926036111
 21
-405.5001238230112
 31
0.0
  0
LINE
  5
3CD
330
1F
100
AcDbEntity
  8
D-4
  6
Continuous
 62
     7
370
     9
100
AcDbLine
 10
-323.7409192162588
 20
-355.5002063029521
 30
0.0
 11
-244.5174926036111
 21
-355.5002063029521
 31
0.0
  0
LINE
  5
3CE
330
1F
100
AcDbEntity
  8
D-4
  6
Continuous
 62
     7
370
     9
100
AcDbLine
 10
-247.5170818535054
 20
-355.5002063029521
 30
0.0
 11
-247.5170818535054
 21
-270.4998021512418
 31
0.0
  0
LINE
  5
3CF
330
1F
100
AcDbEntity
  8
D-6
  6
Continuous
 62
     6
370
     5
100
AcDbLine
 10
-392.0661062807648
 20
-355.4997114233069
 30
0.0
 11
-392.0661062807648
 21
-323.0004702387629
 31
0.0
  0
LINE
  5
3D0
330
1F
100
AcDbEntity
  8
D-6
  6
Continuous
 62
     6
370
     5
100
AcDbLine
 10
-347.0667001363393
 20
-355.4997114233069
 30
0.0
 11
-347.0667001363393
 21
-323.0004702387629
 31
0.0
  0
LINE
  5
3D1
330
1F
100
AcDbEntity
  8
D-6
  6
Continuous
 62
     6
370
     5
100
AcDbLine
 10
-392.0661062807648
 20
-520.500008351094
 30
0.0
 11
-392.0661062807648
 21
-405.499628943366
 31
0.0
  0
LINE
  5
3D2
330
1F
100
AcDbEntity
  8
D-6
  6
Continuous
 62
     6
370
     5
100
AcDbLine
 10
-347.0667001363393
 20
-520.500008351094
 30
0.0
 11
-347.0667001363393
 21
-405.499628943366
 31
0.0
  0
LINE
  5
3D3
330
1F
100
AcDbEntity
  8
D-4
  6
Continuous
 62
     7
370
     9
100
AcDbLine
 10
-781.050786456546
 20
-395.4998433912123
 30
0.0
 11
-781.050786456546
 21
-270.4998021512418
 31
0.0
  0
LINE
  5
3D4
330
1F
100
AcDbEntity
  8
D-4
  6
Continuous
 62
     7
370
     9
100
AcDbLine
 10
-640.4922240489236
 20
-395.4998433912123
 30
0.0
 11
-784.0502519865292
 21
-395.4998433912123
 31
0.0
  0
LINE
  5
3D5
330
1F
100
AcDbEntity
  8
D-4
  6
Continuous
 62
     7
370
     9
100
AcDbLine
 10
-1208.236030630163
 20
69.86715935372018
 30
0.0
 11
-480.5687736820528
 21
69.86715935372018
 31
0.0
  0
LINE
  5
3D6
330
1F
100
AcDbEntity
  8
D-4
  6
Continuous
 62
     7
370
     9
100
AcDbLine
 10
-517.8478099204398
 20
-270.4998021512418
 30
0.0
 11
-784.0502519865292
 21
-270.4998021512418
 31
0.0
  0
LINE
  5
3D7
330
1F
100
AcDbEntity
  8
D-4
  6
Continuous
 62
     7
370
     9
100
AcDbLine
 10
-1208.236030630163
 20
-40.82850945962434
 30
0.0
 11
-480.5687736820528
 21
-40.82850945962434
 31
0.0
  0
LINE
  5
3D8
330
1F
100
AcDbEntity
  8
D-4
  6
Continuous
 62
     7
370
     9
100
AcDbLine
 10
-480.5677839227621
 20
-461.0305688187883
 30
0.0
 11
-335.5678004187504
 21
-461.0305688187883
 31
0.0
  0
LINE
  5
3D9
330
1F
100
AcDbEntity
  8
D-5
  6
Continuous
 62
     2
370
     9
100
AcDbLine
 10
-977.5625447969178
 20
-966.4421808397448
 30
0.0
 11
-977.5625447969178
 21
-901.4425849914551
 31
0.0
  0
LINE
  5
3DA
330
1F
100
AcDbEntity
  8
D-5
  6
Continuous
 62
     2
370
     9
100
AcDbLine
 10
-977.5625447969178
 20
-901.4425849914551
 30
0.0
 11
-402.5621323972132
 21
-901.4425849914551
 31
0.0
  0
LINE
  5
3DB
330
1F
100
AcDbEntity
  8
D-5
  6
Continuous
 62
     2
370
     9
100
AcDbLine
 10
-402.5621323972132
 20
-901.4425849914551
 30
0.0
 11
-402.5621323972132
 21
-966.4421808397448
 31
0.0
  0
LINE
  5
3DC
330
1F
100
AcDbEntity
  8
D-5
  6
Continuous
 62
     2
370
     9
100
AcDbLine
 10
-402.5621323972132
 20
-966.4421808397448
 30
0.0
 11
-977.5625447969178
 21
-966.4421808397448
 31
0.0
  0
LINE
  5
3DD
330
1F
100
AcDbEntity
  8
D-4
  6
Continuous
 62
     7
370
     9
100
AcDbLine
 10
-247.5170818535054
 20
-405.5001238230112
 30
0.0
 11
-247.5170818535054
 21
-355.5002063029521
 31
0.0
  0
LINE
  5
3DE
330
1F
100
AcDbEntity
  8
D-4
  6
Continuous
 62
     7
370
     9
100
AcDbLine
 10
-635.5671818191939
 20
-795.4999877311088
 30
0.0
 11
-635.5671818191939
 21
-833.5827085134146
 31
0.0
  0
LINE
  5
3DF
330
1F
100
AcDbEntity
  8
D-A
  6
Continuous
 62
     3
370
     9
100
AcDbLine
 10
-497.0678136155411
 20
-275.5000660870526
 30
0.0
 11
-485.5680478585731
 21
-275.5000660870526
 31
0.0
  0
LINE
  5
3E0
330
1F
100
AcDbEntity
  8
D-5
  6
Continuous
 62
     7
370
     9
100
AcDbLine
 10
-455.3692547050679
 20
-364.2175112543879
 30
0.0
 11
-441.5585247245991
 21
-343.3782531119682
 31
0.0
  0
LINE
  5
3E1
330
1F
100
AcDbEntity
  8
D-5
  6
Continuous
 62
     7
370
     9
100
AcDbLine
 10
-455.3692547050679
 20
-364.2175112543879
 30
0.0
 11
-436.6344722541601
 21
-347.6631685205408
 31
0.0
  0
LINE
  5
3E2
330
1F
100
AcDbEntity
  8
D-5
  6
Continuous
 62
     7
370
     9
100
AcDbLine
 10
-455.3682649457775
 20
-364.2165214950974
 30
0.0
 11
-329.4596246770908
 21
-219.5541696290712
 31
0.0
  0
LINE
  5
3E3
330
1F
100
AcDbEntity
  8
D-5
  6
Continuous
 62
     7
370
     9
100
AcDbLine
 10
-329.4596246770908
 20
-219.5541696290712
 30
0.0
 11
57.24168081541336
 21
-219.5541696290712
 31
0.0
  0
LINE
  5
3E4
330
1F
100
AcDbEntity
  8
D-5
  6
Continuous
 62
     7
370
     9
100
AcDbLine
 10
-526.0488316819474
 20
-371.4559921058449
 30
0.0
 11
-512.2361221828974
 21
-350.6176000028043
 31
0.0
  0
LINE
  5
3E5
330
1F
100
AcDbEntity
  8
D-5
  6
Continuous
 62
     7
370
     9
100
AcDbLine
 10
-526.0488316819474
 20
-371.4559921058449
 30
0.0
 11
-507.3151627102411
 21
-354.9016493719978
 31
0.0
  0
LINE
  5
3E6
330
1F
100
AcDbEntity
  8
D-5
  6
Continuous
 62
     7
370
     9
100
AcDbLine
 10
-482.5198366835309
 20
-273.2957484271076
 30
0.0
 11
-468.7092304229733
 21
-252.4573563240669
 31
0.0
  0
LINE
  5
3E7
330
1F
100
AcDbEntity
  8
D-5
  6
Continuous
 62
     7
370
     9
100
AcDbLine
 10
-482.5198366835309
 20
-273.2957484271076
 30
0.0
 11
-463.7851779525343
 21
-256.7416531330831
 31
0.0
  0
LINE
  5
3E8
330
1F
100
AcDbEntity
  8
D-5
  6
Continuous
 62
     7
370
     9
100
AcDbLine
 10
-338.2938449447218
 20
-107.5886396459632
 30
0.0
 11
-482.5198366835309
 21
-273.2957484271076
 31
0.0
  0
LINE
  5
3E9
330
1F
100
AcDbEntity
  8
D-5
  6
Continuous
 62
     7
370
     9
100
AcDbLine
 10
-344.1373837960731
 20
-162.4509971206251
 30
0.0
 11
-526.0488316819474
 21
-371.4559921058449
 31
0.0
  0
LINE
  5
3EA
330
1F
100
AcDbEntity
  8
D-5
  6
Continuous
 62
     7
370
     9
100
AcDbLine
 10
-338.2938449447218
 20
-107.5886396459632
 30
0.0
 11
110.4946896836566
 21
-107.5886396459632
 31
0.0
  0
LINE
  5
3EB
330
1F
100
AcDbEntity
  8
D-6
  6
Continuous
 62
     6
370
     5
100
AcDbLine
 10
-483.5683629319473
 20
-270.4998021512418
 30
0.0
 11
-70.5674210110223
 21
-270.4998021512418
 31
0.0
  0
LINE
  5
3EC
330
1F
100
AcDbEntity
  8
D-6
  6
Continuous
 62
     6
370
     5
100
AcDbLine
 10
-635.5671818191939
 20
-390.4998268952241
 30
0.0
 11
-635.5671818191939
 21
-770.4997196713009
 31
0.0
  0
LINE
  5
3ED
330
1F
100
AcDbEntity
  8
D-A
  6
Continuous
 62
     3
370
     9
100
AcDbLine
 10
-335.5678004187504
 20
-365.4999918551059
 30
0.0
 11
-335.5678004187504
 21
-405.499628943366
 31
0.0
  0
LINE
  5
3EE
330
1F
100
AcDbEntity
  8
D-1
  6
Continuous
 62
     2
370
     9
100
AcDbLine
 10
-485.5687901780411
 20
-275.49981864723
 30
0.0
 11
-500.5688396660054
 21
-275.49981864723
 31
0.0
  0
LINE
  5
3EF
330
1F
100
AcDbEntity
  8
D-1
  6
Continuous
 62
     2
370
     9
100
AcDbLine
 10
-480.5687736820528
 20
-367.9997526632774
 30
0.0
 11
-485.5687901780411
 21
-367.9997526632774
 31
0.0
  0
LINE
  5
3F0
330
1F
100
AcDbEntity
  8
D-1
  6
Continuous
 62
     2
370
     9
100
AcDbLine
 10
-485.5687901780411
 20
-390.4998268952241
 30
0.0
 11
-485.5687901780411
 21
-367.9997526632774
 31
0.0
  0
LINE
  5
3F1
330
1F
100
AcDbEntity
  8
D-1
  6
Continuous
 62
     2
370
     9
100
AcDbLine
 10
-480.5687736820528
 20
-297.9997691592655
 30
0.0
 11
-485.5687901780411
 21
-297.9997691592655
 31
0.0
  0
LINE
  5
3F2
330
1F
100
AcDbEntity
  8
D-1
  6
Continuous
 62
     2
370
     9
100
AcDbLine
 10
-485.5687901780411
 20
-297.9997691592655
 30
0.0
 11
-485.5687901780411
 21
-275.49981864723
 31
0.0
  0
LINE
  5
3F3
330
1F
100
AcDbEntity
  8
D-1
  6
Continuous
 62
     2
370
     9
100
AcDbLine
 10
-480.5687736820528
 20
-273.4997625608702
 30
0.0
 11
-480.5687736820528
 21
-297.9997691592655
 31
0.0
  0
LINE
  5
3F4
330
1F
100
AcDbEntity
  8
D-1
  6
Continuous
 62
     2
370
     9
100
AcDbLine
 10
-480.5687736820528
 20
-392.4997592616725
 30
0.0
 11
-480.5687736820528
 21
-367.9997526632774
 31
0.0
  0
LINE
  5
3F5
330
1F
100
AcDbEntity
  8
D-1
  6
Continuous
 62
     2
370
     9
100
AcDbLine
 10
-505.5688561619937
 20
-385.4998103992359
 30
0.0
 11
-555.5687736820528
 21
-385.4998103992359
 31
0.0
  0
LINE
  5
3F6
330
1F
100
AcDbEntity
  8
D-1
  6
Continuous
 62
     2
370
     9
100
AcDbLine
 10
-500.5688396660054
 20
-385.4998103992359
 30
0.0
 11
-500.5688396660054
 21
-275.49981864723
 31
0.0
  0
LINE
  5
3F7
330
1F
100
AcDbEntity
  8
D-1
  6
Continuous
 62
     2
370
     9
100
AcDbLine
 10
-505.5688561619937
 20
-385.4998103992359
 30
0.0
 11
-505.5688561619937
 21
-273.4997625608702
 31
0.0
  0
LINE
  5
3F8
330
1F
100
AcDbEntity
  8
D-1
  6
Continuous
 62
     2
370
     9
100
AcDbLine
 10
-575.8562410199963
 20
-378.2885479282689
 30
0.0
 11
-555.5687736820528
 21
-385.4998103992359
 31
0.0
  0
LINE
  5
3F9
330
1F
100
AcDbEntity
  8
D-1
  6
Continuous
 62
     2
370
     9
100
AcDbLine
 10
-556.9393428596288
 20
-390.2111883421202
 30
0.0
 11
-577.235346871453
 21
-382.9998021512418
 31
0.0
  0
LINE
  5
3FA
330
1F
100
AcDbEntity
  8
D-1
  6
Continuous
 62
     2
370
     9
100
AcDbLine
 10
-502.5687720324541
 20
-270.4998021512418
 30
0.0
 11
-483.5687340916812
 21
-270.4998021512418
 31
0.0
  0
LINE
  5
3FB
330
1F
100
AcDbEntity
  8
D-1
  6
Continuous
 62
     2
370
     9
100
AcDbLine
 10
-630.5687736820528
 20
-390.4998268952241
 30
0.0
 11
-485.5687901780411
 21
-390.4998268952241
 31
0.0
  0
LINE
  5
3FC
330
1F
100
AcDbEntity
  8
D-1
  6
Continuous
 62
     2
370
     9
100
AcDbLine
 10
-630.5687736820528
 20
-390.4998268952241
 30
0.0
 11
-630.5687736820528
 21
-382.9998021512418
 31
0.0
  0
LINE
  5
3FD
330
1F
100
AcDbEntity
  8
D-1
  6
Continuous
 62
     2
370
     9
100
AcDbLine
 10
-630.5687736820528
 20
-395.4998433912123
 30
0.0
 11
-483.5687340916812
 21
-395.4998433912123
 31
0.0
  0
LINE
  5
3FE
330
1F
100
AcDbEntity
  8
D-1
  6
Continuous
 62
     2
370
     9
100
AcDbLine
 10
-635.5687901780411
 20
-390.4998268952241
 30
0.0
 11
-635.5687901780411
 21
-382.9998021512418
 31
0.0
  0
LINE
  5
3FF
330
1F
100
AcDbEntity
  8
D-1
  6
Continuous
 62
     2
370
     9
100
AcDbLine
 10
-593.7385932819262
 20
-378.669605255127
 30
0.0
 11
-605.5688149220234
 21
-385.4998103992359
 31
0.0
  0
LINE
  5
400
330
1F
100
AcDbEntity
  8
D-1
  6
Continuous
 62
     2
370
     9
100
AcDbLine
 10
-603.068806674029
 20
-389.8298835754395
 30
0.0
 11
-591.2387087538434
 21
-382.9998021512418
 31
0.0
  0
LINE
  5
401
330
1F
100
AcDbEntity
  8
D-1
  6
Continuous
 62
     2
370
     9
100
AcDbLine
 10
-608.0688231700174
 20
-389.8298835754395
 30
0.0
 11
-619.8990448101144
 21
-382.9998021512418
 31
0.0
  0
LINE
  5
402
330
1F
100
AcDbEntity
  8
D-1
  6
Continuous
 62
     2
370
     9
100
AcDbLine
 10
-617.3990365621205
 20
-378.669605255127
 30
0.0
 11
-605.5688149220234
 21
-385.4998103992359
 31
0.0
  0
LINE
  5
403
330
1F
100
AcDbEntity
  8
D-1
  6
Continuous
 62
     2
370
     9
100
AcDbLine
 10
-577.235346871453
 20
-382.9998021512418
 30
0.0
 11
-591.2387087538434
 21
-382.9998021512418
 31
0.0
  0
LINE
  5
404
330
1F
100
AcDbEntity
  8
D-1
  6
Continuous
 62
     2
370
     9
100
AcDbLine
 10
-619.8990448101144
 20
-382.9998021512418
 30
0.0
 11
-630.5687736820528
 21
-382.9998021512418
 31
0.0
  0
LINE
  5
405
330
1F
100
AcDbEntity
  8
D-1
  6
Continuous
 62
     2
370
     9
100
AcDbLine
 10
-577.5309137395908
 20
-377.9997856552536
 30
0.0
 11
-591.2385850339319
 21
-377.9997856552536
 31
0.0
  0
LINE
  5
406
330
1F
100
AcDbEntity
  8
D-1
  6
Continuous
 62
     2
370
     9
100
AcDbLine
 10
-619.8990448101144
 20
-377.9997856552536
 30
0.0
 11
-630.5687736820528
 21
-377.9997856552536
 31
0.0
  0
LINE
  5
407
330
1F
100
AcDbEntity
  8
D-9
  6
Continuous
 62
     4
370
     9
100
AcDbLine
 10
-588.6165889533788
 20
-372.9996454393541
 30
0.0
 11
-595.0350542326228
 21
-379.4181107185982
 31
0.0
  0
LINE
  5
408
330
1F
100
AcDbEntity
  8
D-9
  6
Continuous
 62
     4
370
     9
100
AcDbLine
 10
-595.6879242046457
 20
-372.9996454393541
 30
0.0
 11
-607.2293835717276
 21
-384.5411048064361
 31
0.0
  0
LINE
  5
409
330
1F
100
AcDbEntity
  8
D-9
  6
Continuous
 62
     4
370
     9
100
AcDbLine
 10
-602.7592594559127
 20
-372.9996454393541
 30
0.0
 11
-611.7123745583197
 21
-381.9527605417612
 31
0.0
  0
LINE
  5
40A
330
1F
100
AcDbEntity
  8
D-9
  6
Continuous
 62
     4
370
     9
100
AcDbLine
 10
-609.8305947071797
 20
-372.9996454393541
 30
0.0
 11
-616.1946232254439
 21
-379.365034876643
 31
0.0
  0
LINE
  5
40B
330
1F
100
AcDbEntity
  8
D-2
  6
Continuous
 62
     3
370
     9
100
AcDbLine
 10
-525.5676849468332
 20
-272.9996866793246
 30
0.0
 11
-525.5676849468332
 21
-372.9996454393541
 31
0.0
  0
LINE
  5
40C
330
1F
100
AcDbEntity
  8
D-2
  6
Continuous
 62
     3
370
     9
100
AcDbLine
 10
-1183.236071870133
 20
-428.2434314006083
 30
0.0
 11
-1183.236071870133
 21
-204.3009892025509
 31
0.0
  0
LINE
  5
40D
330
1F
100
AcDbEntity
  8
D-4
  6
Continuous
 62
     7
370
     9
100
AcDbLine
 10
-992.2938746375005
 20
-372.9996454393541
 30
0.0
 11
-992.2938746375005
 21
-272.9996866793246
 31
0.0
  0
LINE
  5
40E
330
1F
100
AcDbEntity
  8
D-2
  6
Continuous
 62
     3
370
     9
100
AcDbLine
 10
-525.5676849468332
 20
-282.9992247916557
 30
0.0
 11
-1183.236071870133
 21
-282.9992247916557
 31
0.0
  0
LINE
  5
40F
330
1F
100
AcDbEntity
  8
D-2
  6
Continuous
 62
     3
370
     9
100
AcDbLine
 10
-510.567388019046
 20
-272.9996866793246
 30
0.0
 11
-510.567388019046
 21
-372.9996454393541
 31
0.0
  0
LINE
  5
410
330
1F
100
AcDbEntity
  8
D-2
  6
Continuous
 62
     3
370
     9
100
AcDbLine
 10
-510.5698624172723
 20
-372.9996454393541
 30
0.0
 11
-1183.236071870133
 21
-372.9996454393541
 31
0.0
  0
LINE
  5
411
330
1F
100
AcDbEntity
  8
D-2
  6
Continuous
 62
     3
370
     9
100
AcDbLine
 10
-510.567388019046
 20
-272.9996866793246
 30
0.0
 11
-1183.236071870133
 21
-272.9996866793246
 31
0.0
  0
LINE
  5
412
330
1F
100
AcDbEntity
  8
D-2
  6
JWW_CENTER2
 62
     3
370
     9
100
AcDbLine
 10
-885.567388019046
 20
-355.9386696686616
 30
0.0
 11
-885.567388019046
 21
-291.4197256758406
 31
0.0
  0
LINE
  5
413
330
1F
100
AcDbEntity
  8
D-2
  6
JWW_CENTER2
 62
     3
370
     9
100
AcDbLine
 10
-915.8921280422725
 20
-322.9994804794724
 30
0.0
 11
-854.9207287865714
 21
-322.9994804794724
 31
0.0
  0
LINE
  5
414
330
1F
100
AcDbEntity
  8
D-5
  6
Continuous
 62
     7
370
     9
100
AcDbLine
 10
-386.045153076584
 20
-46.75382717235664
 30
0.0
 11
-583.5579292194262
 21
-275.49981864723
 31
0.0
  0
LINE
  5
415
330
1F
100
AcDbEntity
  8
D-5
  6
Continuous
 62
     7
370
     9
100
AcDbLine
 10
-583.5579292194262
 20
-275.49981864723
 30
0.0
 11
-569.8294729799835
 21
-254.6068660632984
 31
0.0
  0
LINE
  5
416
330
1F
100
AcDbEntity
  8
D-5
  6
Continuous
 62
     7
370
     9
100
AcDbLine
 10
-583.5579292194262
 20
-275.49981864723
 30
0.0
 11
-564.8895843608957
 21
-258.8718625661489
 31
0.0
  0
ARC
  5
417
330
1F
100
AcDbEntity
  8
C-2
  6
Continuous
 62
     3
370
     9
100
AcDbCircle
 10
778.3706497501682
 20
1067.307105708767
 30
0.0
 40
37.50013918490023
100
AcDbArc
 50
53.13009643554688
 51
126.8699035644531
  0
ARC
  5
418
330
1F
100
AcDbEntity
  8
C-2
  6
Continuous
 62
     3
370
     9
100
AcDbCircle
 10
823.3705507742397
 20
1127.307551100448
 30
0.0
 40
37.50013918490023
100
AcDbArc
 50
233.1300964355469
 51
306.8699035644531
  0
ARC
  5
419
330
1F
100
AcDbEntity
  8
C-2
  6
Continuous
 62
     3
370
     9
100
AcDbCircle
 10
778.3706497501682
 20
727.9513070390033
 30
0.0
 40
37.50013918490023
100
AcDbArc
 50
53.13009643554688
 51
126.8699035644531
  0
ARC
  5
41A
330
1F
100
AcDbEntity
  8
C-2
  6
Continuous
 62
     3
370
     9
100
AcDbCircle
 10
823.3705507742397
 20
787.9515049908614
 30
0.0
 40
37.50013918490023
100
AcDbArc
 50
233.1300964355469
 51
306.8699035644531
  0
ARC
  5
41B
330
1F
100
AcDbEntity
  8
C-2
  6
Continuous
 62
     3
370
     9
100
AcDbCircle
 10
685.0237292212412
 20
407.9862537899533
 30
0.0
 40
4.99999958115655
100
AcDbArc
 50
359.9943237304688
 51
90.0
  0
ARC
  5
41C
330
1F
100
AcDbEntity
  8
C-2
  6
Continuous
 62
     3
370
     9
100
AcDbCircle
 10
705.0237952051939
 20
407.9862537899533
 30
0.0
 40
4.99999958115655
100
AcDbArc
 50
90.0
 51
180.0
  0
ARC
  5
41D
330
1F
100
AcDbEntity
  8
C-2
  6
Continuous
 62
     3
370
     9
100
AcDbCircle
 10
760.0237292212412
 20
407.9862537899533
 30
0.0
 40
4.99999958115655
100
AcDbArc
 50
359.9943237304688
 51
90.0
  0
ARC
  5
41E
330
1F
100
AcDbEntity
  8
C-2
  6
Continuous
 62
     3
370
     9
100
AcDbCircle
 10
780.0242900848391
 20
407.9862537899533
 30
0.0
 40
4.99999958115655
100
AcDbArc
 50
90.0
 51
180.0
  0
ARC
  5
41F
330
1F
100
AcDbEntity
  8
C-2
  6
Continuous
 62
     3
370
     9
100
AcDbCircle
 10
835.0237292212412
 20
407.9862537899533
 30
0.0
 40
4.99999958115655
100
AcDbArc
 50
359.9943237304688
 51
90.0
  0
ARC
  5
420
330
1F
100
AcDbEntity
  8
C-2
  6
Continuous
 62
     3
370
     9
100
AcDbCircle
 10
855.0242900848391
 20
407.9862537899533
 30
0.0
 40
4.99999958115655
100
AcDbArc
 50
90.0
 51
180.0
  0
ARC
  5
421
330
1F
100
AcDbEntity
  8
D-9
  6
Continuous
 62
     4
370
     9
100
AcDbCircle
 10
-620.5683695303426
 20
-377.999909375165
 30
0.0
 40
5.000000064437454
100
AcDbArc
 50
90.0
 51
180.0
  0
ARC
  5
422
330
1F
100
AcDbEntity
  8
D-A
  6
Continuous
 62
     3
370
     9
100
AcDbCircle
 10
-454.0680923977411
 20
-321.4993765547468
 30
0.0
 40
6.50000008376869
100
AcDbArc
 50
0.0
 51
90.0
  0
ARC
  5
423
330
1F
100
AcDbEntity
  8
D-A
  6
JWW_DASHED3
 62
     3
370
     9
100
AcDbCircle
 10
-454.0680923977411
 20
-344.499774108062
 30
0.0
 40
6.50000008376869
100
AcDbArc
 50
270.0
 51
0.0
  0
ARC
  5
424
330
1F
100
AcDbEntity
  8
D-A
  6
Continuous
 62
     3
370
     9
100
AcDbCircle
 10
-470.5682458104312
 20
-384.6419365341599
 30
0.0
 40
10.00000012887491
100
AcDbArc
 50
0.0
 51
45.0
  0
ARC
  5
425
330
1F
100
AcDbEntity
  8
D-A
  6
Continuous
 62
     3
370
     9
100
AcDbCircle
 10
-423.1419498856002
 20
-325.500107327023
 30
0.0
 40
30.00000038662472
100
AcDbArc
 50
224.9996643066406
 51
270.0
  0
ARC
  5
426
330
1F
100
AcDbEntity
  8
D-A
  6
Continuous
 62
     3
370
     9
100
AcDbCircle
 10
-345.5683282903721
 20
-365.4999918551059
 30
0.0
 40
10.00000012887491
100
AcDbArc
 50
0.0
 51
90.0
  0
ARC
  5
427
330
1F
100
AcDbEntity
  8
D-1
  6
Continuous
 62
     2
370
     9
100
AcDbCircle
 10
-630.5687736820528
 20
-382.9998021512418
 30
0.0
 40
5.000000064437454
100
AcDbArc
 50
90.0
 51
180.0
  0
ARC
  5
428
330
1F
100
AcDbEntity
  8
D-1
  6
Continuous
 62
     2
370
     9
100
AcDbCircle
 10
-483.5687340916812
 20
-273.4997625608702
 30
0.0
 40
3.000000038662472
100
AcDbArc
 50
0.0
 51
90.0
  0
ARC
  5
429
330
1F
100
AcDbEntity
  8
D-1
  6
Continuous
 62
     2
370
     9
100
AcDbCircle
 10
-502.5687720324541
 20
-273.4997625608702
 30
0.0
 40
3.000000038662472
100
AcDbArc
 50
90.0
 51
180.0
  0
ARC
  5
42A
330
1F
100
AcDbEntity
  8
D-1
  6
Continuous
 62
     2
370
     9
100
AcDbCircle
 10
-483.5687340916812
 20
-392.4997592616725
 30
0.0
 40
3.000000038662472
100
AcDbArc
 50
270.0
 51
0.0
  0
ARC
  5
42B
330
1F
100
AcDbEntity
  8
D-1
  6
Continuous
 62
     2
370
     9
100
AcDbCircle
 10
-505.5688561619937
 20
-385.4998103992359
 30
0.0
 40
5.000000064437454
100
AcDbArc
 50
270.0
 51
0.0
  0
ARC
  5
42C
330
1F
100
AcDbEntity
  8
D-1
  6
Continuous
 62
     2
370
     9
100
AcDbCircle
 10
-577.5309137395908
 20
-382.9998021512418
 30
0.0
 40
5.000000064437454
100
AcDbArc
 50
70.43162536621098
 51
90.00000000000006
  0
ARC
  5
42D
330
1F
100
AcDbEntity
  8
D-1
  6
Continuous
 62
     2
370
     9
100
AcDbCircle
 10
-555.2652887395908
 20
-385.4998103992359
 30
0.0
 40
5.000000064437454
100
AcDbArc
 50
250.4390106201172
 51
270.0
  0
ARC
  5
42E
330
1F
100
AcDbEntity
  8
D-1
  6
Continuous
 62
     2
370
     9
100
AcDbCircle
 10
-630.5687736820528
 20
-390.4998268952241
 30
0.0
 40
5.000000064437454
100
AcDbArc
 50
180.0
 51
270.0
  0
ARC
  5
42F
330
1F
100
AcDbEntity
  8
D-1
  6
Continuous
 62
     2
370
     9
100
AcDbCircle
 10
-619.8990448101144
 20
-382.9998021512418
 30
0.0
 40
5.000000064437454
100
AcDbArc
 50
59.99996948242189
 51
90.00000000000003
  0
ARC
  5
430
330
1F
100
AcDbEntity
  8
D-1
  6
Continuous
 62
     2
370
     9
100
AcDbCircle
 10
-591.2385850339319
 20
-382.9998021512418
 30
0.0
 40
5.000000064437454
100
AcDbArc
 50
90.0
 51
120.0000305175781
  0
ARC
  5
431
330
1F
100
AcDbEntity
  8
D-1
  6
Continuous
 62
     2
370
     9
100
AcDbCircle
 10
-605.5688149220234
 20
-385.4998103992359
 30
0.0
 40
5.000000064437454
100
AcDbArc
 50
239.9999694824219
 51
300.0000305175781
  0
CIRCLE
  5
432
330
1F
100
AcDbEntity
  8
D-2
  6
Continuous
 62
     3
370
     9
100
AcDbCircle
 10
-885.567388019046
 20
-322.9994804794724
 30
0.0
 40
15.00000019331236
  0
TEXT
  5
433
330
1F
100
AcDbEntity
  8
C-4
  6
Continuous
 62
     2
370
     9
100
AcDbText
 10
-908.321665757733
 20
789.0183221888441
 30
0.0
 40
30.48
  1
1
 50
359.9992911350777
 41
1.000000000000001
  7
ＭＳ ゴシック
100
AcDbText
  0
TEXT
  5
434
330
1F
100
AcDbEntity
  8
C-4
  6
Continuous
 62
     2
370
     9
100
AcDbText
 10
-659.6216895129227
 20
789.0183221889187
 30
0.0
 40
30.48
  1
499
 41
1.083333333333333
  7
ＭＳ ゴシック
100
AcDbText
  0
TEXT
  5
435
330
1F
100
AcDbEntity
  8
C-4
  6
Continuous
 62
     2
370
     9
100
AcDbText
 10
-408.3218719575852
 20
789.0183221888441
 30
0.0
 40
30.48
  1
1
 50
359.9992911350777
 41
1.000000000000001
  7
ＭＳ ゴシック
100
AcDbText
  0
TEXT
  5
436
330
1F
100
AcDbEntity
  8
C-4
  6
Continuous
 62
     2
370
     9
100
AcDbText
 10
-159.6214008331297
 20
789.0183221889187
 30
0.0
 40
30.48
  1
499
 41
1.083333333333333
  7
ＭＳ ゴシック
100
AcDbText
  0
TEXT
  5
437
330
1F
100
AcDbEntity
  8
C-4
  6
Continuous
 62
     2
370
     9
100
AcDbText
 10
91.67840880316675
 20
789.0183221889187
 30
0.0
 40
30.48
  1
1
 41
0.9999999999999998
  7
ＭＳ ゴシック
100
AcDbText
  0
TEXT
  5
438
330
1F
100
AcDbEntity
  8
C-4
  6
Continuous
 62
     2
370
     9
100
AcDbText
 10
-659.1212424716433
 20
869.0180912450843
 30
0.0
 40
30.48
  1
500
 41
1.083333333333333
  7
ＭＳ ゴシック
100
AcDbText
  0
TEXT
  5
439
330
1F
100
AcDbEntity
  8
C-4
  6
Continuous
 62
     2
370
     9
100
AcDbText
 10
-159.1214486714954
 20
869.0180912450843
 30
0.0
 40
30.48
  1
500
 41
1.083333333333333
  7
ＭＳ ゴシック
100
AcDbText
  0
TEXT
  5
43A
330
1F
100
AcDbEntity
  8
C-5
  6
Continuous
 62
     2
370
     9
100
AcDbText
 10
-644.6213595931591
 20
223.5186092191129
 30
0.0
 40
30.48
  1
平面詳細図　Ｓ＝１：１０
 41
1.114583333333333
  7
ＭＳ ゴシック
100
AcDbText
  0
TEXT
  5
43B
330
1F
100
AcDbEntity
  8
C-5
  6
Continuous
 62
     2
370
     9
100
AcDbText
 10
-50.05638766933103
 20
509.4241894819931
 30
0.0
 40
30.48
  1
Ａ
 41
0.9999999999999998
  7
ＭＳ ゴシック
100
AcDbText
  0
TEXT
  5
43C
330
1F
100
AcDbEntity
  8
C-5
  6
Continuous
 62
     7
370
     9
100
AcDbText
 10
439.9986965591846
 20
640.4976769978293
 30
0.0
 40
22.86
  1
※デルタパターンの配列は一定ではありません。
 41
1.159090909090909
  7
ＭＳ ゴシック
100
AcDbText
  0
TEXT
  5
43D
330
1F
100
AcDbEntity
  8
C-5
  6
Continuous
 62
     7
370
     9
100
AcDbText
 10
578.5642301714099
 20
699.179020695042
 30
0.0
 40
22.86
  1
メインバー表面　Ｓ＝１：１
 41
1.153846153846154
  7
ＭＳ ゴシック
100
AcDbText
  0
TEXT
  5
43E
330
1F
100
AcDbEntity
  8
C-5
  6
Continuous
 62
     7
370
     9
100
AcDbText
 10
864.810064934396
 20
1046.603089661469
 30
0.0
 40
22.86
  1
デルタパターン
 41
1.142857142857143
  7
ＭＳ ゴシック
100
AcDbText
  0
TEXT
  5
43F
330
1F
100
AcDbEntity
  8
C-5
  6
Continuous
 62
     2
370
     9
100
AcDbText
 10
589.3040999850714
 20
226.9885815718368
 30
0.0
 40
30.48
  1
Ａ断面図　Ｓ＝１：２
 41
1.1125
  7
ＭＳ ゴシック
100
AcDbText
  0
TEXT
  5
440
330
1F
100
AcDbEntity
  8
C-4
  6
Continuous
 62
     2
370
     9
100
AcDbText
 10
964.6759061638089
 20
351.7357671583021
 30
0.0
 40
30.48
  1
20
 50
90.0
 41
1.0625
  7
ＭＳ ゴシック
100
AcDbText
  0
TEXT
  5
441
330
1F
100
AcDbEntity
  8
C-4
  6
Continuous
 62
     2
370
     9
100
AcDbText
 10
685.0232673335722
 20
496.5103051386652
 30
0.0
 40
30.48
  1
6
 41
0.9999999999999998
  7
ＭＳ ゴシック
100
AcDbText
  0
TEXT
  5
442
330
1F
100
AcDbEntity
  8
C-4
  6
Continuous
 62
     2
370
     9
100
AcDbText
 10
722.5232673335722
 20
496.5103051386652
 30
0.0
 40
30.48
  1
9
 41
0.9999999999999998
  7
ＭＳ ゴシック
100
AcDbText
  0
TEXT
  5
443
330
1F
100
AcDbEntity
  8
C-4
  6
Continuous
 62
     2
370
     9
100
AcDbText
 10
760.0232673335722
 20
496.5103051386652
 30
0.0
 40
30.48
  1
6
 41
0.9999999999999998
  7
ＭＳ ゴシック
100
AcDbText
  0
TEXT
  5
444
330
1F
100
AcDbEntity
  8
C-4
  6
Continuous
 62
     2
370
     9
100
AcDbText
 10
797.5232673335722
 20
496.5103051386652
 30
0.0
 40
30.48
  1
9
 41
0.9999999999999998
  7
ＭＳ ゴシック
100
AcDbText
  0
TEXT
  5
445
330
1F
100
AcDbEntity
  8
C-4
  6
Continuous
 62
     2
370
     9
100
AcDbText
 10
835.0232673335722
 20
496.5103051386652
 30
0.0
 40
30.48
  1
6
 41
0.9999999999999998
  7
ＭＳ ゴシック
100
AcDbText
  0
TEXT
  5
446
330
1F
100
AcDbEntity
  8
C-4
  6
Continuous
 62
     2
370
     9
100
AcDbText
 10
696.2733415655191
 20
559.6275025362582
 30
0.0
 40
30.48
  1
15
 41
1.0625
  7
ＭＳ ゴシック
100
AcDbText
  0
TEXT
  5
447
330
1F
100
AcDbEntity
  8
C-4
  6
Continuous
 62
     2
370
     9
100
AcDbText
 10
771.2733415655191
 20
559.6275025362582
 30
0.0
 40
30.48
  1
15
 41
1.0625
  7
ＭＳ ゴシック
100
AcDbText
  0
TEXT
  5
448
330
1F
100
AcDbEntity
  8
C-4
  6
Continuous
 62
     2
370
     9
100
AcDbText
 10
688.5172279543491
 20
817.4478494798815
 30
0.0
 40
30.48
  1
4
 50
90.0
 41
0.9999999999999998
  7
ＭＳ ゴシック
100
AcDbText
  0
TEXT
  5
449
330
1F
100
AcDbEntity
  8
C-4
  6
Continuous
 62
     2
370
     9
100
AcDbText
 10
688.5172279543491
 20
877.4480474317397
 30
0.0
 40
30.48
  1
8
 50
90.0
 41
0.9999999999999998
  7
ＭＳ ゴシック
100
AcDbText
  0
TEXT
  5
44A
330
1F
100
AcDbEntity
  8
C-4
  6
Continuous
 62
     2
370
     9
100
AcDbText
 10
688.5172279543491
 20
922.4479484558105
 30
0.0
 40
30.48
  1
1
 50
90.0
 41
0.9999999999999998
  7
ＭＳ ゴシック
100
AcDbText
  0
TEXT
  5
44B
330
1F
100
AcDbEntity
  8
C-4
  6
Continuous
 62
     2
370
     9
100
AcDbText
 10
688.5172279543491
 20
967.4478494798816
 30
0.0
 40
30.48
  1
8
 50
90.0
 41
0.9999999999999998
  7
ＭＳ ゴシック
100
AcDbText
  0
TEXT
  5
44C
330
1F
100
AcDbEntity
  8
C-4
  6
Continuous
 62
     2
370
     9
100
AcDbText
 10
688.5172279543491
 20
1027.447799991917
 30
0.0
 40
30.48
  1
4
 50
90.0
 41
0.9999999999999998
  7
ＭＳ ゴシック
100
AcDbText
  0
TEXT
  5
44D
330
1F
100
AcDbEntity
  8
C-4
  6
Continuous
 62
     2
370
     9
100
AcDbText
 10
907.2845285320333
 20
898.4513341019411
 30
0.0
 40
30.48
  1
0.5
 50
73.30060952666646
 41
1.083333333333333
  7
ＭＳ ゴシック
100
AcDbText
  0
TEXT
  5
44E
330
1F
100
AcDbEntity
  8
C-4
  6
Continuous
 62
     2
370
     9
100
AcDbText
 10
790.870600262204
 20
1160.705102963835
 30
0.0
 40
30.48
  1
6
 41
0.9999999999999998
  7
ＭＳ ゴシック
100
AcDbText
  0
TEXT
  5
44F
330
1F
100
AcDbEntity
  8
D-4
  6
Continuous
 62
     2
370
     9
100
AcDbText
 10
-543.5131632315143
 20
-30.18911156319284
 30
0.0
 40
30.48
  1
1
 41
0.9999999999999998
  7
ＭＳ ゴシック
100
AcDbText
  0
TEXT
  5
450
330
1F
100
AcDbEntity
  8
D-4
  6
Continuous
 62
     2
370
     9
100
AcDbText
 10
-594.317470498987
 20
-138.9403982502704
 30
0.0
 40
30.48
  1
25
 41
1.0625
  7
ＭＳ ゴシック
100
AcDbText
  0
TEXT
  5
451
330
1F
100
AcDbEntity
  8
D-5
  6
Continuous
 62
     7
370
     9
100
AcDbText
 10
-343.3049714887463
 20
-154.6991861250595
 30
0.0
 40
22.86
  1
塩ビクッション
 41
1.142857142857143
  7
ＭＳ ゴシック
100
AcDbText
  0
TEXT
  5
452
330
1F
100
AcDbEntity
  8
D-4
  6
Continuous
 62
     2
370
     9
100
AcDbText
 10
-626.8171818191939
 20
-665.4789790674159
 30
0.0
 40
30.48
  1
25～30
 41
1.104166666666667
  7
ＭＳ ゴシック
100
AcDbText
  0
TEXT
  5
453
330
1F
100
AcDbEntity
  8
D-4
  6
Continuous
 62
     2
370
     9
100
AcDbText
 10
-503.4355181060294
 20
-819.942917187681
 30
0.0
 40
30.48
  1
75～80
 50
359.9999732504708
 41
1.104166666666667
  7
ＭＳ ゴシック
100
AcDbText
  0
TEXT
  5
454
330
1F
100
AcDbEntity
  8
D-4
  6
Continuous
 62
     2
370
     9
100
AcDbText
 10
25.47772666106389
 20
-461.749719671301
 30
0.0
 40
30.48
  1
40～50
 50
90.0
 41
1.104166666666667
  7
ＭＳ ゴシック
100
AcDbText
  0
TEXT
  5
455
330
1F
100
AcDbEntity
  8
D-4
  6
Continuous
 62
     2
370
     9
100
AcDbText
 10
-438.5767428939404
 20
-450.3907997626228
 30
0.0
 40
30.48
  1
29
 41
1.0625
  7
ＭＳ ゴシック
100
AcDbText
  0
TEXT
  5
456
330
1F
100
AcDbEntity
  8
D-4
  6
Continuous
 62
     2
370
     9
100
AcDbText
 10
-258.1573457893163
 20
-401.749917623159
 30
0.0
 40
30.48
  1
10
 50
90.0
 41
1.0625
  7
ＭＳ ゴシック
100
AcDbText
  0
TEXT
  5
457
330
1F
100
AcDbEntity
  8
D-4
  6
Continuous
 62
     2
370
     9
100
AcDbText
 10
-258.1573457893163
 20
-334.2500660870527
 30
0.0
 40
30.48
  1
17
 50
90.0
 41
1.0625
  7
ＭＳ ゴシック
100
AcDbText
  0
TEXT
  5
458
330
1F
100
AcDbEntity
  8
D-4
  6
Continuous
 62
     2
370
     9
100
AcDbText
 10
-502.9253616848506
 20
-30.18911156319284
 30
0.0
 40
30.48
  1
5
 41
0.9999999999999998
  7
ＭＳ ゴシック
100
AcDbText
  0
TEXT
  5
459
330
1F
100
AcDbEntity
  8
D-5
  6
Continuous
 62
     2
370
     9
100
AcDbText
 10
-935.0622767371099
 20
-948.3025107595083
 30
0.0
 40
30.48
  1
断面詳細図　Ｓ＝１：２
 41
1.113636363636364
  7
ＭＳ ゴシック
100
AcDbText
  0
TEXT
  5
45A
330
1F
100
AcDbEntity
  8
D-5
  6
Continuous
 62
     7
370
     9
100
AcDbText
 10
-328.6271670057965
 20
-212.5141192833152
 30
0.0
 40
22.86
  1
溶接用アンカ－＠５００
 41
1.151515151515152
  7
ＭＳ ゴシック
100
AcDbText
  0
TEXT
  5
45B
330
1F
100
AcDbEntity
  8
D-5
  6
Continuous
 62
     7
370
     9
100
AcDbText
 10
-329.0176270459148
 20
-249.0839929900298
 30
0.0
 40
22.86
  1
ｔ＝２．３（ＳＰＨＣ）
 41
1.151515151515152
  7
ＭＳ ゴシック
100
AcDbText
  0
TEXT
  5
45C
330
1F
100
AcDbEntity
  8
D-5
  6
Continuous
 62
     2
370
     9
100
AcDbText
 10
425.9062224141497
 20
-777.5431138198455
 30
0.0
 40
30.48
  1
材質：冷間圧延ステンレス鋼板（ＳＵＳ３０４一２Ｂ）
 50
0.0000094936993723
 41
1.12
  7
ＭＳ ゴシック
100
AcDbText
  0
TEXT
  5
45D
330
1F
100
AcDbEntity
  8
D-5
  6
Continuous
 62
     2
370
     9
100
AcDbText
 10
425.9062480926515
 20
-842.543204547779
 30
0.0
 40
30.48
  1
定尺：３０００
 41
1.107142857142857
  7
ＭＳ ゴシック
100
AcDbText
  0
TEXT
  5
45E
330
1F
100
AcDbEntity
  8
D-5
  6
Continuous
 62
     7
370
     9
100
AcDbText
 10
-338.6556019654142
 20
-98.60049557660064
 30
0.0
 40
22.86
  1
ステンレス製受枠ＳＦ２０Ｂ
 41
1.153846153846154
  7
ＭＳ ゴシック
100
AcDbText
  0
TEXT
  5
45F
330
1F
100
AcDbEntity
  8
D-5
  6
Continuous
 62
     2
370
     9
100
AcDbText
 10
366.1943422781458
 20
-712.5431468118205
 30
0.0
 40
30.48
  1
ステンレス製受枠　ＳＦ２０Ｂ
 41
1.116071428571428
  7
ＭＳ ゴシック
100
AcDbText
  0
TEXT
  5
460
330
1F
100
AcDbEntity
  8
D-4
  6
Continuous
 62
     2
370
     9
100
AcDbText
 10
-791.6910503923568
 20
-354.2501320710053
 30
0.0
 40
30.48
  1
25
 50
90.0
 41
1.0625
  7
ＭＳ ゴシック
100
AcDbText
  0
TEXT
  5
461
330
1F
100
AcDbEntity
  8
D-4
  6
Continuous
 62
     2
370
     9
100
AcDbText
 10
-1002.933643693666
 20
-344.2496041993837
 30
0.0
 40
30.48
  1
20
 50
90.0
 41
1.0625
  7
ＭＳ ゴシック
100
AcDbText
  0
TEXT
  5
462
330
1F
100
AcDbEntity
  8
D-5
  6
Continuous
 62
     2
370
     9
100
AcDbText
 10
425.9067677162791
 20
-440.2802848898399
 30
0.0
 40
30.48
  1
材質：メインバー　ＳＵＳ３０４　＠１５
 41
1.118421052631579
  7
ＭＳ ゴシック
100
AcDbText
  0
TEXT
  5
463
330
1F
100
AcDbEntity
  8
D-5
  6
Continuous
 62
     2
370
     9
100
AcDbText
 10
425.9067182283145
 20
-505.2803137578192
 30
0.0
 40
30.48
  1
　　　クロスバー　ＳＵＳ３０４　＠１００
 41
1.11875
  7
ＭＳ ゴシック
100
AcDbText
  0
TEXT
  5
464
330
1F
100
AcDbEntity
  8
D-5
  6
Continuous
 62
     2
370
     9
100
AcDbText
 10
425.9067182283145
 20
-570.2803426257984
 30
0.0
 40
30.48
  1
　　　サイドバー　ＳＵＳ３０４
 41
1.116666666666666
  7
ＭＳ ゴシック
100
AcDbText
  0
TEXT
  5
465
330
1F
100
AcDbEntity
  8
D-4
  6
Continuous
 62
     2
370
     9
100
AcDbText
 10
-1208.236016196173
 20
-138.9403982502704
 30
0.0
 40
30.48
  1
250
 41
1.083333333333333
  7
ＭＳ ゴシック
100
AcDbText
  0
TEXT
  5
466
330
1F
100
AcDbEntity
  8
D-4
  6
Continuous
 62
     2
370
     9
100
AcDbText
 10
-1208.236016196173
 20
-30.18911156319284
 30
0.0
 40
30.48
  1
300
 41
1.083333333333333
  7
ＭＳ ゴシック
100
AcDbText
  0
TEXT
  5
467
330
1F
100
AcDbEntity
  8
D-4
  6
Continuous
 62
     2
370
     9
100
AcDbText
 10
-1208.236016196173
 20
80.50655725015169
 30
0.0
 40
30.48
  1
312
 41
1.083333333333333
  7
ＭＳ ゴシック
100
AcDbText
  0
LWPOLYLINE
  5
468
330
1F
100
AcDbEntity
  8
C-4
  6
Continuous
 62
     7
370
     9
100
AcDbPolyline
 90
        4
 70
     1
 43
1.0
 10
-877.1214767146753
 20
778.3785531327533
 42
0.4142135623731
 10
-877.6214767146753
 20
778.8785531327533
 42
0.4142135623731
 10
-878.1214767146753
 20
778.3785531327533
 42
0.4142135623731
 10
-877.6214767146753
 20
777.8785531327533
 42
0.4142135623731
  0
LWPOLYLINE
  5
469
330
1F
100
AcDbEntity
  8
C-4
  6
Continuous
 62
     7
370
     9
100
AcDbPolyline
 90
        4
 70
     1
 43
1.0
 10
-876.121696111318
 20
778.3785531327533
 42
0.4142135623731
 10
-876.621696111318
 20
778.8785531327533
 42
0.4142135623731
 10
-877.121696111318
 20
778.3785531327533
 42
0.4142135623731
 10
-876.621696111318
 20
777.8785531327533
 42
0.4142135623731
  0
LWPOLYLINE
  5
46A
330
1F
100
AcDbEntity
  8
C-4
  6
Continuous
 62
     7
370
     9
100
AcDbPolyline
 90
        4
 70
     1
 43
1.0
 10
-377.1216829145276
 20
778.3785531327533
 42
0.4142135623731
 10
-377.6216829145275
 20
778.8785531327533
 42
0.4142135623731
 10
-378.1216829145275
 20
778.3785531327533
 42
0.4142135623731
 10
-377.6216829145275
 20
777.8785531327533
 42
0.4142135623731
  0
LWPOLYLINE
  5
46B
330
1F
100
AcDbEntity
  8
C-4
  6
Continuous
 62
     7
370
     9
100
AcDbPolyline
 90
        4
 70
     1
 43
1.0
 10
-376.1212837116137
 20
778.3785531327533
 42
0.4142135623731
 10
-376.6212837116137
 20
778.8785531327533
 42
0.4142135623731
 10
-377.1212837116137
 20
778.3785531327533
 42
0.4142135623731
 10
-376.6212837116137
 20
777.8785531327533
 42
0.4142135623731
  0
LWPOLYLINE
  5
46C
330
1F
100
AcDbEntity
  8
C-4
  6
Continuous
 62
     7
370
     9
100
AcDbPolyline
 90
        4
 70
     1
 43
1.0
 10
122.8787294851769
 20
778.3785531327533
 42
0.4142135623731
 10
122.3787294851769
 20
778.8785531327533
 42
0.4142135623731
 10
121.8787294851769
 20
778.3785531327533
 42
0.4142135623731
 10
122.3787294851769
 20
777.8785531327533
 42
0.4142135623731
  0
LWPOLYLINE
  5
46D
330
1F
100
AcDbEntity
  8
C-4
  6
Continuous
 62
     7
370
     9
100
AcDbPolyline
 90
        4
 70
     1
 43
1.0
 10
123.878386368623
 20
778.3785531327533
 42
0.4142135623731
 10
123.378386368623
 20
778.8785531327533
 42
0.4142135623731
 10
122.878386368623
 20
778.3785531327533
 42
0.4142135623731
 10
123.378386368623
 20
777.8785531327533
 42
0.4142135623731
  0
LWPOLYLINE
  5
46E
330
1F
100
AcDbEntity
  8
C-4
  6
Continuous
 62
     7
370
     9
100
AcDbPolyline
 90
        4
 70
     1
 43
1.0
 10
-876.121696111318
 20
858.3783221889187
 42
0.4142135623731
 10
-876.621696111318
 20
858.8783221889186
 42
0.4142135623731
 10
-877.121696111318
 20
858.3783221889187
 42
0.4142135623731
 10
-876.621696111318
 20
857.8783221889187
 42
0.4142135623731
  0
LWPOLYLINE
  5
46F
330
1F
100
AcDbEntity
  8
C-4
  6
Continuous
 62
     7
370
     9
100
AcDbPolyline
 90
        4
 70
     1
 43
1.0
 10
-376.1212837116137
 20
858.3783221889187
 42
0.4142135623731
 10
-376.6212837116137
 20
858.8783221889186
 42
0.4142135623731
 10
-377.1212837116137
 20
858.3783221889187
 42
0.4142135623731
 10
-376.6212837116137
 20
857.8783221889187
 42
0.4142135623731
  0
LWPOLYLINE
  5
470
330
1F
100
AcDbEntity
  8
C-4
  6
Continuous
 62
     7
370
     9
100
AcDbPolyline
 90
        4
 70
     1
 43
1.0
 10
123.878386368623
 20
858.3783221889187
 42
0.4142135623731
 10
123.378386368623
 20
858.8783221889186
 42
0.4142135623731
 10
122.878386368623
 20
858.3783221889187
 42
0.4142135623731
 10
123.378386368623
 20
857.8783221889187
 42
0.4142135623731
  0
LWPOLYLINE
  5
471
330
1F
100
AcDbEntity
  8
C-4
  6
Continuous
 62
     7
370
     9
100
AcDbPolyline
 90
        4
 70
     1
 43
1.0
 10
975.8159226597969
 20
322.9856021984205
 42
0.4142135623731
 10
975.315922659797
 20
323.4856021984205
 42
0.4142135623731
 10
974.815922659797
 20
322.9856021984205
 42
0.4142135623731
 10
975.315922659797
 20
322.4856021984205
 42
0.4142135623731
  0
LWPOLYLINE
  5
472
330
1F
100
AcDbEntity
  8
C-4
  6
Continuous
 62
     7
370
     9
100
AcDbPolyline
 90
        4
 70
     1
 43
1.0
 10
975.8159226597969
 20
422.9855609584499
 42
0.4142135623731
 10
975.315922659797
 20
423.4855609584498
 42
0.4142135623731
 10
974.815922659797
 20
422.9855609584499
 42
0.4142135623731
 10
975.315922659797
 20
422.4855609584499
 42
0.4142135623731
  0
LWPOLYLINE
  5
473
330
1F
100
AcDbEntity
  8
C-4
  6
Continuous
 62
     7
370
     9
100
AcDbPolyline
 90
        4
 70
     1
 43
1.0
 10
680.5232178456079
 20
485.8705360824999
 42
0.4142135623731
 10
680.0232178456079
 20
486.3705360824998
 42
0.4142135623731
 10
679.523217845608
 20
485.8705360824999
 42
0.4142135623731
 10
680.0232178456079
 20
485.3705360824999
 42
0.4142135623731
  0
LWPOLYLINE
  5
474
330
1F
100
AcDbEntity
  8
C-4
  6
Continuous
 62
     7
370
     9
100
AcDbPolyline
 90
        4
 70
     1
 43
1.0
 10
710.5230693817141
 20
485.8705360824999
 42
0.4142135623731
 10
710.0230693817141
 20
486.3705360824998
 42
0.4142135623731
 10
709.5230693817142
 20
485.8705360824999
 42
0.4142135623731
 10
710.0230693817141
 20
485.3705360824999
 42
0.4142135623731
  0
LWPOLYLINE
  5
475
330
1F
100
AcDbEntity
  8
C-4
  6
Continuous
 62
     7
370
     9
100
AcDbPolyline
 90
        4
 70
     1
 43
1.0
 10
755.5234652854302
 20
485.8705360824999
 42
0.4142135623731
 10
755.0234652854303
 20
486.3705360824998
 42
0.4142135623731
 10
754.5234652854303
 20
485.8705360824999
 42
0.4142135623731
 10
755.0234652854303
 20
485.3705360824999
 42
0.4142135623731
  0
LWPOLYLINE
  5
476
330
1F
100
AcDbEntity
  8
C-4
  6
Continuous
 62
     7
370
     9
100
AcDbPolyline
 90
        4
 70
     1
 43
1.0
 10
785.5230693817141
 20
485.8705360824999
 42
0.4142135623731
 10
785.0230693817141
 20
486.3705360824998
 42
0.4142135623731
 10
784.5230693817142
 20
485.8705360824999
 42
0.4142135623731
 10
785.0230693817141
 20
485.3705360824999
 42
0.4142135623731
  0
LWPOLYLINE
  5
477
330
1F
100
AcDbEntity
  8
C-4
  6
Continuous
 62
     7
370
     9
100
AcDbPolyline
 90
        4
 70
     1
 43
1.0
 10
830.5234652854302
 20
485.8705360824999
 42
0.4142135623731
 10
830.0234652854303
 20
486.3705360824998
 42
0.4142135623731
 10
829.5234652854303
 20
485.8705360824999
 42
0.4142135623731
 10
830.0234652854303
 20
485.3705360824999
 42
0.4142135623731
  0
LWPOLYLINE
  5
478
330
1F
100
AcDbEntity
  8
C-4
  6
Continuous
 62
     7
370
     9
100
AcDbPolyline
 90
        4
 70
     1
 43
1.0
 10
860.5230693817141
 20
485.8705360824999
 42
0.4142135623731
 10
860.0230693817141
 20
486.3705360824998
 42
0.4142135623731
 10
859.5230693817142
 20
485.8705360824999
 42
0.4142135623731
 10
860.0230693817141
 20
485.3705360824999
 42
0.4142135623731
  0
LWPOLYLINE
  5
479
330
1F
100
AcDbEntity
  8
C-4
  6
Continuous
 62
     7
370
     9
100
AcDbPolyline
 90
        4
 70
     1
 43
1.0
 10
680.5232178456079
 20
548.9877334800926
 42
0.4142135623731
 10
680.0232178456079
 20
549.4877334800925
 42
0.4142135623731
 10
679.523217845608
 20
548.9877334800926
 42
0.4142135623731
 10
680.0232178456079
 20
548.4877334800926
 42
0.4142135623731
  0
LWPOLYLINE
  5
47A
330
1F
100
AcDbEntity
  8
C-4
  6
Continuous
 62
     7
370
     9
100
AcDbPolyline
 90
        4
 70
     1
 43
1.0
 10
755.5234652854302
 20
548.9877334800926
 42
0.4142135623731
 10
755.0234652854303
 20
549.4877334800925
 42
0.4142135623731
 10
754.5234652854303
 20
548.9877334800926
 42
0.4142135623731
 10
755.0234652854303
 20
548.4877334800926
 42
0.4142135623731
  0
LWPOLYLINE
  5
47B
330
1F
100
AcDbEntity
  8
C-4
  6
Continuous
 62
     7
370
     9
100
AcDbPolyline
 90
        4
 70
     1
 43
1.0
 10
830.5234652854302
 20
548.9877334800926
 42
0.4142135623731
 10
830.0234652854303
 20
549.4877334800925
 42
0.4142135623731
 10
829.5234652854303
 20
548.9877334800926
 42
0.4142135623731
 10
830.0234652854303
 20
548.4877334800926
 42
0.4142135623731
  0
LWPOLYLINE
  5
47C
330
1F
100
AcDbEntity
  8
C-4
  6
Continuous
 62
     7
370
     9
100
AcDbPolyline
 90
        4
 70
     1
 43
1.0
 10
699.6572444503375
 20
807.4477834959288
 42
0.4142135623731
 10
699.1572444503377
 20
807.9477834959288
 42
0.4142135623731
 10
698.6572444503377
 20
807.4477834959288
 42
0.4142135623731
 10
699.1572444503377
 20
806.9477834959288
 42
0.4142135623731
  0
LWPOLYLINE
  5
47D
330
1F
100
AcDbEntity
  8
C-4
  6
Continuous
 62
     7
370
     9
100
AcDbPolyline
 90
        4
 70
     1
 43
1.0
 10
699.6572444503375
 20
847.4479154638343
 42
0.4142135623731
 10
699.1572444503377
 20
847.9479154638342
 42
0.4142135623731
 10
698.6572444503377
 20
847.4479154638343
 42
0.4142135623731
 10
699.1572444503377
 20
846.9479154638343
 42
0.4142135623731
  0
LWPOLYLINE
  5
47E
330
1F
100
AcDbEntity
  8
C-4
  6
Continuous
 62
     7
370
     9
100
AcDbPolyline
 90
        4
 70
     1
 43
1.0
 10
699.6572444503375
 20
927.4481793996451
 42
0.4142135623731
 10
699.1572444503377
 20
927.9481793996451
 42
0.4142135623731
 10
698.6572444503377
 20
927.4481793996451
 42
0.4142135623731
 10
699.1572444503377
 20
926.9481793996453
 42
0.4142135623731
  0
LWPOLYLINE
  5
47F
330
1F
100
AcDbEntity
  8
C-4
  6
Continuous
 62
     7
370
     9
100
AcDbPolyline
 90
        4
 70
     1
 43
1.0
 10
699.6572444503375
 20
937.4477175119762
 42
0.4142135623731
 10
699.1572444503377
 20
937.9477175119762
 42
0.4142135623731
 10
698.6572444503377
 20
937.4477175119762
 42
0.4142135623731
 10
699.1572444503377
 20
936.9477175119762
 42
0.4142135623731
  0
LWPOLYLINE
  5
480
330
1F
100
AcDbEntity
  8
C-4
  6
Continuous
 62
     7
370
     9
100
AcDbPolyline
 90
        4
 70
     1
 43
1.0
 10
699.6572444503375
 20
1017.447734007965
 42
0.4142135623731
 10
699.1572444503377
 20
1017.947734007964
 42
0.4142135623731
 10
698.6572444503377
 20
1017.447734007965
 42
0.4142135623731
 10
699.1572444503377
 20
1016.947734007965
 42
0.4142135623731
  0
LWPOLYLINE
  5
481
330
1F
100
AcDbEntity
  8
C-4
  6
Continuous
 62
     7
370
     9
100
AcDbPolyline
 90
        4
 70
     1
 43
1.0
 10
699.6572444503375
 20
1057.44786597587
 42
0.4142135623731
 10
699.1572444503377
 20
1057.94786597587
 42
0.4142135623731
 10
698.6572444503377
 20
1057.44786597587
 42
0.4142135623731
 10
699.1572444503377
 20
1056.94786597587
 42
0.4142135623731
  0
LWPOLYLINE
  5
482
330
1F
100
AcDbEntity
  8
C-4
  6
Continuous
 62
     7
370
     9
100
AcDbPolyline
 90
        4
 70
     1
 43
1.0
 10
913.8221020569678
 20
880.991600139721
 42
0.4142135623731
 10
913.3221020569679
 20
881.491600139721
 42
0.4142135623731
 10
912.8221020569679
 20
880.991600139721
 42
0.4142135623731
 10
913.3221020569679
 20
880.491600139721
 42
0.4142135623731
  0
LWPOLYLINE
  5
483
330
1F
100
AcDbEntity
  8
C-4
  6
Continuous
 62
     7
370
     9
100
AcDbPolyline
 90
        4
 70
     1
 43
1.0
 10
915.258737667187
 20
885.7807979068241
 42
0.4142135623731
 10
914.758737667187
 20
886.2807979068241
 42
0.4142135623731
 10
914.2587376671871
 20
885.7807979068241
 42
0.4142135623731
 10
914.758737667187
 20
885.2807979068241
 42
0.4142135623731
  0
LWPOLYLINE
  5
484
330
1F
100
AcDbEntity
  8
C-4
  6
Continuous
 62
     7
370
     9
100
AcDbPolyline
 90
        4
 70
     1
 43
1.0
 10
771.370501286275
 20
1150.065086467846
 42
0.4142135623731
 10
770.8705012862752
 20
1150.565086467846
 42
0.4142135623731
 10
770.3705012862752
 20
1150.065086467846
 42
0.4142135623731
 10
770.8705012862752
 20
1149.565086467846
 42
0.4142135623731
  0
LWPOLYLINE
  5
485
330
1F
100
AcDbEntity
  8
C-4
  6
Continuous
 62
     7
370
     9
100
AcDbPolyline
 90
        4
 70
     1
 43
1.0
 10
831.3706992381328
 20
1150.065086467846
 42
0.4142135623731
 10
830.8706992381328
 20
1150.565086467846
 42
0.4142135623731
 10
830.3706992381329
 20
1150.065086467846
 42
0.4142135623731
 10
830.8706992381328
 20
1149.565086467846
 42
0.4142135623731
  0
LWPOLYLINE
  5
486
330
1F
100
AcDbEntity
  8
D-4
  6
Continuous
 62
     7
370
     9
100
AcDbPolyline
 90
        4
 70
     1
 43
1.0
 10
-480.0687736820528
 20
69.86715935372018
 42
0.4142135623731
 10
-480.5687736820528
 20
70.36715935372018
 42
0.4142135623731
 10
-481.0687736820528
 20
69.86715935372018
 42
0.4142135623731
 10
-480.5687736820528
 20
69.36715935372018
 42
0.4142135623731
  0
LWPOLYLINE
  5
487
330
1F
100
AcDbEntity
  8
D-4
  6
Continuous
 62
     7
370
     9
100
AcDbPolyline
 90
        4
 70
     1
 43
1.0
 10
-635.0681715784843
 20
-149.5806621860814
 42
0.4142135623731
 10
-635.5681715784842
 20
-149.0806621860814
 42
0.4142135623731
 10
-636.0681715784842
 20
-149.5806621860814
 42
0.4142135623731
 10
-635.5681715784842
 20
-150.0806621860814
 42
0.4142135623731
  0
LWPOLYLINE
  5
488
330
1F
100
AcDbEntity
  8
D-4
  6
Continuous
 62
     7
370
     9
100
AcDbPolyline
 90
        4
 70
     1
 43
1.0
 10
-510.067388019046
 20
-149.5806621860814
 42
0.4142135623731
 10
-510.567388019046
 20
-149.0806621860814
 42
0.4142135623731
 10
-511.067388019046
 20
-149.5806621860814
 42
0.4142135623731
 10
-510.567388019046
 20
-150.0806621860814
 42
0.4142135623731
  0
LWPOLYLINE
  5
489
330
1F
100
AcDbEntity
  8
D-4
  6
Continuous
 62
     7
370
     9
100
AcDbPolyline
 90
        4
 70
     1
 43
1.0
 10
-510.067388019046
 20
-40.82850945962434
 42
0.4142135623731
 10
-510.567388019046
 20
-40.32850945962434
 42
0.4142135623731
 10
-511.067388019046
 20
-40.82850945962434
 42
0.4142135623731
 10
-510.567388019046
 20
-41.32850945962434
 42
0.4142135623731
  0
LWPOLYLINE
  5
48A
330
1F
100
AcDbEntity
  8
D-4
  6
Continuous
 62
     7
370
     9
100
AcDbPolyline
 90
        4
 70
     1
 43
1.0
 10
-505.0671240832354
 20
-40.82850945962434
 42
0.4142135623731
 10
-505.5671240832353
 20
-40.32850945962434
 42
0.4142135623731
 10
-506.0671240832353
 20
-40.82850945962434
 42
0.4142135623731
 10
-505.5671240832353
 20
-41.32850945962434
 42
0.4142135623731
  0
LWPOLYLINE
  5
48B
330
1F
100
AcDbEntity
  8
D-4
  6
Continuous
 62
     7
370
     9
100
AcDbPolyline
 90
        4
 70
     1
 43
1.0
 10
-480.0687736820528
 20
-40.82850945962434
 42
0.4142135623731
 10
-480.5687736820528
 20
-40.32850945962434
 42
0.4142135623731
 10
-481.0687736820528
 20
-40.82850945962434
 42
0.4142135623731
 10
-480.5687736820528
 20
-41.32850945962434
 42
0.4142135623731
  0
LWPOLYLINE
  5
48C
330
1F
100
AcDbEntity
  8
D-4
  6
Continuous
 62
     7
370
     9
100
AcDbPolyline
 90
        4
 70
     1
 43
1.0
 10
-780.550786456546
 20
-395.4998433912123
 42
0.4142135623731
 10
-781.050786456546
 20
-394.9998433912123
 42
0.4142135623731
 10
-781.550786456546
 20
-395.4998433912123
 42
0.4142135623731
 10
-781.050786456546
 20
-395.9998433912122
 42
0.4142135623731
  0
LWPOLYLINE
  5
48D
330
1F
100
AcDbEntity
  8
D-4
  6
Continuous
 62
     7
370
     9
100
AcDbPolyline
 90
        4
 70
     1
 43
1.0
 10
-780.550786456546
 20
-270.4998021512418
 42
0.4142135623731
 10
-781.050786456546
 20
-269.9998021512418
 42
0.4142135623731
 10
-781.550786456546
 20
-270.4998021512418
 42
0.4142135623731
 10
-781.050786456546
 20
-270.9998021512418
 42
0.4142135623731
  0
LWPOLYLINE
  5
48E
330
1F
100
AcDbEntity
  8
D-4
  6
Continuous
 62
     7
370
     9
100
AcDbPolyline
 90
        4
 70
     1
 43
1.0
 10
-480.0677839227621
 20
-461.0305688187883
 42
0.4142135623731
 10
-480.5677839227621
 20
-460.5305688187883
 42
0.4142135623731
 10
-481.0677839227621
 20
-461.0305688187883
 42
0.4142135623731
 10
-480.5677839227621
 20
-461.5305688187883
 42
0.4142135623731
  0
LWPOLYLINE
  5
48F
330
1F
100
AcDbEntity
  8
D-4
  6
Continuous
 62
     7
370
     9
100
AcDbPolyline
 90
        4
 70
     1
 43
1.0
 10
-335.0678004187505
 20
-461.0305688187883
 42
0.4142135623731
 10
-335.5678004187504
 20
-460.5305688187883
 42
0.4142135623731
 10
-336.0678004187504
 20
-461.0305688187883
 42
0.4142135623731
 10
-335.5678004187504
 20
-461.5305688187883
 42
0.4142135623731
  0
LWPOLYLINE
  5
490
330
1F
100
AcDbEntity
  8
D-4
  6
Continuous
 62
     7
370
     9
100
AcDbPolyline
 90
        4
 70
     1
 43
1.0
 10
-247.0170818535054
 20
-270.4998021512418
 42
0.4142135623731
 10
-247.5170818535054
 20
-269.9998021512418
 42
0.4142135623731
 10
-248.0170818535054
 20
-270.4998021512418
 42
0.4142135623731
 10
-247.5170818535054
 20
-270.9998021512418
 42
0.4142135623731
  0
LWPOLYLINE
  5
491
330
1F
100
AcDbEntity
  8
D-4
  6
Continuous
 62
     7
370
     9
100
AcDbPolyline
 90
        4
 70
     1
 43
1.0
 10
-247.0170818535054
 20
-355.5002063029521
 42
0.4142135623731
 10
-247.5170818535054
 20
-355.0002063029521
 42
0.4142135623731
 10
-248.0170818535054
 20
-355.5002063029521
 42
0.4142135623731
 10
-247.5170818535054
 20
-356.0002063029521
 42
0.4142135623731
  0
LWPOLYLINE
  5
492
330
1F
100
AcDbEntity
  8
D-4
  6
Continuous
 62
     7
370
     9
100
AcDbPolyline
 90
        4
 70
     1
 43
1.0
 10
-247.0170818535054
 20
-405.5001238230112
 42
0.4142135623731
 10
-247.5170818535054
 20
-405.0001238230112
 42
0.4142135623731
 10
-248.0170818535054
 20
-405.5001238230112
 42
0.4142135623731
 10
-247.5170818535054
 20
-406.0001238230112
 42
0.4142135623731
  0
LWPOLYLINE
  5
493
330
1F
100
AcDbEntity
  8
D-4
  6
Continuous
 62
     7
370
     9
100
AcDbPolyline
 90
        4
 70
     1
 43
1.0
 10
36.61700083758393
 20
-520.500008351094
 42
0.4142135623731
 10
36.11700083758393
 20
-520.000008351094
 42
0.4142135623731
 10
35.61700083758393
 20
-520.500008351094
 42
0.4142135623731
 10
36.11700083758393
 20
-521.000008351094
 42
0.4142135623731
  0
LWPOLYLINE
  5
494
330
1F
100
AcDbEntity
  8
D-4
  6
Continuous
 62
     7
370
     9
100
AcDbPolyline
 90
        4
 70
     1
 43
1.0
 10
36.61700083758393
 20
-270.4998021512418
 42
0.4142135623731
 10
36.11700083758393
 20
-269.9998021512418
 42
0.4142135623731
 10
35.61700083758393
 20
-270.4998021512418
 42
0.4142135623731
 10
36.11700083758393
 20
-270.9998021512418
 42
0.4142135623731
  0
LWPOLYLINE
  5
495
330
1F
100
AcDbEntity
  8
D-4
  6
Continuous
 62
     7
370
     9
100
AcDbPolyline
 90
        4
 70
     1
 43
1.0
 10
-635.0671818191939
 20
-676.1187481235813
 42
0.4142135623731
 10
-635.5671818191939
 20
-675.6187481235814
 42
0.4142135623731
 10
-636.0671818191939
 20
-676.1187481235813
 42
0.4142135623731
 10
-635.5671818191939
 20
-676.6187481235813
 42
0.4142135623731
  0
LWPOLYLINE
  5
496
330
1F
100
AcDbEntity
  8
D-4
  6
Continuous
 62
     7
370
     9
100
AcDbPolyline
 90
        4
 70
     1
 43
1.0
 10
-485.0680478585731
 20
-676.1187481235813
 42
0.4142135623731
 10
-485.5680478585731
 20
-675.6187481235814
 42
0.4142135623731
 10
-486.0680478585731
 20
-676.1187481235813
 42
0.4142135623731
 10
-485.5680478585731
 20
-676.6187481235813
 42
0.4142135623731
  0
LWPOLYLINE
  5
497
330
1F
100
AcDbEntity
  8
D-4
  6
Continuous
 62
     7
370
     9
100
AcDbPolyline
 90
        4
 70
     1
 43
1.0
 10
-635.0671818191939
 20
-830.5831811234758
 42
0.4142135623731
 10
-635.5671818191939
 20
-830.0831811234758
 42
0.4142135623731
 10
-636.0671818191939
 20
-830.5831811234758
 42
0.4142135623731
 10
-635.5671818191939
 20
-831.0831811234757
 42
0.4142135623731
  0
LWPOLYLINE
  5
498
330
1F
100
AcDbEntity
  8
D-4
  6
Continuous
 62
     7
370
     9
100
AcDbPolyline
 90
        4
 70
     1
 43
1.0
 10
-235.0663570197851
 20
-830.5831811234758
 42
0.4142135623731
 10
-235.5663570197851
 20
-830.0831811234758
 42
0.4142135623731
 10
-236.0663570197851
 20
-830.5831811234758
 42
0.4142135623731
 10
-235.5663570197851
 20
-831.0831811234757
 42
0.4142135623731
  0
LWPOLYLINE
  5
499
330
1F
100
AcDbEntity
  8
D-4
  6
Continuous
 62
     7
370
     9
100
AcDbPolyline
 90
        4
 70
     1
 43
1.0
 10
-991.7938746375005
 20
-272.9996866793246
 42
0.4142135623731
 10
-992.2938746375005
 20
-272.4996866793246
 42
0.4142135623731
 10
-992.7938746375004
 20
-272.9996866793246
 42
0.4142135623731
 10
-992.2938746375005
 20
-273.4996866793246
 42
0.4142135623731
  0
LWPOLYLINE
  5
49A
330
1F
100
AcDbEntity
  8
D-4
  6
Continuous
 62
     7
370
     9
100
AcDbPolyline
 90
        4
 70
     1
 43
1.0
 10
-991.7938746375005
 20
-372.9996454393541
 42
0.4142135623731
 10
-992.2938746375005
 20
-372.4996454393542
 42
0.4142135623731
 10
-992.7938746375004
 20
-372.9996454393541
 42
0.4142135623731
 10
-992.2938746375005
 20
-373.4996454393541
 42
0.4142135623731
  0
LINE
  5
49B
330
1F
100
AcDbEntity
  8
C-1
  6
Continuous
 62
     2
370
     9
100
AcDbLine
 10
-1127.621621054572
 20
684.3783749760809
 30
0.0
 11
373.3787162883866
 21
684.3783749760809
 31
0.0
  0
LINE
  5
49C
330
1F
100
AcDbEntity
  8
C-1
  6
Continuous
 62
     2
370
     9
100
AcDbLine
 10
373.3787162883866
 20
372.3781951698098
 30
0.0
 11
-1127.621621054572
 21
372.3781951698098
 31
0.0
  0
LINE
  5
49D
330
1F
100
AcDbEntity
  8
D-0
  6
Continuous
 62
     7
370
     9
100
AcDbLine
 10
-208.721889354087
 20
-291.4497439925735
 30
0.0
 11
-208.721889354087
 21
-289.9494640891617
 31
0.0
  0
LINE
  5
49E
330
1F
100
AcDbEntity
  8
D-0
  6
Continuous
 62
     7
370
     9
100
AcDbLine
 10
-208.721889354087
 20
-289.9494640891617
 30
0.0
 11
-207.2221220506202
 21
-289.9494640891617
 31
0.0
  0
LINE
  5
49F
330
1F
100
AcDbEntity
  8
D-0
  6
Continuous
 62
     7
370
     9
100
AcDbLine
 10
-207.2221220506202
 20
-289.9494640891617
 30
0.0
 11
-207.2221220506202
 21
-291.4497439925735
 31
0.0
  0
LINE
  5
4A0
330
1F
100
AcDbEntity
  8
D-0
  6
Continuous
 62
     7
370
     9
100
AcDbLine
 10
-207.2221220506202
 20
-291.4497439925735
 30
0.0
 11
-208.721889354087
 21
-291.4497439925735
 31
0.0
  0
LINE
  5
4A1
330
1F
100
AcDbEntity
  8
D-0
  6
Continuous
 62
     7
370
     9
100
AcDbLine
 10
-157.9660643113624
 20
-294.156984574086
 30
0.0
 11
-157.9660643113624
 21
-292.6567046706741
 31
0.0
  0
LINE
  5
4A2
330
1F
100
AcDbEntity
  8
D-0
  6
Continuous
 62
     7
370
     9
100
AcDbLine
 10
-157.9660643113624
 20
-292.6567046706741
 30
0.0
 11
-156.4657820237647
 21
-292.6567046706741
 31
0.0
  0
LINE
  5
4A3
330
1F
100
AcDbEntity
  8
D-0
  6
Continuous
 62
     7
370
     9
100
AcDbLine
 10
-156.4657820237647
 20
-292.6567046706741
 30
0.0
 11
-156.4657820237647
 21
-294.156984574086
 31
0.0
  0
LINE
  5
4A4
330
1F
100
AcDbEntity
  8
D-0
  6
Continuous
 62
     7
370
     9
100
AcDbLine
 10
-156.4657820237647
 20
-294.156984574086
 30
0.0
 11
-157.9660643113624
 21
-294.156984574086
 31
0.0
  0
LINE
  5
4A5
330
1F
100
AcDbEntity
  8
D-0
  6
Continuous
 62
     7
370
     9
100
AcDbLine
 10
-92.99822220931162
 20
-292.1265547339981
 30
0.0
 11
-92.99822220931162
 21
-290.6262748305862
 31
0.0
  0
LINE
  5
4A6
330
1F
100
AcDbEntity
  8
D-0
  6
Continuous
 62
     7
370
     9
100
AcDbLine
 10
-92.99822220931162
 20
-290.6262748305862
 30
0.0
 11
-91.4984358323585
 21
-290.6262748305862
 31
0.0
  0
LINE
  5
4A7
330
1F
100
AcDbEntity
  8
D-0
  6
Continuous
 62
     7
370
     9
100
AcDbLine
 10
-91.4984358323585
 20
-290.6262748305862
 30
0.0
 11
-91.4984358323585
 21
-292.1265547339981
 31
0.0
  0
LINE
  5
4A8
330
1F
100
AcDbEntity
  8
D-0
  6
Continuous
 62
     7
370
     9
100
AcDbLine
 10
-91.4984358323585
 20
-292.1265547339981
 30
0.0
 11
-92.99822220931162
 21
-292.1265547339981
 31
0.0
  0
LINE
  5
4A9
330
1F
100
AcDbEntity
  8
D-0
  6
Continuous
 62
     7
370
     9
100
AcDbLine
 10
-117.3614347947608
 20
-324.6104781692093
 30
0.0
 11
-117.3614347947608
 21
-323.1101958816116
 31
0.0
  0
LINE
  5
4AA
330
1F
100
AcDbEntity
  8
D-0
  6
Continuous
 62
     7
370
     9
100
AcDbLine
 10
-117.3614347947608
 20
-323.1101958816116
 30
0.0
 11
-115.8611525071632
 21
-323.1101958816116
 31
0.0
  0
LINE
  5
4AB
330
1F
100
AcDbEntity
  8
D-0
  6
Continuous
 62
     7
370
     9
100
AcDbLine
 10
-115.8611525071632
 20
-323.1101958816116
 30
0.0
 11
-115.8611525071632
 21
-324.6104781692093
 31
0.0
  0
LINE
  5
4AC
330
1F
100
AcDbEntity
  8
D-0
  6
Continuous
 62
     7
370
     9
100
AcDbLine
 10
-115.8611525071632
 20
-324.6104781692093
 30
0.0
 11
-117.3614347947608
 21
-324.6104781692093
 31
0.0
  0
LINE
  5
4AD
330
1F
100
AcDbEntity
  8
D-0
  6
Continuous
 62
     7
370
     9
100
AcDbLine
 10
-167.9264677537452
 20
-328.5415284698074
 30
0.0
 11
-167.9264677537452
 21
-327.0412461822098
 31
0.0
  0
LINE
  5
4AE
330
1F
100
AcDbEntity
  8
D-0
  6
Continuous
 62
     7
370
     9
100
AcDbLine
 10
-167.9264677537452
 20
-327.0412461822098
 30
0.0
 11
-166.4267195237647
 21
-327.0412461822098
 31
0.0
  0
LINE
  5
4AF
330
1F
100
AcDbEntity
  8
D-0
  6
Continuous
 62
     7
370
     9
100
AcDbLine
 10
-166.4267195237647
 20
-327.0412461822098
 30
0.0
 11
-166.4267195237647
 21
-328.5415284698074
 31
0.0
  0
LINE
  5
4B0
330
1F
100
AcDbEntity
  8
D-0
  6
Continuous
 62
     7
370
     9
100
AcDbLine
 10
-166.4267195237647
 20
-328.5415284698074
 30
0.0
 11
-167.9264677537452
 21
-328.5415284698074
 31
0.0
  0
LINE
  5
4B1
330
1F
100
AcDbEntity
  8
D-0
  6
Continuous
 62
     7
370
     9
100
AcDbLine
 10
-185.0359953416358
 20
-362.5083892409866
 30
0.0
 11
-185.0359953416358
 21
-361.008106953389
 31
0.0
  0
LINE
  5
4B2
330
1F
100
AcDbEntity
  8
D-0
  6
Continuous
 62
     7
370
     9
100
AcDbLine
 10
-185.0359953416358
 20
-361.008106953389
 30
0.0
 11
-183.5357512010108
 21
-361.008106953389
 31
0.0
  0
LINE
  5
4B3
330
1F
100
AcDbEntity
  8
D-0
  6
Continuous
 62
     7
370
     9
100
AcDbLine
 10
-183.5357512010108
 20
-361.008106953389
 30
0.0
 11
-183.5357512010108
 21
-362.5083892409866
 31
0.0
  0
LINE
  5
4B4
330
1F
100
AcDbEntity
  8
D-0
  6
Continuous
 62
     7
370
     9
100
AcDbLine
 10
-183.5357512010108
 20
-362.5083892409866
 30
0.0
 11
-185.0359953416358
 21
-362.5083892409866
 31
0.0
  0
LINE
  5
4B5
330
1F
100
AcDbEntity
  8
D-0
  6
Continuous
 62
     7
370
     9
100
AcDbLine
 10
-216.3922537339698
 20
-347.9366509978836
 30
0.0
 11
-216.3922537339698
 21
-346.4363734786575
 31
0.0
  0
LINE
  5
4B6
330
1F
100
AcDbEntity
  8
D-0
  6
Continuous
 62
     7
370
     9
100
AcDbLine
 10
-216.3922537339698
 20
-346.4363734786575
 30
0.0
 11
-214.8924673570167
 21
-346.4363734786575
 31
0.0
  0
LINE
  5
4B7
330
1F
100
AcDbEntity
  8
D-0
  6
Continuous
 62
     7
370
     9
100
AcDbLine
 10
-214.8924673570167
 20
-346.4363734786575
 30
0.0
 11
-214.8924673570167
 21
-347.9366509978836
 31
0.0
  0
LINE
  5
4B8
330
1F
100
AcDbEntity
  8
D-0
  6
Continuous
 62
     7
370
     9
100
AcDbLine
 10
-214.8924673570167
 20
-347.9366509978836
 30
0.0
 11
-216.3922537339698
 21
-347.9366509978836
 31
0.0
  0
LINE
  5
4B9
330
1F
100
AcDbEntity
  8
D-0
  6
Continuous
 62
     7
370
     9
100
AcDbLine
 10
-227.116664744712
 20
-389.1566817824905
 30
0.0
 11
-227.116664744712
 21
-387.6563994948929
 31
0.0
  0
LINE
  5
4BA
330
1F
100
AcDbEntity
  8
D-0
  6
Continuous
 62
     7
370
     9
100
AcDbLine
 10
-227.116664744712
 20
-387.6563994948929
 30
0.0
 11
-225.6163824571144
 21
-387.6563994948929
 31
0.0
  0
LINE
  5
4BB
330
1F
100
AcDbEntity
  8
D-0
  6
Continuous
 62
     7
370
     9
100
AcDbLine
 10
-225.6163824571144
 20
-387.6563994948929
 30
0.0
 11
-225.6163824571144
 21
-389.1566817824905
 31
0.0
  0
LINE
  5
4BC
330
1F
100
AcDbEntity
  8
D-0
  6
Continuous
 62
     7
370
     9
100
AcDbLine
 10
-225.6163824571144
 20
-389.1566817824905
 30
0.0
 11
-227.116664744712
 21
-389.1566817824905
 31
0.0
  0
LINE
  5
4BD
330
1F
100
AcDbEntity
  8
D-0
  6
Continuous
 62
     7
370
     9
100
AcDbLine
 10
-189.7732008470069
 20
-397.6990573470657
 30
0.0
 11
-189.7732008470069
 21
-396.1987750594681
 31
0.0
  0
LINE
  5
4BE
330
1F
100
AcDbEntity
  8
D-0
  6
Continuous
 62
     7
370
     9
100
AcDbLine
 10
-189.7732008470069
 20
-396.1987750594681
 30
0.0
 11
-188.2729185594093
 21
-396.1987750594681
 31
0.0
  0
LINE
  5
4BF
330
1F
100
AcDbEntity
  8
D-0
  6
Continuous
 62
     7
370
     9
100
AcDbLine
 10
-188.2729185594093
 20
-396.1987750594681
 30
0.0
 11
-188.2729185594093
 21
-397.6990573470657
 31
0.0
  0
LINE
  5
4C0
330
1F
100
AcDbEntity
  8
D-0
  6
Continuous
 62
     7
370
     9
100
AcDbLine
 10
-188.2729185594093
 20
-397.6990573470657
 30
0.0
 11
-189.7732008470069
 21
-397.6990573470657
 31
0.0
  0
LINE
  5
4C1
330
1F
100
AcDbEntity
  8
D-0
  6
Continuous
 62
     7
370
     9
100
AcDbLine
 10
-137.5681150926124
 20
-402.4238460128372
 30
0.0
 11
-137.5681150926124
 21
-400.9235732619827
 31
0.0
  0
LINE
  5
4C2
330
1F
100
AcDbEntity
  8
D-0
  6
Continuous
 62
     7
370
     9
100
AcDbLine
 10
-137.5681150926124
 20
-400.9235732619827
 30
0.0
 11
-136.0683287156593
 21
-400.9235732619827
 31
0.0
  0
LINE
  5
4C3
330
1F
100
AcDbEntity
  8
D-0
  6
Continuous
 62
     7
370
     9
100
AcDbLine
 10
-136.0683287156593
 20
-400.9235732619827
 30
0.0
 11
-136.0683287156593
 21
-402.4238460128372
 31
0.0
  0
LINE
  5
4C4
330
1F
100
AcDbEntity
  8
D-0
  6
Continuous
 62
     7
370
     9
100
AcDbLine
 10
-136.0683287156593
 20
-402.4238460128372
 30
0.0
 11
-137.5681150926124
 21
-402.4238460128372
 31
0.0
  0
LINE
  5
4C5
330
1F
100
AcDbEntity
  8
D-0
  6
Continuous
 62
     7
370
     9
100
AcDbLine
 10
-82.8470457566749
 20
-395.6686275069778
 30
0.0
 11
-82.8470457566749
 21
-394.1683452193802
 31
0.0
  0
LINE
  5
4C6
330
1F
100
AcDbEntity
  8
D-0
  6
Continuous
 62
     7
370
     9
100
AcDbLine
 10
-82.8470457566749
 20
-394.1683452193802
 30
0.0
 11
-81.34729752669443
 21
-394.1683452193802
 31
0.0
  0
LINE
  5
4C7
330
1F
100
AcDbEntity
  8
D-0
  6
Continuous
 62
     7
370
     9
100
AcDbLine
 10
-81.34729752669443
 20
-394.1683452193802
 30
0.0
 11
-81.34729752669443
 21
-395.6686275069778
 31
0.0
  0
LINE
  5
4C8
330
1F
100
AcDbEntity
  8
D-0
  6
Continuous
 62
     7
370
     9
100
AcDbLine
 10
-81.34729752669443
 20
-395.6686275069778
 30
0.0
 11
-82.8470457566749
 21
-395.6686275069778
 31
0.0
  0
LINE
  5
4C9
330
1F
100
AcDbEntity
  8
D-0
  6
Continuous
 62
     7
370
     9
100
AcDbLine
 10
-95.02867112288584
 20
-355.7407825057571
 30
0.0
 11
-95.02867112288584
 21
-354.2405002181595
 31
0.0
  0
LINE
  5
4CA
330
1F
100
AcDbEntity
  8
D-0
  6
Continuous
 62
     7
370
     9
100
AcDbLine
 10
-95.02867112288584
 20
-354.2405002181595
 30
0.0
 11
-93.52838883528818
 21
-354.2405002181595
 31
0.0
  0
LINE
  5
4CB
330
1F
100
AcDbEntity
  8
D-0
  6
Continuous
 62
     7
370
     9
100
AcDbLine
 10
-93.52838883528818
 20
-354.2405002181595
 30
0.0
 11
-93.52838883528818
 21
-355.7407825057571
 31
0.0
  0
LINE
  5
4CC
330
1F
100
AcDbEntity
  8
D-0
  6
Continuous
 62
     7
370
     9
100
AcDbLine
 10
-93.52838883528818
 20
-355.7407825057571
 30
0.0
 11
-95.02867112288584
 21
-355.7407825057571
 31
0.0
  0
LINE
  5
4CD
330
1F
100
AcDbEntity
  8
D-0
  6
Continuous
 62
     7
370
     9
100
AcDbLine
 10
-136.0574186814796
 20
-364.8583953445022
 30
0.0
 11
-136.0574186814796
 21
-363.3581130569046
 31
0.0
  0
LINE
  5
4CE
330
1F
100
AcDbEntity
  8
D-0
  6
Continuous
 62
     7
370
     9
100
AcDbLine
 10
-136.0574186814796
 20
-363.3581130569046
 30
0.0
 11
-134.5576704514991
 21
-363.3581130569046
 31
0.0
  0
LINE
  5
4CF
330
1F
100
AcDbEntity
  8
D-0
  6
Continuous
 62
     7
370
     9
100
AcDbLine
 10
-134.5576704514991
 20
-363.3581130569046
 30
0.0
 11
-134.5576704514991
 21
-364.8583953445022
 31
0.0
  0
LINE
  5
4D0
330
1F
100
AcDbEntity
  8
D-0
  6
Continuous
 62
     7
370
     9
100
AcDbLine
 10
-134.5576704514991
 20
-364.8583953445022
 30
0.0
 11
-136.0574186814796
 21
-364.8583953445022
 31
0.0
  0
LINE
  5
4D1
330
1F
100
AcDbEntity
  8
D-0
  6
Continuous
 62
     7
370
     9
100
AcDbLine
 10
-75.57260880599131
 20
-325.370032078511
 30
0.0
 11
-75.57260880599131
 21
-323.8697497909134
 31
0.0
  0
LINE
  5
4D2
330
1F
100
AcDbEntity
  8
D-0
  6
Continuous
 62
     7
370
     9
100
AcDbLine
 10
-75.57260880599131
 20
-323.8697497909134
 30
0.0
 11
-74.07232651839365
 21
-323.8697497909134
 31
0.0
  0
LINE
  5
4D3
330
1F
100
AcDbEntity
  8
D-0
  6
Continuous
 62
     7
370
     9
100
AcDbLine
 10
-74.07232651839365
 20
-323.8697497909134
 30
0.0
 11
-74.07232651839365
 21
-325.370032078511
 31
0.0
  0
LINE
  5
4D4
330
1F
100
AcDbEntity
  8
D-0
  6
Continuous
 62
     7
370
     9
100
AcDbLine
 10
-74.07232651839365
 20
-325.370032078511
 30
0.0
 11
-75.57260880599131
 21
-325.370032078511
 31
0.0
  0
LINE
  5
4D5
330
1F
100
AcDbEntity
  8
D-0
  6
Continuous
 62
     7
370
     9
100
AcDbLine
 10
-229.5731962693702
 20
-314.4771497314041
 30
0.0
 11
-229.5731962693702
 21
-312.976872212178
 31
0.0
  0
LINE
  5
4D6
330
1F
100
AcDbEntity
  8
D-0
  6
Continuous
 62
     7
370
     9
100
AcDbLine
 10
-229.5731962693702
 20
-312.976872212178
 30
0.0
 11
-228.0729330552589
 21
-312.976872212178
 31
0.0
  0
LINE
  5
4D7
330
1F
100
AcDbEntity
  8
D-0
  6
Continuous
 62
     7
370
     9
100
AcDbLine
 10
-228.0729330552589
 20
-312.976872212178
 30
0.0
 11
-228.0729330552589
 21
-314.4771497314041
 31
0.0
  0
LINE
  5
4D8
330
1F
100
AcDbEntity
  8
D-0
  6
Continuous
 62
     7
370
     9
100
AcDbLine
 10
-228.0729330552589
 20
-314.4771497314041
 30
0.0
 11
-229.5731962693702
 21
-314.4771497314041
 31
0.0
  0
LINE
  5
4D9
330
1F
100
AcDbEntity
  8
D-0
  6
Continuous
 62
     7
370
     9
100
AcDbLine
 10
-312.9229391587745
 20
-437.7274863784378
 30
0.0
 11
-312.9229391587745
 21
-436.2272040908401
 31
0.0
  0
LINE
  5
4DA
330
1F
100
AcDbEntity
  8
D-0
  6
Continuous
 62
     7
370
     9
100
AcDbLine
 10
-312.9229391587745
 20
-436.2272040908401
 30
0.0
 11
-311.4226568711769
 21
-436.2272040908401
 31
0.0
  0
LINE
  5
4DB
330
1F
100
AcDbEntity
  8
D-0
  6
Continuous
 62
     7
370
     9
100
AcDbLine
 10
-311.4226568711769
 20
-436.2272040908401
 30
0.0
 11
-311.4226568711769
 21
-437.7274863784378
 31
0.0
  0
LINE
  5
4DC
330
1F
100
AcDbEntity
  8
D-0
  6
Continuous
 62
     7
370
     9
100
AcDbLine
 10
-311.4226568711769
 20
-437.7274863784378
 30
0.0
 11
-312.9229391587745
 21
-437.7274863784378
 31
0.0
  0
LINE
  5
4DD
330
1F
100
AcDbEntity
  8
D-0
  6
Continuous
 62
     7
370
     9
100
AcDbLine
 10
-263.5583914292823
 20
-445.6257598464554
 30
0.0
 11
-263.5583914292823
 21
-444.1254775588577
 31
0.0
  0
LINE
  5
4DE
330
1F
100
AcDbEntity
  8
D-0
  6
Continuous
 62
     7
370
     9
100
AcDbLine
 10
-263.5583914292823
 20
-444.1254775588577
 30
0.0
 11
-262.058128215171
 21
-444.1254775588577
 31
0.0
  0
LINE
  5
4DF
330
1F
100
AcDbEntity
  8
D-0
  6
Continuous
 62
     7
370
     9
100
AcDbLine
 10
-262.058128215171
 20
-444.1254775588577
 30
0.0
 11
-262.058128215171
 21
-445.6257598464554
 31
0.0
  0
LINE
  5
4E0
330
1F
100
AcDbEntity
  8
D-0
  6
Continuous
 62
     7
370
     9
100
AcDbLine
 10
-262.058128215171
 20
-445.6257598464554
 30
0.0
 11
-263.5583914292823
 21
-445.6257598464554
 31
0.0
  0
LINE
  5
4E1
330
1F
100
AcDbEntity
  8
D-0
  6
Continuous
 62
     7
370
     9
100
AcDbLine
 10
-280.4395140183937
 20
-466.2065284316604
 30
0.0
 11
-280.4395140183937
 21
-464.7062652175491
 31
0.0
  0
LINE
  5
4E2
330
1F
100
AcDbEntity
  8
D-0
  6
Continuous
 62
     7
370
     9
100
AcDbLine
 10
-280.4395140183937
 20
-464.7062652175491
 30
0.0
 11
-278.9397276414405
 21
-464.7062652175491
 31
0.0
  0
LINE
  5
4E3
330
1F
100
AcDbEntity
  8
D-0
  6
Continuous
 62
     7
370
     9
100
AcDbLine
 10
-278.9397276414405
 20
-464.7062652175491
 30
0.0
 11
-278.9397276414405
 21
-466.2065284316604
 31
0.0
  0
LINE
  5
4E4
330
1F
100
AcDbEntity
  8
D-0
  6
Continuous
 62
     7
370
     9
100
AcDbLine
 10
-278.9397276414405
 20
-466.2065284316604
 30
0.0
 11
-280.4395140183937
 21
-466.2065284316604
 31
0.0
  0
LINE
  5
4E5
330
1F
100
AcDbEntity
  8
D-0
  6
Continuous
 62
     7
370
     9
100
AcDbLine
 10
-328.7194860948097
 20
-500.9146277968948
 30
0.0
 11
-328.7194860948097
 21
-499.4143455092972
 31
0.0
  0
LINE
  5
4E6
330
1F
100
AcDbEntity
  8
D-0
  6
Continuous
 62
     7
370
     9
100
AcDbLine
 10
-328.7194860948097
 20
-499.4143455092972
 30
0.0
 11
-327.2196997178565
 21
-499.4143455092972
 31
0.0
  0
LINE
  5
4E7
330
1F
100
AcDbEntity
  8
D-0
  6
Continuous
 62
     7
370
     9
100
AcDbLine
 10
-327.2196997178565
 20
-499.4143455092972
 30
0.0
 11
-327.2196997178565
 21
-500.9146277968948
 31
0.0
  0
LINE
  5
4E8
330
1F
100
AcDbEntity
  8
D-0
  6
Continuous
 62
     7
370
     9
100
AcDbLine
 10
-327.2196997178565
 20
-500.9146277968948
 30
0.0
 11
-328.7194860948097
 21
-500.9146277968948
 31
0.0
  0
LINE
  5
4E9
330
1F
100
AcDbEntity
  8
D-0
  6
Continuous
 62
     7
370
     9
100
AcDbLine
 10
-257.6345671189796
 20
-498.9396827285354
 30
0.0
 11
-257.6345671189796
 21
-497.4394004409378
 31
0.0
  0
LINE
  5
4EA
330
1F
100
AcDbEntity
  8
D-0
  6
Continuous
 62
     7
370
     9
100
AcDbLine
 10
-257.6345671189796
 20
-497.4394004409378
 30
0.0
 11
-256.1343039048683
 21
-497.4394004409378
 31
0.0
  0
LINE
  5
4EB
330
1F
100
AcDbEntity
  8
D-0
  6
Continuous
 62
     7
370
     9
100
AcDbLine
 10
-256.1343039048683
 20
-497.4394004409378
 30
0.0
 11
-256.1343039048683
 21
-498.9396827285354
 31
0.0
  0
LINE
  5
4EC
330
1F
100
AcDbEntity
  8
D-0
  6
Continuous
 62
     7
370
     9
100
AcDbLine
 10
-256.1343039048683
 20
-498.9396827285354
 30
0.0
 11
-257.6345671189796
 21
-498.9396827285354
 31
0.0
  0
LINE
  5
4ED
330
1F
100
AcDbEntity
  8
D-0
  6
Continuous
 62
     7
370
     9
100
AcDbLine
 10
-314.8973883164894
 20
-467.3466079299515
 30
0.0
 11
-314.8973883164894
 21
-465.8463256423538
 31
0.0
  0
LINE
  5
4EE
330
1F
100
AcDbEntity
  8
D-0
  6
Continuous
 62
     7
370
     9
100
AcDbLine
 10
-314.8973883164894
 20
-465.8463256423538
 30
0.0
 11
-313.3976019395362
 21
-465.8463256423538
 31
0.0
  0
LINE
  5
4EF
330
1F
100
AcDbEntity
  8
D-0
  6
Continuous
 62
     7
370
     9
100
AcDbLine
 10
-313.3976019395362
 20
-465.8463256423538
 30
0.0
 11
-313.3976019395362
 21
-467.3466079299515
 31
0.0
  0
LINE
  5
4F0
330
1F
100
AcDbEntity
  8
D-0
  6
Continuous
 62
     7
370
     9
100
AcDbLine
 10
-313.3976019395362
 20
-467.3466079299515
 30
0.0
 11
-314.8973883164894
 21
-467.3466079299515
 31
0.0
  0
LINE
  5
4F1
330
1F
100
AcDbEntity
  8
D-0
  6
Continuous
 62
     7
370
     9
100
AcDbLine
 10
-283.0303228868019
 20
-423.4678905074661
 30
0.0
 11
-283.0303228868019
 21
-421.9676177566116
 31
0.0
  0
LINE
  5
4F2
330
1F
100
AcDbEntity
  8
D-0
  6
Continuous
 62
     7
370
     9
100
AcDbLine
 10
-283.0303228868019
 20
-421.9676177566116
 30
0.0
 11
-281.5300405992042
 21
-421.9676177566116
 31
0.0
  0
LINE
  5
4F3
330
1F
100
AcDbEntity
  8
D-0
  6
Continuous
 62
     7
370
     9
100
AcDbLine
 10
-281.5300405992042
 20
-421.9676177566116
 30
0.0
 11
-281.5300405992042
 21
-423.4678905074661
 31
0.0
  0
LINE
  5
4F4
330
1F
100
AcDbEntity
  8
D-0
  6
Continuous
 62
     7
370
     9
100
AcDbLine
 10
-281.5300405992042
 20
-423.4678905074661
 30
0.0
 11
-283.0303228868019
 21
-423.4678905074661
 31
0.0
  0
LINE
  5
4F5
330
1F
100
AcDbEntity
  8
D-0
  6
Continuous
 62
     7
370
     9
100
AcDbLine
 10
-292.3139227403175
 20
-494.9075477187698
 30
0.0
 11
-292.3139227403175
 21
-493.4072845046585
 31
0.0
  0
LINE
  5
4F6
330
1F
100
AcDbEntity
  8
D-0
  6
Continuous
 62
     7
370
     9
100
AcDbLine
 10
-292.3139227403175
 20
-493.4072845046585
 30
0.0
 11
-290.8136404527198
 21
-493.4072845046585
 31
0.0
  0
LINE
  5
4F7
330
1F
100
AcDbEntity
  8
D-0
  6
Continuous
 62
     7
370
     9
100
AcDbLine
 10
-290.8136404527198
 20
-493.4072845046585
 30
0.0
 11
-290.8136404527198
 21
-494.9075477187698
 31
0.0
  0
LINE
  5
4F8
330
1F
100
AcDbEntity
  8
D-0
  6
Continuous
 62
     7
370
     9
100
AcDbLine
 10
-290.8136404527198
 20
-494.9075477187698
 30
0.0
 11
-292.3139227403175
 21
-494.9075477187698
 31
0.0
  0
LINE
  5
4F9
330
1F
100
AcDbEntity
  8
D-0
  6
Continuous
 62
     7
370
     9
100
AcDbLine
 10
-455.4395807755958
 20
-285.0314407413071
 30
0.0
 11
-455.4395807755958
 21
-283.5311608378952
 31
0.0
  0
LINE
  5
4FA
330
1F
100
AcDbEntity
  8
D-0
  6
Continuous
 62
     7
370
     9
100
AcDbLine
 10
-455.4395807755958
 20
-283.5311608378952
 30
0.0
 11
-453.9393032563697
 21
-283.5311608378952
 31
0.0
  0
LINE
  5
4FB
330
1F
100
AcDbEntity
  8
D-0
  6
Continuous
 62
     7
370
     9
100
AcDbLine
 10
-453.9393032563697
 20
-283.5311608378952
 30
0.0
 11
-453.9393032563697
 21
-285.0314407413071
 31
0.0
  0
LINE
  5
4FC
330
1F
100
AcDbEntity
  8
D-0
  6
Continuous
 62
     7
370
     9
100
AcDbLine
 10
-453.9393032563697
 20
-285.0314407413071
 30
0.0
 11
-455.4395807755958
 21
-285.0314407413071
 31
0.0
  0
LINE
  5
4FD
330
1F
100
AcDbEntity
  8
D-0
  6
Continuous
 62
     7
370
     9
100
AcDbLine
 10
-434.1948736680519
 20
-300.8299582068985
 30
0.0
 11
-434.1948736680519
 21
-299.3296783034866
 31
0.0
  0
LINE
  5
4FE
330
1F
100
AcDbEntity
  8
D-0
  6
Continuous
 62
     7
370
     9
100
AcDbLine
 10
-434.1948736680519
 20
-299.3296783034866
 30
0.0
 11
-432.6945913804542
 21
-299.3296783034866
 31
0.0
  0
LINE
  5
4FF
330
1F
100
AcDbEntity
  8
D-0
  6
Continuous
 62
     7
370
     9
100
AcDbLine
 10
-432.6945913804542
 20
-299.3296783034866
 30
0.0
 11
-432.6945913804542
 21
-300.8299582068985
 31
0.0
  0
LINE
  5
500
330
1F
100
AcDbEntity
  8
D-0
  6
Continuous
 62
     7
370
     9
100
AcDbLine
 10
-432.6945913804542
 20
-300.8299582068985
 30
0.0
 11
-434.1948736680519
 21
-300.8299582068985
 31
0.0
  0
LINE
  5
501
330
1F
100
AcDbEntity
  8
D-0
  6
Continuous
 62
     7
370
     9
100
AcDbLine
 10
-410.3286398423683
 20
-341.9102637832229
 30
0.0
 11
-410.3286398423683
 21
-340.4099862639969
 31
0.0
  0
LINE
  5
502
330
1F
100
AcDbEntity
  8
D-0
  6
Continuous
 62
     7
370
     9
100
AcDbLine
 10
-410.3286398423683
 20
-340.4099862639969
 30
0.0
 11
-408.8288534654151
 21
-340.4099862639969
 31
0.0
  0
LINE
  5
503
330
1F
100
AcDbEntity
  8
D-0
  6
Continuous
 62
     7
370
     9
100
AcDbLine
 10
-408.8288534654151
 20
-340.4099862639969
 30
0.0
 11
-408.8288534654151
 21
-341.9102637832229
 31
0.0
  0
LINE
  5
504
330
1F
100
AcDbEntity
  8
D-0
  6
Continuous
 62
     7
370
     9
100
AcDbLine
 10
-408.8288534654151
 20
-341.9102637832229
 30
0.0
 11
-410.3286398423683
 21
-341.9102637832229
 31
0.0
  0
LINE
  5
505
330
1F
100
AcDbEntity
  8
D-0
  6
Continuous
 62
     7
370
     9
100
AcDbLine
 10
-364.5641649735938
 20
-288.9540677135055
 30
0.0
 11
-364.5641649735938
 21
-287.4537878100937
 31
0.0
  0
LINE
  5
506
330
1F
100
AcDbEntity
  8
D-0
  6
Continuous
 62
     7
370
     9
100
AcDbLine
 10
-364.5641649735938
 20
-287.4537878100937
 30
0.0
 11
-363.0643881333839
 21
-287.4537878100937
 31
0.0
  0
LINE
  5
507
330
1F
100
AcDbEntity
  8
D-0
  6
Continuous
 62
     7
370
     9
100
AcDbLine
 10
-363.0643881333839
 20
-287.4537878100937
 30
0.0
 11
-363.0643881333839
 21
-288.9540677135055
 31
0.0
  0
LINE
  5
508
330
1F
100
AcDbEntity
  8
D-0
  6
Continuous
 62
     7
370
     9
100
AcDbLine
 10
-363.0643881333839
 20
-288.9540677135055
 30
0.0
 11
-364.5641649735938
 21
-288.9540677135055
 31
0.0
  0
LINE
  5
509
330
1F
100
AcDbEntity
  8
D-0
  6
Continuous
 62
     7
370
     9
100
AcDbLine
 10
-317.0060957444679
 20
-283.5559349124496
 30
0.0
 11
-317.0060957444679
 21
-282.0556550090378
 31
0.0
  0
LINE
  5
50A
330
1F
100
AcDbEntity
  8
D-0
  6
Continuous
 62
     7
370
     9
100
AcDbLine
 10
-317.0060957444679
 20
-282.0556550090378
 30
0.0
 11
-315.5063093675147
 21
-282.0556550090378
 31
0.0
  0
LINE
  5
50B
330
1F
100
AcDbEntity
  8
D-0
  6
Continuous
 62
     7
370
     9
100
AcDbLine
 10
-315.5063093675147
 20
-282.0556550090378
 30
0.0
 11
-315.5063093675147
 21
-283.5559349124496
 31
0.0
  0
LINE
  5
50C
330
1F
100
AcDbEntity
  8
D-0
  6
Continuous
 62
     7
370
     9
100
AcDbLine
 10
-315.5063093675147
 20
-283.5559349124496
 30
0.0
 11
-317.0060957444679
 21
-283.5559349124496
 31
0.0
  0
LINE
  5
50D
330
1F
100
AcDbEntity
  8
D-0
  6
Continuous
 62
     7
370
     9
100
AcDbLine
 10
-336.619724131919
 20
-305.130626446492
 30
0.0
 11
-336.619724131919
 21
-303.6303489272659
 31
0.0
  0
LINE
  5
50E
330
1F
100
AcDbEntity
  8
D-0
  6
Continuous
 62
     7
370
     9
100
AcDbLine
 10
-336.619724131919
 20
-303.6303489272659
 30
0.0
 11
-335.1194418443214
 21
-303.6303489272659
 31
0.0
  0
LINE
  5
50F
330
1F
100
AcDbEntity
  8
D-0
  6
Continuous
 62
     7
370
     9
100
AcDbLine
 10
-335.1194418443214
 20
-303.6303489272659
 30
0.0
 11
-335.1194418443214
 21
-305.130626446492
 31
0.0
  0
LINE
  5
510
330
1F
100
AcDbEntity
  8
D-0
  6
Continuous
 62
     7
370
     9
100
AcDbLine
 10
-335.1194418443214
 20
-305.130626446492
 30
0.0
 11
-336.619724131919
 21
-305.130626446492
 31
0.0
  0
LINE
  5
511
330
1F
100
AcDbEntity
  8
D-0
  6
Continuous
 62
     7
370
     9
100
AcDbLine
 10
-312.261985637046
 20
-341.2567441527908
 30
0.0
 11
-312.261985637046
 21
-339.7564618651932
 31
0.0
  0
LINE
  5
512
330
1F
100
AcDbEntity
  8
D-0
  6
Continuous
 62
     7
370
     9
100
AcDbLine
 10
-312.261985637046
 20
-339.7564618651932
 30
0.0
 11
-310.7617033494483
 21
-339.7564618651932
 31
0.0
  0
LINE
  5
513
330
1F
100
AcDbEntity
  8
D-0
  6
Continuous
 62
     7
370
     9
100
AcDbLine
 10
-310.7617033494483
 20
-339.7564618651932
 30
0.0
 11
-310.7617033494483
 21
-341.2567441527908
 31
0.0
  0
LINE
  5
514
330
1F
100
AcDbEntity
  8
D-0
  6
Continuous
 62
     7
370
     9
100
AcDbLine
 10
-310.7617033494483
 20
-341.2567441527908
 30
0.0
 11
-312.261985637046
 21
-341.2567441527908
 31
0.0
  0
LINE
  5
515
330
1F
100
AcDbEntity
  8
D-0
  6
Continuous
 62
     7
370
     9
100
AcDbLine
 10
-308.3388746751319
 20
-379.8294799392288
 30
0.0
 11
-308.3388746751319
 21
-378.3291976516311
 31
0.0
  0
LINE
  5
516
330
1F
100
AcDbEntity
  8
D-0
  6
Continuous
 62
     7
370
     9
100
AcDbLine
 10
-308.3388746751319
 20
-378.3291976516311
 30
0.0
 11
-306.8390882981788
 21
-378.3291976516311
 31
0.0
  0
LINE
  5
517
330
1F
100
AcDbEntity
  8
D-0
  6
Continuous
 62
     7
370
     9
100
AcDbLine
 10
-306.8390882981788
 20
-378.3291976516311
 30
0.0
 11
-306.8390882981788
 21
-379.8294799392288
 31
0.0
  0
LINE
  5
518
330
1F
100
AcDbEntity
  8
D-0
  6
Continuous
 62
     7
370
     9
100
AcDbLine
 10
-306.8390882981788
 20
-379.8294799392288
 30
0.0
 11
-308.3388746751319
 21
-379.8294799392288
 31
0.0
  0
LINE
  5
519
330
1F
100
AcDbEntity
  8
D-0
  6
Continuous
 62
     7
370
     9
100
AcDbLine
 10
-384.0078485978614
 20
-303.4554474418228
 30
0.0
 11
-384.0078485978614
 21
-301.9551675384109
 31
0.0
  0
LINE
  5
51A
330
1F
100
AcDbEntity
  8
D-0
  6
Continuous
 62
     7
370
     9
100
AcDbLine
 10
-384.0078485978614
 20
-301.9551675384109
 30
0.0
 11
-382.5075663102638
 21
-301.9551675384109
 31
0.0
  0
LINE
  5
51B
330
1F
100
AcDbEntity
  8
D-0
  6
Continuous
 62
     7
370
     9
100
AcDbLine
 10
-382.5075663102638
 20
-301.9551675384109
 30
0.0
 11
-382.5075663102638
 21
-303.4554474418228
 31
0.0
  0
LINE
  5
51C
330
1F
100
AcDbEntity
  8
D-0
  6
Continuous
 62
     7
370
     9
100
AcDbLine
 10
-382.5075663102638
 20
-303.4554474418228
 30
0.0
 11
-384.0078485978614
 21
-303.4554474418228
 31
0.0
  0
LINE
  5
51D
330
1F
100
AcDbEntity
  8
D-0
  6
Continuous
 62
     7
370
     9
100
AcDbLine
 10
-462.2899330628883
 20
-430.894467121846
 30
0.0
 11
-462.2899330628883
 21
-429.3941943709915
 31
0.0
  0
LINE
  5
51E
330
1F
100
AcDbEntity
  8
D-0
  6
Continuous
 62
     7
370
     9
100
AcDbLine
 10
-462.2899330628883
 20
-429.3941943709915
 30
0.0
 11
-460.7896555436622
 21
-429.3941943709915
 31
0.0
  0
LINE
  5
51F
330
1F
100
AcDbEntity
  8
D-0
  6
Continuous
 62
     7
370
     9
100
AcDbLine
 10
-460.7896555436622
 20
-429.3941943709915
 30
0.0
 11
-460.7896555436622
 21
-430.894467121846
 31
0.0
  0
LINE
  5
520
330
1F
100
AcDbEntity
  8
D-0
  6
Continuous
 62
     7
370
     9
100
AcDbLine
 10
-460.7896555436622
 20
-430.894467121846
 30
0.0
 11
-462.2899330628883
 21
-430.894467121846
 31
0.0
  0
LINE
  5
521
330
1F
100
AcDbEntity
  8
D-0
  6
Continuous
 62
     7
370
     9
100
AcDbLine
 10
-613.061078883506
 20
-419.9560134475296
 30
0.0
 11
-613.061078883506
 21
-418.4557311599319
 31
0.0
  0
LINE
  5
522
330
1F
100
AcDbEntity
  8
D-0
  6
Continuous
 62
     7
370
     9
100
AcDbLine
 10
-613.061078883506
 20
-418.4557311599319
 30
0.0
 11
-611.5608061326515
 21
-418.4557311599319
 31
0.0
  0
LINE
  5
523
330
1F
100
AcDbEntity
  8
D-0
  6
Continuous
 62
     7
370
     9
100
AcDbLine
 10
-611.5608061326515
 20
-418.4557311599319
 30
0.0
 11
-611.5608061326515
 21
-419.9560134475296
 31
0.0
  0
LINE
  5
524
330
1F
100
AcDbEntity
  8
D-0
  6
Continuous
 62
     7
370
     9
100
AcDbLine
 10
-611.5608061326515
 20
-419.9560134475296
 30
0.0
 11
-613.061078883506
 21
-419.9560134475296
 31
0.0
  0
LINE
  5
525
330
1F
100
AcDbEntity
  8
D-0
  6
Continuous
 62
     7
370
     9
100
AcDbLine
 10
-553.8228357804786
 20
-524.6094291274612
 30
0.0
 11
-553.8228357804786
 21
-523.1091468398636
 31
0.0
  0
LINE
  5
526
330
1F
100
AcDbEntity
  8
D-0
  6
Continuous
 62
     7
370
     9
100
AcDbLine
 10
-553.8228357804786
 20
-523.1091468398636
 30
0.0
 11
-552.3230541718971
 21
-523.1091468398636
 31
0.0
  0
LINE
  5
527
330
1F
100
AcDbEntity
  8
D-0
  6
Continuous
 62
     7
370
     9
100
AcDbLine
 10
-552.3230541718971
 20
-523.1091468398636
 30
0.0
 11
-552.3230541718971
 21
-524.6094291274612
 31
0.0
  0
LINE
  5
528
330
1F
100
AcDbEntity
  8
D-0
  6
Continuous
 62
     7
370
     9
100
AcDbLine
 10
-552.3230541718971
 20
-524.6094291274612
 30
0.0
 11
-553.8228357804786
 21
-524.6094291274612
 31
0.0
  0
LINE
  5
529
330
1F
100
AcDbEntity
  8
D-0
  6
Continuous
 62
     7
370
     9
100
AcDbLine
 10
-567.6454247010719
 20
-583.847176319844
 30
0.0
 11
-567.6454247010719
 21
-582.3468940322464
 31
0.0
  0
LINE
  5
52A
330
1F
100
AcDbEntity
  8
D-0
  6
Continuous
 62
     7
370
     9
100
AcDbLine
 10
-567.6454247010719
 20
-582.3468940322464
 30
0.0
 11
-566.1451424134742
 21
-582.3468940322464
 31
0.0
  0
LINE
  5
52B
330
1F
100
AcDbEntity
  8
D-0
  6
Continuous
 62
     7
370
     9
100
AcDbLine
 10
-566.1451424134742
 20
-582.3468940322464
 30
0.0
 11
-566.1451424134742
 21
-583.847176319844
 31
0.0
  0
LINE
  5
52C
330
1F
100
AcDbEntity
  8
D-0
  6
Continuous
 62
     7
370
     9
100
AcDbLine
 10
-566.1451424134742
 20
-583.847176319844
 30
0.0
 11
-567.6454247010719
 21
-583.847176319844
 31
0.0
  0
LINE
  5
52D
330
1F
100
AcDbEntity
  8
D-0
  6
Continuous
 62
     7
370
     9
100
AcDbLine
 10
-598.2515181077491
 20
-594.7073714797561
 30
0.0
 11
-598.2515181077491
 21
-593.2070891921585
 31
0.0
  0
LINE
  5
52E
330
1F
100
AcDbEntity
  8
D-0
  6
Continuous
 62
     7
370
     9
100
AcDbLine
 10
-598.2515181077491
 20
-593.2070891921585
 30
0.0
 11
-596.7512453568946
 21
-593.2070891921585
 31
0.0
  0
LINE
  5
52F
330
1F
100
AcDbEntity
  8
D-0
  6
Continuous
 62
     7
370
     9
100
AcDbLine
 10
-596.7512453568946
 20
-593.2070891921585
 30
0.0
 11
-596.7512453568946
 21
-594.7073714797561
 31
0.0
  0
LINE
  5
530
330
1F
100
AcDbEntity
  8
D-0
  6
Continuous
 62
     7
370
     9
100
AcDbLine
 10
-596.7512453568946
 20
-594.7073714797561
 30
0.0
 11
-598.2515181077491
 21
-594.7073714797561
 31
0.0
  0
LINE
  5
531
330
1F
100
AcDbEntity
  8
D-0
  6
Continuous
 62
     7
370
     9
100
AcDbLine
 10
-621.1050165666114
 20
-528.5588042800491
 30
0.0
 11
-621.1050165666114
 21
-527.0585219924515
 31
0.0
  0
LINE
  5
532
330
1F
100
AcDbEntity
  8
D-0
  6
Continuous
 62
     7
370
     9
100
AcDbLine
 10
-621.1050165666114
 20
-527.0585219924515
 30
0.0
 11
-619.6052301896583
 21
-527.0585219924515
 31
0.0
  0
LINE
  5
533
330
1F
100
AcDbEntity
  8
D-0
  6
Continuous
 62
     7
370
     9
100
AcDbLine
 10
-619.6052301896583
 20
-527.0585219924515
 30
0.0
 11
-619.6052301896583
 21
-528.5588042800491
 31
0.0
  0
LINE
  5
534
330
1F
100
AcDbEntity
  8
D-0
  6
Continuous
 62
     7
370
     9
100
AcDbLine
 10
-619.6052301896583
 20
-528.5588042800491
 30
0.0
 11
-621.1050165666114
 21
-528.5588042800491
 31
0.0
  0
LINE
  5
535
330
1F
100
AcDbEntity
  8
D-0
  6
Continuous
 62
     7
370
     9
100
AcDbLine
 10
-595.2896059525978
 20
-506.8384521071976
 30
0.0
 11
-595.2896059525978
 21
-505.3381698195999
 31
0.0
  0
LINE
  5
536
330
1F
100
AcDbEntity
  8
D-0
  6
Continuous
 62
     7
370
     9
100
AcDbLine
 10
-595.2896059525978
 20
-505.3381698195999
 30
0.0
 11
-593.7893332017433
 21
-505.3381698195999
 31
0.0
  0
LINE
  5
537
330
1F
100
AcDbEntity
  8
D-0
  6
Continuous
 62
     7
370
     9
100
AcDbLine
 10
-593.7893332017433
 20
-505.3381698195999
 30
0.0
 11
-593.7893332017433
 21
-506.8384521071976
 31
0.0
  0
LINE
  5
538
330
1F
100
AcDbEntity
  8
D-0
  6
Continuous
 62
     7
370
     9
100
AcDbLine
 10
-593.7893332017433
 20
-506.8384521071976
 30
0.0
 11
-595.2896059525978
 21
-506.8384521071976
 31
0.0
  0
LINE
  5
539
330
1F
100
AcDbEntity
  8
D-0
  6
Continuous
 62
     7
370
     9
100
AcDbLine
 10
-532.1024764550697
 20
-559.3313758437698
 30
0.0
 11
-532.1024764550697
 21
-557.8310935561722
 31
0.0
  0
LINE
  5
53A
330
1F
100
AcDbEntity
  8
D-0
  6
Continuous
 62
     7
370
     9
100
AcDbLine
 10
-532.1024764550697
 20
-557.8310935561722
 30
0.0
 11
-530.6026924623023
 21
-557.8310935561722
 31
0.0
  0
LINE
  5
53B
330
1F
100
AcDbEntity
  8
D-0
  6
Continuous
 62
     7
370
     9
100
AcDbLine
 10
-530.6026924623023
 20
-557.8310935561722
 30
0.0
 11
-530.6026924623023
 21
-559.3313758437698
 31
0.0
  0
LINE
  5
53C
330
1F
100
AcDbEntity
  8
D-0
  6
Continuous
 62
     7
370
     9
100
AcDbLine
 10
-530.6026924623023
 20
-559.3313758437698
 30
0.0
 11
-532.1024764550697
 21
-559.3313758437698
 31
0.0
  0
LINE
  5
53D
330
1F
100
AcDbEntity
  8
D-0
  6
Continuous
 62
     7
370
     9
100
AcDbLine
 10
-609.1117037309181
 20
-697.2104232375686
 30
0.0
 11
-609.1117037309181
 21
-695.710140949971
 31
0.0
  0
LINE
  5
53E
330
1F
100
AcDbEntity
  8
D-0
  6
Continuous
 62
     7
370
     9
100
AcDbLine
 10
-609.1117037309181
 20
-695.710140949971
 30
0.0
 11
-607.6119173539649
 21
-695.710140949971
 31
0.0
  0
LINE
  5
53F
330
1F
100
AcDbEntity
  8
D-0
  6
Continuous
 62
     7
370
     9
100
AcDbLine
 10
-607.6119173539649
 20
-695.710140949971
 30
0.0
 11
-607.6119173539649
 21
-697.2104232375686
 31
0.0
  0
LINE
  5
540
330
1F
100
AcDbEntity
  8
D-0
  6
Continuous
 62
     7
370
     9
100
AcDbLine
 10
-607.6119173539649
 20
-697.2104232375686
 30
0.0
 11
-609.1117037309181
 21
-697.2104232375686
 31
0.0
  0
LINE
  5
541
330
1F
100
AcDbEntity
  8
D-0
  6
Continuous
 62
     7
370
     9
100
AcDbLine
 10
-538.7214435113441
 20
-700.9224669997757
 30
0.0
 11
-538.7214435113441
 21
-699.422184712178
 31
0.0
  0
LINE
  5
542
330
1F
100
AcDbEntity
  8
D-0
  6
Continuous
 62
     7
370
     9
100
AcDbLine
 10
-538.7214435113441
 20
-699.422184712178
 30
0.0
 11
-537.2216595185768
 21
-699.422184712178
 31
0.0
  0
LINE
  5
543
330
1F
100
AcDbEntity
  8
D-0
  6
Continuous
 62
     7
370
     9
100
AcDbLine
 10
-537.2216595185768
 20
-699.422184712178
 30
0.0
 11
-537.2216595185768
 21
-700.9224669997757
 31
0.0
  0
LINE
  5
544
330
1F
100
AcDbEntity
  8
D-0
  6
Continuous
 62
     7
370
     9
100
AcDbLine
 10
-537.2216595185768
 20
-700.9224669997757
 30
0.0
 11
-538.7214435113441
 21
-700.9224669997757
 31
0.0
  0
LINE
  5
545
330
1F
100
AcDbEntity
  8
D-0
  6
Continuous
 62
     7
370
     9
100
AcDbLine
 10
-514.3310017360221
 20
-726.8290679519241
 30
0.0
 11
-514.3310017360221
 21
-725.3287856643265
 31
0.0
  0
LINE
  5
546
330
1F
100
AcDbEntity
  8
D-0
  6
Continuous
 62
     7
370
     9
100
AcDbLine
 10
-514.3310017360221
 20
-725.3287856643265
 30
0.0
 11
-512.8312175942432
 21
-725.3287856643265
 31
0.0
  0
LINE
  5
547
330
1F
100
AcDbEntity
  8
D-0
  6
Continuous
 62
     7
370
     9
100
AcDbLine
 10
-512.8312175942432
 20
-725.3287856643265
 30
0.0
 11
-512.8312175942432
 21
-726.8290679519241
 31
0.0
  0
LINE
  5
548
330
1F
100
AcDbEntity
  8
D-0
  6
Continuous
 62
     7
370
     9
100
AcDbLine
 10
-512.8312175942432
 20
-726.8290679519241
 30
0.0
 11
-514.3310017360221
 21
-726.8290679519241
 31
0.0
  0
LINE
  5
549
330
1F
100
AcDbEntity
  8
D-0
  6
Continuous
 62
     7
370
     9
100
AcDbLine
 10
-508.0524213088523
 20
-765.041081196553
 30
0.0
 11
-508.0524213088523
 21
-763.5407989089554
 31
0.0
  0
LINE
  5
54A
330
1F
100
AcDbEntity
  8
D-0
  6
Continuous
 62
     7
370
     9
100
AcDbLine
 10
-508.0524213088523
 20
-763.5407989089554
 30
0.0
 11
-506.5521420014869
 21
-763.5407989089554
 31
0.0
  0
LINE
  5
54B
330
1F
100
AcDbEntity
  8
D-0
  6
Continuous
 62
     7
370
     9
100
AcDbLine
 10
-506.5521420014869
 20
-763.5407989089554
 30
0.0
 11
-506.5521420014869
 21
-765.041081196553
 31
0.0
  0
LINE
  5
54C
330
1F
100
AcDbEntity
  8
D-0
  6
Continuous
 62
     7
370
     9
100
AcDbLine
 10
-506.5521420014869
 20
-765.041081196553
 30
0.0
 11
-508.0524213088523
 21
-765.041081196553
 31
0.0
  0
LINE
  5
54D
330
1F
100
AcDbEntity
  8
D-0
  6
Continuous
 62
     7
370
     9
100
AcDbLine
 10
-582.2810781968604
 20
-770.4996841018265
 30
0.0
 11
-582.2810781968604
 21
-768.9994018142288
 31
0.0
  0
LINE
  5
54E
330
1F
100
AcDbEntity
  8
D-0
  6
Continuous
 62
     7
370
     9
100
AcDbLine
 10
-582.2810781968604
 20
-768.9994018142288
 30
0.0
 11
-580.7807959092628
 21
-768.9994018142288
 31
0.0
  0
LINE
  5
54F
330
1F
100
AcDbEntity
  8
D-0
  6
Continuous
 62
     7
370
     9
100
AcDbLine
 10
-580.7807959092628
 20
-768.9994018142288
 30
0.0
 11
-580.7807959092628
 21
-770.4996841018265
 31
0.0
  0
LINE
  5
550
330
1F
100
AcDbEntity
  8
D-0
  6
Continuous
 62
     7
370
     9
100
AcDbLine
 10
-580.7807959092628
 20
-770.4996841018265
 30
0.0
 11
-582.2810781968604
 21
-770.4996841018265
 31
0.0
  0
LINE
  5
551
330
1F
100
AcDbEntity
  8
D-0
  6
Continuous
 62
     7
370
     9
100
AcDbLine
 10
-617.0099676621925
 20
-761.203190571553
 30
0.0
 11
-617.0099676621925
 21
-759.7029082839554
 31
0.0
  0
LINE
  5
552
330
1F
100
AcDbEntity
  8
D-0
  6
Continuous
 62
     7
370
     9
100
AcDbLine
 10
-617.0099676621925
 20
-759.7029082839554
 30
0.0
 11
-615.5096853745948
 21
-759.7029082839554
 31
0.0
  0
LINE
  5
553
330
1F
100
AcDbEntity
  8
D-0
  6
Continuous
 62
     7
370
     9
100
AcDbLine
 10
-615.5096853745948
 20
-759.7029082839554
 30
0.0
 11
-615.5096853745948
 21
-761.203190571553
 31
0.0
  0
LINE
  5
554
330
1F
100
AcDbEntity
  8
D-0
  6
Continuous
 62
     7
370
     9
100
AcDbLine
 10
-615.5096853745948
 20
-761.203190571553
 30
0.0
 11
-617.0099676621925
 21
-761.203190571553
 31
0.0
  0
LINE
  5
555
330
1F
100
AcDbEntity
  8
D-0
  6
Continuous
 62
     7
370
     9
100
AcDbLine
 10
-619.2212427629005
 20
-720.905224568135
 30
0.0
 11
-619.2212427629005
 21
-719.4049422805374
 31
0.0
  0
LINE
  5
556
330
1F
100
AcDbEntity
  8
D-0
  6
Continuous
 62
     7
370
     9
100
AcDbLine
 10
-619.2212427629005
 20
-719.4049422805374
 30
0.0
 11
-617.7214659226905
 21
-719.4049422805374
 31
0.0
  0
LINE
  5
557
330
1F
100
AcDbEntity
  8
D-0
  6
Continuous
 62
     7
370
     9
100
AcDbLine
 10
-617.7214659226905
 20
-719.4049422805374
 30
0.0
 11
-617.7214659226905
 21
-720.905224568135
 31
0.0
  0
LINE
  5
558
330
1F
100
AcDbEntity
  8
D-0
  6
Continuous
 62
     7
370
     9
100
AcDbLine
 10
-617.7214659226905
 20
-720.905224568135
 30
0.0
 11
-619.2212427629005
 21
-720.905224568135
 31
0.0
  0
LINE
  5
559
330
1F
100
AcDbEntity
  8
D-0
  6
Continuous
 62
     7
370
     9
100
AcDbLine
 10
-561.7216003907691
 20
-740.6511657302444
 30
0.0
 11
-561.7216003907691
 21
-739.1508834426468
 31
0.0
  0
LINE
  5
55A
330
1F
100
AcDbEntity
  8
D-0
  6
Continuous
 62
     7
370
     9
100
AcDbLine
 10
-561.7216003907691
 20
-739.1508834426468
 30
0.0
 11
-560.2213181031715
 21
-739.1508834426468
 31
0.0
  0
LINE
  5
55B
330
1F
100
AcDbEntity
  8
D-0
  6
Continuous
 62
     7
370
     9
100
AcDbLine
 10
-560.2213181031715
 20
-739.1508834426468
 30
0.0
 11
-560.2213181031715
 21
-740.6511657302444
 31
0.0
  0
LINE
  5
55C
330
1F
100
AcDbEntity
  8
D-0
  6
Continuous
 62
     7
370
     9
100
AcDbLine
 10
-560.2213181031715
 20
-740.6511657302444
 30
0.0
 11
-561.7216003907691
 21
-740.6511657302444
 31
0.0
  0
LINE
  5
55D
330
1F
100
AcDbEntity
  8
D-0
  6
Continuous
 62
     7
370
     9
100
AcDbLine
 10
-573.5692490113746
 20
-707.0831267898147
 30
0.0
 11
-573.5692490113746
 21
-705.5828445022171
 31
0.0
  0
LINE
  5
55E
330
1F
100
AcDbEntity
  8
D-0
  6
Continuous
 62
     7
370
     9
100
AcDbLine
 10
-573.5692490113746
 20
-705.5828445022171
 30
0.0
 11
-572.068966723777
 21
-705.5828445022171
 31
0.0
  0
LINE
  5
55F
330
1F
100
AcDbEntity
  8
D-0
  6
Continuous
 62
     7
370
     9
100
AcDbLine
 10
-572.068966723777
 20
-705.5828445022171
 30
0.0
 11
-572.068966723777
 21
-707.0831267898147
 31
0.0
  0
LINE
  5
560
330
1F
100
AcDbEntity
  8
D-0
  6
Continuous
 62
     7
370
     9
100
AcDbLine
 10
-572.068966723777
 20
-707.0831267898147
 30
0.0
 11
-573.5692490113746
 21
-707.0831267898147
 31
0.0
  0
LINE
  5
561
330
1F
100
AcDbEntity
  8
D-0
  6
Continuous
 62
     7
370
     9
100
AcDbLine
 10
-518.280383445121
 20
-592.8993957107132
 30
0.0
 11
-518.280383445121
 21
-591.3991134231155
 31
0.0
  0
LINE
  5
562
330
1F
100
AcDbEntity
  8
D-0
  6
Continuous
 62
     7
370
     9
100
AcDbLine
 10
-518.280383445121
 20
-591.3991134231155
 30
0.0
 11
-516.7805994523536
 21
-591.3991134231155
 31
0.0
  0
LINE
  5
563
330
1F
100
AcDbEntity
  8
D-0
  6
Continuous
 62
     7
370
     9
100
AcDbLine
 10
-516.7805994523536
 20
-591.3991134231155
 30
0.0
 11
-516.7805994523536
 21
-592.8993957107132
 31
0.0
  0
LINE
  5
564
330
1F
100
AcDbEntity
  8
D-0
  6
Continuous
 62
     7
370
     9
100
AcDbLine
 10
-516.7805994523536
 20
-592.8993957107132
 30
0.0
 11
-518.280383445121
 21
-592.8993957107132
 31
0.0
  0
LINE
  5
565
330
1F
100
AcDbEntity
  8
D-0
  6
Continuous
 62
     7
370
     9
100
AcDbLine
 10
-506.4332292450439
 20
-493.0158584182327
 30
0.0
 11
-506.4332292450439
 21
-491.5155761306351
 31
0.0
  0
LINE
  5
566
330
1F
100
AcDbEntity
  8
D-0
  6
Continuous
 62
     7
370
     9
100
AcDbLine
 10
-506.4332292450439
 20
-491.5155761306351
 30
0.0
 11
-504.9329496396552
 21
-491.5155761306351
 31
0.0
  0
LINE
  5
567
330
1F
100
AcDbEntity
  8
D-0
  6
Continuous
 62
     7
370
     9
100
AcDbLine
 10
-504.9329496396552
 20
-491.5155761306351
 30
0.0
 11
-504.9329496396552
 21
-493.0158584182327
 31
0.0
  0
LINE
  5
568
330
1F
100
AcDbEntity
  8
D-0
  6
Continuous
 62
     7
370
     9
100
AcDbLine
 10
-504.9329496396552
 20
-493.0158584182327
 30
0.0
 11
-506.4332292450439
 21
-493.0158584182327
 31
0.0
  0
LINE
  5
569
330
1F
100
AcDbEntity
  8
D-0
  6
Continuous
 62
     7
370
     9
100
AcDbLine
 10
-410.3221930039894
 20
-504.2402045791214
 30
0.0
 11
-410.3221930039894
 21
-502.7399222915237
 31
0.0
  0
LINE
  5
56A
330
1F
100
AcDbEntity
  8
D-0
  6
Continuous
 62
     7
370
     9
100
AcDbLine
 10
-410.3221930039894
 20
-502.7399222915237
 30
0.0
 11
-408.8224161637794
 21
-502.7399222915237
 31
0.0
  0
LINE
  5
56B
330
1F
100
AcDbEntity
  8
D-0
  6
Continuous
 62
     7
370
     9
100
AcDbLine
 10
-408.8224161637794
 20
-502.7399222915237
 30
0.0
 11
-408.8224161637794
 21
-504.2402045791214
 31
0.0
  0
LINE
  5
56C
330
1F
100
AcDbEntity
  8
D-0
  6
Continuous
 62
     7
370
     9
100
AcDbLine
 10
-408.8224161637794
 20
-504.2402045791214
 30
0.0
 11
-410.3221930039894
 21
-504.2402045791214
 31
0.0
  0
LINE
  5
56D
330
1F
100
AcDbEntity
  8
D-0
  6
Continuous
 62
     7
370
     9
100
AcDbLine
 10
-462.8567493928443
 20
-495.6150786941116
 30
0.0
 11
-462.8567493928443
 21
-494.114796406514
 31
0.0
  0
LINE
  5
56E
330
1F
100
AcDbEntity
  8
D-0
  6
Continuous
 62
     7
370
     9
100
AcDbLine
 10
-462.8567493928443
 20
-494.114796406514
 30
0.0
 11
-461.3569677842628
 21
-494.114796406514
 31
0.0
  0
LINE
  5
56F
330
1F
100
AcDbEntity
  8
D-0
  6
Continuous
 62
     7
370
     9
100
AcDbLine
 10
-461.3569677842628
 20
-494.114796406514
 30
0.0
 11
-461.3569677842628
 21
-495.6150786941116
 31
0.0
  0
LINE
  5
570
330
1F
100
AcDbEntity
  8
D-0
  6
Continuous
 62
     7
370
     9
100
AcDbLine
 10
-461.3569677842628
 20
-495.6150786941116
 30
0.0
 11
-462.8567493928443
 21
-495.6150786941116
 31
0.0
  0
LINE
  5
571
330
1F
100
AcDbEntity
  8
D-0
  6
Continuous
 62
     7
370
     9
100
AcDbLine
 10
-599.2384947312843
 20
-556.2029807632034
 30
0.0
 11
-599.2384947312843
 21
-554.7027175490921
 31
0.0
  0
LINE
  5
572
330
1F
100
AcDbEntity
  8
D-0
  6
Continuous
 62
     7
370
     9
100
AcDbLine
 10
-599.2384947312843
 20
-554.7027175490921
 30
0.0
 11
-597.7387083543312
 21
-554.7027175490921
 31
0.0
  0
LINE
  5
573
330
1F
100
AcDbEntity
  8
D-0
  6
Continuous
 62
     7
370
     9
100
AcDbLine
 10
-597.7387083543312
 20
-554.7027175490921
 30
0.0
 11
-597.7387083543312
 21
-556.2029807632034
 31
0.0
  0
LINE
  5
574
330
1F
100
AcDbEntity
  8
D-0
  6
Continuous
 62
     7
370
     9
100
AcDbLine
 10
-597.7387083543312
 20
-556.2029807632034
 30
0.0
 11
-599.2384947312843
 21
-556.2029807632034
 31
0.0
  0
LINE
  5
575
330
1F
100
AcDbEntity
  8
D-0
  6
Continuous
 62
     7
370
     9
100
AcDbLine
 10
-568.1180990708839
 20
-414.4320266311233
 30
0.0
 11
-568.1180990708839
 21
-412.9317538802688
 31
0.0
  0
LINE
  5
576
330
1F
100
AcDbEntity
  8
D-0
  6
Continuous
 62
     7
370
     9
100
AcDbLine
 10
-568.1180990708839
 20
-412.9317538802688
 30
0.0
 11
-566.6178215516578
 21
-412.9317538802688
 31
0.0
  0
LINE
  5
577
330
1F
100
AcDbEntity
  8
D-0
  6
Continuous
 62
     7
370
     9
100
AcDbLine
 10
-566.6178215516578
 20
-412.9317538802688
 30
0.0
 11
-566.6178215516578
 21
-414.4320266311233
 31
0.0
  0
LINE
  5
578
330
1F
100
AcDbEntity
  8
D-0
  6
Continuous
 62
     7
370
     9
100
AcDbLine
 10
-566.6178215516578
 20
-414.4320266311233
 30
0.0
 11
-568.1180990708839
 21
-414.4320266311233
 31
0.0
  0
LINE
  5
579
330
1F
100
AcDbEntity
  8
D-0
  6
Continuous
 62
     7
370
     9
100
AcDbLine
 10
-512.3570540023815
 20
-525.7633750503128
 30
0.0
 11
-512.3570540023815
 21
-524.2630927627151
 31
0.0
  0
LINE
  5
57A
330
1F
100
AcDbEntity
  8
D-0
  6
Continuous
 62
     7
370
     9
100
AcDbLine
 10
-512.3570540023815
 20
-524.2630927627151
 30
0.0
 11
-510.8567745832573
 21
-524.2630927627151
 31
0.0
  0
LINE
  5
57B
330
1F
100
AcDbEntity
  8
D-0
  6
Continuous
 62
     7
370
     9
100
AcDbLine
 10
-510.8567745832573
 20
-524.2630927627151
 30
0.0
 11
-510.8567745832573
 21
-525.7633750503128
 31
0.0
  0
LINE
  5
57C
330
1F
100
AcDbEntity
  8
D-0
  6
Continuous
 62
     7
370
     9
100
AcDbLine
 10
-510.8567745832573
 20
-525.7633750503128
 30
0.0
 11
-512.3570540023815
 21
-525.7633750503128
 31
0.0
  0
LINE
  5
57D
330
1F
100
AcDbEntity
  8
D-0
  6
Continuous
 62
     7
370
     9
100
AcDbLine
 10
-571.5943087113868
 20
-548.3047263686722
 30
0.0
 11
-571.5943087113868
 21
-546.8044440810745
 31
0.0
  0
LINE
  5
57E
330
1F
100
AcDbEntity
  8
D-0
  6
Continuous
 62
     7
370
     9
100
AcDbLine
 10
-571.5943087113868
 20
-546.8044440810745
 30
0.0
 11
-570.0945271028053
 21
-546.8044440810745
 31
0.0
  0
LINE
  5
57F
330
1F
100
AcDbEntity
  8
D-0
  6
Continuous
 62
     7
370
     9
100
AcDbLine
 10
-570.0945271028053
 20
-546.8044440810745
 30
0.0
 11
-570.0945271028053
 21
-548.3047263686722
 31
0.0
  0
LINE
  5
580
330
1F
100
AcDbEntity
  8
D-0
  6
Continuous
 62
     7
370
     9
100
AcDbLine
 10
-570.0945271028053
 20
-548.3047263686722
 30
0.0
 11
-571.5943087113868
 21
-548.3047263686722
 31
0.0
  0
LINE
  5
581
330
1F
100
AcDbEntity
  8
D-0
  6
Continuous
 62
     7
370
     9
100
AcDbLine
 10
-559.7466600907813
 20
-621.364552265889
 30
0.0
 11
-559.7466600907813
 21
-619.8642699782913
 31
0.0
  0
LINE
  5
582
330
1F
100
AcDbEntity
  8
D-0
  6
Continuous
 62
     7
370
     9
100
AcDbLine
 10
-559.7466600907813
 20
-619.8642699782913
 30
0.0
 11
-558.2468784821998
 21
-619.8642699782913
 31
0.0
  0
LINE
  5
583
330
1F
100
AcDbEntity
  8
D-0
  6
Continuous
 62
     7
370
     9
100
AcDbLine
 10
-558.2468784821998
 20
-619.8642699782913
 30
0.0
 11
-558.2468784821998
 21
-621.364552265889
 31
0.0
  0
LINE
  5
584
330
1F
100
AcDbEntity
  8
D-0
  6
Continuous
 62
     7
370
     9
100
AcDbLine
 10
-558.2468784821998
 20
-621.364552265889
 30
0.0
 11
-559.7466600907813
 21
-621.364552265889
 31
0.0
  0
LINE
  5
585
330
1F
100
AcDbEntity
  8
D-0
  6
Continuous
 62
     7
370
     9
100
AcDbLine
 10
-608.1242311967384
 20
-620.3770797317093
 30
0.0
 11
-608.1242311967384
 21
-618.8767974441116
 31
0.0
  0
LINE
  5
586
330
1F
100
AcDbEntity
  8
D-0
  6
Continuous
 62
     7
370
     9
100
AcDbLine
 10
-608.1242311967384
 20
-618.8767974441116
 30
0.0
 11
-606.6239489091407
 21
-618.8767974441116
 31
0.0
  0
LINE
  5
587
330
1F
100
AcDbEntity
  8
D-0
  6
Continuous
 62
     7
370
     9
100
AcDbLine
 10
-606.6239489091407
 20
-618.8767974441116
 30
0.0
 11
-606.6239489091407
 21
-620.3770797317093
 31
0.0
  0
LINE
  5
588
330
1F
100
AcDbEntity
  8
D-0
  6
Continuous
 62
     7
370
     9
100
AcDbLine
 10
-606.6239489091407
 20
-620.3770797317093
 30
0.0
 11
-608.1242311967384
 21
-620.3770797317093
 31
0.0
  0
LINE
  5
589
330
1F
100
AcDbEntity
  8
D-0
  6
Continuous
 62
     7
370
     9
100
AcDbLine
 10
-595.1711882127296
 20
-739.4828383987015
 30
0.0
 11
-595.1711882127296
 21
-737.9825561111038
 31
0.0
  0
LINE
  5
58A
330
1F
100
AcDbEntity
  8
D-0
  6
Continuous
 62
     7
370
     9
100
AcDbLine
 10
-595.1711882127296
 20
-737.9825561111038
 30
0.0
 11
-593.6714113725196
 21
-737.9825561111038
 31
0.0
  0
LINE
  5
58B
330
1F
100
AcDbEntity
  8
D-0
  6
Continuous
 62
     7
370
     9
100
AcDbLine
 10
-593.6714113725196
 20
-737.9825561111038
 30
0.0
 11
-593.6714113725196
 21
-739.4828383987015
 31
0.0
  0
LINE
  5
58C
330
1F
100
AcDbEntity
  8
D-0
  6
Continuous
 62
     7
370
     9
100
AcDbLine
 10
-593.6714113725196
 20
-739.4828383987015
 30
0.0
 11
-595.1711882127296
 21
-739.4828383987015
 31
0.0
  0
LINE
  5
58D
330
1F
100
AcDbEntity
  8
D-0
  6
Continuous
 62
     7
370
     9
100
AcDbLine
 10
-544.6452678216468
 20
-768.9904754226272
 30
0.0
 11
-544.6452678216468
 21
-767.4901931350296
 31
0.0
  0
LINE
  5
58E
330
1F
100
AcDbEntity
  8
D-0
  6
Continuous
 62
     7
370
     9
100
AcDbLine
 10
-544.6452678216468
 20
-767.4901931350296
 30
0.0
 11
-543.1454838288795
 21
-767.4901931350296
 31
0.0
  0
LINE
  5
58F
330
1F
100
AcDbEntity
  8
D-0
  6
Continuous
 62
     7
370
     9
100
AcDbLine
 10
-543.1454838288795
 20
-767.4901931350296
 30
0.0
 11
-543.1454838288795
 21
-768.9904754226272
 31
0.0
  0
LINE
  5
590
330
1F
100
AcDbEntity
  8
D-0
  6
Continuous
 62
     7
370
     9
100
AcDbLine
 10
-543.1454838288795
 20
-768.9904754226272
 30
0.0
 11
-544.6452678216468
 21
-768.9904754226272
 31
0.0
  0
LINE
  5
591
330
1F
100
AcDbEntity
  8
D-0
  6
Continuous
 62
     7
370
     9
100
AcDbLine
 10
-508.4076724422943
 20
-693.2610290114944
 30
0.0
 11
-508.4076724422943
 21
-691.7607848708694
 31
0.0
  0
LINE
  5
592
330
1F
100
AcDbEntity
  8
D-0
  6
Continuous
 62
     7
370
     9
100
AcDbLine
 10
-508.4076724422943
 20
-691.7607848708694
 30
0.0
 11
-506.9073928369056
 21
-691.7607848708694
 31
0.0
  0
LINE
  5
593
330
1F
100
AcDbEntity
  8
D-0
  6
Continuous
 62
     7
370
     9
100
AcDbLine
 10
-506.9073928369056
 20
-691.7607848708694
 30
0.0
 11
-506.9073928369056
 21
-693.2610290114944
 31
0.0
  0
LINE
  5
594
330
1F
100
AcDbEntity
  8
D-0
  6
Continuous
 62
     7
370
     9
100
AcDbLine
 10
-506.9073928369056
 20
-693.2610290114944
 30
0.0
 11
-508.4076724422943
 21
-693.2610290114944
 31
0.0
  0
LINE
  5
595
330
1F
100
AcDbEntity
  8
D-0
  6
Continuous
 62
     7
370
     9
100
AcDbLine
 10
-625.4403723252784
 20
-575.1977698867386
 30
0.0
 11
-625.4403723252784
 21
-573.6974875991409
 31
0.0
  0
LINE
  5
596
330
1F
100
AcDbEntity
  8
D-0
  6
Continuous
 62
     7
370
     9
100
AcDbLine
 10
-625.4403723252784
 20
-573.6974875991409
 30
0.0
 11
-623.9400900376808
 21
-573.6974875991409
 31
0.0
  0
LINE
  5
597
330
1F
100
AcDbEntity
  8
D-0
  6
Continuous
 62
     7
370
     9
100
AcDbLine
 10
-623.9400900376808
 20
-573.6974875991409
 30
0.0
 11
-623.9400900376808
 21
-575.1977698867386
 31
0.0
  0
LINE
  5
598
330
1F
100
AcDbEntity
  8
D-0
  6
Continuous
 62
     7
370
     9
100
AcDbLine
 10
-623.9400900376808
 20
-575.1977698867386
 30
0.0
 11
-625.4403723252784
 21
-575.1977698867386
 31
0.0
  0
LINE
  5
599
330
1F
100
AcDbEntity
  8
D-0
  6
Continuous
 62
     7
370
     9
100
AcDbLine
 10
-508.5186574829589
 20
-618.9318053786819
 30
0.0
 11
-508.5186574829589
 21
-617.4315230910843
 31
0.0
  0
LINE
  5
59A
330
1F
100
AcDbEntity
  8
D-0
  6
Continuous
 62
     7
370
     9
100
AcDbLine
 10
-508.5186574829589
 20
-617.4315230910843
 30
0.0
 11
-507.0183778775703
 21
-617.4315230910843
 31
0.0
  0
LINE
  5
59B
330
1F
100
AcDbEntity
  8
D-0
  6
Continuous
 62
     7
370
     9
100
AcDbLine
 10
-507.0183778775703
 20
-617.4315230910843
 30
0.0
 11
-507.0183778775703
 21
-618.9318053786819
 31
0.0
  0
LINE
  5
59C
330
1F
100
AcDbEntity
  8
D-0
  6
Continuous
 62
     7
370
     9
100
AcDbLine
 10
-507.0183778775703
 20
-618.9318053786819
 30
0.0
 11
-508.5186574829589
 21
-618.9318053786819
 31
0.0
  0
LINE
  5
59D
330
1F
100
AcDbEntity
  8
D-0
  6
Continuous
 62
     7
370
     9
100
AcDbLine
 10
-533.2489908708106
 20
-742.2777907912796
 30
0.0
 11
-533.2489908708106
 21
-740.7775085036819
 31
0.0
  0
LINE
  5
59E
330
1F
100
AcDbEntity
  8
D-0
  6
Continuous
 62
     7
370
     9
100
AcDbLine
 10
-533.2489908708106
 20
-740.7775085036819
 30
0.0
 11
-531.7487109673988
 21
-740.7775085036819
 31
0.0
  0
LINE
  5
59F
330
1F
100
AcDbEntity
  8
D-0
  6
Continuous
 62
     7
370
     9
100
AcDbLine
 10
-531.7487109673988
 20
-740.7775085036819
 30
0.0
 11
-531.7487109673988
 21
-742.2777907912796
 31
0.0
  0
LINE
  5
5A0
330
1F
100
AcDbEntity
  8
D-0
  6
Continuous
 62
     7
370
     9
100
AcDbLine
 10
-531.7487109673988
 20
-742.2777907912796
 30
0.0
 11
-533.2489908708106
 21
-742.2777907912796
 31
0.0
  0
LINE
  5
5A1
330
1F
100
AcDbEntity
  8
D-0
  6
Continuous
 62
     7
370
     9
100
AcDbLine
 10
-501.4052123797904
 20
-429.8158423965042
 30
0.0
 11
-501.4052123797904
 21
-428.3155601089065
 31
0.0
  0
LINE
  5
5A2
330
1F
100
AcDbEntity
  8
D-0
  6
Continuous
 62
     7
370
     9
100
AcDbLine
 10
-501.4052123797904
 20
-428.3155601089065
 30
0.0
 11
-499.904933072425
 21
-428.3155601089065
 31
0.0
  0
LINE
  5
5A3
330
1F
100
AcDbEntity
  8
D-0
  6
Continuous
 62
     7
370
     9
100
AcDbLine
 10
-499.904933072425
 20
-428.3155601089065
 30
0.0
 11
-499.904933072425
 21
-429.8158423965042
 31
0.0
  0
LINE
  5
5A4
330
1F
100
AcDbEntity
  8
D-0
  6
Continuous
 62
     7
370
     9
100
AcDbLine
 10
-499.904933072425
 20
-429.8158423965042
 30
0.0
 11
-501.4052123797904
 21
-429.8158423965042
 31
0.0
  0
LINE
  5
5A5
330
1F
100
AcDbEntity
  8
D-5
  6
Continuous
 62
     2
370
     9
100
AcDbLine
 10
489.1043418162582
 20
-264.2719125992978
 30
0.0
 11
264.1050841357261
 21
-264.2719125992978
 31
0.0
  0
LINE
  5
5A6
330
1F
100
AcDbEntity
  8
D-5
  6
Continuous
 62
     2
370
     9
100
AcDbLine
 10
264.1050841357261
 20
-214.2716239195047
 30
0.0
 11
489.1043418162582
 21
-214.2716239195047
 31
0.0
  0
LINE
  5
5A7
330
1F
100
AcDbEntity
  8
D-5
  6
Continuous
 62
     2
370
     9
100
AcDbLine
 10
264.1050841357261
 20
-264.2719125992978
 30
0.0
 11
264.1050841357261
 21
-214.2716239195047
 31
0.0
  0
TEXT
  5
5A8
330
1F
100
AcDbEntity
  8
D-5
  6
Continuous
 62
     2
370
     9
100
AcDbText
 10
366.1948722117659
 20
-316.5522181348978
 30
0.0
 40
30.48
  1
ステンレス製　細目ノンスリップタイプ（デルタ模様）
 41
1.119999999999999
  7
ＭＳ ゴシック
100
AcDbText
  0
LINE
  5
5A9
330
1F
100
AcDbEntity
  8
D-5
  6
Continuous
 62
     2
370
     9
100
AcDbLine
 10
489.1043418162582
 20
-214.2716239195047
 30
0.0
 11
489.1043418162582
 21
-264.2719125992978
 31
0.0
  0
TEXT
  5
5AA
330
1F
100
AcDbEntity
  8
D-5
  6
Continuous
 62
     2
370
     9
100
AcDbText
 10
311.6045892560808
 20
-253.631648663487
 30
0.0
 40
30.48
  1
仕　様
 41
1.083333333333333
  7
ＭＳ ゴシック
100
AcDbText
  0
LINE
  5
5AB
330
1F
100
AcDbEntity
  8
D-5
  6
Continuous
 62
     7
370
     9
100
AcDbLine
 10
-386.045153076584
 20
-46.75382717235664
 30
0.0
 11
474.5826448318212
 21
-46.75382717235664
 31
0.0
  0
TEXT
  5
5AC
330
1F
100
AcDbEntity
  8
D-5
  6
Continuous
 62
     7
370
     9
100
AcDbText
 10
-386.0451558396254
 20
-34.59680996044348
 30
0.0
 40
22.86
  1
グレーチング（すきま9mm）ＤＱ－２０（h=20）
 50
0.0000374256994594
 41
1.158914728682171
  7
ＭＳ ゴシック
100
AcDbText
  0
TEXT
  5
5AD
330
1F
100
AcDbEntity
  8
D-5
  6
Continuous
 62
     7
370
     9
100
AcDbText
 10
-386.045153076584
 20
-1.891846276360543
 30
0.0
 40
22.86
  1
ステンレス製　細目ノンスリップタイプ（デルタ模様）
 41
1.16
  7
ＭＳ ゴシック
100
AcDbText
  0
TEXT
  5
5AE
330
1F
100
AcDbEntity
  8
F-4ﾚｲﾔ
  6
Continuous
 62
     2
370
     9
100
AcDbText
 10
-775.3314243984398
 20
-1307.432516289374
 30
0.0
 40
30.48
  1
ステンレス製　細目ノンスリップタイプ（デルタ模様）
 41
0.7739999999999999
  7
ＭＳ ゴシック
100
AcDbText
  0
TEXT
  5
5AF
330
1F
100
AcDbEntity
  8
D-5
  6
Continuous
 62
     2
370
     9
100
AcDbText
 10
366.194872591442
 20
-381.55171268751
 30
0.0
 40
30.48
  1
グレーチング（すきま9mm）ＤＱ－２０　３００×５００×２０
 50
359.999996142952
 41
1.120614035087719
  7
ＭＳ ゴシック
100
AcDbText
  0
TEXT
  5
5B0
330
1F
100
AcDbEntity
  8
D-5
  6
Continuous
 62
     2
370
     9
100
AcDbText
 10
425.9067924602614
 20
-634.5273502535434
 30
0.0
 40
30.48
  1
定尺：４９９
 41
1.104166666666667
  7
ＭＳ ゴシック
100
AcDbText
  0
TEXT
  5
5B1
330
1F
100
AcDbEntity
  8
F-4ﾚｲﾔ
  6
Continuous
 62
     2
370
     9
100
AcDbText
 10
-775.3314243984402
 20
-1349.635414840099
 30
0.0
 40
30.48
  1
グレーチング（すきま9mm）ＤＱ－２０　３００×５００×２０＋ＳＦ２０Ｂ
 41
0.7742753623188404
  7
ＭＳ ゴシック
100
AcDbText
  0
ENDSEC
  0
SECTION
  2
OBJECTS
  0
DICTIONARY
  5
C
330
0
100
AcDbDictionary
281
     1
  3
ACAD_GROUP
350
D
  3
ACAD_LAYOUT
350
1A
  3
ACAD_MLEADERSTYLE
350
5B3
  3
ACAD_MLINESTYLE
350
17
  3
ACAD_PLOTSETTINGS
350
19
  3
ACAD_PLOTSTYLENAME
350
E
  3
ACAD_TABLESTYLE
350
5B2
  3
ACAD_VISUALSTYLE
350
2A
  0
DICTIONARY
  5
D
102
{ACAD_REACTORS
330
C
102
}
330
C
100
AcDbDictionary
281
     1
  0
DICTIONARY
  5
1A
102
{ACAD_REACTORS
330
C
102
}
330
C
100
AcDbDictionary
281
     1
  3
Layout1
350
1E
  3
Layout2
350
26
  3
Model
350
22
  0
DICTIONARY
  5
5B3
102
{ACAD_REACTORS
330
C
102
}
330
C
100
AcDbDictionary
281
     1
  0
DICTIONARY
  5
17
102
{ACAD_REACTORS
330
C
102
}
330
C
100
AcDbDictionary
281
     1
  3
Standard
350
18
  0
DICTIONARY
  5
19
102
{ACAD_REACTORS
330
C
102
}
330
C
100
AcDbDictionary
281
     1
  0
ACDBDICTIONARYWDFLT
  5
E
102
{ACAD_REACTORS
330
C
102
}
330
C
100
AcDbDictionary
281
     1
  3
Normal
350
F
100
AcDbDictionaryWithDefault
340
F
  0
DICTIONARY
  5
5B2
102
{ACAD_REACTORS
330
C
102
}
330
C
100
AcDbDictionary
281
     1
  0
DICTIONARY
  5
2A
102
{ACAD_REACTORS
330
C
102
}
330
C
100
AcDbDictionary
281
     1
  3
2dWireframe
350
2F
  3
3D Hidden
350
31
  3
3dWireframe
350
30
  3
Basic
350
32
  3
Brighten
350
36
  3
ColorChange
350
3A
  3
Conceptual
350
34
  3
Dim
350
35
  3
Facepattern
350
39
  3
Flat
350
2B
  3
FlatWithEdges
350
2C
  3
Gouraud
350
2D
  3
GouraudWithEdges
350
2E
  3
Linepattern
350
38
  3
Realistic
350
33
  3
Thicken
350
37
  0
LAYOUT
  5
1E
102
{ACAD_REACTORS
330
1A
102
}
330
1A
100
AcDbPlotSettings
  1

  2
none_device
  4

  6

 40
0.0
 41
0.0
 42
0.0
 43
0.0
 44
0.0
 45
0.0
 46
0.0
 47
0.0
 48
0.0
 49
0.0
140
0.0
141
0.0
142
1.0
143
1.0
 70
   688
 72
     0
 73
     0
 74
     5
  7

 75
    16
 76
     0
 77
     5
 78
   300
147
1.0
148
0.0
149
0.0
100
AcDbLayout
  1
Layout1
 70
     1
 71
     1
 10
0.0
 20
0.0
 11
420.0
 21
297.0
 12
0.0
 22
0.0
 32
0.0
 14
1.000000000000000E+20
 24
1.000000000000000E+20
 34
1.000000000000000E+20
 15
-1.000000000000000E+20
 25
-1.000000000000000E+20
 35
-1.000000000000000E+20
146
0.0
 13
0.0
 23
0.0
 33
0.0
 16
1.0
 26
0.0
 36
0.0
 17
0.0
 27
1.0
 37
0.0
 76
     0
330
1B
  0
LAYOUT
  5
26
102
{ACAD_REACTORS
330
1A
102
}
330
1A
100
AcDbPlotSettings
  1

  2
none_device
  4

  6

 40
0.0
 41
0.0
 42
0.0
 43
0.0
 44
0.0
 45
0.0
 46
0.0
 47
0.0
 48
0.0
 49
0.0
140
0.0
141
0.0
142
1.0
143
1.0
 70
   688
 72
     0
 73
     0
 74
     5
  7

 75
    16
 76
     0
 77
     5
 78
   300
147
1.0
148
0.0
149
0.0
100
AcDbLayout
  1
Layout2
 70
     1
 71
     2
 10
0.0
 20
0.0
 11
0.0
 21
0.0
 12
0.0
 22
0.0
 32
0.0
 14
0.0
 24
0.0
 34
0.0
 15
0.0
 25
0.0
 35
0.0
146
0.0
 13
0.0
 23
0.0
 33
0.0
 16
1.0
 26
0.0
 36
0.0
 17
0.0
 27
1.0
 37
0.0
 76
     0
330
23
  0
LAYOUT
  5
22
102
{ACAD_REACTORS
330
1A
102
}
330
1A
100
AcDbPlotSettings
  1

  2
none_device
  4

  6

 40
0.0
 41
0.0
 42
0.0
 43
0.0
 44
0.0
 45
0.0
 46
0.0
 47
0.0
 48
0.0
 49
0.0
140
0.0
141
0.0
142
1.0
143
1.0
 70
  1712
 72
     0
 73
     0
 74
     0
  7

 75
     0
 76
     0
 77
     5
 78
   300
147
1.0
148
0.0
149
0.0
100
AcDbLayout
  1
Model
 70
     1
 71
     0
 10
-2100.0
 20
-1485.0
 11
2100.0
 21
1485.0
 12
0.0
 22
0.0
 32
0.0
 14
-2100.0
 24
-1485.0
 34
0.0
 15
2100.0
 25
1485.0
 35
0.0
146
0.0
 13
0.0
 23
0.0
 33
0.0
 16
1.0
 26
0.0
 36
0.0
 17
0.0
 27
1.0
 37
0.0
 76
     0
330
1F
331
29
  0
MLINESTYLE
  5
18
102
{ACAD_REACTORS
330
17
102
}
330
17
100
AcDbMlineStyle
  2
Standard
 70
     0
  3

 62
   256
 51
90.0
 52
90.0
 71
     2
 49
0.5
 62
   256
  6
BYLAYER
 49
-0.5
 62
   256
  6
BYLAYER
  0
ACDBPLACEHOLDER
  5
F
102
{ACAD_REACTORS
330
E
102
}
330
E
  0
VISUALSTYLE
  5
2F
102
{ACAD_REACTORS
330
2A
102
}
330
2A
100
AcDbVisualStyle
  2
2dWireframe
 70
     4
 71
     0
 72
     2
 73
     0
 90
        0
 40
-0.6
 41
-30.0
 62
     5
 63
     7
421
 16777215
 74
     1
 91
        4
 64
     7
 65
   257
 75
     1
175
     1
 42
1.0
 92
        0
 66
   257
 43
1.0
 76
     1
 77
     6
 78
     2
 67
     7
 79
     5
170
     0
171
     0
290
     0
174
     0
 93
        1
 44
0.0
173
     0
291
     0
 45
0.0
1001
ACAD
1000
AcDbSavedByObjectVersion
1070
     0
  0
VISUALSTYLE
  5
31
102
{ACAD_REACTORS
330
2A
102
}
330
2A
100
AcDbVisualStyle
  2
3D Hidden
 70
     6
 71
     1
 72
     2
 73
     2
 90
        0
 40
-0.6
 41
-30.0
 62
     5
 63
     7
421
 16777215
 74
     2
 91
        2
 64
     7
 65
   257
 75
     2
175
     1
 42
40.0
 92
        0
 66
   257
 43
1.0
 76
     1
 77
     6
 78
     2
 67
     7
 79
     3
170
     0
171
     0
290
     0
174
     0
 93
        1
 44
0.0
173
     0
291
     0
 45
0.0
1001
ACAD
1000
AcDbSavedByObjectVersion
1070
     0
  0
VISUALSTYLE
  5
30
102
{ACAD_REACTORS
330
2A
102
}
330
2A
100
AcDbVisualStyle
  2
3dWireframe
 70
     5
 71
     0
 72
     2
 73
     0
 90
        0
 40
-0.6
 41
-30.0
 62
     5
 63
     7
421
 16777215
 74
     1
 91
        4
 64
     7
 65
   257
 75
     1
175
     1
 42
1.0
 92
        0
 66
   257
 43
1.0
 76
     1
 77
     6
 78
     2
 67
     7
 79
     5
170
     0
171
     0
290
     0
174
     0
 93
        1
 44
0.0
173
     0
291
     0
 45
0.0
1001
ACAD
1000
AcDbSavedByObjectVersion
1070
     0
  0
VISUALSTYLE
  5
32
102
{ACAD_REACTORS
330
2A
102
}
330
2A
100
AcDbVisualStyle
  2
Basic
 70
     7
 71
     1
 72
     0
 73
     1
 90
        0
 40
-0.6
 41
-30.0
 62
     5
 63
     7
421
 16777215
 74
     0
 91
        4
 64
     7
 65
   257
 75
     1
175
     1
 42
1.0
 92
        8
 66
     7
 43
1.0
 76
     1
 77
     6
 78
     2
 67
     7
 79
     5
170
     0
171
     0
290
     0
174
     0
 93
        1
 44
0.0
173
     0
291
     1
 45
0.0
1001
ACAD
1000
AcDbSavedByObjectVersion
1070
     0
  0
VISUALSTYLE
  5
36
102
{ACAD_REACTORS
330
2A
102
}
330
2A
100
AcDbVisualStyle
  2
Brighten
 70
    12
 71
     2
 72
     2
 73
     0
 90
        0
 40
-0.6
 41
-30.0
 62
     5
 63
     7
421
 16777215
 74
     1
 91
        4
 64
     7
 65
   257
 75
     1
175
     1
 42
1.0
 92
        8
 66
     7
 43
1.0
 76
     1
 77
     6
 78
     2
 67
     7
 79
     5
170
     0
171
     0
290
     0
174
     0
 93
        1
 44
50.0
173
     0
291
     1
 45
0.0
1001
ACAD
1000
AcDbSavedByObjectVersion
1070
     0
  0
VISUALSTYLE
  5
3A
102
{ACAD_REACTORS
330
2A
102
}
330
2A
100
AcDbVisualStyle
  2
ColorChange
 70
    16
 71
     2
 72
     2
 73
     3
 90
        0
 40
-0.6
 41
-30.0
 62
     5
 63
     8
421
  8421504
 74
     1
 91
        4
 64
     7
 65
   257
 75
     1
175
     1
 42
1.0
 92
        8
 66
     8
424
  8421504
 43
1.0
 76
     1
 77
     6
 78
     2
 67
     7
 79
     5
170
     0
171
     0
290
     0
174
     0
 93
        1
 44
0.0
173
     0
291
     1
 45
0.0
1001
ACAD
1000
AcDbSavedByObjectVersion
1070
     0
  0
VISUALSTYLE
  5
34
102
{ACAD_REACTORS
330
2A
102
}
330
2A
100
AcDbVisualStyle
  2
Conceptual
 70
     9
 71
     3
 72
     2
 73
     0
 90
        0
 40
-0.6
 41
-30.0
 62
     5
 63
     7
421
 16777215
 74
     2
 91
        2
 64
     7
 65
   257
 75
     1
175
     1
 42
40.0
 92
        8
 66
     7
 43
1.0
 76
     1
 77
     6
 78
     2
 67
     7
 79
     3
170
     0
171
     0
290
     0
174
     0
 93
        1
 44
0.0
173
     0
291
     0
 45
0.0
1001
ACAD
1000
AcDbSavedByObjectVersion
1070
     0
  0
VISUALSTYLE
  5
35
102
{ACAD_REACTORS
330
2A
102
}
330
2A
100
AcDbVisualStyle
  2
Dim
 70
    11
 71
     2
 72
     2
 73
     0
 90
        0
 40
-0.6
 41
-30.0
 62
     5
 63
     7
421
 16777215
 74
     1
 91
        4
 64
     7
 65
   257
 75
     1
175
     1
 42
1.0
 92
        8
 66
     7
 43
1.0
 76
     1
 77
     6
 78
     2
 67
     7
 79
     5
170
     0
171
     0
290
     0
174
     0
 93
        1
 44
-50.0
173
     0
291
     1
 45
0.0
1001
ACAD
1000
AcDbSavedByObjectVersion
1070
     0
  0
VISUALSTYLE
  5
39
102
{ACAD_REACTORS
330
2A
102
}
330
2A
100
AcDbVisualStyle
  2
Facepattern
 70
    15
 71
     2
 72
     2
 73
     0
 90
        0
 40
-0.6
 41
-30.0
 62
     5
 63
     7
421
 16777215
 74
     1
 91
        4
 64
     7
 65
   257
 75
     1
175
     1
 42
1.0
 92
        8
 66
     7
 43
1.0
 76
     1
 77
     6
 78
     2
 67
     7
 79
     5
170
     0
171
     0
290
     0
174
     0
 93
        1
 44
0.0
173
     0
291
     1
 45
0.0
1001
ACAD
1000
AcDbSavedByObjectVersion
1070
     0
  0
VISUALSTYLE
  5
2B
102
{ACAD_REACTORS
330
2A
102
}
330
2A
100
AcDbVisualStyle
  2
Flat
 70
     0
 71
     2
 72
     1
 73
     1
 90
        2
 40
-0.6
 41
30.0
 62
     5
 63
     7
421
 16777215
 74
     0
 91
        4
 64
     7
 65
   257
 75
     1
175
     1
 42
1.0
 92
        8
 66
     7
 43
1.0
 76
     1
 77
     6
 78
     2
 67
     7
 79
     5
170
     0
171
     0
290
     0
174
     0
 93
       13
 44
0.0
173
     0
291
     1
 45
0.0
1001
ACAD
1000
AcDbSavedByObjectVersion
1070
     0
  0
VISUALSTYLE
  5
2C
102
{ACAD_REACTORS
330
2A
102
}
330
2A
100
AcDbVisualStyle
  2
FlatWithEdges
 70
     1
 71
     2
 72
     1
 73
     1
 90
        2
 40
-0.6
 41
30.0
 62
     5
 63
     7
421
 16777215
 74
     1
 91
        4
 64
     7
 65
   257
 75
     1
175
     1
 42
1.0
 92
        0
 66
   257
 43
1.0
 76
     1
 77
     6
 78
     2
 67
     7
 79
     5
170
     0
171
     0
290
     0
174
     0
 93
       13
 44
0.0
173
     0
291
     1
 45
0.0
1001
ACAD
1000
AcDbSavedByObjectVersion
1070
     0
  0
VISUALSTYLE
  5
2D
102
{ACAD_REACTORS
330
2A
102
}
330
2A
100
AcDbVisualStyle
  2
Gouraud
 70
     2
 71
     2
 72
     2
 73
     1
 90
        2
 40
-0.6
 41
30.0
 62
     5
 63
     7
421
 16777215
 74
     0
 91
        4
 64
     7
 65
   257
 75
     1
175
     1
 42
1.0
 92
        0
 66
     7
 43
1.0
 76
     1
 77
     6
 78
     2
 67
     7
 79
     5
170
     0
171
     0
290
     0
174
     0
 93
       13
 44
0.0
173
     0
291
     1
 45
0.0
1001
ACAD
1000
AcDbSavedByObjectVersion
1070
     0
  0
VISUALSTYLE
  5
2E
102
{ACAD_REACTORS
330
2A
102
}
330
2A
100
AcDbVisualStyle
  2
GouraudWithEdges
 70
     3
 71
     2
 72
     2
 73
     1
 90
        2
 40
-0.6
 41
30.0
 62
     5
 63
     7
421
 16777215
 74
     1
 91
        4
 64
     7
 65
   257
 75
     1
175
     1
 42
1.0
 92
        0
 66
   257
 43
1.0
 76
     1
 77
     6
 78
     2
 67
     7
 79
     5
170
     0
171
     0
290
     0
174
     0
 93
       13
 44
0.0
173
     0
291
     1
 45
0.0
1001
ACAD
1000
AcDbSavedByObjectVersion
1070
     0
  0
VISUALSTYLE
  5
38
102
{ACAD_REACTORS
330
2A
102
}
330
2A
100
AcDbVisualStyle
  2
Linepattern
 70
    14
 71
     2
 72
     2
 73
     0
 90
        0
 40
-0.6
 41
-30.0
 62
     5
 63
     7
421
 16777215
 74
     1
 91
        4
 64
     7
 65
   257
 75
     7
175
     7
 42
1.0
 92
        8
 66
     7
 43
1.0
 76
     1
 77
     6
 78
     2
 67
     7
 79
     5
170
     0
171
     0
290
     0
174
     0
 93
        1
 44
0.0
173
     0
291
     1
 45
0.0
1001
ACAD
1000
AcDbSavedByObjectVersion
1070
     0
  0
VISUALSTYLE
  5
33
102
{ACAD_REACTORS
330
2A
102
}
330
2A
100
AcDbVisualStyle
  2
Realistic
 70
     8
 71
     2
 72
     2
 73
     0
 90
        0
 40
-0.6
 41
-30.0
 62
     5
 63
     7
421
 16777215
 74
     1
 91
        0
 64
     7
 65
   257
 75
     1
175
     1
 42
1.0
 92
        8
 66
     8
424
  7895160
 43
1.0
 76
     1
 77
     6
 78
     2
 67
     7
 79
     5
170
     0
171
     0
290
     0
174
     0
 93
       13
 44
0.0
173
     0
291
     0
 45
0.0
1001
ACAD
1000
AcDbSavedByObjectVersion
1070
     0
  0
VISUALSTYLE
  5
37
102
{ACAD_REACTORS
330
2A
102
}
330
2A
100
AcDbVisualStyle
  2
Thicken
 70
    13
 71
     2
 72
     2
 73
     0
 90
        0
 40
-0.6
 41
-30.0
 62
     5
 63
     7
421
 16777215
 74
     1
 91
        4
 64
     7
 65
   257
 75
     1
175
     1
 42
1.0
 92
       12
 66
     7
 43
1.0
 76
     1
 77
     6
 78
     2
 67
     7
 79
     5
170
     0
171
     0
290
     0
174
     0
 93
        1
 44
0.0
173
     0
291
     1
 45
0.0
1001
ACAD
1000
AcDbSavedByObjectVersion
1070
     0
  0
ENDSEC
  0
EOF
