  0
SECTION
  2
HEADER
  9
$ACADVER
  1
AC1018
  9
$ACADMAINTVER
 70
     0
  9
$DWGCODEPAGE
  3
ANSI_932
  9
$INSBASE
 10
0.0
 20
0.0
 30
0.0
  9
$EXTMIN
 10
-2100.0
 20
-1485.0
 30
0.0
  9
$EXTMAX
 10
2100.0
 20
1485.0
 30
0.0
  9
$LIMMIN
 10
-2100.0
 20
-1485.0
  9
$LIMMAX
 10
2100.0
 20
1485.0
  9
$ORTHOMODE
 70
     0
  9
$REGENMODE
 70
     1
  9
$FILLMODE
 70
     1
  9
$QTEXTMODE
 70
     0
  9
$MIRRTEXT
 70
     1
  9
$LTSCALE
 40
10.0
  9
$ATTMODE
 70
     1
  9
$TEXTSIZE
 40
2.5
  9
$TRACEWID
 40
1.0
  9
$TEXTSTYLE
  7
Standard
  9
$CLAYER
  8
0
  9
$CELTYPE
  6
ByLayer
  9
$CECOLOR
 62
   256
  9
$CELTSCALE
 40
1.0
  9
$DISPSILH
 70
     0
  9
$DIMSCALE
 40
1.0
  9
$DIMASZ
 40
2.5
  9
$DIMEXO
 40
0.625
  9
$DIMDLI
 40
3.75
  9
$DIMRND
 40
0.0
  9
$DIMDLE
 40
0.0
  9
$DIMEXE
 40
1.25
  9
$DIMTP
 40
0.0
  9
$DIMTM
 40
0.0
  9
$DIMTXT
 40
2.5
  9
$DIMCEN
 40
2.5
  9
$DIMTSZ
 40
0.0
  9
$DIMTOL
 70
     0
  9
$DIMLIM
 70
     0
  9
$DIMTIH
 70
     0
  9
$DIMTOH
 70
     0
  9
$DIMSE1
 70
     0
  9
$DIMSE2
 70
     0
  9
$DIMTAD
 70
     1
  9
$DIMZIN
 70
     8
  9
$DIMBLK
  1

  9
$DIMASO
 70
     1
  9
$DIMSHO
 70
     1
  9
$DIMPOST
  1

  9
$DIMAPOST
  1

  9
$DIMALT
 70
     0
  9
$DIMALTD
 70
     3
  9
$DIMALTF
 40
0.03937007874016
  9
$DIMLFAC
 40
1.0
  9
$DIMTOFL
 70
     1
  9
$DIMTVP
 40
0.0
  9
$DIMTIX
 70
     0
  9
$DIMSOXD
 70
     0
  9
$DIMSAH
 70
     0
  9
$DIMBLK1
  1

  9
$DIMBLK2
  1

  9
$DIMSTYLE
  2
ISO-25
  9
$DIMCLRD
 70
     0
  9
$DIMCLRE
 70
     0
  9
$DIMCLRT
 70
     0
  9
$DIMTFAC
 40
1.0
  9
$DIMGAP
 40
0.625
  9
$DIMJUST
 70
     0
  9
$DIMSD1
 70
     0
  9
$DIMSD2
 70
     0
  9
$DIMTOLJ
 70
     0
  9
$DIMTZIN
 70
     8
  9
$DIMALTZ
 70
     0
  9
$DIMALTTZ
 70
     0
  9
$DIMUPT
 70
     0
  9
$DIMDEC
 70
     2
  9
$DIMTDEC
 70
     2
  9
$DIMALTU
 70
     2
  9
$DIMALTTD
 70
     3
  9
$DIMTXSTY
  7
Standard
  9
$DIMAUNIT
 70
     0
  9
$DIMADEC
 70
     0
  9
$DIMALTRND
 40
0.0
  9
$DIMAZIN
 70
     0
  9
$DIMDSEP
 70
    44
  9
$DIMATFIT
 70
     3
  9
$DIMFRAC
 70
     0
  9
$DIMLDRBLK
  1

  9
$DIMLUNIT
 70
     2
  9
$DIMLWD
 70
    -2
  9
$DIMLWE
 70
    -2
  9
$DIMTMOVE
 70
     0
  9
$LUNITS
 70
     2
  9
$LUPREC
 70
     4
  9
$SKETCHINC
 40
1.0
  9
$FILLETRAD
 40
10.0
  9
$AUNITS
 70
     0
  9
$AUPREC
 70
     0
  9
$MENU
  1
.
  9
$ELEVATION
 40
0.0
  9
$PELEVATION
 40
0.0
  9
$THICKNESS
 40
0.0
  9
$LIMCHECK
 70
     0
  9
$CHAMFERA
 40
10.0
  9
$CHAMFERB
 40
10.0
  9
$CHAMFERC
 40
20.0
  9
$CHAMFERD
 40
0.0
  9
$SKPOLY
 70
     0
  9
$TDCREATE
 40
2458568.380869363
  9
$TDUCREATE
 40
2458568.005869363
  9
$TDUPDATE
 40
2458568.380869375
  9
$TDUUPDATE
 40
2458568.005869375
  9
$TDINDWG
 40
0.0000000116
  9
$TDUSRTIMER
 40
0.0000000116
  9
$USRTIMER
 70
     1
  9
$ANGBASE
 50
0.0
  9
$ANGDIR
 70
     0
  9
$PDMODE
 70
     0
  9
$PDSIZE
 40
0.0
  9
$PLINEWID
 40
0.0
  9
$SPLFRAME
 70
     0
  9
$SPLINETYPE
 70
     6
  9
$SPLINESEGS
 70
     8
  9
$HANDSEED
  5
542
  9
$SURFTAB1
 70
     6
  9
$SURFTAB2
 70
     6
  9
$SURFTYPE
 70
     6
  9
$SURFU
 70
     6
  9
$SURFV
 70
     6
  9
$UCSBASE
  2

  9
$UCSNAME
  2

  9
$UCSORG
 10
0.0
 20
0.0
 30
0.0
  9
$UCSXDIR
 10
1.0
 20
0.0
 30
0.0
  9
$UCSYDIR
 10
0.0
 20
1.0
 30
0.0
  9
$UCSORTHOREF
  2

  9
$UCSORTHOVIEW
 70
     0
  9
$UCSORGTOP
 10
0.0
 20
0.0
 30
0.0
  9
$UCSORGBOTTOM
 10
0.0
 20
0.0
 30
0.0
  9
$UCSORGLEFT
 10
0.0
 20
0.0
 30
0.0
  9
$UCSORGRIGHT
 10
0.0
 20
0.0
 30
0.0
  9
$UCSORGFRONT
 10
0.0
 20
0.0
 30
0.0
  9
$UCSORGBACK
 10
0.0
 20
0.0
 30
0.0
  9
$PUCSBASE
  2

  9
$PUCSNAME
  2

  9
$PUCSORG
 10
0.0
 20
0.0
 30
0.0
  9
$PUCSXDIR
 10
1.0
 20
0.0
 30
0.0
  9
$PUCSYDIR
 10
0.0
 20
1.0
 30
0.0
  9
$PUCSORTHOREF
  2

  9
$PUCSORTHOVIEW
 70
     0
  9
$PUCSORGTOP
 10
0.0
 20
0.0
 30
0.0
  9
$PUCSORGBOTTOM
 10
0.0
 20
0.0
 30
0.0
  9
$PUCSORGLEFT
 10
0.0
 20
0.0
 30
0.0
  9
$PUCSORGRIGHT
 10
0.0
 20
0.0
 30
0.0
  9
$PUCSORGFRONT
 10
0.0
 20
0.0
 30
0.0
  9
$PUCSORGBACK
 10
0.0
 20
0.0
 30
0.0
  9
$USERI1
 70
     0
  9
$USERI2
 70
     0
  9
$USERI3
 70
     0
  9
$USERI4
 70
     0
  9
$USERI5
 70
     0
  9
$USERR1
 40
0.0
  9
$USERR2
 40
0.0
  9
$USERR3
 40
0.0
  9
$USERR4
 40
0.0
  9
$USERR5
 40
0.0
  9
$WORLDVIEW
 70
     1
  9
$SHADEDGE
 70
     3
  9
$SHADEDIF
 70
    70
  9
$TILEMODE
 70
     1
  9
$MAXACTVP
 70
    64
  9
$PINSBASE
 10
0.0
 20
0.0
 30
0.0
  9
$PLIMCHECK
 70
     0
  9
$PEXTMIN
 10
1.000000000000000E+20
 20
1.000000000000000E+20
 30
1.000000000000000E+20
  9
$PEXTMAX
 10
-1.000000000000000E+20
 20
-1.000000000000000E+20
 30
-1.000000000000000E+20
  9
$PLIMMIN
 10
0.0
 20
0.0
  9
$PLIMMAX
 10
420.0
 20
297.0
  9
$UNITMODE
 70
     0
  9
$VISRETAIN
 70
     1
  9
$PLINEGEN
 70
     0
  9
$PSLTSCALE
 70
     1
  9
$TREEDEPTH
 70
  3020
  9
$CMLSTYLE
  2
Standard
  9
$CMLJUST
 70
     0
  9
$CMLSCALE
 40
20.0
  9
$PROXYGRAPHICS
 70
     1
  9
$MEASUREMENT
 70
     1
  9
$CELWEIGHT
370
    -1
  9
$ENDCAPS
280
     0
  9
$JOINSTYLE
280
     0
  9
$LWDISPLAY
290
     0
  9
$INSUNITS
 70
     4
  9
$HYPERLINKBASE
  1

  9
$STYLESHEET
  1

  9
$XEDIT
290
     1
  9
$CEPSNTYPE
380
     0
  9
$PSTYLEMODE
290
     1
  9
$FINGERPRINTGUID
  2
{5569F9D2-A23F-4235-ADC2-B16AA950869D}
  9
$VERSIONGUID
  2
{FAEB1C32-E019-11D5-929B-00C0DF256EC4}
  9
$EXTNAMES
290
     1
  9
$PSVPSCALE
 40
0.0
  9
$OLESTARTUP
290
     0
  9
$SORTENTS
280
   127
  9
$INDEXCTL
280
     0
  9
$HIDETEXT
280
     1
  9
$XCLIPFRAME
290
     0
  9
$HALOGAP
280
     0
  9
$OBSCOLOR
 70
   257
  9
$OBSLTYPE
280
     0
  9
$INTERSECTIONDISPLAY
280
     0
  9
$INTERSECTIONCOLOR
 70
   257
  9
$DIMASSOC
280
     2
  9
$PROJECTNAME
  1

  0
ENDSEC
  0
SECTION
  2
CLASSES
  0
CLASS
  1
ACDBDICTIONARYWDFLT
  2
AcDbDictionaryWithDefault
  3
ObjectDBX Classes
 90
        0
 91
        4
280
     0
281
     0
  0
CLASS
  1
VISUALSTYLE
  2
AcDbVisualStyle
  3
ObjectDBX Classes
 90
     4095
 91
        4
280
     0
281
     0
  0
ENDSEC
  0
SECTION
  2
TABLES
  0
TABLE
  2
VPORT
  5
8
330
0
100
AcDbSymbolTable
 70
     1
  0
VPORT
  5
29
330
8
100
AcDbSymbolTableRecord
100
AcDbViewportTableRecord
  2
*Active
 70
     0
 10
0.0
 20
0.0
 11
1.0
 21
1.0
 12
0.0
 22
0.0
 13
0.0
 23
0.0
 14
10.0
 24
10.0
 15
10.0
 25
10.0
 16
0.0
 26
0.0
 36
1.0
 17
0.0
 27
0.0
 37
0.0
 40
3267.0
 41
1.414141414141414
 42
50.0
 43
0.0
 44
0.0
 50
0.0
 51
0.0
 71
     0
 72
 10000
 73
     1
 74
     3
 75
     0
 76
     0
 77
     0
 78
     0
281
     0
 65
     1
110
0.0
120
0.0
130
0.0
111
1.0
121
0.0
131
0.0
112
0.0
122
1.0
132
0.0
 79
     0
146
0.0
  0
ENDTAB
  0
TABLE
  2
LTYPE
  5
5
330
0
100
AcDbSymbolTable
 70
     3
  0
LTYPE
  5
14
330
5
100
AcDbSymbolTableRecord
100
AcDbLinetypeTableRecord
  2
ByBlock
 70
     0
  3

 72
    65
 73
     0
 40
0.0
  0
LTYPE
  5
15
330
5
100
AcDbSymbolTableRecord
100
AcDbLinetypeTableRecord
  2
ByLayer
 70
     0
  3

 72
    65
 73
     0
 40
0.0
  0
LTYPE
  5
16
330
5
100
AcDbSymbolTableRecord
100
AcDbLinetypeTableRecord
  2
Continuous
 70
     0
  3
Solid line
 72
    65
 73
     0
 40
0.0
  0
LTYPE
  5
3C
330
5
100
AcDbSymbolTableRecord
100
AcDbLinetypeTableRecord
  2
JWW_DASHED3
 70
     0
  3
---  ------  ------  ------  ---
 72
    65
 73
     2
 40
3.386666666666667
 49
2.54
 74
     0
 49
-0.8466666666666667
 74
     0
  0
LTYPE
  5
3D
330
5
100
AcDbSymbolTableRecord
100
AcDbLinetypeTableRecord
  2
JWW_CENTER2
 70
     0
  3
-------------  --  -------------
 72
    65
 73
     4
 40
13.54666666666667
 49
11.00666666666667
 74
     0
 49
-0.8466666666666667
 74
     0
 49
0.8466666666666667
 74
     0
 49
-0.8466666666666667
 74
     0
  0
ENDTAB
  0
TABLE
  2
LAYER
  5
2
330
0
100
AcDbSymbolTable
 70
    15
  0
LAYER
  5
10
330
2
100
AcDbSymbolTableRecord
100
AcDbLayerTableRecord
  2
0
 70
     0
 62
     7
  6
Continuous
370
    -3
390
F
  0
LAYER
  5
3E
330
2
100
AcDbSymbolTableRecord
100
AcDbLayerTableRecord
  2
C-4
 70
     0
 62
     7
  6
Continuous
370
    -1
390
F
  0
LAYER
  5
3F
330
2
100
AcDbSymbolTableRecord
100
AcDbLayerTableRecord
  2
C-A
 70
     0
 62
     7
  6
Continuous
370
    -1
390
F
  0
LAYER
  5
40
330
2
100
AcDbSymbolTableRecord
100
AcDbLayerTableRecord
  2
C-1
 70
     0
 62
     7
  6
Continuous
370
    -1
390
F
  0
LAYER
  5
41
330
2
100
AcDbSymbolTableRecord
100
AcDbLayerTableRecord
  2
C-2
 70
     0
 62
     7
  6
Continuous
370
    -1
390
F
  0
LAYER
  5
42
330
2
100
AcDbSymbolTableRecord
100
AcDbLayerTableRecord
  2
C-5
 70
     0
 62
     7
  6
Continuous
370
    -1
390
F
  0
LAYER
  5
43
330
2
100
AcDbSymbolTableRecord
100
AcDbLayerTableRecord
  2
D-9
 70
     0
 62
     7
  6
Continuous
370
    -1
390
F
  0
LAYER
  5
44
330
2
100
AcDbSymbolTableRecord
100
AcDbLayerTableRecord
  2
D-A
 70
     0
 62
     7
  6
Continuous
370
    -1
390
F
  0
LAYER
  5
45
330
2
100
AcDbSymbolTableRecord
100
AcDbLayerTableRecord
  2
D-4
 70
     0
 62
     7
  6
Continuous
370
    -1
390
F
  0
LAYER
  5
46
330
2
100
AcDbSymbolTableRecord
100
AcDbLayerTableRecord
  2
D-5
 70
     0
 62
     7
  6
Continuous
370
    -1
390
F
  0
LAYER
  5
47
330
2
100
AcDbSymbolTableRecord
100
AcDbLayerTableRecord
  2
D-6
 70
     0
 62
     7
  6
Continuous
370
    -1
390
F
  0
LAYER
  5
48
330
2
100
AcDbSymbolTableRecord
100
AcDbLayerTableRecord
  2
D-1
 70
     0
 62
     7
  6
Continuous
370
    -1
390
F
  0
LAYER
  5
49
330
2
100
AcDbSymbolTableRecord
100
AcDbLayerTableRecord
  2
D-0
 70
     0
 62
     7
  6
Continuous
370
    -1
390
F
  0
LAYER
  5
4A
330
2
100
AcDbSymbolTableRecord
100
AcDbLayerTableRecord
  2
D-2
 70
     0
 62
     7
  6
Continuous
370
    -1
390
F
  0
LAYER
  5
4B
330
2
100
AcDbSymbolTableRecord
100
AcDbLayerTableRecord
  2
F-4ﾚｲﾔ
 70
     0
 62
     7
  6
Continuous
370
    -1
390
F
  0
ENDTAB
  0
TABLE
  2
STYLE
  5
3
330
0
100
AcDbSymbolTable
 70
     2
  0
STYLE
  5
11
330
3
100
AcDbSymbolTableRecord
100
AcDbTextStyleTableRecord
  2
Standard
 70
     0
 40
0.0
 41
1.0
 50
0.0
 71
     0
 42
2.5
  3
txt
  4

1001
ACAD
1000

1071
        0
  0
STYLE
  5
3B
330
3
100
AcDbSymbolTableRecord
100
AcDbTextStyleTableRecord
  2
ＭＳ ゴシック
 70
     0
 40
1.0
 41
1.0
 50
0.0
 71
     0
 42
10.0
  3

  4

1001
ACAD
1000
MS Gothic
1071
    32817
  0
ENDTAB
  0
TABLE
  2
VIEW
  5
6
330
0
100
AcDbSymbolTable
 70
     0
  0
ENDTAB
  0
TABLE
  2
UCS
  5
7
330
0
100
AcDbSymbolTable
 70
     0
  0
ENDTAB
  0
TABLE
  2
APPID
  5
9
330
0
100
AcDbSymbolTable
 70
     1
  0
APPID
  5
12
330
9
100
AcDbSymbolTableRecord
100
AcDbRegAppTableRecord
  2
ACAD
 70
     0
  0
ENDTAB
  0
TABLE
  2
DIMSTYLE
  5
A
330
0
100
AcDbSymbolTable
 70
     1
100
AcDbDimStyleTable
  0
DIMSTYLE
105
27
330
A
100
AcDbSymbolTableRecord
100
AcDbDimStyleTableRecord
  2
ISO-25
 70
     0
 41
2.5
 42
0.625
 43
3.75
 44
1.25
 73
     0
 74
     0
 77
     1
 78
     8
140
2.5
141
2.5
143
0.03937007874016
147
0.625
171
     3
172
     1
271
     2
272
     2
274
     3
278
    44
283
     0
284
     8
340
11
  0
ENDTAB
  0
TABLE
  2
BLOCK_RECORD
  5
1
330
0
100
AcDbSymbolTable
 70
     1
  0
BLOCK_RECORD
  5
1F
330
1
100
AcDbSymbolTableRecord
100
AcDbBlockTableRecord
  2
*Model_Space
340
22
  0
BLOCK_RECORD
  5
1B
330
1
100
AcDbSymbolTableRecord
100
AcDbBlockTableRecord
  2
*Paper_Space
340
1E
  0
BLOCK_RECORD
  5
23
330
1
100
AcDbSymbolTableRecord
100
AcDbBlockTableRecord
  2
*Paper_Space0
340
26
  0
ENDTAB
  0
ENDSEC
  0
SECTION
  2
BLOCKS
  0
BLOCK
  5
20
330
1F
100
AcDbEntity
  8
0
100
AcDbBlockBegin
  2
*Model_Space
 70
     0
 10
0.0
 20
0.0
 30
0.0
  3
*Model_Space
  1

  0
ENDBLK
  5
21
330
1F
100
AcDbEntity
  8
0
100
AcDbBlockEnd
  0
BLOCK
  5
1C
330
1B
100
AcDbEntity
 67
     1
  8
0
100
AcDbBlockBegin
  2
*Paper_Space
 70
     0
 10
0.0
 20
0.0
 30
0.0
  3
*Paper_Space
  1

  0
ENDBLK
  5
1D
330
1B
100
AcDbEntity
 67
     1
  8
0
100
AcDbBlockEnd
  0
BLOCK
  5
24
330
23
100
AcDbEntity
  8
0
100
AcDbBlockBegin
  2
*Paper_Space0
 70
     0
 10
0.0
 20
0.0
 30
0.0
  3
*Paper_Space0
  1

  0
ENDBLK
  5
25
330
23
100
AcDbEntity
  8
0
100
AcDbBlockEnd
  0
ENDSEC
  0
SECTION
  2
ENTITIES
  0
TEXT
  5
4C
330
1F
100
AcDbEntity
  8
C-4
  6
Continuous
 62
     2
370
   211
100
AcDbText
 10
-675.7612609587482
 20
918.6076961208037
 30
0.0
 40
30.48
  1
5
 50
90.0
 41
0.9999999999999998
  7
ＭＳ ゴシック
100
AcDbText
  0
LINE
  5
4D
330
1F
100
AcDbEntity
  8
C-4
  6
Continuous
 62
     7
370
     9
100
AcDbLine
 10
-664.1212607203296
 20
897.1076808620146
 30
0.0
 11
-664.1212607203296
 21
902.1076808620146
 31
0.0
  0
TEXT
  5
4E
330
1F
100
AcDbEntity
  8
C-4
  6
Continuous
 62
     2
370
   211
100
AcDbText
 10
-730.7612609587482
 20
663.6076312709499
 30
0.0
 40
30.48
  1
412
 50
90.0
 41
1.083333333333333
  7
ＭＳ ゴシック
100
AcDbText
  0
LINE
  5
4F
330
1F
100
AcDbEntity
  8
C-4
  6
Continuous
 62
     7
370
     9
100
AcDbLine
 10
-719.1212607203297
 20
490.1075816798856
 30
0.0
 11
-719.1212607203297
 21
902.1076808620146
 31
0.0
  0
TEXT
  5
50
330
1F
100
AcDbEntity
  8
C-4
  6
Continuous
 62
     2
370
   211
100
AcDbText
 10
-675.7612609587483
 20
453.6075740504912
 30
0.0
 40
30.48
  1
5
 50
90.0
 41
0.9999999999999998
  7
ＭＳ ゴシック
100
AcDbText
  0
LINE
  5
51
330
1F
100
AcDbEntity
  8
C-4
  6
Continuous
 62
     7
370
     9
100
AcDbLine
 10
-664.1212607203296
 20
490.1075816798856
 30
0.0
 11
-664.1212607203296
 21
495.1075816798856
 31
0.0
  0
LINE
  5
52
330
1F
100
AcDbEntity
  8
C-4
  6
Continuous
 62
     7
370
     9
100
AcDbLine
 10
-664.1212607203296
 20
902.1076808620146
 30
0.0
 11
-664.1212607203296
 21
952.1076808620146
 31
0.0
  0
LINE
  5
53
330
1F
100
AcDbEntity
  8
C-4
  6
Continuous
 62
     7
370
     9
100
AcDbLine
 10
-722.1212608395389
 20
902.1076808620146
 30
0.0
 11
-557.1216879664236
 21
902.1076808620146
 31
0.0
  0
LWPOLYLINE
  5
54
330
1F
100
AcDbEntity
  8
C-4
  6
Continuous
 62
     7
370
     9
100
AcDbPolyline
 90
        4
 70
     1
 43
1.0
 10
-663.6212607203297
 20
902.1076808620146
 42
0.4142135623731
 10
-664.1212607203296
 20
902.6076808620145
 42
0.4142135623731
 10
-664.6212607203296
 20
902.1076808620146
 42
0.4142135623731
 10
-664.1212607203296
 20
901.6076808620146
 42
0.4142135623731
  0
LWPOLYLINE
  5
55
330
1F
100
AcDbEntity
  8
C-4
  6
Continuous
 62
     7
370
     9
100
AcDbPolyline
 90
        4
 70
     1
 43
1.0
 10
-718.6212607203297
 20
902.1076808620146
 42
0.4142135623731
 10
-719.1212607203296
 20
902.6076808620145
 42
0.4142135623731
 10
-719.6212607203296
 20
902.1076808620146
 42
0.4142135623731
 10
-719.1212607203296
 20
901.6076808620146
 42
0.4142135623731
  0
LINE
  5
56
330
1F
100
AcDbEntity
  8
C-4
  6
Continuous
 62
     7
370
     9
100
AcDbLine
 10
-664.1212607203297
 20
490.1075816798856
 30
0.0
 11
-664.1212607203297
 21
440.1075816798856
 31
0.0
  0
LINE
  5
57
330
1F
100
AcDbEntity
  8
C-4
  6
Continuous
 62
     7
370
     9
100
AcDbLine
 10
-722.121260839539
 20
490.1075816798856
 30
0.0
 11
-557.1216879664236
 21
490.1075816798856
 31
0.0
  0
LWPOLYLINE
  5
58
330
1F
100
AcDbEntity
  8
C-4
  6
Continuous
 62
     7
370
     9
100
AcDbPolyline
 90
        4
 70
     1
 43
1.0
 10
-663.6212607203297
 20
490.1075816798856
 42
0.4142135623731
 10
-664.1212607203296
 20
490.6075816798856
 42
0.4142135623731
 10
-664.6212607203296
 20
490.1075816798856
 42
0.4142135623731
 10
-664.1212607203296
 20
489.6075816798856
 42
0.4142135623731
  0
LWPOLYLINE
  5
59
330
1F
100
AcDbEntity
  8
C-4
  6
Continuous
 62
     7
370
     9
100
AcDbPolyline
 90
        4
 70
     1
 43
1.0
 10
-718.6212607203297
 20
490.1075816798856
 42
0.4142135623731
 10
-719.1212607203296
 20
490.6075816798856
 42
0.4142135623731
 10
-719.6212607203296
 20
490.1075816798856
 42
0.4142135623731
 10
-719.1212607203296
 20
489.6075816798856
 42
0.4142135623731
  0
TEXT
  5
5A
330
1F
100
AcDbEntity
  8
C-4
  6
Continuous
 62
     2
370
   211
100
AcDbText
 10
-675.7612609587482
 20
505.6077571559599
 30
0.0
 40
30.48
  1
1
 50
90.0
 41
0.9999999999999998
  7
ＭＳ ゴシック
100
AcDbText
  0
TEXT
  5
5B
330
1F
100
AcDbEntity
  8
C-4
  6
Continuous
 62
     2
370
   211
100
AcDbText
 10
-675.7612609587482
 20
866.6077418971709
 30
0.0
 40
30.48
  1
1
 50
90.0
 41
0.9999999999999998
  7
ＭＳ ゴシック
100
AcDbText
  0
TEXT
  5
5C
330
1F
100
AcDbEntity
  8
C-4
  6
Continuous
 62
     2
370
   211
100
AcDbText
 10
-620.761749239998
 20
507.3578677821805
 30
0.0
 40
30.48
  1
25
 50
90.0
 41
1.0625
  7
ＭＳ ゴシック
100
AcDbText
  0
LINE
  5
5D
330
1F
100
AcDbEntity
  8
C-4
  6
Continuous
 62
     7
370
     9
100
AcDbLine
 10
-612.1217491207888
 20
871.1079555202175
 30
0.0
 11
-557.1216879664236
 21
871.1079555202175
 31
0.0
  0
LINE
  5
5E
330
1F
100
AcDbEntity
  8
C-4
  6
Continuous
 62
     7
370
     9
100
AcDbLine
 10
-612.1217491207888
 20
521.107802932327
 30
0.0
 11
-557.1216879664236
 21
521.107802932327
 31
0.0
  0
LINE
  5
5F
330
1F
100
AcDbEntity
  8
C-4
  6
Continuous
 62
     7
370
     9
100
AcDbLine
 10
-667.1212608395389
 20
897.1076808620146
 30
0.0
 11
-557.1216879664236
 21
897.1076808620146
 31
0.0
  0
LINE
  5
60
330
1F
100
AcDbEntity
  8
C-4
  6
Continuous
 62
     7
370
     9
100
AcDbLine
 10
-667.1212608395389
 20
896.1078029323271
 30
0.0
 11
-557.1216879664236
 21
896.1078029323271
 31
0.0
  0
LINE
  5
61
330
1F
100
AcDbEntity
  8
C-4
  6
Continuous
 62
     7
370
     9
100
AcDbLine
 10
-667.1212608395389
 20
496.107932632034
 30
0.0
 11
-557.1216879664236
 21
496.107932632034
 31
0.0
  0
LINE
  5
62
330
1F
100
AcDbEntity
  8
C-4
  6
Continuous
 62
     7
370
     9
100
AcDbLine
 10
-667.1212608395389
 20
495.1075816798856
 30
0.0
 11
-557.1216879664236
 21
495.1075816798856
 31
0.0
  0
LWPOLYLINE
  5
63
330
1F
100
AcDbEntity
  8
C-4
  6
Continuous
 62
     7
370
     9
100
AcDbPolyline
 90
        4
 70
     1
 43
1.0
 10
-608.6217490015795
 20
896.1078029323269
 42
0.4142135623731
 10
-609.1217490015795
 20
896.6078029323269
 42
0.4142135623731
 10
-609.6217490015795
 20
896.1078029323269
 42
0.4142135623731
 10
-609.1217490015795
 20
895.607802932327
 42
0.4142135623731
  0
LINE
  5
64
330
1F
100
AcDbEntity
  8
C-4
  6
Continuous
 62
     7
370
     9
100
AcDbLine
 10
-609.1217490015795
 20
871.1079555202177
 30
0.0
 11
-609.1217490015795
 21
896.1078029323271
 31
0.0
  0
TEXT
  5
65
330
1F
100
AcDbEntity
  8
C-4
  6
Continuous
 62
     2
370
   211
100
AcDbText
 10
-620.761749239998
 20
663.6078792262722
 30
0.0
 40
30.48
  1
350
 50
90.0
 41
1.083333333333333
  7
ＭＳ ゴシック
100
AcDbText
  0
LWPOLYLINE
  5
66
330
1F
100
AcDbEntity
  8
C-4
  6
Continuous
 62
     7
370
     9
100
AcDbPolyline
 90
        4
 70
     1
 43
1.0
 10
-608.6217490015795
 20
871.1079555202175
 42
0.4142135623731
 10
-609.1217490015795
 20
871.6079555202175
 42
0.4142135623731
 10
-609.6217490015795
 20
871.1079555202175
 42
0.4142135623731
 10
-609.1217490015795
 20
870.6079555202176
 42
0.4142135623731
  0
LINE
  5
67
330
1F
100
AcDbEntity
  8
C-4
  6
Continuous
 62
     7
370
     9
100
AcDbLine
 10
-609.1217490015795
 20
521.107802932327
 30
0.0
 11
-609.1217490015795
 21
871.1079555202177
 31
0.0
  0
LWPOLYLINE
  5
68
330
1F
100
AcDbEntity
  8
C-4
  6
Continuous
 62
     7
370
     9
100
AcDbPolyline
 90
        4
 70
     1
 43
1.0
 10
-608.6217490015795
 20
521.107802932327
 42
0.4142135623731
 10
-609.1217490015795
 20
521.607802932327
 42
0.4142135623731
 10
-609.6217490015795
 20
521.107802932327
 42
0.4142135623731
 10
-609.1217490015795
 20
520.607802932327
 42
0.4142135623731
  0
LWPOLYLINE
  5
69
330
1F
100
AcDbEntity
  8
C-4
  6
Continuous
 62
     7
370
     9
100
AcDbPolyline
 90
        4
 70
     1
 43
1.0
 10
-608.6217490015795
 20
496.107932632034
 42
0.4142135623731
 10
-609.1217490015795
 20
496.607932632034
 42
0.4142135623731
 10
-609.6217490015795
 20
496.107932632034
 42
0.4142135623731
 10
-609.1217490015795
 20
495.607932632034
 42
0.4142135623731
  0
LINE
  5
6A
330
1F
100
AcDbEntity
  8
C-4
  6
Continuous
 62
     7
370
     9
100
AcDbLine
 10
-609.1217490015795
 20
496.107932632034
 30
0.0
 11
-609.1217490015795
 21
521.107802932327
 31
0.0
  0
LWPOLYLINE
  5
6B
330
1F
100
AcDbEntity
  8
C-4
  6
Continuous
 62
     7
370
     9
100
AcDbPolyline
 90
        4
 70
     1
 43
1.0
 10
-663.6212607203297
 20
897.1076808620146
 42
0.4142135623731
 10
-664.1212607203296
 20
897.6076808620145
 42
0.4142135623731
 10
-664.6212607203296
 20
897.1076808620146
 42
0.4142135623731
 10
-664.1212607203296
 20
896.6076808620146
 42
0.4142135623731
  0
LINE
  5
6C
330
1F
100
AcDbEntity
  8
C-4
  6
Continuous
 62
     7
370
     9
100
AcDbLine
 10
-664.1212607203296
 20
896.1078029323271
 30
0.0
 11
-664.1212607203296
 21
897.1076808620146
 31
0.0
  0
TEXT
  5
6D
330
1F
100
AcDbEntity
  8
C-4
  6
Continuous
 62
     2
370
   211
100
AcDbText
 10
-675.7612609587482
 20
663.6078677821806
 30
0.0
 40
30.48
  1
400
 50
90.0
 41
1.083333333333333
  7
ＭＳ ゴシック
100
AcDbText
  0
LWPOLYLINE
  5
6E
330
1F
100
AcDbEntity
  8
C-4
  6
Continuous
 62
     7
370
     9
100
AcDbPolyline
 90
        4
 70
     1
 43
1.0
 10
-663.6212607203297
 20
896.1078029323269
 42
0.4142135623731
 10
-664.1212607203296
 20
896.6078029323269
 42
0.4142135623731
 10
-664.6212607203296
 20
896.1078029323269
 42
0.4142135623731
 10
-664.1212607203296
 20
895.607802932327
 42
0.4142135623731
  0
LINE
  5
6F
330
1F
100
AcDbEntity
  8
C-4
  6
Continuous
 62
     7
370
     9
100
AcDbLine
 10
-664.1212607203296
 20
496.107932632034
 30
0.0
 11
-664.1212607203296
 21
896.1078029323271
 31
0.0
  0
LWPOLYLINE
  5
70
330
1F
100
AcDbEntity
  8
C-4
  6
Continuous
 62
     7
370
     9
100
AcDbPolyline
 90
        4
 70
     1
 43
1.0
 10
-663.6212607203297
 20
496.107932632034
 42
0.4142135623731
 10
-664.1212607203296
 20
496.607932632034
 42
0.4142135623731
 10
-664.6212607203296
 20
496.107932632034
 42
0.4142135623731
 10
-664.1212607203296
 20
495.607932632034
 42
0.4142135623731
  0
LINE
  5
71
330
1F
100
AcDbEntity
  8
C-4
  6
Continuous
 62
     7
370
     9
100
AcDbLine
 10
-664.1212607203296
 20
495.1075816798856
 30
0.0
 11
-664.1212607203296
 21
496.107932632034
 31
0.0
  0
LWPOLYLINE
  5
72
330
1F
100
AcDbEntity
  8
C-4
  6
Continuous
 62
     7
370
     9
100
AcDbPolyline
 90
        4
 70
     1
 43
1.0
 10
-663.6212607203297
 20
495.1075816798856
 42
0.4142135623731
 10
-664.1212607203296
 20
495.6075816798856
 42
0.4142135623731
 10
-664.6212607203296
 20
495.1075816798856
 42
0.4142135623731
 10
-664.1212607203296
 20
494.6075816798856
 42
0.4142135623731
  0
TEXT
  5
73
330
1F
100
AcDbEntity
  8
C-4
  6
Continuous
 62
     2
370
   211
100
AcDbText
 10
-620.761749239998
 20
842.3578792262724
 30
0.0
 40
30.48
  1
25
 50
90.0
 41
1.0625
  7
ＭＳ ゴシック
100
AcDbText
  0
TEXT
  5
74
330
1F
100
AcDbEntity
  8
C-4
  6
Continuous
 62
     2
370
   211
100
AcDbText
 10
-182.871390420037
 20
987.747742135589
 30
0.0
 40
30.48
  1
25
 41
1.0625
  7
ＭＳ ゴシック
100
AcDbText
  0
LINE
  5
75
330
1F
100
AcDbEntity
  8
C-A
  6
Continuous
 62
     3
370
     9
100
AcDbLine
 10
-213.6211920557793
 20
799.6433253932641
 30
0.0
 11
-204.6214972315605
 21
799.6433253932641
 31
0.0
  0
LINE
  5
76
330
1F
100
AcDbEntity
  8
C-A
  6
Continuous
 62
     3
370
     9
100
AcDbLine
 10
-213.6211920557793
 20
796.1078029323269
 30
0.0
 11
-204.6214972315605
 21
796.1078029323269
 31
0.0
  0
LINE
  5
77
330
1F
100
AcDbEntity
  8
C-A
  6
Continuous
 62
     3
370
     9
100
AcDbLine
 10
-213.6211920557793
 20
792.5722804713894
 30
0.0
 11
-204.6214972315605
 21
792.5722804713894
 31
0.0
  0
LINE
  5
78
330
1F
100
AcDbEntity
  8
C-A
  6
Continuous
 62
     3
370
     9
100
AcDbLine
 10
-228.621131020623
 20
799.6433253932641
 30
0.0
 11
-219.6214361964041
 21
799.6433253932641
 31
0.0
  0
LINE
  5
79
330
1F
100
AcDbEntity
  8
C-A
  6
Continuous
 62
     3
370
     9
100
AcDbLine
 10
-228.621131020623
 20
796.1078029323269
 30
0.0
 11
-219.6214361964041
 21
796.1078029323269
 31
0.0
  0
LINE
  5
7A
330
1F
100
AcDbEntity
  8
C-A
  6
Continuous
 62
     3
370
     9
100
AcDbLine
 10
-228.621131020623
 20
792.5722804713894
 30
0.0
 11
-219.6214361964041
 21
792.5722804713894
 31
0.0
  0
LINE
  5
7B
330
1F
100
AcDbEntity
  8
C-A
  6
Continuous
 62
     3
370
     9
100
AcDbLine
 10
-243.621131020623
 20
799.6433253932641
 30
0.0
 11
-234.6214361964041
 21
799.6433253932641
 31
0.0
  0
LINE
  5
7C
330
1F
100
AcDbEntity
  8
C-A
  6
Continuous
 62
     3
370
     9
100
AcDbLine
 10
-243.621131020623
 20
796.1078029323269
 30
0.0
 11
-234.6214361964041
 21
796.1078029323269
 31
0.0
  0
LINE
  5
7D
330
1F
100
AcDbEntity
  8
C-A
  6
Continuous
 62
     3
370
     9
100
AcDbLine
 10
-243.621131020623
 20
792.5722804713894
 30
0.0
 11
-234.6214361964041
 21
792.5722804713894
 31
0.0
  0
LINE
  5
7E
330
1F
100
AcDbEntity
  8
C-A
  6
Continuous
 62
     3
370
     9
100
AcDbLine
 10
-258.621131020623
 20
799.6433253932641
 30
0.0
 11
-249.6214361964041
 21
799.6433253932641
 31
0.0
  0
LINE
  5
7F
330
1F
100
AcDbEntity
  8
C-A
  6
Continuous
 62
     3
370
     9
100
AcDbLine
 10
-258.621131020623
 20
796.1078029323269
 30
0.0
 11
-249.6214361964041
 21
796.1078029323269
 31
0.0
  0
LINE
  5
80
330
1F
100
AcDbEntity
  8
C-A
  6
Continuous
 62
     3
370
     9
100
AcDbLine
 10
-258.621131020623
 20
792.5722804713894
 30
0.0
 11
-249.6214361964041
 21
792.5722804713894
 31
0.0
  0
LINE
  5
81
330
1F
100
AcDbEntity
  8
C-A
  6
Continuous
 62
     3
370
     9
100
AcDbLine
 10
-273.6211005030448
 20
799.6433253932641
 30
0.0
 11
-264.6214056788261
 21
799.6433253932641
 31
0.0
  0
LINE
  5
82
330
1F
100
AcDbEntity
  8
C-A
  6
Continuous
 62
     3
370
     9
100
AcDbLine
 10
-273.6211005030448
 20
796.1078029323269
 30
0.0
 11
-264.6214056788261
 21
796.1078029323269
 31
0.0
  0
LINE
  5
83
330
1F
100
AcDbEntity
  8
C-A
  6
Continuous
 62
     3
370
     9
100
AcDbLine
 10
-273.6211005030448
 20
792.5722804713894
 30
0.0
 11
-264.6214056788261
 21
792.5722804713894
 31
0.0
  0
LINE
  5
84
330
1F
100
AcDbEntity
  8
C-A
  6
Continuous
 62
     3
370
     9
100
AcDbLine
 10
-288.6211005030448
 20
799.6433253932641
 30
0.0
 11
-279.6214056788261
 21
799.6433253932641
 31
0.0
  0
LINE
  5
85
330
1F
100
AcDbEntity
  8
C-A
  6
Continuous
 62
     3
370
     9
100
AcDbLine
 10
-288.6211005030448
 20
796.1078029323269
 30
0.0
 11
-279.6214056788261
 21
796.1078029323269
 31
0.0
  0
LINE
  5
86
330
1F
100
AcDbEntity
  8
C-A
  6
Continuous
 62
     3
370
     9
100
AcDbLine
 10
-288.6211005030448
 20
792.5722804713894
 30
0.0
 11
-279.6214056788261
 21
792.5722804713894
 31
0.0
  0
LINE
  5
87
330
1F
100
AcDbEntity
  8
C-A
  6
Continuous
 62
     3
370
     9
100
AcDbLine
 10
-303.6211005030448
 20
799.6433253932641
 30
0.0
 11
-294.6214056788261
 21
799.6433253932641
 31
0.0
  0
LINE
  5
88
330
1F
100
AcDbEntity
  8
C-A
  6
Continuous
 62
     3
370
     9
100
AcDbLine
 10
-303.6211005030448
 20
796.1078029323269
 30
0.0
 11
-294.6214056788261
 21
796.1078029323269
 31
0.0
  0
LINE
  5
89
330
1F
100
AcDbEntity
  8
C-A
  6
Continuous
 62
     3
370
     9
100
AcDbLine
 10
-303.6211005030448
 20
792.5722804713894
 30
0.0
 11
-294.6214056788261
 21
792.5722804713894
 31
0.0
  0
LINE
  5
8A
330
1F
100
AcDbEntity
  8
C-A
  6
Continuous
 62
     3
370
     9
100
AcDbLine
 10
-318.6211005030448
 20
799.6433253932641
 30
0.0
 11
-309.6214056788261
 21
799.6433253932641
 31
0.0
  0
LINE
  5
8B
330
1F
100
AcDbEntity
  8
C-A
  6
Continuous
 62
     3
370
     9
100
AcDbLine
 10
-318.6211005030448
 20
796.1078029323269
 30
0.0
 11
-309.6214056788261
 21
796.1078029323269
 31
0.0
  0
LINE
  5
8C
330
1F
100
AcDbEntity
  8
C-A
  6
Continuous
 62
     3
370
     9
100
AcDbLine
 10
-318.6211005030448
 20
792.5722804713894
 30
0.0
 11
-309.6214056788261
 21
792.5722804713894
 31
0.0
  0
LINE
  5
8D
330
1F
100
AcDbEntity
  8
C-A
  6
Continuous
 62
     3
370
     9
100
AcDbLine
 10
-333.6211005030448
 20
799.6433253932641
 30
0.0
 11
-324.6214056788261
 21
799.6433253932641
 31
0.0
  0
LINE
  5
8E
330
1F
100
AcDbEntity
  8
C-A
  6
Continuous
 62
     3
370
     9
100
AcDbLine
 10
-333.6211005030448
 20
796.1078029323269
 30
0.0
 11
-324.6214056788261
 21
796.1078029323269
 31
0.0
  0
LINE
  5
8F
330
1F
100
AcDbEntity
  8
C-A
  6
Continuous
 62
     3
370
     9
100
AcDbLine
 10
-333.6211005030448
 20
792.5722804713894
 30
0.0
 11
-324.6214056788261
 21
792.5722804713894
 31
0.0
  0
LINE
  5
90
330
1F
100
AcDbEntity
  8
C-A
  6
Continuous
 62
     3
370
     9
100
AcDbLine
 10
-348.6211005030448
 20
799.6433253932641
 30
0.0
 11
-339.6214056788261
 21
799.6433253932641
 31
0.0
  0
LINE
  5
91
330
1F
100
AcDbEntity
  8
C-A
  6
Continuous
 62
     3
370
     9
100
AcDbLine
 10
-348.6211005030448
 20
796.1078029323269
 30
0.0
 11
-339.6214056788261
 21
796.1078029323269
 31
0.0
  0
LINE
  5
92
330
1F
100
AcDbEntity
  8
C-A
  6
Continuous
 62
     3
370
     9
100
AcDbLine
 10
-348.6211005030448
 20
792.5722804713894
 30
0.0
 11
-339.6214056788261
 21
792.5722804713894
 31
0.0
  0
LINE
  5
93
330
1F
100
AcDbEntity
  8
C-A
  6
Continuous
 62
     3
370
     9
100
AcDbLine
 10
-363.6211005030448
 20
799.6433253932641
 30
0.0
 11
-354.6214056788261
 21
799.6433253932641
 31
0.0
  0
LINE
  5
94
330
1F
100
AcDbEntity
  8
C-A
  6
Continuous
 62
     3
370
     9
100
AcDbLine
 10
-363.6211005030448
 20
796.1078029323269
 30
0.0
 11
-354.6214056788261
 21
796.1078029323269
 31
0.0
  0
LINE
  5
95
330
1F
100
AcDbEntity
  8
C-A
  6
Continuous
 62
     3
370
     9
100
AcDbLine
 10
-363.6211005030448
 20
792.5722804713894
 30
0.0
 11
-354.6214056788261
 21
792.5722804713894
 31
0.0
  0
LINE
  5
96
330
1F
100
AcDbEntity
  8
C-A
  6
Continuous
 62
     3
370
     9
100
AcDbLine
 10
-378.6211005030448
 20
799.6433253932641
 30
0.0
 11
-369.621390420037
 21
799.6433253932641
 31
0.0
  0
LINE
  5
97
330
1F
100
AcDbEntity
  8
C-A
  6
Continuous
 62
     3
370
     9
100
AcDbLine
 10
-378.6211005030448
 20
796.1078029323269
 30
0.0
 11
-369.621390420037
 21
796.1078029323269
 31
0.0
  0
LINE
  5
98
330
1F
100
AcDbEntity
  8
C-A
  6
Continuous
 62
     3
370
     9
100
AcDbLine
 10
-378.6211005030448
 20
792.5722804713894
 30
0.0
 11
-369.621390420037
 21
792.5722804713894
 31
0.0
  0
LINE
  5
99
330
1F
100
AcDbEntity
  8
C-A
  6
Continuous
 62
     3
370
     9
100
AcDbLine
 10
-393.6211005030448
 20
799.6433253932641
 30
0.0
 11
-384.621390420037
 21
799.6433253932641
 31
0.0
  0
LINE
  5
9A
330
1F
100
AcDbEntity
  8
C-A
  6
Continuous
 62
     3
370
     9
100
AcDbLine
 10
-393.6211005030448
 20
796.1078029323269
 30
0.0
 11
-384.621390420037
 21
796.1078029323269
 31
0.0
  0
LINE
  5
9B
330
1F
100
AcDbEntity
  8
C-A
  6
Continuous
 62
     3
370
     9
100
AcDbLine
 10
-393.6211005030448
 20
792.5722804713894
 30
0.0
 11
-384.621390420037
 21
792.5722804713894
 31
0.0
  0
LINE
  5
9C
330
1F
100
AcDbEntity
  8
C-A
  6
Continuous
 62
     3
370
     9
100
AcDbLine
 10
-408.6211005030448
 20
799.6433253932641
 30
0.0
 11
-399.621390420037
 21
799.6433253932641
 31
0.0
  0
LINE
  5
9D
330
1F
100
AcDbEntity
  8
C-A
  6
Continuous
 62
     3
370
     9
100
AcDbLine
 10
-408.6211005030448
 20
796.1078029323269
 30
0.0
 11
-399.621390420037
 21
796.1078029323269
 31
0.0
  0
LINE
  5
9E
330
1F
100
AcDbEntity
  8
C-A
  6
Continuous
 62
     3
370
     9
100
AcDbLine
 10
-408.6211005030448
 20
792.5722804713894
 30
0.0
 11
-399.621390420037
 21
792.5722804713894
 31
0.0
  0
LINE
  5
9F
330
1F
100
AcDbEntity
  8
C-A
  6
Continuous
 62
     3
370
     9
100
AcDbLine
 10
-423.6211005030448
 20
799.6433253932641
 30
0.0
 11
-414.621390420037
 21
799.6433253932641
 31
0.0
  0
LINE
  5
A0
330
1F
100
AcDbEntity
  8
C-A
  6
Continuous
 62
     3
370
     9
100
AcDbLine
 10
-423.6211005030448
 20
796.1078029323269
 30
0.0
 11
-414.621390420037
 21
796.1078029323269
 31
0.0
  0
LINE
  5
A1
330
1F
100
AcDbEntity
  8
C-A
  6
Continuous
 62
     3
370
     9
100
AcDbLine
 10
-423.6211005030448
 20
792.5722804713894
 30
0.0
 11
-414.621390420037
 21
792.5722804713894
 31
0.0
  0
LINE
  5
A2
330
1F
100
AcDbEntity
  8
C-A
  6
Continuous
 62
     3
370
     9
100
AcDbLine
 10
-438.6211005030448
 20
799.6433253932641
 30
0.0
 11
-429.621390420037
 21
799.6433253932641
 31
0.0
  0
LINE
  5
A3
330
1F
100
AcDbEntity
  8
C-A
  6
Continuous
 62
     3
370
     9
100
AcDbLine
 10
-438.6211005030448
 20
796.1078029323269
 30
0.0
 11
-429.621390420037
 21
796.1078029323269
 31
0.0
  0
LINE
  5
A4
330
1F
100
AcDbEntity
  8
C-A
  6
Continuous
 62
     3
370
     9
100
AcDbLine
 10
-438.6211005030448
 20
792.5722804713894
 30
0.0
 11
-429.621390420037
 21
792.5722804713894
 31
0.0
  0
LINE
  5
A5
330
1F
100
AcDbEntity
  8
C-A
  6
Continuous
 62
     3
370
     9
100
AcDbLine
 10
-453.6211005030448
 20
799.6433253932641
 30
0.0
 11
-444.621390420037
 21
799.6433253932641
 31
0.0
  0
LINE
  5
A6
330
1F
100
AcDbEntity
  8
C-A
  6
Continuous
 62
     3
370
     9
100
AcDbLine
 10
-453.6211005030448
 20
796.1078029323269
 30
0.0
 11
-444.621390420037
 21
796.1078029323269
 31
0.0
  0
LINE
  5
A7
330
1F
100
AcDbEntity
  8
C-A
  6
Continuous
 62
     3
370
     9
100
AcDbLine
 10
-453.6211005030448
 20
792.5722804713894
 30
0.0
 11
-444.621390420037
 21
792.5722804713894
 31
0.0
  0
LINE
  5
A8
330
1F
100
AcDbEntity
  8
C-A
  6
Continuous
 62
     3
370
     9
100
AcDbLine
 10
-468.6211005030448
 20
799.6433253932641
 30
0.0
 11
-459.621390420037
 21
799.6433253932641
 31
0.0
  0
LINE
  5
A9
330
1F
100
AcDbEntity
  8
C-A
  6
Continuous
 62
     3
370
     9
100
AcDbLine
 10
-468.6211005030448
 20
796.1078029323269
 30
0.0
 11
-459.621390420037
 21
796.1078029323269
 31
0.0
  0
LINE
  5
AA
330
1F
100
AcDbEntity
  8
C-A
  6
Continuous
 62
     3
370
     9
100
AcDbLine
 10
-468.6211005030448
 20
792.5722804713894
 30
0.0
 11
-459.621390420037
 21
792.5722804713894
 31
0.0
  0
LINE
  5
AB
330
1F
100
AcDbEntity
  8
C-A
  6
Continuous
 62
     3
370
     9
100
AcDbLine
 10
-483.6211005030448
 20
799.6433253932641
 30
0.0
 11
-474.621390420037
 21
799.6433253932641
 31
0.0
  0
LINE
  5
AC
330
1F
100
AcDbEntity
  8
C-A
  6
Continuous
 62
     3
370
     9
100
AcDbLine
 10
-483.6211005030448
 20
796.1078029323269
 30
0.0
 11
-474.621390420037
 21
796.1078029323269
 31
0.0
  0
LINE
  5
AD
330
1F
100
AcDbEntity
  8
C-A
  6
Continuous
 62
     3
370
     9
100
AcDbLine
 10
-483.6211005030448
 20
792.5722804713894
 30
0.0
 11
-474.621390420037
 21
792.5722804713894
 31
0.0
  0
LINE
  5
AE
330
1F
100
AcDbEntity
  8
C-A
  6
Continuous
 62
     3
370
     9
100
AcDbLine
 10
-498.6210928736503
 20
799.6433253932641
 30
0.0
 11
-489.6213980494315
 21
799.6433253932641
 31
0.0
  0
LINE
  5
AF
330
1F
100
AcDbEntity
  8
C-A
  6
Continuous
 62
     3
370
     9
100
AcDbLine
 10
-498.6210928736503
 20
796.1078029323269
 30
0.0
 11
-489.6213980494315
 21
796.1078029323269
 31
0.0
  0
LINE
  5
B0
330
1F
100
AcDbEntity
  8
C-A
  6
Continuous
 62
     3
370
     9
100
AcDbLine
 10
-498.6210928736503
 20
792.5722804713894
 30
0.0
 11
-489.6213980494315
 21
792.5722804713894
 31
0.0
  0
LINE
  5
B1
330
1F
100
AcDbEntity
  8
C-A
  6
Continuous
 62
     3
370
     9
100
AcDbLine
 10
-513.6210928736502
 20
799.6433253932641
 30
0.0
 11
-504.6213980494315
 21
799.6433253932641
 31
0.0
  0
LINE
  5
B2
330
1F
100
AcDbEntity
  8
C-A
  6
Continuous
 62
     3
370
     9
100
AcDbLine
 10
-513.6210928736502
 20
796.1078029323269
 30
0.0
 11
-504.6213980494315
 21
796.1078029323269
 31
0.0
  0
LINE
  5
B3
330
1F
100
AcDbEntity
  8
C-A
  6
Continuous
 62
     3
370
     9
100
AcDbLine
 10
-513.6210928736502
 20
792.5722804713894
 30
0.0
 11
-504.6213980494315
 21
792.5722804713894
 31
0.0
  0
LINE
  5
B4
330
1F
100
AcDbEntity
  8
C-1
  6
JWW_DASHED3
 62
     2
370
     9
100
AcDbLine
 10
-154.1213141260917
 20
521.107848708694
 30
0.0
 11
-504.1214667139823
 21
521.107848708694
 31
0.0
  0
LINE
  5
B5
330
1F
100
AcDbEntity
  8
C-1
  6
JWW_DASHED3
 62
     2
370
     9
100
AcDbLine
 10
-504.1214667139823
 20
521.107848708694
 30
0.0
 11
-504.1214667139823
 21
871.1074977565456
 31
0.0
  0
LINE
  5
B6
330
1F
100
AcDbEntity
  8
C-1
  6
JWW_DASHED3
 62
     2
370
     9
100
AcDbLine
 10
-504.1214667139823
 20
871.1074977565456
 30
0.0
 11
-154.1213141260917
 21
871.1074977565456
 31
0.0
  0
LINE
  5
B7
330
1F
100
AcDbEntity
  8
C-1
  6
JWW_DASHED3
 62
     2
370
     9
100
AcDbLine
 10
-154.1213141260917
 20
871.1074977565456
 30
0.0
 11
-154.1213141260917
 21
521.107848708694
 31
0.0
  0
LINE
  5
B8
330
1F
100
AcDbEntity
  8
C-2
  6
Continuous
 62
     3
370
     9
100
AcDbLine
 10
-129.1214667139823
 20
896.1078639674829
 30
0.0
 11
-529.1213370142754
 21
896.1078639674829
 31
0.0
  0
LINE
  5
B9
330
1F
100
AcDbEntity
  8
C-1
  6
Continuous
 62
     2
370
     9
100
AcDbLine
 10
-128.1215887842948
 20
897.1076808620146
 30
0.0
 11
-530.1216879664237
 21
897.1076808620146
 31
0.0
  0
LINE
  5
BA
330
1F
100
AcDbEntity
  8
C-2
  6
Continuous
 62
     3
370
     9
100
AcDbLine
 10
-529.1213370142754
 20
496.1077266383816
 30
0.0
 11
-129.1214667139823
 21
496.1077266383816
 31
0.0
  0
LINE
  5
BB
330
1F
100
AcDbEntity
  8
C-1
  6
Continuous
 62
     2
370
     9
100
AcDbLine
 10
-128.1215887842948
 20
897.1076808620146
 30
0.0
 11
-128.1215887842948
 21
495.1076198268581
 31
0.0
  0
LINE
  5
BC
330
1F
100
AcDbEntity
  8
C-1
  6
Continuous
 62
     2
370
     9
100
AcDbLine
 10
-530.1216879664237
 20
495.1076198268581
 30
0.0
 11
-128.1215887842948
 21
495.1076198268581
 31
0.0
  0
LINE
  5
BD
330
1F
100
AcDbEntity
  8
C-5
  6
Continuous
 62
     7
370
     9
100
AcDbLine
 10
-41.62119205577916
 20
388.1076656032252
 30
0.0
 11
-41.62119205577916
 21
323.1081081081081
 31
0.0
  0
LINE
  5
BE
330
1F
100
AcDbEntity
  8
C-5
  6
Continuous
 62
     7
370
     9
100
AcDbLine
 10
-41.62119205577916
 20
323.1081081081081
 30
0.0
 11
-616.6216193018729
 21
323.1081081081081
 31
0.0
  0
LINE
  5
BF
330
1F
100
AcDbEntity
  8
C-5
  6
Continuous
 62
     7
370
     9
100
AcDbLine
 10
-616.6216193018729
 20
388.1076656032252
 30
0.0
 11
-41.62119205577916
 21
388.1076656032252
 31
0.0
  0
LINE
  5
C0
330
1F
100
AcDbEntity
  8
C-5
  6
Continuous
 62
     7
370
     9
100
AcDbLine
 10
-616.6216193018729
 20
323.1081081081081
 30
0.0
 11
-616.6216193018729
 21
388.1076656032252
 31
0.0
  0
LINE
  5
C1
330
1F
100
AcDbEntity
  8
C-A
  6
Continuous
 62
     3
370
     9
100
AcDbLine
 10
-129.1214667139823
 20
893.1073146510769
 30
0.0
 11
-529.1213370142754
 21
893.1073146510769
 31
0.0
  0
LINE
  5
C2
330
1F
100
AcDbEntity
  8
C-A
  6
Continuous
 62
     3
370
     9
100
AcDbLine
 10
-384.6208411036308
 20
893.1073146510769
 30
0.0
 11
-384.6208411036308
 21
499.1082912135769
 31
0.0
  0
LINE
  5
C3
330
1F
100
AcDbEntity
  8
C-A
  6
Continuous
 62
     3
370
     9
100
AcDbLine
 10
-378.6207037745293
 20
893.1073146510769
 30
0.0
 11
-378.6207037745293
 21
499.1082912135769
 31
0.0
  0
LINE
  5
C4
330
1F
100
AcDbEntity
  8
C-A
  6
Continuous
 62
     3
370
     9
100
AcDbLine
 10
-399.6211462794121
 20
893.1073146510769
 30
0.0
 11
-399.6211462794121
 21
499.1082912135769
 31
0.0
  0
LINE
  5
C5
330
1F
100
AcDbEntity
  8
C-A
  6
Continuous
 62
     3
370
     9
100
AcDbLine
 10
-393.6210242090995
 20
893.1073146510769
 30
0.0
 11
-393.6210242090995
 21
499.1082912135769
 31
0.0
  0
LINE
  5
C6
330
1F
100
AcDbEntity
  8
C-A
  6
Continuous
 62
     3
370
     9
100
AcDbLine
 10
-414.6209784327323
 20
893.1073146510769
 30
0.0
 11
-414.6209784327323
 21
499.1082912135769
 31
0.0
  0
LINE
  5
C7
330
1F
100
AcDbEntity
  8
C-A
  6
Continuous
 62
     3
370
     9
100
AcDbLine
 10
-408.6208411036307
 20
893.1073146510769
 30
0.0
 11
-408.6208411036307
 21
499.1082912135769
 31
0.0
  0
LINE
  5
C8
330
1F
100
AcDbEntity
  8
C-A
  6
Continuous
 62
     3
370
     9
100
AcDbLine
 10
-429.6207953272636
 20
893.1073146510769
 30
0.0
 11
-429.6207953272636
 21
499.1082912135769
 31
0.0
  0
LINE
  5
C9
330
1F
100
AcDbEntity
  8
C-A
  6
Continuous
 62
     3
370
     9
100
AcDbLine
 10
-423.6206732569511
 20
893.1073146510769
 30
0.0
 11
-423.6206732569511
 21
499.1082912135769
 31
0.0
  0
LINE
  5
CA
330
1F
100
AcDbEntity
  8
C-A
  6
Continuous
 62
     3
370
     9
100
AcDbLine
 10
-444.6211157618339
 20
893.1073146510769
 30
0.0
 11
-444.6211157618339
 21
499.1082912135769
 31
0.0
  0
LINE
  5
CB
330
1F
100
AcDbEntity
  8
C-A
  6
Continuous
 62
     3
370
     9
100
AcDbLine
 10
-438.6209936915213
 20
893.1073146510769
 30
0.0
 11
-438.6209936915213
 21
499.1082912135769
 31
0.0
  0
LINE
  5
CC
330
1F
100
AcDbEntity
  8
C-A
  6
Continuous
 62
     3
370
     9
100
AcDbLine
 10
-459.6209326563651
 20
893.1073146510769
 30
0.0
 11
-459.6209326563651
 21
499.1082912135769
 31
0.0
  0
LINE
  5
CD
330
1F
100
AcDbEntity
  8
C-A
  6
Continuous
 62
     3
370
     9
100
AcDbLine
 10
-453.6208105860527
 20
893.1073146510769
 30
0.0
 11
-453.6208105860527
 21
499.1082912135769
 31
0.0
  0
LINE
  5
CE
330
1F
100
AcDbEntity
  8
C-A
  6
Continuous
 62
     3
370
     9
100
AcDbLine
 10
-474.6212530909355
 20
893.1073146510769
 30
0.0
 11
-474.6212530909355
 21
499.1082912135769
 31
0.0
  0
LINE
  5
CF
330
1F
100
AcDbEntity
  8
C-A
  6
Continuous
 62
     3
370
     9
100
AcDbLine
 10
-468.621131020623
 20
893.1073146510769
 30
0.0
 11
-468.621131020623
 21
499.1082912135769
 31
0.0
  0
LINE
  5
D0
330
1F
100
AcDbEntity
  8
C-A
  6
Continuous
 62
     3
370
     9
100
AcDbLine
 10
-489.6210776148612
 20
893.1073146510769
 30
0.0
 11
-489.6210776148612
 21
499.1082912135769
 31
0.0
  0
LINE
  5
D1
330
1F
100
AcDbEntity
  8
C-A
  6
Continuous
 62
     3
370
     9
100
AcDbLine
 10
-483.6209479151541
 20
893.1073146510769
 30
0.0
 11
-483.6209479151541
 21
499.1082912135769
 31
0.0
  0
LINE
  5
D2
330
1F
100
AcDbEntity
  8
C-A
  6
Continuous
 62
     3
370
     9
100
AcDbLine
 10
-504.620902138787
 20
893.1073146510769
 30
0.0
 11
-504.620902138787
 21
499.1082912135769
 31
0.0
  0
LINE
  5
D3
330
1F
100
AcDbEntity
  8
C-A
  6
Continuous
 62
     3
370
     9
100
AcDbLine
 10
-498.62077243908
 20
893.1073146510769
 30
0.0
 11
-498.62077243908
 21
499.1082912135769
 31
0.0
  0
LINE
  5
D4
330
1F
100
AcDbEntity
  8
C-A
  6
Continuous
 62
     3
370
     9
100
AcDbLine
 10
-519.6212149439629
 20
893.1073146510769
 30
0.0
 11
-519.6212149439629
 21
499.1082912135769
 31
0.0
  0
LINE
  5
D5
330
1F
100
AcDbEntity
  8
C-A
  6
Continuous
 62
     3
370
     9
100
AcDbLine
 10
-513.6210928736502
 20
893.1073146510769
 30
0.0
 11
-513.6210928736502
 21
499.1082912135769
 31
0.0
  0
LINE
  5
D6
330
1F
100
AcDbEntity
  8
C-5
  6
Continuous
 62
     7
370
     9
100
AcDbLine
 10
-425.9696875391776
 20
543.7408595729519
 30
0.0
 11
-225.9687567530449
 21
543.7408595729519
 31
0.0
  0
LINE
  5
D7
330
1F
100
AcDbEntity
  8
C-5
  6
Continuous
 62
     7
370
     9
100
AcDbLine
 10
-225.9687567530449
 20
543.7408595729519
 30
0.0
 11
-225.9687567530449
 21
633.5059352565454
 31
0.0
  0
LINE
  5
D8
330
1F
100
AcDbEntity
  8
C-5
  6
Continuous
 62
     7
370
     9
100
AcDbLine
 10
-225.9687567530449
 20
633.5059352565454
 30
0.0
 11
-205.9696417628103
 21
583.5061793971706
 31
0.0
  0
LINE
  5
D9
330
1F
100
AcDbEntity
  8
C-5
  6
Continuous
 62
     7
370
     9
100
AcDbLine
 10
-205.9696417628103
 20
583.5061793971706
 30
0.0
 11
-236.2358465967948
 21
583.5061793971706
 31
0.0
  0
LINE
  5
DA
330
1F
100
AcDbEntity
  8
C-A
  6
Continuous
 62
     3
370
     9
100
AcDbLine
 10
-379.121634560662
 20
496.1079707790066
 30
0.0
 11
-129.1214667139823
 21
746.1076503444363
 31
0.0
  0
LINE
  5
DB
330
1F
100
AcDbEntity
  8
C-A
  6
Continuous
 62
     3
370
     9
100
AcDbLine
 10
-144.6211920557792
 20
893.1073146510769
 30
0.0
 11
-144.6211920557792
 21
730.6078944850611
 31
0.0
  0
LINE
  5
DC
330
1F
100
AcDbEntity
  8
C-A
  6
Continuous
 62
     3
370
     9
100
AcDbLine
 10
-138.6210699854666
 20
893.1073146510769
 30
0.0
 11
-138.6210699854666
 21
736.6080165553738
 31
0.0
  0
LINE
  5
DD
330
1F
100
AcDbEntity
  8
C-A
  6
Continuous
 62
     3
370
     9
100
AcDbLine
 10
-159.6210394678886
 20
893.1073146510769
 30
0.0
 11
-159.6210394678886
 21
715.60807759053
 31
0.0
  0
LINE
  5
DE
330
1F
100
AcDbEntity
  8
C-A
  6
Continuous
 62
     3
370
     9
100
AcDbLine
 10
-153.620886879998
 20
893.1073146510769
 30
0.0
 11
-153.620886879998
 21
721.6081996608423
 31
0.0
  0
LINE
  5
DF
330
1F
100
AcDbEntity
  8
C-A
  6
Continuous
 62
     3
370
     9
100
AcDbLine
 10
-174.6213446436698
 20
893.1073146510769
 30
0.0
 11
-174.6213446436698
 21
700.6077724147488
 31
0.0
  0
LINE
  5
E0
330
1F
100
AcDbEntity
  8
C-A
  6
Continuous
 62
     3
370
     9
100
AcDbLine
 10
-168.6212225733573
 20
893.1073146510769
 30
0.0
 11
-168.6212225733573
 21
706.607894485061
 31
0.0
  0
LINE
  5
E1
330
1F
100
AcDbEntity
  8
C-A
  6
Continuous
 62
     3
370
     9
100
AcDbLine
 10
-189.6211615382011
 20
893.1073146510769
 30
0.0
 11
-189.6211615382011
 21
685.6081996608424
 31
0.0
  0
LINE
  5
E2
330
1F
100
AcDbEntity
  8
C-A
  6
Continuous
 62
     3
370
     9
100
AcDbLine
 10
-204.6214972315605
 20
893.1073146510769
 30
0.0
 11
-204.6214972315605
 21
670.6078639674831
 31
0.0
  0
LINE
  5
E3
330
1F
100
AcDbEntity
  8
C-A
  6
Continuous
 62
     3
370
     9
100
AcDbLine
 10
-198.6213446436699
 20
893.1073146510769
 30
0.0
 11
-198.6213446436699
 21
676.6079860377956
 31
0.0
  0
LINE
  5
E4
330
1F
100
AcDbEntity
  8
C-A
  6
Continuous
 62
     3
370
     9
100
AcDbLine
 10
-219.6213141260917
 20
893.1073146510769
 30
0.0
 11
-219.6213141260917
 21
655.6080470729518
 31
0.0
  0
LINE
  5
E5
330
1F
100
AcDbEntity
  8
C-A
  6
Continuous
 62
     3
370
     9
100
AcDbLine
 10
-213.6211920557793
 20
893.1073146510769
 30
0.0
 11
-213.6211920557793
 21
661.6081691432644
 31
0.0
  0
LINE
  5
E6
330
1F
100
AcDbEntity
  8
C-A
  6
Continuous
 62
     3
370
     9
100
AcDbLine
 10
-234.6211310206229
 20
893.1073146510769
 30
0.0
 11
-234.6211310206229
 21
640.6082301784206
 31
0.0
  0
LINE
  5
E7
330
1F
100
AcDbEntity
  8
C-A
  6
Continuous
 62
     3
370
     9
100
AcDbLine
 10
-228.6210089503103
 20
893.1073146510769
 30
0.0
 11
-228.6210089503103
 21
646.6083522487329
 31
0.0
  0
LINE
  5
E8
330
1F
100
AcDbEntity
  8
C-A
  6
Continuous
 62
     3
370
     9
100
AcDbLine
 10
-249.6209479151543
 20
893.1073146510769
 30
0.0
 11
-249.6209479151543
 21
625.6084132838894
 31
0.0
  0
LINE
  5
E9
330
1F
100
AcDbEntity
  8
C-A
  6
Continuous
 62
     3
370
     9
100
AcDbLine
 10
-243.6208258448417
 20
893.1073146510769
 30
0.0
 11
-243.6208258448417
 21
631.6085353542019
 31
0.0
  0
LINE
  5
EA
330
1F
100
AcDbEntity
  8
C-A
  6
Continuous
 62
     3
370
     9
100
AcDbLine
 10
-264.6207648096853
 20
893.1073146510769
 30
0.0
 11
-264.6207648096853
 21
610.60856587178
 31
0.0
  0
LINE
  5
EB
330
1F
100
AcDbEntity
  8
C-A
  6
Continuous
 62
     3
370
     9
100
AcDbLine
 10
-258.6206427393729
 20
893.1073146510769
 30
0.0
 11
-258.6206427393729
 21
616.6087184596705
 31
0.0
  0
LINE
  5
EC
330
1F
100
AcDbEntity
  8
C-A
  6
Continuous
 62
     3
370
     9
100
AcDbLine
 10
-279.6211005030449
 20
893.1073146510769
 30
0.0
 11
-279.6211005030449
 21
595.6082606959988
 31
0.0
  0
LINE
  5
ED
330
1F
100
AcDbEntity
  8
C-A
  6
Continuous
 62
     3
370
     9
100
AcDbLine
 10
-273.6209479151541
 20
893.1073146510769
 30
0.0
 11
-273.6209479151541
 21
601.6083827663113
 31
0.0
  0
LINE
  5
EE
330
1F
100
AcDbEntity
  8
C-A
  6
Continuous
 62
     3
370
     9
100
AcDbLine
 10
-294.620917397576
 20
893.1073146510769
 30
0.0
 11
-294.620917397576
 21
580.6084438014673
 31
0.0
  0
LINE
  5
EF
330
1F
100
AcDbEntity
  8
C-A
  6
Continuous
 62
     3
370
     9
100
AcDbLine
 10
-288.6207953272635
 20
893.1073146510769
 30
0.0
 11
-288.6207953272635
 21
586.6085658717799
 31
0.0
  0
LINE
  5
F0
330
1F
100
AcDbEntity
  8
C-A
  6
Continuous
 62
     3
370
     9
100
AcDbLine
 10
-309.6207342921073
 20
893.1073146510769
 30
0.0
 11
-309.6207342921073
 21
565.6086116481472
 31
0.0
  0
LINE
  5
F1
330
1F
100
AcDbEntity
  8
C-A
  6
Continuous
 62
     3
370
     9
100
AcDbLine
 10
-303.6206122217948
 20
893.1073146510769
 30
0.0
 11
-303.6206122217948
 21
571.6087489772488
 31
0.0
  0
LINE
  5
F2
330
1F
100
AcDbEntity
  8
C-A
  6
Continuous
 62
     3
370
     9
100
AcDbLine
 10
-324.6210394678886
 20
893.1073146510769
 30
0.0
 11
-324.6210394678886
 21
550.6085506129909
 31
0.0
  0
LINE
  5
F3
330
1F
100
AcDbEntity
  8
C-A
  6
Continuous
 62
     3
370
     9
100
AcDbLine
 10
-318.620917397576
 20
893.1073146510769
 30
0.0
 11
-318.620917397576
 21
556.6084285426782
 31
0.0
  0
LINE
  5
F4
330
1F
100
AcDbEntity
  8
C-A
  6
Continuous
 62
     3
370
     9
100
AcDbLine
 10
-339.620886879998
 20
893.1073146510769
 30
0.0
 11
-339.620886879998
 21
535.6087337184596
 31
0.0
  0
LINE
  5
F5
330
1F
100
AcDbEntity
  8
C-A
  6
Continuous
 62
     3
370
     9
100
AcDbLine
 10
-333.6207342921074
 20
893.1073146510769
 30
0.0
 11
-333.6207342921074
 21
541.6088557887722
 31
0.0
  0
LINE
  5
F6
330
1F
100
AcDbEntity
  8
C-A
  6
Continuous
 62
     3
370
     9
100
AcDbLine
 10
-354.6211920557792
 20
893.1073146510769
 30
0.0
 11
-354.6211920557792
 21
520.6084132838894
 31
0.0
  0
LINE
  5
F7
330
1F
100
AcDbEntity
  8
C-A
  6
Continuous
 62
     3
370
     9
100
AcDbLine
 10
-348.6210699854666
 20
893.1073146510769
 30
0.0
 11
-348.6210699854666
 21
526.6085353542019
 31
0.0
  0
LINE
  5
F8
330
1F
100
AcDbEntity
  8
C-A
  6
Continuous
 62
     3
370
     9
100
AcDbLine
 10
-369.6210089503104
 20
893.1073146510769
 30
0.0
 11
-369.6210089503104
 21
505.608581130569
 31
0.0
  0
LINE
  5
F9
330
1F
100
AcDbEntity
  8
C-A
  6
Continuous
 62
     3
370
     9
100
AcDbLine
 10
-363.620886879998
 20
893.1073146510769
 30
0.0
 11
-363.620886879998
 21
511.6087184596705
 31
0.0
  0
LINE
  5
FA
330
1F
100
AcDbEntity
  8
C-A
  6
Continuous
 62
     3
370
     9
100
AcDbLine
 10
-376.1210699854666
 20
499.1082912135769
 30
0.0
 11
-529.1213370142754
 21
499.1082912135769
 31
0.0
  0
LINE
  5
FB
330
1F
100
AcDbEntity
  8
C-A
  6
Continuous
 62
     6
370
     5
100
AcDbLine
 10
-519.121291237908
 20
887.2419582057646
 30
0.0
 11
-519.121291237908
 21
891.2413478542019
 31
0.0
  0
LINE
  5
FC
330
1F
100
AcDbEntity
  8
C-A
  6
Continuous
 62
     6
370
     5
100
AcDbLine
 10
-519.121291237908
 20
891.2413478542019
 30
0.0
 11
-514.1210165797049
 21
889.7420802760766
 31
0.0
  0
LINE
  5
FD
330
1F
100
AcDbEntity
  8
C-A
  6
Continuous
 62
     6
370
     5
100
AcDbLine
 10
-514.1210165797049
 20
888.7422023463896
 30
0.0
 11
-514.1210165797049
 21
889.7420802760766
 31
0.0
  0
LINE
  5
FE
330
1F
100
AcDbEntity
  8
C-A
  6
Continuous
 62
     6
370
     5
100
AcDbLine
 10
-514.1210165797049
 20
888.7422023463896
 30
0.0
 11
-519.121291237908
 21
887.2419582057646
 31
0.0
  0
LINE
  5
FF
330
1F
100
AcDbEntity
  8
C-A
  6
Continuous
 62
     6
370
     5
100
AcDbLine
 10
-513.6210928736502
 20
888.3696437526394
 30
0.0
 11
-519.6212149439629
 21
886.5700832057641
 31
0.0
  0
LINE
  5
100
330
1F
100
AcDbEntity
  8
C-A
  6
Continuous
 62
     6
370
     5
100
AcDbLine
 10
-519.6212149439629
 20
891.9141994167021
 30
0.0
 11
-513.6210928736502
 21
890.1136623073271
 31
0.0
  0
LINE
  5
101
330
1F
100
AcDbEntity
  8
C-A
  6
Continuous
 62
     6
370
     5
100
AcDbLine
 10
-519.121291237908
 20
866.2419582057644
 30
0.0
 11
-519.121291237908
 21
870.2414088893581
 31
0.0
  0
LINE
  5
102
330
1F
100
AcDbEntity
  8
C-A
  6
Continuous
 62
     6
370
     5
100
AcDbLine
 10
-519.121291237908
 20
870.2414088893581
 30
0.0
 11
-514.1210165797049
 21
868.7421413112329
 31
0.0
  0
LINE
  5
103
330
1F
100
AcDbEntity
  8
C-A
  6
Continuous
 62
     6
370
     5
100
AcDbLine
 10
-514.1210165797049
 20
867.7422633815454
 30
0.0
 11
-514.1210165797049
 21
868.7421413112329
 31
0.0
  0
LINE
  5
104
330
1F
100
AcDbEntity
  8
C-A
  6
Continuous
 62
     6
370
     5
100
AcDbLine
 10
-514.1210165797049
 20
867.7422633815454
 30
0.0
 11
-519.121291237908
 21
866.2419582057644
 31
0.0
  0
LINE
  5
105
330
1F
100
AcDbEntity
  8
C-A
  6
Continuous
 62
     6
370
     5
100
AcDbLine
 10
-513.6210928736502
 20
867.3696437526391
 30
0.0
 11
-519.6212149439629
 21
865.5701442409204
 31
0.0
  0
LINE
  5
106
330
1F
100
AcDbEntity
  8
C-A
  6
Continuous
 62
     6
370
     5
100
AcDbLine
 10
-519.6212149439629
 20
870.9142604518579
 30
0.0
 11
-513.6210928736502
 21
869.1137233424829
 31
0.0
  0
LINE
  5
107
330
1F
100
AcDbEntity
  8
C-A
  6
Continuous
 62
     6
370
     5
100
AcDbLine
 10
-514.1210165797049
 20
876.7419582057644
 30
0.0
 11
-514.1210165797049
 21
880.7414088893584
 31
0.0
  0
LINE
  5
108
330
1F
100
AcDbEntity
  8
C-A
  6
Continuous
 62
     6
370
     5
100
AcDbLine
 10
-514.1210165797049
 20
880.7414088893584
 30
0.0
 11
-519.121291237908
 21
879.2420802760771
 31
0.0
  0
LINE
  5
109
330
1F
100
AcDbEntity
  8
C-A
  6
Continuous
 62
     6
370
     5
100
AcDbLine
 10
-519.121291237908
 20
878.2422633815454
 30
0.0
 11
-519.121291237908
 21
879.2420802760771
 31
0.0
  0
LINE
  5
10A
330
1F
100
AcDbEntity
  8
C-A
  6
Continuous
 62
     6
370
     5
100
AcDbLine
 10
-519.121291237908
 20
878.2422633815454
 30
0.0
 11
-514.1210165797049
 21
876.7419582057644
 31
0.0
  0
LINE
  5
10B
330
1F
100
AcDbEntity
  8
C-A
  6
Continuous
 62
     6
370
     5
100
AcDbLine
 10
-519.6212149439629
 20
877.8696437526391
 30
0.0
 11
-513.6210928736502
 21
876.0700832057646
 31
0.0
  0
LINE
  5
10C
330
1F
100
AcDbEntity
  8
C-A
  6
Continuous
 62
     6
370
     5
100
AcDbLine
 10
-513.6210928736502
 20
881.4142604518579
 30
0.0
 11
-519.6212149439629
 21
879.6137233424829
 31
0.0
  0
LINE
  5
10D
330
1F
100
AcDbEntity
  8
C-A
  6
Continuous
 62
     6
370
     5
100
AcDbLine
 10
-519.121291237908
 20
845.2420192409206
 30
0.0
 11
-519.121291237908
 21
849.2414699245146
 31
0.0
  0
LINE
  5
10E
330
1F
100
AcDbEntity
  8
C-A
  6
Continuous
 62
     6
370
     5
100
AcDbLine
 10
-519.121291237908
 20
849.2414699245146
 30
0.0
 11
-514.1210165797049
 21
847.7422023463894
 31
0.0
  0
LINE
  5
10F
330
1F
100
AcDbEntity
  8
C-A
  6
Continuous
 62
     6
370
     5
100
AcDbLine
 10
-514.1210165797049
 20
846.7423244167016
 30
0.0
 11
-514.1210165797049
 21
847.7422023463894
 31
0.0
  0
LINE
  5
110
330
1F
100
AcDbEntity
  8
C-A
  6
Continuous
 62
     6
370
     5
100
AcDbLine
 10
-514.1210165797049
 20
846.7423244167016
 30
0.0
 11
-519.121291237908
 21
845.2420192409206
 31
0.0
  0
LINE
  5
111
330
1F
100
AcDbEntity
  8
C-A
  6
Continuous
 62
     6
370
     5
100
AcDbLine
 10
-513.6210928736502
 20
846.3697047877954
 30
0.0
 11
-519.6212149439629
 21
844.5702052760769
 31
0.0
  0
LINE
  5
112
330
1F
100
AcDbEntity
  8
C-A
  6
Continuous
 62
     6
370
     5
100
AcDbLine
 10
-519.6212149439629
 20
849.9143214870141
 30
0.0
 11
-513.6210928736502
 21
848.1137843776391
 31
0.0
  0
LINE
  5
113
330
1F
100
AcDbEntity
  8
C-A
  6
Continuous
 62
     6
370
     5
100
AcDbLine
 10
-514.1210165797049
 20
855.7420192409209
 30
0.0
 11
-514.1210165797049
 21
859.7414088893581
 31
0.0
  0
LINE
  5
114
330
1F
100
AcDbEntity
  8
C-A
  6
Continuous
 62
     6
370
     5
100
AcDbLine
 10
-514.1210165797049
 20
859.7414088893581
 30
0.0
 11
-519.121291237908
 21
858.2421413112329
 31
0.0
  0
LINE
  5
115
330
1F
100
AcDbEntity
  8
C-A
  6
Continuous
 62
     6
370
     5
100
AcDbLine
 10
-519.121291237908
 20
857.2422633815459
 30
0.0
 11
-519.121291237908
 21
858.2421413112329
 31
0.0
  0
LINE
  5
116
330
1F
100
AcDbEntity
  8
C-A
  6
Continuous
 62
     6
370
     5
100
AcDbLine
 10
-519.121291237908
 20
857.2422633815459
 30
0.0
 11
-514.1210165797049
 21
855.7420192409209
 31
0.0
  0
LINE
  5
117
330
1F
100
AcDbEntity
  8
C-A
  6
Continuous
 62
     6
370
     5
100
AcDbLine
 10
-519.6212149439629
 20
856.8697047877956
 30
0.0
 11
-513.6210928736502
 21
855.0701442409204
 31
0.0
  0
LINE
  5
118
330
1F
100
AcDbEntity
  8
C-A
  6
Continuous
 62
     6
370
     5
100
AcDbLine
 10
-513.6210928736502
 20
860.4142604518584
 30
0.0
 11
-519.6212149439629
 21
858.6137233424834
 31
0.0
  0
LINE
  5
119
330
1F
100
AcDbEntity
  8
C-A
  6
Continuous
 62
     6
370
     5
100
AcDbLine
 10
-519.121291237908
 20
824.2420802760771
 30
0.0
 11
-519.121291237908
 21
828.2415004420923
 31
0.0
  0
LINE
  5
11A
330
1F
100
AcDbEntity
  8
C-A
  6
Continuous
 62
     6
370
     5
100
AcDbLine
 10
-519.121291237908
 20
828.2415004420923
 30
0.0
 11
-514.1210165797049
 21
826.7422328639677
 31
0.0
  0
LINE
  5
11B
330
1F
100
AcDbEntity
  8
C-A
  6
Continuous
 62
     6
370
     5
100
AcDbLine
 10
-514.1210165797049
 20
825.74235493428
 30
0.0
 11
-514.1210165797049
 21
826.7422328639677
 31
0.0
  0
LINE
  5
11C
330
1F
100
AcDbEntity
  8
C-A
  6
Continuous
 62
     6
370
     5
100
AcDbLine
 10
-514.1210165797049
 20
825.74235493428
 30
0.0
 11
-519.121291237908
 21
824.2420802760771
 31
0.0
  0
LINE
  5
11D
330
1F
100
AcDbEntity
  8
C-A
  6
Continuous
 62
     6
370
     5
100
AcDbLine
 10
-513.6210928736502
 20
825.3697658229519
 30
0.0
 11
-519.6212149439629
 21
823.5702357936552
 31
0.0
  0
LINE
  5
11E
330
1F
100
AcDbEntity
  8
C-A
  6
Continuous
 62
     6
370
     5
100
AcDbLine
 10
-519.6212149439629
 20
828.9143520045925
 30
0.0
 11
-513.6210928736502
 21
827.1138148952175
 31
0.0
  0
LINE
  5
11F
330
1F
100
AcDbEntity
  8
C-A
  6
Continuous
 62
     6
370
     5
100
AcDbLine
 10
-514.1210165797049
 20
834.7420497584985
 30
0.0
 11
-514.1210165797049
 21
838.7414699245144
 31
0.0
  0
LINE
  5
120
330
1F
100
AcDbEntity
  8
C-A
  6
Continuous
 62
     6
370
     5
100
AcDbLine
 10
-514.1210165797049
 20
838.7414699245144
 30
0.0
 11
-519.121291237908
 21
837.2422023463891
 31
0.0
  0
LINE
  5
121
330
1F
100
AcDbEntity
  8
C-A
  6
Continuous
 62
     6
370
     5
100
AcDbLine
 10
-519.121291237908
 20
836.2423244167016
 30
0.0
 11
-519.121291237908
 21
837.2422023463891
 31
0.0
  0
LINE
  5
122
330
1F
100
AcDbEntity
  8
C-A
  6
Continuous
 62
     6
370
     5
100
AcDbLine
 10
-519.121291237908
 20
836.2423244167016
 30
0.0
 11
-514.1210165797049
 21
834.7420497584985
 31
0.0
  0
LINE
  5
123
330
1F
100
AcDbEntity
  8
C-A
  6
Continuous
 62
     6
370
     5
100
AcDbLine
 10
-519.6212149439629
 20
835.8697658229519
 30
0.0
 11
-513.6210928736502
 21
834.0702052760766
 31
0.0
  0
LINE
  5
124
330
1F
100
AcDbEntity
  8
C-A
  6
Continuous
 62
     6
370
     5
100
AcDbLine
 10
-513.6210928736502
 20
839.4143214870141
 30
0.0
 11
-519.6212149439629
 21
837.6137843776391
 31
0.0
  0
LINE
  5
125
330
1F
100
AcDbEntity
  8
C-A
  6
Continuous
 62
     6
370
     5
100
AcDbLine
 10
-519.121291237908
 20
803.2421413112329
 30
0.0
 11
-519.121291237908
 21
807.2415614772488
 31
0.0
  0
LINE
  5
126
330
1F
100
AcDbEntity
  8
C-A
  6
Continuous
 62
     6
370
     5
100
AcDbLine
 10
-519.121291237908
 20
807.2415614772488
 30
0.0
 11
-514.1210165797049
 21
805.7422633815454
 31
0.0
  0
LINE
  5
127
330
1F
100
AcDbEntity
  8
C-A
  6
Continuous
 62
     6
370
     5
100
AcDbLine
 10
-514.1210165797049
 20
804.7424159694365
 30
0.0
 11
-514.1210165797049
 21
805.7422633815454
 31
0.0
  0
LINE
  5
128
330
1F
100
AcDbEntity
  8
C-A
  6
Continuous
 62
     6
370
     5
100
AcDbLine
 10
-514.1210165797049
 20
804.7424159694365
 30
0.0
 11
-519.121291237908
 21
803.2421413112329
 31
0.0
  0
LINE
  5
129
330
1F
100
AcDbEntity
  8
C-A
  6
Continuous
 62
     6
370
     5
100
AcDbLine
 10
-513.6210928736502
 20
804.3698268581081
 30
0.0
 11
-519.6212149439629
 21
802.570296828811
 31
0.0
  0
LINE
  5
12A
330
1F
100
AcDbEntity
  8
C-A
  6
Continuous
 62
     6
370
     5
100
AcDbLine
 10
-519.6212149439629
 20
807.914413039749
 30
0.0
 11
-513.6210928736502
 21
806.113875930374
 31
0.0
  0
LINE
  5
12B
330
1F
100
AcDbEntity
  8
C-A
  6
Continuous
 62
     6
370
     5
100
AcDbLine
 10
-514.1210165797049
 20
813.742110793655
 30
0.0
 11
-514.1210165797049
 21
817.7415309596709
 31
0.0
  0
LINE
  5
12C
330
1F
100
AcDbEntity
  8
C-A
  6
Continuous
 62
     6
370
     5
100
AcDbLine
 10
-514.1210165797049
 20
817.7415309596709
 30
0.0
 11
-519.121291237908
 21
816.2422633815456
 31
0.0
  0
LINE
  5
12D
330
1F
100
AcDbEntity
  8
C-A
  6
Continuous
 62
     6
370
     5
100
AcDbLine
 10
-519.121291237908
 20
815.2423854518579
 30
0.0
 11
-519.121291237908
 21
816.2422633815456
 31
0.0
  0
LINE
  5
12E
330
1F
100
AcDbEntity
  8
C-A
  6
Continuous
 62
     6
370
     5
100
AcDbLine
 10
-519.121291237908
 20
815.2423854518579
 30
0.0
 11
-514.1210165797049
 21
813.742110793655
 31
0.0
  0
LINE
  5
12F
330
1F
100
AcDbEntity
  8
C-A
  6
Continuous
 62
     6
370
     5
100
AcDbLine
 10
-519.6212149439629
 20
814.8697963405298
 30
0.0
 11
-513.6210928736502
 21
813.0702663112331
 31
0.0
  0
LINE
  5
130
330
1F
100
AcDbEntity
  8
C-A
  6
Continuous
 62
     6
370
     5
100
AcDbLine
 10
-513.6210928736502
 20
818.4143825221704
 30
0.0
 11
-519.6212149439629
 21
816.6138454127954
 31
0.0
  0
LINE
  5
131
330
1F
100
AcDbEntity
  8
C-A
  6
Continuous
 62
     6
370
     5
100
AcDbLine
 10
-504.1209708033378
 20
872.7791896510766
 30
0.0
 11
-504.1209708033378
 21
876.7796168971709
 31
0.0
  0
LINE
  5
132
330
1F
100
AcDbEntity
  8
C-A
  6
Continuous
 62
     6
370
     5
100
AcDbLine
 10
-504.1209708033378
 20
876.7796168971709
 30
0.0
 11
-499.1211920557793
 21
875.2793117213891
 31
0.0
  0
LINE
  5
133
330
1F
100
AcDbEntity
  8
C-A
  6
Continuous
 62
     6
370
     5
100
AcDbLine
 10
-499.1211920557793
 20
874.2794948268581
 30
0.0
 11
-499.1211920557793
 21
875.2793117213891
 31
0.0
  0
LINE
  5
134
330
1F
100
AcDbEntity
  8
C-A
  6
Continuous
 62
     6
370
     5
100
AcDbLine
 10
-499.1211920557793
 20
874.2794948268581
 30
0.0
 11
-504.1209708033378
 21
872.7791896510766
 31
0.0
  0
LINE
  5
135
330
1F
100
AcDbEntity
  8
C-A
  6
Continuous
 62
     6
370
     5
100
AcDbLine
 10
-498.6212683497246
 20
873.9078517604516
 30
0.0
 11
-504.620902138787
 21
872.1073756862334
 31
0.0
  0
LINE
  5
136
330
1F
100
AcDbEntity
  8
C-A
  6
Continuous
 62
     6
370
     5
100
AcDbLine
 10
-504.620902138787
 20
877.4514918971706
 30
0.0
 11
-498.6212683497246
 21
875.6519313502954
 31
0.0
  0
LINE
  5
137
330
1F
100
AcDbEntity
  8
C-A
  6
Continuous
 62
     6
370
     5
100
AcDbLine
 10
-499.1211920557793
 20
883.2791896510766
 30
0.0
 11
-499.1211920557793
 21
887.2796168971704
 31
0.0
  0
LINE
  5
138
330
1F
100
AcDbEntity
  8
C-A
  6
Continuous
 62
     6
370
     5
100
AcDbLine
 10
-499.1211920557793
 20
887.2796168971704
 30
0.0
 11
-504.1209708033378
 21
885.7793117213894
 31
0.0
  0
LINE
  5
139
330
1F
100
AcDbEntity
  8
C-A
  6
Continuous
 62
     6
370
     5
100
AcDbLine
 10
-504.1209708033378
 20
884.7794337917016
 30
0.0
 11
-504.1209708033378
 21
885.7793117213894
 31
0.0
  0
LINE
  5
13A
330
1F
100
AcDbEntity
  8
C-A
  6
Continuous
 62
     6
370
     5
100
AcDbLine
 10
-504.1209708033378
 20
884.7794337917016
 30
0.0
 11
-499.1211920557793
 21
883.2791896510766
 31
0.0
  0
LINE
  5
13B
330
1F
100
AcDbEntity
  8
C-A
  6
Continuous
 62
     6
370
     5
100
AcDbLine
 10
-504.620902138787
 20
884.4078517604519
 30
0.0
 11
-498.6212683497246
 21
882.6073146510769
 31
0.0
  0
LINE
  5
13C
330
1F
100
AcDbEntity
  8
C-A
  6
Continuous
 62
     6
370
     5
100
AcDbLine
 10
-498.6212683497246
 20
887.9514308620141
 30
0.0
 11
-504.620902138787
 21
886.1519313502956
 31
0.0
  0
LINE
  5
13D
330
1F
100
AcDbEntity
  8
C-A
  6
Continuous
 62
     6
370
     5
100
AcDbLine
 10
-504.1209708033378
 20
851.7792506862329
 30
0.0
 11
-504.1209708033378
 21
855.7796779323266
 31
0.0
  0
LINE
  5
13E
330
1F
100
AcDbEntity
  8
C-A
  6
Continuous
 62
     6
370
     5
100
AcDbLine
 10
-504.1209708033378
 20
855.7796779323266
 30
0.0
 11
-499.1211920557793
 21
854.2793727565456
 31
0.0
  0
LINE
  5
13F
330
1F
100
AcDbEntity
  8
C-A
  6
Continuous
 62
     6
370
     5
100
AcDbLine
 10
-499.1211920557793
 20
853.2795558620146
 30
0.0
 11
-499.1211920557793
 21
854.2793727565456
 31
0.0
  0
LINE
  5
140
330
1F
100
AcDbEntity
  8
C-A
  6
Continuous
 62
     6
370
     5
100
AcDbLine
 10
-499.1211920557793
 20
853.2795558620146
 30
0.0
 11
-504.1209708033378
 21
851.7792506862329
 31
0.0
  0
LINE
  5
141
330
1F
100
AcDbEntity
  8
C-A
  6
Continuous
 62
     6
370
     5
100
AcDbLine
 10
-498.6212683497246
 20
852.9079127956081
 30
0.0
 11
-504.620902138787
 21
851.1073756862331
 31
0.0
  0
LINE
  5
142
330
1F
100
AcDbEntity
  8
C-A
  6
Continuous
 62
     6
370
     5
100
AcDbLine
 10
-504.620902138787
 20
856.4515529323271
 30
0.0
 11
-498.6212683497246
 21
854.6519923854519
 31
0.0
  0
LINE
  5
143
330
1F
100
AcDbEntity
  8
C-A
  6
Continuous
 62
     6
370
     5
100
AcDbLine
 10
-499.1211920557793
 20
862.2792506862331
 30
0.0
 11
-499.1211920557793
 21
866.2796168971706
 31
0.0
  0
LINE
  5
144
330
1F
100
AcDbEntity
  8
C-A
  6
Continuous
 62
     6
370
     5
100
AcDbLine
 10
-499.1211920557793
 20
866.2796168971706
 30
0.0
 11
-504.1209708033378
 21
864.7793727565456
 31
0.0
  0
LINE
  5
145
330
1F
100
AcDbEntity
  8
C-A
  6
Continuous
 62
     6
370
     5
100
AcDbLine
 10
-504.1209708033378
 20
863.7794948268581
 30
0.0
 11
-504.1209708033378
 21
864.7793727565456
 31
0.0
  0
LINE
  5
146
330
1F
100
AcDbEntity
  8
C-A
  6
Continuous
 62
     6
370
     5
100
AcDbLine
 10
-504.1209708033378
 20
863.7794948268581
 30
0.0
 11
-499.1211920557793
 21
862.2792506862331
 31
0.0
  0
LINE
  5
147
330
1F
100
AcDbEntity
  8
C-A
  6
Continuous
 62
     6
370
     5
100
AcDbLine
 10
-504.620902138787
 20
863.4079127956081
 30
0.0
 11
-498.6212683497246
 21
861.6073756862331
 31
0.0
  0
LINE
  5
148
330
1F
100
AcDbEntity
  8
C-A
  6
Continuous
 62
     6
370
     5
100
AcDbLine
 10
-498.6212683497246
 20
866.9514918971706
 30
0.0
 11
-504.620902138787
 21
865.1519313502954
 31
0.0
  0
LINE
  5
149
330
1F
100
AcDbEntity
  8
C-A
  6
Continuous
 62
     6
370
     5
100
AcDbLine
 10
-504.1209708033378
 20
830.7793117213894
 30
0.0
 11
-504.1209708033378
 21
834.779708449905
 31
0.0
  0
LINE
  5
14A
330
1F
100
AcDbEntity
  8
C-A
  6
Continuous
 62
     6
370
     5
100
AcDbLine
 10
-504.1209708033378
 20
834.779708449905
 30
0.0
 11
-499.1211920557793
 21
833.2794337917019
 31
0.0
  0
LINE
  5
14B
330
1F
100
AcDbEntity
  8
C-A
  6
Continuous
 62
     6
370
     5
100
AcDbLine
 10
-499.1211920557793
 20
832.2795863795923
 30
0.0
 11
-499.1211920557793
 21
833.2794337917019
 31
0.0
  0
LINE
  5
14C
330
1F
100
AcDbEntity
  8
C-A
  6
Continuous
 62
     6
370
     5
100
AcDbLine
 10
-499.1211920557793
 20
832.2795863795923
 30
0.0
 11
-504.1209708033378
 21
830.7793117213894
 31
0.0
  0
LINE
  5
14D
330
1F
100
AcDbEntity
  8
C-A
  6
Continuous
 62
     6
370
     5
100
AcDbLine
 10
-498.6212683497246
 20
831.9079738307644
 30
0.0
 11
-504.620902138787
 21
830.1074367213894
 31
0.0
  0
LINE
  5
14E
330
1F
100
AcDbEntity
  8
C-A
  6
Continuous
 62
     6
370
     5
100
AcDbLine
 10
-504.620902138787
 20
835.4515529323269
 30
0.0
 11
-498.6212683497246
 21
833.6520229030302
 31
0.0
  0
LINE
  5
14F
330
1F
100
AcDbEntity
  8
C-A
  6
Continuous
 62
     6
370
     5
100
AcDbLine
 10
-499.1211920557793
 20
841.2792506862329
 30
0.0
 11
-499.1211920557793
 21
845.2796779323271
 31
0.0
  0
LINE
  5
150
330
1F
100
AcDbEntity
  8
C-A
  6
Continuous
 62
     6
370
     5
100
AcDbLine
 10
-499.1211920557793
 20
845.2796779323271
 30
0.0
 11
-504.1209708033378
 21
843.7794337917021
 31
0.0
  0
LINE
  5
151
330
1F
100
AcDbEntity
  8
C-A
  6
Continuous
 62
     6
370
     5
100
AcDbLine
 10
-504.1209708033378
 20
842.7795558620144
 30
0.0
 11
-504.1209708033378
 21
843.7794337917021
 31
0.0
  0
LINE
  5
152
330
1F
100
AcDbEntity
  8
C-A
  6
Continuous
 62
     6
370
     5
100
AcDbLine
 10
-504.1209708033378
 20
842.7795558620144
 30
0.0
 11
-499.1211920557793
 21
841.2792506862329
 31
0.0
  0
LINE
  5
153
330
1F
100
AcDbEntity
  8
C-A
  6
Continuous
 62
     6
370
     5
100
AcDbLine
 10
-504.620902138787
 20
842.4079738307646
 30
0.0
 11
-498.6212683497246
 21
840.6074367213896
 31
0.0
  0
LINE
  5
154
330
1F
100
AcDbEntity
  8
C-A
  6
Continuous
 62
     6
370
     5
100
AcDbLine
 10
-498.6212683497246
 20
845.9515529323269
 30
0.0
 11
-504.620902138787
 21
844.1519923854516
 31
0.0
  0
LINE
  5
155
330
1F
100
AcDbEntity
  8
C-A
  6
Continuous
 62
     6
370
     5
100
AcDbLine
 10
-499.1211920557793
 20
820.2793422389673
 30
0.0
 11
-499.1211920557793
 21
824.2797389674829
 31
0.0
  0
LINE
  5
156
330
1F
100
AcDbEntity
  8
C-A
  6
Continuous
 62
     6
370
     5
100
AcDbLine
 10
-499.1211920557793
 20
824.2797389674829
 30
0.0
 11
-504.1209708033378
 21
822.7794643092798
 31
0.0
  0
LINE
  5
157
330
1F
100
AcDbEntity
  8
C-A
  6
Continuous
 62
     6
370
     5
100
AcDbLine
 10
-504.1209708033378
 20
821.7796168971709
 30
0.0
 11
-504.1209708033378
 21
822.7794643092798
 31
0.0
  0
LINE
  5
158
330
1F
100
AcDbEntity
  8
C-A
  6
Continuous
 62
     6
370
     5
100
AcDbLine
 10
-504.1209708033378
 20
821.7796168971709
 30
0.0
 11
-499.1211920557793
 21
820.2793422389673
 31
0.0
  0
LINE
  5
159
330
1F
100
AcDbEntity
  8
C-A
  6
Continuous
 62
     6
370
     5
100
AcDbLine
 10
-504.620902138787
 20
821.4080043483423
 30
0.0
 11
-498.6212683497246
 21
819.6074672389673
 31
0.0
  0
LINE
  5
15A
330
1F
100
AcDbEntity
  8
C-A
  6
Continuous
 62
     6
370
     5
100
AcDbLine
 10
-498.6212683497246
 20
824.9516139674834
 30
0.0
 11
-504.620902138787
 21
823.1520534206081
 31
0.0
  0
LINE
  5
15B
330
1F
100
AcDbEntity
  8
C-A
  6
Continuous
 62
     6
370
     5
100
AcDbLine
 10
-489.1211462794121
 20
885.8516383815456
 30
0.0
 11
-489.1211462794121
 21
889.8510890651394
 31
0.0
  0
LINE
  5
15C
330
1F
100
AcDbEntity
  8
C-A
  6
Continuous
 62
     6
370
     5
100
AcDbLine
 10
-489.1211462794121
 20
889.8510890651394
 30
0.0
 11
-484.121375161248
 21
888.3517604518581
 31
0.0
  0
LINE
  5
15D
330
1F
100
AcDbEntity
  8
C-A
  6
Continuous
 62
     6
370
     5
100
AcDbLine
 10
-484.121375161248
 20
887.3519435573266
 30
0.0
 11
-484.121375161248
 21
888.3517604518581
 31
0.0
  0
LINE
  5
15E
330
1F
100
AcDbEntity
  8
C-A
  6
Continuous
 62
     6
370
     5
100
AcDbLine
 10
-484.121375161248
 20
887.3519435573266
 30
0.0
 11
-489.1211462794121
 21
885.8516383815456
 31
0.0
  0
LINE
  5
15F
330
1F
100
AcDbEntity
  8
C-A
  6
Continuous
 62
     6
370
     5
100
AcDbLine
 10
-483.6209479151541
 20
886.9793239284204
 30
0.0
 11
-489.6210776148612
 21
885.1798244167016
 31
0.0
  0
LINE
  5
160
330
1F
100
AcDbEntity
  8
C-A
  6
Continuous
 62
     6
370
     5
100
AcDbLine
 10
-489.6210776148612
 20
890.5239406276391
 30
0.0
 11
-483.6209479151541
 21
888.7234035182641
 31
0.0
  0
LINE
  5
161
330
1F
100
AcDbEntity
  8
C-A
  6
Continuous
 62
     6
370
     5
100
AcDbLine
 10
-489.1211462794121
 20
864.8516994167019
 30
0.0
 11
-489.1211462794121
 21
868.8511501002959
 31
0.0
  0
LINE
  5
162
330
1F
100
AcDbEntity
  8
C-A
  6
Continuous
 62
     6
370
     5
100
AcDbLine
 10
-489.1211462794121
 20
868.8511501002959
 30
0.0
 11
-484.121375161248
 21
867.3518214870146
 31
0.0
  0
LINE
  5
163
330
1F
100
AcDbEntity
  8
C-A
  6
Continuous
 62
     6
370
     5
100
AcDbLine
 10
-484.121375161248
 20
866.3520045924829
 30
0.0
 11
-484.121375161248
 21
867.3518214870146
 31
0.0
  0
LINE
  5
164
330
1F
100
AcDbEntity
  8
C-A
  6
Continuous
 62
     6
370
     5
100
AcDbLine
 10
-484.121375161248
 20
866.3520045924829
 30
0.0
 11
-489.1211462794121
 21
864.8516994167019
 31
0.0
  0
LINE
  5
165
330
1F
100
AcDbEntity
  8
C-A
  6
Continuous
 62
     6
370
     5
100
AcDbLine
 10
-483.6209479151541
 20
865.9793849635766
 30
0.0
 11
-489.6210776148612
 21
864.1798244167021
 31
0.0
  0
LINE
  5
166
330
1F
100
AcDbEntity
  8
C-A
  6
Continuous
 62
     6
370
     5
100
AcDbLine
 10
-489.6210776148612
 20
869.5240016627954
 30
0.0
 11
-483.6209479151541
 21
867.7234645534204
 31
0.0
  0
LINE
  5
167
330
1F
100
AcDbEntity
  8
C-A
  6
Continuous
 62
     6
370
     5
100
AcDbLine
 10
-484.121375161248
 20
875.3516994167021
 30
0.0
 11
-484.121375161248
 21
879.3510890651394
 31
0.0
  0
LINE
  5
168
330
1F
100
AcDbEntity
  8
C-A
  6
Continuous
 62
     6
370
     5
100
AcDbLine
 10
-484.121375161248
 20
879.3510890651394
 30
0.0
 11
-489.1211462794121
 21
877.8518214870141
 31
0.0
  0
LINE
  5
169
330
1F
100
AcDbEntity
  8
C-A
  6
Continuous
 62
     6
370
     5
100
AcDbLine
 10
-489.1211462794121
 20
876.8519435573271
 30
0.0
 11
-489.1211462794121
 21
877.8518214870141
 31
0.0
  0
LINE
  5
16A
330
1F
100
AcDbEntity
  8
C-A
  6
Continuous
 62
     6
370
     5
100
AcDbLine
 10
-489.1211462794121
 20
876.8519435573271
 30
0.0
 11
-484.121375161248
 21
875.3516994167021
 31
0.0
  0
LINE
  5
16B
330
1F
100
AcDbEntity
  8
C-A
  6
Continuous
 62
     6
370
     5
100
AcDbLine
 10
-489.6210776148612
 20
876.4793849635769
 30
0.0
 11
-483.6209479151541
 21
874.6798244167016
 31
0.0
  0
LINE
  5
16C
330
1F
100
AcDbEntity
  8
C-A
  6
Continuous
 62
     6
370
     5
100
AcDbLine
 10
-483.6209479151541
 20
880.0239406276396
 30
0.0
 11
-489.6210776148612
 21
878.2234035182646
 31
0.0
  0
LINE
  5
16D
330
1F
100
AcDbEntity
  8
C-A
  6
Continuous
 62
     6
370
     5
100
AcDbLine
 10
-489.1211462794121
 20
843.8517604518584
 30
0.0
 11
-489.1211462794121
 21
847.8511501002956
 31
0.0
  0
LINE
  5
16E
330
1F
100
AcDbEntity
  8
C-A
  6
Continuous
 62
     6
370
     5
100
AcDbLine
 10
-489.1211462794121
 20
847.8511501002956
 30
0.0
 11
-484.121375161248
 21
846.3518825221704
 31
0.0
  0
LINE
  5
16F
330
1F
100
AcDbEntity
  8
C-A
  6
Continuous
 62
     6
370
     5
100
AcDbLine
 10
-484.121375161248
 20
845.3520045924834
 30
0.0
 11
-484.121375161248
 21
846.3518825221704
 31
0.0
  0
LINE
  5
170
330
1F
100
AcDbEntity
  8
C-A
  6
Continuous
 62
     6
370
     5
100
AcDbLine
 10
-484.121375161248
 20
845.3520045924834
 30
0.0
 11
-489.1211462794121
 21
843.8517604518584
 31
0.0
  0
LINE
  5
171
330
1F
100
AcDbEntity
  8
C-A
  6
Continuous
 62
     6
370
     5
100
AcDbLine
 10
-483.6209479151541
 20
844.9794459987331
 30
0.0
 11
-489.6210776148612
 21
843.1798854518579
 31
0.0
  0
LINE
  5
172
330
1F
100
AcDbEntity
  8
C-A
  6
Continuous
 62
     6
370
     5
100
AcDbLine
 10
-489.6210776148612
 20
848.5240016627959
 30
0.0
 11
-483.6209479151541
 21
846.7234645534209
 31
0.0
  0
LINE
  5
173
330
1F
100
AcDbEntity
  8
C-A
  6
Continuous
 62
     6
370
     5
100
AcDbLine
 10
-484.121375161248
 20
854.3516994167019
 30
0.0
 11
-484.121375161248
 21
858.3511501002956
 31
0.0
  0
LINE
  5
174
330
1F
100
AcDbEntity
  8
C-A
  6
Continuous
 62
     6
370
     5
100
AcDbLine
 10
-484.121375161248
 20
858.3511501002956
 30
0.0
 11
-489.1211462794121
 21
856.8518825221704
 31
0.0
  0
LINE
  5
175
330
1F
100
AcDbEntity
  8
C-A
  6
Continuous
 62
     6
370
     5
100
AcDbLine
 10
-489.1211462794121
 20
855.8520045924829
 30
0.0
 11
-489.1211462794121
 21
856.8518825221704
 31
0.0
  0
LINE
  5
176
330
1F
100
AcDbEntity
  8
C-A
  6
Continuous
 62
     6
370
     5
100
AcDbLine
 10
-489.1211462794121
 20
855.8520045924829
 30
0.0
 11
-484.121375161248
 21
854.3516994167019
 31
0.0
  0
LINE
  5
177
330
1F
100
AcDbEntity
  8
C-A
  6
Continuous
 62
     6
370
     5
100
AcDbLine
 10
-489.6210776148612
 20
855.4793849635766
 30
0.0
 11
-483.6209479151541
 21
853.6798854518579
 31
0.0
  0
LINE
  5
178
330
1F
100
AcDbEntity
  8
C-A
  6
Continuous
 62
     6
370
     5
100
AcDbLine
 10
-483.6209479151541
 20
859.0240016627954
 30
0.0
 11
-489.6210776148612
 21
857.2234645534204
 31
0.0
  0
LINE
  5
179
330
1F
100
AcDbEntity
  8
C-A
  6
Continuous
 62
     6
370
     5
100
AcDbLine
 10
-484.121375161248
 20
833.3517909694363
 30
0.0
 11
-484.121375161248
 21
837.3512111354521
 31
0.0
  0
LINE
  5
17A
330
1F
100
AcDbEntity
  8
C-A
  6
Continuous
 62
     6
370
     5
100
AcDbLine
 10
-484.121375161248
 20
837.3512111354521
 30
0.0
 11
-489.1211462794121
 21
835.8519435573269
 31
0.0
  0
LINE
  5
17B
330
1F
100
AcDbEntity
  8
C-A
  6
Continuous
 62
     6
370
     5
100
AcDbLine
 10
-489.1211462794121
 20
834.8520656276391
 30
0.0
 11
-489.1211462794121
 21
835.8519435573269
 31
0.0
  0
LINE
  5
17C
330
1F
100
AcDbEntity
  8
C-A
  6
Continuous
 62
     6
370
     5
100
AcDbLine
 10
-489.1211462794121
 20
834.8520656276391
 30
0.0
 11
-484.121375161248
 21
833.3517909694363
 31
0.0
  0
LINE
  5
17D
330
1F
100
AcDbEntity
  8
C-A
  6
Continuous
 62
     6
370
     5
100
AcDbLine
 10
-489.6210776148612
 20
834.479476516311
 30
0.0
 11
-483.6209479151541
 21
832.6799159694363
 31
0.0
  0
LINE
  5
17E
330
1F
100
AcDbEntity
  8
C-A
  6
Continuous
 62
     6
370
     5
100
AcDbLine
 10
-483.6209479151541
 20
838.0240626979516
 30
0.0
 11
-489.6210776148612
 21
836.2235255885766
 31
0.0
  0
LINE
  5
17F
330
1F
100
AcDbEntity
  8
C-A
  6
Continuous
 62
     6
370
     5
100
AcDbLine
 10
-474.1208258448416
 20
875.9898219752959
 30
0.0
 11
-474.1208258448416
 21
879.9892726588891
 31
0.0
  0
LINE
  5
180
330
1F
100
AcDbEntity
  8
C-A
  6
Continuous
 62
     6
370
     5
100
AcDbLine
 10
-474.1208258448416
 20
879.9892726588891
 30
0.0
 11
-469.1210547266776
 21
878.4900050807644
 31
0.0
  0
LINE
  5
181
330
1F
100
AcDbEntity
  8
C-A
  6
Continuous
 62
     6
370
     5
100
AcDbLine
 10
-469.1210547266776
 20
877.4901271510769
 30
0.0
 11
-469.1210547266776
 21
878.4900050807644
 31
0.0
  0
LINE
  5
182
330
1F
100
AcDbEntity
  8
C-A
  6
Continuous
 62
     6
370
     5
100
AcDbLine
 10
-469.1210547266776
 20
877.4901271510769
 30
0.0
 11
-474.1208258448416
 21
875.9898219752959
 31
0.0
  0
LINE
  5
183
330
1F
100
AcDbEntity
  8
C-A
  6
Continuous
 62
     6
370
     5
100
AcDbLine
 10
-468.621131020623
 20
877.1175075221706
 30
0.0
 11
-474.6212530909355
 21
875.3180080104519
 31
0.0
  0
LINE
  5
184
330
1F
100
AcDbEntity
  8
C-A
  6
Continuous
 62
     6
370
     5
100
AcDbLine
 10
-474.6212530909355
 20
880.6621242213894
 30
0.0
 11
-468.621131020623
 21
878.8615871120144
 31
0.0
  0
LINE
  5
185
330
1F
100
AcDbEntity
  8
C-A
  6
Continuous
 62
     6
370
     5
100
AcDbLine
 10
-469.1210547266776
 20
886.4898219752954
 30
0.0
 11
-469.1210547266776
 21
890.4892116237331
 31
0.0
  0
LINE
  5
186
330
1F
100
AcDbEntity
  8
C-A
  6
Continuous
 62
     6
370
     5
100
AcDbLine
 10
-469.1210547266776
 20
890.4892116237331
 30
0.0
 11
-474.1208258448416
 21
888.9899440456079
 31
0.0
  0
LINE
  5
187
330
1F
100
AcDbEntity
  8
C-A
  6
Continuous
 62
     6
370
     5
100
AcDbLine
 10
-474.1208258448416
 20
887.9900661159204
 30
0.0
 11
-474.1208258448416
 21
888.9899440456079
 31
0.0
  0
LINE
  5
188
330
1F
100
AcDbEntity
  8
C-A
  6
Continuous
 62
     6
370
     5
100
AcDbLine
 10
-474.1208258448416
 20
887.9900661159204
 30
0.0
 11
-469.1210547266776
 21
886.4898219752954
 31
0.0
  0
LINE
  5
189
330
1F
100
AcDbEntity
  8
C-A
  6
Continuous
 62
     6
370
     5
100
AcDbLine
 10
-474.6212530909355
 20
887.6175075221706
 30
0.0
 11
-468.621131020623
 21
885.8179469752954
 31
0.0
  0
LINE
  5
18A
330
1F
100
AcDbEntity
  8
C-A
  6
Continuous
 62
     6
370
     5
100
AcDbLine
 10
-468.621131020623
 20
891.1620631862329
 30
0.0
 11
-474.6212530909355
 21
889.3615260768579
 31
0.0
  0
LINE
  5
18B
330
1F
100
AcDbEntity
  8
C-A
  6
Continuous
 62
     6
370
     5
100
AcDbLine
 10
-474.1208258448416
 20
854.9898830104516
 30
0.0
 11
-474.1208258448416
 21
858.9893336940454
 31
0.0
  0
LINE
  5
18C
330
1F
100
AcDbEntity
  8
C-A
  6
Continuous
 62
     6
370
     5
100
AcDbLine
 10
-474.1208258448416
 20
858.9893336940454
 30
0.0
 11
-469.1210547266776
 21
857.4900050807641
 31
0.0
  0
LINE
  5
18D
330
1F
100
AcDbEntity
  8
C-A
  6
Continuous
 62
     6
370
     5
100
AcDbLine
 10
-469.1210547266776
 20
856.4901881862331
 30
0.0
 11
-469.1210547266776
 21
857.4900050807641
 31
0.0
  0
LINE
  5
18E
330
1F
100
AcDbEntity
  8
C-A
  6
Continuous
 62
     6
370
     5
100
AcDbLine
 10
-469.1210547266776
 20
856.4901881862331
 30
0.0
 11
-474.1208258448416
 21
854.9898830104516
 31
0.0
  0
LINE
  5
18F
330
1F
100
AcDbEntity
  8
C-A
  6
Continuous
 62
     6
370
     5
100
AcDbLine
 10
-468.621131020623
 20
856.1175685573269
 30
0.0
 11
-474.6212530909355
 21
854.3180080104516
 31
0.0
  0
LINE
  5
190
330
1F
100
AcDbEntity
  8
C-A
  6
Continuous
 62
     6
370
     5
100
AcDbLine
 10
-474.6212530909355
 20
859.6621852565456
 30
0.0
 11
-468.621131020623
 21
857.8616481471706
 31
0.0
  0
LINE
  5
191
330
1F
100
AcDbEntity
  8
C-A
  6
Continuous
 62
     6
370
     5
100
AcDbLine
 10
-469.1210547266776
 20
865.4898830104516
 30
0.0
 11
-469.1210547266776
 21
869.4892726588896
 31
0.0
  0
LINE
  5
192
330
1F
100
AcDbEntity
  8
C-A
  6
Continuous
 62
     6
370
     5
100
AcDbLine
 10
-469.1210547266776
 20
869.4892726588896
 30
0.0
 11
-474.1208258448416
 21
867.9900050807644
 31
0.0
  0
LINE
  5
193
330
1F
100
AcDbEntity
  8
C-A
  6
Continuous
 62
     6
370
     5
100
AcDbLine
 10
-474.1208258448416
 20
866.9901271510766
 30
0.0
 11
-474.1208258448416
 21
867.9900050807644
 31
0.0
  0
LINE
  5
194
330
1F
100
AcDbEntity
  8
C-A
  6
Continuous
 62
     6
370
     5
100
AcDbLine
 10
-474.1208258448416
 20
866.9901271510766
 30
0.0
 11
-469.1210547266776
 21
865.4898830104516
 31
0.0
  0
LINE
  5
195
330
1F
100
AcDbEntity
  8
C-A
  6
Continuous
 62
     6
370
     5
100
AcDbLine
 10
-474.6212530909355
 20
866.6175685573271
 30
0.0
 11
-468.621131020623
 21
864.8180080104519
 31
0.0
  0
LINE
  5
196
330
1F
100
AcDbEntity
  8
C-A
  6
Continuous
 62
     6
370
     5
100
AcDbLine
 10
-468.621131020623
 20
870.1621242213891
 30
0.0
 11
-474.6212530909355
 21
868.3615871120141
 31
0.0
  0
LINE
  5
197
330
1F
100
AcDbEntity
  8
C-A
  6
Continuous
 62
     6
370
     5
100
AcDbLine
 10
-528.621405678826
 20
863.4470363307641
 30
0.0
 11
-528.621405678826
 21
867.4469752956079
 31
0.0
  0
LINE
  5
198
330
1F
100
AcDbEntity
  8
C-A
  6
Continuous
 62
     6
370
     5
100
AcDbLine
 10
-528.621405678826
 20
867.4469752956079
 30
0.0
 11
-523.6211386500174
 21
865.9471584010769
 31
0.0
  0
LINE
  5
199
330
1F
100
AcDbEntity
  8
C-A
  6
Continuous
 62
     6
370
     5
100
AcDbLine
 10
-523.6211386500174
 20
864.9473415065459
 30
0.0
 11
-523.6211386500174
 21
865.9471584010769
 31
0.0
  0
LINE
  5
19A
330
1F
100
AcDbEntity
  8
C-A
  6
Continuous
 62
     6
370
     5
100
AcDbLine
 10
-523.6211386500174
 20
864.9473415065459
 30
0.0
 11
-528.621405678826
 21
863.4470363307641
 31
0.0
  0
LINE
  5
19B
330
1F
100
AcDbEntity
  8
C-A
  6
Continuous
 62
     6
370
     5
100
AcDbLine
 10
-523.1212073145683
 20
864.5752101588894
 30
0.0
 11
-529.1213370142754
 21
862.7751613307644
 31
0.0
  0
LINE
  5
19C
330
1F
100
AcDbEntity
  8
C-A
  6
Continuous
 62
     6
370
     5
100
AcDbLine
 10
-529.1213370142754
 20
868.1193385768584
 30
0.0
 11
-523.1212073145683
 21
866.3192897487331
 31
0.0
  0
LINE
  5
19D
330
1F
100
AcDbEntity
  8
C-A
  6
Continuous
 62
     6
370
     5
100
AcDbLine
 10
-523.6211386500174
 20
873.9470363307644
 30
0.0
 11
-523.6211386500174
 21
877.9469142604521
 31
0.0
  0
LINE
  5
19E
330
1F
100
AcDbEntity
  8
C-A
  6
Continuous
 62
     6
370
     5
100
AcDbLine
 10
-523.6211386500174
 20
877.9469142604521
 30
0.0
 11
-528.621405678826
 21
876.4471584010769
 31
0.0
  0
LINE
  5
19F
330
1F
100
AcDbEntity
  8
C-A
  6
Continuous
 62
     6
370
     5
100
AcDbLine
 10
-528.621405678826
 20
875.4472804713894
 30
0.0
 11
-528.621405678826
 21
876.4471584010769
 31
0.0
  0
LINE
  5
1A0
330
1F
100
AcDbEntity
  8
C-A
  6
Continuous
 62
     6
370
     5
100
AcDbLine
 10
-528.621405678826
 20
875.4472804713894
 30
0.0
 11
-523.6211386500174
 21
873.9470363307644
 31
0.0
  0
LINE
  5
1A1
330
1F
100
AcDbEntity
  8
C-A
  6
Continuous
 62
     6
370
     5
100
AcDbLine
 10
-529.1213370142754
 20
875.0752101588896
 30
0.0
 11
-523.1212073145683
 21
873.2751613307644
 31
0.0
  0
LINE
  5
1A2
330
1F
100
AcDbEntity
  8
C-A
  6
Continuous
 62
     6
370
     5
100
AcDbLine
 10
-523.1212073145683
 20
878.6192775417019
 30
0.0
 11
-529.1213370142754
 21
876.8192287135766
 31
0.0
  0
LINE
  5
1A3
330
1F
100
AcDbEntity
  8
C-A
  6
Continuous
 62
     6
370
     5
100
AcDbLine
 10
-528.621405678826
 20
884.4469752956079
 30
0.0
 11
-528.621405678826
 21
888.4469142604516
 31
0.0
  0
LINE
  5
1A4
330
1F
100
AcDbEntity
  8
C-A
  6
Continuous
 62
     6
370
     5
100
AcDbLine
 10
-528.621405678826
 20
888.4469142604516
 30
0.0
 11
-523.6211386500174
 21
886.9471584010771
 31
0.0
  0
LINE
  5
1A5
330
1F
100
AcDbEntity
  8
C-A
  6
Continuous
 62
     6
370
     5
100
AcDbLine
 10
-523.6211386500174
 20
885.9472804713894
 30
0.0
 11
-523.6211386500174
 21
886.9471584010771
 31
0.0
  0
LINE
  5
1A6
330
1F
100
AcDbEntity
  8
C-A
  6
Continuous
 62
     6
370
     5
100
AcDbLine
 10
-523.6211386500174
 20
885.9472804713894
 30
0.0
 11
-528.621405678826
 21
884.4469752956079
 31
0.0
  0
LINE
  5
1A7
330
1F
100
AcDbEntity
  8
C-A
  6
Continuous
 62
     6
370
     5
100
AcDbLine
 10
-523.1212073145683
 20
885.5751491237331
 30
0.0
 11
-529.1213370142754
 21
883.7751613307646
 31
0.0
  0
LINE
  5
1A8
330
1F
100
AcDbEntity
  8
C-A
  6
Continuous
 62
     6
370
     5
100
AcDbLine
 10
-529.1213370142754
 20
889.1192775417019
 30
0.0
 11
-523.1212073145683
 21
887.3192287135769
 31
0.0
  0
LINE
  5
1A9
330
1F
100
AcDbEntity
  8
C-A
  6
Continuous
 62
     6
370
     5
100
AcDbLine
 10
-528.621405678826
 20
842.4470973659206
 30
0.0
 11
-528.621405678826
 21
846.4470363307644
 31
0.0
  0
LINE
  5
1AA
330
1F
100
AcDbEntity
  8
C-A
  6
Continuous
 62
     6
370
     5
100
AcDbLine
 10
-528.621405678826
 20
846.4470363307644
 30
0.0
 11
-523.6211386500174
 21
844.9472194362331
 31
0.0
  0
LINE
  5
1AB
330
1F
100
AcDbEntity
  8
C-A
  6
Continuous
 62
     6
370
     5
100
AcDbLine
 10
-523.6211386500174
 20
843.9474025417016
 30
0.0
 11
-523.6211386500174
 21
844.9472194362331
 31
0.0
  0
LINE
  5
1AC
330
1F
100
AcDbEntity
  8
C-A
  6
Continuous
 62
     6
370
     5
100
AcDbLine
 10
-523.6211386500174
 20
843.9474025417016
 30
0.0
 11
-528.621405678826
 21
842.4470973659206
 31
0.0
  0
LINE
  5
1AD
330
1F
100
AcDbEntity
  8
C-A
  6
Continuous
 62
     6
370
     5
100
AcDbLine
 10
-523.1212073145683
 20
843.5752711940459
 30
0.0
 11
-529.1213370142754
 21
841.7752223659206
 31
0.0
  0
LINE
  5
1AE
330
1F
100
AcDbEntity
  8
C-A
  6
Continuous
 62
     6
370
     5
100
AcDbLine
 10
-529.1213370142754
 20
847.1193385768581
 30
0.0
 11
-523.1212073145683
 21
845.3193507838896
 31
0.0
  0
LINE
  5
1AF
330
1F
100
AcDbEntity
  8
C-A
  6
Continuous
 62
     6
370
     5
100
AcDbLine
 10
-523.6211386500174
 20
852.9470973659206
 30
0.0
 11
-523.6211386500174
 21
856.9469752956079
 31
0.0
  0
LINE
  5
1B0
330
1F
100
AcDbEntity
  8
C-A
  6
Continuous
 62
     6
370
     5
100
AcDbLine
 10
-523.6211386500174
 20
856.9469752956079
 30
0.0
 11
-528.621405678826
 21
855.4472194362334
 31
0.0
  0
LINE
  5
1B1
330
1F
100
AcDbEntity
  8
C-A
  6
Continuous
 62
     6
370
     5
100
AcDbLine
 10
-528.621405678826
 20
854.4473415065456
 30
0.0
 11
-528.621405678826
 21
855.4472194362334
 31
0.0
  0
LINE
  5
1B2
330
1F
100
AcDbEntity
  8
C-A
  6
Continuous
 62
     6
370
     5
100
AcDbLine
 10
-528.621405678826
 20
854.4473415065456
 30
0.0
 11
-523.6211386500174
 21
852.9470973659206
 31
0.0
  0
LINE
  5
1B3
330
1F
100
AcDbEntity
  8
C-A
  6
Continuous
 62
     6
370
     5
100
AcDbLine
 10
-529.1213370142754
 20
854.0752711940454
 30
0.0
 11
-523.1212073145683
 21
852.2752223659209
 31
0.0
  0
LINE
  5
1B4
330
1F
100
AcDbEntity
  8
C-A
  6
Continuous
 62
     6
370
     5
100
AcDbLine
 10
-523.1212073145683
 20
857.6193385768581
 30
0.0
 11
-529.1213370142754
 21
855.8192897487331
 31
0.0
  0
LINE
  5
1B5
330
1F
100
AcDbEntity
  8
C-A
  6
Continuous
 62
     6
370
     5
100
AcDbLine
 10
-528.621405678826
 20
821.4471584010769
 30
0.0
 11
-528.621405678826
 21
825.4470668483427
 31
0.0
  0
LINE
  5
1B6
330
1F
100
AcDbEntity
  8
C-A
  6
Continuous
 62
     6
370
     5
100
AcDbLine
 10
-528.621405678826
 20
825.4470668483427
 30
0.0
 11
-523.6211386500174
 21
823.9472804713896
 31
0.0
  0
LINE
  5
1B7
330
1F
100
AcDbEntity
  8
C-A
  6
Continuous
 62
     6
370
     5
100
AcDbLine
 10
-523.6211386500174
 20
822.94743305928
 30
0.0
 11
-523.6211386500174
 21
823.9472804713896
 31
0.0
  0
LINE
  5
1B8
330
1F
100
AcDbEntity
  8
C-A
  6
Continuous
 62
     6
370
     5
100
AcDbLine
 10
-523.6211386500174
 20
822.94743305928
 30
0.0
 11
-528.621405678826
 21
821.4471584010769
 31
0.0
  0
LINE
  5
1B9
330
1F
100
AcDbEntity
  8
C-A
  6
Continuous
 62
     6
370
     5
100
AcDbLine
 10
-523.1212073145683
 20
822.5753322292016
 30
0.0
 11
-529.1213370142754
 21
820.7752834010771
 31
0.0
  0
LINE
  5
1BA
330
1F
100
AcDbEntity
  8
C-A
  6
Continuous
 62
     6
370
     5
100
AcDbLine
 10
-529.1213370142754
 20
826.1194301295925
 30
0.0
 11
-523.1212073145683
 21
824.3193813014673
 31
0.0
  0
LINE
  5
1BB
330
1F
100
AcDbEntity
  8
C-A
  6
Continuous
 62
     6
370
     5
100
AcDbLine
 10
-523.6211386500174
 20
831.9471278834985
 30
0.0
 11
-523.6211386500174
 21
835.9470363307641
 31
0.0
  0
LINE
  5
1BC
330
1F
100
AcDbEntity
  8
C-A
  6
Continuous
 62
     6
370
     5
100
AcDbLine
 10
-523.6211386500174
 20
835.9470363307641
 30
0.0
 11
-528.621405678826
 21
834.447249953811
 31
0.0
  0
LINE
  5
1BD
330
1F
100
AcDbEntity
  8
C-A
  6
Continuous
 62
     6
370
     5
100
AcDbLine
 10
-528.621405678826
 20
833.4474025417021
 30
0.0
 11
-528.621405678826
 21
834.447249953811
 31
0.0
  0
LINE
  5
1BE
330
1F
100
AcDbEntity
  8
C-A
  6
Continuous
 62
     6
370
     5
100
AcDbLine
 10
-528.621405678826
 20
833.4474025417021
 30
0.0
 11
-523.6211386500174
 21
831.9471278834985
 31
0.0
  0
LINE
  5
1BF
330
1F
100
AcDbEntity
  8
C-A
  6
Continuous
 62
     6
370
     5
100
AcDbLine
 10
-529.1213370142754
 20
833.0753017116238
 30
0.0
 11
-523.1212073145683
 21
831.2752528834985
 31
0.0
  0
LINE
  5
1C0
330
1F
100
AcDbEntity
  8
C-A
  6
Continuous
 62
     6
370
     5
100
AcDbLine
 10
-523.1212073145683
 20
836.6193996120146
 30
0.0
 11
-529.1213370142754
 21
834.8193507838894
 31
0.0
  0
LINE
  5
1C1
330
1F
100
AcDbEntity
  8
C-A
  6
Continuous
 62
     6
370
     5
100
AcDbLine
 10
-528.621405678826
 20
800.4471889186548
 30
0.0
 11
-528.621405678826
 21
804.4471278834985
 31
0.0
  0
LINE
  5
1C2
330
1F
100
AcDbEntity
  8
C-A
  6
Continuous
 62
     6
370
     5
100
AcDbLine
 10
-528.621405678826
 20
804.4471278834985
 30
0.0
 11
-523.6211386500174
 21
802.9473415065454
 31
0.0
  0
LINE
  5
1C3
330
1F
100
AcDbEntity
  8
C-A
  6
Continuous
 62
     6
370
     5
100
AcDbLine
 10
-523.6211386500174
 20
801.9474940944363
 30
0.0
 11
-523.6211386500174
 21
802.9473415065454
 31
0.0
  0
LINE
  5
1C4
330
1F
100
AcDbEntity
  8
C-A
  6
Continuous
 62
     6
370
     5
100
AcDbLine
 10
-523.6211386500174
 20
801.9474940944363
 30
0.0
 11
-528.621405678826
 21
800.4471889186548
 31
0.0
  0
LINE
  5
1C5
330
1F
100
AcDbEntity
  8
C-A
  6
Continuous
 62
     6
370
     5
100
AcDbLine
 10
-523.1212073145683
 20
801.5753932643579
 30
0.0
 11
-529.1213370142754
 21
799.7753444362329
 31
0.0
  0
LINE
  5
1C6
330
1F
100
AcDbEntity
  8
C-A
  6
Continuous
 62
     6
370
     5
100
AcDbLine
 10
-529.1213370142754
 20
805.1194606471709
 30
0.0
 11
-523.1212073145683
 21
803.3194423366238
 31
0.0
  0
LINE
  5
1C7
330
1F
100
AcDbEntity
  8
C-A
  6
Continuous
 62
     6
370
     5
100
AcDbLine
 10
-523.6211386500174
 20
810.9471889186548
 30
0.0
 11
-523.6211386500174
 21
814.9470973659206
 31
0.0
  0
LINE
  5
1C8
330
1F
100
AcDbEntity
  8
C-A
  6
Continuous
 62
     6
370
     5
100
AcDbLine
 10
-523.6211386500174
 20
814.9470973659206
 30
0.0
 11
-528.621405678826
 21
813.4473109889675
 31
0.0
  0
LINE
  5
1C9
330
1F
100
AcDbEntity
  8
C-A
  6
Continuous
 62
     6
370
     5
100
AcDbLine
 10
-528.621405678826
 20
812.4474635768579
 30
0.0
 11
-528.621405678826
 21
813.4473109889675
 31
0.0
  0
LINE
  5
1CA
330
1F
100
AcDbEntity
  8
C-A
  6
Continuous
 62
     6
370
     5
100
AcDbLine
 10
-528.621405678826
 20
812.4474635768579
 30
0.0
 11
-523.6211386500174
 21
810.9471889186548
 31
0.0
  0
LINE
  5
1CB
330
1F
100
AcDbEntity
  8
C-A
  6
Continuous
 62
     6
370
     5
100
AcDbLine
 10
-529.1213370142754
 20
812.07536274678
 30
0.0
 11
-523.1212073145683
 21
810.275313918655
 31
0.0
  0
LINE
  5
1CC
330
1F
100
AcDbEntity
  8
C-A
  6
Continuous
 62
     6
370
     5
100
AcDbLine
 10
-523.1212073145683
 20
815.6194301295923
 30
0.0
 11
-529.1213370142754
 21
813.8194118190459
 31
0.0
  0
LINE
  5
1CD
330
1F
100
AcDbEntity
  8
C-A
  6
Continuous
 62
     6
370
     5
100
AcDbLine
 10
-528.621405678826
 20
779.447249953811
 30
0.0
 11
-528.621405678826
 21
783.4471584010769
 31
0.0
  0
LINE
  5
1CE
330
1F
100
AcDbEntity
  8
C-A
  6
Continuous
 62
     6
370
     5
100
AcDbLine
 10
-528.621405678826
 20
783.4471584010769
 30
0.0
 11
-523.6211386500174
 21
781.9473720241238
 31
0.0
  0
LINE
  5
1CF
330
1F
100
AcDbEntity
  8
C-A
  6
Continuous
 62
     6
370
     5
100
AcDbLine
 10
-523.6211386500174
 20
780.9475246120144
 30
0.0
 11
-523.6211386500174
 21
781.9473720241238
 31
0.0
  0
LINE
  5
1D0
330
1F
100
AcDbEntity
  8
C-A
  6
Continuous
 62
     6
370
     5
100
AcDbLine
 10
-523.6211386500174
 20
780.9475246120144
 30
0.0
 11
-528.621405678826
 21
779.447249953811
 31
0.0
  0
LINE
  5
1D1
330
1F
100
AcDbEntity
  8
C-A
  6
Continuous
 62
     6
370
     5
100
AcDbLine
 10
-523.1212073145683
 20
780.5754237819363
 30
0.0
 11
-529.1213370142754
 21
778.7754054713891
 31
0.0
  0
LINE
  5
1D2
330
1F
100
AcDbEntity
  8
C-A
  6
Continuous
 62
     6
370
     5
100
AcDbLine
 10
-529.1213370142754
 20
784.1195216823269
 30
0.0
 11
-523.1212073145683
 21
782.3194728542018
 31
0.0
  0
LINE
  5
1D3
330
1F
100
AcDbEntity
  8
C-A
  6
Continuous
 62
     6
370
     5
100
AcDbLine
 10
-523.6211386500174
 20
789.9472194362331
 30
0.0
 11
-523.6211386500174
 21
793.9471584010769
 31
0.0
  0
LINE
  5
1D4
330
1F
100
AcDbEntity
  8
C-A
  6
Continuous
 62
     6
370
     5
100
AcDbLine
 10
-523.6211386500174
 20
793.9471584010769
 30
0.0
 11
-528.621405678826
 21
792.4473720241238
 31
0.0
  0
LINE
  5
1D5
330
1F
100
AcDbEntity
  8
C-A
  6
Continuous
 62
     6
370
     5
100
AcDbLine
 10
-528.621405678826
 20
791.4474940944363
 30
0.0
 11
-528.621405678826
 21
792.4473720241238
 31
0.0
  0
LINE
  5
1D6
330
1F
100
AcDbEntity
  8
C-A
  6
Continuous
 62
     6
370
     5
100
AcDbLine
 10
-528.621405678826
 20
791.4474940944363
 30
0.0
 11
-523.6211386500174
 21
789.9472194362331
 31
0.0
  0
LINE
  5
1D7
330
1F
100
AcDbEntity
  8
C-A
  6
Continuous
 62
     6
370
     5
100
AcDbLine
 10
-529.1213370142754
 20
791.0753932643581
 30
0.0
 11
-523.1212073145683
 21
789.2753749538113
 31
0.0
  0
LINE
  5
1D8
330
1F
100
AcDbEntity
  8
C-A
  6
Continuous
 62
     6
370
     5
100
AcDbLine
 10
-523.1212073145683
 20
794.6194911647488
 30
0.0
 11
-529.1213370142754
 21
792.8194728542019
 31
0.0
  0
LINE
  5
1D9
330
1F
100
AcDbEntity
  8
C-A
  6
Continuous
 62
     3
370
     9
100
AcDbLine
 10
-513.6210928736502
 20
692.5722804713894
 30
0.0
 11
-504.6213980494315
 21
692.5722804713894
 31
0.0
  0
LINE
  5
1DA
330
1F
100
AcDbEntity
  8
C-A
  6
Continuous
 62
     3
370
     9
100
AcDbLine
 10
-513.6210928736502
 20
696.1078029323269
 30
0.0
 11
-504.6213980494315
 21
696.1078029323269
 31
0.0
  0
LINE
  5
1DB
330
1F
100
AcDbEntity
  8
C-A
  6
Continuous
 62
     3
370
     9
100
AcDbLine
 10
-513.6210928736502
 20
699.6433253932641
 30
0.0
 11
-504.6213980494315
 21
699.6433253932641
 31
0.0
  0
LINE
  5
1DC
330
1F
100
AcDbEntity
  8
C-A
  6
Continuous
 62
     3
370
     9
100
AcDbLine
 10
-498.6210928736503
 20
692.5722804713894
 30
0.0
 11
-489.6213980494315
 21
692.5722804713894
 31
0.0
  0
LINE
  5
1DD
330
1F
100
AcDbEntity
  8
C-A
  6
Continuous
 62
     3
370
     9
100
AcDbLine
 10
-498.6210928736503
 20
696.1078029323269
 30
0.0
 11
-489.6213980494315
 21
696.1078029323269
 31
0.0
  0
LINE
  5
1DE
330
1F
100
AcDbEntity
  8
C-A
  6
Continuous
 62
     3
370
     9
100
AcDbLine
 10
-498.6210928736503
 20
699.6433253932641
 30
0.0
 11
-489.6213980494315
 21
699.6433253932641
 31
0.0
  0
LINE
  5
1DF
330
1F
100
AcDbEntity
  8
C-A
  6
Continuous
 62
     3
370
     9
100
AcDbLine
 10
-483.6211005030448
 20
692.5722804713894
 30
0.0
 11
-474.621390420037
 21
692.5722804713894
 31
0.0
  0
LINE
  5
1E0
330
1F
100
AcDbEntity
  8
C-A
  6
Continuous
 62
     3
370
     9
100
AcDbLine
 10
-483.6211005030448
 20
696.1078029323269
 30
0.0
 11
-474.621390420037
 21
696.1078029323269
 31
0.0
  0
LINE
  5
1E1
330
1F
100
AcDbEntity
  8
C-A
  6
Continuous
 62
     3
370
     9
100
AcDbLine
 10
-483.6211005030448
 20
699.6433253932641
 30
0.0
 11
-474.621390420037
 21
699.6433253932641
 31
0.0
  0
LINE
  5
1E2
330
1F
100
AcDbEntity
  8
C-A
  6
Continuous
 62
     3
370
     9
100
AcDbLine
 10
-468.6211005030448
 20
692.5722804713894
 30
0.0
 11
-459.621390420037
 21
692.5722804713894
 31
0.0
  0
LINE
  5
1E3
330
1F
100
AcDbEntity
  8
C-A
  6
Continuous
 62
     3
370
     9
100
AcDbLine
 10
-468.6211005030448
 20
696.1078029323269
 30
0.0
 11
-459.621390420037
 21
696.1078029323269
 31
0.0
  0
LINE
  5
1E4
330
1F
100
AcDbEntity
  8
C-A
  6
Continuous
 62
     3
370
     9
100
AcDbLine
 10
-468.6211005030448
 20
699.6433253932641
 30
0.0
 11
-459.621390420037
 21
699.6433253932641
 31
0.0
  0
LINE
  5
1E5
330
1F
100
AcDbEntity
  8
C-A
  6
Continuous
 62
     3
370
     9
100
AcDbLine
 10
-453.6211005030448
 20
692.5722804713894
 30
0.0
 11
-444.621390420037
 21
692.5722804713894
 31
0.0
  0
LINE
  5
1E6
330
1F
100
AcDbEntity
  8
C-A
  6
Continuous
 62
     3
370
     9
100
AcDbLine
 10
-453.6211005030448
 20
696.1078029323269
 30
0.0
 11
-444.621390420037
 21
696.1078029323269
 31
0.0
  0
LINE
  5
1E7
330
1F
100
AcDbEntity
  8
C-A
  6
Continuous
 62
     3
370
     9
100
AcDbLine
 10
-453.6211005030448
 20
699.6433253932641
 30
0.0
 11
-444.621390420037
 21
699.6433253932641
 31
0.0
  0
LINE
  5
1E8
330
1F
100
AcDbEntity
  8
C-A
  6
Continuous
 62
     3
370
     9
100
AcDbLine
 10
-438.6211005030448
 20
692.5722804713894
 30
0.0
 11
-429.621390420037
 21
692.5722804713894
 31
0.0
  0
LINE
  5
1E9
330
1F
100
AcDbEntity
  8
C-A
  6
Continuous
 62
     3
370
     9
100
AcDbLine
 10
-438.6211005030448
 20
696.1078029323269
 30
0.0
 11
-429.621390420037
 21
696.1078029323269
 31
0.0
  0
LINE
  5
1EA
330
1F
100
AcDbEntity
  8
C-A
  6
Continuous
 62
     3
370
     9
100
AcDbLine
 10
-438.6211005030448
 20
699.6433253932641
 30
0.0
 11
-429.621390420037
 21
699.6433253932641
 31
0.0
  0
LINE
  5
1EB
330
1F
100
AcDbEntity
  8
C-A
  6
Continuous
 62
     3
370
     9
100
AcDbLine
 10
-423.6211005030448
 20
692.5722804713894
 30
0.0
 11
-414.621390420037
 21
692.5722804713894
 31
0.0
  0
LINE
  5
1EC
330
1F
100
AcDbEntity
  8
C-A
  6
Continuous
 62
     3
370
     9
100
AcDbLine
 10
-423.6211005030448
 20
696.1078029323269
 30
0.0
 11
-414.621390420037
 21
696.1078029323269
 31
0.0
  0
LINE
  5
1ED
330
1F
100
AcDbEntity
  8
C-A
  6
Continuous
 62
     3
370
     9
100
AcDbLine
 10
-423.6211005030448
 20
699.6433253932641
 30
0.0
 11
-414.621390420037
 21
699.6433253932641
 31
0.0
  0
LINE
  5
1EE
330
1F
100
AcDbEntity
  8
C-A
  6
Continuous
 62
     3
370
     9
100
AcDbLine
 10
-408.6211005030448
 20
692.5722804713894
 30
0.0
 11
-399.621390420037
 21
692.5722804713894
 31
0.0
  0
LINE
  5
1EF
330
1F
100
AcDbEntity
  8
C-A
  6
Continuous
 62
     3
370
     9
100
AcDbLine
 10
-408.6211005030448
 20
696.1078029323269
 30
0.0
 11
-399.621390420037
 21
696.1078029323269
 31
0.0
  0
LINE
  5
1F0
330
1F
100
AcDbEntity
  8
C-A
  6
Continuous
 62
     3
370
     9
100
AcDbLine
 10
-408.6211005030448
 20
699.6433253932641
 30
0.0
 11
-399.621390420037
 21
699.6433253932641
 31
0.0
  0
LINE
  5
1F1
330
1F
100
AcDbEntity
  8
C-A
  6
Continuous
 62
     3
370
     9
100
AcDbLine
 10
-393.6211005030448
 20
692.5722804713894
 30
0.0
 11
-384.621390420037
 21
692.5722804713894
 31
0.0
  0
LINE
  5
1F2
330
1F
100
AcDbEntity
  8
C-A
  6
Continuous
 62
     3
370
     9
100
AcDbLine
 10
-393.6211005030448
 20
696.1078029323269
 30
0.0
 11
-384.621390420037
 21
696.1078029323269
 31
0.0
  0
LINE
  5
1F3
330
1F
100
AcDbEntity
  8
C-A
  6
Continuous
 62
     3
370
     9
100
AcDbLine
 10
-393.6211005030448
 20
699.6433253932641
 30
0.0
 11
-384.621390420037
 21
699.6433253932641
 31
0.0
  0
LINE
  5
1F4
330
1F
100
AcDbEntity
  8
C-A
  6
Continuous
 62
     3
370
     9
100
AcDbLine
 10
-378.6211005030448
 20
692.5722804713894
 30
0.0
 11
-369.621390420037
 21
692.5722804713894
 31
0.0
  0
LINE
  5
1F5
330
1F
100
AcDbEntity
  8
C-A
  6
Continuous
 62
     3
370
     9
100
AcDbLine
 10
-378.6211005030448
 20
696.1078029323269
 30
0.0
 11
-369.621390420037
 21
696.1078029323269
 31
0.0
  0
LINE
  5
1F6
330
1F
100
AcDbEntity
  8
C-A
  6
Continuous
 62
     3
370
     9
100
AcDbLine
 10
-378.6211005030448
 20
699.6433253932641
 30
0.0
 11
-369.621390420037
 21
699.6433253932641
 31
0.0
  0
LINE
  5
1F7
330
1F
100
AcDbEntity
  8
C-A
  6
Continuous
 62
     3
370
     9
100
AcDbLine
 10
-363.6211005030448
 20
692.5722804713894
 30
0.0
 11
-354.6214056788261
 21
692.5722804713894
 31
0.0
  0
LINE
  5
1F8
330
1F
100
AcDbEntity
  8
C-A
  6
Continuous
 62
     3
370
     9
100
AcDbLine
 10
-363.6211005030448
 20
696.1078029323269
 30
0.0
 11
-354.6214056788261
 21
696.1078029323269
 31
0.0
  0
LINE
  5
1F9
330
1F
100
AcDbEntity
  8
C-A
  6
Continuous
 62
     3
370
     9
100
AcDbLine
 10
-363.6211005030448
 20
699.6433253932641
 30
0.0
 11
-354.6214056788261
 21
699.6433253932641
 31
0.0
  0
LINE
  5
1FA
330
1F
100
AcDbEntity
  8
C-A
  6
Continuous
 62
     3
370
     9
100
AcDbLine
 10
-348.6211005030448
 20
692.5722804713894
 30
0.0
 11
-339.6214056788261
 21
692.5722804713894
 31
0.0
  0
LINE
  5
1FB
330
1F
100
AcDbEntity
  8
C-A
  6
Continuous
 62
     3
370
     9
100
AcDbLine
 10
-348.6211005030448
 20
696.1078029323269
 30
0.0
 11
-339.6214056788261
 21
696.1078029323269
 31
0.0
  0
LINE
  5
1FC
330
1F
100
AcDbEntity
  8
C-A
  6
Continuous
 62
     3
370
     9
100
AcDbLine
 10
-348.6211005030448
 20
699.6433253932641
 30
0.0
 11
-339.6214056788261
 21
699.6433253932641
 31
0.0
  0
LINE
  5
1FD
330
1F
100
AcDbEntity
  8
C-A
  6
Continuous
 62
     3
370
     9
100
AcDbLine
 10
-333.6211005030448
 20
692.5722804713894
 30
0.0
 11
-324.6214056788261
 21
692.5722804713894
 31
0.0
  0
LINE
  5
1FE
330
1F
100
AcDbEntity
  8
C-A
  6
Continuous
 62
     3
370
     9
100
AcDbLine
 10
-333.6211005030448
 20
696.1078029323269
 30
0.0
 11
-324.6214056788261
 21
696.1078029323269
 31
0.0
  0
LINE
  5
1FF
330
1F
100
AcDbEntity
  8
C-A
  6
Continuous
 62
     3
370
     9
100
AcDbLine
 10
-333.6211005030448
 20
699.6433253932641
 30
0.0
 11
-324.6214056788261
 21
699.6433253932641
 31
0.0
  0
LINE
  5
200
330
1F
100
AcDbEntity
  8
C-A
  6
Continuous
 62
     3
370
     9
100
AcDbLine
 10
-318.6211005030448
 20
692.5722804713894
 30
0.0
 11
-309.6214056788261
 21
692.5722804713894
 31
0.0
  0
LINE
  5
201
330
1F
100
AcDbEntity
  8
C-A
  6
Continuous
 62
     3
370
     9
100
AcDbLine
 10
-318.6211005030448
 20
696.1078029323269
 30
0.0
 11
-309.6214056788261
 21
696.1078029323269
 31
0.0
  0
LINE
  5
202
330
1F
100
AcDbEntity
  8
C-A
  6
Continuous
 62
     3
370
     9
100
AcDbLine
 10
-318.6211005030448
 20
699.6433253932641
 30
0.0
 11
-309.6214056788261
 21
699.6433253932641
 31
0.0
  0
LINE
  5
203
330
1F
100
AcDbEntity
  8
C-A
  6
Continuous
 62
     3
370
     9
100
AcDbLine
 10
-303.6211005030448
 20
692.5722804713894
 30
0.0
 11
-294.6214056788261
 21
692.5722804713894
 31
0.0
  0
LINE
  5
204
330
1F
100
AcDbEntity
  8
C-A
  6
Continuous
 62
     3
370
     9
100
AcDbLine
 10
-303.6211005030448
 20
696.1078029323269
 30
0.0
 11
-294.6214056788261
 21
696.1078029323269
 31
0.0
  0
LINE
  5
205
330
1F
100
AcDbEntity
  8
C-A
  6
Continuous
 62
     3
370
     9
100
AcDbLine
 10
-303.6211005030448
 20
699.6433253932641
 30
0.0
 11
-294.6214056788261
 21
699.6433253932641
 31
0.0
  0
LINE
  5
206
330
1F
100
AcDbEntity
  8
C-A
  6
Continuous
 62
     3
370
     9
100
AcDbLine
 10
-288.6211005030448
 20
692.5722804713894
 30
0.0
 11
-279.6214056788261
 21
692.5722804713894
 31
0.0
  0
LINE
  5
207
330
1F
100
AcDbEntity
  8
C-A
  6
Continuous
 62
     3
370
     9
100
AcDbLine
 10
-288.6211005030448
 20
696.1078029323269
 30
0.0
 11
-279.6214056788261
 21
696.1078029323269
 31
0.0
  0
LINE
  5
208
330
1F
100
AcDbEntity
  8
C-A
  6
Continuous
 62
     3
370
     9
100
AcDbLine
 10
-288.6211005030448
 20
699.6433253932641
 30
0.0
 11
-279.6214056788261
 21
699.6433253932641
 31
0.0
  0
LINE
  5
209
330
1F
100
AcDbEntity
  8
C-A
  6
Continuous
 62
     3
370
     9
100
AcDbLine
 10
-273.6211005030448
 20
692.5722804713894
 30
0.0
 11
-264.6214056788261
 21
692.5722804713894
 31
0.0
  0
LINE
  5
20A
330
1F
100
AcDbEntity
  8
C-A
  6
Continuous
 62
     3
370
     9
100
AcDbLine
 10
-273.6211005030448
 20
696.1078029323269
 30
0.0
 11
-264.6214056788261
 21
696.1078029323269
 31
0.0
  0
LINE
  5
20B
330
1F
100
AcDbEntity
  8
C-A
  6
Continuous
 62
     3
370
     9
100
AcDbLine
 10
-273.6211005030448
 20
699.6433253932641
 30
0.0
 11
-264.6214056788261
 21
699.6433253932641
 31
0.0
  0
LINE
  5
20C
330
1F
100
AcDbEntity
  8
C-A
  6
Continuous
 62
     3
370
     9
100
AcDbLine
 10
-258.621131020623
 20
692.5722804713894
 30
0.0
 11
-249.6214361964041
 21
692.5722804713894
 31
0.0
  0
LINE
  5
20D
330
1F
100
AcDbEntity
  8
C-A
  6
Continuous
 62
     3
370
     9
100
AcDbLine
 10
-258.621131020623
 20
696.1078029323269
 30
0.0
 11
-249.6214361964041
 21
696.1078029323269
 31
0.0
  0
LINE
  5
20E
330
1F
100
AcDbEntity
  8
C-A
  6
Continuous
 62
     3
370
     9
100
AcDbLine
 10
-258.621131020623
 20
699.6433253932641
 30
0.0
 11
-249.6214361964041
 21
699.6433253932641
 31
0.0
  0
LINE
  5
20F
330
1F
100
AcDbEntity
  8
C-A
  6
Continuous
 62
     3
370
     9
100
AcDbLine
 10
-243.621131020623
 20
692.5722804713894
 30
0.0
 11
-234.6214361964041
 21
692.5722804713894
 31
0.0
  0
LINE
  5
210
330
1F
100
AcDbEntity
  8
C-A
  6
Continuous
 62
     3
370
     9
100
AcDbLine
 10
-243.621131020623
 20
696.1078029323269
 30
0.0
 11
-234.6214361964041
 21
696.1078029323269
 31
0.0
  0
LINE
  5
211
330
1F
100
AcDbEntity
  8
C-A
  6
Continuous
 62
     3
370
     9
100
AcDbLine
 10
-243.621131020623
 20
699.6433253932641
 30
0.0
 11
-234.6214361964041
 21
699.6433253932641
 31
0.0
  0
LINE
  5
212
330
1F
100
AcDbEntity
  8
C-A
  6
Continuous
 62
     3
370
     9
100
AcDbLine
 10
-228.621131020623
 20
692.5722804713894
 30
0.0
 11
-219.6214361964041
 21
692.5722804713894
 31
0.0
  0
LINE
  5
213
330
1F
100
AcDbEntity
  8
C-A
  6
Continuous
 62
     3
370
     9
100
AcDbLine
 10
-228.621131020623
 20
696.1078029323269
 30
0.0
 11
-219.6214361964041
 21
696.1078029323269
 31
0.0
  0
LINE
  5
214
330
1F
100
AcDbEntity
  8
C-A
  6
Continuous
 62
     3
370
     9
100
AcDbLine
 10
-228.621131020623
 20
699.6433253932641
 30
0.0
 11
-219.6214361964041
 21
699.6433253932641
 31
0.0
  0
LINE
  5
215
330
1F
100
AcDbEntity
  8
C-A
  6
Continuous
 62
     3
370
     9
100
AcDbLine
 10
-213.6211920557793
 20
692.5722804713894
 30
0.0
 11
-204.6214972315605
 21
692.5722804713894
 31
0.0
  0
LINE
  5
216
330
1F
100
AcDbEntity
  8
C-A
  6
Continuous
 62
     3
370
     9
100
AcDbLine
 10
-213.6211920557793
 20
696.1078029323269
 30
0.0
 11
-204.6214972315605
 21
696.1078029323269
 31
0.0
  0
LINE
  5
217
330
1F
100
AcDbEntity
  8
C-A
  6
Continuous
 62
     3
370
     9
100
AcDbLine
 10
-213.6211920557793
 20
699.6433253932641
 30
0.0
 11
-204.6214972315605
 21
699.6433253932641
 31
0.0
  0
LINE
  5
218
330
1F
100
AcDbEntity
  8
C-A
  6
Continuous
 62
     3
370
     9
100
AcDbLine
 10
-513.6210928736502
 20
592.5722804713894
 30
0.0
 11
-504.6213980494315
 21
592.5722804713894
 31
0.0
  0
LINE
  5
219
330
1F
100
AcDbEntity
  8
C-A
  6
Continuous
 62
     3
370
     9
100
AcDbLine
 10
-513.6210928736502
 20
596.1078029323269
 30
0.0
 11
-504.6213980494315
 21
596.1078029323269
 31
0.0
  0
LINE
  5
21A
330
1F
100
AcDbEntity
  8
C-A
  6
Continuous
 62
     3
370
     9
100
AcDbLine
 10
-513.6210928736502
 20
599.6433253932641
 30
0.0
 11
-504.6213980494315
 21
599.6433253932641
 31
0.0
  0
LINE
  5
21B
330
1F
100
AcDbEntity
  8
C-A
  6
Continuous
 62
     3
370
     9
100
AcDbLine
 10
-498.6210928736503
 20
592.5722804713894
 30
0.0
 11
-489.6213980494315
 21
592.5722804713894
 31
0.0
  0
LINE
  5
21C
330
1F
100
AcDbEntity
  8
C-A
  6
Continuous
 62
     3
370
     9
100
AcDbLine
 10
-498.6210928736503
 20
596.1078029323269
 30
0.0
 11
-489.6213980494315
 21
596.1078029323269
 31
0.0
  0
LINE
  5
21D
330
1F
100
AcDbEntity
  8
C-A
  6
Continuous
 62
     3
370
     9
100
AcDbLine
 10
-498.6210928736503
 20
599.6433253932641
 30
0.0
 11
-489.6213980494315
 21
599.6433253932641
 31
0.0
  0
LINE
  5
21E
330
1F
100
AcDbEntity
  8
C-A
  6
Continuous
 62
     3
370
     9
100
AcDbLine
 10
-483.6211005030448
 20
592.5722804713894
 30
0.0
 11
-474.621390420037
 21
592.5722804713894
 31
0.0
  0
LINE
  5
21F
330
1F
100
AcDbEntity
  8
C-A
  6
Continuous
 62
     3
370
     9
100
AcDbLine
 10
-483.6211005030448
 20
596.1078029323269
 30
0.0
 11
-474.621390420037
 21
596.1078029323269
 31
0.0
  0
LINE
  5
220
330
1F
100
AcDbEntity
  8
C-A
  6
Continuous
 62
     3
370
     9
100
AcDbLine
 10
-483.6211005030448
 20
599.6433253932641
 30
0.0
 11
-474.621390420037
 21
599.6433253932641
 31
0.0
  0
LINE
  5
221
330
1F
100
AcDbEntity
  8
C-A
  6
Continuous
 62
     3
370
     9
100
AcDbLine
 10
-468.6211005030448
 20
592.5722804713894
 30
0.0
 11
-459.621390420037
 21
592.5722804713894
 31
0.0
  0
LINE
  5
222
330
1F
100
AcDbEntity
  8
C-A
  6
Continuous
 62
     3
370
     9
100
AcDbLine
 10
-468.6211005030448
 20
596.1078029323269
 30
0.0
 11
-459.621390420037
 21
596.1078029323269
 31
0.0
  0
LINE
  5
223
330
1F
100
AcDbEntity
  8
C-A
  6
Continuous
 62
     3
370
     9
100
AcDbLine
 10
-468.6211005030448
 20
599.6433253932641
 30
0.0
 11
-459.621390420037
 21
599.6433253932641
 31
0.0
  0
LINE
  5
224
330
1F
100
AcDbEntity
  8
C-A
  6
Continuous
 62
     3
370
     9
100
AcDbLine
 10
-453.6211005030448
 20
592.5722804713894
 30
0.0
 11
-444.621390420037
 21
592.5722804713894
 31
0.0
  0
LINE
  5
225
330
1F
100
AcDbEntity
  8
C-A
  6
Continuous
 62
     3
370
     9
100
AcDbLine
 10
-453.6211005030448
 20
596.1078029323269
 30
0.0
 11
-444.621390420037
 21
596.1078029323269
 31
0.0
  0
LINE
  5
226
330
1F
100
AcDbEntity
  8
C-A
  6
Continuous
 62
     3
370
     9
100
AcDbLine
 10
-453.6211005030448
 20
599.6433253932641
 30
0.0
 11
-444.621390420037
 21
599.6433253932641
 31
0.0
  0
LINE
  5
227
330
1F
100
AcDbEntity
  8
C-A
  6
Continuous
 62
     3
370
     9
100
AcDbLine
 10
-438.6211005030448
 20
592.5722804713894
 30
0.0
 11
-429.621390420037
 21
592.5722804713894
 31
0.0
  0
LINE
  5
228
330
1F
100
AcDbEntity
  8
C-A
  6
Continuous
 62
     3
370
     9
100
AcDbLine
 10
-438.6211005030448
 20
596.1078029323269
 30
0.0
 11
-429.621390420037
 21
596.1078029323269
 31
0.0
  0
LINE
  5
229
330
1F
100
AcDbEntity
  8
C-A
  6
Continuous
 62
     3
370
     9
100
AcDbLine
 10
-438.6211005030448
 20
599.6433253932641
 30
0.0
 11
-429.621390420037
 21
599.6433253932641
 31
0.0
  0
LINE
  5
22A
330
1F
100
AcDbEntity
  8
C-A
  6
Continuous
 62
     3
370
     9
100
AcDbLine
 10
-423.6211005030448
 20
592.5722804713894
 30
0.0
 11
-414.621390420037
 21
592.5722804713894
 31
0.0
  0
LINE
  5
22B
330
1F
100
AcDbEntity
  8
C-A
  6
Continuous
 62
     3
370
     9
100
AcDbLine
 10
-423.6211005030448
 20
596.1078029323269
 30
0.0
 11
-414.621390420037
 21
596.1078029323269
 31
0.0
  0
LINE
  5
22C
330
1F
100
AcDbEntity
  8
C-A
  6
Continuous
 62
     3
370
     9
100
AcDbLine
 10
-423.6211005030448
 20
599.6433253932641
 30
0.0
 11
-414.621390420037
 21
599.6433253932641
 31
0.0
  0
LINE
  5
22D
330
1F
100
AcDbEntity
  8
C-A
  6
Continuous
 62
     3
370
     9
100
AcDbLine
 10
-408.6211005030448
 20
592.5722804713894
 30
0.0
 11
-399.621390420037
 21
592.5722804713894
 31
0.0
  0
LINE
  5
22E
330
1F
100
AcDbEntity
  8
C-A
  6
Continuous
 62
     3
370
     9
100
AcDbLine
 10
-408.6211005030448
 20
596.1078029323269
 30
0.0
 11
-399.621390420037
 21
596.1078029323269
 31
0.0
  0
LINE
  5
22F
330
1F
100
AcDbEntity
  8
C-A
  6
Continuous
 62
     3
370
     9
100
AcDbLine
 10
-408.6211005030448
 20
599.6433253932641
 30
0.0
 11
-399.621390420037
 21
599.6433253932641
 31
0.0
  0
LINE
  5
230
330
1F
100
AcDbEntity
  8
C-A
  6
Continuous
 62
     3
370
     9
100
AcDbLine
 10
-393.6211005030448
 20
592.5722804713894
 30
0.0
 11
-384.621390420037
 21
592.5722804713894
 31
0.0
  0
LINE
  5
231
330
1F
100
AcDbEntity
  8
C-A
  6
Continuous
 62
     3
370
     9
100
AcDbLine
 10
-393.6211005030448
 20
596.1078029323269
 30
0.0
 11
-384.621390420037
 21
596.1078029323269
 31
0.0
  0
LINE
  5
232
330
1F
100
AcDbEntity
  8
C-A
  6
Continuous
 62
     3
370
     9
100
AcDbLine
 10
-393.6211005030448
 20
599.6433253932641
 30
0.0
 11
-384.621390420037
 21
599.6433253932641
 31
0.0
  0
LINE
  5
233
330
1F
100
AcDbEntity
  8
C-A
  6
Continuous
 62
     3
370
     9
100
AcDbLine
 10
-378.6211005030448
 20
592.5722804713894
 30
0.0
 11
-369.621390420037
 21
592.5722804713894
 31
0.0
  0
LINE
  5
234
330
1F
100
AcDbEntity
  8
C-A
  6
Continuous
 62
     3
370
     9
100
AcDbLine
 10
-378.6211005030448
 20
596.1078029323269
 30
0.0
 11
-369.621390420037
 21
596.1078029323269
 31
0.0
  0
LINE
  5
235
330
1F
100
AcDbEntity
  8
C-A
  6
Continuous
 62
     3
370
     9
100
AcDbLine
 10
-378.6211005030448
 20
599.6433253932641
 30
0.0
 11
-369.621390420037
 21
599.6433253932641
 31
0.0
  0
LINE
  5
236
330
1F
100
AcDbEntity
  8
C-A
  6
Continuous
 62
     3
370
     9
100
AcDbLine
 10
-363.6211005030448
 20
592.5722804713894
 30
0.0
 11
-354.6214056788261
 21
592.5722804713894
 31
0.0
  0
LINE
  5
237
330
1F
100
AcDbEntity
  8
C-A
  6
Continuous
 62
     3
370
     9
100
AcDbLine
 10
-363.6211005030448
 20
596.1078029323269
 30
0.0
 11
-354.6214056788261
 21
596.1078029323269
 31
0.0
  0
LINE
  5
238
330
1F
100
AcDbEntity
  8
C-A
  6
Continuous
 62
     3
370
     9
100
AcDbLine
 10
-363.6211005030448
 20
599.6433253932641
 30
0.0
 11
-354.6214056788261
 21
599.6433253932641
 31
0.0
  0
LINE
  5
239
330
1F
100
AcDbEntity
  8
C-A
  6
Continuous
 62
     3
370
     9
100
AcDbLine
 10
-348.6211005030448
 20
592.5722804713894
 30
0.0
 11
-339.6214056788261
 21
592.5722804713894
 31
0.0
  0
LINE
  5
23A
330
1F
100
AcDbEntity
  8
C-A
  6
Continuous
 62
     3
370
     9
100
AcDbLine
 10
-348.6211005030448
 20
596.1078029323269
 30
0.0
 11
-339.6214056788261
 21
596.1078029323269
 31
0.0
  0
LINE
  5
23B
330
1F
100
AcDbEntity
  8
C-A
  6
Continuous
 62
     3
370
     9
100
AcDbLine
 10
-348.6211005030448
 20
599.6433253932641
 30
0.0
 11
-339.6214056788261
 21
599.6433253932641
 31
0.0
  0
LINE
  5
23C
330
1F
100
AcDbEntity
  8
C-A
  6
Continuous
 62
     3
370
     9
100
AcDbLine
 10
-333.6211005030448
 20
592.5722804713894
 30
0.0
 11
-324.6214056788261
 21
592.5722804713894
 31
0.0
  0
LINE
  5
23D
330
1F
100
AcDbEntity
  8
C-A
  6
Continuous
 62
     3
370
     9
100
AcDbLine
 10
-333.6211005030448
 20
596.1078029323269
 30
0.0
 11
-324.6214056788261
 21
596.1078029323269
 31
0.0
  0
LINE
  5
23E
330
1F
100
AcDbEntity
  8
C-A
  6
Continuous
 62
     3
370
     9
100
AcDbLine
 10
-333.6211005030448
 20
599.6433253932641
 30
0.0
 11
-324.6214056788261
 21
599.6433253932641
 31
0.0
  0
LINE
  5
23F
330
1F
100
AcDbEntity
  8
C-A
  6
Continuous
 62
     3
370
     9
100
AcDbLine
 10
-318.6211005030448
 20
592.5722804713894
 30
0.0
 11
-309.6214056788261
 21
592.5722804713894
 31
0.0
  0
LINE
  5
240
330
1F
100
AcDbEntity
  8
C-A
  6
Continuous
 62
     3
370
     9
100
AcDbLine
 10
-318.6211005030448
 20
596.1078029323269
 30
0.0
 11
-309.6214056788261
 21
596.1078029323269
 31
0.0
  0
LINE
  5
241
330
1F
100
AcDbEntity
  8
C-A
  6
Continuous
 62
     3
370
     9
100
AcDbLine
 10
-318.6211005030448
 20
599.6433253932641
 30
0.0
 11
-309.6214056788261
 21
599.6433253932641
 31
0.0
  0
LINE
  5
242
330
1F
100
AcDbEntity
  8
C-A
  6
Continuous
 62
     3
370
     9
100
AcDbLine
 10
-303.6211005030448
 20
592.5722804713894
 30
0.0
 11
-294.6214056788261
 21
592.5722804713894
 31
0.0
  0
LINE
  5
243
330
1F
100
AcDbEntity
  8
C-A
  6
Continuous
 62
     3
370
     9
100
AcDbLine
 10
-303.6211005030448
 20
596.1078029323269
 30
0.0
 11
-294.6214056788261
 21
596.1078029323269
 31
0.0
  0
LINE
  5
244
330
1F
100
AcDbEntity
  8
C-A
  6
Continuous
 62
     3
370
     9
100
AcDbLine
 10
-303.6211005030448
 20
599.6433253932641
 30
0.0
 11
-294.6214056788261
 21
599.6433253932641
 31
0.0
  0
LINE
  5
245
330
1F
100
AcDbEntity
  8
C-A
  6
Continuous
 62
     3
370
     9
100
AcDbLine
 10
-288.6211005030448
 20
596.1078029323269
 30
0.0
 11
-279.6214056788261
 21
596.1078029323269
 31
0.0
  0
LINE
  5
246
330
1F
100
AcDbEntity
  8
C-A
  6
Continuous
 62
     3
370
     9
100
AcDbLine
 10
-288.6211005030448
 20
599.6433253932641
 30
0.0
 11
-279.6214056788261
 21
599.6433253932641
 31
0.0
  0
LINE
  5
247
330
1F
100
AcDbEntity
  8
C-A
  6
Continuous
 62
     3
370
     9
100
AcDbLine
 10
-523.1212073145683
 20
792.5722804713894
 30
0.0
 11
-519.6217184840019
 21
792.5722804713894
 31
0.0
  0
LINE
  5
248
330
1F
100
AcDbEntity
  8
C-A
  6
Continuous
 62
     3
370
     9
100
AcDbLine
 10
-523.1212073145683
 20
796.1078029323269
 30
0.0
 11
-519.6217184840019
 21
796.1078029323269
 31
0.0
  0
LINE
  5
249
330
1F
100
AcDbEntity
  8
C-A
  6
Continuous
 62
     3
370
     9
100
AcDbLine
 10
-523.1212073145683
 20
799.6433253932641
 30
0.0
 11
-519.6217184840019
 21
799.6433253932641
 31
0.0
  0
LINE
  5
24A
330
1F
100
AcDbEntity
  8
C-A
  6
Continuous
 62
     3
370
     9
100
AcDbLine
 10
-519.6217184840019
 20
692.5722804713894
 30
0.0
 11
-523.1212073145683
 21
692.5722804713894
 31
0.0
  0
LINE
  5
24B
330
1F
100
AcDbEntity
  8
C-A
  6
Continuous
 62
     3
370
     9
100
AcDbLine
 10
-519.6217184840019
 20
696.1078029323269
 30
0.0
 11
-523.1212073145683
 21
696.1078029323269
 31
0.0
  0
LINE
  5
24C
330
1F
100
AcDbEntity
  8
C-A
  6
Continuous
 62
     3
370
     9
100
AcDbLine
 10
-519.6217184840019
 20
699.6433253932641
 30
0.0
 11
-523.1212073145683
 21
699.6433253932641
 31
0.0
  0
LINE
  5
24D
330
1F
100
AcDbEntity
  8
C-A
  6
Continuous
 62
     3
370
     9
100
AcDbLine
 10
-519.6217184840019
 20
592.5722804713894
 30
0.0
 11
-523.1212073145683
 21
592.5722804713894
 31
0.0
  0
LINE
  5
24E
330
1F
100
AcDbEntity
  8
C-A
  6
Continuous
 62
     3
370
     9
100
AcDbLine
 10
-519.6217184840019
 20
596.1078029323269
 30
0.0
 11
-523.1212073145683
 21
596.1078029323269
 31
0.0
  0
LINE
  5
24F
330
1F
100
AcDbEntity
  8
C-A
  6
Continuous
 62
     3
370
     9
100
AcDbLine
 10
-519.6217184840019
 20
599.6433253932641
 30
0.0
 11
-523.1212073145683
 21
599.6433253932641
 31
0.0
  0
LINE
  5
250
330
1F
100
AcDbEntity
  8
C-A
  6
Continuous
 62
     3
370
     9
100
AcDbLine
 10
-523.1212073145683
 20
499.1082912135769
 30
0.0
 11
-523.1212073145683
 21
893.1073146510769
 31
0.0
  0
LINE
  5
251
330
1F
100
AcDbEntity
  8
C-2
  6
Continuous
 62
     3
370
     9
100
AcDbLine
 10
-529.1213370142754
 20
496.1077266383816
 30
0.0
 11
-529.1213370142754
 21
896.1078639674829
 31
0.0
  0
LINE
  5
252
330
1F
100
AcDbEntity
  8
C-1
  6
Continuous
 62
     2
370
     9
100
AcDbLine
 10
-530.1216879664237
 20
495.1076198268581
 30
0.0
 11
-530.1216879664237
 21
897.1076808620146
 31
0.0
  0
LINE
  5
253
330
1F
100
AcDbEntity
  8
C-A
  6
Continuous
 62
     3
370
     9
100
AcDbLine
 10
-288.6211005030448
 20
592.5722804713894
 30
0.0
 11
-282.6571417628105
 21
592.5722804713894
 31
0.0
  0
LINE
  5
254
330
1F
100
AcDbEntity
  8
C-A
  6
Continuous
 62
     3
370
     9
100
AcDbLine
 10
-198.6211920557793
 20
692.5722804713894
 30
0.0
 11
-189.6214972315605
 21
692.5722804713894
 31
0.0
  0
LINE
  5
255
330
1F
100
AcDbEntity
  8
C-A
  6
Continuous
 62
     3
370
     9
100
AcDbLine
 10
-198.6211920557793
 20
696.1078029323269
 30
0.0
 11
-189.6214972315605
 21
696.1078029323269
 31
0.0
  0
LINE
  5
256
330
1F
100
AcDbEntity
  8
C-A
  6
Continuous
 62
     3
370
     9
100
AcDbLine
 10
-198.6211920557793
 20
699.6433253932641
 30
0.0
 11
-189.6214972315605
 21
699.6433253932641
 31
0.0
  0
LINE
  5
257
330
1F
100
AcDbEntity
  8
C-A
  6
Continuous
 62
     3
370
     9
100
AcDbLine
 10
-183.6212530909354
 20
699.6433253932641
 30
0.0
 11
-175.5858832178885
 21
699.6433253932641
 31
0.0
  0
LINE
  5
258
330
1F
100
AcDbEntity
  8
C-A
  6
Continuous
 62
     3
370
     9
100
AcDbLine
 10
-183.6212530909354
 20
696.1078029323269
 30
0.0
 11
-179.121405678826
 21
696.1078029323269
 31
0.0
  0
LINE
  5
259
330
1F
100
AcDbEntity
  8
C-A
  6
Continuous
 62
     3
370
     9
100
AcDbLine
 10
-183.6210394678886
 20
893.1073146510769
 30
0.0
 11
-183.6210394678886
 21
691.6081691432644
 31
0.0
  0
LINE
  5
25A
330
1F
100
AcDbEntity
  8
C-A
  6
Continuous
 62
     3
370
     9
100
AcDbLine
 10
-183.6212530909354
 20
692.5722804713894
 30
0.0
 11
-182.6569586573416
 21
692.5722804713894
 31
0.0
  0
LINE
  5
25B
330
1F
100
AcDbEntity
  8
C-A
  6
Continuous
 62
     3
370
     9
100
AcDbLine
 10
-168.6212530909354
 20
799.6433253932641
 30
0.0
 11
-159.6215582667167
 21
799.6433253932641
 31
0.0
  0
LINE
  5
25C
330
1F
100
AcDbEntity
  8
C-A
  6
Continuous
 62
     3
370
     9
100
AcDbLine
 10
-168.6212530909354
 20
796.1078029323269
 30
0.0
 11
-159.6215582667167
 21
796.1078029323269
 31
0.0
  0
LINE
  5
25D
330
1F
100
AcDbEntity
  8
C-A
  6
Continuous
 62
     3
370
     9
100
AcDbLine
 10
-168.6212530909354
 20
792.5722804713894
 30
0.0
 11
-159.6215582667167
 21
792.5722804713894
 31
0.0
  0
LINE
  5
25E
330
1F
100
AcDbEntity
  8
C-A
  6
Continuous
 62
     3
370
     9
100
AcDbLine
 10
-183.6211920557793
 20
799.6433253932641
 30
0.0
 11
-174.6214972315605
 21
799.6433253932641
 31
0.0
  0
LINE
  5
25F
330
1F
100
AcDbEntity
  8
C-A
  6
Continuous
 62
     3
370
     9
100
AcDbLine
 10
-183.6211920557793
 20
796.1078029323269
 30
0.0
 11
-174.6214972315605
 21
796.1078029323269
 31
0.0
  0
LINE
  5
260
330
1F
100
AcDbEntity
  8
C-A
  6
Continuous
 62
     3
370
     9
100
AcDbLine
 10
-183.6211920557793
 20
792.5722804713894
 30
0.0
 11
-174.6214972315605
 21
792.5722804713894
 31
0.0
  0
LINE
  5
261
330
1F
100
AcDbEntity
  8
C-A
  6
Continuous
 62
     3
370
     9
100
AcDbLine
 10
-198.6211920557793
 20
799.6433253932641
 30
0.0
 11
-189.6214972315605
 21
799.6433253932641
 31
0.0
  0
LINE
  5
262
330
1F
100
AcDbEntity
  8
C-A
  6
Continuous
 62
     3
370
     9
100
AcDbLine
 10
-198.6211920557793
 20
796.1078029323269
 30
0.0
 11
-189.6214972315605
 21
796.1078029323269
 31
0.0
  0
LINE
  5
263
330
1F
100
AcDbEntity
  8
C-A
  6
Continuous
 62
     3
370
     9
100
AcDbLine
 10
-198.6211920557793
 20
792.5722804713894
 30
0.0
 11
-189.6214972315605
 21
792.5722804713894
 31
0.0
  0
LINE
  5
264
330
1F
100
AcDbEntity
  8
C-A
  6
Continuous
 62
     3
370
     9
100
AcDbLine
 10
-153.6212530909354
 20
799.6433253932641
 30
0.0
 11
-144.6215582667167
 21
799.6433253932641
 31
0.0
  0
LINE
  5
265
330
1F
100
AcDbEntity
  8
C-A
  6
Continuous
 62
     3
370
     9
100
AcDbLine
 10
-153.6212530909354
 20
796.1078029323269
 30
0.0
 11
-144.6215582667167
 21
796.1078029323269
 31
0.0
  0
LINE
  5
266
330
1F
100
AcDbEntity
  8
C-A
  6
Continuous
 62
     3
370
     9
100
AcDbLine
 10
-153.6212530909354
 20
792.5722804713894
 30
0.0
 11
-144.6215582667167
 21
792.5722804713894
 31
0.0
  0
LINE
  5
267
330
1F
100
AcDbEntity
  8
C-2
  6
Continuous
 62
     3
370
     9
100
AcDbLine
 10
-129.1214667139823
 20
896.1078639674829
 30
0.0
 11
-129.1214667139823
 21
496.1077266383816
 31
0.0
  0
LINE
  5
268
330
1F
100
AcDbEntity
  8
C-A
  6
Continuous
 62
     3
370
     9
100
AcDbLine
 10
-138.6212530909354
 20
799.6433253932641
 30
0.0
 11
-135.1215887842948
 21
799.6433253932641
 31
0.0
  0
LINE
  5
269
330
1F
100
AcDbEntity
  8
C-A
  6
Continuous
 62
     3
370
     9
100
AcDbLine
 10
-138.6212530909354
 20
796.1078029323269
 30
0.0
 11
-135.1215887842948
 21
796.1078029323269
 31
0.0
  0
LINE
  5
26A
330
1F
100
AcDbEntity
  8
C-A
  6
Continuous
 62
     3
370
     9
100
AcDbLine
 10
-138.6212530909354
 20
792.5722804713894
 30
0.0
 11
-135.1215887842948
 21
792.5722804713894
 31
0.0
  0
LINE
  5
26B
330
1F
100
AcDbEntity
  8
C-A
  6
Continuous
 62
     3
370
     9
100
AcDbLine
 10
-135.1215887842948
 20
893.1073146510769
 30
0.0
 11
-135.1215887842948
 21
740.1075282741238
 31
0.0
  0
TEXT
  5
26C
330
1F
100
AcDbEntity
  8
C-5
  6
Continuous
 62
     2
370
     9
100
AcDbText
 10
-596.62152584179
 20
341.2477943492579
 30
0.0
 40
30.48
  1
平面詳細図　Ｓ＝１：１０
 41
1.114583333333333
  7
ＭＳ ゴシック
100
AcDbText
  0
TEXT
  5
26D
330
1F
100
AcDbEntity
  8
C-5
  6
Continuous
 62
     2
370
     9
100
AcDbText
 10
-202.881384926873
 20
598.8187257838894
 30
0.0
 40
30.48
  1
Ａ
 41
0.9999999999999998
  7
ＭＳ ゴシック
100
AcDbText
  0
LWPOLYLINE
  5
26E
330
1F
100
AcDbEntity
  8
C-4
  6
Continuous
 62
     7
370
     9
100
AcDbPolyline
 90
        4
 70
     1
 43
1.0
 10
-529.6216879664237
 20
1031.10725361592
 42
0.4142135623731
 10
-530.1216879664237
 20
1031.60725361592
 42
0.4142135623731
 10
-530.6216879664237
 20
1031.10725361592
 42
0.4142135623731
 10
-530.1216879664237
 20
1030.60725361592
 42
0.4142135623731
  0
LINE
  5
26F
330
1F
100
AcDbEntity
  8
C-4
  6
Continuous
 62
     7
370
     9
100
AcDbLine
 10
-530.1216879664237
 20
1031.10725361592
 30
0.0
 11
-529.1213370142754
 21
1031.10725361592
 31
0.0
  0
LWPOLYLINE
  5
270
330
1F
100
AcDbEntity
  8
C-4
  6
Continuous
 62
     7
370
     9
100
AcDbPolyline
 90
        4
 70
     1
 43
1.0
 10
-528.6213370142754
 20
1031.10725361592
 42
0.4142135623731
 10
-529.1213370142754
 20
1031.60725361592
 42
0.4142135623731
 10
-529.6213370142754
 20
1031.10725361592
 42
0.4142135623731
 10
-529.1213370142754
 20
1030.60725361592
 42
0.4142135623731
  0
LINE
  5
271
330
1F
100
AcDbEntity
  8
C-4
  6
Continuous
 62
     7
370
     9
100
AcDbLine
 10
-529.1213370142754
 20
1031.10725361592
 30
0.0
 11
-129.1214667139823
 21
1031.10725361592
 31
0.0
  0
LWPOLYLINE
  5
272
330
1F
100
AcDbEntity
  8
C-4
  6
Continuous
 62
     7
370
     9
100
AcDbPolyline
 90
        4
 70
     1
 43
1.0
 10
-128.6214667139823
 20
1031.10725361592
 42
0.4142135623731
 10
-129.1214667139823
 20
1031.60725361592
 42
0.4142135623731
 10
-129.6214667139823
 20
1031.10725361592
 42
0.4142135623731
 10
-129.1214667139823
 20
1030.60725361592
 42
0.4142135623731
  0
TEXT
  5
273
330
1F
100
AcDbEntity
  8
C-4
  6
Continuous
 62
     2
370
   211
100
AcDbText
 10
-361.6214018641289
 20
1042.747253854339
 30
0.0
 40
30.48
  1
400
 41
1.083333333333333
  7
ＭＳ ゴシック
100
AcDbText
  0
LINE
  5
274
330
1F
100
AcDbEntity
  8
C-4
  6
Continuous
 62
     7
370
     9
100
AcDbLine
 10
-129.1214667139823
 20
1031.10725361592
 30
0.0
 11
-128.1215887842948
 21
1031.10725361592
 31
0.0
  0
LWPOLYLINE
  5
275
330
1F
100
AcDbEntity
  8
C-4
  6
Continuous
 62
     7
370
     9
100
AcDbPolyline
 90
        4
 70
     1
 43
1.0
 10
-127.6215887842948
 20
1031.10725361592
 42
0.4142135623731
 10
-128.1215887842948
 20
1031.60725361592
 42
0.4142135623731
 10
-128.6215887842948
 20
1031.10725361592
 42
0.4142135623731
 10
-128.1215887842948
 20
1030.60725361592
 42
0.4142135623731
  0
LINE
  5
276
330
1F
100
AcDbEntity
  8
C-4
  6
Continuous
 62
     7
370
     9
100
AcDbLine
 10
-529.1213370142754
 20
976.1077418971704
 30
0.0
 11
-504.1214667139823
 21
976.1077418971704
 31
0.0
  0
LWPOLYLINE
  5
277
330
1F
100
AcDbEntity
  8
C-4
  6
Continuous
 62
     7
370
     9
100
AcDbPolyline
 90
        4
 70
     1
 43
1.0
 10
-528.6213370142754
 20
976.1077418971704
 42
0.4142135623731
 10
-529.1213370142754
 20
976.6077418971703
 42
0.4142135623731
 10
-529.6213370142754
 20
976.1077418971704
 42
0.4142135623731
 10
-529.1213370142754
 20
975.6077418971704
 42
0.4142135623731
  0
LWPOLYLINE
  5
278
330
1F
100
AcDbEntity
  8
C-4
  6
Continuous
 62
     7
370
     9
100
AcDbPolyline
 90
        4
 70
     1
 43
1.0
 10
-503.6214667139824
 20
976.1077418971704
 42
0.4142135623731
 10
-504.1214667139823
 20
976.6077418971703
 42
0.4142135623731
 10
-504.6214667139823
 20
976.1077418971704
 42
0.4142135623731
 10
-504.1214667139823
 20
975.6077418971704
 42
0.4142135623731
  0
LINE
  5
279
330
1F
100
AcDbEntity
  8
C-4
  6
Continuous
 62
     7
370
     9
100
AcDbLine
 10
-504.1214667139823
 20
976.1077418971704
 30
0.0
 11
-154.1213141260917
 21
976.1077418971704
 31
0.0
  0
LWPOLYLINE
  5
27A
330
1F
100
AcDbEntity
  8
C-4
  6
Continuous
 62
     7
370
     9
100
AcDbPolyline
 90
        4
 70
     1
 43
1.0
 10
-153.6213141260917
 20
976.1077418971704
 42
0.4142135623731
 10
-154.1213141260917
 20
976.6077418971703
 42
0.4142135623731
 10
-154.6213141260917
 20
976.1077418971704
 42
0.4142135623731
 10
-154.1213141260917
 20
975.6077418971704
 42
0.4142135623731
  0
TEXT
  5
27B
330
1F
100
AcDbEntity
  8
C-4
  6
Continuous
 62
     2
370
   211
100
AcDbText
 10
-361.621390420037
 20
987.747742135589
 30
0.0
 40
30.48
  1
350
 41
1.083333333333333
  7
ＭＳ ゴシック
100
AcDbText
  0
LINE
  5
27C
330
1F
100
AcDbEntity
  8
C-4
  6
Continuous
 62
     7
370
     9
100
AcDbLine
 10
-154.1213141260917
 20
976.1077418971704
 30
0.0
 11
-129.1214667139823
 21
976.1077418971704
 31
0.0
  0
LWPOLYLINE
  5
27D
330
1F
100
AcDbEntity
  8
C-4
  6
Continuous
 62
     7
370
     9
100
AcDbPolyline
 90
        4
 70
     1
 43
1.0
 10
-128.6214667139823
 20
976.1077418971704
 42
0.4142135623731
 10
-129.1214667139823
 20
976.6077418971703
 42
0.4142135623731
 10
-129.6214667139823
 20
976.1077418971704
 42
0.4142135623731
 10
-129.1214667139823
 20
975.6077418971704
 42
0.4142135623731
  0
LINE
  5
27E
330
1F
100
AcDbEntity
  8
C-4
  6
Continuous
 62
     7
370
     9
100
AcDbLine
 10
-530.1216879664237
 20
1034.10725373513
 30
0.0
 11
-530.1216879664237
 21
924.1076808620144
 31
0.0
  0
LINE
  5
27F
330
1F
100
AcDbEntity
  8
C-4
  6
Continuous
 62
     7
370
     9
100
AcDbLine
 10
-529.1213370142754
 20
1034.10725373513
 30
0.0
 11
-529.1213370142754
 21
924.1076808620144
 31
0.0
  0
LINE
  5
280
330
1F
100
AcDbEntity
  8
C-4
  6
Continuous
 62
     7
370
     9
100
AcDbLine
 10
-129.1214667139823
 20
1034.10725373513
 30
0.0
 11
-129.1214667139823
 21
924.1076808620144
 31
0.0
  0
LINE
  5
281
330
1F
100
AcDbEntity
  8
C-4
  6
Continuous
 62
     7
370
     9
100
AcDbLine
 10
-128.1215887842948
 20
1034.10725373513
 30
0.0
 11
-128.1215887842948
 21
924.1076808620144
 31
0.0
  0
LINE
  5
282
330
1F
100
AcDbEntity
  8
C-4
  6
Continuous
 62
     7
370
     9
100
AcDbLine
 10
-504.1214667139823
 20
979.1077420163797
 30
0.0
 11
-504.1214667139823
 21
924.1076808620144
 31
0.0
  0
LINE
  5
283
330
1F
100
AcDbEntity
  8
C-4
  6
Continuous
 62
     7
370
     9
100
AcDbLine
 10
-154.1213141260917
 20
979.1077420163797
 30
0.0
 11
-154.1213141260917
 21
924.1076808620144
 31
0.0
  0
TEXT
  5
284
330
1F
100
AcDbEntity
  8
C-4
  6
Continuous
 62
     2
370
   211
100
AcDbText
 10
-517.8714018641289
 20
987.747742135589
 30
0.0
 40
30.48
  1
25
 41
1.0625
  7
ＭＳ ゴシック
100
AcDbText
  0
TEXT
  5
285
330
1F
100
AcDbEntity
  8
C-4
  6
Continuous
 62
     2
370
   211
100
AcDbText
 10
-158.6215277491385
 20
1042.747253854339
 30
0.0
 40
30.48
  1
1
 41
0.9999999999999998
  7
ＭＳ ゴシック
100
AcDbText
  0
TEXT
  5
286
330
1F
100
AcDbEntity
  8
C-4
  6
Continuous
 62
     2
370
   211
100
AcDbText
 10
-519.6215124903495
 20
1042.747253854339
 30
0.0
 40
30.48
  1
1
 41
0.9999999999999998
  7
ＭＳ ゴシック
100
AcDbText
  0
LINE
  5
287
330
1F
100
AcDbEntity
  8
C-5
  6
Continuous
 62
     7
370
     9
100
AcDbLine
 10
108.3790520848459
 20
323.1081081081082
 30
0.0
 11
108.3790520848459
 21
388.1076503444364
 31
0.0
  0
LINE
  5
288
330
1F
100
AcDbEntity
  8
C-5
  6
Continuous
 62
     7
370
     9
100
AcDbLine
 10
108.3790520848459
 20
388.1076503444364
 30
0.0
 11
583.3794488133616
 21
388.1076503444364
 31
0.0
  0
LINE
  5
289
330
1F
100
AcDbEntity
  8
C-5
  6
Continuous
 62
     7
370
     9
100
AcDbLine
 10
583.3794488133616
 20
388.1076503444364
 30
0.0
 11
583.3794488133616
 21
323.1081081081082
 31
0.0
  0
LINE
  5
28A
330
1F
100
AcDbEntity
  8
C-5
  6
Continuous
 62
     7
370
     9
100
AcDbLine
 10
583.3794488133616
 20
323.1081081081082
 30
0.0
 11
108.3790520848459
 21
323.1081081081082
 31
0.0
  0
LINE
  5
28B
330
1F
100
AcDbEntity
  8
C-5
  6
Continuous
 62
     7
370
     9
100
AcDbLine
 10
117.1255730809396
 20
780.9769983936003
 30
0.0
 11
555.160576743049
 21
780.9769983936003
 31
0.0
  0
LINE
  5
28C
330
1F
100
AcDbEntity
  8
C-5
  6
Continuous
 62
     7
370
     9
100
AcDbLine
 10
396.9043511571115
 20
1133.004348342484
 30
0.0
 11
642.6138238133615
 21
1133.004348342484
 31
0.0
  0
LINE
  5
28D
330
1F
100
AcDbEntity
  8
C-2
  6
Continuous
 62
     3
370
     9
100
AcDbLine
 10
305.8713921727365
 20
857.422858779495
 30
0.0
 11
305.8713921727365
 21
1196.779128615921
 31
0.0
  0
LINE
  5
28E
330
1F
100
AcDbEntity
  8
C-2
  6
Continuous
 62
     3
370
     9
100
AcDbLine
 10
365.8706597508615
 20
843.9381786037138
 30
0.0
 11
365.8706597508615
 21
1183.29444844014
 31
0.0
  0
LINE
  5
28F
330
1F
100
AcDbEntity
  8
C-2
  6
Continuous
 62
     3
370
     9
100
AcDbLine
 10
310.8711480321115
 20
900.1768870998076
 30
0.0
 11
310.8711480321115
 21
940.1770778346709
 31
0.0
  0
LINE
  5
290
330
1F
100
AcDbEntity
  8
C-2
  6
Continuous
 62
     3
370
     9
100
AcDbLine
 10
310.8711480321115
 20
940.1770778346709
 30
0.0
 11
360.8709038914865
 21
925.1767726588896
 31
0.0
  0
LINE
  5
291
330
1F
100
AcDbEntity
  8
C-2
  6
Continuous
 62
     3
370
     9
100
AcDbLine
 10
360.8709038914865
 20
915.1771999049835
 30
0.0
 11
360.8709038914865
 21
925.1767726588896
 31
0.0
  0
LINE
  5
292
330
1F
100
AcDbEntity
  8
C-2
  6
Continuous
 62
     3
370
     9
100
AcDbLine
 10
360.8709038914865
 20
915.1771999049835
 30
0.0
 11
310.8711480321115
 21
900.1768870998076
 31
0.0
  0
LINE
  5
293
330
1F
100
AcDbEntity
  8
C-2
  6
Continuous
 62
     3
370
     9
100
AcDbLine
 10
365.8706597508615
 20
911.457229201858
 30
0.0
 11
305.8713921727365
 21
893.4563670802761
 31
0.0
  0
LINE
  5
294
330
1F
100
AcDbEntity
  8
C-2
  6
Continuous
 62
     3
370
     9
100
AcDbLine
 10
305.8713921727365
 20
946.8975978542018
 30
0.0
 11
365.8706597508615
 21
928.8967433620145
 31
0.0
  0
LINE
  5
295
330
1F
100
AcDbEntity
  8
C-2
  6
Continuous
 62
     3
370
     9
100
AcDbLine
 10
360.8709038914865
 20
1005.177138869827
 30
0.0
 11
360.8709038914865
 21
1045.177321975296
 31
0.0
  0
LINE
  5
296
330
1F
100
AcDbEntity
  8
C-2
  6
Continuous
 62
     3
370
     9
100
AcDbLine
 10
360.8709038914865
 20
1045.177321975296
 30
0.0
 11
310.8711480321115
 21
1030.177016799514
 31
0.0
  0
LINE
  5
297
330
1F
100
AcDbEntity
  8
C-2
  6
Continuous
 62
     3
370
     9
100
AcDbLine
 10
310.8711480321115
 20
1020.177444045608
 30
0.0
 11
310.8711480321115
 21
1030.177016799514
 31
0.0
  0
LINE
  5
298
330
1F
100
AcDbEntity
  8
C-2
  6
Continuous
 62
     3
370
     9
100
AcDbLine
 10
310.8711480321115
 20
1020.177444045608
 30
0.0
 11
360.8709038914865
 21
1005.177138869827
 31
0.0
  0
LINE
  5
299
330
1F
100
AcDbEntity
  8
C-2
  6
Continuous
 62
     3
370
     9
100
AcDbLine
 10
305.8713921727365
 20
1016.457473342483
 30
0.0
 11
365.8706597508615
 21
998.456618850296
 31
0.0
  0
LINE
  5
29A
330
1F
100
AcDbEntity
  8
C-2
  6
Continuous
 62
     3
370
     9
100
AcDbLine
 10
365.8706597508615
 20
1051.898086135452
 30
0.0
 11
305.8713921727365
 21
1033.89698750264
 31
0.0
  0
LINE
  5
29B
330
1F
100
AcDbEntity
  8
C-2
  6
Continuous
 62
     3
370
     9
100
AcDbLine
 10
310.8711480321115
 20
1110.177138869827
 30
0.0
 11
310.8711480321115
 21
1150.177321975296
 31
0.0
  0
LINE
  5
29C
330
1F
100
AcDbEntity
  8
C-2
  6
Continuous
 62
     3
370
     9
100
AcDbLine
 10
310.8711480321115
 20
1150.177321975296
 30
0.0
 11
360.8709038914865
 21
1135.177016799514
 31
0.0
  0
LINE
  5
29D
330
1F
100
AcDbEntity
  8
C-2
  6
Continuous
 62
     3
370
     9
100
AcDbLine
 10
360.8709038914865
 20
1125.177444045608
 30
0.0
 11
360.8709038914865
 21
1135.177016799514
 31
0.0
  0
LINE
  5
29E
330
1F
100
AcDbEntity
  8
C-2
  6
Continuous
 62
     3
370
     9
100
AcDbLine
 10
360.8709038914865
 20
1125.177444045608
 30
0.0
 11
310.8711480321115
 21
1110.177138869827
 31
0.0
  0
LINE
  5
29F
330
1F
100
AcDbEntity
  8
C-2
  6
Continuous
 62
     3
370
     9
100
AcDbLine
 10
365.8706597508615
 20
1121.457473342483
 30
0.0
 11
305.8713921727365
 21
1103.456618850296
 31
0.0
  0
LINE
  5
2A0
330
1F
100
AcDbEntity
  8
C-2
  6
Continuous
 62
     3
370
     9
100
AcDbLine
 10
305.8713921727365
 20
1156.897841994827
 30
0.0
 11
365.8706597508615
 21
1138.89698750264
 31
0.0
  0
LINE
  5
2A1
330
1F
100
AcDbEntity
  8
C-4
  6
Continuous
 62
     7
370
     9
100
AcDbLine
 10
234.1577386082834
 20
900.1768870998076
 30
0.0
 11
234.1577386082834
 21
940.1770778346709
 31
0.0
  0
LINE
  5
2A2
330
1F
100
AcDbEntity
  8
C-4
  6
Continuous
 62
     7
370
     9
100
AcDbLine
 10
294.620781821174
 20
900.1768870998076
 30
0.0
 11
231.1576775731271
 21
900.1768870998076
 31
0.0
  0
LINE
  5
2A3
330
1F
100
AcDbEntity
  8
C-4
  6
Continuous
 62
     7
370
     9
100
AcDbLine
 10
294.620781821174
 20
940.1770778346709
 30
0.0
 11
231.1576775731271
 21
940.1770778346709
 31
0.0
  0
LINE
  5
2A4
330
1F
100
AcDbEntity
  8
C-4
  6
Continuous
 62
     7
370
     9
100
AcDbLine
 10
234.1577386082834
 20
940.1770778346709
 30
0.0
 11
234.1577386082834
 21
1020.177444045608
 31
0.0
  0
LINE
  5
2A5
330
1F
100
AcDbEntity
  8
C-4
  6
Continuous
 62
     7
370
     9
100
AcDbLine
 10
294.620781821174
 20
1020.177444045608
 30
0.0
 11
231.1576775731271
 21
1020.177444045608
 31
0.0
  0
LINE
  5
2A6
330
1F
100
AcDbEntity
  8
C-4
  6
Continuous
 62
     7
370
     9
100
AcDbLine
 10
234.1577386082834
 20
1020.177444045608
 30
0.0
 11
234.1577386082834
 21
1030.177016799514
 31
0.0
  0
LINE
  5
2A7
330
1F
100
AcDbEntity
  8
C-4
  6
Continuous
 62
     7
370
     9
100
AcDbLine
 10
294.620781821174
 20
1030.177016799514
 30
0.0
 11
231.1576775731271
 21
1030.177016799514
 31
0.0
  0
LINE
  5
2A8
330
1F
100
AcDbEntity
  8
C-4
  6
Continuous
 62
     7
370
     9
100
AcDbLine
 10
234.1577386082834
 20
1030.177016799514
 30
0.0
 11
234.1577386082834
 21
1110.177138869827
 31
0.0
  0
LINE
  5
2A9
330
1F
100
AcDbEntity
  8
C-4
  6
Continuous
 62
     7
370
     9
100
AcDbLine
 10
294.620781821174
 20
1110.177138869827
 30
0.0
 11
231.1576775731271
 21
1110.177138869827
 31
0.0
  0
LINE
  5
2AA
330
1F
100
AcDbEntity
  8
C-4
  6
Continuous
 62
     7
370
     9
100
AcDbLine
 10
234.1577386082834
 20
1110.177138869827
 30
0.0
 11
234.1577386082834
 21
1150.177321975296
 31
0.0
  0
LINE
  5
2AB
330
1F
100
AcDbEntity
  8
C-4
  6
Continuous
 62
     7
370
     9
100
AcDbLine
 10
294.620781821174
 20
1150.177321975296
 30
0.0
 11
231.1576775731271
 21
1150.177321975296
 31
0.0
  0
LINE
  5
2AC
330
1F
100
AcDbEntity
  8
C-4
  6
Continuous
 62
     7
370
     9
100
AcDbLine
 10
374.8901910008615
 20
995.7508693385769
 30
0.0
 11
451.1958550633615
 21
972.8587184596706
 31
0.0
  0
LINE
  5
2AD
330
1F
100
AcDbEntity
  8
C-4
  6
Continuous
 62
     7
370
     9
100
AcDbLine
 10
376.3270196141428
 20
1000.54005390889
 30
0.0
 11
452.632744711799
 21
977.6479030299835
 31
0.0
  0
LINE
  5
2AE
330
1F
100
AcDbEntity
  8
C-4
  6
Continuous
 62
     7
370
     9
100
AcDbLine
 10
448.3225640477365
 20
973.7208400417019
 30
0.0
 11
470.2341851414865
 21
1046.757888381546
 31
0.0
  0
LINE
  5
2AF
330
1F
100
AcDbEntity
  8
C-4
  6
Continuous
 62
     7
370
     9
100
AcDbLine
 10
305.8713921727365
 20
1242.794814651077
 30
0.0
 11
365.8706597508615
 21
1242.794814651077
 31
0.0
  0
LINE
  5
2B0
330
1F
100
AcDbEntity
  8
C-4
  6
Continuous
 62
     7
370
     9
100
AcDbLine
 10
305.8713921727365
 20
1203.519973342483
 30
0.0
 11
305.8713921727365
 21
1245.794387404984
 31
0.0
  0
LINE
  5
2B1
330
1F
100
AcDbEntity
  8
C-4
  6
Continuous
 62
     7
370
     9
100
AcDbLine
 10
365.8706597508615
 20
1194.617385451858
 30
0.0
 11
365.8706597508615
 21
1245.794387404984
 31
0.0
  0
LINE
  5
2B2
330
1F
100
AcDbEntity
  8
C-5
  6
Continuous
 62
     7
370
     9
100
AcDbLine
 10
340.5239800633615
 20
1035.350661819046
 30
0.0
 11
396.9043511571115
 21
1133.004348342484
 31
0.0
  0
LINE
  5
2B3
330
1F
100
AcDbEntity
  8
C-5
  6
Continuous
 62
     7
370
     9
100
AcDbLine
 10
340.5239800633615
 20
1035.350661819046
 30
0.0
 11
350.090996664924
 21
1058.447707717483
 31
0.0
  0
LINE
  5
2B4
330
1F
100
AcDbEntity
  8
C-5
  6
Continuous
 62
     7
370
     9
100
AcDbLine
 10
340.5239800633615
 20
1035.350661819046
 30
0.0
 11
355.7432793797677
 21
1055.184524123734
 31
0.0
  0
LINE
  5
2B5
330
1F
100
AcDbEntity
  8
C-2
  6
Continuous
 62
     3
370
     9
100
AcDbLine
 10
188.1733025731271
 20
440.7150417018584
 30
0.0
 11
188.1733025731271
 21
450.7151027370146
 31
0.0
  0
LINE
  5
2B6
330
1F
100
AcDbEntity
  8
C-2
  6
Continuous
 62
     3
370
     9
100
AcDbLine
 10
188.1733025731271
 20
540.7150264430693
 30
0.0
 11
188.1733025731271
 21
530.714980666702
 31
0.0
  0
LINE
  5
2B7
330
1F
100
AcDbEntity
  8
C-2
  6
Continuous
 62
     3
370
     9
100
AcDbLine
 10
215.0237664403147
 20
530.714980666702
 30
0.0
 11
215.0237664403147
 21
540.7150264430693
 31
0.0
  0
LINE
  5
2B8
330
1F
100
AcDbEntity
  8
C-2
  6
Continuous
 62
     3
370
     9
100
AcDbLine
 10
245.0234002293772
 20
540.7150264430693
 30
0.0
 11
245.0234002293772
 21
530.714980666702
 31
0.0
  0
LINE
  5
2B9
330
1F
100
AcDbEntity
  8
C-2
  6
Continuous
 62
     3
370
     9
100
AcDbLine
 10
220.0235222996896
 20
530.714980666702
 30
0.0
 11
215.0237664403147
 21
530.714980666702
 31
0.0
  0
LINE
  5
2BA
330
1F
100
AcDbEntity
  8
C-2
  6
Continuous
 62
     3
370
     9
100
AcDbLine
 10
240.0235833348459
 20
530.714980666702
 30
0.0
 11
245.0234002293772
 21
530.714980666702
 31
0.0
  0
LINE
  5
2BB
330
1F
100
AcDbEntity
  8
C-2
  6
Continuous
 62
     3
370
     9
100
AcDbLine
 10
225.0232781590646
 20
525.7147060084988
 30
0.0
 11
225.0213250340647
 21
440.7150417018584
 31
0.0
  0
LINE
  5
2BC
330
1F
100
AcDbEntity
  8
C-2
  6
Continuous
 62
     3
370
     9
100
AcDbLine
 10
235.0238274754709
 20
525.7152095485379
 30
0.0
 11
235.0238274754709
 21
440.7150417018584
 31
0.0
  0
LINE
  5
2BD
330
1F
100
AcDbEntity
  8
C-2
  6
Continuous
 62
     3
370
     9
100
AcDbLine
 10
290.0237969578927
 20
530.714980666702
 30
0.0
 11
290.0237969578927
 21
540.7150264430693
 31
0.0
  0
LINE
  5
2BE
330
1F
100
AcDbEntity
  8
C-2
  6
Continuous
 62
     3
370
     9
100
AcDbLine
 10
320.0234307469552
 20
540.7150264430693
 30
0.0
 11
320.0234307469552
 21
530.714980666702
 31
0.0
  0
LINE
  5
2BF
330
1F
100
AcDbEntity
  8
C-2
  6
Continuous
 62
     3
370
     9
100
AcDbLine
 10
295.0235528172678
 20
530.714980666702
 30
0.0
 11
290.0237969578927
 21
530.714980666702
 31
0.0
  0
LINE
  5
2C0
330
1F
100
AcDbEntity
  8
C-2
  6
Continuous
 62
     3
370
     9
100
AcDbLine
 10
315.0236748875802
 20
530.714980666702
 30
0.0
 11
320.0234307469552
 21
530.714980666702
 31
0.0
  0
LINE
  5
2C1
330
1F
100
AcDbEntity
  8
C-2
  6
Continuous
 62
     3
370
     9
100
AcDbLine
 10
300.023369711799
 20
525.7147060084988
 30
0.0
 11
300.0213555516427
 21
440.7150417018584
 31
0.0
  0
LINE
  5
2C2
330
1F
100
AcDbEntity
  8
C-2
  6
Continuous
 62
     3
370
     9
100
AcDbLine
 10
310.0239190282053
 20
525.7152095485379
 30
0.0
 11
310.0239190282053
 21
440.7150417018584
 31
0.0
  0
LINE
  5
2C3
330
1F
100
AcDbEntity
  8
C-2
  6
Continuous
 62
     3
370
     9
100
AcDbLine
 10
365.0239190282053
 20
530.714980666702
 30
0.0
 11
365.0239190282053
 21
540.7150264430693
 31
0.0
  0
LINE
  5
2C4
330
1F
100
AcDbEntity
  8
C-2
  6
Continuous
 62
     3
370
     9
100
AcDbLine
 10
395.0235528172678
 20
540.7150264430693
 30
0.0
 11
395.0235528172678
 21
530.714980666702
 31
0.0
  0
LINE
  5
2C5
330
1F
100
AcDbEntity
  8
C-2
  6
Continuous
 62
     3
370
     9
100
AcDbLine
 10
370.0231866063302
 20
530.714980666702
 30
0.0
 11
365.0239190282053
 21
530.714980666702
 31
0.0
  0
LINE
  5
2C6
330
1F
100
AcDbEntity
  8
C-2
  6
Continuous
 62
     3
370
     9
100
AcDbLine
 10
390.0233086766427
 20
530.714980666702
 30
0.0
 11
395.0235528172678
 21
530.714980666702
 31
0.0
  0
LINE
  5
2C7
330
1F
100
AcDbEntity
  8
C-2
  6
Continuous
 62
     3
370
     9
100
AcDbLine
 10
375.0234307469552
 20
525.7147060084988
 30
0.0
 11
375.0214776219553
 21
440.7150417018584
 31
0.0
  0
LINE
  5
2C8
330
1F
100
AcDbEntity
  8
C-2
  6
Continuous
 62
     3
370
     9
100
AcDbLine
 10
385.0234917821115
 20
525.7152095485379
 30
0.0
 11
385.0234917821115
 21
440.7150417018584
 31
0.0
  0
LINE
  5
2C9
330
1F
100
AcDbEntity
  8
C-2
  6
Continuous
 62
     3
370
     9
100
AcDbLine
 10
421.8700493992991
 20
440.7086024928738
 30
0.0
 11
421.8700493992991
 21
450.7086635280301
 31
0.0
  0
LINE
  5
2CA
330
1F
100
AcDbEntity
  8
C-2
  6
Continuous
 62
     3
370
     9
100
AcDbLine
 10
421.8749322117991
 20
540.708587234085
 30
0.0
 11
421.8749322117991
 21
530.7085414577177
 31
0.0
  0
LINE
  5
2CB
330
1F
100
AcDbEntity
  8
C-2
  6
Continuous
 62
     3
370
     9
100
AcDbLine
 10
421.8749322117991
 20
540.7150264430693
 30
0.0
 11
188.1733025731271
 21
540.7150264430693
 31
0.0
  0
LINE
  5
2CC
330
1F
100
AcDbEntity
  8
C-2
  6
Continuous
 62
     3
370
     9
100
AcDbLine
 10
188.1733025731271
 20
440.7150417018584
 30
0.0
 11
421.8700493992991
 21
440.7150417018584
 31
0.0
  0
LINE
  5
2CD
330
1F
100
AcDbEntity
  8
C-4
  6
Continuous
 62
     7
370
     9
100
AcDbLine
 10
510.3167046727366
 20
440.7150417018584
 30
0.0
 11
510.3167046727366
 21
540.7150264430693
 31
0.0
  0
LINE
  5
2CE
330
1F
100
AcDbEntity
  8
C-4
  6
Continuous
 62
     7
370
     9
100
AcDbLine
 10
433.5278863133615
 20
440.7150417018584
 30
0.0
 11
513.3162163914865
 21
440.7150417018584
 31
0.0
  0
LINE
  5
2CF
330
1F
100
AcDbEntity
  8
C-4
  6
Continuous
 62
     7
370
     9
100
AcDbLine
 10
433.5278863133615
 20
540.7150264430693
 30
0.0
 11
513.3162163914865
 21
540.7150264430693
 31
0.0
  0
LINE
  5
2D0
330
1F
100
AcDbEntity
  8
C-4
  6
Continuous
 62
     7
370
     9
100
AcDbLine
 10
215.0237664403147
 20
551.1748653102565
 30
0.0
 11
215.0237664403147
 21
669.7172618556671
 31
0.0
  0
LINE
  5
2D1
330
1F
100
AcDbEntity
  8
C-4
  6
Continuous
 62
     7
370
     9
100
AcDbLine
 10
245.0234002293772
 20
551.1748653102565
 30
0.0
 11
245.0234002293772
 21
606.599990432327
 31
0.0
  0
LINE
  5
2D2
330
1F
100
AcDbEntity
  8
C-4
  6
Continuous
 62
     7
370
     9
100
AcDbLine
 10
245.0234002293772
 20
603.5999293971709
 30
0.0
 11
290.0237969578927
 21
603.5999293971709
 31
0.0
  0
LINE
  5
2D3
330
1F
100
AcDbEntity
  8
C-4
  6
Continuous
 62
     7
370
     9
100
AcDbLine
 10
290.0237969578927
 20
551.1748653102565
 30
0.0
 11
290.0237969578927
 21
669.7172618556671
 31
0.0
  0
LINE
  5
2D4
330
1F
100
AcDbEntity
  8
C-4
  6
Continuous
 62
     7
370
     9
100
AcDbLine
 10
290.0237969578927
 20
603.5999293971709
 30
0.0
 11
320.0234307469552
 21
603.5999293971709
 31
0.0
  0
LINE
  5
2D5
330
1F
100
AcDbEntity
  8
C-4
  6
Continuous
 62
     7
370
     9
100
AcDbLine
 10
320.0234307469552
 20
551.1748653102565
 30
0.0
 11
320.0234307469552
 21
606.599990432327
 31
0.0
  0
LINE
  5
2D6
330
1F
100
AcDbEntity
  8
C-4
  6
Continuous
 62
     7
370
     9
100
AcDbLine
 10
320.0234307469552
 20
603.5999293971709
 30
0.0
 11
365.0239190282053
 21
603.5999293971709
 31
0.0
  0
LINE
  5
2D7
330
1F
100
AcDbEntity
  8
C-4
  6
Continuous
 62
     7
370
     9
100
AcDbLine
 10
365.0239190282053
 20
551.1748653102565
 30
0.0
 11
365.0239190282053
 21
669.7172618556671
 31
0.0
  0
LINE
  5
2D8
330
1F
100
AcDbEntity
  8
C-4
  6
Continuous
 62
     7
370
     9
100
AcDbLine
 10
395.0235528172678
 20
551.1748653102565
 30
0.0
 11
395.0235528172678
 21
606.599990432327
 31
0.0
  0
LINE
  5
2D9
330
1F
100
AcDbEntity
  8
C-4
  6
Continuous
 62
     7
370
     9
100
AcDbLine
 10
188.1733025731271
 20
603.5999293971709
 30
0.0
 11
245.0234002293772
 21
603.5999293971709
 31
0.0
  0
LINE
  5
2DA
330
1F
100
AcDbEntity
  8
C-4
  6
Continuous
 62
     7
370
     9
100
AcDbLine
 10
188.1733025731271
 20
666.7172008205104
 30
0.0
 11
290.0237969578927
 21
666.7172008205104
 31
0.0
  0
LINE
  5
2DB
330
1F
100
AcDbEntity
  8
C-4
  6
Continuous
 62
     7
370
     9
100
AcDbLine
 10
365.0239190282053
 20
603.5999293971709
 30
0.0
 11
421.8749322117991
 21
603.5999293971709
 31
0.0
  0
LINE
  5
2DC
330
1F
100
AcDbEntity
  8
C-4
  6
Continuous
 62
     7
370
     9
100
AcDbLine
 10
290.0237969578927
 20
666.7172008205104
 30
0.0
 11
421.8749322117991
 21
666.7172008205104
 31
0.0
  0
LINE
  5
2DD
330
1F
100
AcDbEntity
  8
C-2
  6
Continuous
 62
     3
370
     9
100
AcDbLine
 10
235.0230340184396
 20
508.3929591823268
 30
0.0
 11
300.0220269383615
 21
508.3929591823268
 31
0.0
  0
LINE
  5
2DE
330
1F
100
AcDbEntity
  8
C-2
  6
Continuous
 62
     3
370
     9
100
AcDbLine
 10
310.023613852424
 20
508.3929591823268
 30
0.0
 11
375.022149008674
 21
508.3929591823268
 31
0.0
  0
LINE
  5
2DF
330
1F
100
AcDbEntity
  8
C-2
  6
Continuous
 62
     3
370
     9
100
AcDbLine
 10
190.6745843114084
 20
508.3929591823268
 30
0.0
 11
225.0224847020334
 21
508.3929591823268
 31
0.0
  0
LINE
  5
2E0
330
1F
100
AcDbEntity
  8
C-2
  6
Continuous
 62
     3
370
     9
100
AcDbLine
 10
419.3710869969553
 20
508.3929591823268
 30
0.0
 11
385.0231866063302
 21
508.3929591823268
 31
0.0
  0
LINE
  5
2E1
330
1F
100
AcDbEntity
  8
C-2
  6
Continuous
 62
     3
370
     9
100
AcDbLine
 10
235.0230340184396
 20
490.7152858424832
 30
0.0
 11
300.0220269383615
 21
490.7152858424832
 31
0.0
  0
LINE
  5
2E2
330
1F
100
AcDbEntity
  8
C-2
  6
Continuous
 62
     3
370
     9
100
AcDbLine
 10
310.023613852424
 20
490.7152858424832
 30
0.0
 11
375.022149008674
 21
490.7152858424832
 31
0.0
  0
LINE
  5
2E3
330
1F
100
AcDbEntity
  8
C-2
  6
Continuous
 62
     3
370
     9
100
AcDbLine
 10
190.6745843114084
 20
490.7152858424832
 30
0.0
 11
225.0224847020334
 21
490.7152858424832
 31
0.0
  0
LINE
  5
2E4
330
1F
100
AcDbEntity
  8
C-2
  6
Continuous
 62
     3
370
     9
100
AcDbLine
 10
419.3710869969553
 20
490.7152858424832
 30
0.0
 11
385.0231866063302
 21
490.7152858424832
 31
0.0
  0
LINE
  5
2E5
330
1F
100
AcDbEntity
  8
C-2
  6
Continuous
 62
     3
370
     9
100
AcDbLine
 10
235.0230340184396
 20
473.0376125026397
 30
0.0
 11
300.0220269383615
 21
473.0376125026397
 31
0.0
  0
LINE
  5
2E6
330
1F
100
AcDbEntity
  8
C-2
  6
Continuous
 62
     3
370
     9
100
AcDbLine
 10
310.023613852424
 20
473.0376125026397
 30
0.0
 11
375.022149008674
 21
473.0376125026397
 31
0.0
  0
LINE
  5
2E7
330
1F
100
AcDbEntity
  8
C-2
  6
Continuous
 62
     3
370
     9
100
AcDbLine
 10
190.6745843114084
 20
473.0376125026397
 30
0.0
 11
225.0224847020334
 21
473.0376125026397
 31
0.0
  0
LINE
  5
2E8
330
1F
100
AcDbEntity
  8
C-2
  6
Continuous
 62
     3
370
     9
100
AcDbLine
 10
419.3710869969553
 20
473.0376125026397
 30
0.0
 11
385.0231866063302
 21
473.0376125026397
 31
0.0
  0
ARC
  5
2E9
330
1F
100
AcDbEntity
  8
C-2
  6
Continuous
 62
     3
370
     9
100
AcDbCircle
 10
313.370781821174
 20
1160.036635940139
 30
0.0
 40
37.50014114379883
100
AcDbArc
 50
53.13009643554687
 51
126.8699035644531
  0
ARC
  5
2EA
330
1F
100
AcDbEntity
  8
C-2
  6
Continuous
 62
     3
370
     9
100
AcDbCircle
 10
358.371270102424
 20
1220.036941115921
 30
0.0
 40
37.50014114379883
100
AcDbArc
 50
233.1300964355469
 51
306.8699035644532
  0
ARC
  5
2EB
330
1F
100
AcDbEntity
  8
C-2
  6
Continuous
 62
     3
370
     9
100
AcDbCircle
 10
313.370781821174
 20
820.6803966212921
 30
0.0
 40
37.50014114379883
100
AcDbArc
 50
53.13009643554687
 51
126.8699035644531
  0
ARC
  5
2EC
330
1F
100
AcDbEntity
  8
C-2
  6
Continuous
 62
     3
370
     9
100
AcDbCircle
 10
358.371270102424
 20
880.6806712794947
 30
0.0
 40
37.50014114379883
100
AcDbArc
 50
233.1300964355469
 51
306.8699035644532
  0
ARC
  5
2ED
330
1F
100
AcDbEntity
  8
C-2
  6
Continuous
 62
     3
370
     9
100
AcDbCircle
 10
220.0235222996896
 20
525.7152095485379
 30
0.0
 40
5.0
100
AcDbArc
 50
359.9943237304688
 51
90.0
  0
ARC
  5
2EE
330
1F
100
AcDbEntity
  8
C-2
  6
Continuous
 62
     3
370
     9
100
AcDbCircle
 10
240.0235833348459
 20
525.7152095485379
 30
0.0
 40
5.0
100
AcDbArc
 50
90.0
 51
180.0
  0
ARC
  5
2EF
330
1F
100
AcDbEntity
  8
C-2
  6
Continuous
 62
     3
370
     9
100
AcDbCircle
 10
295.0235528172678
 20
525.7152095485379
 30
0.0
 40
5.0
100
AcDbArc
 50
359.9943237304688
 51
90.0
  0
ARC
  5
2F0
330
1F
100
AcDbEntity
  8
C-2
  6
Continuous
 62
     3
370
     9
100
AcDbCircle
 10
315.0236748875802
 20
525.7152095485379
 30
0.0
 40
5.0
100
AcDbArc
 50
90.0
 51
180.0
  0
ARC
  5
2F1
330
1F
100
AcDbEntity
  8
C-2
  6
Continuous
 62
     3
370
     9
100
AcDbCircle
 10
370.0231866063302
 20
525.7152095485379
 30
0.0
 40
5.0
100
AcDbArc
 50
359.9943237304688
 51
90.0
  0
ARC
  5
2F2
330
1F
100
AcDbEntity
  8
C-2
  6
Continuous
 62
     3
370
     9
100
AcDbCircle
 10
390.0233086766427
 20
525.7152095485379
 30
0.0
 40
5.0
100
AcDbArc
 50
90.0
 51
180.0
  0
LWPOLYLINE
  5
2F3
330
1F
100
AcDbEntity
  8
C-4
  6
Continuous
 62
     7
370
     9
100
AcDbPolyline
 90
        4
 70
     1
 43
1.0
 10
234.6577386082834
 20
900.1768870998076
 42
0.4142135623731
 10
234.1577386082834
 20
900.6768870998076
 42
0.4142135623731
 10
233.6577386082834
 20
900.1768870998076
 42
0.4142135623731
 10
234.1577386082834
 20
899.6768870998076
 42
0.4142135623731
  0
LWPOLYLINE
  5
2F4
330
1F
100
AcDbEntity
  8
C-4
  6
Continuous
 62
     7
370
     9
100
AcDbPolyline
 90
        4
 70
     1
 43
1.0
 10
234.6577386082834
 20
940.1770778346709
 42
0.4142135623731
 10
234.1577386082834
 20
940.6770778346709
 42
0.4142135623731
 10
233.6577386082834
 20
940.1770778346709
 42
0.4142135623731
 10
234.1577386082834
 20
939.6770778346709
 42
0.4142135623731
  0
LWPOLYLINE
  5
2F5
330
1F
100
AcDbEntity
  8
C-4
  6
Continuous
 62
     7
370
     9
100
AcDbPolyline
 90
        4
 70
     1
 43
1.0
 10
234.6577386082834
 20
1020.177444045608
 42
0.4142135623731
 10
234.1577386082834
 20
1020.677444045608
 42
0.4142135623731
 10
233.6577386082834
 20
1020.177444045608
 42
0.4142135623731
 10
234.1577386082834
 20
1019.677444045608
 42
0.4142135623731
  0
LWPOLYLINE
  5
2F6
330
1F
100
AcDbEntity
  8
C-4
  6
Continuous
 62
     7
370
     9
100
AcDbPolyline
 90
        4
 70
     1
 43
1.0
 10
234.6577386082834
 20
1030.177016799514
 42
0.4142135623731
 10
234.1577386082834
 20
1030.677016799514
 42
0.4142135623731
 10
233.6577386082834
 20
1030.177016799514
 42
0.4142135623731
 10
234.1577386082834
 20
1029.677016799514
 42
0.4142135623731
  0
LWPOLYLINE
  5
2F7
330
1F
100
AcDbEntity
  8
C-4
  6
Continuous
 62
     7
370
     9
100
AcDbPolyline
 90
        4
 70
     1
 43
1.0
 10
234.6577386082834
 20
1110.177138869827
 42
0.4142135623731
 10
234.1577386082834
 20
1110.677138869827
 42
0.4142135623731
 10
233.6577386082834
 20
1110.177138869827
 42
0.4142135623731
 10
234.1577386082834
 20
1109.677138869827
 42
0.4142135623731
  0
LWPOLYLINE
  5
2F8
330
1F
100
AcDbEntity
  8
C-4
  6
Continuous
 62
     7
370
     9
100
AcDbPolyline
 90
        4
 70
     1
 43
1.0
 10
234.6577386082834
 20
1150.177321975296
 42
0.4142135623731
 10
234.1577386082834
 20
1150.677321975295
 42
0.4142135623731
 10
233.6577386082834
 20
1150.177321975296
 42
0.4142135623731
 10
234.1577386082834
 20
1149.677321975296
 42
0.4142135623731
  0
LWPOLYLINE
  5
2F9
330
1F
100
AcDbEntity
  8
C-4
  6
Continuous
 62
     7
370
     9
100
AcDbPolyline
 90
        4
 70
     1
 43
1.0
 10
448.8225640477364
 20
973.7208400417019
 42
0.4142135623731
 10
448.3225640477365
 20
974.2208400417019
 42
0.4142135623731
 10
447.8225640477365
 20
973.7208400417019
 42
0.4142135623731
 10
448.3225640477365
 20
973.2208400417019
 42
0.4142135623731
  0
LWPOLYLINE
  5
2FA
330
1F
100
AcDbEntity
  8
C-4
  6
Continuous
 62
     7
370
     9
100
AcDbPolyline
 90
        4
 70
     1
 43
1.0
 10
450.259453696174
 20
978.5100246120147
 42
0.4142135623731
 10
449.7594536961741
 20
979.0100246120147
 42
0.4142135623731
 10
449.2594536961741
 20
978.5100246120147
 42
0.4142135623731
 10
449.7594536961741
 20
978.0100246120148
 42
0.4142135623731
  0
LWPOLYLINE
  5
2FB
330
1F
100
AcDbEntity
  8
C-4
  6
Continuous
 62
     7
370
     9
100
AcDbPolyline
 90
        4
 70
     1
 43
1.0
 10
306.3713921727365
 20
1242.794814651077
 42
0.4142135623731
 10
305.8713921727365
 20
1243.294814651077
 42
0.4142135623731
 10
305.3713921727365
 20
1242.794814651077
 42
0.4142135623731
 10
305.8713921727365
 20
1242.294814651077
 42
0.4142135623731
  0
LWPOLYLINE
  5
2FC
330
1F
100
AcDbEntity
  8
C-4
  6
Continuous
 62
     7
370
     9
100
AcDbPolyline
 90
        4
 70
     1
 43
1.0
 10
366.3706597508615
 20
1242.794814651077
 42
0.4142135623731
 10
365.8706597508615
 20
1243.294814651077
 42
0.4142135623731
 10
365.3706597508615
 20
1242.794814651077
 42
0.4142135623731
 10
365.8706597508615
 20
1242.294814651077
 42
0.4142135623731
  0
LWPOLYLINE
  5
2FD
330
1F
100
AcDbEntity
  8
C-4
  6
Continuous
 62
     7
370
     9
100
AcDbPolyline
 90
        4
 70
     1
 43
1.0
 10
510.8167046727365
 20
440.7150417018584
 42
0.4142135623731
 10
510.3167046727366
 20
441.2150417018583
 42
0.4142135623731
 10
509.8167046727366
 20
440.7150417018584
 42
0.4142135623731
 10
510.3167046727366
 20
440.2150417018584
 42
0.4142135623731
  0
LWPOLYLINE
  5
2FE
330
1F
100
AcDbEntity
  8
C-4
  6
Continuous
 62
     7
370
     9
100
AcDbPolyline
 90
        4
 70
     1
 43
1.0
 10
510.8167046727365
 20
540.7150264430693
 42
0.4142135623731
 10
510.3167046727366
 20
541.2150264430693
 42
0.4142135623731
 10
509.8167046727366
 20
540.7150264430693
 42
0.4142135623731
 10
510.3167046727366
 20
540.2150264430693
 42
0.4142135623731
  0
LWPOLYLINE
  5
2FF
330
1F
100
AcDbEntity
  8
C-4
  6
Continuous
 62
     7
370
     9
100
AcDbPolyline
 90
        4
 70
     1
 43
1.0
 10
215.5237664403147
 20
603.5999293971709
 42
0.4142135623731
 10
215.0237664403147
 20
604.0999293971709
 42
0.4142135623731
 10
214.5237664403146
 20
603.5999293971709
 42
0.4142135623731
 10
215.0237664403147
 20
603.0999293971709
 42
0.4142135623731
  0
LWPOLYLINE
  5
300
330
1F
100
AcDbEntity
  8
C-4
  6
Continuous
 62
     7
370
     9
100
AcDbPolyline
 90
        4
 70
     1
 43
1.0
 10
245.5234002293772
 20
603.5999293971709
 42
0.4142135623731
 10
245.0234002293772
 20
604.0999293971709
 42
0.4142135623731
 10
244.5234002293772
 20
603.5999293971709
 42
0.4142135623731
 10
245.0234002293772
 20
603.0999293971709
 42
0.4142135623731
  0
LWPOLYLINE
  5
301
330
1F
100
AcDbEntity
  8
C-4
  6
Continuous
 62
     7
370
     9
100
AcDbPolyline
 90
        4
 70
     1
 43
1.0
 10
290.5237969578927
 20
603.5999293971709
 42
0.4142135623731
 10
290.0237969578927
 20
604.0999293971709
 42
0.4142135623731
 10
289.5237969578927
 20
603.5999293971709
 42
0.4142135623731
 10
290.0237969578927
 20
603.0999293971709
 42
0.4142135623731
  0
LWPOLYLINE
  5
302
330
1F
100
AcDbEntity
  8
C-4
  6
Continuous
 62
     7
370
     9
100
AcDbPolyline
 90
        4
 70
     1
 43
1.0
 10
320.5234307469552
 20
603.5999293971709
 42
0.4142135623731
 10
320.0234307469552
 20
604.0999293971709
 42
0.4142135623731
 10
319.5234307469552
 20
603.5999293971709
 42
0.4142135623731
 10
320.0234307469552
 20
603.0999293971709
 42
0.4142135623731
  0
LWPOLYLINE
  5
303
330
1F
100
AcDbEntity
  8
C-4
  6
Continuous
 62
     7
370
     9
100
AcDbPolyline
 90
        4
 70
     1
 43
1.0
 10
365.5239190282052
 20
603.5999293971709
 42
0.4142135623731
 10
365.0239190282053
 20
604.0999293971709
 42
0.4142135623731
 10
364.5239190282053
 20
603.5999293971709
 42
0.4142135623731
 10
365.0239190282053
 20
603.0999293971709
 42
0.4142135623731
  0
LWPOLYLINE
  5
304
330
1F
100
AcDbEntity
  8
C-4
  6
Continuous
 62
     7
370
     9
100
AcDbPolyline
 90
        4
 70
     1
 43
1.0
 10
395.5235528172677
 20
603.5999293971709
 42
0.4142135623731
 10
395.0235528172678
 20
604.0999293971709
 42
0.4142135623731
 10
394.5235528172678
 20
603.5999293971709
 42
0.4142135623731
 10
395.0235528172678
 20
603.0999293971709
 42
0.4142135623731
  0
LWPOLYLINE
  5
305
330
1F
100
AcDbEntity
  8
C-4
  6
Continuous
 62
     7
370
     9
100
AcDbPolyline
 90
        4
 70
     1
 43
1.0
 10
215.5237664403147
 20
666.7172008205104
 42
0.4142135623731
 10
215.0237664403147
 20
667.2172008205104
 42
0.4142135623731
 10
214.5237664403146
 20
666.7172008205104
 42
0.4142135623731
 10
215.0237664403147
 20
666.2172008205105
 42
0.4142135623731
  0
LWPOLYLINE
  5
306
330
1F
100
AcDbEntity
  8
C-4
  6
Continuous
 62
     7
370
     9
100
AcDbPolyline
 90
        4
 70
     1
 43
1.0
 10
290.5237969578927
 20
666.7172008205104
 42
0.4142135623731
 10
290.0237969578927
 20
667.2172008205104
 42
0.4142135623731
 10
289.5237969578927
 20
666.7172008205104
 42
0.4142135623731
 10
290.0237969578927
 20
666.2172008205105
 42
0.4142135623731
  0
LWPOLYLINE
  5
307
330
1F
100
AcDbEntity
  8
C-4
  6
Continuous
 62
     7
370
     9
100
AcDbPolyline
 90
        4
 70
     1
 43
1.0
 10
365.5239190282052
 20
666.7172008205104
 42
0.4142135623731
 10
365.0239190282053
 20
667.2172008205104
 42
0.4142135623731
 10
364.5239190282053
 20
666.7172008205104
 42
0.4142135623731
 10
365.0239190282053
 20
666.2172008205105
 42
0.4142135623731
  0
TEXT
  5
308
330
1F
100
AcDbEntity
  8
C-5
  6
Continuous
 62
     2
370
     9
100
AcDbText
 10
124.3044060887521
 20
344.718048293655
 30
0.0
 40
30.48
  1
Ａ断面図　Ｓ＝１：２
 41
1.1125
  7
ＭＳ ゴシック
100
AcDbText
  0
TEXT
  5
309
330
1F
100
AcDbEntity
  8
C-5
  6
Continuous
 62
     7
370
     9
100
AcDbText
 10
113.5650872410959
 20
791.9082308269192
 30
0.0
 40
22.86
  1
メインバー表面　Ｓ＝１：１
 41
1.153846153846154
  7
ＭＳ ゴシック
100
AcDbText
  0
TEXT
  5
30A
330
1F
100
AcDbEntity
  8
C-5
  6
Continuous
 62
     7
370
     9
100
AcDbText
 10
399.8102959813302
 20
1139.332675979202
 30
0.0
 40
22.86
  1
デルタパターン
 41
1.142857142857143
  7
ＭＳ ゴシック
100
AcDbText
  0
TEXT
  5
30B
330
1F
100
AcDbEntity
  8
C-4
  6
Continuous
 62
     2
370
     9
100
AcDbText
 10
223.5179827489084
 20
910.1769555178258
 30
0.0
 40
30.48
  1
4
 50
90.00000250447971
 41
1.000000000000001
  7
ＭＳ ゴシック
100
AcDbText
  0
TEXT
  5
30C
330
1F
100
AcDbEntity
  8
C-4
  6
Continuous
 62
     2
370
     9
100
AcDbText
 10
223.5179827489084
 20
970.1771996584511
 30
0.0
 40
30.48
  1
8
 50
90.00000250447971
 41
1.000000000000001
  7
ＭＳ ゴシック
100
AcDbText
  0
TEXT
  5
30D
330
1F
100
AcDbEntity
  8
C-4
  6
Continuous
 62
     2
370
     9
100
AcDbText
 10
223.5179827489084
 20
1015.177199658451
 30
0.0
 40
30.48
  1
1
 50
90.00000250447971
 41
1.000000000000001
  7
ＭＳ ゴシック
100
AcDbText
  0
TEXT
  5
30E
330
1F
100
AcDbEntity
  8
C-4
  6
Continuous
 62
     2
370
     9
100
AcDbText
 10
223.5179827489084
 20
1060.17689448267
 30
0.0
 40
30.48
  1
8
 50
90.00000250447971
 41
1.000000000000001
  7
ＭＳ ゴシック
100
AcDbText
  0
TEXT
  5
30F
330
1F
100
AcDbEntity
  8
C-4
  6
Continuous
 62
     2
370
     9
100
AcDbText
 10
223.5179827489084
 20
1120.177199658451
 30
0.0
 40
30.48
  1
4
 50
90.00000250447971
 41
1.000000000000001
  7
ＭＳ ゴシック
100
AcDbText
  0
TEXT
  5
310
330
1F
100
AcDbEntity
  8
C-4
  6
Continuous
 62
     2
370
     9
100
AcDbText
 10
442.284806934459
 20
991.1806042862391
 30
0.0
 40
30.48
  1
0.5
 50
73.30064077628279
 41
1.083333333333341
  7
ＭＳ ゴシック
100
AcDbText
  0
TEXT
  5
311
330
1F
100
AcDbEntity
  8
C-4
  6
Continuous
 62
     2
370
     9
100
AcDbText
 10
325.8709649266427
 20
1253.434570510452
 30
0.0
 40
30.48
  1
6
 41
0.9999999999999998
  7
ＭＳ ゴシック
100
AcDbText
  0
TEXT
  5
312
330
1F
100
AcDbEntity
  8
C-4
  6
Continuous
 62
     2
370
     9
100
AcDbText
 10
499.676338461799
 20
469.4651330080604
 30
0.0
 40
30.48
  1
20
 50
90.00000250447789
 41
1.062500000000001
  7
ＭＳ ゴシック
100
AcDbText
  0
TEXT
  5
313
330
1F
100
AcDbEntity
  8
C-4
  6
Continuous
 62
     2
370
     9
100
AcDbText
 10
220.0235222996896
 20
614.2397157741236
 30
0.0
 40
30.48
  1
6
 41
0.9999999999999998
  7
ＭＳ ゴシック
100
AcDbText
  0
TEXT
  5
314
330
1F
100
AcDbEntity
  8
C-4
  6
Continuous
 62
     2
370
     9
100
AcDbText
 10
257.5235833348459
 20
614.2397157741236
 30
0.0
 40
30.48
  1
9
 41
0.9999999999999998
  7
ＭＳ ゴシック
100
AcDbText
  0
TEXT
  5
315
330
1F
100
AcDbEntity
  8
C-4
  6
Continuous
 62
     2
370
     9
100
AcDbText
 10
295.0235528172678
 20
614.2397157741236
 30
0.0
 40
30.48
  1
6
 41
0.9999999999999998
  7
ＭＳ ゴシック
100
AcDbText
  0
TEXT
  5
316
330
1F
100
AcDbEntity
  8
C-4
  6
Continuous
 62
     2
370
     9
100
AcDbText
 10
332.523613852424
 20
614.2397157741236
 30
0.0
 40
30.48
  1
9
 41
0.9999999999999998
  7
ＭＳ ゴシック
100
AcDbText
  0
TEXT
  5
317
330
1F
100
AcDbEntity
  8
C-4
  6
Continuous
 62
     2
370
     9
100
AcDbText
 10
370.0236748875802
 20
614.2397157741236
 30
0.0
 40
30.48
  1
6
 41
0.9999999999999998
  7
ＭＳ ゴシック
100
AcDbText
  0
TEXT
  5
318
330
1F
100
AcDbEntity
  8
C-4
  6
Continuous
 62
     2
370
     9
100
AcDbText
 10
231.2736443700021
 20
677.3569566798857
 30
0.0
 40
30.48
  1
15
 41
1.0625
  7
ＭＳ ゴシック
100
AcDbText
  0
TEXT
  5
319
330
1F
100
AcDbEntity
  8
C-4
  6
Continuous
 62
     2
370
     9
100
AcDbText
 10
306.2736748875802
 20
677.3569566798857
 30
0.0
 40
30.48
  1
15
 41
1.0625
  7
ＭＳ ゴシック
100
AcDbText
  0
TEXT
  5
31A
330
1F
100
AcDbEntity
  8
C-5
  6
Continuous
 62
     7
370
     9
100
AcDbText
 10
-25.00064762218543
 20
733.2268639064479
 30
0.0
 40
22.86
  1
※デルタパターンの配列は一定ではありません。
 41
1.159090909090909
  7
ＭＳ ゴシック
100
AcDbText
  0
LINE
  5
31B
330
1F
100
AcDbEntity
  8
C-1
  6
Continuous
 62
     2
370
     9
100
AcDbLine
 10
-535.1216879664237
 20
902.1076808620146
 30
0.0
 11
-535.1216879664237
 21
490.1076198268581
 31
0.0
  0
LINE
  5
31C
330
1F
100
AcDbEntity
  8
C-1
  6
Continuous
 62
     2
370
     9
100
AcDbLine
 10
-535.1216879664237
 20
490.1076198268581
 30
0.0
 11
-123.1215887842948
 21
490.1076198268581
 31
0.0
  0
LINE
  5
31D
330
1F
100
AcDbEntity
  8
C-1
  6
Continuous
 62
     2
370
     9
100
AcDbLine
 10
-123.1215887842948
 20
902.1076808620146
 30
0.0
 11
-535.1216879664237
 21
902.1076808620146
 31
0.0
  0
LINE
  5
31E
330
1F
100
AcDbEntity
  8
C-1
  6
Continuous
 62
     2
370
     9
100
AcDbLine
 10
-123.1215887842948
 20
490.1076198268581
 30
0.0
 11
-123.1215887842948
 21
902.1076808620146
 31
0.0
  0
LWPOLYLINE
  5
31F
330
1F
100
AcDbEntity
  8
C-4
  6
Continuous
 62
     7
370
     9
100
AcDbPolyline
 90
        4
 70
     1
 43
1.0
 10
-534.6216879664237
 20
1086.10725361592
 42
0.4142135623731
 10
-535.1216879664237
 20
1086.60725361592
 42
0.4142135623731
 10
-535.6216879664237
 20
1086.10725361592
 42
0.4142135623731
 10
-535.1216879664237
 20
1085.60725361592
 42
0.4142135623731
  0
LWPOLYLINE
  5
320
330
1F
100
AcDbEntity
  8
C-4
  6
Continuous
 62
     7
370
     9
100
AcDbPolyline
 90
        4
 70
     1
 43
1.0
 10
-534.6216879664237
 20
1031.10725361592
 42
0.4142135623731
 10
-535.1216879664237
 20
1031.60725361592
 42
0.4142135623731
 10
-535.6216879664237
 20
1031.10725361592
 42
0.4142135623731
 10
-535.1216879664237
 20
1030.60725361592
 42
0.4142135623731
  0
LINE
  5
321
330
1F
100
AcDbEntity
  8
C-4
  6
Continuous
 62
     7
370
     9
100
AcDbLine
 10
-535.1216879664237
 20
1089.10725373513
 30
0.0
 11
-535.1216879664237
 21
924.1076808620144
 31
0.0
  0
LINE
  5
322
330
1F
100
AcDbEntity
  8
C-4
  6
Continuous
 62
     7
370
     9
100
AcDbLine
 10
-535.1216879664237
 20
1031.10725361592
 30
0.0
 11
-585.1216879664237
 21
1031.10725361592
 31
0.0
  0
LWPOLYLINE
  5
323
330
1F
100
AcDbEntity
  8
C-4
  6
Continuous
 62
     7
370
     9
100
AcDbPolyline
 90
        4
 70
     1
 43
1.0
 10
-122.6215887842948
 20
1086.10725361592
 42
0.4142135623731
 10
-123.1215887842948
 20
1086.60725361592
 42
0.4142135623731
 10
-123.6215887842948
 20
1086.10725361592
 42
0.4142135623731
 10
-123.1215887842948
 20
1085.60725361592
 42
0.4142135623731
  0
LWPOLYLINE
  5
324
330
1F
100
AcDbEntity
  8
C-4
  6
Continuous
 62
     7
370
     9
100
AcDbPolyline
 90
        4
 70
     1
 43
1.0
 10
-122.6215887842948
 20
1031.10725361592
 42
0.4142135623731
 10
-123.1215887842948
 20
1031.60725361592
 42
0.4142135623731
 10
-123.6215887842948
 20
1031.10725361592
 42
0.4142135623731
 10
-123.1215887842948
 20
1030.60725361592
 42
0.4142135623731
  0
LINE
  5
325
330
1F
100
AcDbEntity
  8
C-4
  6
Continuous
 62
     7
370
     9
100
AcDbLine
 10
-123.1215887842948
 20
1089.10725373513
 30
0.0
 11
-123.1215887842948
 21
924.1076808620144
 31
0.0
  0
LINE
  5
326
330
1F
100
AcDbEntity
  8
C-4
  6
Continuous
 62
     7
370
     9
100
AcDbLine
 10
-123.1215887842948
 20
1031.10725361592
 30
0.0
 11
-73.12158878429479
 21
1031.10725361592
 31
0.0
  0
LINE
  5
327
330
1F
100
AcDbEntity
  8
C-4
  6
Continuous
 62
     7
370
     9
100
AcDbLine
 10
-535.1216879664237
 20
1031.10725361592
 30
0.0
 11
-530.1216879664237
 21
1031.10725361592
 31
0.0
  0
TEXT
  5
328
330
1F
100
AcDbEntity
  8
C-4
  6
Continuous
 62
     2
370
   211
100
AcDbText
 10
-571.6216955958181
 20
1042.747253854339
 30
0.0
 40
30.48
  1
5
 41
0.9999999999999998
  7
ＭＳ ゴシック
100
AcDbText
  0
LINE
  5
329
330
1F
100
AcDbEntity
  8
C-4
  6
Continuous
 62
     7
370
     9
100
AcDbLine
 10
-535.1216879664237
 20
1086.10725361592
 30
0.0
 11
-123.1215887842948
 21
1086.10725361592
 31
0.0
  0
TEXT
  5
32A
330
1F
100
AcDbEntity
  8
C-4
  6
Continuous
 62
     2
370
   211
100
AcDbText
 10
-361.6216383753593
 20
1097.747253854339
 30
0.0
 40
30.48
  1
412
 41
1.083333333333333
  7
ＭＳ ゴシック
100
AcDbText
  0
LINE
  5
32B
330
1F
100
AcDbEntity
  8
C-4
  6
Continuous
 62
     7
370
     9
100
AcDbLine
 10
-128.1215887842948
 20
1031.10725361592
 30
0.0
 11
-123.1215887842948
 21
1031.10725361592
 31
0.0
  0
TEXT
  5
32C
330
1F
100
AcDbEntity
  8
C-4
  6
Continuous
 62
     2
370
   211
100
AcDbText
 10
-106.6215735255057
 20
1042.747253854339
 30
0.0
 40
30.48
  1
5
 41
0.9999999999999998
  7
ＭＳ ゴシック
100
AcDbText
  0
LINE
  5
32D
330
1F
100
AcDbEntity
  8
D-9
  6
Continuous
 62
     4
370
     9
100
AcDbLine
 10
-419.9294425461898
 20
-420.5276790487935
 30
0.0
 11
-423.5542921636711
 21
-424.1525283682515
 31
0.0
  0
LINE
  5
32E
330
1F
100
AcDbEntity
  8
D-9
  6
Continuous
 62
     4
370
     9
100
AcDbLine
 10
-534.9297238801131
 20
-411.6523471701313
 30
0.0
 11
-419.9294425461898
 21
-411.6523471701313
 31
0.0
  0
LINE
  5
32F
330
1F
100
AcDbEntity
  8
D-9
  6
Continuous
 62
     4
370
     9
100
AcDbLine
 10
-419.9294425461898
 20
-413.4568420279194
 30
0.0
 11
-430.6256224129806
 21
-424.1525283682515
 31
0.0
  0
LINE
  5
330
330
1F
100
AcDbEntity
  8
D-9
  6
Continuous
 62
     4
370
     9
100
AcDbLine
 10
-425.1962756652842
 20
-411.6523471701313
 30
0.0
 11
-437.6969529603134
 21
-424.1525283682515
 31
0.0
  0
LINE
  5
331
330
1F
100
AcDbEntity
  8
D-9
  6
Continuous
 62
     4
370
     9
100
AcDbLine
 10
-432.267605802835
 20
-411.6523471701313
 30
0.0
 11
-444.7682835076461
 21
-424.1525283682515
 31
0.0
  0
LINE
  5
332
330
1F
100
AcDbEntity
  8
D-9
  6
Continuous
 62
     4
370
     9
100
AcDbLine
 10
-439.3389369462142
 20
-411.6523471701313
 30
0.0
 11
-451.8386222336898
 21
-424.1525283682515
 31
0.0
  0
LINE
  5
333
330
1F
100
AcDbEntity
  8
D-9
  6
Continuous
 62
     4
370
     9
100
AcDbLine
 10
-446.4092756722579
 20
-411.6523471701313
 30
0.0
 11
-458.9099527810226
 21
-424.1525283682515
 31
0.0
  0
LINE
  5
334
330
1F
100
AcDbEntity
  8
D-9
  6
Continuous
 62
     4
370
     9
100
AcDbLine
 10
-453.4806062195907
 20
-411.6523471701313
 30
0.0
 11
-465.9812833283553
 21
-424.1525283682515
 31
0.0
  0
LINE
  5
335
330
1F
100
AcDbEntity
  8
D-9
  6
Continuous
 62
     4
370
     9
100
AcDbLine
 10
-460.5519367669235
 20
-411.6523471701313
 30
0.0
 11
-472.0369006608138
 21
-423.136817537563
 31
0.0
  0
LINE
  5
336
330
1F
100
AcDbEntity
  8
D-9
  6
Continuous
 62
     4
370
     9
100
AcDbLine
 10
-467.6232673142562
 20
-411.6523471701313
 30
0.0
 11
-477.4503947709213
 21
-421.4794746267964
 31
0.0
  0
LINE
  5
337
330
1F
100
AcDbEntity
  8
D-9
  6
Continuous
 62
     4
370
     9
100
AcDbLine
 10
-474.6936084244857
 20
-411.6523471701313
 30
0.0
 11
-482.6666881058822
 21
-419.6254268515278
 31
0.0
  0
LINE
  5
338
330
1F
100
AcDbEntity
  8
D-9
  6
Continuous
 62
     4
370
     9
100
AcDbLine
 10
-481.7649365876327
 20
-411.6523471701313
 30
0.0
 11
-487.8829862092147
 21
-417.7708831656147
 31
0.0
  0
LINE
  5
339
330
1F
100
AcDbEntity
  8
D-9
  6
Continuous
 62
     4
370
     9
100
AcDbLine
 10
-488.8362647507797
 20
-411.6523471701313
 30
0.0
 11
-493.8365365479598
 21
-416.6526141989399
 31
0.0
  0
LINE
  5
33A
330
1F
100
AcDbEntity
  8
D-9
  6
Continuous
 62
     4
370
     9
100
AcDbLine
 10
-495.9075976822982
 20
-411.6523471701313
 30
0.0
 11
-500.9068776581893
 21
-416.6526141989399
 31
0.0
  0
LINE
  5
33B
330
1F
100
AcDbEntity
  8
D-9
  6
Continuous
 62
     4
370
     9
100
AcDbLine
 10
-531.2632562134871
 20
-411.6523471701313
 30
0.0
 11
-536.2625409577498
 21
-416.6526141989399
 31
0.0
  0
LINE
  5
33C
330
1F
100
AcDbEntity
  8
D-A
  6
JWW_DASHED3
 62
     3
370
     9
100
AcDbLine
 10
-399.929349562944
 20
-394.152385317104
 30
0.0
 11
-399.929349562944
 21
-344.1521540510823
 31
0.0
  0
LINE
  5
33D
330
1F
100
AcDbEntity
  8
D-A
  6
Continuous
 62
     3
370
     9
100
AcDbLine
 10
-374.9289847825179
 20
-369.1525188315083
 30
0.0
 11
-374.9289847825179
 21
-353.6527696478535
 31
0.0
  0
LINE
  5
33E
330
1F
100
AcDbEntity
  8
D-A
  6
Continuous
 62
     3
370
     9
100
AcDbLine
 10
-399.929349562944
 20
-344.1521540510823
 30
0.0
 11
-399.929349562944
 21
-314.1525110829045
 31
0.0
  0
LINE
  5
33F
330
1F
100
AcDbEntity
  8
D-A
  6
Continuous
 62
     3
370
     9
100
AcDbLine
 10
-249.9291421387802
 20
-432.6522937643696
 30
0.0
 11
-374.9289847825179
 21
-432.6522937643696
 31
0.0
  0
LINE
  5
340
330
1F
100
AcDbEntity
  8
D-A
  6
Continuous
 62
     3
370
     9
100
AcDbLine
 10
-377.8591872666488
 20
-416.2230411398579
 30
0.0
 11
-399.929349562944
 21
-394.152385317104
 31
0.0
  0
LINE
  5
341
330
1F
100
AcDbEntity
  8
D-A
  6
Continuous
 62
     3
370
     9
100
AcDbLine
 10
-374.9289847825179
 20
-444.1521182882954
 30
0.0
 11
-374.9289847825179
 21
-423.2943740713765
 31
0.0
  0
LINE
  5
342
330
1F
100
AcDbEntity
  8
D-A
  6
Continuous
 62
     3
370
     9
100
AcDbLine
 10
-249.9291421387802
 20
-444.1521182882954
 30
0.0
 11
-374.9289847825179
 21
-444.1521182882954
 31
0.0
  0
LINE
  5
343
330
1F
100
AcDbEntity
  8
D-A
  6
Continuous
 62
     3
370
     9
100
AcDbLine
 10
-399.929349562944
 20
-426.6521659720112
 30
0.0
 11
-399.929349562944
 21
-394.152385317104
 31
0.0
  0
LINE
  5
344
330
1F
100
AcDbEntity
  8
D-A
  6
Continuous
 62
     3
370
     9
100
AcDbLine
 10
-399.929349562944
 20
-426.6521659720112
 30
0.0
 11
-411.4291800473342
 21
-426.6521659720112
 31
0.0
  0
LINE
  5
345
330
1F
100
AcDbEntity
  8
D-A
  6
Continuous
 62
     3
370
     9
100
AcDbLine
 10
-411.4291800473342
 20
-314.1525110829045
 30
0.0
 11
-411.4291800473342
 21
-426.6521659720112
 31
0.0
  0
LINE
  5
346
330
1F
100
AcDbEntity
  8
D-A
  6
JWW_CENTER2
 62
     3
370
     9
100
AcDbLine
 10
-356.9345523331771
 20
-371.6526523459126
 30
0.0
 11
-417.3520137284408
 21
-371.6526523459126
 31
0.0
  0
LINE
  5
347
330
1F
100
AcDbEntity
  8
D-A
  6
JWW_DASHED3
 62
     3
370
     9
100
AcDbLine
 10
-374.9289847825179
 20
-381.6527000296284
 30
0.0
 11
-411.4291800473342
 21
-381.6527000296284
 31
0.0
  0
LINE
  5
348
330
1F
100
AcDbEntity
  8
D-A
  6
JWW_DASHED3
 62
     3
370
     9
100
AcDbLine
 10
-374.9289847825179
 20
-389.6525398123433
 30
0.0
 11
-374.9289847825179
 21
-369.1525188315083
 31
0.0
  0
LINE
  5
349
330
1F
100
AcDbEntity
  8
D-A
  6
JWW_DASHED3
 62
     3
370
     9
100
AcDbLine
 10
-374.9289847825179
 20
-380.4031291830708
 30
0.0
 11
-411.4291800473342
 21
-380.4031291830708
 31
0.0
  0
LINE
  5
34A
330
1F
100
AcDbEntity
  8
D-A
  6
Continuous
 62
     3
370
     9
100
AcDbLine
 10
-413.679599902452
 20
-361.6526094305684
 30
0.0
 11
-414.9291719411025
 21
-362.9026761877705
 31
0.0
  0
LINE
  5
34B
330
1F
100
AcDbEntity
  8
D-A
  6
Continuous
 62
     3
370
     9
100
AcDbLine
 10
-413.679599902452
 20
-381.6527000296284
 30
0.0
 11
-414.9291719411025
 21
-380.4031291830708
 31
0.0
  0
LINE
  5
34C
330
1F
100
AcDbEntity
  8
D-A
  6
Continuous
 62
     3
370
     9
100
AcDbLine
 10
-413.679599902452
 20
-361.6526094305684
 30
0.0
 11
-413.679599902452
 21
-381.6527000296284
 31
0.0
  0
LINE
  5
34D
330
1F
100
AcDbEntity
  8
D-A
  6
Continuous
 62
     3
370
     9
100
AcDbLine
 10
-411.4291800473342
 20
-362.9026761877705
 30
0.0
 11
-414.9291719411025
 21
-362.9026761877705
 31
0.0
  0
LINE
  5
34E
330
1F
100
AcDbEntity
  8
D-A
  6
Continuous
 62
     3
370
     9
100
AcDbLine
 10
-411.4291800473342
 20
-361.6526094305684
 30
0.0
 11
-413.679599902452
 21
-361.6526094305684
 31
0.0
  0
LINE
  5
34F
330
1F
100
AcDbEntity
  8
D-A
  6
Continuous
 62
     3
370
     9
100
AcDbLine
 10
-411.4291800473342
 20
-380.4031291830708
 30
0.0
 11
-414.9291719411025
 21
-380.4031291830708
 31
0.0
  0
LINE
  5
350
330
1F
100
AcDbEntity
  8
D-A
  6
Continuous
 62
     3
370
     9
100
AcDbLine
 10
-411.4291800473342
 20
-381.6527000296284
 30
0.0
 11
-413.679599902452
 21
-381.6527000296284
 31
0.0
  0
LINE
  5
351
330
1F
100
AcDbEntity
  8
D-A
  6
Continuous
 62
     3
370
     9
100
AcDbLine
 10
-368.4294272874008
 20
-353.6527696478535
 30
0.0
 11
-374.9289847825179
 21
-353.6527696478535
 31
0.0
  0
LINE
  5
352
330
1F
100
AcDbEntity
  8
D-A
  6
JWW_DASHED3
 62
     3
370
     9
100
AcDbLine
 10
-368.4294272874008
 20
-389.6525398123433
 30
0.0
 11
-374.9289847825179
 21
-389.6525398123433
 31
0.0
  0
LINE
  5
353
330
1F
100
AcDbEntity
  8
D-A
  6
JWW_DASHED3
 62
     3
370
     9
100
AcDbLine
 10
-361.9298697922836
 20
-383.15248163821
 30
0.0
 11
-361.9298697922836
 21
-382.1531215536763
 31
0.0
  0
LINE
  5
354
330
1F
100
AcDbEntity
  8
D-A
  6
Continuous
 62
     3
370
     9
100
AcDbLine
 10
-361.9298697922836
 20
-360.1518312323262
 30
0.0
 11
-361.9298697922836
 21
-382.1531215536763
 31
0.0
  0
LINE
  5
355
330
1F
100
AcDbEntity
  8
D-A
  6
Continuous
 62
     3
370
     9
100
AcDbLine
 10
-374.9289847825179
 20
-361.6526094305684
 30
0.0
 11
-382.429394862474
 21
-361.6526094305684
 31
0.0
  0
LINE
  5
356
330
1F
100
AcDbEntity
  8
D-A
  6
Continuous
 62
     3
370
     9
100
AcDbLine
 10
-374.9289847825179
 20
-362.9026761877705
 30
0.0
 11
-381.1798192475448
 21
-362.9026761877705
 31
0.0
  0
LINE
  5
357
330
1F
100
AcDbEntity
  8
D-A
  6
JWW_DASHED3
 62
     3
370
     9
100
AcDbLine
 10
-382.429394862474
 20
-361.6526094305684
 30
0.0
 11
-411.4291800473342
 21
-361.6526094305684
 31
0.0
  0
LINE
  5
358
330
1F
100
AcDbEntity
  8
D-A
  6
JWW_DASHED3
 62
     3
370
     9
100
AcDbLine
 10
-411.4291800473342
 20
-362.9026761877705
 30
0.0
 11
-381.1798192475448
 21
-362.9026761877705
 31
0.0
  0
LINE
  5
359
330
1F
100
AcDbEntity
  8
D-A
  6
Continuous
 62
     3
370
     9
100
AcDbLine
 10
-358.7172461960922
 20
-385.3652492392231
 30
0.0
 11
-399.929349562944
 21
-344.1521540510823
 31
0.0
  0
LINE
  5
35A
330
1F
100
AcDbEntity
  8
D-A
  6
Continuous
 62
     3
370
     9
100
AcDbLine
 10
-337.5032617066512
 20
-394.152385317104
 30
0.0
 11
-259.9296952698837
 21
-394.152385317104
 31
0.0
  0
LINE
  5
35B
330
1F
100
AcDbEntity
  8
D-4
  6
Continuous
 62
     7
370
     9
100
AcDbLine
 10
-1122.597332141222
 20
-188.2335773337056
 30
0.0
 11
-549.9295522187361
 21
-188.2335773337056
 31
0.0
  0
LINE
  5
35C
330
1F
100
AcDbEntity
  8
D-4
  6
Continuous
 62
     7
370
     9
100
AcDbLine
 10
-549.9295522187361
 20
-293.6965874064137
 30
0.0
 11
-549.9295522187361
 21
-185.2325263846089
 31
0.0
  0
LINE
  5
35D
330
1F
100
AcDbEntity
  8
D-4
  6
Continuous
 62
     7
370
     9
100
AcDbLine
 10
-549.9295522187361
 20
-188.2335773337056
 30
0.0
 11
-424.9287225220809
 21
-188.2335773337056
 31
0.0
  0
LINE
  5
35E
330
1F
100
AcDbEntity
  8
D-4
  6
Continuous
 62
     7
370
     9
100
AcDbLine
 10
-424.9287225220809
 20
-293.6965874064137
 30
0.0
 11
-424.9287225220809
 21
-76.48159178377881
 31
0.0
  0
LINE
  5
35F
330
1F
100
AcDbEntity
  8
D-4
  6
Continuous
 62
     7
370
     9
100
AcDbLine
 10
-419.9284519169937
 20
-293.6965874064137
 30
0.0
 11
-419.9284519169937
 21
-76.48159178377881
 31
0.0
  0
LINE
  5
360
330
1F
100
AcDbEntity
  8
D-4
  6
Continuous
 62
     7
370
     9
100
AcDbLine
 10
-394.9300695870529
 20
-293.6965874064137
 30
0.0
 11
-394.9300695870529
 21
34.21504823086963
 31
0.0
  0
LINE
  5
361
330
1F
100
AcDbEntity
  8
D-5
  6
Continuous
 62
     7
370
     9
100
AcDbLine
 10
-258.4987832520614
 20
-201.103879534023
 30
0.0
 11
0.88258729237225
 21
-201.103879534023
 31
0.0
  0
LINE
  5
362
330
1F
100
AcDbEntity
  8
D-4
  6
Continuous
 62
     7
370
     9
100
AcDbLine
 10
-549.9285603974471
 20
-869.236108385341
 30
0.0
 11
-149.9276925538192
 21
-869.236108385341
 31
0.0
  0
LINE
  5
363
330
1F
100
AcDbEntity
  8
D-4
  6
Continuous
 62
     7
370
     9
100
AcDbLine
 10
-149.9276925538192
 20
-629.0258994925191
 30
0.0
 11
-149.9276925538192
 21
-872.2351470816301
 31
0.0
  0
LINE
  5
364
330
1F
100
AcDbEntity
  8
D-4
  6
Continuous
 62
     7
370
     9
100
AcDbLine
 10
-549.9285603974471
 20
-714.7712341177632
 30
0.0
 11
-399.929349562944
 21
-714.7712341177632
 31
0.0
  0
LINE
  5
365
330
1F
100
AcDbEntity
  8
D-4
  6
Continuous
 62
     7
370
     9
100
AcDbLine
 10
121.7561529662002
 20
-559.1529098379781
 30
0.0
 11
121.7561529662002
 21
-309.1527357924153
 31
0.0
  0
LINE
  5
366
330
1F
100
AcDbEntity
  8
D-4
  6
Continuous
 62
     7
370
     9
100
AcDbLine
 10
26.10097871082928
 20
-309.1527357924153
 30
0.0
 11
124.7567175413955
 21
-309.1527357924153
 31
0.0
  0
LINE
  5
367
330
1F
100
AcDbEntity
  8
D-6
  6
Continuous
 62
     6
370
     5
100
AcDbLine
 10
-399.929349562944
 20
-559.1529098379781
 30
0.0
 11
-399.929349562944
 21
-809.1525665152238
 31
0.0
  0
LINE
  5
368
330
1F
100
AcDbEntity
  8
D-6
  6
JWW_DASHED3
 62
     6
370
     5
100
AcDbLine
 10
-306.427459857286
 20
-686.6523757803609
 30
0.0
 11
-306.427459857286
 21
-559.1529098379781
 31
0.0
  0
LINE
  5
369
330
1F
100
AcDbEntity
  8
D-6
  6
JWW_DASHED3
 62
     6
370
     5
100
AcDbLine
 10
-261.4279939149032
 20
-559.1529098379781
 30
0.0
 11
-261.4279939149032
 21
-686.6523757803609
 31
0.0
  0
LINE
  5
36A
330
1F
100
AcDbEntity
  8
D-6
  6
Continuous
 62
     6
370
     5
100
AcDbLine
 10
-149.9296761963973
 20
-459.1529384482075
 30
0.0
 11
15.07081971424725
 21
-459.1529384482075
 31
0.0
  0
LINE
  5
36B
330
1F
100
AcDbEntity
  8
D-6
  6
Continuous
 62
     6
370
     5
100
AcDbLine
 10
-149.9296761963973
 20
-459.1529384482075
 30
0.0
 11
-149.9296761963973
 21
-559.1529098379781
 31
0.0
  0
LINE
  5
36C
330
1F
100
AcDbEntity
  8
D-4
  6
Continuous
 62
     7
370
     9
100
AcDbLine
 10
-94.1497994874129
 20
-559.1529098379781
 30
0.0
 11
124.7567175413955
 21
-559.1529098379781
 31
0.0
  0
LINE
  5
36D
330
1F
100
AcDbEntity
  8
D-6
  6
Continuous
 62
     6
370
     5
100
AcDbLine
 10
-399.929349562944
 20
-559.1529098379781
 30
0.0
 11
-149.9296761963973
 21
-559.1529098379781
 31
0.0
  0
LINE
  5
36E
330
1F
100
AcDbEntity
  8
D-6
  6
Continuous
 62
     6
370
     5
100
AcDbLine
 10
-306.427459857286
 20
-361.6531005728413
 30
0.0
 11
-261.4279939149032
 21
-361.6531005728413
 31
0.0
  0
LINE
  5
36F
330
1F
100
AcDbEntity
  8
D-6
  6
JWW_CENTER2
 62
     6
370
     5
100
AcDbLine
 10
-283.9282227967391
 20
-357.5729194510151
 30
0.0
 11
-283.9282227967391
 21
-686.6523757803609
 31
0.0
  0
LINE
  5
370
330
1F
100
AcDbEntity
  8
D-4
  6
Continuous
 62
     7
370
     9
100
AcDbLine
 10
-394.9290801499496
 20
-447.1204772818257
 30
0.0
 11
-394.9290801499496
 21
-502.6833358633687
 31
0.0
  0
LINE
  5
371
330
1F
100
AcDbEntity
  8
D-4
  6
Continuous
 62
     7
370
     9
100
AcDbLine
 10
-238.1023026917587
 20
-444.1526141989399
 30
0.0
 11
-158.8788415406356
 21
-444.1526141989399
 31
0.0
  0
LINE
  5
372
330
1F
100
AcDbEntity
  8
D-4
  6
Continuous
 62
     7
370
     9
100
AcDbLine
 10
-238.1023026917587
 20
-394.1528812277485
 30
0.0
 11
-158.8788415406356
 21
-394.1528812277485
 31
0.0
  0
LINE
  5
373
330
1F
100
AcDbEntity
  8
D-4
  6
Continuous
 62
     7
370
     9
100
AcDbLine
 10
-161.8783952210555
 20
-394.1528812277485
 30
0.0
 11
-161.8783952210555
 21
-309.1527357924153
 31
0.0
  0
LINE
  5
374
330
1F
100
AcDbEntity
  8
D-6
  6
Continuous
 62
     6
370
     5
100
AcDbLine
 10
-306.427459857286
 20
-394.152385317104
 30
0.0
 11
-306.427459857286
 21
-361.6531005728413
 31
0.0
  0
LINE
  5
375
330
1F
100
AcDbEntity
  8
D-6
  6
Continuous
 62
     6
370
     5
100
AcDbLine
 10
-261.4279939149032
 20
-394.152385317104
 30
0.0
 11
-261.4279939149032
 21
-361.6531005728413
 31
0.0
  0
LINE
  5
376
330
1F
100
AcDbEntity
  8
D-6
  6
Continuous
 62
     6
370
     5
100
AcDbLine
 10
-306.427459857286
 20
-559.1529098379781
 30
0.0
 11
-306.427459857286
 21
-444.1521182882954
 31
0.0
  0
LINE
  5
377
330
1F
100
AcDbEntity
  8
D-6
  6
Continuous
 62
     6
370
     5
100
AcDbLine
 10
-261.4279939149032
 20
-559.1529098379781
 30
0.0
 11
-261.4279939149032
 21
-444.1521182882954
 31
0.0
  0
LINE
  5
378
330
1F
100
AcDbEntity
  8
D-4
  6
Continuous
 62
     7
370
     9
100
AcDbLine
 10
-695.4120637391219
 20
-434.1525760519673
 30
0.0
 11
-695.4120637391219
 21
-309.1527357924153
 31
0.0
  0
LINE
  5
379
330
1F
100
AcDbEntity
  8
D-4
  6
Continuous
 62
     7
370
     9
100
AcDbLine
 10
-554.8535157654891
 20
-434.1525760519673
 30
0.0
 11
-698.4116364930281
 21
-434.1525760519673
 31
0.0
  0
LINE
  5
37A
330
1F
100
AcDbEntity
  8
D-4
  6
Continuous
 62
     7
370
     9
100
AcDbLine
 10
-1122.597332141222
 20
31.21448365567431
 30
0.0
 11
-394.9300695870529
 21
31.21448365567431
 31
0.0
  0
LINE
  5
37B
330
1F
100
AcDbEntity
  8
D-4
  6
Continuous
 62
     7
370
     9
100
AcDbLine
 10
-432.2091407988677
 20
-309.1527357924153
 30
0.0
 11
-698.4116364930281
 21
-309.1527357924153
 31
0.0
  0
LINE
  5
37C
330
1F
100
AcDbEntity
  8
D-4
  6
Continuous
 62
     7
370
     9
100
AcDbLine
 10
-1122.597332141222
 20
-79.48116453768506
 30
0.0
 11
-394.9300695870529
 21
-79.48116453768506
 31
0.0
  0
LINE
  5
37D
330
1F
100
AcDbEntity
  8
D-4
  6
Continuous
 62
     7
370
     9
100
AcDbLine
 10
-394.9290801499496
 20
-499.6832671988179
 30
0.0
 11
-249.9291421387802
 21
-499.6832671988179
 31
0.0
  0
LINE
  5
37E
330
1F
100
AcDbEntity
  8
D-5
  6
Continuous
 62
     2
370
     9
100
AcDbLine
 10
-891.9238854859481
 20
-1005.09460600497
 30
0.0
 11
-891.9238854859481
 21
-940.0950637686418
 31
0.0
  0
LINE
  5
37F
330
1F
100
AcDbEntity
  8
D-5
  6
Continuous
 62
     2
370
     9
100
AcDbLine
 10
-891.9238854859481
 20
-940.0950637686418
 30
0.0
 11
-316.9234658692489
 21
-940.0950637686418
 31
0.0
  0
LINE
  5
380
330
1F
100
AcDbEntity
  8
D-5
  6
Continuous
 62
     2
370
     9
100
AcDbLine
 10
-316.9234658692489
 20
-940.0950637686418
 30
0.0
 11
-316.9234658692489
 21
-1005.09460600497
 31
0.0
  0
LINE
  5
381
330
1F
100
AcDbEntity
  8
D-5
  6
Continuous
 62
     2
370
     9
100
AcDbLine
 10
-316.9234658692489
 20
-1005.09460600497
 30
0.0
 11
-891.9238854859481
 21
-1005.09460600497
 31
0.0
  0
LINE
  5
382
330
1F
100
AcDbEntity
  8
D-4
  6
Continuous
 62
     7
370
     9
100
AcDbLine
 10
-161.8783952210555
 20
-444.1526141989399
 30
0.0
 11
-161.8783952210555
 21
-394.1528812277485
 31
0.0
  0
LINE
  5
383
330
1F
100
AcDbEntity
  8
D-4
  6
Continuous
 62
     7
370
     9
100
AcDbLine
 10
-549.9285603974471
 20
-834.1529479849504
 30
0.0
 11
-549.9285603974471
 21
-872.2351470816301
 31
0.0
  0
LINE
  5
384
330
1F
100
AcDbEntity
  8
D-A
  6
Continuous
 62
     3
370
     9
100
AcDbLine
 10
-411.4291800473342
 20
-314.1525110829045
 30
0.0
 11
-399.929349562944
 21
-314.1525110829045
 31
0.0
  0
LINE
  5
385
330
1F
100
AcDbEntity
  8
D-5
  6
Continuous
 62
     7
370
     9
100
AcDbLine
 10
-369.7305299256454
 20
-402.8701606619526
 30
0.0
 11
-355.9198333237777
 21
-382.0307412970234
 31
0.0
  0
LINE
  5
386
330
1F
100
AcDbEntity
  8
D-5
  6
Continuous
 62
     7
370
     9
100
AcDbLine
 10
-369.7305299256454
 20
-402.8701606619526
 30
0.0
 11
-350.9958650086532
 21
-386.316052995937
 31
0.0
  0
LINE
  5
387
330
1F
100
AcDbEntity
  8
D-5
  6
Continuous
 62
     7
370
     9
100
AcDbLine
 10
-369.7295381043563
 20
-402.8691688406636
 30
0.0
 11
-243.8210107300887
 21
-258.2066551077534
 31
0.0
  0
LINE
  5
388
330
1F
100
AcDbEntity
  8
D-5
  6
Continuous
 62
     7
370
     9
100
AcDbLine
 10
-243.8210107300887
 20
-258.2066551077534
 30
0.0
 11
142.8799627806534
 21
-258.2066551077534
 31
0.0
  0
LINE
  5
389
330
1F
100
AcDbEntity
  8
D-5
  6
Continuous
 62
     7
370
     9
100
AcDbLine
 10
-447.0127560113082
 20
-417.6945892203022
 30
0.0
 11
-433.2000781510482
 21
-396.8566528189351
 31
0.0
  0
LINE
  5
38A
330
1F
100
AcDbEntity
  8
D-5
  6
Continuous
 62
     7
370
     9
100
AcDbLine
 10
-447.0127560113082
 20
-417.6945892203022
 30
0.0
 11
-428.2790823195587
 21
-401.1404815542866
 31
0.0
  0
LINE
  5
38B
330
1F
100
AcDbEntity
  8
D-5
  6
Continuous
 62
     7
370
     9
100
AcDbLine
 10
-396.8812252495895
 20
-311.9486661109497
 30
0.0
 11
-383.0705310319076
 21
-291.1102405417134
 31
0.0
  0
LINE
  5
38C
330
1F
100
AcDbEntity
  8
D-5
  6
Continuous
 62
     7
370
     9
100
AcDbLine
 10
-396.8812252495895
 20
-311.9486661109497
 30
0.0
 11
-378.1465627167831
 21
-295.394559227245
 31
0.0
  0
LINE
  5
38D
330
1F
100
AcDbEntity
  8
D-5
  6
Continuous
 62
     7
370
     9
100
AcDbLine
 10
-252.6552201722274
 20
-146.2411132681538
 30
0.0
 11
-396.8812252495895
 21
-311.9486661109497
 31
0.0
  0
LINE
  5
38E
330
1F
100
AcDbEntity
  8
D-5
  6
Continuous
 62
     7
370
     9
100
AcDbLine
 10
-252.6552201722274
 20
-146.2411132681538
 30
0.0
 11
196.1329458739151
 21
-146.2411132681538
 31
0.0
  0
LINE
  5
38F
330
1F
100
AcDbEntity
  8
D-6
  6
Continuous
 62
     6
370
     5
100
AcDbLine
 10
-397.9296375725875
 20
-309.1527357924153
 30
0.0
 11
15.07081971424725
 21
-309.1527357924153
 31
0.0
  0
LINE
  5
390
330
1F
100
AcDbEntity
  8
D-6
  6
Continuous
 62
     6
370
     5
100
AcDbLine
 10
-549.9285603974471
 20
-429.1522994864155
 30
0.0
 11
-549.9285603974471
 21
-809.1525665152238
 31
0.0
  0
LINE
  5
391
330
1F
100
AcDbEntity
  8
D-A
  6
Continuous
 62
     3
370
     9
100
AcDbLine
 10
-249.9291421387802
 20
-404.1524330008198
 30
0.0
 11
-249.9291421387802
 21
-444.1521182882954
 31
0.0
  0
LINE
  5
392
330
1F
100
AcDbEntity
  8
D-1
  6
Continuous
 62
     2
370
     9
100
AcDbLine
 10
-399.930341384233
 20
-314.1525110829045
 30
0.0
 11
-414.9301625702987
 21
-314.1525110829045
 31
0.0
  0
LINE
  5
393
330
1F
100
AcDbEntity
  8
D-1
  6
Continuous
 62
     2
370
     9
100
AcDbLine
 10
-394.9300695870529
 20
-406.6525665152241
 30
0.0
 11
-399.930341384233
 21
-406.6525665152241
 31
0.0
  0
LINE
  5
394
330
1F
100
AcDbEntity
  8
D-1
  6
Continuous
 62
     2
370
     9
100
AcDbLine
 10
-399.930341384233
 20
-429.1522994864155
 30
0.0
 11
-399.930341384233
 21
-406.6525665152241
 31
0.0
  0
LINE
  5
395
330
1F
100
AcDbEntity
  8
D-1
  6
Continuous
 62
     2
370
     9
100
AcDbLine
 10
-394.9300695870529
 20
-336.6522446501423
 30
0.0
 11
-399.930341384233
 21
-336.6522446501423
 31
0.0
  0
LINE
  5
396
330
1F
100
AcDbEntity
  8
D-1
  6
Continuous
 62
     2
370
     9
100
AcDbLine
 10
-399.930341384233
 20
-336.6522446501423
 30
0.0
 11
-399.930341384233
 21
-314.1525110829045
 31
0.0
  0
LINE
  5
397
330
1F
100
AcDbEntity
  8
D-1
  6
Continuous
 62
     2
370
     9
100
AcDbLine
 10
-394.9300695870529
 20
-312.15230377795
 30
0.0
 11
-394.9300695870529
 21
-336.6522446501423
 31
0.0
  0
LINE
  5
398
330
1F
100
AcDbEntity
  8
D-1
  6
Continuous
 62
     2
370
     9
100
AcDbLine
 10
-394.9300695870529
 20
-431.1525073874165
 30
0.0
 11
-394.9300695870529
 21
-406.6525665152241
 31
0.0
  0
LINE
  5
399
330
1F
100
AcDbEntity
  8
D-1
  6
Continuous
 62
     2
370
     9
100
AcDbLine
 10
-419.9304334734092
 20
-424.1525283682515
 30
0.0
 11
-469.9301673386703
 21
-424.1525283682515
 31
0.0
  0
LINE
  5
39A
330
1F
100
AcDbEntity
  8
D-1
  6
Continuous
 62
     2
370
     9
100
AcDbLine
 10
-414.9301625702987
 20
-424.1525283682515
 30
0.0
 11
-414.9301625702987
 21
-314.1525110829045
 31
0.0
  0
LINE
  5
39B
330
1F
100
AcDbEntity
  8
D-1
  6
Continuous
 62
     2
370
     9
100
AcDbLine
 10
-419.9304334734092
 20
-424.1525283682515
 30
0.0
 11
-419.9304334734092
 21
-312.15230377795
 31
0.0
  0
LINE
  5
39C
330
1F
100
AcDbEntity
  8
D-1
  6
Continuous
 62
     2
370
     9
100
AcDbLine
 10
-490.2176333878646
 20
-416.9414726126362
 30
0.0
 11
-469.9301673386703
 21
-424.1525283682515
 31
0.0
  0
LINE
  5
39D
330
1F
100
AcDbEntity
  8
D-1
  6
Continuous
 62
     2
370
     9
100
AcDbLine
 10
-471.3006354783187
 20
-428.8639369833638
 30
0.0
 11
-491.5965224717269
 21
-421.652385317104
 31
0.0
  0
LINE
  5
39E
330
1F
100
AcDbEntity
  8
D-1
  6
Continuous
 62
     2
370
     9
100
AcDbLine
 10
-416.9298745606552
 20
-309.1527357924153
 30
0.0
 11
-397.9301334832321
 21
-309.1527357924153
 31
0.0
  0
LINE
  5
39F
330
1F
100
AcDbEntity
  8
D-1
  6
Continuous
 62
     2
370
     9
100
AcDbLine
 10
-544.9302674744735
 20
-429.1522994864155
 30
0.0
 11
-399.930341384233
 21
-429.1522994864155
 31
0.0
  0
LINE
  5
3A0
330
1F
100
AcDbEntity
  8
D-1
  6
Continuous
 62
     2
370
     9
100
AcDbLine
 10
-544.9302674744735
 20
-429.1522994864155
 30
0.0
 11
-544.9302674744735
 21
-421.652385317104
 31
0.0
  0
LINE
  5
3A1
330
1F
100
AcDbEntity
  8
D-1
  6
Continuous
 62
     2
370
     9
100
AcDbLine
 10
-544.9302674744735
 20
-434.1525760519673
 30
0.0
 11
-397.9301334832321
 21
-434.1525760519673
 31
0.0
  0
LINE
  5
3A2
330
1F
100
AcDbEntity
  8
D-1
  6
Continuous
 62
     2
370
     9
100
AcDbLine
 10
-549.9300481293807
 20
-429.1522994864155
 30
0.0
 11
-549.9300481293807
 21
-421.652385317104
 31
0.0
  0
LINE
  5
3A3
330
1F
100
AcDbEntity
  8
D-1
  6
Continuous
 62
     2
370
     9
100
AcDbLine
 10
-508.1000901673446
 20
-417.3224845755269
 30
0.0
 11
-519.9304009888778
 21
-424.1525283682515
 31
0.0
  0
LINE
  5
3A4
330
1F
100
AcDbEntity
  8
D-1
  6
Continuous
 62
     2
370
     9
100
AcDbLine
 10
-517.4302674744735
 20
-428.4824291098286
 30
0.0
 11
-505.5999566529403
 21
-421.652385317104
 31
0.0
  0
LINE
  5
3A5
330
1F
100
AcDbEntity
  8
D-1
  6
Continuous
 62
     2
370
     9
100
AcDbLine
 10
-522.4300385926375
 20
-428.4824291098286
 30
0.0
 11
-534.2603494141707
 21
-421.652385317104
 31
0.0
  0
LINE
  5
3A6
330
1F
100
AcDbEntity
  8
D-1
  6
Continuous
 62
     2
370
     9
100
AcDbLine
 10
-531.7602158997664
 20
-417.3224845755269
 30
0.0
 11
-519.9304009888778
 21
-424.1525283682515
 31
0.0
  0
LINE
  5
3A7
330
1F
100
AcDbEntity
  8
D-1
  6
Continuous
 62
     2
370
     9
100
AcDbLine
 10
-491.5965224717269
 20
-421.652385317104
 30
0.0
 11
-505.5999566529403
 21
-421.652385317104
 31
0.0
  0
LINE
  5
3A8
330
1F
100
AcDbEntity
  8
D-1
  6
Continuous
 62
     2
370
     9
100
AcDbLine
 10
-534.2603494141707
 20
-421.652385317104
 30
0.0
 11
-544.9302674744735
 21
-421.652385317104
 31
0.0
  0
LINE
  5
3A9
330
1F
100
AcDbEntity
  8
D-1
  6
Continuous
 62
     2
370
     9
100
AcDbLine
 10
-491.8923188660751
 20
-416.6526141989399
 30
0.0
 11
-505.5999566529403
 21
-416.6526141989399
 31
0.0
  0
LINE
  5
3AA
330
1F
100
AcDbEntity
  8
D-1
  6
Continuous
 62
     2
370
     9
100
AcDbLine
 10
-534.2603494141707
 20
-416.6526141989399
 30
0.0
 11
-544.9302674744735
 21
-416.6526141989399
 31
0.0
  0
LINE
  5
3AB
330
1F
100
AcDbEntity
  8
D-9
  6
Continuous
 62
     4
370
     9
100
AcDbLine
 10
-502.9779387925277
 20
-411.6523471701313
 30
0.0
 11
-509.3962384675155
 21
-418.0706420767476
 31
0.0
  0
LINE
  5
3AC
330
1F
100
AcDbEntity
  8
D-9
  6
Continuous
 62
     4
370
     9
100
AcDbLine
 10
-510.0492669556747
 20
-411.6523471701313
 30
0.0
 11
-521.5907193635115
 21
-423.1937900412251
 31
0.0
  0
LINE
  5
3AD
330
1F
100
AcDbEntity
  8
D-9
  6
Continuous
 62
     4
370
     9
100
AcDbLine
 10
-517.1205998871932
 20
-411.6523471701313
 30
0.0
 11
-526.0737229798445
 21
-420.6054607260396
 31
0.0
  0
LINE
  5
3AE
330
1F
100
AcDbEntity
  8
D-9
  6
Continuous
 62
     4
370
     9
100
AcDbLine
 10
-524.1919232819686
 20
-411.6523471701313
 30
0.0
 11
-530.5557252381453
 21
-418.0176273214985
 31
0.0
  0
LINE
  5
3AF
330
1F
100
AcDbEntity
  8
D-4
  6
Continuous
 62
     7
370
     9
100
AcDbLine
 10
-249.9291421387802
 20
-454.0287986624409
 30
0.0
 11
-249.9291421387802
 21
-502.6833358633687
 31
0.0
  0
LINE
  5
3B0
330
1F
100
AcDbEntity
  8
D-5
  6
Continuous
 62
     7
370
     9
100
AcDbLine
 10
-258.4987832520614
 20
-201.103879534023
 30
0.0
 11
-447.0122624848495
 21
-417.6940933096577
 31
0.0
  0
LINE
  5
3B1
330
1F
100
AcDbEntity
  8
D-6
  6
Continuous
 62
     6
370
     5
100
AcDbLine
 10
-149.9296761963973
 20
-506.492997728603
 30
0.0
 11
-102.5896264527449
 21
-459.1529384482075
 31
0.0
  0
LINE
  5
3B2
330
1F
100
AcDbEntity
  8
D-6
  6
Continuous
 62
     6
370
     5
100
AcDbLine
 10
-399.929349562944
 20
-756.4906707632707
 30
0.0
 11
-202.5900842164169
 21
-559.1529098379781
 31
0.0
  0
LINE
  5
3B3
330
1F
100
AcDbEntity
  8
D-6
  6
Continuous
 62
     6
370
     5
100
AcDbLine
 10
-399.929349562944
 20
-770.631372057216
 30
0.0
 11
-188.4494019959579
 21
-559.1529098379781
 31
0.0
  0
LINE
  5
3B4
330
1F
100
AcDbEntity
  8
D-6
  6
Continuous
 62
     6
370
     5
100
AcDbLine
 10
-149.9296761963973
 20
-520.6336799490621
 30
0.0
 11
-88.44892515879963
 21
-459.1529384482075
 31
0.0
  0
LINE
  5
3B5
330
1F
100
AcDbEntity
  8
D-6
  6
Continuous
 62
     6
370
     5
100
AcDbLine
 10
-399.929349562944
 20
-784.7720352041887
 30
0.0
 11
-174.3087197754989
 21
-559.1529098379781
 31
0.0
  0
LINE
  5
3B6
330
1F
100
AcDbEntity
  8
D-6
  6
Continuous
 62
     6
370
     5
100
AcDbLine
 10
-149.9296761963973
 20
-534.7743430960347
 30
0.0
 11
-74.30826201182697
 21
-459.1529384482075
 31
0.0
  0
LINE
  5
3B7
330
1F
100
AcDbEntity
  8
D-6
  6
Continuous
 62
     6
370
     5
100
AcDbLine
 10
-60.75719847422931
 20
-809.1525665152238
 30
0.0
 11
15.07181153553631
 21
-733.3245483267473
 31
0.0
  0
LINE
  5
3B8
330
1F
100
AcDbEntity
  8
D-6
  6
Continuous
 62
     6
370
     5
100
AcDbLine
 10
-74.89786162120197
 20
-809.1525665152238
 30
0.0
 11
15.07181153553631
 21
-719.183885179775
 31
0.0
  0
LINE
  5
3B9
330
1F
100
AcDbEntity
  8
D-6
  6
Continuous
 62
     6
370
     5
100
AcDbLine
 10
-46.616497180284
 20
-809.1525665152238
 30
0.0
 11
15.07181153553631
 21
-747.4652114737199
 31
0.0
  0
LINE
  5
3BA
330
1F
100
AcDbEntity
  8
D-0
  6
Continuous
 62
     7
370
     9
100
AcDbLine
 10
-123.084182879747
 20
-330.1026419031788
 30
0.0
 11
-123.084182879747
 21
-328.602361999767
 31
0.0
  0
LINE
  5
3BB
330
1F
100
AcDbEntity
  8
D-0
  6
Continuous
 62
     7
370
     9
100
AcDbLine
 10
-123.084182879747
 20
-328.602361999767
 30
0.0
 11
-121.5843965027938
 21
-328.602361999767
 31
0.0
  0
LINE
  5
3BC
330
1F
100
AcDbEntity
  8
D-0
  6
Continuous
 62
     7
370
     9
100
AcDbLine
 10
-121.5843965027938
 20
-328.602361999767
 30
0.0
 11
-121.5843965027938
 21
-330.1026419031788
 31
0.0
  0
LINE
  5
3BD
330
1F
100
AcDbEntity
  8
D-0
  6
Continuous
 62
     7
370
     9
100
AcDbLine
 10
-121.5843965027938
 20
-330.1026419031788
 30
0.0
 11
-123.084182879747
 21
-330.1026419031788
 31
0.0
  0
LINE
  5
3BE
330
1F
100
AcDbEntity
  8
D-0
  6
Continuous
 62
     7
370
     9
100
AcDbLine
 10
-72.32835783702228
 20
-332.8098836767842
 30
0.0
 11
-72.32835783702228
 21
-331.3096037733723
 31
0.0
  0
LINE
  5
3BF
330
1F
100
AcDbEntity
  8
D-0
  6
Continuous
 62
     7
370
     9
100
AcDbLine
 10
-72.32835783702228
 20
-331.3096037733723
 30
0.0
 11
-70.82807554942463
 21
-331.3096037733723
 31
0.0
  0
LINE
  5
3C0
330
1F
100
AcDbEntity
  8
D-0
  6
Continuous
 62
     7
370
     9
100
AcDbLine
 10
-70.82807554942463
 20
-331.3096037733723
 30
0.0
 11
-70.82807554942463
 21
-332.8098836767842
 31
0.0
  0
LINE
  5
3C1
330
1F
100
AcDbEntity
  8
D-0
  6
Continuous
 62
     7
370
     9
100
AcDbLine
 10
-70.82807554942463
 20
-332.8098836767842
 30
0.0
 11
-72.32835783702228
 21
-332.8098836767842
 31
0.0
  0
LINE
  5
3C2
330
1F
100
AcDbEntity
  8
D-0
  6
Continuous
 62
     7
370
     9
100
AcDbLine
 10
-7.361011645616031
 20
-330.7794526446034
 30
0.0
 11
-7.361011645616031
 21
-329.2791727411915
 31
0.0
  0
LINE
  5
3C3
330
1F
100
AcDbEntity
  8
D-0
  6
Continuous
 62
     7
370
     9
100
AcDbLine
 10
-7.361011645616031
 20
-329.2791727411915
 30
0.0
 11
-5.860729358018375
 21
-329.2791727411915
 31
0.0
  0
LINE
  5
3C4
330
1F
100
AcDbEntity
  8
D-0
  6
Continuous
 62
     7
370
     9
100
AcDbLine
 10
-5.860729358018375
 20
-329.2791727411915
 30
0.0
 11
-5.860729358018375
 21
-330.7794526446034
 31
0.0
  0
LINE
  5
3C5
330
1F
100
AcDbEntity
  8
D-0
  6
Continuous
 62
     7
370
     9
100
AcDbLine
 10
-5.860729358018375
 20
-330.7794526446034
 30
0.0
 11
-7.361011645616031
 21
-330.7794526446034
 31
0.0
  0
LINE
  5
3C6
330
1F
100
AcDbEntity
  8
D-0
  6
Continuous
 62
     7
370
     9
100
AcDbLine
 10
-31.72372832042072
 20
-363.2633748877217
 30
0.0
 11
-31.72372832042072
 21
-361.7630973684956
 31
0.0
  0
LINE
  5
3C7
330
1F
100
AcDbEntity
  8
D-0
  6
Continuous
 62
     7
370
     9
100
AcDbLine
 10
-31.72372832042072
 20
-361.7630973684956
 30
0.0
 11
-30.22344603282306
 21
-361.7630973684956
 31
0.0
  0
LINE
  5
3C8
330
1F
100
AcDbEntity
  8
D-0
  6
Continuous
 62
     7
370
     9
100
AcDbLine
 10
-30.22344603282306
 20
-361.7630973684956
 30
0.0
 11
-30.22344603282306
 21
-363.2633748877217
 31
0.0
  0
LINE
  5
3C9
330
1F
100
AcDbEntity
  8
D-0
  6
Continuous
 62
     7
370
     9
100
AcDbLine
 10
-30.22344603282306
 20
-363.2633748877217
 30
0.0
 11
-31.72372832042072
 21
-363.2633748877217
 31
0.0
  0
LINE
  5
3CA
330
1F
100
AcDbEntity
  8
D-0
  6
Continuous
 62
     7
370
     9
100
AcDbLine
 10
-82.2887612794051
 20
-367.1944251883198
 30
0.0
 11
-82.2887612794051
 21
-365.6941476690938
 31
0.0
  0
LINE
  5
3CB
330
1F
100
AcDbEntity
  8
D-0
  6
Continuous
 62
     7
370
     9
100
AcDbLine
 10
-82.2887612794051
 20
-365.6941476690938
 30
0.0
 11
-80.78897490245197
 21
-365.6941476690938
 31
0.0
  0
LINE
  5
3CC
330
1F
100
AcDbEntity
  8
D-0
  6
Continuous
 62
     7
370
     9
100
AcDbLine
 10
-80.78897490245197
 20
-365.6941476690938
 30
0.0
 11
-80.78897490245197
 21
-367.1944251883198
 31
0.0
  0
LINE
  5
3CD
330
1F
100
AcDbEntity
  8
D-0
  6
Continuous
 62
     7
370
     9
100
AcDbLine
 10
-80.78897490245197
 20
-367.1944251883198
 30
0.0
 11
-82.2887612794051
 21
-367.1944251883198
 31
0.0
  0
LINE
  5
3CE
330
1F
100
AcDbEntity
  8
D-0
  6
Continuous
 62
     7
370
     9
100
AcDbLine
 10
-99.39828886729572
 20
-401.1612907278706
 30
0.0
 11
-99.39828886729572
 21
-399.661008440273
 31
0.0
  0
LINE
  5
3CF
330
1F
100
AcDbEntity
  8
D-0
  6
Continuous
 62
     7
370
     9
100
AcDbLine
 10
-99.39828886729572
 20
-399.661008440273
 30
0.0
 11
-97.89800657969806
 21
-399.661008440273
 31
0.0
  0
LINE
  5
3D0
330
1F
100
AcDbEntity
  8
D-0
  6
Continuous
 62
     7
370
     9
100
AcDbLine
 10
-97.89800657969806
 20
-399.661008440273
 30
0.0
 11
-97.89800657969806
 21
-401.1612907278706
 31
0.0
  0
LINE
  5
3D1
330
1F
100
AcDbEntity
  8
D-0
  6
Continuous
 62
     7
370
     9
100
AcDbLine
 10
-97.89800657969806
 20
-401.1612907278706
 30
0.0
 11
-99.39828886729572
 21
-401.1612907278706
 31
0.0
  0
LINE
  5
3D2
330
1F
100
AcDbEntity
  8
D-0
  6
Continuous
 62
     7
370
     9
100
AcDbLine
 10
-130.7545472596298
 20
-386.5895524847676
 30
0.0
 11
-130.7545472596298
 21
-385.0892701971699
 31
0.0
  0
LINE
  5
3D3
330
1F
100
AcDbEntity
  8
D-0
  6
Continuous
 62
     7
370
     9
100
AcDbLine
 10
-130.7545472596298
 20
-385.0892701971699
 30
0.0
 11
-129.2547608826766
 21
-385.0892701971699
 31
0.0
  0
LINE
  5
3D4
330
1F
100
AcDbEntity
  8
D-0
  6
Continuous
 62
     7
370
     9
100
AcDbLine
 10
-129.2547608826766
 20
-385.0892701971699
 30
0.0
 11
-129.2547608826766
 21
-386.5895524847676
 31
0.0
  0
LINE
  5
3D5
330
1F
100
AcDbEntity
  8
D-0
  6
Continuous
 62
     7
370
     9
100
AcDbLine
 10
-129.2547608826766
 20
-386.5895524847676
 30
0.0
 11
-130.7545472596298
 21
-386.5895524847676
 31
0.0
  0
LINE
  5
3D6
330
1F
100
AcDbEntity
  8
D-0
  6
Continuous
 62
     7
370
     9
100
AcDbLine
 10
-141.4789582703719
 20
-427.8095832693745
 30
0.0
 11
-141.4789582703719
 21
-426.3093009817769
 31
0.0
  0
LINE
  5
3D7
330
1F
100
AcDbEntity
  8
D-0
  6
Continuous
 62
     7
370
     9
100
AcDbLine
 10
-141.4789582703719
 20
-426.3093009817769
 30
0.0
 11
-139.9786759827743
 21
-426.3093009817769
 31
0.0
  0
LINE
  5
3D8
330
1F
100
AcDbEntity
  8
D-0
  6
Continuous
 62
     7
370
     9
100
AcDbLine
 10
-139.9786759827743
 20
-426.3093009817769
 30
0.0
 11
-139.9786759827743
 21
-427.8095832693745
 31
0.0
  0
LINE
  5
3D9
330
1F
100
AcDbEntity
  8
D-0
  6
Continuous
 62
     7
370
     9
100
AcDbLine
 10
-139.9786759827743
 20
-427.8095832693745
 30
0.0
 11
-141.4789582703719
 21
-427.8095832693745
 31
0.0
  0
LINE
  5
3DA
330
1F
100
AcDbEntity
  8
D-0
  6
Continuous
 62
     7
370
     9
100
AcDbLine
 10
-104.1354943726668
 20
-436.3519588339497
 30
0.0
 11
-104.1354943726668
 21
-434.8516765463521
 31
0.0
  0
LINE
  5
3DB
330
1F
100
AcDbEntity
  8
D-0
  6
Continuous
 62
     7
370
     9
100
AcDbLine
 10
-104.1354943726668
 20
-434.8516765463521
 30
0.0
 11
-102.6352120850692
 21
-434.8516765463521
 31
0.0
  0
LINE
  5
3DC
330
1F
100
AcDbEntity
  8
D-0
  6
Continuous
 62
     7
370
     9
100
AcDbLine
 10
-102.6352120850692
 20
-434.8516765463521
 30
0.0
 11
-102.6352120850692
 21
-436.3519588339497
 31
0.0
  0
LINE
  5
3DD
330
1F
100
AcDbEntity
  8
D-0
  6
Continuous
 62
     7
370
     9
100
AcDbLine
 10
-102.6352120850692
 20
-436.3519588339497
 30
0.0
 11
-104.1354943726668
 21
-436.3519588339497
 31
0.0
  0
LINE
  5
3DE
330
1F
100
AcDbEntity
  8
D-0
  6
Continuous
 62
     7
370
     9
100
AcDbLine
 10
-51.93040861827228
 20
-441.0767474997212
 30
0.0
 11
-51.93040861827228
 21
-439.5764652121235
 31
0.0
  0
LINE
  5
3DF
330
1F
100
AcDbEntity
  8
D-0
  6
Continuous
 62
     7
370
     9
100
AcDbLine
 10
-51.93040861827228
 20
-439.5764652121235
 30
0.0
 11
-50.43062224131916
 21
-439.5764652121235
 31
0.0
  0
LINE
  5
3E0
330
1F
100
AcDbEntity
  8
D-0
  6
Continuous
 62
     7
370
     9
100
AcDbLine
 10
-50.43062224131916
 20
-439.5764652121235
 30
0.0
 11
-50.43062224131916
 21
-441.0767474997212
 31
0.0
  0
LINE
  5
3E1
330
1F
100
AcDbEntity
  8
D-0
  6
Continuous
 62
     7
370
     9
100
AcDbLine
 10
-50.43062224131916
 20
-441.0767474997212
 30
0.0
 11
-51.93040861827228
 21
-441.0767474997212
 31
0.0
  0
LINE
  5
3E2
330
1F
100
AcDbEntity
  8
D-0
  6
Continuous
 62
     7
370
     9
100
AcDbLine
 10
2.790164807020687
 20
-434.3215289938618
 30
0.0
 11
2.790164807020687
 21
-432.8212467062642
 31
0.0
  0
LINE
  5
3E3
330
1F
100
AcDbEntity
  8
D-0
  6
Continuous
 62
     7
370
     9
100
AcDbLine
 10
2.790164807020687
 20
-432.8212467062642
 30
0.0
 11
4.290408947645687
 21
-432.8212467062642
 31
0.0
  0
LINE
  5
3E4
330
1F
100
AcDbEntity
  8
D-0
  6
Continuous
 62
     7
370
     9
100
AcDbLine
 10
4.290408947645687
 20
-432.8212467062642
 30
0.0
 11
4.290408947645687
 21
-434.3215289938618
 31
0.0
  0
LINE
  5
3E5
330
1F
100
AcDbEntity
  8
D-0
  6
Continuous
 62
     7
370
     9
100
AcDbLine
 10
4.290408947645687
 20
-434.3215289938618
 30
0.0
 11
2.790164807020687
 21
-434.3215289938618
 31
0.0
  0
LINE
  5
3E6
330
1F
100
AcDbEntity
  8
D-0
  6
Continuous
 62
     7
370
     9
100
AcDbLine
 10
-9.390468737901188
 20
-394.3936839926411
 30
0.0
 11
-9.390468737901188
 21
-392.8934017050435
 31
0.0
  0
LINE
  5
3E7
330
1F
100
AcDbEntity
  8
D-0
  6
Continuous
 62
     7
370
     9
100
AcDbLine
 10
-9.390468737901188
 20
-392.8934017050435
 30
0.0
 11
-7.890186450303531
 21
-392.8934017050435
 31
0.0
  0
LINE
  5
3E8
330
1F
100
AcDbEntity
  8
D-0
  6
Continuous
 62
     7
370
     9
100
AcDbLine
 10
-7.890186450303531
 20
-392.8934017050435
 30
0.0
 11
-7.890186450303531
 21
-394.3936839926411
 31
0.0
  0
LINE
  5
3E9
330
1F
100
AcDbEntity
  8
D-0
  6
Continuous
 62
     7
370
     9
100
AcDbLine
 10
-7.890186450303531
 20
-394.3936839926411
 30
0.0
 11
-9.390468737901188
 21
-394.3936839926411
 31
0.0
  0
LINE
  5
3EA
330
1F
100
AcDbEntity
  8
D-0
  6
Continuous
 62
     7
370
     9
100
AcDbLine
 10
-50.41971220713947
 20
-403.5112968313862
 30
0.0
 11
-50.41971220713947
 21
-402.0110145437886
 31
0.0
  0
LINE
  5
3EB
330
1F
100
AcDbEntity
  8
D-0
  6
Continuous
 62
     7
370
     9
100
AcDbLine
 10
-50.41971220713947
 20
-402.0110145437886
 30
0.0
 11
-48.919963977159
 21
-402.0110145437886
 31
0.0
  0
LINE
  5
3EC
330
1F
100
AcDbEntity
  8
D-0
  6
Continuous
 62
     7
370
     9
100
AcDbLine
 10
-48.919963977159
 20
-402.0110145437886
 30
0.0
 11
-48.919963977159
 21
-403.5112968313862
 31
0.0
  0
LINE
  5
3ED
330
1F
100
AcDbEntity
  8
D-0
  6
Continuous
 62
     7
370
     9
100
AcDbLine
 10
-48.919963977159
 20
-403.5112968313862
 30
0.0
 11
-50.41971220713947
 21
-403.5112968313862
 31
0.0
  0
LINE
  5
3EE
330
1F
100
AcDbEntity
  8
D-0
  6
Continuous
 62
     7
370
     9
100
AcDbLine
 10
10.06559357899334
 20
-364.0229287970234
 30
0.0
 11
10.06559357899334
 21
-362.5226512777974
 31
0.0
  0
LINE
  5
3EF
330
1F
100
AcDbEntity
  8
D-0
  6
Continuous
 62
     7
370
     9
100
AcDbLine
 10
10.06559357899334
 20
-362.5226512777974
 30
0.0
 11
11.565875866591
 21
-362.5226512777974
 31
0.0
  0
LINE
  5
3F0
330
1F
100
AcDbEntity
  8
D-0
  6
Continuous
 62
     7
370
     9
100
AcDbLine
 10
11.565875866591
 20
-362.5226512777974
 30
0.0
 11
11.565875866591
 21
-364.0229287970234
 31
0.0
  0
LINE
  5
3F1
330
1F
100
AcDbEntity
  8
D-0
  6
Continuous
 62
     7
370
     9
100
AcDbLine
 10
11.565875866591
 20
-364.0229287970234
 30
0.0
 11
10.06559357899334
 21
-364.0229287970234
 31
0.0
  0
LINE
  5
3F2
330
1F
100
AcDbEntity
  8
D-0
  6
Continuous
 62
     7
370
     9
100
AcDbLine
 10
-143.9354897950302
 20
-353.1300512182881
 30
0.0
 11
-143.9354897950302
 21
-351.6297689306904
 31
0.0
  0
LINE
  5
3F3
330
1F
100
AcDbEntity
  8
D-0
  6
Continuous
 62
     7
370
     9
100
AcDbLine
 10
-143.9354897950302
 20
-351.6297689306904
 30
0.0
 11
-142.4352265809188
 21
-351.6297689306904
 31
0.0
  0
LINE
  5
3F4
330
1F
100
AcDbEntity
  8
D-0
  6
Continuous
 62
     7
370
     9
100
AcDbLine
 10
-142.4352265809188
 20
-351.6297689306904
 30
0.0
 11
-142.4352265809188
 21
-353.1300512182881
 31
0.0
  0
LINE
  5
3F5
330
1F
100
AcDbEntity
  8
D-0
  6
Continuous
 62
     7
370
     9
100
AcDbLine
 10
-142.4352265809188
 20
-353.1300512182881
 30
0.0
 11
-143.9354897950302
 21
-353.1300512182881
 31
0.0
  0
LINE
  5
3F6
330
1F
100
AcDbEntity
  8
D-0
  6
Continuous
 62
     7
370
     9
100
AcDbLine
 10
-227.2852326844344
 20
-476.3803878653218
 30
0.0
 11
-227.2852326844344
 21
-474.8801055777241
 31
0.0
  0
LINE
  5
3F7
330
1F
100
AcDbEntity
  8
D-0
  6
Continuous
 62
     7
370
     9
100
AcDbLine
 10
-227.2852326844344
 20
-474.8801055777241
 30
0.0
 11
-225.7849503968368
 21
-474.8801055777241
 31
0.0
  0
LINE
  5
3F8
330
1F
100
AcDbEntity
  8
D-0
  6
Continuous
 62
     7
370
     9
100
AcDbLine
 10
-225.7849503968368
 20
-474.8801055777241
 30
0.0
 11
-225.7849503968368
 21
-476.3803878653218
 31
0.0
  0
LINE
  5
3F9
330
1F
100
AcDbEntity
  8
D-0
  6
Continuous
 62
     7
370
     9
100
AcDbLine
 10
-225.7849503968368
 20
-476.3803878653218
 30
0.0
 11
-227.2852326844344
 21
-476.3803878653218
 31
0.0
  0
LINE
  5
3FA
330
1F
100
AcDbEntity
  8
D-0
  6
Continuous
 62
     7
370
     9
100
AcDbLine
 10
-177.9206849549423
 20
-484.2786613333394
 30
0.0
 11
-177.9206849549423
 21
-482.7783790457417
 31
0.0
  0
LINE
  5
3FB
330
1F
100
AcDbEntity
  8
D-0
  6
Continuous
 62
     7
370
     9
100
AcDbLine
 10
-177.9206849549423
 20
-482.7783790457417
 30
0.0
 11
-176.4204217408309
 21
-482.7783790457417
 31
0.0
  0
LINE
  5
3FC
330
1F
100
AcDbEntity
  8
D-0
  6
Continuous
 62
     7
370
     9
100
AcDbLine
 10
-176.4204217408309
 20
-482.7783790457417
 30
0.0
 11
-176.4204217408309
 21
-484.2786613333394
 31
0.0
  0
LINE
  5
3FD
330
1F
100
AcDbEntity
  8
D-0
  6
Continuous
 62
     7
370
     9
100
AcDbLine
 10
-176.4204217408309
 20
-484.2786613333394
 30
0.0
 11
-177.9206849549423
 21
-484.2786613333394
 31
0.0
  0
LINE
  5
3FE
330
1F
100
AcDbEntity
  8
D-0
  6
Continuous
 62
     7
370
     9
100
AcDbLine
 10
-194.8018075440536
 20
-504.8594299185444
 30
0.0
 11
-194.8018075440536
 21
-503.3591476309468
 31
0.0
  0
LINE
  5
3FF
330
1F
100
AcDbEntity
  8
D-0
  6
Continuous
 62
     7
370
     9
100
AcDbLine
 10
-194.8018075440536
 20
-503.3591476309468
 30
0.0
 11
-193.3020211671005
 21
-503.3591476309468
 31
0.0
  0
LINE
  5
400
330
1F
100
AcDbEntity
  8
D-0
  6
Continuous
 62
     7
370
     9
100
AcDbLine
 10
-193.3020211671005
 20
-503.3591476309468
 30
0.0
 11
-193.3020211671005
 21
-504.8594299185444
 31
0.0
  0
LINE
  5
401
330
1F
100
AcDbEntity
  8
D-0
  6
Continuous
 62
     7
370
     9
100
AcDbLine
 10
-193.3020211671005
 20
-504.8594299185444
 30
0.0
 11
-194.8018075440536
 21
-504.8594299185444
 31
0.0
  0
LINE
  5
402
330
1F
100
AcDbEntity
  8
D-0
  6
Continuous
 62
     7
370
     9
100
AcDbLine
 10
-243.0817796204696
 20
-539.5675102102925
 30
0.0
 11
-243.0817796204696
 21
-538.0672469961812
 31
0.0
  0
LINE
  5
403
330
1F
100
AcDbEntity
  8
D-0
  6
Continuous
 62
     7
370
     9
100
AcDbLine
 10
-243.0817796204696
 20
-538.0672469961812
 30
0.0
 11
-241.5819932435165
 21
-538.0672469961812
 31
0.0
  0
LINE
  5
404
330
1F
100
AcDbEntity
  8
D-0
  6
Continuous
 62
     7
370
     9
100
AcDbLine
 10
-241.5819932435165
 20
-538.0672469961812
 30
0.0
 11
-241.5819932435165
 21
-539.5675102102925
 31
0.0
  0
LINE
  5
405
330
1F
100
AcDbEntity
  8
D-0
  6
Continuous
 62
     7
370
     9
100
AcDbLine
 10
-241.5819932435165
 20
-539.5675102102925
 30
0.0
 11
-243.0817796204696
 21
-539.5675102102925
 31
0.0
  0
LINE
  5
406
330
1F
100
AcDbEntity
  8
D-0
  6
Continuous
 62
     7
370
     9
100
AcDbLine
 10
-171.9968606446395
 20
-537.5925842154195
 30
0.0
 11
-171.9968606446395
 21
-536.0923019278218
 31
0.0
  0
LINE
  5
407
330
1F
100
AcDbEntity
  8
D-0
  6
Continuous
 62
     7
370
     9
100
AcDbLine
 10
-171.9968606446395
 20
-536.0923019278218
 30
0.0
 11
-170.4965783570419
 21
-536.0923019278218
 31
0.0
  0
LINE
  5
408
330
1F
100
AcDbEntity
  8
D-0
  6
Continuous
 62
     7
370
     9
100
AcDbLine
 10
-170.4965783570419
 20
-536.0923019278218
 30
0.0
 11
-170.4965783570419
 21
-537.5925842154195
 31
0.0
  0
LINE
  5
409
330
1F
100
AcDbEntity
  8
D-0
  6
Continuous
 62
     7
370
     9
100
AcDbLine
 10
-170.4965783570419
 20
-537.5925842154195
 30
0.0
 11
-171.9968606446395
 21
-537.5925842154195
 31
0.0
  0
LINE
  5
40A
330
1F
100
AcDbEntity
  8
D-0
  6
Continuous
 62
     7
370
     9
100
AcDbLine
 10
-229.2596818421493
 20
-505.9995094168355
 30
0.0
 11
-229.2596818421493
 21
-504.4992271292378
 31
0.0
  0
LINE
  5
40B
330
1F
100
AcDbEntity
  8
D-0
  6
Continuous
 62
     7
370
     9
100
AcDbLine
 10
-229.2596818421493
 20
-504.4992271292378
 30
0.0
 11
-227.7598954651962
 21
-504.4992271292378
 31
0.0
  0
LINE
  5
40C
330
1F
100
AcDbEntity
  8
D-0
  6
Continuous
 62
     7
370
     9
100
AcDbLine
 10
-227.7598954651962
 20
-504.4992271292378
 30
0.0
 11
-227.7598954651962
 21
-505.9995094168355
 31
0.0
  0
LINE
  5
40D
330
1F
100
AcDbEntity
  8
D-0
  6
Continuous
 62
     7
370
     9
100
AcDbLine
 10
-227.7598954651962
 20
-505.9995094168355
 30
0.0
 11
-229.2596818421493
 21
-505.9995094168355
 31
0.0
  0
LINE
  5
40E
330
1F
100
AcDbEntity
  8
D-0
  6
Continuous
 62
     7
370
     9
100
AcDbLine
 10
-197.3926164124618
 20
-462.1207919943501
 30
0.0
 11
-197.3926164124618
 21
-460.6205097067524
 31
0.0
  0
LINE
  5
40F
330
1F
100
AcDbEntity
  8
D-0
  6
Continuous
 62
     7
370
     9
100
AcDbLine
 10
-197.3926164124618
 20
-460.6205097067524
 30
0.0
 11
-195.8923341248641
 21
-460.6205097067524
 31
0.0
  0
LINE
  5
410
330
1F
100
AcDbEntity
  8
D-0
  6
Continuous
 62
     7
370
     9
100
AcDbLine
 10
-195.8923341248641
 20
-460.6205097067524
 30
0.0
 11
-195.8923341248641
 21
-462.1207919943501
 31
0.0
  0
LINE
  5
411
330
1F
100
AcDbEntity
  8
D-0
  6
Continuous
 62
     7
370
     9
100
AcDbLine
 10
-195.8923341248641
 20
-462.1207919943501
 30
0.0
 11
-197.3926164124618
 21
-462.1207919943501
 31
0.0
  0
LINE
  5
412
330
1F
100
AcDbEntity
  8
D-0
  6
Continuous
 62
     7
370
     9
100
AcDbLine
 10
-206.6762162659774
 20
-533.5604492056539
 30
0.0
 11
-206.6762162659774
 21
-532.0601669180562
 31
0.0
  0
LINE
  5
413
330
1F
100
AcDbEntity
  8
D-0
  6
Continuous
 62
     7
370
     9
100
AcDbLine
 10
-206.6762162659774
 20
-532.0601669180562
 30
0.0
 11
-205.1759339783798
 21
-532.0601669180562
 31
0.0
  0
LINE
  5
414
330
1F
100
AcDbEntity
  8
D-0
  6
Continuous
 62
     7
370
     9
100
AcDbLine
 10
-205.1759339783798
 20
-532.0601669180562
 30
0.0
 11
-205.1759339783798
 21
-533.5604492056539
 31
0.0
  0
LINE
  5
415
330
1F
100
AcDbEntity
  8
D-0
  6
Continuous
 62
     7
370
     9
100
AcDbLine
 10
-205.1759339783798
 20
-533.5604492056539
 30
0.0
 11
-206.6762162659774
 21
-533.5604492056539
 31
0.0
  0
LINE
  5
416
330
1F
100
AcDbEntity
  8
D-0
  6
Continuous
 62
     7
370
     9
100
AcDbLine
 10
-382.3070098374496
 20
-321.5999022352864
 30
0.0
 11
-382.3070098374496
 21
-320.099622927921
 31
0.0
  0
LINE
  5
417
330
1F
100
AcDbEntity
  8
D-0
  6
Continuous
 62
     7
370
     9
100
AcDbLine
 10
-382.3070098374496
 20
-320.099622927921
 30
0.0
 11
-380.8067323182235
 21
-320.099622927921
 31
0.0
  0
LINE
  5
418
330
1F
100
AcDbEntity
  8
D-0
  6
Continuous
 62
     7
370
     9
100
AcDbLine
 10
-380.8067323182235
 20
-320.099622927921
 30
0.0
 11
-380.8067323182235
 21
-321.5999022352864
 31
0.0
  0
LINE
  5
419
330
1F
100
AcDbEntity
  8
D-0
  6
Continuous
 62
     7
370
     9
100
AcDbLine
 10
-380.8067323182235
 20
-321.5999022352864
 30
0.0
 11
-382.3070098374496
 21
-321.5999022352864
 31
0.0
  0
LINE
  5
41A
330
1F
100
AcDbEntity
  8
D-0
  6
Continuous
 62
     7
370
     9
100
AcDbLine
 10
-354.1148377869735
 20
-330.4514518606831
 30
0.0
 11
-354.1148377869735
 21
-328.9511731493641
 31
0.0
  0
LINE
  5
41B
330
1F
100
AcDbEntity
  8
D-0
  6
Continuous
 62
     7
370
     9
100
AcDbLine
 10
-354.1148377869735
 20
-328.9511731493641
 30
0.0
 11
-352.6145602677474
 21
-328.9511731493641
 31
0.0
  0
LINE
  5
41C
330
1F
100
AcDbEntity
  8
D-0
  6
Continuous
 62
     7
370
     9
100
AcDbLine
 10
-352.6145602677474
 20
-328.9511731493641
 30
0.0
 11
-352.6145602677474
 21
-330.4514518606831
 31
0.0
  0
LINE
  5
41D
330
1F
100
AcDbEntity
  8
D-0
  6
Continuous
 62
     7
370
     9
100
AcDbLine
 10
-352.6145602677474
 20
-330.4514518606831
 30
0.0
 11
-354.1148377869735
 21
-330.4514518606831
 31
0.0
  0
LINE
  5
41E
330
1F
100
AcDbEntity
  8
D-0
  6
Continuous
 62
     7
370
     9
100
AcDbLine
 10
-324.6909333680282
 20
-380.5631652701069
 30
0.0
 11
-324.6909333680282
 21
-379.0628829825093
 31
0.0
  0
LINE
  5
41F
330
1F
100
AcDbEntity
  8
D-0
  6
Continuous
 62
     7
370
     9
100
AcDbLine
 10
-324.6909333680282
 20
-379.0628829825093
 30
0.0
 11
-323.1911469910751
 21
-379.0628829825093
 31
0.0
  0
LINE
  5
420
330
1F
100
AcDbEntity
  8
D-0
  6
Continuous
 62
     7
370
     9
100
AcDbLine
 10
-323.1911469910751
 20
-379.0628829825093
 30
0.0
 11
-323.1911469910751
 21
-380.5631652701069
 31
0.0
  0
LINE
  5
421
330
1F
100
AcDbEntity
  8
D-0
  6
Continuous
 62
     7
370
     9
100
AcDbLine
 10
-323.1911469910751
 20
-380.5631652701069
 30
0.0
 11
-324.6909333680282
 21
-380.5631652701069
 31
0.0
  0
LINE
  5
422
330
1F
100
AcDbEntity
  8
D-0
  6
Continuous
 62
     7
370
     9
100
AcDbLine
 10
-266.2994386170516
 20
-327.6074615347554
 30
0.0
 11
-266.2994386170516
 21
-326.1071816313435
 31
0.0
  0
LINE
  5
423
330
1F
100
AcDbEntity
  8
D-0
  6
Continuous
 62
     7
370
     9
100
AcDbLine
 10
-266.2994386170516
 20
-326.1071816313435
 30
0.0
 11
-264.7996522400985
 21
-326.1071816313435
 31
0.0
  0
LINE
  5
424
330
1F
100
AcDbEntity
  8
D-0
  6
Continuous
 62
     7
370
     9
100
AcDbLine
 10
-264.7996522400985
 20
-326.1071816313435
 30
0.0
 11
-264.7996522400985
 21
-327.6074615347554
 31
0.0
  0
LINE
  5
425
330
1F
100
AcDbEntity
  8
D-0
  6
Continuous
 62
     7
370
     9
100
AcDbLine
 10
-264.7996522400985
 20
-327.6074615347554
 30
0.0
 11
-266.2994386170516
 21
-327.6074615347554
 31
0.0
  0
LINE
  5
426
330
1F
100
AcDbEntity
  8
D-0
  6
Continuous
 62
     7
370
     9
100
AcDbLine
 10
-231.3683892701278
 20
-322.2088340151478
 30
0.0
 11
-231.3683892701278
 21
-320.708554111736
 31
0.0
  0
LINE
  5
427
330
1F
100
AcDbEntity
  8
D-0
  6
Continuous
 62
     7
370
     9
100
AcDbLine
 10
-231.3683892701278
 20
-320.708554111736
 30
0.0
 11
-229.8686028931747
 21
-320.708554111736
 31
0.0
  0
LINE
  5
428
330
1F
100
AcDbEntity
  8
D-0
  6
Continuous
 62
     7
370
     9
100
AcDbLine
 10
-229.8686028931747
 20
-320.708554111736
 30
0.0
 11
-229.8686028931747
 21
-322.2088340151478
 31
0.0
  0
LINE
  5
429
330
1F
100
AcDbEntity
  8
D-0
  6
Continuous
 62
     7
370
     9
100
AcDbLine
 10
-229.8686028931747
 20
-322.2088340151478
 30
0.0
 11
-231.3683892701278
 21
-322.2088340151478
 31
0.0
  0
LINE
  5
42A
330
1F
100
AcDbEntity
  8
D-0
  6
Continuous
 62
     7
370
     9
100
AcDbLine
 10
-235.1978684876571
 20
-346.9406524527241
 30
0.0
 11
-235.1978684876571
 21
-345.4403725493123
 31
0.0
  0
LINE
  5
42B
330
1F
100
AcDbEntity
  8
D-0
  6
Continuous
 62
     7
370
     9
100
AcDbLine
 10
-235.1978684876571
 20
-345.4403725493123
 30
0.0
 11
-233.6975862000594
 21
-345.4403725493123
 31
0.0
  0
LINE
  5
42C
330
1F
100
AcDbEntity
  8
D-0
  6
Continuous
 62
     7
370
     9
100
AcDbLine
 10
-233.6975862000594
 20
-345.4403725493123
 30
0.0
 11
-233.6975862000594
 21
-346.9406524527241
 31
0.0
  0
LINE
  5
42D
330
1F
100
AcDbEntity
  8
D-0
  6
Continuous
 62
     7
370
     9
100
AcDbLine
 10
-233.6975862000594
 20
-346.9406524527241
 30
0.0
 11
-235.1978684876571
 21
-346.9406524527241
 31
0.0
  0
LINE
  5
42E
330
1F
100
AcDbEntity
  8
D-0
  6
Continuous
 62
     7
370
     9
100
AcDbLine
 10
-226.6242791627059
 20
-379.9096408713032
 30
0.0
 11
-226.6242791627059
 21
-378.4093633520772
 31
0.0
  0
LINE
  5
42F
330
1F
100
AcDbEntity
  8
D-0
  6
Continuous
 62
     7
370
     9
100
AcDbLine
 10
-226.6242791627059
 20
-378.4093633520772
 30
0.0
 11
-225.1239968751083
 21
-378.4093633520772
 31
0.0
  0
LINE
  5
430
330
1F
100
AcDbEntity
  8
D-0
  6
Continuous
 62
     7
370
     9
100
AcDbLine
 10
-225.1239968751083
 20
-378.4093633520772
 30
0.0
 11
-225.1239968751083
 21
-379.9096408713032
 31
0.0
  0
LINE
  5
431
330
1F
100
AcDbEntity
  8
D-0
  6
Continuous
 62
     7
370
     9
100
AcDbLine
 10
-225.1239968751083
 20
-379.9096408713032
 30
0.0
 11
-226.6242791627059
 21
-379.9096408713032
 31
0.0
  0
LINE
  5
432
330
1F
100
AcDbEntity
  8
D-0
  6
Continuous
 62
     7
370
     9
100
AcDbLine
 10
-222.7011682007919
 20
-418.4823814261128
 30
0.0
 11
-222.7011682007919
 21
-416.9820991385151
 31
0.0
  0
LINE
  5
433
330
1F
100
AcDbEntity
  8
D-0
  6
Continuous
 62
     7
370
     9
100
AcDbLine
 10
-222.7011682007919
 20
-416.9820991385151
 30
0.0
 11
-221.2013818238387
 21
-416.9820991385151
 31
0.0
  0
LINE
  5
434
330
1F
100
AcDbEntity
  8
D-0
  6
Continuous
 62
     7
370
     9
100
AcDbLine
 10
-221.2013818238387
 20
-416.9820991385151
 30
0.0
 11
-221.2013818238387
 21
-418.4823814261128
 31
0.0
  0
LINE
  5
435
330
1F
100
AcDbEntity
  8
D-0
  6
Continuous
 62
     7
370
     9
100
AcDbLine
 10
-221.2013818238387
 20
-418.4823814261128
 30
0.0
 11
-222.7011682007919
 21
-418.4823814261128
 31
0.0
  0
LINE
  5
436
330
1F
100
AcDbEntity
  8
D-0
  6
Continuous
 62
     7
370
     9
100
AcDbLine
 10
-290.1622106049667
 20
-342.7400675642659
 30
0.0
 11
-290.1622106049667
 21
-341.2397900450398
 31
0.0
  0
LINE
  5
437
330
1F
100
AcDbEntity
  8
D-0
  6
Continuous
 62
     7
370
     9
100
AcDbLine
 10
-290.1622106049667
 20
-341.2397900450398
 30
0.0
 11
-288.661928317369
 21
-341.2397900450398
 31
0.0
  0
LINE
  5
438
330
1F
100
AcDbEntity
  8
D-0
  6
Continuous
 62
     7
370
     9
100
AcDbLine
 10
-288.661928317369
 20
-341.2397900450398
 30
0.0
 11
-288.661928317369
 21
-342.7400675642659
 31
0.0
  0
LINE
  5
439
330
1F
100
AcDbEntity
  8
D-0
  6
Continuous
 62
     7
370
     9
100
AcDbLine
 10
-288.661928317369
 20
-342.7400675642659
 30
0.0
 11
-290.1622106049667
 21
-342.7400675642659
 31
0.0
  0
LINE
  5
43A
330
1F
100
AcDbEntity
  8
D-0
  6
Continuous
 62
     7
370
     9
100
AcDbLine
 10
-527.4233724091658
 20
-458.6089053976704
 30
0.0
 11
-527.4233724091658
 21
-457.1086326468159
 31
0.0
  0
LINE
  5
43B
330
1F
100
AcDbEntity
  8
D-0
  6
Continuous
 62
     7
370
     9
100
AcDbLine
 10
-527.4233724091658
 20
-457.1086326468159
 30
0.0
 11
-525.9230996583113
 21
-457.1086326468159
 31
0.0
  0
LINE
  5
43C
330
1F
100
AcDbEntity
  8
D-0
  6
Continuous
 62
     7
370
     9
100
AcDbLine
 10
-525.9230996583113
 20
-457.1086326468159
 30
0.0
 11
-525.9230996583113
 21
-458.6089053976704
 31
0.0
  0
LINE
  5
43D
330
1F
100
AcDbEntity
  8
D-0
  6
Continuous
 62
     7
370
     9
100
AcDbLine
 10
-525.9230996583113
 20
-458.6089053976704
 30
0.0
 11
-527.4233724091658
 21
-458.6089053976704
 31
0.0
  0
LINE
  5
43E
330
1F
100
AcDbEntity
  8
D-0
  6
Continuous
 62
     7
370
     9
100
AcDbLine
 10
-452.3880983803878
 20
-473.4179702627827
 30
0.0
 11
-452.3880983803878
 21
-471.9176879751851
 31
0.0
  0
LINE
  5
43F
330
1F
100
AcDbEntity
  8
D-0
  6
Continuous
 62
     7
370
     9
100
AcDbLine
 10
-452.3880983803878
 20
-471.9176879751851
 30
0.0
 11
-450.887818476976
 21
-471.9176879751851
 31
0.0
  0
LINE
  5
440
330
1F
100
AcDbEntity
  8
D-0
  6
Continuous
 62
     7
370
     9
100
AcDbLine
 10
-450.887818476976
 20
-471.9176879751851
 30
0.0
 11
-450.887818476976
 21
-473.4179702627827
 31
0.0
  0
LINE
  5
441
330
1F
100
AcDbEntity
  8
D-0
  6
Continuous
 62
     7
370
     9
100
AcDbLine
 10
-450.887818476976
 20
-473.4179702627827
 30
0.0
 11
-452.3880983803878
 21
-473.4179702627827
 31
0.0
  0
LINE
  5
442
330
1F
100
AcDbEntity
  8
D-0
  6
Continuous
 62
     7
370
     9
100
AcDbLine
 10
-438.5665000889907
 20
-502.0501342642476
 30
0.0
 11
-438.5665000889907
 21
-500.5498519766499
 31
0.0
  0
LINE
  5
443
330
1F
100
AcDbEntity
  8
D-0
  6
Continuous
 62
     7
370
     9
100
AcDbLine
 10
-438.5665000889907
 20
-500.5498519766499
 30
0.0
 11
-437.0667160962234
 21
-500.5498519766499
 31
0.0
  0
LINE
  5
444
330
1F
100
AcDbEntity
  8
D-0
  6
Continuous
 62
     7
370
     9
100
AcDbLine
 10
-437.0667160962234
 20
-500.5498519766499
 30
0.0
 11
-437.0667160962234
 21
-502.0501342642476
 31
0.0
  0
LINE
  5
445
330
1F
100
AcDbEntity
  8
D-0
  6
Continuous
 62
     7
370
     9
100
AcDbLine
 10
-437.0667160962234
 20
-502.0501342642476
 30
0.0
 11
-438.5665000889907
 21
-502.0501342642476
 31
0.0
  0
LINE
  5
446
330
1F
100
AcDbEntity
  8
D-0
  6
Continuous
 62
     7
370
     9
100
AcDbLine
 10
-468.1851293061385
 20
-563.262311540859
 30
0.0
 11
-468.1851293061385
 21
-561.7620483267476
 31
0.0
  0
LINE
  5
447
330
1F
100
AcDbEntity
  8
D-0
  6
Continuous
 62
     7
370
     9
100
AcDbLine
 10
-468.1851293061385
 20
-561.7620483267476
 30
0.0
 11
-466.6853429291854
 21
-561.7620483267476
 31
0.0
  0
LINE
  5
448
330
1F
100
AcDbEntity
  8
D-0
  6
Continuous
 62
     7
370
     9
100
AcDbLine
 10
-466.6853429291854
 20
-561.7620483267476
 30
0.0
 11
-466.6853429291854
 21
-563.262311540859
 31
0.0
  0
LINE
  5
449
330
1F
100
AcDbEntity
  8
D-0
  6
Continuous
 62
     7
370
     9
100
AcDbLine
 10
-466.6853429291854
 20
-563.262311540859
 30
0.0
 11
-468.1851293061385
 21
-563.262311540859
 31
0.0
  0
LINE
  5
44A
330
1F
100
AcDbEntity
  8
D-0
  6
Continuous
 62
     7
370
     9
100
AcDbLine
 10
-482.0077182267318
 20
-622.5000778067281
 30
0.0
 11
-482.0077182267318
 21
-620.9997955191304
 31
0.0
  0
LINE
  5
44B
330
1F
100
AcDbEntity
  8
D-0
  6
Continuous
 62
     7
370
     9
100
AcDbLine
 10
-482.0077182267318
 20
-620.9997955191304
 30
0.0
 11
-480.5074359391342
 21
-620.9997955191304
 31
0.0
  0
LINE
  5
44C
330
1F
100
AcDbEntity
  8
D-0
  6
Continuous
 62
     7
370
     9
100
AcDbLine
 10
-480.5074359391342
 20
-620.9997955191304
 30
0.0
 11
-480.5074359391342
 21
-622.5000778067281
 31
0.0
  0
LINE
  5
44D
330
1F
100
AcDbEntity
  8
D-0
  6
Continuous
 62
     7
370
     9
100
AcDbLine
 10
-480.5074359391342
 20
-622.5000778067281
 30
0.0
 11
-482.0077182267318
 21
-622.5000778067281
 31
0.0
  0
LINE
  5
44E
330
1F
100
AcDbEntity
  8
D-0
  6
Continuous
 62
     7
370
     9
100
AcDbLine
 10
-512.6138116334091
 20
-633.3602538931539
 30
0.0
 11
-512.6138116334091
 21
-631.8599716055562
 31
0.0
  0
LINE
  5
44F
330
1F
100
AcDbEntity
  8
D-0
  6
Continuous
 62
     7
370
     9
100
AcDbLine
 10
-512.6138116334091
 20
-631.8599716055562
 30
0.0
 11
-511.1135388825546
 21
-631.8599716055562
 31
0.0
  0
LINE
  5
450
330
1F
100
AcDbEntity
  8
D-0
  6
Continuous
 62
     7
370
     9
100
AcDbLine
 10
-511.1135388825546
 20
-631.8599716055562
 30
0.0
 11
-511.1135388825546
 21
-633.3602538931539
 31
0.0
  0
LINE
  5
451
330
1F
100
AcDbEntity
  8
D-0
  6
Continuous
 62
     7
370
     9
100
AcDbLine
 10
-511.1135388825546
 20
-633.3602538931539
 30
0.0
 11
-512.6138116334091
 21
-633.3602538931539
 31
0.0
  0
LINE
  5
452
330
1F
100
AcDbEntity
  8
D-0
  6
Continuous
 62
     7
370
     9
100
AcDbLine
 10
-535.4673100922713
 20
-567.2117057669332
 30
0.0
 11
-535.4673100922713
 21
-565.7114234793355
 31
0.0
  0
LINE
  5
453
330
1F
100
AcDbEntity
  8
D-0
  6
Continuous
 62
     7
370
     9
100
AcDbLine
 10
-535.4673100922713
 20
-565.7114234793355
 30
0.0
 11
-533.9675237153182
 21
-565.7114234793355
 31
0.0
  0
LINE
  5
454
330
1F
100
AcDbEntity
  8
D-0
  6
Continuous
 62
     7
370
     9
100
AcDbLine
 10
-533.9675237153182
 20
-565.7114234793355
 30
0.0
 11
-533.9675237153182
 21
-567.2117057669332
 31
0.0
  0
LINE
  5
455
330
1F
100
AcDbEntity
  8
D-0
  6
Continuous
 62
     7
370
     9
100
AcDbLine
 10
-533.9675237153182
 20
-567.2117057669332
 30
0.0
 11
-535.4673100922713
 21
-567.2117057669332
 31
0.0
  0
LINE
  5
456
330
1F
100
AcDbEntity
  8
D-0
  6
Continuous
 62
     7
370
     9
100
AcDbLine
 10
-501.7536355469833
 20
-486.2530914175679
 30
0.0
 11
-501.7536355469833
 21
-484.7528091299702
 31
0.0
  0
LINE
  5
457
330
1F
100
AcDbEntity
  8
D-0
  6
Continuous
 62
     7
370
     9
100
AcDbLine
 10
-501.7536355469833
 20
-484.7528091299702
 30
0.0
 11
-500.2533532593856
 21
-484.7528091299702
 31
0.0
  0
LINE
  5
458
330
1F
100
AcDbEntity
  8
D-0
  6
Continuous
 62
     7
370
     9
100
AcDbLine
 10
-500.2533532593856
 20
-484.7528091299702
 30
0.0
 11
-500.2533532593856
 21
-486.2530914175679
 31
0.0
  0
LINE
  5
459
330
1F
100
AcDbEntity
  8
D-0
  6
Continuous
 62
     7
370
     9
100
AcDbLine
 10
-500.2533532593856
 20
-486.2530914175679
 30
0.0
 11
-501.7536355469833
 21
-486.2530914175679
 31
0.0
  0
LINE
  5
45A
330
1F
100
AcDbEntity
  8
D-0
  6
Continuous
 62
     7
370
     9
100
AcDbLine
 10
-509.6518994782577
 20
-545.4913345205953
 30
0.0
 11
-509.6518994782577
 21
-543.991071306484
 31
0.0
  0
LINE
  5
45B
330
1F
100
AcDbEntity
  8
D-0
  6
Continuous
 62
     7
370
     9
100
AcDbLine
 10
-509.6518994782577
 20
-543.991071306484
 30
0.0
 11
-508.15161719066
 21
-543.991071306484
 31
0.0
  0
LINE
  5
45C
330
1F
100
AcDbEntity
  8
D-0
  6
Continuous
 62
     7
370
     9
100
AcDbLine
 10
-508.15161719066
 20
-543.991071306484
 30
0.0
 11
-508.15161719066
 21
-545.4913345205953
 31
0.0
  0
LINE
  5
45D
330
1F
100
AcDbEntity
  8
D-0
  6
Continuous
 62
     7
370
     9
100
AcDbLine
 10
-508.15161719066
 20
-545.4913345205953
 30
0.0
 11
-509.6518994782577
 21
-545.4913345205953
 31
0.0
  0
LINE
  5
45E
330
1F
100
AcDbEntity
  8
D-0
  6
Continuous
 62
     7
370
     9
100
AcDbLine
 10
-446.4647675965438
 20
-597.9842773306539
 30
0.0
 11
-446.4647675965438
 21
-596.4839950430562
 31
0.0
  0
LINE
  5
45F
330
1F
100
AcDbEntity
  8
D-0
  6
Continuous
 62
     7
370
     9
100
AcDbLine
 10
-446.4647675965438
 20
-596.4839950430562
 30
0.0
 11
-444.9649836037765
 21
-596.4839950430562
 31
0.0
  0
LINE
  5
460
330
1F
100
AcDbEntity
  8
D-0
  6
Continuous
 62
     7
370
     9
100
AcDbLine
 10
-444.9649836037765
 20
-596.4839950430562
 30
0.0
 11
-444.9649836037765
 21
-597.9842773306539
 31
0.0
  0
LINE
  5
461
330
1F
100
AcDbEntity
  8
D-0
  6
Continuous
 62
     7
370
     9
100
AcDbLine
 10
-444.9649836037765
 20
-597.9842773306539
 30
0.0
 11
-446.4647675965438
 21
-597.9842773306539
 31
0.0
  0
LINE
  5
462
330
1F
100
AcDbEntity
  8
D-0
  6
Continuous
 62
     7
370
     9
100
AcDbLine
 10
-523.473997256578
 20
-735.8633437979387
 30
0.0
 11
-523.473997256578
 21
-734.363061510341
 31
0.0
  0
LINE
  5
463
330
1F
100
AcDbEntity
  8
D-0
  6
Continuous
 62
     7
370
     9
100
AcDbLine
 10
-523.473997256578
 20
-734.363061510341
 30
0.0
 11
-521.9742108796248
 21
-734.363061510341
 31
0.0
  0
LINE
  5
464
330
1F
100
AcDbEntity
  8
D-0
  6
Continuous
 62
     7
370
     9
100
AcDbLine
 10
-521.9742108796248
 20
-734.363061510341
 30
0.0
 11
-521.9742108796248
 21
-735.8633437979387
 31
0.0
  0
LINE
  5
465
330
1F
100
AcDbEntity
  8
D-0
  6
Continuous
 62
     7
370
     9
100
AcDbLine
 10
-521.9742108796248
 20
-735.8633437979387
 30
0.0
 11
-523.473997256578
 21
-735.8633437979387
 31
0.0
  0
LINE
  5
466
330
1F
100
AcDbEntity
  8
D-0
  6
Continuous
 62
     7
370
     9
100
AcDbLine
 10
-453.0837346528182
 20
-739.5753875601457
 30
0.0
 11
-453.0837346528182
 21
-738.0751052725481
 31
0.0
  0
LINE
  5
467
330
1F
100
AcDbEntity
  8
D-0
  6
Continuous
 62
     7
370
     9
100
AcDbLine
 10
-453.0837346528182
 20
-738.0751052725481
 30
0.0
 11
-451.5839506600509
 21
-738.0751052725481
 31
0.0
  0
LINE
  5
468
330
1F
100
AcDbEntity
  8
D-0
  6
Continuous
 62
     7
370
     9
100
AcDbLine
 10
-451.5839506600509
 20
-738.0751052725481
 30
0.0
 11
-451.5839506600509
 21
-739.5753875601457
 31
0.0
  0
LINE
  5
469
330
1F
100
AcDbEntity
  8
D-0
  6
Continuous
 62
     7
370
     9
100
AcDbLine
 10
-451.5839506600509
 20
-739.5753875601457
 30
0.0
 11
-453.0837346528182
 21
-739.5753875601457
 31
0.0
  0
LINE
  5
46A
330
1F
100
AcDbEntity
  8
D-0
  6
Continuous
 62
     7
370
     9
100
AcDbLine
 10
-428.6932943676124
 20
-765.4819503653215
 30
0.0
 11
-428.6932943676124
 21
-763.9816680777238
 31
0.0
  0
LINE
  5
46B
330
1F
100
AcDbEntity
  8
D-0
  6
Continuous
 62
     7
370
     9
100
AcDbLine
 10
-428.6932943676124
 20
-763.9816680777238
 30
0.0
 11
-427.1935102258334
 21
-763.9816680777238
 31
0.0
  0
LINE
  5
46C
330
1F
100
AcDbEntity
  8
D-0
  6
Continuous
 62
     7
370
     9
100
AcDbLine
 10
-427.1935102258334
 20
-763.9816680777238
 30
0.0
 11
-427.1935102258334
 21
-765.4819503653215
 31
0.0
  0
LINE
  5
46D
330
1F
100
AcDbEntity
  8
D-0
  6
Continuous
 62
     7
370
     9
100
AcDbLine
 10
-427.1935102258334
 20
-765.4819503653215
 30
0.0
 11
-428.6932943676124
 21
-765.4819503653215
 31
0.0
  0
LINE
  5
46E
330
1F
100
AcDbEntity
  8
D-0
  6
Continuous
 62
     7
370
     9
100
AcDbLine
 10
-422.4147139404426
 20
-803.6940017569231
 30
0.0
 11
-422.4147139404426
 21
-802.1937194693254
 31
0.0
  0
LINE
  5
46F
330
1F
100
AcDbEntity
  8
D-0
  6
Continuous
 62
     7
370
     9
100
AcDbLine
 10
-422.4147139404426
 20
-802.1937194693254
 30
0.0
 11
-420.9144346330772
 21
-802.1937194693254
 31
0.0
  0
LINE
  5
470
330
1F
100
AcDbEntity
  8
D-0
  6
Continuous
 62
     7
370
     9
100
AcDbLine
 10
-420.9144346330772
 20
-802.1937194693254
 30
0.0
 11
-420.9144346330772
 21
-803.6940017569231
 31
0.0
  0
LINE
  5
471
330
1F
100
AcDbEntity
  8
D-0
  6
Continuous
 62
     7
370
     9
100
AcDbLine
 10
-420.9144346330772
 20
-803.6940017569231
 30
0.0
 11
-422.4147139404426
 21
-803.6940017569231
 31
0.0
  0
LINE
  5
472
330
1F
100
AcDbEntity
  8
D-0
  6
Continuous
 62
     7
370
     9
100
AcDbLine
 10
-496.6433669541488
 20
-809.1525665152238
 30
0.0
 11
-496.6433669541488
 21
-807.6522842276262
 31
0.0
  0
LINE
  5
473
330
1F
100
AcDbEntity
  8
D-0
  6
Continuous
 62
     7
370
     9
100
AcDbLine
 10
-496.6433669541488
 20
-807.6522842276262
 30
0.0
 11
-495.1430894349227
 21
-807.6522842276262
 31
0.0
  0
LINE
  5
474
330
1F
100
AcDbEntity
  8
D-0
  6
Continuous
 62
     7
370
     9
100
AcDbLine
 10
-495.1430894349227
 20
-807.6522842276262
 30
0.0
 11
-495.1430894349227
 21
-809.1525665152238
 31
0.0
  0
LINE
  5
475
330
1F
100
AcDbEntity
  8
D-0
  6
Continuous
 62
     7
370
     9
100
AcDbLine
 10
-495.1430894349227
 20
-809.1525665152238
 30
0.0
 11
-496.6433669541488
 21
-809.1525665152238
 31
0.0
  0
LINE
  5
476
330
1F
100
AcDbEntity
  8
D-0
  6
Continuous
 62
     7
370
     9
100
AcDbLine
 10
-531.3722611878524
 20
-799.8561111319231
 30
0.0
 11
-531.3722611878524
 21
-798.3558288443254
 31
0.0
  0
LINE
  5
477
330
1F
100
AcDbEntity
  8
D-0
  6
Continuous
 62
     7
370
     9
100
AcDbLine
 10
-531.3722611878524
 20
-798.3558288443254
 30
0.0
 11
-529.8719789002547
 21
-798.3558288443254
 31
0.0
  0
LINE
  5
478
330
1F
100
AcDbEntity
  8
D-0
  6
Continuous
 62
     7
370
     9
100
AcDbLine
 10
-529.8719789002547
 20
-798.3558288443254
 30
0.0
 11
-529.8719789002547
 21
-799.8561111319231
 31
0.0
  0
LINE
  5
479
330
1F
100
AcDbEntity
  8
D-0
  6
Continuous
 62
     7
370
     9
100
AcDbLine
 10
-529.8719789002547
 20
-799.8561111319231
 30
0.0
 11
-531.3722611878524
 21
-799.8561111319231
 31
0.0
  0
LINE
  5
47A
330
1F
100
AcDbEntity
  8
D-0
  6
Continuous
 62
     7
370
     9
100
AcDbLine
 10
-533.5835362885604
 20
-759.5581451285051
 30
0.0
 11
-533.5835362885604
 21
-758.0578628409074
 31
0.0
  0
LINE
  5
47B
330
1F
100
AcDbEntity
  8
D-0
  6
Continuous
 62
     7
370
     9
100
AcDbLine
 10
-533.5835362885604
 20
-758.0578628409074
 30
0.0
 11
-532.0837499116072
 21
-758.0578628409074
 31
0.0
  0
LINE
  5
47C
330
1F
100
AcDbEntity
  8
D-0
  6
Continuous
 62
     7
370
     9
100
AcDbLine
 10
-532.0837499116072
 20
-758.0578628409074
 30
0.0
 11
-532.0837499116072
 21
-759.5581451285051
 31
0.0
  0
LINE
  5
47D
330
1F
100
AcDbEntity
  8
D-0
  6
Continuous
 62
     7
370
     9
100
AcDbLine
 10
-532.0837499116072
 20
-759.5581451285051
 30
0.0
 11
-533.5835362885604
 21
-759.5581451285051
 31
0.0
  0
LINE
  5
47E
330
1F
100
AcDbEntity
  8
D-0
  6
Continuous
 62
     7
370
     9
100
AcDbLine
 10
-476.0838939164291
 20
-779.3040481436418
 30
0.0
 11
-476.0838939164291
 21
-777.8037658560442
 31
0.0
  0
LINE
  5
47F
330
1F
100
AcDbEntity
  8
D-0
  6
Continuous
 62
     7
370
     9
100
AcDbLine
 10
-476.0838939164291
 20
-777.8037658560442
 30
0.0
 11
-474.5836116288314
 21
-777.8037658560442
 31
0.0
  0
LINE
  5
480
330
1F
100
AcDbEntity
  8
D-0
  6
Continuous
 62
     7
370
     9
100
AcDbLine
 10
-474.5836116288314
 20
-777.8037658560442
 30
0.0
 11
-474.5836116288314
 21
-779.3040481436418
 31
0.0
  0
LINE
  5
481
330
1F
100
AcDbEntity
  8
D-0
  6
Continuous
 62
     7
370
     9
100
AcDbLine
 10
-474.5836116288314
 20
-779.3040481436418
 30
0.0
 11
-476.0838939164291
 21
-779.3040481436418
 31
0.0
  0
LINE
  5
482
330
1F
100
AcDbEntity
  8
D-0
  6
Continuous
 62
     7
370
     9
100
AcDbLine
 10
-487.9315425370345
 20
-745.7360473501848
 30
0.0
 11
-487.9315425370345
 21
-744.2357650625871
 31
0.0
  0
LINE
  5
483
330
1F
100
AcDbEntity
  8
D-0
  6
Continuous
 62
     7
370
     9
100
AcDbLine
 10
-487.9315425370345
 20
-744.2357650625871
 30
0.0
 11
-486.4312602494369
 21
-744.2357650625871
 31
0.0
  0
LINE
  5
484
330
1F
100
AcDbEntity
  8
D-0
  6
Continuous
 62
     7
370
     9
100
AcDbLine
 10
-486.4312602494369
 20
-744.2357650625871
 30
0.0
 11
-486.4312602494369
 21
-745.7360473501848
 31
0.0
  0
LINE
  5
485
330
1F
100
AcDbEntity
  8
D-0
  6
Continuous
 62
     7
370
     9
100
AcDbLine
 10
-486.4312602494369
 20
-745.7360473501848
 30
0.0
 11
-487.9315425370345
 21
-745.7360473501848
 31
0.0
  0
LINE
  5
486
330
1F
100
AcDbEntity
  8
D-0
  6
Continuous
 62
     7
370
     9
100
AcDbLine
 10
-432.642675778688
 20
-631.5522781241109
 30
0.0
 11
-432.642675778688
 21
-630.0520149099996
 31
0.0
  0
LINE
  5
487
330
1F
100
AcDbEntity
  8
D-0
  6
Continuous
 62
     7
370
     9
100
AcDbLine
 10
-432.642675778688
 20
-630.0520149099996
 30
0.0
 11
-431.1428917859207
 21
-630.0520149099996
 31
0.0
  0
LINE
  5
488
330
1F
100
AcDbEntity
  8
D-0
  6
Continuous
 62
     7
370
     9
100
AcDbLine
 10
-431.1428917859207
 20
-630.0520149099996
 30
0.0
 11
-431.1428917859207
 21
-631.5522781241109
 31
0.0
  0
LINE
  5
489
330
1F
100
AcDbEntity
  8
D-0
  6
Continuous
 62
     7
370
     9
100
AcDbLine
 10
-431.1428917859207
 20
-631.5522781241109
 30
0.0
 11
-432.642675778688
 21
-631.5522781241109
 31
0.0
  0
LINE
  5
48A
330
1F
100
AcDbEntity
  8
D-0
  6
Continuous
 62
     7
370
     9
100
AcDbLine
 10
-420.7955218766342
 20
-531.6687599051168
 30
0.0
 11
-420.7955218766342
 21
-530.1684776175191
 31
0.0
  0
LINE
  5
48B
330
1F
100
AcDbEntity
  8
D-0
  6
Continuous
 62
     7
370
     9
100
AcDbLine
 10
-420.7955218766342
 20
-530.1684776175191
 30
0.0
 11
-419.2952425692687
 21
-530.1684776175191
 31
0.0
  0
LINE
  5
48C
330
1F
100
AcDbEntity
  8
D-0
  6
Continuous
 62
     7
370
     9
100
AcDbLine
 10
-419.2952425692687
 20
-530.1684776175191
 30
0.0
 11
-419.2952425692687
 21
-531.6687599051168
 31
0.0
  0
LINE
  5
48D
330
1F
100
AcDbEntity
  8
D-0
  6
Continuous
 62
     7
370
     9
100
AcDbLine
 10
-419.2952425692687
 20
-531.6687599051168
 30
0.0
 11
-420.7955218766342
 21
-531.6687599051168
 31
0.0
  0
LINE
  5
48E
330
1F
100
AcDbEntity
  8
D-0
  6
Continuous
 62
     7
370
     9
100
AcDbLine
 10
-324.6844865296493
 20
-542.8931060660054
 30
0.0
 11
-324.6844865296493
 21
-541.3928237784078
 31
0.0
  0
LINE
  5
48F
330
1F
100
AcDbEntity
  8
D-0
  6
Continuous
 62
     7
370
     9
100
AcDbLine
 10
-324.6844865296493
 20
-541.3928237784078
 30
0.0
 11
-323.1847001526962
 21
-541.3928237784078
 31
0.0
  0
LINE
  5
490
330
1F
100
AcDbEntity
  8
D-0
  6
Continuous
 62
     7
370
     9
100
AcDbLine
 10
-323.1847001526962
 20
-541.3928237784078
 30
0.0
 11
-323.1847001526962
 21
-542.8931060660054
 31
0.0
  0
LINE
  5
491
330
1F
100
AcDbEntity
  8
D-0
  6
Continuous
 62
     7
370
     9
100
AcDbLine
 10
-323.1847001526962
 20
-542.8931060660054
 30
0.0
 11
-324.6844865296493
 21
-542.8931060660054
 31
0.0
  0
LINE
  5
492
330
1F
100
AcDbEntity
  8
D-0
  6
Continuous
 62
     7
370
     9
100
AcDbLine
 10
-386.401071688951
 20
-528.1464591849019
 30
0.0
 11
-386.401071688951
 21
-526.6461959707906
 31
0.0
  0
LINE
  5
493
330
1F
100
AcDbEntity
  8
D-0
  6
Continuous
 62
     7
370
     9
100
AcDbLine
 10
-386.401071688951
 20
-526.6461959707906
 30
0.0
 11
-384.9012853119979
 21
-526.6461959707906
 31
0.0
  0
LINE
  5
494
330
1F
100
AcDbEntity
  8
D-0
  6
Continuous
 62
     7
370
     9
100
AcDbLine
 10
-384.9012853119979
 20
-526.6461959707906
 30
0.0
 11
-384.9012853119979
 21
-528.1464591849019
 31
0.0
  0
LINE
  5
495
330
1F
100
AcDbEntity
  8
D-0
  6
Continuous
 62
     7
370
     9
100
AcDbLine
 10
-384.9012853119979
 20
-528.1464591849019
 30
0.0
 11
-386.401071688951
 21
-528.1464591849019
 31
0.0
  0
LINE
  5
496
330
1F
100
AcDbEntity
  8
D-0
  6
Continuous
 62
     7
370
     9
100
AcDbLine
 10
-513.6007882569442
 20
-594.8558822500875
 30
0.0
 11
-513.6007882569442
 21
-593.3555999624898
 31
0.0
  0
LINE
  5
497
330
1F
100
AcDbEntity
  8
D-0
  6
Continuous
 62
     7
370
     9
100
AcDbLine
 10
-513.6007882569442
 20
-593.3555999624898
 30
0.0
 11
-512.1010018799911
 21
-593.3555999624898
 31
0.0
  0
LINE
  5
498
330
1F
100
AcDbEntity
  8
D-0
  6
Continuous
 62
     7
370
     9
100
AcDbLine
 10
-512.1010018799911
 20
-593.3555999624898
 30
0.0
 11
-512.1010018799911
 21
-594.8558822500875
 31
0.0
  0
LINE
  5
499
330
1F
100
AcDbEntity
  8
D-0
  6
Continuous
 62
     7
370
     9
100
AcDbLine
 10
-512.1010018799911
 20
-594.8558822500875
 30
0.0
 11
-513.6007882569442
 21
-594.8558822500875
 31
0.0
  0
LINE
  5
49A
330
1F
100
AcDbEntity
  8
D-0
  6
Continuous
 62
     7
370
     9
100
AcDbLine
 10
-470.1600648377548
 20
-519.8216071951558
 30
0.0
 11
-470.1600648377548
 21
-518.3213249075582
 31
0.0
  0
LINE
  5
49B
330
1F
100
AcDbEntity
  8
D-0
  6
Continuous
 62
     7
370
     9
100
AcDbLine
 10
-470.1600648377548
 20
-518.3213249075582
 30
0.0
 11
-468.6597873185287
 21
-518.3213249075582
 31
0.0
  0
LINE
  5
49C
330
1F
100
AcDbEntity
  8
D-0
  6
Continuous
 62
     7
370
     9
100
AcDbLine
 10
-468.6597873185287
 20
-518.3213249075582
 30
0.0
 11
-468.6597873185287
 21
-519.8216071951558
 31
0.0
  0
LINE
  5
49D
330
1F
100
AcDbEntity
  8
D-0
  6
Continuous
 62
     7
370
     9
100
AcDbLine
 10
-468.6597873185287
 20
-519.8216071951558
 30
0.0
 11
-470.1600648377548
 21
-519.8216071951558
 31
0.0
  0
LINE
  5
49E
330
1F
100
AcDbEntity
  8
D-0
  6
Continuous
 62
     7
370
     9
100
AcDbLine
 10
-535.3216458771834
 20
-515.8722129690816
 30
0.0
 11
-535.3216458771834
 21
-514.371930681484
 31
0.0
  0
LINE
  5
49F
330
1F
100
AcDbEntity
  8
D-0
  6
Continuous
 62
     7
370
     9
100
AcDbLine
 10
-535.3216458771834
 20
-514.371930681484
 30
0.0
 11
-533.8213635895858
 21
-514.371930681484
 31
0.0
  0
LINE
  5
4A0
330
1F
100
AcDbEntity
  8
D-0
  6
Continuous
 62
     7
370
     9
100
AcDbLine
 10
-533.8213635895858
 20
-514.371930681484
 30
0.0
 11
-533.8213635895858
 21
-515.8722129690816
 31
0.0
  0
LINE
  5
4A1
330
1F
100
AcDbEntity
  8
D-0
  6
Continuous
 62
     7
370
     9
100
AcDbLine
 10
-533.8213635895858
 20
-515.8722129690816
 30
0.0
 11
-535.3216458771834
 21
-515.8722129690816
 31
0.0
  0
LINE
  5
4A2
330
1F
100
AcDbEntity
  8
D-0
  6
Continuous
 62
     7
370
     9
100
AcDbLine
 10
-482.4803925965438
 20
-453.0849281180073
 30
0.0
 11
-482.4803925965438
 21
-451.5846458304097
 31
0.0
  0
LINE
  5
4A3
330
1F
100
AcDbEntity
  8
D-0
  6
Continuous
 62
     7
370
     9
100
AcDbLine
 10
-482.4803925965438
 20
-451.5846458304097
 30
0.0
 11
-480.9801150773177
 21
-451.5846458304097
 31
0.0
  0
LINE
  5
4A4
330
1F
100
AcDbEntity
  8
D-0
  6
Continuous
 62
     7
370
     9
100
AcDbLine
 10
-480.9801150773177
 20
-451.5846458304097
 30
0.0
 11
-480.9801150773177
 21
-453.0849281180073
 31
0.0
  0
LINE
  5
4A5
330
1F
100
AcDbEntity
  8
D-0
  6
Continuous
 62
     7
370
     9
100
AcDbLine
 10
-480.9801150773177
 20
-453.0849281180073
 30
0.0
 11
-482.4803925965438
 21
-453.0849281180073
 31
0.0
  0
LINE
  5
4A6
330
1F
100
AcDbEntity
  8
D-0
  6
Continuous
 62
     7
370
     9
100
AcDbLine
 10
-426.7193466339717
 20
-564.4162765371968
 30
0.0
 11
-426.7193466339717
 21
-562.9159942495992
 31
0.0
  0
LINE
  5
4A7
330
1F
100
AcDbEntity
  8
D-0
  6
Continuous
 62
     7
370
     9
100
AcDbLine
 10
-426.7193466339717
 20
-562.9159942495992
 30
0.0
 11
-425.219067233474
 21
-562.9159942495992
 31
0.0
  0
LINE
  5
4A8
330
1F
100
AcDbEntity
  8
D-0
  6
Continuous
 62
     7
370
     9
100
AcDbLine
 10
-425.219067233474
 20
-562.9159942495992
 30
0.0
 11
-425.219067233474
 21
-564.4162765371968
 31
0.0
  0
LINE
  5
4A9
330
1F
100
AcDbEntity
  8
D-0
  6
Continuous
 62
     7
370
     9
100
AcDbLine
 10
-425.219067233474
 20
-564.4162765371968
 30
0.0
 11
-426.7193466339717
 21
-564.4162765371968
 31
0.0
  0
LINE
  5
4AA
330
1F
100
AcDbEntity
  8
D-0
  6
Continuous
 62
     7
370
     9
100
AcDbLine
 10
-485.9566022370468
 20
-586.9576278555562
 30
0.0
 11
-485.9566022370468
 21
-585.4573455679586
 31
0.0
  0
LINE
  5
4AB
330
1F
100
AcDbEntity
  8
D-0
  6
Continuous
 62
     7
370
     9
100
AcDbLine
 10
-485.9566022370468
 20
-585.4573455679586
 30
0.0
 11
-484.4568206284652
 21
-585.4573455679586
 31
0.0
  0
LINE
  5
4AC
330
1F
100
AcDbEntity
  8
D-0
  6
Continuous
 62
     7
370
     9
100
AcDbLine
 10
-484.4568206284652
 20
-585.4573455679586
 30
0.0
 11
-484.4568206284652
 21
-586.9576278555562
 31
0.0
  0
LINE
  5
4AD
330
1F
100
AcDbEntity
  8
D-0
  6
Continuous
 62
     7
370
     9
100
AcDbLine
 10
-484.4568206284652
 20
-586.9576278555562
 30
0.0
 11
-485.9566022370468
 21
-586.9576278555562
 31
0.0
  0
LINE
  5
4AE
330
1F
100
AcDbEntity
  8
D-0
  6
Continuous
 62
     7
370
     9
100
AcDbLine
 10
-474.1089536164413
 20
-660.0174728262593
 30
0.0
 11
-474.1089536164413
 21
-658.5171905386617
 31
0.0
  0
LINE
  5
4AF
330
1F
100
AcDbEntity
  8
D-0
  6
Continuous
 62
     7
370
     9
100
AcDbLine
 10
-474.1089536164413
 20
-658.5171905386617
 30
0.0
 11
-472.6091672394882
 21
-658.5171905386617
 31
0.0
  0
LINE
  5
4B0
330
1F
100
AcDbEntity
  8
D-0
  6
Continuous
 62
     7
370
     9
100
AcDbLine
 10
-472.6091672394882
 20
-658.5171905386617
 30
0.0
 11
-472.6091672394882
 21
-660.0174728262593
 31
0.0
  0
LINE
  5
4B1
330
1F
100
AcDbEntity
  8
D-0
  6
Continuous
 62
     7
370
     9
100
AcDbLine
 10
-472.6091672394882
 20
-660.0174728262593
 30
0.0
 11
-474.1089536164413
 21
-660.0174728262593
 31
0.0
  0
LINE
  5
4B2
330
1F
100
AcDbEntity
  8
D-0
  6
Continuous
 62
     7
370
     9
100
AcDbLine
 10
-522.4865247223983
 20
-659.0300002920796
 30
0.0
 11
-522.4865247223983
 21
-657.529718004482
 31
0.0
  0
LINE
  5
4B3
330
1F
100
AcDbEntity
  8
D-0
  6
Continuous
 62
     7
370
     9
100
AcDbLine
 10
-522.4865247223983
 20
-657.529718004482
 30
0.0
 11
-520.9862424348006
 21
-657.529718004482
 31
0.0
  0
LINE
  5
4B4
330
1F
100
AcDbEntity
  8
D-0
  6
Continuous
 62
     7
370
     9
100
AcDbLine
 10
-520.9862424348006
 20
-657.529718004482
 30
0.0
 11
-520.9862424348006
 21
-659.0300002920796
 31
0.0
  0
LINE
  5
4B5
330
1F
100
AcDbEntity
  8
D-0
  6
Continuous
 62
     7
370
     9
100
AcDbLine
 10
-520.9862424348006
 20
-659.0300002920796
 30
0.0
 11
-522.4865247223983
 21
-659.0300002920796
 31
0.0
  0
LINE
  5
4B6
330
1F
100
AcDbEntity
  8
D-0
  6
Continuous
 62
     7
370
     9
100
AcDbLine
 10
-509.5334817383895
 20
-778.1357208120988
 30
0.0
 11
-509.5334817383895
 21
-776.6354385245012
 31
0.0
  0
LINE
  5
4B7
330
1F
100
AcDbEntity
  8
D-0
  6
Continuous
 62
     7
370
     9
100
AcDbLine
 10
-509.5334817383895
 20
-776.6354385245012
 30
0.0
 11
-508.0337048981796
 21
-776.6354385245012
 31
0.0
  0
LINE
  5
4B8
330
1F
100
AcDbEntity
  8
D-0
  6
Continuous
 62
     7
370
     9
100
AcDbLine
 10
-508.0337048981796
 20
-776.6354385245012
 30
0.0
 11
-508.0337048981796
 21
-778.1357208120988
 31
0.0
  0
LINE
  5
4B9
330
1F
100
AcDbEntity
  8
D-0
  6
Continuous
 62
     7
370
     9
100
AcDbLine
 10
-508.0337048981796
 20
-778.1357208120988
 30
0.0
 11
-509.5334817383895
 21
-778.1357208120988
 31
0.0
  0
LINE
  5
4BA
330
1F
100
AcDbEntity
  8
D-0
  6
Continuous
 62
     7
370
     9
100
AcDbLine
 10
-459.0075613473068
 20
-807.6433578360246
 30
0.0
 11
-459.0075613473068
 21
-806.1431136953996
 31
0.0
  0
LINE
  5
4BB
330
1F
100
AcDbEntity
  8
D-0
  6
Continuous
 62
     7
370
     9
100
AcDbLine
 10
-459.0075613473068
 20
-806.1431136953996
 30
0.0
 11
-457.5077773545394
 21
-806.1431136953996
 31
0.0
  0
LINE
  5
4BC
330
1F
100
AcDbEntity
  8
D-0
  6
Continuous
 62
     7
370
     9
100
AcDbLine
 10
-457.5077773545394
 20
-806.1431136953996
 30
0.0
 11
-457.5077773545394
 21
-807.6433578360246
 31
0.0
  0
LINE
  5
4BD
330
1F
100
AcDbEntity
  8
D-0
  6
Continuous
 62
     7
370
     9
100
AcDbLine
 10
-457.5077773545394
 20
-807.6433578360246
 30
0.0
 11
-459.0075613473068
 21
-807.6433578360246
 31
0.0
  0
LINE
  5
4BE
330
1F
100
AcDbEntity
  8
D-0
  6
Continuous
 62
     7
370
     9
100
AcDbLine
 10
-422.7699650738845
 20
-731.9139495718645
 30
0.0
 11
-422.7699650738845
 21
-730.4136672842668
 31
0.0
  0
LINE
  5
4BF
330
1F
100
AcDbEntity
  8
D-0
  6
Continuous
 62
     7
370
     9
100
AcDbLine
 10
-422.7699650738845
 20
-730.4136672842668
 30
0.0
 11
-421.2696854684959
 21
-730.4136672842668
 31
0.0
  0
LINE
  5
4C0
330
1F
100
AcDbEntity
  8
D-0
  6
Continuous
 62
     7
370
     9
100
AcDbLine
 10
-421.2696854684959
 20
-730.4136672842668
 30
0.0
 11
-421.2696854684959
 21
-731.9139495718645
 31
0.0
  0
LINE
  5
4C1
330
1F
100
AcDbEntity
  8
D-0
  6
Continuous
 62
     7
370
     9
100
AcDbLine
 10
-421.2696854684959
 20
-731.9139495718645
 30
0.0
 11
-422.7699650738845
 21
-731.9139495718645
 31
0.0
  0
LINE
  5
4C2
330
1F
100
AcDbEntity
  8
D-0
  6
Continuous
 62
     7
370
     9
100
AcDbLine
 10
-539.8026658509383
 20
-613.8506713736226
 30
0.0
 11
-539.8026658509383
 21
-612.350389086025
 31
0.0
  0
LINE
  5
4C3
330
1F
100
AcDbEntity
  8
D-0
  6
Continuous
 62
     7
370
     9
100
AcDbLine
 10
-539.8026658509383
 20
-612.350389086025
 30
0.0
 11
-538.3023835633406
 21
-612.350389086025
 31
0.0
  0
LINE
  5
4C4
330
1F
100
AcDbEntity
  8
D-0
  6
Continuous
 62
     7
370
     9
100
AcDbLine
 10
-538.3023835633406
 20
-612.350389086025
 30
0.0
 11
-538.3023835633406
 21
-613.8506713736226
 31
0.0
  0
LINE
  5
4C5
330
1F
100
AcDbEntity
  8
D-0
  6
Continuous
 62
     7
370
     9
100
AcDbLine
 10
-538.3023835633406
 20
-613.8506713736226
 30
0.0
 11
-539.8026658509383
 21
-613.8506713736226
 31
0.0
  0
LINE
  5
4C6
330
1F
100
AcDbEntity
  8
D-0
  6
Continuous
 62
     7
370
     9
100
AcDbLine
 10
-422.8809501145492
 20
-657.5847259390523
 30
0.0
 11
-422.8809501145492
 21
-656.0844436514546
 31
0.0
  0
LINE
  5
4C7
330
1F
100
AcDbEntity
  8
D-0
  6
Continuous
 62
     7
370
     9
100
AcDbLine
 10
-422.8809501145492
 20
-656.0844436514546
 30
0.0
 11
-421.3806705091606
 21
-656.0844436514546
 31
0.0
  0
LINE
  5
4C8
330
1F
100
AcDbEntity
  8
D-0
  6
Continuous
 62
     7
370
     9
100
AcDbLine
 10
-421.3806705091606
 20
-656.0844436514546
 30
0.0
 11
-421.3806705091606
 21
-657.5847259390523
 31
0.0
  0
LINE
  5
4C9
330
1F
100
AcDbEntity
  8
D-0
  6
Continuous
 62
     7
370
     9
100
AcDbLine
 10
-421.3806705091606
 20
-657.5847259390523
 30
0.0
 11
-422.8809501145492
 21
-657.5847259390523
 31
0.0
  0
LINE
  5
4CA
330
1F
100
AcDbEntity
  8
D-0
  6
Continuous
 62
     7
370
     9
100
AcDbLine
 10
-447.6112820122848
 20
-780.930673204677
 30
0.0
 11
-447.6112820122848
 21
-779.4303909170793
 31
0.0
  0
LINE
  5
4CB
330
1F
100
AcDbEntity
  8
D-0
  6
Continuous
 62
     7
370
     9
100
AcDbLine
 10
-447.6112820122848
 20
-779.4303909170793
 30
0.0
 11
-446.1110044930587
 21
-779.4303909170793
 31
0.0
  0
LINE
  5
4CC
330
1F
100
AcDbEntity
  8
D-0
  6
Continuous
 62
     7
370
     9
100
AcDbLine
 10
-446.1110044930587
 20
-779.4303909170793
 30
0.0
 11
-446.1110044930587
 21
-780.930673204677
 31
0.0
  0
LINE
  5
4CD
330
1F
100
AcDbEntity
  8
D-0
  6
Continuous
 62
     7
370
     9
100
AcDbLine
 10
-446.1110044930587
 20
-780.930673204677
 30
0.0
 11
-447.6112820122848
 21
-780.930673204677
 31
0.0
  0
LINE
  5
4CE
330
1F
100
AcDbEntity
  8
D-0
  6
Continuous
 62
     7
370
     9
100
AcDbLine
 10
-415.7675047133575
 20
-468.468734346645
 30
0.0
 11
-415.7675047133575
 21
-466.9684615957905
 31
0.0
  0
LINE
  5
4CF
330
1F
100
AcDbEntity
  8
D-0
  6
Continuous
 62
     7
370
     9
100
AcDbLine
 10
-415.7675047133575
 20
-466.9684615957905
 30
0.0
 11
-414.2672254059921
 21
-466.9684615957905
 31
0.0
  0
LINE
  5
4D0
330
1F
100
AcDbEntity
  8
D-0
  6
Continuous
 62
     7
370
     9
100
AcDbLine
 10
-414.2672254059921
 20
-466.9684615957905
 30
0.0
 11
-414.2672254059921
 21
-468.468734346645
 31
0.0
  0
LINE
  5
4D1
330
1F
100
AcDbEntity
  8
D-0
  6
Continuous
 62
     7
370
     9
100
AcDbLine
 10
-414.2672254059921
 20
-468.468734346645
 30
0.0
 11
-415.7675047133575
 21
-468.468734346645
 31
0.0
  0
LINE
  5
4D2
330
1F
100
AcDbEntity
  8
D-0
  6
Continuous
 62
     7
370
     9
100
AcDbLine
 10
-322.1571065400253
 20
-322.1146944391896
 30
0.0
 11
-322.1571065400253
 21
-320.6144151318242
 31
0.0
  0
LINE
  5
4D3
330
1F
100
AcDbEntity
  8
D-0
  6
Continuous
 62
     7
370
     9
100
AcDbLine
 10
-322.1571065400253
 20
-320.6144151318242
 30
0.0
 11
-320.6568242524276
 21
-320.6144151318242
 31
0.0
  0
LINE
  5
4D4
330
1F
100
AcDbEntity
  8
D-0
  6
Continuous
 62
     7
370
     9
100
AcDbLine
 10
-320.6568242524276
 20
-320.6144151318242
 30
0.0
 11
-320.6568242524276
 21
-322.1146944391896
 31
0.0
  0
LINE
  5
4D5
330
1F
100
AcDbEntity
  8
D-0
  6
Continuous
 62
     7
370
     9
100
AcDbLine
 10
-320.6568242524276
 20
-322.1146944391896
 30
0.0
 11
-322.1571065400253
 21
-322.1146944391896
 31
0.0
  0
LINE
  5
4D6
330
1F
100
AcDbEntity
  8
D-0
  6
Continuous
 62
     7
370
     9
100
AcDbLine
 10
-343.6936475251327
 20
-353.3777824270894
 30
0.0
 11
-343.6936475251327
 21
-351.8775049078633
 31
0.0
  0
LINE
  5
4D7
330
1F
100
AcDbEntity
  8
D-0
  6
Continuous
 62
     7
370
     9
100
AcDbLine
 10
-343.6936475251327
 20
-351.8775049078633
 30
0.0
 11
-342.193365237535
 21
-351.8775049078633
 31
0.0
  0
LINE
  5
4D8
330
1F
100
AcDbEntity
  8
D-0
  6
Continuous
 62
     7
370
     9
100
AcDbLine
 10
-342.193365237535
 20
-351.8775049078633
 30
0.0
 11
-342.193365237535
 21
-353.3777824270894
 31
0.0
  0
LINE
  5
4D9
330
1F
100
AcDbEntity
  8
D-0
  6
Continuous
 62
     7
370
     9
100
AcDbLine
 10
-342.193365237535
 20
-353.3777824270894
 30
0.0
 11
-343.6936475251327
 21
-353.3777824270894
 31
0.0
  0
LINE
  5
4DA
330
1F
100
AcDbEntity
  8
D-0
  6
Continuous
 62
     7
370
     9
100
AcDbLine
 10
-352.1220637772689
 20
-522.6373496878316
 30
0.0
 11
-352.1220637772689
 21
-521.137067400234
 31
0.0
  0
LINE
  5
4DB
330
1F
100
AcDbEntity
  8
D-0
  6
Continuous
 62
     7
370
     9
100
AcDbLine
 10
-352.1220637772689
 20
-521.137067400234
 30
0.0
 11
-350.6222774003158
 21
-521.137067400234
 31
0.0
  0
LINE
  5
4DC
330
1F
100
AcDbEntity
  8
D-0
  6
Continuous
 62
     7
370
     9
100
AcDbLine
 10
-350.6222774003158
 20
-521.137067400234
 30
0.0
 11
-350.6222774003158
 21
-522.6373496878316
 31
0.0
  0
LINE
  5
4DD
330
1F
100
AcDbEntity
  8
D-0
  6
Continuous
 62
     7
370
     9
100
AcDbLine
 10
-350.6222774003158
 20
-522.6373496878316
 30
0.0
 11
-352.1220637772689
 21
-522.6373496878316
 31
0.0
  0
ARC
  5
4DE
330
1F
100
AcDbEntity
  8
D-9
  6
Continuous
 62
     4
370
     9
100
AcDbCircle
 10
-534.9297238801131
 20
-416.6526141989399
 30
0.0
 40
5.0
100
AcDbArc
 50
90.0
 51
180.0
  0
ARC
  5
4DF
330
1F
100
AcDbEntity
  8
D-A
  6
Continuous
 62
     3
370
     9
100
AcDbCircle
 10
-368.4294272874008
 20
-360.1518312323262
 30
0.0
 40
6.499999761581421
100
AcDbArc
 50
0.0
 51
90.0
  0
ARC
  5
4E0
330
1F
100
AcDbEntity
  8
D-A
  6
JWW_DASHED3
 62
     3
370
     9
100
AcDbCircle
 10
-368.4294272874008
 20
-383.15248163821
 30
0.0
 40
6.499999761581421
100
AcDbArc
 50
270.0
 51
0.0
  0
ARC
  5
4E1
330
1F
100
AcDbEntity
  8
D-A
  6
Continuous
 62
     3
370
     9
100
AcDbCircle
 10
-384.9295283768783
 20
-423.2943740713765
 30
0.0
 40
10.0
100
AcDbArc
 50
0.0
 51
45.0
  0
ARC
  5
4E2
330
1F
100
AcDbEntity
  8
D-A
  6
Continuous
 62
     3
370
     9
100
AcDbCircle
 10
-337.5032617066512
 20
-364.1527429449727
 30
0.0
 40
30.0
100
AcDbArc
 50
224.9996643066406
 51
270.0
  0
ARC
  5
4E3
330
1F
100
AcDbEntity
  8
D-A
  6
Continuous
 62
     3
370
     9
100
AcDbCircle
 10
-259.9296952698837
 20
-404.1524330008198
 30
0.0
 40
10.0
100
AcDbArc
 50
0.0
 51
90.0
  0
ARC
  5
4E4
330
1F
100
AcDbEntity
  8
D-1
  6
Continuous
 62
     2
370
     9
100
AcDbCircle
 10
-544.9302674744735
 20
-421.652385317104
 30
0.0
 40
5.0
100
AcDbArc
 50
90.0
 51
180.0
  0
ARC
  5
4E5
330
1F
100
AcDbEntity
  8
D-1
  6
Continuous
 62
     2
370
     9
100
AcDbCircle
 10
-397.9301334832321
 20
-312.15230377795
 30
0.0
 40
3.00000011920929
100
AcDbArc
 50
0.0
 51
90.0
  0
ARC
  5
4E6
330
1F
100
AcDbEntity
  8
D-1
  6
Continuous
 62
     2
370
     9
100
AcDbCircle
 10
-416.9298745606552
 20
-312.15230377795
 30
0.0
 40
3.00000011920929
100
AcDbArc
 50
90.0
 51
180.0
  0
ARC
  5
4E7
330
1F
100
AcDbEntity
  8
D-1
  6
Continuous
 62
     2
370
     9
100
AcDbCircle
 10
-397.9301334832321
 20
-431.1525073874165
 30
0.0
 40
3.00000011920929
100
AcDbArc
 50
270.0
 51
0.0
  0
ARC
  5
4E8
330
1F
100
AcDbEntity
  8
D-1
  6
Continuous
 62
     2
370
     9
100
AcDbCircle
 10
-419.9304334734092
 20
-424.1525283682515
 30
0.0
 40
5.0
100
AcDbArc
 50
270.0
 51
0.0
  0
ARC
  5
4E9
330
1F
100
AcDbEntity
  8
D-1
  6
Continuous
 62
     2
370
     9
100
AcDbCircle
 10
-491.8923188660751
 20
-421.652385317104
 30
0.0
 40
5.0
100
AcDbArc
 50
70.43162536621094
 51
90.0
  0
ARC
  5
4EA
330
1F
100
AcDbEntity
  8
D-1
  6
Continuous
 62
     2
370
     9
100
AcDbCircle
 10
-469.6264459107528
 20
-424.1525283682515
 30
0.0
 40
5.0
100
AcDbArc
 50
250.4390106201172
 51
270.0
  0
ARC
  5
4EB
330
1F
100
AcDbEntity
  8
D-1
  6
Continuous
 62
     2
370
     9
100
AcDbCircle
 10
-544.9302674744735
 20
-429.1522994864155
 30
0.0
 40
5.0
100
AcDbArc
 50
180.0
 51
270.0
  0
ARC
  5
4EC
330
1F
100
AcDbEntity
  8
D-1
  6
Continuous
 62
     2
370
     9
100
AcDbCircle
 10
-534.2603494141707
 20
-421.652385317104
 30
0.0
 40
5.0
100
AcDbArc
 50
59.99996948242189
 51
90.00000000000001
  0
ARC
  5
4ED
330
1F
100
AcDbEntity
  8
D-1
  6
Continuous
 62
     2
370
     9
100
AcDbCircle
 10
-505.5999566529403
 20
-421.652385317104
 30
0.0
 40
5.0
100
AcDbArc
 50
90.0
 51
120.0000305175781
  0
ARC
  5
4EE
330
1F
100
AcDbEntity
  8
D-1
  6
Continuous
 62
     2
370
     9
100
AcDbCircle
 10
-519.9304009888778
 20
-424.1525283682515
 30
0.0
 40
5.0
100
AcDbArc
 50
239.9999694824219
 51
300.0000305175781
  0
LWPOLYLINE
  5
4EF
330
1F
100
AcDbEntity
  8
D-4
  6
Continuous
 62
     7
370
     9
100
AcDbPolyline
 90
        4
 70
     1
 43
1.0
 10
-394.4300695870529
 20
31.21448365567431
 42
0.4142135623731
 10
-394.9300695870529
 20
31.71448365567431
 42
0.4142135623731
 10
-395.4300695870529
 20
31.21448365567431
 42
0.4142135623731
 10
-394.9300695870529
 20
30.71448365567431
 42
0.4142135623731
  0
LWPOLYLINE
  5
4F0
330
1F
100
AcDbEntity
  8
D-4
  6
Continuous
 62
     7
370
     9
100
AcDbPolyline
 90
        4
 70
     1
 43
1.0
 10
-549.4295522187361
 20
-188.2335773337056
 42
0.4142135623731
 10
-549.9295522187361
 20
-187.7335773337056
 42
0.4142135623731
 10
-550.4295522187361
 20
-188.2335773337056
 42
0.4142135623731
 10
-549.9295522187361
 20
-188.7335773337056
 42
0.4142135623731
  0
LWPOLYLINE
  5
4F1
330
1F
100
AcDbEntity
  8
D-4
  6
Continuous
 62
     7
370
     9
100
AcDbPolyline
 90
        4
 70
     1
 43
1.0
 10
-424.428722522081
 20
-188.2335773337056
 42
0.4142135623731
 10
-424.9287225220809
 20
-187.7335773337056
 42
0.4142135623731
 10
-425.4287225220809
 20
-188.2335773337056
 42
0.4142135623731
 10
-424.9287225220809
 20
-188.7335773337056
 42
0.4142135623731
  0
LWPOLYLINE
  5
4F2
330
1F
100
AcDbEntity
  8
D-4
  6
Continuous
 62
     7
370
     9
100
AcDbPolyline
 90
        4
 70
     1
 43
1.0
 10
-424.428722522081
 20
-79.48116453768506
 42
0.4142135623731
 10
-424.9287225220809
 20
-78.98116453768506
 42
0.4142135623731
 10
-425.4287225220809
 20
-79.48116453768506
 42
0.4142135623731
 10
-424.9287225220809
 20
-79.98116453768506
 42
0.4142135623731
  0
LWPOLYLINE
  5
4F3
330
1F
100
AcDbEntity
  8
D-4
  6
Continuous
 62
     7
370
     9
100
AcDbPolyline
 90
        4
 70
     1
 43
1.0
 10
-419.4284519169937
 20
-79.48116453768506
 42
0.4142135623731
 10
-419.9284519169937
 20
-78.98116453768506
 42
0.4142135623731
 10
-420.4284519169937
 20
-79.48116453768506
 42
0.4142135623731
 10
-419.9284519169937
 20
-79.98116453768506
 42
0.4142135623731
  0
LWPOLYLINE
  5
4F4
330
1F
100
AcDbEntity
  8
D-4
  6
Continuous
 62
     7
370
     9
100
AcDbPolyline
 90
        4
 70
     1
 43
1.0
 10
-394.4300695870529
 20
-79.48116453768506
 42
0.4142135623731
 10
-394.9300695870529
 20
-78.98116453768506
 42
0.4142135623731
 10
-395.4300695870529
 20
-79.48116453768506
 42
0.4142135623731
 10
-394.9300695870529
 20
-79.98116453768506
 42
0.4142135623731
  0
LWPOLYLINE
  5
4F5
330
1F
100
AcDbEntity
  8
D-4
  6
Continuous
 62
     7
370
     9
100
AcDbPolyline
 90
        4
 70
     1
 43
1.0
 10
-694.9120637391219
 20
-434.1525760519673
 42
0.4142135623731
 10
-695.4120637391219
 20
-433.6525760519673
 42
0.4142135623731
 10
-695.9120637391219
 20
-434.1525760519673
 42
0.4142135623731
 10
-695.4120637391219
 20
-434.6525760519672
 42
0.4142135623731
  0
LWPOLYLINE
  5
4F6
330
1F
100
AcDbEntity
  8
D-4
  6
Continuous
 62
     7
370
     9
100
AcDbPolyline
 90
        4
 70
     1
 43
1.0
 10
-694.9120637391219
 20
-309.1527357924153
 42
0.4142135623731
 10
-695.4120637391219
 20
-308.6527357924153
 42
0.4142135623731
 10
-695.9120637391219
 20
-309.1527357924153
 42
0.4142135623731
 10
-695.4120637391219
 20
-309.6527357924153
 42
0.4142135623731
  0
LWPOLYLINE
  5
4F7
330
1F
100
AcDbEntity
  8
D-4
  6
Continuous
 62
     7
370
     9
100
AcDbPolyline
 90
        4
 70
     1
 43
1.0
 10
-394.4290801499496
 20
-499.6832671988179
 42
0.4142135623731
 10
-394.9290801499496
 20
-499.1832671988179
 42
0.4142135623731
 10
-395.4290801499496
 20
-499.6832671988179
 42
0.4142135623731
 10
-394.9290801499496
 20
-500.1832671988178
 42
0.4142135623731
  0
LWPOLYLINE
  5
4F8
330
1F
100
AcDbEntity
  8
D-4
  6
Continuous
 62
     7
370
     9
100
AcDbPolyline
 90
        4
 70
     1
 43
1.0
 10
-249.4291421387802
 20
-499.6832671988179
 42
0.4142135623731
 10
-249.9291421387802
 20
-499.1832671988179
 42
0.4142135623731
 10
-250.4291421387802
 20
-499.6832671988179
 42
0.4142135623731
 10
-249.9291421387802
 20
-500.1832671988178
 42
0.4142135623731
  0
LWPOLYLINE
  5
4F9
330
1F
100
AcDbEntity
  8
D-4
  6
Continuous
 62
     7
370
     9
100
AcDbPolyline
 90
        4
 70
     1
 43
1.0
 10
-161.3783952210555
 20
-309.1527357924153
 42
0.4142135623731
 10
-161.8783952210555
 20
-308.6527357924153
 42
0.4142135623731
 10
-162.3783952210556
 20
-309.1527357924153
 42
0.4142135623731
 10
-161.8783952210555
 20
-309.6527357924153
 42
0.4142135623731
  0
LWPOLYLINE
  5
4FA
330
1F
100
AcDbEntity
  8
D-4
  6
Continuous
 62
     7
370
     9
100
AcDbPolyline
 90
        4
 70
     1
 43
1.0
 10
-161.3783952210555
 20
-394.1528812277485
 42
0.4142135623731
 10
-161.8783952210555
 20
-393.6528812277486
 42
0.4142135623731
 10
-162.3783952210556
 20
-394.1528812277485
 42
0.4142135623731
 10
-161.8783952210555
 20
-394.6528812277485
 42
0.4142135623731
  0
LWPOLYLINE
  5
4FB
330
1F
100
AcDbEntity
  8
D-4
  6
Continuous
 62
     7
370
     9
100
AcDbPolyline
 90
        4
 70
     1
 43
1.0
 10
-161.3783952210555
 20
-444.1526141989399
 42
0.4142135623731
 10
-161.8783952210555
 20
-443.65261419894
 42
0.4142135623731
 10
-162.3783952210556
 20
-444.1526141989399
 42
0.4142135623731
 10
-161.8783952210555
 20
-444.6526141989399
 42
0.4142135623731
  0
LWPOLYLINE
  5
4FC
330
1F
100
AcDbEntity
  8
D-4
  6
Continuous
 62
     7
370
     9
100
AcDbPolyline
 90
        4
 70
     1
 43
1.0
 10
122.2561529662002
 20
-559.1529098379781
 42
0.4142135623731
 10
121.7561529662002
 20
-558.6529098379781
 42
0.4142135623731
 10
121.2561529662002
 20
-559.1529098379781
 42
0.4142135623731
 10
121.7561529662002
 20
-559.652909837978
 42
0.4142135623731
  0
LWPOLYLINE
  5
4FD
330
1F
100
AcDbEntity
  8
D-4
  6
Continuous
 62
     7
370
     9
100
AcDbPolyline
 90
        4
 70
     1
 43
1.0
 10
122.2561529662002
 20
-309.1527357924153
 42
0.4142135623731
 10
121.7561529662002
 20
-308.6527357924153
 42
0.4142135623731
 10
121.2561529662002
 20
-309.1527357924153
 42
0.4142135623731
 10
121.7561529662002
 20
-309.6527357924153
 42
0.4142135623731
  0
LWPOLYLINE
  5
4FE
330
1F
100
AcDbEntity
  8
D-4
  6
Continuous
 62
     7
370
     9
100
AcDbPolyline
 90
        4
 70
     1
 43
1.0
 10
-549.4285603974471
 20
-714.7712341177632
 42
0.4142135623731
 10
-549.9285603974471
 20
-714.2712341177632
 42
0.4142135623731
 10
-550.4285603974471
 20
-714.7712341177632
 42
0.4142135623731
 10
-549.9285603974471
 20
-715.2712341177631
 42
0.4142135623731
  0
LWPOLYLINE
  5
4FF
330
1F
100
AcDbEntity
  8
D-4
  6
Continuous
 62
     7
370
     9
100
AcDbPolyline
 90
        4
 70
     1
 43
1.0
 10
-399.429349562944
 20
-714.7712341177632
 42
0.4142135623731
 10
-399.929349562944
 20
-714.2712341177632
 42
0.4142135623731
 10
-400.429349562944
 20
-714.7712341177632
 42
0.4142135623731
 10
-399.929349562944
 20
-715.2712341177631
 42
0.4142135623731
  0
LWPOLYLINE
  5
500
330
1F
100
AcDbEntity
  8
D-4
  6
Continuous
 62
     7
370
     9
100
AcDbPolyline
 90
        4
 70
     1
 43
1.0
 10
-549.4285603974471
 20
-869.236108385341
 42
0.4142135623731
 10
-549.9285603974471
 20
-868.736108385341
 42
0.4142135623731
 10
-550.4285603974471
 20
-869.236108385341
 42
0.4142135623731
 10
-549.9285603974471
 20
-869.736108385341
 42
0.4142135623731
  0
LWPOLYLINE
  5
501
330
1F
100
AcDbEntity
  8
D-4
  6
Continuous
 62
     7
370
     9
100
AcDbPolyline
 90
        4
 70
     1
 43
1.0
 10
-149.4276925538192
 20
-869.236108385341
 42
0.4142135623731
 10
-149.9276925538192
 20
-868.736108385341
 42
0.4142135623731
 10
-150.4276925538192
 20
-869.236108385341
 42
0.4142135623731
 10
-149.9276925538192
 20
-869.736108385341
 42
0.4142135623731
  0
TEXT
  5
502
330
1F
100
AcDbEntity
  8
D-4
  6
Continuous
 62
     2
370
     9
100
AcDbText
 10
-457.8744222138534
 20
-68.8418702566792
 30
0.0
 40
30.48
  1
1
 41
0.9999999999999998
  7
ＭＳ ゴシック
100
AcDbText
  0
TEXT
  5
503
330
1F
100
AcDbEntity
  8
D-4
  6
Continuous
 62
     2
370
     9
100
AcDbText
 10
-508.6787988160262
 20
-177.593310304897
 30
0.0
 40
30.48
  1
25
 41
1.0625
  7
ＭＳ ゴシック
100
AcDbText
  0
TEXT
  5
504
330
1F
100
AcDbEntity
  8
D-5
  6
Continuous
 62
     7
370
     9
100
AcDbText
 10
-257.6663972352157
 20
-193.3520842611958
 30
0.0
 40
22.86
  1
塩ビクッション
 41
1.142857142857143
  7
ＭＳ ゴシック
100
AcDbText
  0
TEXT
  5
505
330
1F
100
AcDbEntity
  8
D-4
  6
Continuous
 62
     2
370
     9
100
AcDbText
 10
-541.1785794709334
 20
-704.1314629995992
 30
0.0
 40
30.48
  1
25～30
 41
1.104166666666666
  7
ＭＳ ゴシック
100
AcDbText
  0
TEXT
  5
506
330
1F
100
AcDbEntity
  8
D-4
  6
Continuous
 62
     2
370
     9
100
AcDbText
 10
-417.7969451163421
 20
-858.5958032095598
 30
0.0
 40
30.48
  1
75～80
 41
1.104166666666667
  7
ＭＳ ゴシック
100
AcDbText
  0
TEXT
  5
507
330
1F
100
AcDbEntity
  8
D-4
  6
Continuous
 62
     2
370
     9
100
AcDbText
 10
111.1158859373916
 20
-500.4022043655161
 30
0.0
 40
30.48
  1
40～50
 50
90.00000250447816
 41
1.104166666666667
  7
ＭＳ ゴシック
100
AcDbText
  0
TEXT
  5
508
330
1F
100
AcDbEntity
  8
D-4
  6
Continuous
 62
     2
370
     9
100
AcDbText
 10
-370.9394742463241
 20
-489.0434960806538
 30
0.0
 40
30.48
  1
29
 41
1.0625
  7
ＭＳ ゴシック
100
AcDbText
  0
TEXT
  5
509
330
1F
100
AcDbEntity
  8
D-4
  6
Continuous
 62
     2
370
     9
100
AcDbText
 10
-172.5186813233504
 20
-440.4024141738657
 30
0.0
 40
30.48
  1
10
 50
90.00000250447819
 41
1.062500000000001
  7
ＭＳ ゴシック
100
AcDbText
  0
TEXT
  5
50A
330
1F
100
AcDbEntity
  8
D-4
  6
Continuous
 62
     2
370
     9
100
AcDbText
 10
-172.5186813233504
 20
-372.902719349647
 30
0.0
 40
30.48
  1
17
 50
90.00000250447819
 41
1.062500000000001
  7
ＭＳ ゴシック
100
AcDbText
  0
TEXT
  5
50B
330
1F
100
AcDbEntity
  8
D-4
  6
Continuous
 62
     2
370
     9
100
AcDbText
 10
-417.2866119359146
 20
-68.8418702566792
 30
0.0
 40
30.48
  1
5
 41
0.9999999999999998
  7
ＭＳ ゴシック
100
AcDbText
  0
TEXT
  5
50C
330
1F
100
AcDbEntity
  8
D-5
  6
Continuous
 62
     2
370
     9
100
AcDbText
 10
-849.4235741630524
 20
-986.9549111807545
 30
0.0
 40
30.48
  1
断面詳細図　Ｓ＝１：２
 50
359.9999375525338
 41
1.113636363636363
  7
ＭＳ ゴシック
100
AcDbText
  0
TEXT
  5
50D
330
1F
100
AcDbEntity
  8
D-5
  6
Continuous
 62
     7
370
     9
100
AcDbText
 10
-243.3790589783797
 20
-287.7369059145619
 30
0.0
 40
22.86
  1
ｔ＝２．３（ＳＰＨＣ）
 41
1.151515151515151
  7
ＭＳ ゴシック
100
AcDbText
  0
TEXT
  5
50E
330
1F
100
AcDbEntity
  8
D-5
  6
Continuous
 62
     7
370
     9
100
AcDbText
 10
-253.0169106934676
 20
-137.2531367361714
 30
0.0
 40
22.86
  1
ステンレス製受枠ＳＦ２０Ｂ
 41
1.153846153846153
  7
ＭＳ ゴシック
100
AcDbText
  0
TEXT
  5
50F
330
1F
100
AcDbEntity
  8
D-4
  6
Continuous
 62
     2
370
     9
100
AcDbText
 10
-706.0523307679305
 20
-392.9028147170786
 30
0.0
 40
30.48
  1
25
 50
90.00000250447827
 41
1.062500000000001
  7
ＭＳ ゴシック
100
AcDbText
  0
TEXT
  5
510
330
1F
100
AcDbEntity
  8
D-5
  6
Continuous
 62
     2
370
     9
100
AcDbText
 10
511.5444372679582
 20
-816.1955956900285
 30
0.0
 40
30.48
  1
材質：冷間圧延ステンレス鋼板（ＳＵＳ３０４－２Ｂ）
 41
1.119999999999999
  7
ＭＳ ゴシック
100
AcDbText
  0
LINE
  5
511
330
1F
100
AcDbEntity
  8
D-2
  6
Continuous
 62
     3
370
     9
100
AcDbLine
 10
-439.9290396187911
 20
-311.6523757803608
 30
0.0
 11
-439.9290396187911
 21
-411.6523471701313
 31
0.0
  0
LINE
  5
512
330
1F
100
AcDbEntity
  8
D-2
  6
Continuous
 62
     3
370
     9
100
AcDbLine
 10
-1097.597408435167
 20
-466.8961253988911
 30
0.0
 11
-1097.597408435167
 21
-242.9536500799824
 31
0.0
  0
LINE
  5
513
330
1F
100
AcDbEntity
  8
D-2
  6
Continuous
 62
     3
370
     9
100
AcDbLine
 10
-439.9290396187911
 20
-321.6519263613392
 30
0.0
 11
-1097.597408435167
 21
-321.6519263613392
 31
0.0
  0
LINE
  5
514
330
1F
100
AcDbEntity
  8
D-2
  6
Continuous
 62
     3
370
     9
100
AcDbLine
 10
-424.9287225220809
 20
-311.6523757803608
 30
0.0
 11
-424.9287225220809
 21
-411.6523471701313
 31
0.0
  0
LINE
  5
515
330
1F
100
AcDbEntity
  8
D-2
  6
Continuous
 62
     3
370
     9
100
AcDbLine
 10
-424.9311998660318
 20
-411.6523471701313
 30
0.0
 11
-1097.597408435167
 21
-411.6523471701313
 31
0.0
  0
LINE
  5
516
330
1F
100
AcDbEntity
  8
D-2
  6
Continuous
 62
     3
370
     9
100
AcDbLine
 10
-424.9287225220809
 20
-311.6523757803608
 30
0.0
 11
-1097.597408435167
 21
-311.6523757803608
 31
0.0
  0
LINE
  5
517
330
1F
100
AcDbEntity
  8
D-5
  6
Continuous
 62
     7
370
     9
100
AcDbLine
 10
-300.4065228913436
 20
-85.40647657992139
 30
0.0
 11
-497.9192019913802
 21
-314.1525110829045
 31
0.0
  0
LINE
  5
518
330
1F
100
AcDbEntity
  8
D-5
  6
Continuous
 62
     7
370
     9
100
AcDbLine
 10
-497.9192019913802
 20
-314.1525110829045
 30
0.0
 11
-484.1907502625594
 21
-293.259584032314
 31
0.0
  0
LINE
  5
519
330
1F
100
AcDbEntity
  8
D-5
  6
Continuous
 62
     7
370
     9
100
AcDbLine
 10
-497.9192019913802
 20
-314.1525110829045
 30
0.0
 11
-479.2509271119247
 21
-297.5245788920094
 31
0.0
  0
LINE
  5
51A
330
1F
100
AcDbEntity
  8
D-5
  6
Continuous
 62
     2
370
     9
100
AcDbLine
 10
574.7429846312391
 20
-296.6525522101094
 30
0.0
 11
349.7436712767471
 21
-296.6525522101094
 31
0.0
  0
LINE
  5
51B
330
1F
100
AcDbEntity
  8
D-5
  6
Continuous
 62
     2
370
     9
100
AcDbLine
 10
574.7429846312391
 20
-246.6523185599019
 30
0.0
 11
574.7429846312391
 21
-296.6525522101094
 31
0.0
  0
LINE
  5
51C
330
1F
100
AcDbEntity
  8
D-5
  6
Continuous
 62
     2
370
     9
100
AcDbLine
 10
349.7436712767471
 20
-246.6523185599019
 30
0.0
 11
574.7429846312391
 21
-246.6523185599019
 31
0.0
  0
LINE
  5
51D
330
1F
100
AcDbEntity
  8
D-5
  6
Continuous
 62
     2
370
     9
100
AcDbLine
 10
349.7436712767471
 20
-296.6525522101094
 30
0.0
 11
349.7436712767471
 21
-246.6523185599019
 31
0.0
  0
TEXT
  5
51E
330
1F
100
AcDbEntity
  8
D-5
  6
Continuous
 62
     2
370
     9
100
AcDbText
 10
511.545429089247
 20
-478.9329652273823
 30
0.0
 40
30.48
  1
材質：メインバー　ＳＵＳ３０４　＠１５
 41
1.118421052631579
  7
ＭＳ ゴシック
100
AcDbText
  0
TEXT
  5
51F
330
1F
100
AcDbEntity
  8
D-5
  6
Continuous
 62
     2
370
     9
100
AcDbText
 10
511.5454290892472
 20
-543.9330224478414
 30
0.0
 40
30.48
  1
　　　クロスバー　ＳＵＳ３０４　＠１００
 41
1.118749999999999
  7
ＭＳ ゴシック
100
AcDbText
  0
TEXT
  5
520
330
1F
100
AcDbEntity
  8
D-5
  6
Continuous
 62
     2
370
     9
100
AcDbText
 10
511.545429089247
 20
-608.933060594814
 30
0.0
 40
30.48
  1
　　　サイドバー　ＳＵＳ３０４
 41
1.116666666666667
  7
ＭＳ ゴシック
100
AcDbText
  0
TEXT
  5
521
330
1F
100
AcDbEntity
  8
D-5
  6
Continuous
 62
     2
370
     9
100
AcDbText
 10
397.2432135130753
 20
-286.0122804129292
 30
0.0
 40
30.48
  1
仕　様
 41
1.083333333333332
  7
ＭＳ ゴシック
100
AcDbText
  0
TEXT
  5
522
330
1F
100
AcDbEntity
  8
D-5
  6
Continuous
 62
     7
370
     9
100
AcDbText
 10
-243.3790589783798
 20
-246.5129138052632
 30
0.0
 40
22.86
  1
溶接用アンカー
 41
1.142857142857143
  7
ＭＳ ゴシック
100
AcDbText
  0
TEXT
  5
523
330
1F
100
AcDbEntity
  8
D-5
  6
Continuous
 62
     2
370
     9
100
AcDbText
 10
451.8325232054579
 20
-751.1960153067278
 30
0.0
 40
30.48
  1
ステンレス製受枠　ＳＦ２０Ｂ（四方枠）
 41
1.118421052631579
  7
ＭＳ ゴシック
100
AcDbText
  0
TEXT
  5
524
330
1F
100
AcDbEntity
  8
D-4
  6
Continuous
 62
     2
370
     9
100
AcDbText
 10
-1120.00269736287
 20
-178.0743186766943
 30
0.0
 40
30.48
  1
□350
 41
1.1
  7
ＭＳ ゴシック
100
AcDbText
  0
TEXT
  5
525
330
1F
100
AcDbEntity
  8
D-4
  6
Continuous
 62
     2
370
     9
100
AcDbText
 10
-1120.00269736287
 20
-69.27431867669434
 30
0.0
 40
30.48
  1
□400
 41
1.1
  7
ＭＳ ゴシック
100
AcDbText
  0
LINE
  5
526
330
1F
100
AcDbEntity
  8
D-2
  6
JWW_CENTER2
 62
     3
370
     9
100
AcDbLine
 10
-924.9287225220809
 20
-394.591371141689
 30
0.0
 11
-924.9287225220809
 21
-330.072418771999
 31
0.0
  0
LINE
  5
527
330
1F
100
AcDbEntity
  8
D-2
  6
JWW_CENTER2
 62
     3
370
     9
100
AcDbLine
 10
-955.2533914063582
 20
-361.6521135199238
 30
0.0
 11
-894.2820168946395
 21
-361.6521135199238
 31
0.0
  0
LINE
  5
528
330
1F
100
AcDbEntity
  8
D-0
  6
Continuous
 62
     3
370
     9
100
AcDbLine
 10
-912.4290276978621
 20
-349.1519657004048
 30
0.0
 11
-912.4290276978621
 21
-356.4746824133564
 31
0.0
  0
LINE
  5
529
330
1F
100
AcDbEntity
  8
D-0
  6
Continuous
 62
     3
370
     9
100
AcDbLine
 10
-912.4290276978621
 20
-349.1519657004048
 30
0.0
 11
-919.7510339234481
 21
-349.1519657004048
 31
0.0
  0
LINE
  5
52A
330
1F
100
AcDbEntity
  8
D-0
  6
Continuous
 62
     3
370
     9
100
AcDbLine
 10
-930.1061059449324
 20
-349.1519657004048
 30
0.0
 11
-937.4284173462996
 21
-349.1519657004048
 31
0.0
  0
LINE
  5
52B
330
1F
100
AcDbEntity
  8
D-0
  6
Continuous
 62
     3
370
     9
100
AcDbLine
 10
-937.4284173462996
 20
-349.1519657004048
 30
0.0
 11
-937.4284173462996
 21
-356.4741578924824
 31
0.0
  0
LINE
  5
52C
330
1F
100
AcDbEntity
  8
D-0
  6
Continuous
 62
     3
370
     9
100
AcDbLine
 10
-930.1061059449324
 20
-374.1522613394429
 30
0.0
 11
-937.4284173462996
 21
-374.1522613394429
 31
0.0
  0
LINE
  5
52D
330
1F
100
AcDbEntity
  8
D-0
  6
Continuous
 62
     3
370
     9
100
AcDbLine
 10
-937.4284173462996
 20
-366.8300691473652
 30
0.0
 11
-937.4284173462996
 21
-374.1522613394429
 31
0.0
  0
LINE
  5
52E
330
1F
100
AcDbEntity
  8
D-0
  6
Continuous
 62
     3
370
     9
100
AcDbLine
 10
-912.4290276978621
 20
-374.1522613394429
 30
0.0
 11
-919.7510339234481
 21
-374.1522613394429
 31
0.0
  0
LINE
  5
52F
330
1F
100
AcDbEntity
  8
D-0
  6
Continuous
 62
     3
370
     9
100
AcDbLine
 10
-912.4290276978621
 20
-366.8300691473652
 30
0.0
 11
-912.4290276978621
 21
-374.1522613394429
 31
0.0
  0
LINE
  5
530
330
1F
100
AcDbEntity
  8
D-0
  6
Continuous
 62
     3
370
     9
100
AcDbLine
 10
-924.9285699341903
 20
-343.9744463789631
 30
0.0
 11
-942.6066400025496
 21
-361.6523757803608
 31
0.0
  0
LINE
  5
531
330
1F
100
AcDbEntity
  8
D-0
  6
Continuous
 62
     3
370
     9
100
AcDbLine
 10
-924.9285699341903
 20
-379.3299547064473
 30
0.0
 11
-907.2508050416121
 21
-361.6523757803608
 31
0.0
  0
LINE
  5
532
330
1F
100
AcDbEntity
  8
D-0
  6
Continuous
 62
     3
370
     9
100
AcDbLine
 10
-907.2508050416121
 20
-361.6523757803608
 30
0.0
 11
-924.9285699341903
 21
-343.9744463789631
 31
0.0
  0
LINE
  5
533
330
1F
100
AcDbEntity
  8
D-0
  6
Continuous
 62
     3
370
     9
100
AcDbLine
 10
-942.6066400025496
 20
-361.6523757803608
 30
0.0
 11
-924.9285699341903
 21
-379.3299547064473
 31
0.0
  0
LINE
  5
534
330
1F
100
AcDbEntity
  8
D-4
  6
Continuous
 62
     7
370
     9
100
AcDbLine
 10
-806.6551782105574
 20
-411.6523471701313
 30
0.0
 11
-806.6551782105574
 21
-311.6523757803608
 31
0.0
  0
LWPOLYLINE
  5
535
330
1F
100
AcDbEntity
  8
D-4
  6
Continuous
 62
     7
370
     9
100
AcDbPolyline
 90
        4
 70
     1
 43
1.0
 10
-806.1551782105574
 20
-311.6523757803608
 42
0.4142135623731
 10
-806.6551782105574
 20
-311.1523757803608
 42
0.4142135623731
 10
-807.1551782105574
 20
-311.6523757803608
 42
0.4142135623731
 10
-806.6551782105574
 20
-312.1523757803608
 42
0.4142135623731
  0
LWPOLYLINE
  5
536
330
1F
100
AcDbEntity
  8
D-4
  6
Continuous
 62
     7
370
     9
100
AcDbPolyline
 90
        4
 70
     1
 43
1.0
 10
-806.1551782105574
 20
-411.6523471701313
 42
0.4142135623731
 10
-806.6551782105574
 20
-411.1523471701314
 42
0.4142135623731
 10
-807.1551782105574
 20
-411.6523471701313
 42
0.4142135623731
 10
-806.6551782105574
 20
-412.1523471701313
 42
0.4142135623731
  0
TEXT
  5
537
330
1F
100
AcDbEntity
  8
D-4
  6
Continuous
 62
     2
370
     9
100
AcDbText
 10
-817.2949493287215
 20
-382.9022711227183
 30
0.0
 40
30.48
  1
20
 50
90.00000250447809
 41
1.062500000000001
  7
ＭＳ ゴシック
100
AcDbText
  0
TEXT
  5
538
330
1F
100
AcDbEntity
  8
D-4
  6
Continuous
 62
     2
370
     9
100
AcDbText
 10
-1120.00269736287
 20
41.4256813233056
 30
0.0
 40
30.48
  1
□412
 41
1.1
  7
ＭＳ ゴシック
100
AcDbText
  0
TEXT
  5
539
330
1F
100
AcDbEntity
  8
F-4ﾚｲﾔ
  6
Continuous
 62
     2
370
     9
100
AcDbText
 10
-767.3313624353841
 20
-1329.432522372265
 30
0.0
 40
30.48
  1
ステンレス製　細目ノンスリップタイプ（デルタ模様）
 41
0.7739999999999999
  7
ＭＳ ゴシック
100
AcDbText
  0
TEXT
  5
53A
330
1F
100
AcDbEntity
  8
D-5
  6
Continuous
 62
     2
370
     9
100
AcDbText
 10
451.833515026747
 20
-348.9329127752949
 30
0.0
 40
30.48
  1
ステンレス製　細目ノンスリップタイプ（デルタ模様）
 41
1.119999999999999
  7
ＭＳ ゴシック
100
AcDbText
  0
LINE
  5
53B
330
1F
100
AcDbEntity
  8
D-5
  6
Continuous
 62
     7
370
     9
100
AcDbLine
 10
-300.4065228913436
 20
-85.40647657992139
 30
0.0
 11
560.2212750170615
 21
-85.40647657992139
 31
0.0
  0
TEXT
  5
53C
330
1F
100
AcDbEntity
  8
D-5
  6
Continuous
 62
     7
370
     9
100
AcDbText
 10
-300.406525654385
 20
-73.24945936800823
 30
0.0
 40
22.86
  1
グレーチング（すきま9mm）ＤＱ－２０（h=20）
 50
0.0000374256994594
 41
1.158914728682171
  7
ＭＳ ゴシック
100
AcDbText
  0
TEXT
  5
53D
330
1F
100
AcDbEntity
  8
D-5
  6
Continuous
 62
     7
370
     9
100
AcDbText
 10
-300.4065228913436
 20
-40.54449568392529
 30
0.0
 40
22.86
  1
ステンレス製　細目ノンスリップタイプ（デルタ模様）
 41
1.16
  7
ＭＳ ゴシック
100
AcDbText
  0
TEXT
  5
53E
330
1F
100
AcDbEntity
  8
D-5
  6
Continuous
 62
     2
370
     9
100
AcDbText
 10
451.8335154064225
 20
-413.9324073279072
 30
0.0
 40
30.48
  1
グレーチング（すきま9mm）ＤＱ－２０　４００×４００×２０
 50
359.999996142952
 41
1.120614035087719
  7
ＭＳ ゴシック
100
AcDbText
  0
TEXT
  5
53F
330
1F
100
AcDbEntity
  8
F-4ﾚｲﾔ
  6
Continuous
 62
     2
370
     9
100
AcDbText
 10
-767.3313624353843
 20
-1371.63542092299
 30
0.0
 40
30.48
  1
グレーチング（すきま9mm）ＤＱ－２０　４００×４００×２０＋ＳＦ２０Ｂ（四方枠）
 41
0.6999999999999998
  7
ＭＳ ゴシック
100
AcDbText
  0
ENDSEC
  0
SECTION
  2
OBJECTS
  0
DICTIONARY
  5
C
330
0
100
AcDbDictionary
281
     1
  3
ACAD_GROUP
350
D
  3
ACAD_LAYOUT
350
1A
  3
ACAD_MLEADERSTYLE
350
541
  3
ACAD_MLINESTYLE
350
17
  3
ACAD_PLOTSETTINGS
350
19
  3
ACAD_PLOTSTYLENAME
350
E
  3
ACAD_TABLESTYLE
350
540
  3
ACAD_VISUALSTYLE
350
2A
  0
DICTIONARY
  5
D
102
{ACAD_REACTORS
330
C
102
}
330
C
100
AcDbDictionary
281
     1
  0
DICTIONARY
  5
1A
102
{ACAD_REACTORS
330
C
102
}
330
C
100
AcDbDictionary
281
     1
  3
Layout1
350
1E
  3
Layout2
350
26
  3
Model
350
22
  0
DICTIONARY
  5
541
102
{ACAD_REACTORS
330
C
102
}
330
C
100
AcDbDictionary
281
     1
  0
DICTIONARY
  5
17
102
{ACAD_REACTORS
330
C
102
}
330
C
100
AcDbDictionary
281
     1
  3
Standard
350
18
  0
DICTIONARY
  5
19
102
{ACAD_REACTORS
330
C
102
}
330
C
100
AcDbDictionary
281
     1
  0
ACDBDICTIONARYWDFLT
  5
E
102
{ACAD_REACTORS
330
C
102
}
330
C
100
AcDbDictionary
281
     1
  3
Normal
350
F
100
AcDbDictionaryWithDefault
340
F
  0
DICTIONARY
  5
540
102
{ACAD_REACTORS
330
C
102
}
330
C
100
AcDbDictionary
281
     1
  0
DICTIONARY
  5
2A
102
{ACAD_REACTORS
330
C
102
}
330
C
100
AcDbDictionary
281
     1
  3
2dWireframe
350
2F
  3
3D Hidden
350
31
  3
3dWireframe
350
30
  3
Basic
350
32
  3
Brighten
350
36
  3
ColorChange
350
3A
  3
Conceptual
350
34
  3
Dim
350
35
  3
Facepattern
350
39
  3
Flat
350
2B
  3
FlatWithEdges
350
2C
  3
Gouraud
350
2D
  3
GouraudWithEdges
350
2E
  3
Linepattern
350
38
  3
Realistic
350
33
  3
Thicken
350
37
  0
LAYOUT
  5
1E
102
{ACAD_REACTORS
330
1A
102
}
330
1A
100
AcDbPlotSettings
  1

  2
none_device
  4

  6

 40
0.0
 41
0.0
 42
0.0
 43
0.0
 44
0.0
 45
0.0
 46
0.0
 47
0.0
 48
0.0
 49
0.0
140
0.0
141
0.0
142
1.0
143
1.0
 70
   688
 72
     0
 73
     0
 74
     5
  7

 75
    16
 76
     0
 77
     5
 78
   300
147
1.0
148
0.0
149
0.0
100
AcDbLayout
  1
Layout1
 70
     1
 71
     1
 10
0.0
 20
0.0
 11
420.0
 21
297.0
 12
0.0
 22
0.0
 32
0.0
 14
1.000000000000000E+20
 24
1.000000000000000E+20
 34
1.000000000000000E+20
 15
-1.000000000000000E+20
 25
-1.000000000000000E+20
 35
-1.000000000000000E+20
146
0.0
 13
0.0
 23
0.0
 33
0.0
 16
1.0
 26
0.0
 36
0.0
 17
0.0
 27
1.0
 37
0.0
 76
     0
330
1B
  0
LAYOUT
  5
26
102
{ACAD_REACTORS
330
1A
102
}
330
1A
100
AcDbPlotSettings
  1

  2
none_device
  4

  6

 40
0.0
 41
0.0
 42
0.0
 43
0.0
 44
0.0
 45
0.0
 46
0.0
 47
0.0
 48
0.0
 49
0.0
140
0.0
141
0.0
142
1.0
143
1.0
 70
   688
 72
     0
 73
     0
 74
     5
  7

 75
    16
 76
     0
 77
     5
 78
   300
147
1.0
148
0.0
149
0.0
100
AcDbLayout
  1
Layout2
 70
     1
 71
     2
 10
0.0
 20
0.0
 11
0.0
 21
0.0
 12
0.0
 22
0.0
 32
0.0
 14
0.0
 24
0.0
 34
0.0
 15
0.0
 25
0.0
 35
0.0
146
0.0
 13
0.0
 23
0.0
 33
0.0
 16
1.0
 26
0.0
 36
0.0
 17
0.0
 27
1.0
 37
0.0
 76
     0
330
23
  0
LAYOUT
  5
22
102
{ACAD_REACTORS
330
1A
102
}
330
1A
100
AcDbPlotSettings
  1

  2
none_device
  4

  6

 40
0.0
 41
0.0
 42
0.0
 43
0.0
 44
0.0
 45
0.0
 46
0.0
 47
0.0
 48
0.0
 49
0.0
140
0.0
141
0.0
142
1.0
143
1.0
 70
  1712
 72
     0
 73
     0
 74
     0
  7

 75
     0
 76
     0
 77
     5
 78
   300
147
1.0
148
0.0
149
0.0
100
AcDbLayout
  1
Model
 70
     1
 71
     0
 10
-2100.0
 20
-1485.0
 11
2100.0
 21
1485.0
 12
0.0
 22
0.0
 32
0.0
 14
-2100.0
 24
-1485.0
 34
0.0
 15
2100.0
 25
1485.0
 35
0.0
146
0.0
 13
0.0
 23
0.0
 33
0.0
 16
1.0
 26
0.0
 36
0.0
 17
0.0
 27
1.0
 37
0.0
 76
     0
330
1F
331
29
  0
MLINESTYLE
  5
18
102
{ACAD_REACTORS
330
17
102
}
330
17
100
AcDbMlineStyle
  2
Standard
 70
     0
  3

 62
   256
 51
90.0
 52
90.0
 71
     2
 49
0.5
 62
   256
  6
BYLAYER
 49
-0.5
 62
   256
  6
BYLAYER
  0
ACDBPLACEHOLDER
  5
F
102
{ACAD_REACTORS
330
E
102
}
330
E
  0
VISUALSTYLE
  5
2F
102
{ACAD_REACTORS
330
2A
102
}
330
2A
100
AcDbVisualStyle
  2
2dWireframe
 70
     4
 71
     0
 72
     2
 73
     0
 90
        0
 40
-0.6
 41
-30.0
 62
     5
 63
     7
421
 16777215
 74
     1
 91
        4
 64
     7
 65
   257
 75
     1
175
     1
 42
1.0
 92
        0
 66
   257
 43
1.0
 76
     1
 77
     6
 78
     2
 67
     7
 79
     5
170
     0
171
     0
290
     0
174
     0
 93
        1
 44
0.0
173
     0
291
     0
 45
0.0
1001
ACAD
1000
AcDbSavedByObjectVersion
1070
     0
  0
VISUALSTYLE
  5
31
102
{ACAD_REACTORS
330
2A
102
}
330
2A
100
AcDbVisualStyle
  2
3D Hidden
 70
     6
 71
     1
 72
     2
 73
     2
 90
        0
 40
-0.6
 41
-30.0
 62
     5
 63
     7
421
 16777215
 74
     2
 91
        2
 64
     7
 65
   257
 75
     2
175
     1
 42
40.0
 92
        0
 66
   257
 43
1.0
 76
     1
 77
     6
 78
     2
 67
     7
 79
     3
170
     0
171
     0
290
     0
174
     0
 93
        1
 44
0.0
173
     0
291
     0
 45
0.0
1001
ACAD
1000
AcDbSavedByObjectVersion
1070
     0
  0
VISUALSTYLE
  5
30
102
{ACAD_REACTORS
330
2A
102
}
330
2A
100
AcDbVisualStyle
  2
3dWireframe
 70
     5
 71
     0
 72
     2
 73
     0
 90
        0
 40
-0.6
 41
-30.0
 62
     5
 63
     7
421
 16777215
 74
     1
 91
        4
 64
     7
 65
   257
 75
     1
175
     1
 42
1.0
 92
        0
 66
   257
 43
1.0
 76
     1
 77
     6
 78
     2
 67
     7
 79
     5
170
     0
171
     0
290
     0
174
     0
 93
        1
 44
0.0
173
     0
291
     0
 45
0.0
1001
ACAD
1000
AcDbSavedByObjectVersion
1070
     0
  0
VISUALSTYLE
  5
32
102
{ACAD_REACTORS
330
2A
102
}
330
2A
100
AcDbVisualStyle
  2
Basic
 70
     7
 71
     1
 72
     0
 73
     1
 90
        0
 40
-0.6
 41
-30.0
 62
     5
 63
     7
421
 16777215
 74
     0
 91
        4
 64
     7
 65
   257
 75
     1
175
     1
 42
1.0
 92
        8
 66
     7
 43
1.0
 76
     1
 77
     6
 78
     2
 67
     7
 79
     5
170
     0
171
     0
290
     0
174
     0
 93
        1
 44
0.0
173
     0
291
     1
 45
0.0
1001
ACAD
1000
AcDbSavedByObjectVersion
1070
     0
  0
VISUALSTYLE
  5
36
102
{ACAD_REACTORS
330
2A
102
}
330
2A
100
AcDbVisualStyle
  2
Brighten
 70
    12
 71
     2
 72
     2
 73
     0
 90
        0
 40
-0.6
 41
-30.0
 62
     5
 63
     7
421
 16777215
 74
     1
 91
        4
 64
     7
 65
   257
 75
     1
175
     1
 42
1.0
 92
        8
 66
     7
 43
1.0
 76
     1
 77
     6
 78
     2
 67
     7
 79
     5
170
     0
171
     0
290
     0
174
     0
 93
        1
 44
50.0
173
     0
291
     1
 45
0.0
1001
ACAD
1000
AcDbSavedByObjectVersion
1070
     0
  0
VISUALSTYLE
  5
3A
102
{ACAD_REACTORS
330
2A
102
}
330
2A
100
AcDbVisualStyle
  2
ColorChange
 70
    16
 71
     2
 72
     2
 73
     3
 90
        0
 40
-0.6
 41
-30.0
 62
     5
 63
     8
421
  8421504
 74
     1
 91
        4
 64
     7
 65
   257
 75
     1
175
     1
 42
1.0
 92
        8
 66
     8
424
  8421504
 43
1.0
 76
     1
 77
     6
 78
     2
 67
     7
 79
     5
170
     0
171
     0
290
     0
174
     0
 93
        1
 44
0.0
173
     0
291
     1
 45
0.0
1001
ACAD
1000
AcDbSavedByObjectVersion
1070
     0
  0
VISUALSTYLE
  5
34
102
{ACAD_REACTORS
330
2A
102
}
330
2A
100
AcDbVisualStyle
  2
Conceptual
 70
     9
 71
     3
 72
     2
 73
     0
 90
        0
 40
-0.6
 41
-30.0
 62
     5
 63
     7
421
 16777215
 74
     2
 91
        2
 64
     7
 65
   257
 75
     1
175
     1
 42
40.0
 92
        8
 66
     7
 43
1.0
 76
     1
 77
     6
 78
     2
 67
     7
 79
     3
170
     0
171
     0
290
     0
174
     0
 93
        1
 44
0.0
173
     0
291
     0
 45
0.0
1001
ACAD
1000
AcDbSavedByObjectVersion
1070
     0
  0
VISUALSTYLE
  5
35
102
{ACAD_REACTORS
330
2A
102
}
330
2A
100
AcDbVisualStyle
  2
Dim
 70
    11
 71
     2
 72
     2
 73
     0
 90
        0
 40
-0.6
 41
-30.0
 62
     5
 63
     7
421
 16777215
 74
     1
 91
        4
 64
     7
 65
   257
 75
     1
175
     1
 42
1.0
 92
        8
 66
     7
 43
1.0
 76
     1
 77
     6
 78
     2
 67
     7
 79
     5
170
     0
171
     0
290
     0
174
     0
 93
        1
 44
-50.0
173
     0
291
     1
 45
0.0
1001
ACAD
1000
AcDbSavedByObjectVersion
1070
     0
  0
VISUALSTYLE
  5
39
102
{ACAD_REACTORS
330
2A
102
}
330
2A
100
AcDbVisualStyle
  2
Facepattern
 70
    15
 71
     2
 72
     2
 73
     0
 90
        0
 40
-0.6
 41
-30.0
 62
     5
 63
     7
421
 16777215
 74
     1
 91
        4
 64
     7
 65
   257
 75
     1
175
     1
 42
1.0
 92
        8
 66
     7
 43
1.0
 76
     1
 77
     6
 78
     2
 67
     7
 79
     5
170
     0
171
     0
290
     0
174
     0
 93
        1
 44
0.0
173
     0
291
     1
 45
0.0
1001
ACAD
1000
AcDbSavedByObjectVersion
1070
     0
  0
VISUALSTYLE
  5
2B
102
{ACAD_REACTORS
330
2A
102
}
330
2A
100
AcDbVisualStyle
  2
Flat
 70
     0
 71
     2
 72
     1
 73
     1
 90
        2
 40
-0.6
 41
30.0
 62
     5
 63
     7
421
 16777215
 74
     0
 91
        4
 64
     7
 65
   257
 75
     1
175
     1
 42
1.0
 92
        8
 66
     7
 43
1.0
 76
     1
 77
     6
 78
     2
 67
     7
 79
     5
170
     0
171
     0
290
     0
174
     0
 93
       13
 44
0.0
173
     0
291
     1
 45
0.0
1001
ACAD
1000
AcDbSavedByObjectVersion
1070
     0
  0
VISUALSTYLE
  5
2C
102
{ACAD_REACTORS
330
2A
102
}
330
2A
100
AcDbVisualStyle
  2
FlatWithEdges
 70
     1
 71
     2
 72
     1
 73
     1
 90
        2
 40
-0.6
 41
30.0
 62
     5
 63
     7
421
 16777215
 74
     1
 91
        4
 64
     7
 65
   257
 75
     1
175
     1
 42
1.0
 92
        0
 66
   257
 43
1.0
 76
     1
 77
     6
 78
     2
 67
     7
 79
     5
170
     0
171
     0
290
     0
174
     0
 93
       13
 44
0.0
173
     0
291
     1
 45
0.0
1001
ACAD
1000
AcDbSavedByObjectVersion
1070
     0
  0
VISUALSTYLE
  5
2D
102
{ACAD_REACTORS
330
2A
102
}
330
2A
100
AcDbVisualStyle
  2
Gouraud
 70
     2
 71
     2
 72
     2
 73
     1
 90
        2
 40
-0.6
 41
30.0
 62
     5
 63
     7
421
 16777215
 74
     0
 91
        4
 64
     7
 65
   257
 75
     1
175
     1
 42
1.0
 92
        0
 66
     7
 43
1.0
 76
     1
 77
     6
 78
     2
 67
     7
 79
     5
170
     0
171
     0
290
     0
174
     0
 93
       13
 44
0.0
173
     0
291
     1
 45
0.0
1001
ACAD
1000
AcDbSavedByObjectVersion
1070
     0
  0
VISUALSTYLE
  5
2E
102
{ACAD_REACTORS
330
2A
102
}
330
2A
100
AcDbVisualStyle
  2
GouraudWithEdges
 70
     3
 71
     2
 72
     2
 73
     1
 90
        2
 40
-0.6
 41
30.0
 62
     5
 63
     7
421
 16777215
 74
     1
 91
        4
 64
     7
 65
   257
 75
     1
175
     1
 42
1.0
 92
        0
 66
   257
 43
1.0
 76
     1
 77
     6
 78
     2
 67
     7
 79
     5
170
     0
171
     0
290
     0
174
     0
 93
       13
 44
0.0
173
     0
291
     1
 45
0.0
1001
ACAD
1000
AcDbSavedByObjectVersion
1070
     0
  0
VISUALSTYLE
  5
38
102
{ACAD_REACTORS
330
2A
102
}
330
2A
100
AcDbVisualStyle
  2
Linepattern
 70
    14
 71
     2
 72
     2
 73
     0
 90
        0
 40
-0.6
 41
-30.0
 62
     5
 63
     7
421
 16777215
 74
     1
 91
        4
 64
     7
 65
   257
 75
     7
175
     7
 42
1.0
 92
        8
 66
     7
 43
1.0
 76
     1
 77
     6
 78
     2
 67
     7
 79
     5
170
     0
171
     0
290
     0
174
     0
 93
        1
 44
0.0
173
     0
291
     1
 45
0.0
1001
ACAD
1000
AcDbSavedByObjectVersion
1070
     0
  0
VISUALSTYLE
  5
33
102
{ACAD_REACTORS
330
2A
102
}
330
2A
100
AcDbVisualStyle
  2
Realistic
 70
     8
 71
     2
 72
     2
 73
     0
 90
        0
 40
-0.6
 41
-30.0
 62
     5
 63
     7
421
 16777215
 74
     1
 91
        0
 64
     7
 65
   257
 75
     1
175
     1
 42
1.0
 92
        8
 66
     8
424
  7895160
 43
1.0
 76
     1
 77
     6
 78
     2
 67
     7
 79
     5
170
     0
171
     0
290
     0
174
     0
 93
       13
 44
0.0
173
     0
291
     0
 45
0.0
1001
ACAD
1000
AcDbSavedByObjectVersion
1070
     0
  0
VISUALSTYLE
  5
37
102
{ACAD_REACTORS
330
2A
102
}
330
2A
100
AcDbVisualStyle
  2
Thicken
 70
    13
 71
     2
 72
     2
 73
     0
 90
        0
 40
-0.6
 41
-30.0
 62
     5
 63
     7
421
 16777215
 74
     1
 91
        4
 64
     7
 65
   257
 75
     1
175
     1
 42
1.0
 92
       12
 66
     7
 43
1.0
 76
     1
 77
     6
 78
     2
 67
     7
 79
     5
170
     0
171
     0
290
     0
174
     0
 93
        1
 44
0.0
173
     0
291
     1
 45
0.0
1001
ACAD
1000
AcDbSavedByObjectVersion
1070
     0
  0
ENDSEC
  0
EOF
