  0
SECTION
  2
HEADER
  9
$ACADVER
  1
AC1018
  9
$ACADMAINTVER
 70
     0
  9
$DWGCODEPAGE
  3
ANSI_932
  9
$INSBASE
 10
0.0
 20
0.0
 30
0.0
  9
$EXTMIN
 10
-2100.0
 20
-1485.0
 30
0.0
  9
$EXTMAX
 10
2100.0
 20
1485.0
 30
0.0
  9
$LIMMIN
 10
-2100.0
 20
-1485.0
  9
$LIMMAX
 10
2100.0
 20
1485.0
  9
$ORTHOMODE
 70
     0
  9
$REGENMODE
 70
     1
  9
$FILLMODE
 70
     1
  9
$QTEXTMODE
 70
     0
  9
$MIRRTEXT
 70
     1
  9
$LTSCALE
 40
10.0
  9
$ATTMODE
 70
     1
  9
$TEXTSIZE
 40
2.5
  9
$TRACEWID
 40
1.0
  9
$TEXTSTYLE
  7
Standard
  9
$CLAYER
  8
0
  9
$CELTYPE
  6
ByLayer
  9
$CECOLOR
 62
   256
  9
$CELTSCALE
 40
1.0
  9
$DISPSILH
 70
     0
  9
$DIMSCALE
 40
1.0
  9
$DIMASZ
 40
2.5
  9
$DIMEXO
 40
0.625
  9
$DIMDLI
 40
3.75
  9
$DIMRND
 40
0.0
  9
$DIMDLE
 40
0.0
  9
$DIMEXE
 40
1.25
  9
$DIMTP
 40
0.0
  9
$DIMTM
 40
0.0
  9
$DIMTXT
 40
2.5
  9
$DIMCEN
 40
2.5
  9
$DIMTSZ
 40
0.0
  9
$DIMTOL
 70
     0
  9
$DIMLIM
 70
     0
  9
$DIMTIH
 70
     0
  9
$DIMTOH
 70
     0
  9
$DIMSE1
 70
     0
  9
$DIMSE2
 70
     0
  9
$DIMTAD
 70
     1
  9
$DIMZIN
 70
     8
  9
$DIMBLK
  1

  9
$DIMASO
 70
     1
  9
$DIMSHO
 70
     1
  9
$DIMPOST
  1

  9
$DIMAPOST
  1

  9
$DIMALT
 70
     0
  9
$DIMALTD
 70
     3
  9
$DIMALTF
 40
0.03937007874016
  9
$DIMLFAC
 40
1.0
  9
$DIMTOFL
 70
     1
  9
$DIMTVP
 40
0.0
  9
$DIMTIX
 70
     0
  9
$DIMSOXD
 70
     0
  9
$DIMSAH
 70
     0
  9
$DIMBLK1
  1

  9
$DIMBLK2
  1

  9
$DIMSTYLE
  2
ISO-25
  9
$DIMCLRD
 70
     0
  9
$DIMCLRE
 70
     0
  9
$DIMCLRT
 70
     0
  9
$DIMTFAC
 40
1.0
  9
$DIMGAP
 40
0.625
  9
$DIMJUST
 70
     0
  9
$DIMSD1
 70
     0
  9
$DIMSD2
 70
     0
  9
$DIMTOLJ
 70
     0
  9
$DIMTZIN
 70
     8
  9
$DIMALTZ
 70
     0
  9
$DIMALTTZ
 70
     0
  9
$DIMUPT
 70
     0
  9
$DIMDEC
 70
     2
  9
$DIMTDEC
 70
     2
  9
$DIMALTU
 70
     2
  9
$DIMALTTD
 70
     3
  9
$DIMTXSTY
  7
Standard
  9
$DIMAUNIT
 70
     0
  9
$DIMADEC
 70
     0
  9
$DIMALTRND
 40
0.0
  9
$DIMAZIN
 70
     0
  9
$DIMDSEP
 70
    44
  9
$DIMATFIT
 70
     3
  9
$DIMFRAC
 70
     0
  9
$DIMLDRBLK
  1

  9
$DIMLUNIT
 70
     2
  9
$DIMLWD
 70
    -2
  9
$DIMLWE
 70
    -2
  9
$DIMTMOVE
 70
     0
  9
$LUNITS
 70
     2
  9
$LUPREC
 70
     4
  9
$SKETCHINC
 40
1.0
  9
$FILLETRAD
 40
10.0
  9
$AUNITS
 70
     0
  9
$AUPREC
 70
     0
  9
$MENU
  1
.
  9
$ELEVATION
 40
0.0
  9
$PELEVATION
 40
0.0
  9
$THICKNESS
 40
0.0
  9
$LIMCHECK
 70
     0
  9
$CHAMFERA
 40
10.0
  9
$CHAMFERB
 40
10.0
  9
$CHAMFERC
 40
20.0
  9
$CHAMFERD
 40
0.0
  9
$SKPOLY
 70
     0
  9
$TDCREATE
 40
2458568.380873924
  9
$TDUCREATE
 40
2458568.005873924
  9
$TDUPDATE
 40
2458568.380873935
  9
$TDUUPDATE
 40
2458568.005873935
  9
$TDINDWG
 40
0.0000000116
  9
$TDUSRTIMER
 40
0.0000000116
  9
$USRTIMER
 70
     1
  9
$ANGBASE
 50
0.0
  9
$ANGDIR
 70
     0
  9
$PDMODE
 70
     0
  9
$PDSIZE
 40
0.0
  9
$PLINEWID
 40
0.0
  9
$SPLFRAME
 70
     0
  9
$SPLINETYPE
 70
     6
  9
$SPLINESEGS
 70
     8
  9
$HANDSEED
  5
5B4
  9
$SURFTAB1
 70
     6
  9
$SURFTAB2
 70
     6
  9
$SURFTYPE
 70
     6
  9
$SURFU
 70
     6
  9
$SURFV
 70
     6
  9
$UCSBASE
  2

  9
$UCSNAME
  2

  9
$UCSORG
 10
0.0
 20
0.0
 30
0.0
  9
$UCSXDIR
 10
1.0
 20
0.0
 30
0.0
  9
$UCSYDIR
 10
0.0
 20
1.0
 30
0.0
  9
$UCSORTHOREF
  2

  9
$UCSORTHOVIEW
 70
     0
  9
$UCSORGTOP
 10
0.0
 20
0.0
 30
0.0
  9
$UCSORGBOTTOM
 10
0.0
 20
0.0
 30
0.0
  9
$UCSORGLEFT
 10
0.0
 20
0.0
 30
0.0
  9
$UCSORGRIGHT
 10
0.0
 20
0.0
 30
0.0
  9
$UCSORGFRONT
 10
0.0
 20
0.0
 30
0.0
  9
$UCSORGBACK
 10
0.0
 20
0.0
 30
0.0
  9
$PUCSBASE
  2

  9
$PUCSNAME
  2

  9
$PUCSORG
 10
0.0
 20
0.0
 30
0.0
  9
$PUCSXDIR
 10
1.0
 20
0.0
 30
0.0
  9
$PUCSYDIR
 10
0.0
 20
1.0
 30
0.0
  9
$PUCSORTHOREF
  2

  9
$PUCSORTHOVIEW
 70
     0
  9
$PUCSORGTOP
 10
0.0
 20
0.0
 30
0.0
  9
$PUCSORGBOTTOM
 10
0.0
 20
0.0
 30
0.0
  9
$PUCSORGLEFT
 10
0.0
 20
0.0
 30
0.0
  9
$PUCSORGRIGHT
 10
0.0
 20
0.0
 30
0.0
  9
$PUCSORGFRONT
 10
0.0
 20
0.0
 30
0.0
  9
$PUCSORGBACK
 10
0.0
 20
0.0
 30
0.0
  9
$USERI1
 70
     0
  9
$USERI2
 70
     0
  9
$USERI3
 70
     0
  9
$USERI4
 70
     0
  9
$USERI5
 70
     0
  9
$USERR1
 40
0.0
  9
$USERR2
 40
0.0
  9
$USERR3
 40
0.0
  9
$USERR4
 40
0.0
  9
$USERR5
 40
0.0
  9
$WORLDVIEW
 70
     1
  9
$SHADEDGE
 70
     3
  9
$SHADEDIF
 70
    70
  9
$TILEMODE
 70
     1
  9
$MAXACTVP
 70
    64
  9
$PINSBASE
 10
0.0
 20
0.0
 30
0.0
  9
$PLIMCHECK
 70
     0
  9
$PEXTMIN
 10
1.000000000000000E+20
 20
1.000000000000000E+20
 30
1.000000000000000E+20
  9
$PEXTMAX
 10
-1.000000000000000E+20
 20
-1.000000000000000E+20
 30
-1.000000000000000E+20
  9
$PLIMMIN
 10
0.0
 20
0.0
  9
$PLIMMAX
 10
420.0
 20
297.0
  9
$UNITMODE
 70
     0
  9
$VISRETAIN
 70
     1
  9
$PLINEGEN
 70
     0
  9
$PSLTSCALE
 70
     1
  9
$TREEDEPTH
 70
  3020
  9
$CMLSTYLE
  2
Standard
  9
$CMLJUST
 70
     0
  9
$CMLSCALE
 40
20.0
  9
$PROXYGRAPHICS
 70
     1
  9
$MEASUREMENT
 70
     1
  9
$CELWEIGHT
370
    -1
  9
$ENDCAPS
280
     0
  9
$JOINSTYLE
280
     0
  9
$LWDISPLAY
290
     0
  9
$INSUNITS
 70
     4
  9
$HYPERLINKBASE
  1

  9
$STYLESHEET
  1

  9
$XEDIT
290
     1
  9
$CEPSNTYPE
380
     0
  9
$PSTYLEMODE
290
     1
  9
$FINGERPRINTGUID
  2
{D280989E-C252-4FA2-BE4B-343EF59EA59A}
  9
$VERSIONGUID
  2
{FAEB1C32-E019-11D5-929B-00C0DF256EC4}
  9
$EXTNAMES
290
     1
  9
$PSVPSCALE
 40
0.0
  9
$OLESTARTUP
290
     0
  9
$SORTENTS
280
   127
  9
$INDEXCTL
280
     0
  9
$HIDETEXT
280
     1
  9
$XCLIPFRAME
290
     0
  9
$HALOGAP
280
     0
  9
$OBSCOLOR
 70
   257
  9
$OBSLTYPE
280
     0
  9
$INTERSECTIONDISPLAY
280
     0
  9
$INTERSECTIONCOLOR
 70
   257
  9
$DIMASSOC
280
     2
  9
$PROJECTNAME
  1

  0
ENDSEC
  0
SECTION
  2
CLASSES
  0
CLASS
  1
ACDBDICTIONARYWDFLT
  2
AcDbDictionaryWithDefault
  3
ObjectDBX Classes
 90
        0
 91
        4
280
     0
281
     0
  0
CLASS
  1
VISUALSTYLE
  2
AcDbVisualStyle
  3
ObjectDBX Classes
 90
     4095
 91
        4
280
     0
281
     0
  0
ENDSEC
  0
SECTION
  2
TABLES
  0
TABLE
  2
VPORT
  5
8
330
0
100
AcDbSymbolTable
 70
     1
  0
VPORT
  5
29
330
8
100
AcDbSymbolTableRecord
100
AcDbViewportTableRecord
  2
*Active
 70
     0
 10
0.0
 20
0.0
 11
1.0
 21
1.0
 12
0.0
 22
0.0
 13
0.0
 23
0.0
 14
10.0
 24
10.0
 15
10.0
 25
10.0
 16
0.0
 26
0.0
 36
1.0
 17
0.0
 27
0.0
 37
0.0
 40
3267.0
 41
1.414141414141414
 42
50.0
 43
0.0
 44
0.0
 50
0.0
 51
0.0
 71
     0
 72
 10000
 73
     1
 74
     3
 75
     0
 76
     0
 77
     0
 78
     0
281
     0
 65
     1
110
0.0
120
0.0
130
0.0
111
1.0
121
0.0
131
0.0
112
0.0
122
1.0
132
0.0
 79
     0
146
0.0
  0
ENDTAB
  0
TABLE
  2
LTYPE
  5
5
330
0
100
AcDbSymbolTable
 70
     3
  0
LTYPE
  5
14
330
5
100
AcDbSymbolTableRecord
100
AcDbLinetypeTableRecord
  2
ByBlock
 70
     0
  3

 72
    65
 73
     0
 40
0.0
  0
LTYPE
  5
15
330
5
100
AcDbSymbolTableRecord
100
AcDbLinetypeTableRecord
  2
ByLayer
 70
     0
  3

 72
    65
 73
     0
 40
0.0
  0
LTYPE
  5
16
330
5
100
AcDbSymbolTableRecord
100
AcDbLinetypeTableRecord
  2
Continuous
 70
     0
  3
Solid line
 72
    65
 73
     0
 40
0.0
  0
LTYPE
  5
3C
330
5
100
AcDbSymbolTableRecord
100
AcDbLinetypeTableRecord
  2
JWW_DASHED3
 70
     0
  3
---  ------  ------  ------  ---
 72
    65
 73
     2
 40
3.386666666666667
 49
2.54
 74
     0
 49
-0.8466666666666667
 74
     0
  0
LTYPE
  5
3D
330
5
100
AcDbSymbolTableRecord
100
AcDbLinetypeTableRecord
  2
JWW_CENTER2
 70
     0
  3
-------------  --  -------------
 72
    65
 73
     4
 40
13.54666666666667
 49
11.00666666666667
 74
     0
 49
-0.8466666666666667
 74
     0
 49
0.8466666666666667
 74
     0
 49
-0.8466666666666667
 74
     0
  0
ENDTAB
  0
TABLE
  2
LAYER
  5
2
330
0
100
AcDbSymbolTable
 70
    16
  0
LAYER
  5
10
330
2
100
AcDbSymbolTableRecord
100
AcDbLayerTableRecord
  2
0
 70
     0
 62
     7
  6
Continuous
370
    -3
390
F
  0
LAYER
  5
3E
330
2
100
AcDbSymbolTableRecord
100
AcDbLayerTableRecord
  2
C-2
 70
     0
 62
     7
  6
Continuous
370
    -1
390
F
  0
LAYER
  5
3F
330
2
100
AcDbSymbolTableRecord
100
AcDbLayerTableRecord
  2
C-3
 70
     0
 62
     7
  6
Continuous
370
    -1
390
F
  0
LAYER
  5
40
330
2
100
AcDbSymbolTableRecord
100
AcDbLayerTableRecord
  2
C-1
 70
     0
 62
     7
  6
Continuous
370
    -1
390
F
  0
LAYER
  5
41
330
2
100
AcDbSymbolTableRecord
100
AcDbLayerTableRecord
  2
C-5
 70
     0
 62
     7
  6
Continuous
370
    -1
390
F
  0
LAYER
  5
42
330
2
100
AcDbSymbolTableRecord
100
AcDbLayerTableRecord
  2
C-A
 70
     0
 62
     7
  6
Continuous
370
    -1
390
F
  0
LAYER
  5
43
330
2
100
AcDbSymbolTableRecord
100
AcDbLayerTableRecord
  2
C-4
 70
     0
 62
     7
  6
Continuous
370
    -1
390
F
  0
LAYER
  5
44
330
2
100
AcDbSymbolTableRecord
100
AcDbLayerTableRecord
  2
D-9
 70
     0
 62
     7
  6
Continuous
370
    -1
390
F
  0
LAYER
  5
45
330
2
100
AcDbSymbolTableRecord
100
AcDbLayerTableRecord
  2
D-A
 70
     0
 62
     7
  6
Continuous
370
    -1
390
F
  0
LAYER
  5
46
330
2
100
AcDbSymbolTableRecord
100
AcDbLayerTableRecord
  2
D-4
 70
     0
 62
     7
  6
Continuous
370
    -1
390
F
  0
LAYER
  5
47
330
2
100
AcDbSymbolTableRecord
100
AcDbLayerTableRecord
  2
D-5
 70
     0
 62
     7
  6
Continuous
370
    -1
390
F
  0
LAYER
  5
48
330
2
100
AcDbSymbolTableRecord
100
AcDbLayerTableRecord
  2
D-6
 70
     0
 62
     7
  6
Continuous
370
    -1
390
F
  0
LAYER
  5
49
330
2
100
AcDbSymbolTableRecord
100
AcDbLayerTableRecord
  2
D-1
 70
     0
 62
     7
  6
Continuous
370
    -1
390
F
  0
LAYER
  5
4A
330
2
100
AcDbSymbolTableRecord
100
AcDbLayerTableRecord
  2
D-0
 70
     0
 62
     7
  6
Continuous
370
    -1
390
F
  0
LAYER
  5
4B
330
2
100
AcDbSymbolTableRecord
100
AcDbLayerTableRecord
  2
D-2
 70
     0
 62
     7
  6
Continuous
370
    -1
390
F
  0
LAYER
  5
4C
330
2
100
AcDbSymbolTableRecord
100
AcDbLayerTableRecord
  2
F-4ﾚｲﾔ
 70
     0
 62
     7
  6
Continuous
370
    -1
390
F
  0
ENDTAB
  0
TABLE
  2
STYLE
  5
3
330
0
100
AcDbSymbolTable
 70
     2
  0
STYLE
  5
11
330
3
100
AcDbSymbolTableRecord
100
AcDbTextStyleTableRecord
  2
Standard
 70
     0
 40
0.0
 41
1.0
 50
0.0
 71
     0
 42
2.5
  3
txt
  4

1001
ACAD
1000

1071
        0
  0
STYLE
  5
3B
330
3
100
AcDbSymbolTableRecord
100
AcDbTextStyleTableRecord
  2
ＭＳ ゴシック
 70
     0
 40
1.0
 41
1.0
 50
0.0
 71
     0
 42
10.0
  3

  4

1001
ACAD
1000
MS Gothic
1071
    32817
  0
ENDTAB
  0
TABLE
  2
VIEW
  5
6
330
0
100
AcDbSymbolTable
 70
     0
  0
ENDTAB
  0
TABLE
  2
UCS
  5
7
330
0
100
AcDbSymbolTable
 70
     0
  0
ENDTAB
  0
TABLE
  2
APPID
  5
9
330
0
100
AcDbSymbolTable
 70
     1
  0
APPID
  5
12
330
9
100
AcDbSymbolTableRecord
100
AcDbRegAppTableRecord
  2
ACAD
 70
     0
  0
ENDTAB
  0
TABLE
  2
DIMSTYLE
  5
A
330
0
100
AcDbSymbolTable
 70
     1
100
AcDbDimStyleTable
  0
DIMSTYLE
105
27
330
A
100
AcDbSymbolTableRecord
100
AcDbDimStyleTableRecord
  2
ISO-25
 70
     0
 41
2.5
 42
0.625
 43
3.75
 44
1.25
 73
     0
 74
     0
 77
     1
 78
     8
140
2.5
141
2.5
143
0.03937007874016
147
0.625
171
     3
172
     1
271
     2
272
     2
274
     3
278
    44
283
     0
284
     8
340
11
  0
ENDTAB
  0
TABLE
  2
BLOCK_RECORD
  5
1
330
0
100
AcDbSymbolTable
 70
     1
  0
BLOCK_RECORD
  5
1F
330
1
100
AcDbSymbolTableRecord
100
AcDbBlockTableRecord
  2
*Model_Space
340
22
  0
BLOCK_RECORD
  5
1B
330
1
100
AcDbSymbolTableRecord
100
AcDbBlockTableRecord
  2
*Paper_Space
340
1E
  0
BLOCK_RECORD
  5
23
330
1
100
AcDbSymbolTableRecord
100
AcDbBlockTableRecord
  2
*Paper_Space0
340
26
  0
ENDTAB
  0
ENDSEC
  0
SECTION
  2
BLOCKS
  0
BLOCK
  5
20
330
1F
100
AcDbEntity
  8
0
100
AcDbBlockBegin
  2
*Model_Space
 70
     0
 10
0.0
 20
0.0
 30
0.0
  3
*Model_Space
  1

  0
ENDBLK
  5
21
330
1F
100
AcDbEntity
  8
0
100
AcDbBlockEnd
  0
BLOCK
  5
1C
330
1B
100
AcDbEntity
 67
     1
  8
0
100
AcDbBlockBegin
  2
*Paper_Space
 70
     0
 10
0.0
 20
0.0
 30
0.0
  3
*Paper_Space
  1

  0
ENDBLK
  5
1D
330
1B
100
AcDbEntity
 67
     1
  8
0
100
AcDbBlockEnd
  0
BLOCK
  5
24
330
23
100
AcDbEntity
  8
0
100
AcDbBlockBegin
  2
*Paper_Space0
 70
     0
 10
0.0
 20
0.0
 30
0.0
  3
*Paper_Space0
  1

  0
ENDBLK
  5
25
330
23
100
AcDbEntity
  8
0
100
AcDbBlockEnd
  0
ENDSEC
  0
SECTION
  2
ENTITIES
  0
LINE
  5
4D
330
1F
100
AcDbEntity
  8
C-2
  6
Continuous
 62
     3
370
     9
100
AcDbLine
 10
-177.0940429584396
 20
929.8916477512669
 30
0.0
 11
-177.0940429584396
 21
479.8915104221655
 31
0.0
  0
LINE
  5
4E
330
1F
100
AcDbEntity
  8
C-2
  6
Continuous
 62
     3
370
     9
100
AcDbLine
 10
-177.0940429584396
 20
479.8915104221655
 30
0.0
 11
-627.094176472844
 21
479.8915104221655
 31
0.0
  0
LINE
  5
4F
330
1F
100
AcDbEntity
  8
C-3
  6
Continuous
 62
     2
370
     9
100
AcDbLine
 10
-176.0942260639084
 20
930.8917087864231
 30
0.0
 11
-176.0942260639084
 21
478.8914036106419
 31
0.0
  0
LINE
  5
50
330
1F
100
AcDbEntity
  8
C-3
  6
Continuous
 62
     2
370
     9
100
AcDbLine
 10
-176.0942260639084
 20
478.8914036106419
 30
0.0
 11
-628.0945274249923
 21
478.8914036106419
 31
0.0
  0
LINE
  5
51
330
1F
100
AcDbEntity
  8
C-2
  6
Continuous
 62
     3
370
     9
100
AcDbLine
 10
-627.094176472844
 20
479.8915104221655
 30
0.0
 11
-627.094176472844
 21
929.8916477512669
 31
0.0
  0
LINE
  5
52
330
1F
100
AcDbEntity
  8
C-2
  6
Continuous
 62
     3
370
     9
100
AcDbLine
 10
-177.0940429584396
 20
929.8916477512669
 30
0.0
 11
-627.094176472844
 21
929.8916477512669
 31
0.0
  0
LINE
  5
53
330
1F
100
AcDbEntity
  8
C-3
  6
Continuous
 62
     2
370
     9
100
AcDbLine
 10
-176.0942260639084
 20
930.8917087864231
 30
0.0
 11
-628.0945274249923
 21
930.8917087864231
 31
0.0
  0
LINE
  5
54
330
1F
100
AcDbEntity
  8
C-3
  6
Continuous
 62
     2
370
     9
100
AcDbLine
 10
-628.0945274249923
 20
478.8914036106419
 30
0.0
 11
-628.0945274249923
 21
930.8917087864231
 31
0.0
  0
LINE
  5
55
330
1F
100
AcDbEntity
  8
C-1
  6
JWW_DASHED3
 62
     2
370
     9
100
AcDbLine
 10
-202.0939208881271
 20
904.8915256809545
 30
0.0
 11
-202.0939208881271
 21
504.8916324924778
 31
0.0
  0
LINE
  5
56
330
1F
100
AcDbEntity
  8
C-1
  6
JWW_DASHED3
 62
     2
370
     9
100
AcDbLine
 10
-202.0939208881271
 20
504.8916324924778
 30
0.0
 11
-602.0943099872483
 21
504.8916324924778
 31
0.0
  0
LINE
  5
57
330
1F
100
AcDbEntity
  8
C-1
  6
JWW_DASHED3
 62
     2
370
     9
100
AcDbLine
 10
-202.0939208881271
 20
904.8915256809545
 30
0.0
 11
-602.0943099872483
 21
904.8915256809545
 31
0.0
  0
LINE
  5
58
330
1F
100
AcDbEntity
  8
C-1
  6
JWW_DASHED3
 62
     2
370
     9
100
AcDbLine
 10
-602.0943099872483
 20
504.8916324924778
 30
0.0
 11
-602.0943099872483
 21
904.8915256809545
 31
0.0
  0
LINE
  5
59
330
1F
100
AcDbEntity
  8
C-5
  6
Continuous
 62
     7
370
     9
100
AcDbLine
 10
-114.5936767475021
 20
371.8914493870091
 30
0.0
 11
-114.5936767475021
 21
306.8918918918919
 31
0.0
  0
LINE
  5
5A
330
1F
100
AcDbEntity
  8
C-5
  6
Continuous
 62
     7
370
     9
100
AcDbLine
 10
-114.5936767475021
 20
306.8918918918919
 30
0.0
 11
-689.5945922748458
 21
306.8918918918919
 31
0.0
  0
LINE
  5
5B
330
1F
100
AcDbEntity
  8
C-5
  6
Continuous
 62
     7
370
     9
100
AcDbLine
 10
-689.5945922748458
 20
371.8914493870091
 30
0.0
 11
-114.5936767475021
 21
371.8914493870091
 31
0.0
  0
LINE
  5
5C
330
1F
100
AcDbEntity
  8
C-5
  6
Continuous
 62
     7
370
     9
100
AcDbLine
 10
-689.5945922748458
 20
306.8918918918919
 30
0.0
 11
-689.5945922748458
 21
371.8914493870091
 31
0.0
  0
LINE
  5
5D
330
1F
100
AcDbEntity
  8
C-A
  6
Continuous
 62
     3
370
     9
100
AcDbLine
 10
-177.0940429584396
 20
926.8915867161106
 30
0.0
 11
-627.094176472844
 21
926.8915867161106
 31
0.0
  0
LINE
  5
5E
330
1F
100
AcDbEntity
  8
C-A
  6
Continuous
 62
     3
370
     9
100
AcDbLine
 10
-435.0935851947678
 20
926.8915867161106
 30
0.0
 11
-435.0935851947678
 21
482.8920749973608
 31
0.0
  0
LINE
  5
5F
330
1F
100
AcDbEntity
  8
C-A
  6
Continuous
 62
     3
370
     9
100
AcDbLine
 10
-429.0934631244552
 20
926.8915867161106
 30
0.0
 11
-429.0934631244552
 21
482.8920749973608
 31
0.0
  0
LINE
  5
60
330
1F
100
AcDbEntity
  8
C-A
  6
Continuous
 62
     3
370
     9
100
AcDbLine
 10
-450.093890370549
 20
926.8915867161106
 30
0.0
 11
-450.093890370549
 21
482.8920749973608
 31
0.0
  0
LINE
  5
61
330
1F
100
AcDbEntity
  8
C-A
  6
Continuous
 62
     3
370
     9
100
AcDbLine
 10
-444.0937683002364
 20
926.8915867161106
 30
0.0
 11
-444.0937683002364
 21
482.8920749973608
 31
0.0
  0
LINE
  5
62
330
1F
100
AcDbEntity
  8
C-A
  6
Continuous
 62
     3
370
     9
100
AcDbLine
 10
-465.0937225238692
 20
926.8915867161106
 30
0.0
 11
-465.0937225238692
 21
482.8920749973608
 31
0.0
  0
LINE
  5
63
330
1F
100
AcDbEntity
  8
C-A
  6
Continuous
 62
     3
370
     9
100
AcDbLine
 10
-459.0935851947677
 20
926.8915867161106
 30
0.0
 11
-459.0935851947677
 21
482.8920749973608
 31
0.0
  0
LINE
  5
64
330
1F
100
AcDbEntity
  8
C-A
  6
Continuous
 62
     3
370
     9
100
AcDbLine
 10
-480.0935394184006
 20
926.8915867161106
 30
0.0
 11
-480.0935394184006
 21
482.8920749973608
 31
0.0
  0
LINE
  5
65
330
1F
100
AcDbEntity
  8
C-A
  6
Continuous
 62
     3
370
     9
100
AcDbLine
 10
-474.0934173480881
 20
926.8915867161106
 30
0.0
 11
-474.0934173480881
 21
482.8920749973608
 31
0.0
  0
LINE
  5
66
330
1F
100
AcDbEntity
  8
C-A
  6
Continuous
 62
     3
370
     9
100
AcDbLine
 10
-495.0938598529709
 20
926.8915867161106
 30
0.0
 11
-495.0938598529709
 21
482.8920749973608
 31
0.0
  0
LINE
  5
67
330
1F
100
AcDbEntity
  8
C-A
  6
Continuous
 62
     3
370
     9
100
AcDbLine
 10
-489.0937377826583
 20
926.8915867161106
 30
0.0
 11
-489.0937377826583
 21
482.8920749973608
 31
0.0
  0
LINE
  5
68
330
1F
100
AcDbEntity
  8
C-A
  6
Continuous
 62
     3
370
     9
100
AcDbLine
 10
-510.0936767475021
 20
926.8915867161106
 30
0.0
 11
-510.0936767475021
 21
482.8920749973608
 31
0.0
  0
LINE
  5
69
330
1F
100
AcDbEntity
  8
C-A
  6
Continuous
 62
     3
370
     9
100
AcDbLine
 10
-504.0935546771896
 20
926.8915867161106
 30
0.0
 11
-504.0935546771896
 21
482.8920749973608
 31
0.0
  0
LINE
  5
6A
330
1F
100
AcDbEntity
  8
C-A
  6
Continuous
 62
     3
370
     9
100
AcDbLine
 10
-525.0939971820724
 20
926.8915867161106
 30
0.0
 11
-525.0939971820724
 21
482.8920749973608
 31
0.0
  0
LINE
  5
6B
330
1F
100
AcDbEntity
  8
C-A
  6
Continuous
 62
     3
370
     9
100
AcDbLine
 10
-519.0938751117599
 20
926.8915867161106
 30
0.0
 11
-519.0938751117599
 21
482.8920749973608
 31
0.0
  0
LINE
  5
6C
330
1F
100
AcDbEntity
  8
C-A
  6
Continuous
 62
     3
370
     9
100
AcDbLine
 10
-540.0938140766037
 20
926.8915867161106
 30
0.0
 11
-540.0938140766037
 21
482.8920749973608
 31
0.0
  0
LINE
  5
6D
330
1F
100
AcDbEntity
  8
C-A
  6
Continuous
 62
     3
370
     9
100
AcDbLine
 10
-534.0936920062911
 20
926.8915867161106
 30
0.0
 11
-534.0936920062911
 21
482.8920749973608
 31
0.0
  0
LINE
  5
6E
330
1F
100
AcDbEntity
  8
C-A
  6
Continuous
 62
     3
370
     9
100
AcDbLine
 10
-555.0936462299239
 20
926.8915867161106
 30
0.0
 11
-555.0936462299239
 21
482.8920749973608
 31
0.0
  0
LINE
  5
6F
330
1F
100
AcDbEntity
  8
C-A
  6
Continuous
 62
     3
370
     9
100
AcDbLine
 10
-549.0935089008224
 20
926.8915867161106
 30
0.0
 11
-549.0935089008224
 21
482.8920749973608
 31
0.0
  0
LINE
  5
70
330
1F
100
AcDbEntity
  8
C-A
  6
Continuous
 62
     3
370
     9
100
AcDbLine
 10
-570.0939590350998
 20
926.8915867161106
 30
0.0
 11
-570.0939590350998
 21
482.8920749973608
 31
0.0
  0
LINE
  5
71
330
1F
100
AcDbEntity
  8
C-A
  6
Continuous
 62
     3
370
     9
100
AcDbLine
 10
-564.0938369647872
 20
926.8915867161106
 30
0.0
 11
-564.0938369647872
 21
482.8920749973608
 31
0.0
  0
LINE
  5
72
330
1F
100
AcDbEntity
  8
C-A
  6
Continuous
 62
     3
370
     9
100
AcDbLine
 10
-585.0937835590255
 20
926.8915867161106
 30
0.0
 11
-585.0937835590255
 21
482.8920749973608
 31
0.0
  0
LINE
  5
73
330
1F
100
AcDbEntity
  8
C-A
  6
Continuous
 62
     3
370
     9
100
AcDbLine
 10
-579.0936538593185
 20
926.8915867161106
 30
0.0
 11
-579.0936538593185
 21
482.8920749973608
 31
0.0
  0
LINE
  5
74
330
1F
100
AcDbEntity
  8
C-A
  6
Continuous
 62
     3
370
     9
100
AcDbLine
 10
-600.0941039935958
 20
926.8915867161106
 30
0.0
 11
-600.0941039935958
 21
482.8920749973608
 31
0.0
  0
LINE
  5
75
330
1F
100
AcDbEntity
  8
C-A
  6
Continuous
 62
     3
370
     9
100
AcDbLine
 10
-594.0939742938889
 20
926.8915867161106
 30
0.0
 11
-594.0939742938889
 21
482.8920749973608
 31
0.0
  0
LINE
  5
76
330
1F
100
AcDbEntity
  8
C-A
  6
Continuous
 62
     3
370
     9
100
AcDbLine
 10
-615.0939208881272
 20
926.8915867161106
 30
0.0
 11
-615.0939208881272
 21
482.8920749973608
 31
0.0
  0
LINE
  5
77
330
1F
100
AcDbEntity
  8
C-A
  6
Continuous
 62
     3
370
     9
100
AcDbLine
 10
-609.0937988178146
 20
926.8915867161106
 30
0.0
 11
-609.0937988178146
 21
482.8920749973608
 31
0.0
  0
LINE
  5
78
330
1F
100
AcDbEntity
  8
C-A
  6
Continuous
 62
     3
370
     9
100
AcDbLine
 10
-621.0940505878341
 20
482.8920749973608
 30
0.0
 11
-621.0940505878341
 21
926.8915867161106
 31
0.0
  0
LINE
  5
79
330
1F
100
AcDbEntity
  8
C-5
  6
Continuous
 62
     7
370
     9
100
AcDbLine
 10
-473.942294301213
 20
527.5246433567359
 30
0.0
 11
-273.9413635150802
 21
527.5246433567359
 31
0.0
  0
LINE
  5
7A
330
1F
100
AcDbEntity
  8
C-5
  6
Continuous
 62
     7
370
     9
100
AcDbLine
 10
-273.9413635150802
 20
527.5246433567359
 30
0.0
 11
-273.9413635150802
 21
617.2897190403294
 31
0.0
  0
LINE
  5
7B
330
1F
100
AcDbEntity
  8
C-5
  6
Continuous
 62
     7
370
     9
100
AcDbLine
 10
-273.9413635150802
 20
617.2897190403294
 30
0.0
 11
-253.9422485248458
 21
567.2899631809546
 31
0.0
  0
LINE
  5
7C
330
1F
100
AcDbEntity
  8
C-5
  6
Continuous
 62
     7
370
     9
100
AcDbLine
 10
-253.9422485248458
 20
567.2899631809546
 30
0.0
 11
-284.2084838764083
 21
567.2899631809546
 31
0.0
  0
LINE
  5
7D
330
1F
100
AcDbEntity
  8
C-A
  6
Continuous
 62
     3
370
     9
100
AcDbLine
 10
-424.0941650287521
 20
482.8920749973608
 30
0.0
 11
-627.094176472844
 21
482.8920749973608
 31
0.0
  0
LINE
  5
7E
330
1F
100
AcDbEntity
  8
C-A
  6
Continuous
 62
     3
370
     9
100
AcDbLine
 10
-195.0939514057052
 20
926.8915867161106
 30
0.0
 11
-195.0939514057052
 21
711.8915561985327
 31
0.0
  0
LINE
  5
7F
330
1F
100
AcDbEntity
  8
C-A
  6
Continuous
 62
     3
370
     9
100
AcDbLine
 10
-189.0938293353927
 20
926.8915867161106
 30
0.0
 11
-189.0938293353927
 21
717.891678268845
 31
0.0
  0
LINE
  5
80
330
1F
100
AcDbEntity
  8
C-A
  6
Continuous
 62
     3
370
     9
100
AcDbLine
 10
-210.0937683002365
 20
926.8915867161106
 30
0.0
 11
-210.0937683002365
 21
696.8917393040012
 31
0.0
  0
LINE
  5
81
330
1F
100
AcDbEntity
  8
C-A
  6
Continuous
 62
     3
370
     9
100
AcDbLine
 10
-204.093646229924
 20
926.8915867161106
 30
0.0
 11
-204.093646229924
 21
702.8918613743139
 31
0.0
  0
LINE
  5
82
330
1F
100
AcDbEntity
  8
C-A
  6
Continuous
 62
     3
370
     9
100
AcDbLine
 10
-219.0939514057052
 20
926.8915867161106
 30
0.0
 11
-219.0939514057052
 21
687.8915256809544
 31
0.0
  0
LINE
  5
83
330
1F
100
AcDbEntity
  8
C-A
  6
Continuous
 62
     3
370
     9
100
AcDbLine
 10
-240.0939208881271
 20
926.8915867161106
 30
0.0
 11
-240.0939208881271
 21
666.8918308567356
 31
0.0
  0
LINE
  5
84
330
1F
100
AcDbEntity
  8
C-A
  6
Continuous
 62
     3
370
     9
100
AcDbLine
 10
-234.0937683002365
 20
926.8915867161106
 30
0.0
 11
-234.0937683002365
 21
672.8919529270481
 31
0.0
  0
LINE
  5
85
330
1F
100
AcDbEntity
  8
C-A
  6
Continuous
 62
     3
370
     9
100
AcDbLine
 10
-255.0942260639084
 20
926.8915867161106
 30
0.0
 11
-255.0942260639084
 21
651.8915256809544
 31
0.0
  0
LINE
  5
86
330
1F
100
AcDbEntity
  8
C-A
  6
Continuous
 62
     3
370
     9
100
AcDbLine
 10
-249.0941039935959
 20
926.8915867161106
 30
0.0
 11
-249.0941039935959
 21
657.8916477512669
 31
0.0
  0
LINE
  5
87
330
1F
100
AcDbEntity
  8
C-A
  6
Continuous
 62
     3
370
     9
100
AcDbLine
 10
-270.0940429584396
 20
926.8915867161106
 30
0.0
 11
-270.0940429584396
 21
636.8917087864234
 31
0.0
  0
LINE
  5
88
330
1F
100
AcDbEntity
  8
C-A
  6
Continuous
 62
     3
370
     9
100
AcDbLine
 10
-264.0939208881271
 20
926.8915867161106
 30
0.0
 11
-264.0939208881271
 21
642.8918308567356
 31
0.0
  0
LINE
  5
89
330
1F
100
AcDbEntity
  8
C-A
  6
Continuous
 62
     3
370
     9
100
AcDbLine
 10
-285.0938598529709
 20
926.8915867161106
 30
0.0
 11
-285.0938598529709
 21
621.891861374314
 31
0.0
  0
LINE
  5
8A
330
1F
100
AcDbEntity
  8
C-A
  6
Continuous
 62
     3
370
     9
100
AcDbLine
 10
-279.0937377826583
 20
926.8915867161106
 30
0.0
 11
-279.0937377826583
 21
627.8920139622045
 31
0.0
  0
LINE
  5
8B
330
1F
100
AcDbEntity
  8
C-A
  6
Continuous
 62
     3
370
     9
100
AcDbLine
 10
-300.0937072650802
 20
926.8915867161106
 30
0.0
 11
-300.0937072650802
 21
606.8920444797825
 31
0.0
  0
LINE
  5
8C
330
1F
100
AcDbEntity
  8
C-A
  6
Continuous
 62
     3
370
     9
100
AcDbLine
 10
-294.0935546771896
 20
926.8915867161106
 30
0.0
 11
-294.0935546771896
 21
612.8921665500951
 31
0.0
  0
LINE
  5
8D
330
1F
100
AcDbEntity
  8
C-A
  6
Continuous
 62
     3
370
     9
100
AcDbLine
 10
-315.0935241596114
 20
926.8915867161106
 30
0.0
 11
-315.0935241596114
 21
591.8922275852512
 31
0.0
  0
LINE
  5
8E
330
1F
100
AcDbEntity
  8
C-A
  6
Continuous
 62
     3
370
     9
100
AcDbLine
 10
-309.093402089299
 20
926.8915867161106
 30
0.0
 11
-309.093402089299
 21
597.8923496555637
 31
0.0
  0
LINE
  5
8F
330
1F
100
AcDbEntity
  8
C-A
  6
Continuous
 62
     3
370
     9
100
AcDbLine
 10
-330.0938293353927
 20
926.8915867161106
 30
0.0
 11
-330.0938293353927
 21
576.89192240947
 31
0.0
  0
LINE
  5
90
330
1F
100
AcDbEntity
  8
C-A
  6
Continuous
 62
     3
370
     9
100
AcDbLine
 10
-324.0937072650802
 20
926.8915867161106
 30
0.0
 11
-324.0937072650802
 21
582.8920444797825
 31
0.0
  0
LINE
  5
91
330
1F
100
AcDbEntity
  8
C-A
  6
Continuous
 62
     3
370
     9
100
AcDbLine
 10
-345.093646229924
 20
926.8915867161106
 30
0.0
 11
-345.093646229924
 21
561.8920902561499
 31
0.0
  0
LINE
  5
92
330
1F
100
AcDbEntity
  8
C-A
  6
Continuous
 62
     3
370
     9
100
AcDbLine
 10
-339.0935241596114
 20
926.8915867161106
 30
0.0
 11
-339.0935241596114
 21
567.8922275852515
 31
0.0
  0
LINE
  5
93
330
1F
100
AcDbEntity
  8
C-A
  6
Continuous
 62
     3
370
     9
100
AcDbLine
 10
-360.0934631244552
 20
926.8915867161106
 30
0.0
 11
-360.0934631244552
 21
546.8922733616184
 31
0.0
  0
LINE
  5
94
330
1F
100
AcDbEntity
  8
C-A
  6
Continuous
 62
     3
370
     9
100
AcDbLine
 10
-375.0937988178146
 20
926.8915867161106
 30
0.0
 11
-375.0937988178146
 21
531.8919529270482
 31
0.0
  0
LINE
  5
95
330
1F
100
AcDbEntity
  8
C-A
  6
Continuous
 62
     3
370
     9
100
AcDbLine
 10
-369.0936767475021
 20
926.8915867161106
 30
0.0
 11
-369.0936767475021
 21
537.8923191379857
 31
0.0
  0
LINE
  5
96
330
1F
100
AcDbEntity
  8
C-A
  6
Continuous
 62
     3
370
     9
100
AcDbLine
 10
-390.0936157123459
 20
926.8915867161106
 30
0.0
 11
-390.0936157123459
 21
516.8923801731419
 31
0.0
  0
LINE
  5
97
330
1F
100
AcDbEntity
  8
C-A
  6
Continuous
 62
     3
370
     9
100
AcDbLine
 10
-384.0934936420334
 20
926.8915867161106
 30
0.0
 11
-384.0934936420334
 21
522.8925022434544
 31
0.0
  0
LINE
  5
98
330
1F
100
AcDbEntity
  8
C-A
  6
Continuous
 62
     3
370
     9
100
AcDbLine
 10
-405.0939208881271
 20
926.8915867161106
 30
0.0
 11
-405.0939208881271
 21
501.8920597385716
 31
0.0
  0
LINE
  5
99
330
1F
100
AcDbEntity
  8
C-A
  6
Continuous
 62
     3
370
     9
100
AcDbLine
 10
-399.0937988178146
 20
926.8915867161106
 30
0.0
 11
-399.0937988178146
 21
507.8921818088841
 31
0.0
  0
LINE
  5
9A
330
1F
100
AcDbEntity
  8
C-A
  6
Continuous
 62
     3
370
     9
100
AcDbLine
 10
-420.0937683002365
 20
926.8915867161106
 30
0.0
 11
-420.0937683002365
 21
486.8922275852512
 31
0.0
  0
LINE
  5
9B
330
1F
100
AcDbEntity
  8
C-A
  6
Continuous
 62
     3
370
     9
100
AcDbLine
 10
-414.0936157123458
 20
926.8915867161106
 30
0.0
 11
-414.0936157123458
 21
492.8923649143528
 31
0.0
  0
LINE
  5
9C
330
1F
100
AcDbEntity
  8
C-A
  6
Continuous
 62
     6
370
     5
100
AcDbLine
 10
-614.5939971820724
 20
921.0256809543919
 30
0.0
 11
-614.5939971820724
 21
925.0256199192356
 31
0.0
  0
LINE
  5
9D
330
1F
100
AcDbEntity
  8
C-A
  6
Continuous
 62
     6
370
     5
100
AcDbLine
 10
-614.5939971820724
 20
925.0256199192356
 30
0.0
 11
-609.5937225238692
 21
923.5258640598607
 31
0.0
  0
LINE
  5
9E
330
1F
100
AcDbEntity
  8
C-A
  6
Continuous
 62
     6
370
     5
100
AcDbLine
 10
-609.5937225238692
 20
922.5259861301731
 30
0.0
 11
-609.5937225238692
 21
923.5258640598607
 31
0.0
  0
LINE
  5
9F
330
1F
100
AcDbEntity
  8
C-A
  6
Continuous
 62
     6
370
     5
100
AcDbLine
 10
-609.5937225238692
 20
922.5259861301731
 30
0.0
 11
-614.5939971820724
 21
921.0256809543919
 31
0.0
  0
LINE
  5
A0
330
1F
100
AcDbEntity
  8
C-A
  6
Continuous
 62
     6
370
     5
100
AcDbLine
 10
-609.0937988178146
 20
922.1539158176731
 30
0.0
 11
-615.0939208881272
 21
920.3538669895482
 31
0.0
  0
LINE
  5
A1
330
1F
100
AcDbEntity
  8
C-A
  6
Continuous
 62
     6
370
     5
100
AcDbLine
 10
-615.0939208881272
 20
925.6979832004856
 30
0.0
 11
-609.0937988178146
 21
923.8979343723609
 31
0.0
  0
LINE
  5
A2
330
1F
100
AcDbEntity
  8
C-A
  6
Continuous
 62
     6
370
     5
100
AcDbLine
 10
-614.5939971820724
 20
900.0257419895481
 30
0.0
 11
-614.5939971820724
 21
904.0256809543919
 31
0.0
  0
LINE
  5
A3
330
1F
100
AcDbEntity
  8
C-A
  6
Continuous
 62
     6
370
     5
100
AcDbLine
 10
-614.5939971820724
 20
904.0256809543919
 30
0.0
 11
-609.5937225238692
 21
902.5258640598609
 31
0.0
  0
LINE
  5
A4
330
1F
100
AcDbEntity
  8
C-A
  6
Continuous
 62
     6
370
     5
100
AcDbLine
 10
-609.5937225238692
 20
901.5260471653295
 30
0.0
 11
-609.5937225238692
 21
902.5258640598609
 31
0.0
  0
LINE
  5
A5
330
1F
100
AcDbEntity
  8
C-A
  6
Continuous
 62
     6
370
     5
100
AcDbLine
 10
-609.5937225238692
 20
901.5260471653295
 30
0.0
 11
-614.5939971820724
 21
900.0257419895481
 31
0.0
  0
LINE
  5
A6
330
1F
100
AcDbEntity
  8
C-A
  6
Continuous
 62
     6
370
     5
100
AcDbLine
 10
-609.0937988178146
 20
901.1539158176731
 30
0.0
 11
-615.0939208881272
 21
899.3539280247044
 31
0.0
  0
LINE
  5
A7
330
1F
100
AcDbEntity
  8
C-A
  6
Continuous
 62
     6
370
     5
100
AcDbLine
 10
-615.0939208881272
 20
904.698044235642
 30
0.0
 11
-609.0937988178146
 21
902.8979954075169
 31
0.0
  0
LINE
  5
A8
330
1F
100
AcDbEntity
  8
C-A
  6
Continuous
 62
     6
370
     5
100
AcDbLine
 10
-609.5937225238692
 20
910.5257419895484
 30
0.0
 11
-609.5937225238692
 21
914.5256199192357
 31
0.0
  0
LINE
  5
A9
330
1F
100
AcDbEntity
  8
C-A
  6
Continuous
 62
     6
370
     5
100
AcDbLine
 10
-609.5937225238692
 20
914.5256199192357
 30
0.0
 11
-614.5939971820724
 21
913.0258640598606
 31
0.0
  0
LINE
  5
AA
330
1F
100
AcDbEntity
  8
C-A
  6
Continuous
 62
     6
370
     5
100
AcDbLine
 10
-614.5939971820724
 20
912.0259861301734
 30
0.0
 11
-614.5939971820724
 21
913.0258640598606
 31
0.0
  0
LINE
  5
AB
330
1F
100
AcDbEntity
  8
C-A
  6
Continuous
 62
     6
370
     5
100
AcDbLine
 10
-614.5939971820724
 20
912.0259861301734
 30
0.0
 11
-609.5937225238692
 21
910.5257419895484
 31
0.0
  0
LINE
  5
AC
330
1F
100
AcDbEntity
  8
C-A
  6
Continuous
 62
     6
370
     5
100
AcDbLine
 10
-615.0939208881272
 20
911.6539158176732
 30
0.0
 11
-609.0937988178146
 21
909.8538669895481
 31
0.0
  0
LINE
  5
AD
330
1F
100
AcDbEntity
  8
C-A
  6
Continuous
 62
     6
370
     5
100
AcDbLine
 10
-609.0937988178146
 20
915.1979832004859
 30
0.0
 11
-615.0939208881272
 21
913.3979343723606
 31
0.0
  0
LINE
  5
AE
330
1F
100
AcDbEntity
  8
C-A
  6
Continuous
 62
     6
370
     5
100
AcDbLine
 10
-614.5939971820724
 20
879.0258030247046
 30
0.0
 11
-614.5939971820724
 21
883.0257419895484
 31
0.0
  0
LINE
  5
AF
330
1F
100
AcDbEntity
  8
C-A
  6
Continuous
 62
     6
370
     5
100
AcDbLine
 10
-614.5939971820724
 20
883.0257419895484
 30
0.0
 11
-609.5937225238692
 21
881.5259250950169
 31
0.0
  0
LINE
  5
B0
330
1F
100
AcDbEntity
  8
C-A
  6
Continuous
 62
     6
370
     5
100
AcDbLine
 10
-609.5937225238692
 20
880.5261082004856
 30
0.0
 11
-609.5937225238692
 21
881.5259250950169
 31
0.0
  0
LINE
  5
B1
330
1F
100
AcDbEntity
  8
C-A
  6
Continuous
 62
     6
370
     5
100
AcDbLine
 10
-609.5937225238692
 20
880.5261082004856
 30
0.0
 11
-614.5939971820724
 21
879.0258030247046
 31
0.0
  0
LINE
  5
B2
330
1F
100
AcDbEntity
  8
C-A
  6
Continuous
 62
     6
370
     5
100
AcDbLine
 10
-609.0937988178146
 20
880.1539768528295
 30
0.0
 11
-615.0939208881272
 21
878.3539280247044
 31
0.0
  0
LINE
  5
B3
330
1F
100
AcDbEntity
  8
C-A
  6
Continuous
 62
     6
370
     5
100
AcDbLine
 10
-615.0939208881272
 20
883.6981052707981
 30
0.0
 11
-609.0937988178146
 21
881.8980564426732
 31
0.0
  0
LINE
  5
B4
330
1F
100
AcDbEntity
  8
C-A
  6
Continuous
 62
     6
370
     5
100
AcDbLine
 10
-609.5937225238692
 20
889.5258030247044
 30
0.0
 11
-609.5937225238692
 21
893.5256809543919
 31
0.0
  0
LINE
  5
B5
330
1F
100
AcDbEntity
  8
C-A
  6
Continuous
 62
     6
370
     5
100
AcDbLine
 10
-609.5937225238692
 20
893.5256809543919
 30
0.0
 11
-614.5939971820724
 21
892.025925095017
 31
0.0
  0
LINE
  5
B6
330
1F
100
AcDbEntity
  8
C-A
  6
Continuous
 62
     6
370
     5
100
AcDbLine
 10
-614.5939971820724
 20
891.0260471653294
 30
0.0
 11
-614.5939971820724
 21
892.025925095017
 31
0.0
  0
LINE
  5
B7
330
1F
100
AcDbEntity
  8
C-A
  6
Continuous
 62
     6
370
     5
100
AcDbLine
 10
-614.5939971820724
 20
891.0260471653294
 30
0.0
 11
-609.5937225238692
 21
889.5258030247044
 31
0.0
  0
LINE
  5
B8
330
1F
100
AcDbEntity
  8
C-A
  6
Continuous
 62
     6
370
     5
100
AcDbLine
 10
-615.0939208881272
 20
890.6539768528294
 30
0.0
 11
-609.0937988178146
 21
888.8539280247045
 31
0.0
  0
LINE
  5
B9
330
1F
100
AcDbEntity
  8
C-A
  6
Continuous
 62
     6
370
     5
100
AcDbLine
 10
-609.0937988178146
 20
894.1980442356419
 30
0.0
 11
-615.0939208881272
 21
892.3979954075171
 31
0.0
  0
LINE
  5
BA
330
1F
100
AcDbEntity
  8
C-A
  6
Continuous
 62
     6
370
     5
100
AcDbLine
 10
-614.5939971820724
 20
858.0258640598606
 30
0.0
 11
-614.5939971820724
 21
862.0258030247044
 31
0.0
  0
LINE
  5
BB
330
1F
100
AcDbEntity
  8
C-A
  6
Continuous
 62
     6
370
     5
100
AcDbLine
 10
-614.5939971820724
 20
862.0258030247044
 30
0.0
 11
-609.5937225238692
 21
860.5259861301732
 31
0.0
  0
LINE
  5
BC
330
1F
100
AcDbEntity
  8
C-A
  6
Continuous
 62
     6
370
     5
100
AcDbLine
 10
-609.5937225238692
 20
859.5261082004856
 30
0.0
 11
-609.5937225238692
 21
860.5259861301732
 31
0.0
  0
LINE
  5
BD
330
1F
100
AcDbEntity
  8
C-A
  6
Continuous
 62
     6
370
     5
100
AcDbLine
 10
-609.5937225238692
 20
859.5261082004856
 30
0.0
 11
-614.5939971820724
 21
858.0258640598606
 31
0.0
  0
LINE
  5
BE
330
1F
100
AcDbEntity
  8
C-A
  6
Continuous
 62
     6
370
     5
100
AcDbLine
 10
-609.0937988178146
 20
859.1540378879856
 30
0.0
 11
-615.0939208881272
 21
857.3539890598607
 31
0.0
  0
LINE
  5
BF
330
1F
100
AcDbEntity
  8
C-A
  6
Continuous
 62
     6
370
     5
100
AcDbLine
 10
-615.0939208881272
 20
862.6981052707981
 30
0.0
 11
-609.0937988178146
 21
860.8981174778294
 31
0.0
  0
LINE
  5
C0
330
1F
100
AcDbEntity
  8
C-A
  6
Continuous
 62
     6
370
     5
100
AcDbLine
 10
-609.5937225238692
 20
868.5258030247044
 30
0.0
 11
-609.5937225238692
 21
872.5257419895481
 31
0.0
  0
LINE
  5
C1
330
1F
100
AcDbEntity
  8
C-A
  6
Continuous
 62
     6
370
     5
100
AcDbLine
 10
-609.5937225238692
 20
872.5257419895481
 30
0.0
 11
-614.5939971820724
 21
871.0259861301731
 31
0.0
  0
LINE
  5
C2
330
1F
100
AcDbEntity
  8
C-A
  6
Continuous
 62
     6
370
     5
100
AcDbLine
 10
-614.5939971820724
 20
870.0261082004857
 30
0.0
 11
-614.5939971820724
 21
871.0259861301731
 31
0.0
  0
LINE
  5
C3
330
1F
100
AcDbEntity
  8
C-A
  6
Continuous
 62
     6
370
     5
100
AcDbLine
 10
-614.5939971820724
 20
870.0261082004857
 30
0.0
 11
-609.5937225238692
 21
868.5258030247044
 31
0.0
  0
LINE
  5
C4
330
1F
100
AcDbEntity
  8
C-A
  6
Continuous
 62
     6
370
     5
100
AcDbLine
 10
-615.0939208881272
 20
869.6540378879856
 30
0.0
 11
-609.0937988178146
 21
867.8539890598606
 31
0.0
  0
LINE
  5
C5
330
1F
100
AcDbEntity
  8
C-A
  6
Continuous
 62
     6
370
     5
100
AcDbLine
 10
-609.0937988178146
 20
873.1981052707982
 30
0.0
 11
-615.0939208881272
 21
871.3980564426731
 31
0.0
  0
LINE
  5
C6
330
1F
100
AcDbEntity
  8
C-A
  6
Continuous
 62
     6
370
     5
100
AcDbLine
 10
-614.5939971820724
 20
837.025925095017
 30
0.0
 11
-614.5939971820724
 21
841.0258030247044
 31
0.0
  0
LINE
  5
C7
330
1F
100
AcDbEntity
  8
C-A
  6
Continuous
 62
     6
370
     5
100
AcDbLine
 10
-614.5939971820724
 20
841.0258030247044
 30
0.0
 11
-609.5937225238692
 21
839.5260471653294
 31
0.0
  0
LINE
  5
C8
330
1F
100
AcDbEntity
  8
C-A
  6
Continuous
 62
     6
370
     5
100
AcDbLine
 10
-609.5937225238692
 20
838.526169235642
 30
0.0
 11
-609.5937225238692
 21
839.5260471653294
 31
0.0
  0
LINE
  5
C9
330
1F
100
AcDbEntity
  8
C-A
  6
Continuous
 62
     6
370
     5
100
AcDbLine
 10
-609.5937225238692
 20
838.526169235642
 30
0.0
 11
-614.5939971820724
 21
837.025925095017
 31
0.0
  0
LINE
  5
CA
330
1F
100
AcDbEntity
  8
C-A
  6
Continuous
 62
     6
370
     5
100
AcDbLine
 10
-609.0937988178146
 20
838.1540989231419
 30
0.0
 11
-615.0939208881272
 21
836.3540500950169
 31
0.0
  0
LINE
  5
CB
330
1F
100
AcDbEntity
  8
C-A
  6
Continuous
 62
     6
370
     5
100
AcDbLine
 10
-615.0939208881272
 20
841.6981663059545
 30
0.0
 11
-609.0937988178146
 21
839.8981174778294
 31
0.0
  0
LINE
  5
CC
330
1F
100
AcDbEntity
  8
C-A
  6
Continuous
 62
     6
370
     5
100
AcDbLine
 10
-609.5937225238692
 20
847.5258640598609
 30
0.0
 11
-609.5937225238692
 21
851.5258030247046
 31
0.0
  0
LINE
  5
CD
330
1F
100
AcDbEntity
  8
C-A
  6
Continuous
 62
     6
370
     5
100
AcDbLine
 10
-609.5937225238692
 20
851.5258030247046
 30
0.0
 11
-614.5939971820724
 21
850.0260471653294
 31
0.0
  0
LINE
  5
CE
330
1F
100
AcDbEntity
  8
C-A
  6
Continuous
 62
     6
370
     5
100
AcDbLine
 10
-614.5939971820724
 20
849.0261692356419
 30
0.0
 11
-614.5939971820724
 21
850.0260471653294
 31
0.0
  0
LINE
  5
CF
330
1F
100
AcDbEntity
  8
C-A
  6
Continuous
 62
     6
370
     5
100
AcDbLine
 10
-614.5939971820724
 20
849.0261692356419
 30
0.0
 11
-609.5937225238692
 21
847.5258640598609
 31
0.0
  0
LINE
  5
D0
330
1F
100
AcDbEntity
  8
C-A
  6
Continuous
 62
     6
370
     5
100
AcDbLine
 10
-615.0939208881272
 20
848.6540378879857
 30
0.0
 11
-609.0937988178146
 21
846.8540500950169
 31
0.0
  0
LINE
  5
D1
330
1F
100
AcDbEntity
  8
C-A
  6
Continuous
 62
     6
370
     5
100
AcDbLine
 10
-609.0937988178146
 20
852.1981663059544
 30
0.0
 11
-615.0939208881272
 21
850.3981174778295
 31
0.0
  0
LINE
  5
D2
330
1F
100
AcDbEntity
  8
C-A
  6
Continuous
 62
     6
370
     5
100
AcDbLine
 10
-599.5936767475021
 20
906.5634617161106
 30
0.0
 11
-599.5936767475021
 21
910.5634006809544
 31
0.0
  0
LINE
  5
D3
330
1F
100
AcDbEntity
  8
C-A
  6
Continuous
 62
     6
370
     5
100
AcDbLine
 10
-599.5936767475021
 20
910.5634006809544
 30
0.0
 11
-594.593905629338
 21
909.0635837864232
 31
0.0
  0
LINE
  5
D4
330
1F
100
AcDbEntity
  8
C-A
  6
Continuous
 62
     6
370
     5
100
AcDbLine
 10
-594.593905629338
 20
908.0637668918919
 30
0.0
 11
-594.593905629338
 21
909.0635837864232
 31
0.0
  0
LINE
  5
D5
330
1F
100
AcDbEntity
  8
C-A
  6
Continuous
 62
     6
370
     5
100
AcDbLine
 10
-594.593905629338
 20
908.0637668918919
 30
0.0
 11
-599.5936767475021
 21
906.5634617161106
 31
0.0
  0
LINE
  5
D6
330
1F
100
AcDbEntity
  8
C-A
  6
Continuous
 62
     6
370
     5
100
AcDbLine
 10
-594.0939742938889
 20
907.6916355442356
 30
0.0
 11
-600.0936080829513
 21
905.8915867161107
 31
0.0
  0
LINE
  5
D7
330
1F
100
AcDbEntity
  8
C-A
  6
Continuous
 62
     6
370
     5
100
AcDbLine
 10
-600.0936080829513
 20
911.2357639622044
 30
0.0
 11
-594.0939742938889
 21
909.4357151340794
 31
0.0
  0
LINE
  5
D8
330
1F
100
AcDbEntity
  8
C-A
  6
Continuous
 62
     6
370
     5
100
AcDbLine
 10
-594.593905629338
 20
917.0634617161107
 30
0.0
 11
-594.593905629338
 21
921.0633396457981
 31
0.0
  0
LINE
  5
D9
330
1F
100
AcDbEntity
  8
C-A
  6
Continuous
 62
     6
370
     5
100
AcDbLine
 10
-594.593905629338
 20
921.0633396457981
 30
0.0
 11
-599.5936767475021
 21
919.5635837864231
 31
0.0
  0
LINE
  5
DA
330
1F
100
AcDbEntity
  8
C-A
  6
Continuous
 62
     6
370
     5
100
AcDbLine
 10
-599.5936767475021
 20
918.5637058567357
 30
0.0
 11
-599.5936767475021
 21
919.5635837864231
 31
0.0
  0
LINE
  5
DB
330
1F
100
AcDbEntity
  8
C-A
  6
Continuous
 62
     6
370
     5
100
AcDbLine
 10
-599.5936767475021
 20
918.5637058567357
 30
0.0
 11
-594.593905629338
 21
917.0634617161107
 31
0.0
  0
LINE
  5
DC
330
1F
100
AcDbEntity
  8
C-A
  6
Continuous
 62
     6
370
     5
100
AcDbLine
 10
-600.0936080829513
 20
918.1916355442356
 30
0.0
 11
-594.0939742938889
 21
916.3915867161106
 31
0.0
  0
LINE
  5
DD
330
1F
100
AcDbEntity
  8
C-A
  6
Continuous
 62
     6
370
     5
100
AcDbLine
 10
-594.0939742938889
 20
921.7357029270482
 30
0.0
 11
-600.0936080829513
 21
919.9356540989231
 31
0.0
  0
LINE
  5
DE
330
1F
100
AcDbEntity
  8
C-A
  6
Continuous
 62
     6
370
     5
100
AcDbLine
 10
-599.5936767475021
 20
885.563522751267
 30
0.0
 11
-599.5936767475021
 21
889.5634617161107
 31
0.0
  0
LINE
  5
DF
330
1F
100
AcDbEntity
  8
C-A
  6
Continuous
 62
     6
370
     5
100
AcDbLine
 10
-599.5936767475021
 20
889.5634617161107
 30
0.0
 11
-594.593905629338
 21
888.0636448215794
 31
0.0
  0
LINE
  5
E0
330
1F
100
AcDbEntity
  8
C-A
  6
Continuous
 62
     6
370
     5
100
AcDbLine
 10
-594.593905629338
 20
887.063766891892
 30
0.0
 11
-594.593905629338
 21
888.0636448215794
 31
0.0
  0
LINE
  5
E1
330
1F
100
AcDbEntity
  8
C-A
  6
Continuous
 62
     6
370
     5
100
AcDbLine
 10
-594.593905629338
 20
887.063766891892
 30
0.0
 11
-599.5936767475021
 21
885.563522751267
 31
0.0
  0
LINE
  5
E2
330
1F
100
AcDbEntity
  8
C-A
  6
Continuous
 62
     6
370
     5
100
AcDbLine
 10
-594.0939742938889
 20
886.6916965793919
 30
0.0
 11
-600.0936080829513
 21
884.8916477512669
 31
0.0
  0
LINE
  5
E3
330
1F
100
AcDbEntity
  8
C-A
  6
Continuous
 62
     6
370
     5
100
AcDbLine
 10
-600.0936080829513
 20
890.2357639622045
 30
0.0
 11
-594.0939742938889
 21
888.4357761692356
 31
0.0
  0
LINE
  5
E4
330
1F
100
AcDbEntity
  8
C-A
  6
Continuous
 62
     6
370
     5
100
AcDbLine
 10
-594.593905629338
 20
896.0634617161109
 30
0.0
 11
-594.593905629338
 21
900.0634006809546
 31
0.0
  0
LINE
  5
E5
330
1F
100
AcDbEntity
  8
C-A
  6
Continuous
 62
     6
370
     5
100
AcDbLine
 10
-594.593905629338
 20
900.0634006809546
 30
0.0
 11
-599.5936767475021
 21
898.5636448215794
 31
0.0
  0
LINE
  5
E6
330
1F
100
AcDbEntity
  8
C-A
  6
Continuous
 62
     6
370
     5
100
AcDbLine
 10
-599.5936767475021
 20
897.5637668918919
 30
0.0
 11
-599.5936767475021
 21
898.5636448215794
 31
0.0
  0
LINE
  5
E7
330
1F
100
AcDbEntity
  8
C-A
  6
Continuous
 62
     6
370
     5
100
AcDbLine
 10
-599.5936767475021
 20
897.5637668918919
 30
0.0
 11
-594.593905629338
 21
896.0634617161109
 31
0.0
  0
LINE
  5
E8
330
1F
100
AcDbEntity
  8
C-A
  6
Continuous
 62
     6
370
     5
100
AcDbLine
 10
-600.0936080829513
 20
897.1916965793921
 30
0.0
 11
-594.0939742938889
 21
895.3916477512669
 31
0.0
  0
LINE
  5
E9
330
1F
100
AcDbEntity
  8
C-A
  6
Continuous
 62
     6
370
     5
100
AcDbLine
 10
-594.0939742938889
 20
900.7357639622044
 30
0.0
 11
-600.0936080829513
 21
898.9357151340795
 31
0.0
  0
LINE
  5
EA
330
1F
100
AcDbEntity
  8
C-A
  6
Continuous
 62
     6
370
     5
100
AcDbLine
 10
-599.5936767475021
 20
864.5635837864231
 30
0.0
 11
-599.5936767475021
 21
868.5634617161109
 31
0.0
  0
LINE
  5
EB
330
1F
100
AcDbEntity
  8
C-A
  6
Continuous
 62
     6
370
     5
100
AcDbLine
 10
-599.5936767475021
 20
868.5634617161109
 30
0.0
 11
-594.593905629338
 21
867.0637058567356
 31
0.0
  0
LINE
  5
EC
330
1F
100
AcDbEntity
  8
C-A
  6
Continuous
 62
     6
370
     5
100
AcDbLine
 10
-594.593905629338
 20
866.0638279270481
 30
0.0
 11
-594.593905629338
 21
867.0637058567356
 31
0.0
  0
LINE
  5
ED
330
1F
100
AcDbEntity
  8
C-A
  6
Continuous
 62
     6
370
     5
100
AcDbLine
 10
-594.593905629338
 20
866.0638279270481
 30
0.0
 11
-599.5936767475021
 21
864.5635837864231
 31
0.0
  0
LINE
  5
EE
330
1F
100
AcDbEntity
  8
C-A
  6
Continuous
 62
     6
370
     5
100
AcDbLine
 10
-594.0939742938889
 20
865.6917576145484
 30
0.0
 11
-600.0936080829513
 21
863.8917087864231
 31
0.0
  0
LINE
  5
EF
330
1F
100
AcDbEntity
  8
C-A
  6
Continuous
 62
     6
370
     5
100
AcDbLine
 10
-600.0936080829513
 20
869.2358249973606
 30
0.0
 11
-594.0939742938889
 21
867.4357761692357
 31
0.0
  0
LINE
  5
F0
330
1F
100
AcDbEntity
  8
C-A
  6
Continuous
 62
     6
370
     5
100
AcDbLine
 10
-594.593905629338
 20
875.0635227512669
 30
0.0
 11
-594.593905629338
 21
879.0634617161106
 31
0.0
  0
LINE
  5
F1
330
1F
100
AcDbEntity
  8
C-A
  6
Continuous
 62
     6
370
     5
100
AcDbLine
 10
-594.593905629338
 20
879.0634617161106
 30
0.0
 11
-599.5936767475021
 21
877.5637058567359
 31
0.0
  0
LINE
  5
F2
330
1F
100
AcDbEntity
  8
C-A
  6
Continuous
 62
     6
370
     5
100
AcDbLine
 10
-599.5936767475021
 20
876.5638279270481
 30
0.0
 11
-599.5936767475021
 21
877.5637058567359
 31
0.0
  0
LINE
  5
F3
330
1F
100
AcDbEntity
  8
C-A
  6
Continuous
 62
     6
370
     5
100
AcDbLine
 10
-599.5936767475021
 20
876.5638279270481
 30
0.0
 11
-594.593905629338
 21
875.0635227512669
 31
0.0
  0
LINE
  5
F4
330
1F
100
AcDbEntity
  8
C-A
  6
Continuous
 62
     6
370
     5
100
AcDbLine
 10
-600.0936080829513
 20
876.1916965793919
 30
0.0
 11
-594.0939742938889
 21
874.3917087864234
 31
0.0
  0
LINE
  5
F5
330
1F
100
AcDbEntity
  8
C-A
  6
Continuous
 62
     6
370
     5
100
AcDbLine
 10
-594.0939742938889
 20
879.7358249973606
 30
0.0
 11
-600.0936080829513
 21
877.9357761692356
 31
0.0
  0
LINE
  5
F6
330
1F
100
AcDbEntity
  8
C-A
  6
Continuous
 62
     6
370
     5
100
AcDbLine
 10
-594.593905629338
 20
854.0635837864232
 30
0.0
 11
-594.593905629338
 21
858.063522751267
 31
0.0
  0
LINE
  5
F7
330
1F
100
AcDbEntity
  8
C-A
  6
Continuous
 62
     6
370
     5
100
AcDbLine
 10
-594.593905629338
 20
858.063522751267
 30
0.0
 11
-599.5936767475021
 21
856.5637058567356
 31
0.0
  0
LINE
  5
F8
330
1F
100
AcDbEntity
  8
C-A
  6
Continuous
 62
     6
370
     5
100
AcDbLine
 10
-599.5936767475021
 20
855.5638889622046
 30
0.0
 11
-599.5936767475021
 21
856.5637058567356
 31
0.0
  0
LINE
  5
F9
330
1F
100
AcDbEntity
  8
C-A
  6
Continuous
 62
     6
370
     5
100
AcDbLine
 10
-599.5936767475021
 20
855.5638889622046
 30
0.0
 11
-594.593905629338
 21
854.0635837864232
 31
0.0
  0
LINE
  5
FA
330
1F
100
AcDbEntity
  8
C-A
  6
Continuous
 62
     6
370
     5
100
AcDbLine
 10
-600.0936080829513
 20
855.1917576145481
 30
0.0
 11
-594.0939742938889
 21
853.3917087864231
 31
0.0
  0
LINE
  5
FB
330
1F
100
AcDbEntity
  8
C-A
  6
Continuous
 62
     6
370
     5
100
AcDbLine
 10
-594.0939742938889
 20
858.7358860325171
 30
0.0
 11
-600.0936080829513
 21
856.9358372043919
 31
0.0
  0
LINE
  5
FC
330
1F
100
AcDbEntity
  8
C-A
  6
Continuous
 62
     6
370
     5
100
AcDbLine
 10
-584.5938522235764
 20
919.6354221653294
 30
0.0
 11
-584.5938522235764
 21
923.6353611301731
 31
0.0
  0
LINE
  5
FD
330
1F
100
AcDbEntity
  8
C-A
  6
Continuous
 62
     6
370
     5
100
AcDbLine
 10
-584.5938522235764
 20
923.6353611301731
 30
0.0
 11
-579.5940811054123
 21
922.1355442356421
 31
0.0
  0
LINE
  5
FE
330
1F
100
AcDbEntity
  8
C-A
  6
Continuous
 62
     6
370
     5
100
AcDbLine
 10
-579.5940811054123
 20
921.1357273411107
 30
0.0
 11
-579.5940811054123
 21
922.1355442356421
 31
0.0
  0
LINE
  5
FF
330
1F
100
AcDbEntity
  8
C-A
  6
Continuous
 62
     6
370
     5
100
AcDbLine
 10
-579.5940811054123
 20
921.1357273411107
 30
0.0
 11
-584.5938522235764
 21
919.6354221653294
 31
0.0
  0
LINE
  5
100
330
1F
100
AcDbEntity
  8
C-A
  6
Continuous
 62
     6
370
     5
100
AcDbLine
 10
-579.0936538593185
 20
920.7635959934544
 30
0.0
 11
-585.0937835590255
 21
918.9635471653296
 31
0.0
  0
LINE
  5
101
330
1F
100
AcDbEntity
  8
C-A
  6
Continuous
 62
     6
370
     5
100
AcDbLine
 10
-585.0937835590255
 20
924.3076633762669
 30
0.0
 11
-579.0936538593185
 21
922.5076755832981
 31
0.0
  0
LINE
  5
102
330
1F
100
AcDbEntity
  8
C-A
  6
Continuous
 62
     6
370
     5
100
AcDbLine
 10
-584.5938522235764
 20
898.6354832004859
 30
0.0
 11
-584.5938522235764
 21
902.6353611301732
 31
0.0
  0
LINE
  5
103
330
1F
100
AcDbEntity
  8
C-A
  6
Continuous
 62
     6
370
     5
100
AcDbLine
 10
-584.5938522235764
 20
902.6353611301732
 30
0.0
 11
-579.5940811054123
 21
901.1356052707981
 31
0.0
  0
LINE
  5
104
330
1F
100
AcDbEntity
  8
C-A
  6
Continuous
 62
     6
370
     5
100
AcDbLine
 10
-579.5940811054123
 20
900.1357273411109
 30
0.0
 11
-579.5940811054123
 21
901.1356052707981
 31
0.0
  0
LINE
  5
105
330
1F
100
AcDbEntity
  8
C-A
  6
Continuous
 62
     6
370
     5
100
AcDbLine
 10
-579.5940811054123
 20
900.1357273411109
 30
0.0
 11
-584.5938522235764
 21
898.6354832004859
 31
0.0
  0
LINE
  5
106
330
1F
100
AcDbEntity
  8
C-A
  6
Continuous
 62
     6
370
     5
100
AcDbLine
 10
-579.0936538593185
 20
899.7636570286107
 30
0.0
 11
-585.0937835590255
 21
897.9636082004856
 31
0.0
  0
LINE
  5
107
330
1F
100
AcDbEntity
  8
C-A
  6
Continuous
 62
     6
370
     5
100
AcDbLine
 10
-585.0937835590255
 20
903.3077244114234
 30
0.0
 11
-579.0936538593185
 21
901.5076755832981
 31
0.0
  0
LINE
  5
108
330
1F
100
AcDbEntity
  8
C-A
  6
Continuous
 62
     6
370
     5
100
AcDbLine
 10
-579.5940811054123
 20
909.1354221653294
 30
0.0
 11
-579.5940811054123
 21
913.1353611301731
 31
0.0
  0
LINE
  5
109
330
1F
100
AcDbEntity
  8
C-A
  6
Continuous
 62
     6
370
     5
100
AcDbLine
 10
-579.5940811054123
 20
913.1353611301731
 30
0.0
 11
-584.5938522235764
 21
911.6356052707982
 31
0.0
  0
LINE
  5
10A
330
1F
100
AcDbEntity
  8
C-A
  6
Continuous
 62
     6
370
     5
100
AcDbLine
 10
-584.5938522235764
 20
910.6357273411106
 30
0.0
 11
-584.5938522235764
 21
911.6356052707982
 31
0.0
  0
LINE
  5
10B
330
1F
100
AcDbEntity
  8
C-A
  6
Continuous
 62
     6
370
     5
100
AcDbLine
 10
-584.5938522235764
 20
910.6357273411106
 30
0.0
 11
-579.5940811054123
 21
909.1354221653294
 31
0.0
  0
LINE
  5
10C
330
1F
100
AcDbEntity
  8
C-A
  6
Continuous
 62
     6
370
     5
100
AcDbLine
 10
-585.0937835590255
 20
910.2636570286106
 30
0.0
 11
-579.0936538593185
 21
908.4636082004857
 31
0.0
  0
LINE
  5
10D
330
1F
100
AcDbEntity
  8
C-A
  6
Continuous
 62
     6
370
     5
100
AcDbLine
 10
-579.0936538593185
 20
913.8077244114231
 30
0.0
 11
-585.0937835590255
 21
912.0076755832984
 31
0.0
  0
LINE
  5
10E
330
1F
100
AcDbEntity
  8
C-A
  6
Continuous
 62
     6
370
     5
100
AcDbLine
 10
-584.5938522235764
 20
877.6355442356419
 30
0.0
 11
-584.5938522235764
 21
881.6354221653294
 31
0.0
  0
LINE
  5
10F
330
1F
100
AcDbEntity
  8
C-A
  6
Continuous
 62
     6
370
     5
100
AcDbLine
 10
-584.5938522235764
 20
881.6354221653294
 30
0.0
 11
-579.5940811054123
 21
880.1356663059545
 31
0.0
  0
LINE
  5
110
330
1F
100
AcDbEntity
  8
C-A
  6
Continuous
 62
     6
370
     5
100
AcDbLine
 10
-579.5940811054123
 20
879.1357883762669
 30
0.0
 11
-579.5940811054123
 21
880.1356663059545
 31
0.0
  0
LINE
  5
111
330
1F
100
AcDbEntity
  8
C-A
  6
Continuous
 62
     6
370
     5
100
AcDbLine
 10
-579.5940811054123
 20
879.1357883762669
 30
0.0
 11
-584.5938522235764
 21
877.6355442356419
 31
0.0
  0
LINE
  5
112
330
1F
100
AcDbEntity
  8
C-A
  6
Continuous
 62
     6
370
     5
100
AcDbLine
 10
-579.0936538593185
 20
878.7637180637669
 30
0.0
 11
-585.0937835590255
 21
876.963669235642
 31
0.0
  0
LINE
  5
113
330
1F
100
AcDbEntity
  8
C-A
  6
Continuous
 62
     6
370
     5
100
AcDbLine
 10
-585.0937835590255
 20
882.3077854465794
 30
0.0
 11
-579.0936538593185
 21
880.5077366184546
 31
0.0
  0
LINE
  5
114
330
1F
100
AcDbEntity
  8
C-A
  6
Continuous
 62
     6
370
     5
100
AcDbLine
 10
-579.5940811054123
 20
888.1354832004856
 30
0.0
 11
-579.5940811054123
 21
892.1354221653294
 31
0.0
  0
LINE
  5
115
330
1F
100
AcDbEntity
  8
C-A
  6
Continuous
 62
     6
370
     5
100
AcDbLine
 10
-579.5940811054123
 20
892.1354221653294
 30
0.0
 11
-584.5938522235764
 21
890.6356052707984
 31
0.0
  0
LINE
  5
116
330
1F
100
AcDbEntity
  8
C-A
  6
Continuous
 62
     6
370
     5
100
AcDbLine
 10
-584.5938522235764
 20
889.635788376267
 30
0.0
 11
-584.5938522235764
 21
890.6356052707984
 31
0.0
  0
LINE
  5
117
330
1F
100
AcDbEntity
  8
C-A
  6
Continuous
 62
     6
370
     5
100
AcDbLine
 10
-584.5938522235764
 20
889.635788376267
 30
0.0
 11
-579.5940811054123
 21
888.1354832004856
 31
0.0
  0
LINE
  5
118
330
1F
100
AcDbEntity
  8
C-A
  6
Continuous
 62
     6
370
     5
100
AcDbLine
 10
-585.0937835590255
 20
889.2636570286106
 30
0.0
 11
-579.0936538593185
 21
887.4636692356419
 31
0.0
  0
LINE
  5
119
330
1F
100
AcDbEntity
  8
C-A
  6
Continuous
 62
     6
370
     5
100
AcDbLine
 10
-579.0936538593185
 20
892.8077854465795
 30
0.0
 11
-585.0937835590255
 21
891.0077366184544
 31
0.0
  0
LINE
  5
11A
330
1F
100
AcDbEntity
  8
C-A
  6
Continuous
 62
     6
370
     5
100
AcDbLine
 10
-579.5940811054123
 20
867.1355442356421
 30
0.0
 11
-579.5940811054123
 21
871.1354832004859
 31
0.0
  0
LINE
  5
11B
330
1F
100
AcDbEntity
  8
C-A
  6
Continuous
 62
     6
370
     5
100
AcDbLine
 10
-579.5940811054123
 20
871.1354832004859
 30
0.0
 11
-584.5938522235764
 21
869.6356663059544
 31
0.0
  0
LINE
  5
11C
330
1F
100
AcDbEntity
  8
C-A
  6
Continuous
 62
     6
370
     5
100
AcDbLine
 10
-584.5938522235764
 20
868.6358494114231
 30
0.0
 11
-584.5938522235764
 21
869.6356663059544
 31
0.0
  0
LINE
  5
11D
330
1F
100
AcDbEntity
  8
C-A
  6
Continuous
 62
     6
370
     5
100
AcDbLine
 10
-584.5938522235764
 20
868.6358494114231
 30
0.0
 11
-579.5940811054123
 21
867.1355442356421
 31
0.0
  0
LINE
  5
11E
330
1F
100
AcDbEntity
  8
C-A
  6
Continuous
 62
     6
370
     5
100
AcDbLine
 10
-585.0937835590255
 20
868.263718063767
 30
0.0
 11
-579.0936538593185
 21
866.4636692356419
 31
0.0
  0
LINE
  5
11F
330
1F
100
AcDbEntity
  8
C-A
  6
Continuous
 62
     6
370
     5
100
AcDbLine
 10
-579.0936538593185
 20
871.8078464817356
 30
0.0
 11
-585.0937835590255
 21
870.0077976536107
 31
0.0
  0
LINE
  5
120
330
1F
100
AcDbEntity
  8
C-A
  6
Continuous
 62
     6
370
     5
100
AcDbLine
 10
-569.5935394184005
 20
909.7736057590794
 30
0.0
 11
-569.5935394184005
 21
913.7735447239231
 31
0.0
  0
LINE
  5
121
330
1F
100
AcDbEntity
  8
C-A
  6
Continuous
 62
     6
370
     5
100
AcDbLine
 10
-569.5935394184005
 20
913.7735447239231
 30
0.0
 11
-564.5937606708419
 21
912.273727829392
 31
0.0
  0
LINE
  5
122
330
1F
100
AcDbEntity
  8
C-A
  6
Continuous
 62
     6
370
     5
100
AcDbLine
 10
-564.5937606708419
 20
911.2739109348606
 30
0.0
 11
-564.5937606708419
 21
912.273727829392
 31
0.0
  0
LINE
  5
123
330
1F
100
AcDbEntity
  8
C-A
  6
Continuous
 62
     6
370
     5
100
AcDbLine
 10
-564.5937606708419
 20
911.2739109348606
 30
0.0
 11
-569.5935394184005
 21
909.7736057590794
 31
0.0
  0
LINE
  5
124
330
1F
100
AcDbEntity
  8
C-A
  6
Continuous
 62
     6
370
     5
100
AcDbLine
 10
-564.0938369647872
 20
910.9017795872044
 30
0.0
 11
-570.0939590350998
 21
909.1017307590795
 31
0.0
  0
LINE
  5
125
330
1F
100
AcDbEntity
  8
C-A
  6
Continuous
 62
     6
370
     5
100
AcDbLine
 10
-570.0939590350998
 20
914.4459080051731
 30
0.0
 11
-564.0938369647872
 21
912.6458591770481
 31
0.0
  0
LINE
  5
126
330
1F
100
AcDbEntity
  8
C-A
  6
Continuous
 62
     6
370
     5
100
AcDbLine
 10
-564.5937606708419
 20
920.2736057590795
 30
0.0
 11
-564.5937606708419
 21
924.2734836887669
 31
0.0
  0
LINE
  5
127
330
1F
100
AcDbEntity
  8
C-A
  6
Continuous
 62
     6
370
     5
100
AcDbLine
 10
-564.5937606708419
 20
924.2734836887669
 30
0.0
 11
-569.5935394184005
 21
922.7737278293919
 31
0.0
  0
LINE
  5
128
330
1F
100
AcDbEntity
  8
C-A
  6
Continuous
 62
     6
370
     5
100
AcDbLine
 10
-569.5935394184005
 20
921.7738498997045
 30
0.0
 11
-569.5935394184005
 21
922.7737278293919
 31
0.0
  0
LINE
  5
129
330
1F
100
AcDbEntity
  8
C-A
  6
Continuous
 62
     6
370
     5
100
AcDbLine
 10
-569.5935394184005
 20
921.7738498997045
 30
0.0
 11
-564.5937606708419
 21
920.2736057590795
 31
0.0
  0
LINE
  5
12A
330
1F
100
AcDbEntity
  8
C-A
  6
Continuous
 62
     6
370
     5
100
AcDbLine
 10
-570.0939590350998
 20
921.4017795872044
 30
0.0
 11
-564.0938369647872
 21
919.6017307590794
 31
0.0
  0
LINE
  5
12B
330
1F
100
AcDbEntity
  8
C-A
  6
Continuous
 62
     6
370
     5
100
AcDbLine
 10
-564.0938369647872
 20
924.945846970017
 30
0.0
 11
-570.0939590350998
 21
923.1457981418919
 31
0.0
  0
LINE
  5
12C
330
1F
100
AcDbEntity
  8
C-A
  6
Continuous
 62
     6
370
     5
100
AcDbLine
 10
-569.5935394184005
 20
888.7736667942357
 30
0.0
 11
-569.5935394184005
 21
892.7736057590795
 31
0.0
  0
LINE
  5
12D
330
1F
100
AcDbEntity
  8
C-A
  6
Continuous
 62
     6
370
     5
100
AcDbLine
 10
-569.5935394184005
 20
892.7736057590795
 30
0.0
 11
-564.5937606708419
 21
891.2737888645481
 31
0.0
  0
LINE
  5
12E
330
1F
100
AcDbEntity
  8
C-A
  6
Continuous
 62
     6
370
     5
100
AcDbLine
 10
-564.5937606708419
 20
890.2739109348607
 30
0.0
 11
-564.5937606708419
 21
891.2737888645481
 31
0.0
  0
LINE
  5
12F
330
1F
100
AcDbEntity
  8
C-A
  6
Continuous
 62
     6
370
     5
100
AcDbLine
 10
-564.5937606708419
 20
890.2739109348607
 30
0.0
 11
-569.5935394184005
 21
888.7736667942357
 31
0.0
  0
LINE
  5
130
330
1F
100
AcDbEntity
  8
C-A
  6
Continuous
 62
     6
370
     5
100
AcDbLine
 10
-564.0938369647872
 20
889.9018406223606
 30
0.0
 11
-570.0939590350998
 21
888.1017917942356
 31
0.0
  0
LINE
  5
131
330
1F
100
AcDbEntity
  8
C-A
  6
Continuous
 62
     6
370
     5
100
AcDbLine
 10
-570.0939590350998
 20
893.4459080051732
 30
0.0
 11
-564.0938369647872
 21
891.6459202122044
 31
0.0
  0
LINE
  5
132
330
1F
100
AcDbEntity
  8
C-A
  6
Continuous
 62
     6
370
     5
100
AcDbLine
 10
-564.5937606708419
 20
899.2736057590796
 30
0.0
 11
-564.5937606708419
 21
903.2735447239234
 31
0.0
  0
LINE
  5
133
330
1F
100
AcDbEntity
  8
C-A
  6
Continuous
 62
     6
370
     5
100
AcDbLine
 10
-564.5937606708419
 20
903.2735447239234
 30
0.0
 11
-569.5935394184005
 21
901.7737888645481
 31
0.0
  0
LINE
  5
134
330
1F
100
AcDbEntity
  8
C-A
  6
Continuous
 62
     6
370
     5
100
AcDbLine
 10
-569.5935394184005
 20
900.7739109348606
 30
0.0
 11
-569.5935394184005
 21
901.7737888645481
 31
0.0
  0
LINE
  5
135
330
1F
100
AcDbEntity
  8
C-A
  6
Continuous
 62
     6
370
     5
100
AcDbLine
 10
-569.5935394184005
 20
900.7739109348606
 30
0.0
 11
-564.5937606708419
 21
899.2736057590796
 31
0.0
  0
LINE
  5
136
330
1F
100
AcDbEntity
  8
C-A
  6
Continuous
 62
     6
370
     5
100
AcDbLine
 10
-570.0939590350998
 20
900.4018406223609
 30
0.0
 11
-564.0938369647872
 21
898.6017917942356
 31
0.0
  0
LINE
  5
137
330
1F
100
AcDbEntity
  8
C-A
  6
Continuous
 62
     6
370
     5
100
AcDbLine
 10
-564.0938369647872
 20
903.9459080051731
 30
0.0
 11
-570.0939590350998
 21
902.1458591770482
 31
0.0
  0
LINE
  5
138
330
1F
100
AcDbEntity
  8
C-A
  6
Continuous
 62
     6
370
     5
100
AcDbLine
 10
-626.594248952092
 20
897.2310642551734
 30
0.0
 11
-626.594248952092
 21
901.2310032200171
 31
0.0
  0
LINE
  5
139
330
1F
100
AcDbEntity
  8
C-A
  6
Continuous
 62
     6
370
     5
100
AcDbLine
 10
-626.594248952092
 20
901.2310032200171
 30
0.0
 11
-621.5939819232834
 21
899.7311863254856
 31
0.0
  0
LINE
  5
13A
330
1F
100
AcDbEntity
  8
C-A
  6
Continuous
 62
     6
370
     5
100
AcDbLine
 10
-621.5939819232834
 20
898.7313694309544
 30
0.0
 11
-621.5939819232834
 21
899.7311863254856
 31
0.0
  0
LINE
  5
13B
330
1F
100
AcDbEntity
  8
C-A
  6
Continuous
 62
     6
370
     5
100
AcDbLine
 10
-621.5939819232834
 20
898.7313694309544
 30
0.0
 11
-626.594248952092
 21
897.2310642551734
 31
0.0
  0
LINE
  5
13C
330
1F
100
AcDbEntity
  8
C-A
  6
Continuous
 62
     6
370
     5
100
AcDbLine
 10
-621.0940505878341
 20
898.3592380832982
 30
0.0
 11
-627.094176472844
 21
896.5591892551731
 31
0.0
  0
LINE
  5
13D
330
1F
100
AcDbEntity
  8
C-A
  6
Continuous
 62
     6
370
     5
100
AcDbLine
 10
-627.094176472844
 20
901.9033054661109
 30
0.0
 11
-621.0940505878341
 21
900.103317673142
 31
0.0
  0
LINE
  5
13E
330
1F
100
AcDbEntity
  8
C-A
  6
Continuous
 62
     6
370
     5
100
AcDbLine
 10
-621.5939819232834
 20
907.7310642551731
 30
0.0
 11
-621.5939819232834
 21
911.7309421848606
 31
0.0
  0
LINE
  5
13F
330
1F
100
AcDbEntity
  8
C-A
  6
Continuous
 62
     6
370
     5
100
AcDbLine
 10
-621.5939819232834
 20
911.7309421848606
 30
0.0
 11
-626.594248952092
 21
910.2311863254857
 31
0.0
  0
LINE
  5
140
330
1F
100
AcDbEntity
  8
C-A
  6
Continuous
 62
     6
370
     5
100
AcDbLine
 10
-626.594248952092
 20
909.2313083957981
 30
0.0
 11
-626.594248952092
 21
910.2311863254857
 31
0.0
  0
LINE
  5
141
330
1F
100
AcDbEntity
  8
C-A
  6
Continuous
 62
     6
370
     5
100
AcDbLine
 10
-626.594248952092
 20
909.2313083957981
 30
0.0
 11
-621.5939819232834
 21
907.7310642551731
 31
0.0
  0
LINE
  5
142
330
1F
100
AcDbEntity
  8
C-A
  6
Continuous
 62
     6
370
     5
100
AcDbLine
 10
-627.094176472844
 20
908.8592380832981
 30
0.0
 11
-621.0940505878341
 21
907.0591892551732
 31
0.0
  0
LINE
  5
143
330
1F
100
AcDbEntity
  8
C-A
  6
Continuous
 62
     6
370
     5
100
AcDbLine
 10
-621.0940505878341
 20
912.4033054661106
 30
0.0
 11
-627.094176472844
 21
910.6032566379859
 31
0.0
  0
LINE
  5
144
330
1F
100
AcDbEntity
  8
C-A
  6
Continuous
 62
     6
370
     5
100
AcDbLine
 10
-626.594248952092
 20
918.2310032200169
 30
0.0
 11
-626.594248952092
 21
922.2309421848606
 31
0.0
  0
LINE
  5
145
330
1F
100
AcDbEntity
  8
C-A
  6
Continuous
 62
     6
370
     5
100
AcDbLine
 10
-626.594248952092
 20
922.2309421848606
 30
0.0
 11
-621.5939819232834
 21
920.7311252903296
 31
0.0
  0
LINE
  5
146
330
1F
100
AcDbEntity
  8
C-A
  6
Continuous
 62
     6
370
     5
100
AcDbLine
 10
-621.5939819232834
 20
919.7313083957982
 30
0.0
 11
-621.5939819232834
 21
920.7311252903296
 31
0.0
  0
LINE
  5
147
330
1F
100
AcDbEntity
  8
C-A
  6
Continuous
 62
     6
370
     5
100
AcDbLine
 10
-621.5939819232834
 20
919.7313083957982
 30
0.0
 11
-626.594248952092
 21
918.2310032200169
 31
0.0
  0
LINE
  5
148
330
1F
100
AcDbEntity
  8
C-A
  6
Continuous
 62
     6
370
     5
100
AcDbLine
 10
-621.0940505878341
 20
919.3591770481419
 30
0.0
 11
-627.094176472844
 21
917.5591282200171
 31
0.0
  0
LINE
  5
149
330
1F
100
AcDbEntity
  8
C-A
  6
Continuous
 62
     6
370
     5
100
AcDbLine
 10
-627.094176472844
 20
922.9033054661107
 30
0.0
 11
-621.0940505878341
 21
921.1032566379856
 31
0.0
  0
LINE
  5
14A
330
1F
100
AcDbEntity
  8
C-A
  6
Continuous
 62
     6
370
     5
100
AcDbLine
 10
-626.594248952092
 20
876.2311252903294
 30
0.0
 11
-626.594248952092
 21
880.2310642551731
 31
0.0
  0
LINE
  5
14B
330
1F
100
AcDbEntity
  8
C-A
  6
Continuous
 62
     6
370
     5
100
AcDbLine
 10
-626.594248952092
 20
880.2310642551731
 30
0.0
 11
-621.5939819232834
 21
878.731247360642
 31
0.0
  0
LINE
  5
14C
330
1F
100
AcDbEntity
  8
C-A
  6
Continuous
 62
     6
370
     5
100
AcDbLine
 10
-621.5939819232834
 20
877.7313694309544
 30
0.0
 11
-621.5939819232834
 21
878.731247360642
 31
0.0
  0
LINE
  5
14D
330
1F
100
AcDbEntity
  8
C-A
  6
Continuous
 62
     6
370
     5
100
AcDbLine
 10
-621.5939819232834
 20
877.7313694309544
 30
0.0
 11
-626.594248952092
 21
876.2311252903294
 31
0.0
  0
LINE
  5
14E
330
1F
100
AcDbEntity
  8
C-A
  6
Continuous
 62
     6
370
     5
100
AcDbLine
 10
-621.0940505878341
 20
877.3592991184544
 30
0.0
 11
-627.094176472844
 21
875.5592502903295
 31
0.0
  0
LINE
  5
14F
330
1F
100
AcDbEntity
  8
C-A
  6
Continuous
 62
     6
370
     5
100
AcDbLine
 10
-627.094176472844
 20
880.9033665012669
 30
0.0
 11
-621.0940505878341
 21
879.1033176731421
 31
0.0
  0
LINE
  5
150
330
1F
100
AcDbEntity
  8
C-A
  6
Continuous
 62
     6
370
     5
100
AcDbLine
 10
-621.5939819232834
 20
886.7310642551731
 30
0.0
 11
-621.5939819232834
 21
890.7310032200169
 31
0.0
  0
LINE
  5
151
330
1F
100
AcDbEntity
  8
C-A
  6
Continuous
 62
     6
370
     5
100
AcDbLine
 10
-621.5939819232834
 20
890.7310032200169
 30
0.0
 11
-626.594248952092
 21
889.2312473606419
 31
0.0
  0
LINE
  5
152
330
1F
100
AcDbEntity
  8
C-A
  6
Continuous
 62
     6
370
     5
100
AcDbLine
 10
-626.594248952092
 20
888.2313694309545
 30
0.0
 11
-626.594248952092
 21
889.2312473606419
 31
0.0
  0
LINE
  5
153
330
1F
100
AcDbEntity
  8
C-A
  6
Continuous
 62
     6
370
     5
100
AcDbLine
 10
-626.594248952092
 20
888.2313694309545
 30
0.0
 11
-621.5939819232834
 21
886.7310642551731
 31
0.0
  0
LINE
  5
154
330
1F
100
AcDbEntity
  8
C-A
  6
Continuous
 62
     6
370
     5
100
AcDbLine
 10
-627.094176472844
 20
887.8592991184544
 30
0.0
 11
-621.0940505878341
 21
886.0592502903294
 31
0.0
  0
LINE
  5
155
330
1F
100
AcDbEntity
  8
C-A
  6
Continuous
 62
     6
370
     5
100
AcDbLine
 10
-621.0940505878341
 20
891.403366501267
 30
0.0
 11
-627.094176472844
 21
889.6033176731419
 31
0.0
  0
LINE
  5
156
330
1F
100
AcDbEntity
  8
C-A
  6
Continuous
 62
     6
370
     5
100
AcDbLine
 10
-626.594248952092
 20
855.2311863254857
 30
0.0
 11
-626.594248952092
 21
859.2310642551731
 31
0.0
  0
LINE
  5
157
330
1F
100
AcDbEntity
  8
C-A
  6
Continuous
 62
     6
370
     5
100
AcDbLine
 10
-626.594248952092
 20
859.2310642551731
 30
0.0
 11
-621.5939819232834
 21
857.7313083957981
 31
0.0
  0
LINE
  5
158
330
1F
100
AcDbEntity
  8
C-A
  6
Continuous
 62
     6
370
     5
100
AcDbLine
 10
-621.5939819232834
 20
856.7314304661107
 30
0.0
 11
-621.5939819232834
 21
857.7313083957981
 31
0.0
  0
LINE
  5
159
330
1F
100
AcDbEntity
  8
C-A
  6
Continuous
 62
     6
370
     5
100
AcDbLine
 10
-621.5939819232834
 20
856.7314304661107
 30
0.0
 11
-626.594248952092
 21
855.2311863254857
 31
0.0
  0
LINE
  5
15A
330
1F
100
AcDbEntity
  8
C-A
  6
Continuous
 62
     6
370
     5
100
AcDbLine
 10
-621.0940505878341
 20
856.3593601536106
 30
0.0
 11
-627.094176472844
 21
854.5593113254856
 31
0.0
  0
LINE
  5
15B
330
1F
100
AcDbEntity
  8
C-A
  6
Continuous
 62
     6
370
     5
100
AcDbLine
 10
-627.094176472844
 20
859.9034275364232
 30
0.0
 11
-621.0940505878341
 21
858.1033787082981
 31
0.0
  0
LINE
  5
15C
330
1F
100
AcDbEntity
  8
C-A
  6
Continuous
 62
     6
370
     5
100
AcDbLine
 10
-621.5939819232834
 20
865.7311252903296
 30
0.0
 11
-621.5939819232834
 21
869.7310642551734
 31
0.0
  0
LINE
  5
15D
330
1F
100
AcDbEntity
  8
C-A
  6
Continuous
 62
     6
370
     5
100
AcDbLine
 10
-621.5939819232834
 20
869.7310642551734
 30
0.0
 11
-626.594248952092
 21
868.2312473606419
 31
0.0
  0
LINE
  5
15E
330
1F
100
AcDbEntity
  8
C-A
  6
Continuous
 62
     6
370
     5
100
AcDbLine
 10
-626.594248952092
 20
867.2314304661106
 30
0.0
 11
-626.594248952092
 21
868.2312473606419
 31
0.0
  0
LINE
  5
15F
330
1F
100
AcDbEntity
  8
C-A
  6
Continuous
 62
     6
370
     5
100
AcDbLine
 10
-626.594248952092
 20
867.2314304661106
 30
0.0
 11
-621.5939819232834
 21
865.7311252903296
 31
0.0
  0
LINE
  5
160
330
1F
100
AcDbEntity
  8
C-A
  6
Continuous
 62
     6
370
     5
100
AcDbLine
 10
-627.094176472844
 20
866.8592991184545
 30
0.0
 11
-621.0940505878341
 21
865.0593113254856
 31
0.0
  0
LINE
  5
161
330
1F
100
AcDbEntity
  8
C-A
  6
Continuous
 62
     6
370
     5
100
AcDbLine
 10
-621.0940505878341
 20
870.4034275364231
 30
0.0
 11
-627.094176472844
 21
868.6033787082982
 31
0.0
  0
LINE
  5
162
330
1F
100
AcDbEntity
  8
C-A
  6
Continuous
 62
     6
370
     5
100
AcDbLine
 10
-626.594248952092
 20
834.2311863254859
 30
0.0
 11
-626.594248952092
 21
838.2311252903296
 31
0.0
  0
LINE
  5
163
330
1F
100
AcDbEntity
  8
C-A
  6
Continuous
 62
     6
370
     5
100
AcDbLine
 10
-626.594248952092
 20
838.2311252903296
 30
0.0
 11
-621.5939819232834
 21
836.7313694309544
 31
0.0
  0
LINE
  5
164
330
1F
100
AcDbEntity
  8
C-A
  6
Continuous
 62
     6
370
     5
100
AcDbLine
 10
-621.5939819232834
 20
835.7314915012669
 30
0.0
 11
-621.5939819232834
 21
836.7313694309544
 31
0.0
  0
LINE
  5
165
330
1F
100
AcDbEntity
  8
C-A
  6
Continuous
 62
     6
370
     5
100
AcDbLine
 10
-621.5939819232834
 20
835.7314915012669
 30
0.0
 11
-626.594248952092
 21
834.2311863254859
 31
0.0
  0
LINE
  5
166
330
1F
100
AcDbEntity
  8
C-A
  6
Continuous
 62
     6
370
     5
100
AcDbLine
 10
-621.0940505878341
 20
835.3594211887671
 30
0.0
 11
-627.094176472844
 21
833.5593723606419
 31
0.0
  0
LINE
  5
167
330
1F
100
AcDbEntity
  8
C-A
  6
Continuous
 62
     6
370
     5
100
AcDbLine
 10
-627.094176472844
 20
838.9034885715794
 30
0.0
 11
-621.0940505878341
 21
837.1034397434545
 31
0.0
  0
LINE
  5
168
330
1F
100
AcDbEntity
  8
C-A
  6
Continuous
 62
     6
370
     5
100
AcDbLine
 10
-621.5939819232834
 20
844.7311863254856
 30
0.0
 11
-621.5939819232834
 21
848.7311252903294
 31
0.0
  0
LINE
  5
169
330
1F
100
AcDbEntity
  8
C-A
  6
Continuous
 62
     6
370
     5
100
AcDbLine
 10
-621.5939819232834
 20
848.7311252903294
 30
0.0
 11
-626.594248952092
 21
847.2313083957982
 31
0.0
  0
LINE
  5
16A
330
1F
100
AcDbEntity
  8
C-A
  6
Continuous
 62
     6
370
     5
100
AcDbLine
 10
-626.594248952092
 20
846.2314915012669
 30
0.0
 11
-626.594248952092
 21
847.2313083957982
 31
0.0
  0
LINE
  5
16B
330
1F
100
AcDbEntity
  8
C-A
  6
Continuous
 62
     6
370
     5
100
AcDbLine
 10
-626.594248952092
 20
846.2314915012669
 30
0.0
 11
-621.5939819232834
 21
844.7311863254856
 31
0.0
  0
LINE
  5
16C
330
1F
100
AcDbEntity
  8
C-A
  6
Continuous
 62
     6
370
     5
100
AcDbLine
 10
-627.094176472844
 20
845.8593601536106
 30
0.0
 11
-621.0940505878341
 21
844.0593113254857
 31
0.0
  0
LINE
  5
16D
330
1F
100
AcDbEntity
  8
C-A
  6
Continuous
 62
     6
370
     5
100
AcDbLine
 10
-621.0940505878341
 20
849.4034885715794
 30
0.0
 11
-627.094176472844
 21
847.6034397434544
 31
0.0
  0
LINE
  5
16E
330
1F
100
AcDbEntity
  8
C-A
  6
Continuous
 62
     6
370
     5
100
AcDbLine
 10
-626.594248952092
 20
813.2312778782202
 30
0.0
 11
-626.594248952092
 21
817.2311863254856
 31
0.0
  0
LINE
  5
16F
330
1F
100
AcDbEntity
  8
C-A
  6
Continuous
 62
     6
370
     5
100
AcDbLine
 10
-626.594248952092
 20
817.2311863254856
 30
0.0
 11
-621.5939819232834
 21
815.7313999485325
 31
0.0
  0
LINE
  5
170
330
1F
100
AcDbEntity
  8
C-A
  6
Continuous
 62
     6
370
     5
100
AcDbLine
 10
-621.5939819232834
 20
814.7315525364231
 30
0.0
 11
-621.5939819232834
 21
815.7313999485325
 31
0.0
  0
LINE
  5
171
330
1F
100
AcDbEntity
  8
C-A
  6
Continuous
 62
     6
370
     5
100
AcDbLine
 10
-621.5939819232834
 20
814.7315525364231
 30
0.0
 11
-626.594248952092
 21
813.2312778782202
 31
0.0
  0
LINE
  5
172
330
1F
100
AcDbEntity
  8
C-A
  6
Continuous
 62
     6
370
     5
100
AcDbLine
 10
-621.0940505878341
 20
814.3594517063451
 30
0.0
 11
-627.094176472844
 21
812.55940287822
 31
0.0
  0
LINE
  5
173
330
1F
100
AcDbEntity
  8
C-A
  6
Continuous
 62
     6
370
     5
100
AcDbLine
 10
-627.094176472844
 20
817.9035496067356
 30
0.0
 11
-621.0940505878341
 21
816.1035007786106
 31
0.0
  0
LINE
  5
174
330
1F
100
AcDbEntity
  8
C-A
  6
Continuous
 62
     6
370
     5
100
AcDbLine
 10
-621.5939819232834
 20
823.731247360642
 30
0.0
 11
-621.5939819232834
 21
827.7311863254857
 31
0.0
  0
LINE
  5
175
330
1F
100
AcDbEntity
  8
C-A
  6
Continuous
 62
     6
370
     5
100
AcDbLine
 10
-621.5939819232834
 20
827.7311863254857
 30
0.0
 11
-626.594248952092
 21
826.2313694309544
 31
0.0
  0
LINE
  5
176
330
1F
100
AcDbEntity
  8
C-A
  6
Continuous
 62
     6
370
     5
100
AcDbLine
 10
-626.594248952092
 20
825.231491501267
 30
0.0
 11
-626.594248952092
 21
826.2313694309544
 31
0.0
  0
LINE
  5
177
330
1F
100
AcDbEntity
  8
C-A
  6
Continuous
 62
     6
370
     5
100
AcDbLine
 10
-626.594248952092
 20
825.231491501267
 30
0.0
 11
-621.5939819232834
 21
823.731247360642
 31
0.0
  0
LINE
  5
178
330
1F
100
AcDbEntity
  8
C-A
  6
Continuous
 62
     6
370
     5
100
AcDbLine
 10
-627.094176472844
 20
824.8594211887669
 30
0.0
 11
-621.0940505878341
 21
823.0593723606419
 31
0.0
  0
LINE
  5
179
330
1F
100
AcDbEntity
  8
C-A
  6
Continuous
 62
     6
370
     5
100
AcDbLine
 10
-621.0940505878341
 20
828.4034885715795
 30
0.0
 11
-627.094176472844
 21
826.6035007786106
 31
0.0
  0
LINE
  5
17A
330
1F
100
AcDbEntity
  8
C-A
  6
Continuous
 62
     3
370
     9
100
AcDbLine
 10
-309.093402089299
 20
758.4273533176734
 30
0.0
 11
-300.0936767475021
 21
758.4273533176734
 31
0.0
  0
LINE
  5
17B
330
1F
100
AcDbEntity
  8
C-A
  6
Continuous
 62
     3
370
     9
100
AcDbLine
 10
-309.093402089299
 20
754.8918308567357
 30
0.0
 11
-300.0936767475021
 21
754.8918308567357
 31
0.0
  0
LINE
  5
17C
330
1F
100
AcDbEntity
  8
C-A
  6
Continuous
 62
     3
370
     9
100
AcDbLine
 10
-309.093402089299
 20
751.3563083957981
 30
0.0
 11
-300.0936767475021
 21
751.3563083957981
 31
0.0
  0
LINE
  5
17D
330
1F
100
AcDbEntity
  8
C-A
  6
Continuous
 62
     3
370
     9
100
AcDbLine
 10
-324.0933410541427
 20
758.4273533176734
 30
0.0
 11
-315.0936157123459
 21
758.4273533176734
 31
0.0
  0
LINE
  5
17E
330
1F
100
AcDbEntity
  8
C-A
  6
Continuous
 62
     3
370
     9
100
AcDbLine
 10
-324.0933410541427
 20
754.8918308567357
 30
0.0
 11
-315.0936157123459
 21
754.8918308567357
 31
0.0
  0
LINE
  5
17F
330
1F
100
AcDbEntity
  8
C-A
  6
Continuous
 62
     3
370
     9
100
AcDbLine
 10
-324.0933410541427
 20
751.3563083957981
 30
0.0
 11
-315.0936157123459
 21
751.3563083957981
 31
0.0
  0
LINE
  5
180
330
1F
100
AcDbEntity
  8
C-A
  6
Continuous
 62
     3
370
     9
100
AcDbLine
 10
-339.0933410541427
 20
758.4273533176734
 30
0.0
 11
-330.0936157123459
 21
758.4273533176734
 31
0.0
  0
LINE
  5
181
330
1F
100
AcDbEntity
  8
C-A
  6
Continuous
 62
     3
370
     9
100
AcDbLine
 10
-339.0933410541427
 20
754.8918308567357
 30
0.0
 11
-330.0936157123459
 21
754.8918308567357
 31
0.0
  0
LINE
  5
182
330
1F
100
AcDbEntity
  8
C-A
  6
Continuous
 62
     3
370
     9
100
AcDbLine
 10
-339.0933410541427
 20
751.3563083957981
 30
0.0
 11
-330.0936157123459
 21
751.3563083957981
 31
0.0
  0
LINE
  5
183
330
1F
100
AcDbEntity
  8
C-A
  6
Continuous
 62
     3
370
     9
100
AcDbLine
 10
-354.0933410541427
 20
758.4273533176734
 30
0.0
 11
-345.0936157123459
 21
758.4273533176734
 31
0.0
  0
LINE
  5
184
330
1F
100
AcDbEntity
  8
C-A
  6
Continuous
 62
     3
370
     9
100
AcDbLine
 10
-354.0933410541427
 20
754.8918308567357
 30
0.0
 11
-345.0936157123459
 21
754.8918308567357
 31
0.0
  0
LINE
  5
185
330
1F
100
AcDbEntity
  8
C-A
  6
Continuous
 62
     3
370
     9
100
AcDbLine
 10
-354.0933410541427
 20
751.3563083957981
 30
0.0
 11
-345.0936157123459
 21
751.3563083957981
 31
0.0
  0
LINE
  5
186
330
1F
100
AcDbEntity
  8
C-A
  6
Continuous
 62
     3
370
     9
100
AcDbLine
 10
-369.0933105365646
 20
758.4273533176734
 30
0.0
 11
-360.0936157123459
 21
758.4273533176734
 31
0.0
  0
LINE
  5
187
330
1F
100
AcDbEntity
  8
C-A
  6
Continuous
 62
     3
370
     9
100
AcDbLine
 10
-369.0933105365646
 20
754.8918308567357
 30
0.0
 11
-360.0936157123459
 21
754.8918308567357
 31
0.0
  0
LINE
  5
188
330
1F
100
AcDbEntity
  8
C-A
  6
Continuous
 62
     3
370
     9
100
AcDbLine
 10
-369.0933105365646
 20
751.3563083957981
 30
0.0
 11
-360.0936157123459
 21
751.3563083957981
 31
0.0
  0
LINE
  5
189
330
1F
100
AcDbEntity
  8
C-A
  6
Continuous
 62
     3
370
     9
100
AcDbLine
 10
-384.0933105365646
 20
758.4273533176734
 30
0.0
 11
-375.0936157123459
 21
758.4273533176734
 31
0.0
  0
LINE
  5
18A
330
1F
100
AcDbEntity
  8
C-A
  6
Continuous
 62
     3
370
     9
100
AcDbLine
 10
-384.0933105365646
 20
754.8918308567357
 30
0.0
 11
-375.0936157123459
 21
754.8918308567357
 31
0.0
  0
LINE
  5
18B
330
1F
100
AcDbEntity
  8
C-A
  6
Continuous
 62
     3
370
     9
100
AcDbLine
 10
-384.0933105365646
 20
751.3563083957981
 30
0.0
 11
-375.0936157123459
 21
751.3563083957981
 31
0.0
  0
LINE
  5
18C
330
1F
100
AcDbEntity
  8
C-A
  6
Continuous
 62
     3
370
     9
100
AcDbLine
 10
-399.0933105365646
 20
758.4273533176734
 30
0.0
 11
-390.0936157123459
 21
758.4273533176734
 31
0.0
  0
LINE
  5
18D
330
1F
100
AcDbEntity
  8
C-A
  6
Continuous
 62
     3
370
     9
100
AcDbLine
 10
-399.0933105365646
 20
754.8918308567357
 30
0.0
 11
-390.0936157123459
 21
754.8918308567357
 31
0.0
  0
LINE
  5
18E
330
1F
100
AcDbEntity
  8
C-A
  6
Continuous
 62
     3
370
     9
100
AcDbLine
 10
-399.0933105365646
 20
751.3563083957981
 30
0.0
 11
-390.0936157123459
 21
751.3563083957981
 31
0.0
  0
LINE
  5
18F
330
1F
100
AcDbEntity
  8
C-A
  6
Continuous
 62
     3
370
     9
100
AcDbLine
 10
-414.0933105365646
 20
758.4273533176734
 30
0.0
 11
-405.0936157123459
 21
758.4273533176734
 31
0.0
  0
LINE
  5
190
330
1F
100
AcDbEntity
  8
C-A
  6
Continuous
 62
     3
370
     9
100
AcDbLine
 10
-414.0933105365646
 20
754.8918308567357
 30
0.0
 11
-405.0936157123459
 21
754.8918308567357
 31
0.0
  0
LINE
  5
191
330
1F
100
AcDbEntity
  8
C-A
  6
Continuous
 62
     3
370
     9
100
AcDbLine
 10
-414.0933105365646
 20
751.3563083957981
 30
0.0
 11
-405.0936157123459
 21
751.3563083957981
 31
0.0
  0
LINE
  5
192
330
1F
100
AcDbEntity
  8
C-A
  6
Continuous
 62
     3
370
     9
100
AcDbLine
 10
-429.0933105365646
 20
758.4273533176734
 30
0.0
 11
-420.0936157123459
 21
758.4273533176734
 31
0.0
  0
LINE
  5
193
330
1F
100
AcDbEntity
  8
C-A
  6
Continuous
 62
     3
370
     9
100
AcDbLine
 10
-429.0933105365646
 20
754.8918308567357
 30
0.0
 11
-420.0936157123459
 21
754.8918308567357
 31
0.0
  0
LINE
  5
194
330
1F
100
AcDbEntity
  8
C-A
  6
Continuous
 62
     3
370
     9
100
AcDbLine
 10
-429.0933105365646
 20
751.3563083957981
 30
0.0
 11
-420.0936157123459
 21
751.3563083957981
 31
0.0
  0
LINE
  5
195
330
1F
100
AcDbEntity
  8
C-A
  6
Continuous
 62
     3
370
     9
100
AcDbLine
 10
-444.0932952777756
 20
758.4273533176734
 30
0.0
 11
-435.0936004535567
 21
758.4273533176734
 31
0.0
  0
LINE
  5
196
330
1F
100
AcDbEntity
  8
C-A
  6
Continuous
 62
     3
370
     9
100
AcDbLine
 10
-444.0932952777756
 20
754.8918308567357
 30
0.0
 11
-435.0936004535567
 21
754.8918308567357
 31
0.0
  0
LINE
  5
197
330
1F
100
AcDbEntity
  8
C-A
  6
Continuous
 62
     3
370
     9
100
AcDbLine
 10
-444.0932952777756
 20
751.3563083957981
 30
0.0
 11
-435.0936004535567
 21
751.3563083957981
 31
0.0
  0
LINE
  5
198
330
1F
100
AcDbEntity
  8
C-A
  6
Continuous
 62
     3
370
     9
100
AcDbLine
 10
-459.0932952777756
 20
758.4273533176734
 30
0.0
 11
-450.0936004535567
 21
758.4273533176734
 31
0.0
  0
LINE
  5
199
330
1F
100
AcDbEntity
  8
C-A
  6
Continuous
 62
     3
370
     9
100
AcDbLine
 10
-459.0932952777756
 20
754.8918308567357
 30
0.0
 11
-450.0936004535567
 21
754.8918308567357
 31
0.0
  0
LINE
  5
19A
330
1F
100
AcDbEntity
  8
C-A
  6
Continuous
 62
     3
370
     9
100
AcDbLine
 10
-459.0932952777756
 20
751.3563083957981
 30
0.0
 11
-450.0936004535567
 21
751.3563083957981
 31
0.0
  0
LINE
  5
19B
330
1F
100
AcDbEntity
  8
C-A
  6
Continuous
 62
     3
370
     9
100
AcDbLine
 10
-474.0932952777756
 20
758.4273533176734
 30
0.0
 11
-465.0936004535567
 21
758.4273533176734
 31
0.0
  0
LINE
  5
19C
330
1F
100
AcDbEntity
  8
C-A
  6
Continuous
 62
     3
370
     9
100
AcDbLine
 10
-474.0932952777756
 20
754.8918308567357
 30
0.0
 11
-465.0936004535567
 21
754.8918308567357
 31
0.0
  0
LINE
  5
19D
330
1F
100
AcDbEntity
  8
C-A
  6
Continuous
 62
     3
370
     9
100
AcDbLine
 10
-474.0932952777756
 20
751.3563083957981
 30
0.0
 11
-465.0936004535567
 21
751.3563083957981
 31
0.0
  0
LINE
  5
19E
330
1F
100
AcDbEntity
  8
C-A
  6
Continuous
 62
     3
370
     9
100
AcDbLine
 10
-489.0932952777756
 20
758.4273533176734
 30
0.0
 11
-480.0936004535567
 21
758.4273533176734
 31
0.0
  0
LINE
  5
19F
330
1F
100
AcDbEntity
  8
C-A
  6
Continuous
 62
     3
370
     9
100
AcDbLine
 10
-489.0932952777756
 20
754.8918308567357
 30
0.0
 11
-480.0936004535567
 21
754.8918308567357
 31
0.0
  0
LINE
  5
1A0
330
1F
100
AcDbEntity
  8
C-A
  6
Continuous
 62
     3
370
     9
100
AcDbLine
 10
-489.0932952777756
 20
751.3563083957981
 30
0.0
 11
-480.0936004535567
 21
751.3563083957981
 31
0.0
  0
LINE
  5
1A1
330
1F
100
AcDbEntity
  8
C-A
  6
Continuous
 62
     3
370
     9
100
AcDbLine
 10
-504.0932952777756
 20
758.4273533176734
 30
0.0
 11
-495.0936004535567
 21
758.4273533176734
 31
0.0
  0
LINE
  5
1A2
330
1F
100
AcDbEntity
  8
C-A
  6
Continuous
 62
     3
370
     9
100
AcDbLine
 10
-504.0932952777756
 20
754.8918308567357
 30
0.0
 11
-495.0936004535567
 21
754.8918308567357
 31
0.0
  0
LINE
  5
1A3
330
1F
100
AcDbEntity
  8
C-A
  6
Continuous
 62
     3
370
     9
100
AcDbLine
 10
-504.0932952777756
 20
751.3563083957981
 30
0.0
 11
-495.0936004535567
 21
751.3563083957981
 31
0.0
  0
LINE
  5
1A4
330
1F
100
AcDbEntity
  8
C-A
  6
Continuous
 62
     3
370
     9
100
AcDbLine
 10
-519.0932952777756
 20
758.4273533176734
 30
0.0
 11
-510.0936004535567
 21
758.4273533176734
 31
0.0
  0
LINE
  5
1A5
330
1F
100
AcDbEntity
  8
C-A
  6
Continuous
 62
     3
370
     9
100
AcDbLine
 10
-519.0932952777756
 20
754.8918308567357
 30
0.0
 11
-510.0936004535567
 21
754.8918308567357
 31
0.0
  0
LINE
  5
1A6
330
1F
100
AcDbEntity
  8
C-A
  6
Continuous
 62
     3
370
     9
100
AcDbLine
 10
-519.0932952777756
 20
751.3563083957981
 30
0.0
 11
-510.0936004535567
 21
751.3563083957981
 31
0.0
  0
LINE
  5
1A7
330
1F
100
AcDbEntity
  8
C-A
  6
Continuous
 62
     3
370
     9
100
AcDbLine
 10
-534.0932952777756
 20
758.4273533176734
 30
0.0
 11
-525.0936004535567
 21
758.4273533176734
 31
0.0
  0
LINE
  5
1A8
330
1F
100
AcDbEntity
  8
C-A
  6
Continuous
 62
     3
370
     9
100
AcDbLine
 10
-534.0932952777756
 20
754.8918308567357
 30
0.0
 11
-525.0936004535567
 21
754.8918308567357
 31
0.0
  0
LINE
  5
1A9
330
1F
100
AcDbEntity
  8
C-A
  6
Continuous
 62
     3
370
     9
100
AcDbLine
 10
-534.0932952777756
 20
751.3563083957981
 30
0.0
 11
-525.0936004535567
 21
751.3563083957981
 31
0.0
  0
LINE
  5
1AA
330
1F
100
AcDbEntity
  8
C-A
  6
Continuous
 62
     3
370
     9
100
AcDbLine
 10
-549.0932952777756
 20
758.4273533176734
 30
0.0
 11
-540.0936004535567
 21
758.4273533176734
 31
0.0
  0
LINE
  5
1AB
330
1F
100
AcDbEntity
  8
C-A
  6
Continuous
 62
     3
370
     9
100
AcDbLine
 10
-549.0932952777756
 20
754.8918308567357
 30
0.0
 11
-540.0936004535567
 21
754.8918308567357
 31
0.0
  0
LINE
  5
1AC
330
1F
100
AcDbEntity
  8
C-A
  6
Continuous
 62
     3
370
     9
100
AcDbLine
 10
-549.0932952777756
 20
751.3563083957981
 30
0.0
 11
-540.0936004535567
 21
751.3563083957981
 31
0.0
  0
LINE
  5
1AD
330
1F
100
AcDbEntity
  8
C-A
  6
Continuous
 62
     3
370
     9
100
AcDbLine
 10
-564.0932952777756
 20
758.4273533176734
 30
0.0
 11
-555.0936004535567
 21
758.4273533176734
 31
0.0
  0
LINE
  5
1AE
330
1F
100
AcDbEntity
  8
C-A
  6
Continuous
 62
     3
370
     9
100
AcDbLine
 10
-564.0932952777756
 20
754.8918308567357
 30
0.0
 11
-555.0936004535567
 21
754.8918308567357
 31
0.0
  0
LINE
  5
1AF
330
1F
100
AcDbEntity
  8
C-A
  6
Continuous
 62
     3
370
     9
100
AcDbLine
 10
-564.0932952777756
 20
751.3563083957981
 30
0.0
 11
-555.0936004535567
 21
751.3563083957981
 31
0.0
  0
LINE
  5
1B0
330
1F
100
AcDbEntity
  8
C-A
  6
Continuous
 62
     3
370
     9
100
AcDbLine
 10
-579.0932952777756
 20
758.4273533176734
 30
0.0
 11
-570.0936004535567
 21
758.4273533176734
 31
0.0
  0
LINE
  5
1B1
330
1F
100
AcDbEntity
  8
C-A
  6
Continuous
 62
     3
370
     9
100
AcDbLine
 10
-579.0932952777756
 20
754.8918308567357
 30
0.0
 11
-570.0936004535567
 21
754.8918308567357
 31
0.0
  0
LINE
  5
1B2
330
1F
100
AcDbEntity
  8
C-A
  6
Continuous
 62
     3
370
     9
100
AcDbLine
 10
-579.0932952777756
 20
751.3563083957981
 30
0.0
 11
-570.0936004535567
 21
751.3563083957981
 31
0.0
  0
LINE
  5
1B3
330
1F
100
AcDbEntity
  8
C-A
  6
Continuous
 62
     3
370
     9
100
AcDbLine
 10
-594.0932952777756
 20
758.4273533176734
 30
0.0
 11
-585.0936004535567
 21
758.4273533176734
 31
0.0
  0
LINE
  5
1B4
330
1F
100
AcDbEntity
  8
C-A
  6
Continuous
 62
     3
370
     9
100
AcDbLine
 10
-594.0932952777756
 20
754.8918308567357
 30
0.0
 11
-585.0936004535567
 21
754.8918308567357
 31
0.0
  0
LINE
  5
1B5
330
1F
100
AcDbEntity
  8
C-A
  6
Continuous
 62
     3
370
     9
100
AcDbLine
 10
-594.0932952777756
 20
751.3563083957981
 30
0.0
 11
-585.0936004535567
 21
751.3563083957981
 31
0.0
  0
LINE
  5
1B6
330
1F
100
AcDbEntity
  8
C-A
  6
Continuous
 62
     3
370
     9
100
AcDbLine
 10
-609.0932952777756
 20
758.4273533176734
 30
0.0
 11
-600.0936004535567
 21
758.4273533176734
 31
0.0
  0
LINE
  5
1B7
330
1F
100
AcDbEntity
  8
C-A
  6
Continuous
 62
     3
370
     9
100
AcDbLine
 10
-609.0932952777756
 20
754.8918308567357
 30
0.0
 11
-600.0936004535567
 21
754.8918308567357
 31
0.0
  0
LINE
  5
1B8
330
1F
100
AcDbEntity
  8
C-A
  6
Continuous
 62
     3
370
     9
100
AcDbLine
 10
-609.0932952777756
 20
751.3563083957981
 30
0.0
 11
-600.0936004535567
 21
751.3563083957981
 31
0.0
  0
LINE
  5
1B9
330
1F
100
AcDbEntity
  8
C-A
  6
Continuous
 62
     3
370
     9
100
AcDbLine
 10
-264.0934631244552
 20
758.4273533176734
 30
0.0
 11
-255.0937683002365
 21
758.4273533176734
 31
0.0
  0
LINE
  5
1BA
330
1F
100
AcDbEntity
  8
C-A
  6
Continuous
 62
     3
370
     9
100
AcDbLine
 10
-264.0934631244552
 20
754.8918308567357
 30
0.0
 11
-255.0937683002365
 21
754.8918308567357
 31
0.0
  0
LINE
  5
1BB
330
1F
100
AcDbEntity
  8
C-A
  6
Continuous
 62
     3
370
     9
100
AcDbLine
 10
-264.0934631244552
 20
751.3563083957981
 30
0.0
 11
-255.0937683002365
 21
751.3563083957981
 31
0.0
  0
LINE
  5
1BC
330
1F
100
AcDbEntity
  8
C-A
  6
Continuous
 62
     3
370
     9
100
AcDbLine
 10
-279.093402089299
 20
758.4273533176734
 30
0.0
 11
-270.0937072650802
 21
758.4273533176734
 31
0.0
  0
LINE
  5
1BD
330
1F
100
AcDbEntity
  8
C-A
  6
Continuous
 62
     3
370
     9
100
AcDbLine
 10
-279.093402089299
 20
754.8918308567357
 30
0.0
 11
-270.0937072650802
 21
754.8918308567357
 31
0.0
  0
LINE
  5
1BE
330
1F
100
AcDbEntity
  8
C-A
  6
Continuous
 62
     3
370
     9
100
AcDbLine
 10
-279.093402089299
 20
751.3563083957981
 30
0.0
 11
-270.0937072650802
 21
751.3563083957981
 31
0.0
  0
LINE
  5
1BF
330
1F
100
AcDbEntity
  8
C-A
  6
Continuous
 62
     3
370
     9
100
AcDbLine
 10
-294.093402089299
 20
758.4273533176734
 30
0.0
 11
-285.0937072650802
 21
758.4273533176734
 31
0.0
  0
LINE
  5
1C0
330
1F
100
AcDbEntity
  8
C-A
  6
Continuous
 62
     3
370
     9
100
AcDbLine
 10
-294.093402089299
 20
754.8918308567357
 30
0.0
 11
-285.0937072650802
 21
754.8918308567357
 31
0.0
  0
LINE
  5
1C1
330
1F
100
AcDbEntity
  8
C-A
  6
Continuous
 62
     3
370
     9
100
AcDbLine
 10
-294.093402089299
 20
751.3563083957981
 30
0.0
 11
-285.0937072650802
 21
751.3563083957981
 31
0.0
  0
LINE
  5
1C2
330
1F
100
AcDbEntity
  8
C-A
  6
Continuous
 62
     3
370
     9
100
AcDbLine
 10
-249.0934631244552
 20
758.4273533176734
 30
0.0
 11
-240.0937683002365
 21
758.4273533176734
 31
0.0
  0
LINE
  5
1C3
330
1F
100
AcDbEntity
  8
C-A
  6
Continuous
 62
     3
370
     9
100
AcDbLine
 10
-249.0934631244552
 20
754.8918308567357
 30
0.0
 11
-240.0937683002365
 21
754.8918308567357
 31
0.0
  0
LINE
  5
1C4
330
1F
100
AcDbEntity
  8
C-A
  6
Continuous
 62
     3
370
     9
100
AcDbLine
 10
-249.0934631244552
 20
751.3563083957981
 30
0.0
 11
-240.0937683002365
 21
751.3563083957981
 31
0.0
  0
LINE
  5
1C5
330
1F
100
AcDbEntity
  8
C-A
  6
Continuous
 62
     3
370
     9
100
AcDbLine
 10
-309.093402089299
 20
858.4273533176734
 30
0.0
 11
-300.0936767475021
 21
858.4273533176734
 31
0.0
  0
LINE
  5
1C6
330
1F
100
AcDbEntity
  8
C-A
  6
Continuous
 62
     3
370
     9
100
AcDbLine
 10
-309.093402089299
 20
854.8918308567357
 30
0.0
 11
-300.0936767475021
 21
854.8918308567357
 31
0.0
  0
LINE
  5
1C7
330
1F
100
AcDbEntity
  8
C-A
  6
Continuous
 62
     3
370
     9
100
AcDbLine
 10
-309.093402089299
 20
851.3563083957981
 30
0.0
 11
-300.0936767475021
 21
851.3563083957981
 31
0.0
  0
LINE
  5
1C8
330
1F
100
AcDbEntity
  8
C-A
  6
Continuous
 62
     3
370
     9
100
AcDbLine
 10
-324.0933410541427
 20
858.4273533176734
 30
0.0
 11
-315.0936157123459
 21
858.4273533176734
 31
0.0
  0
LINE
  5
1C9
330
1F
100
AcDbEntity
  8
C-A
  6
Continuous
 62
     3
370
     9
100
AcDbLine
 10
-324.0933410541427
 20
854.8918308567357
 30
0.0
 11
-315.0936157123459
 21
854.8918308567357
 31
0.0
  0
LINE
  5
1CA
330
1F
100
AcDbEntity
  8
C-A
  6
Continuous
 62
     3
370
     9
100
AcDbLine
 10
-324.0933410541427
 20
851.3563083957981
 30
0.0
 11
-315.0936157123459
 21
851.3563083957981
 31
0.0
  0
LINE
  5
1CB
330
1F
100
AcDbEntity
  8
C-A
  6
Continuous
 62
     3
370
     9
100
AcDbLine
 10
-339.0933410541427
 20
858.4273533176734
 30
0.0
 11
-330.0936157123459
 21
858.4273533176734
 31
0.0
  0
LINE
  5
1CC
330
1F
100
AcDbEntity
  8
C-A
  6
Continuous
 62
     3
370
     9
100
AcDbLine
 10
-339.0933410541427
 20
854.8918308567357
 30
0.0
 11
-330.0936157123459
 21
854.8918308567357
 31
0.0
  0
LINE
  5
1CD
330
1F
100
AcDbEntity
  8
C-A
  6
Continuous
 62
     3
370
     9
100
AcDbLine
 10
-339.0933410541427
 20
851.3563083957981
 30
0.0
 11
-330.0936157123459
 21
851.3563083957981
 31
0.0
  0
LINE
  5
1CE
330
1F
100
AcDbEntity
  8
C-A
  6
Continuous
 62
     3
370
     9
100
AcDbLine
 10
-354.0933410541427
 20
858.4273533176734
 30
0.0
 11
-345.0936157123459
 21
858.4273533176734
 31
0.0
  0
LINE
  5
1CF
330
1F
100
AcDbEntity
  8
C-A
  6
Continuous
 62
     3
370
     9
100
AcDbLine
 10
-354.0933410541427
 20
854.8918308567357
 30
0.0
 11
-345.0936157123459
 21
854.8918308567357
 31
0.0
  0
LINE
  5
1D0
330
1F
100
AcDbEntity
  8
C-A
  6
Continuous
 62
     3
370
     9
100
AcDbLine
 10
-354.0933410541427
 20
851.3563083957981
 30
0.0
 11
-345.0936157123459
 21
851.3563083957981
 31
0.0
  0
LINE
  5
1D1
330
1F
100
AcDbEntity
  8
C-A
  6
Continuous
 62
     3
370
     9
100
AcDbLine
 10
-369.0933105365646
 20
858.4273533176734
 30
0.0
 11
-360.0936157123459
 21
858.4273533176734
 31
0.0
  0
LINE
  5
1D2
330
1F
100
AcDbEntity
  8
C-A
  6
Continuous
 62
     3
370
     9
100
AcDbLine
 10
-369.0933105365646
 20
854.8918308567357
 30
0.0
 11
-360.0936157123459
 21
854.8918308567357
 31
0.0
  0
LINE
  5
1D3
330
1F
100
AcDbEntity
  8
C-A
  6
Continuous
 62
     3
370
     9
100
AcDbLine
 10
-369.0933105365646
 20
851.3563083957981
 30
0.0
 11
-360.0936157123459
 21
851.3563083957981
 31
0.0
  0
LINE
  5
1D4
330
1F
100
AcDbEntity
  8
C-A
  6
Continuous
 62
     3
370
     9
100
AcDbLine
 10
-384.0933105365646
 20
858.4273533176734
 30
0.0
 11
-375.0936157123459
 21
858.4273533176734
 31
0.0
  0
LINE
  5
1D5
330
1F
100
AcDbEntity
  8
C-A
  6
Continuous
 62
     3
370
     9
100
AcDbLine
 10
-384.0933105365646
 20
854.8918308567357
 30
0.0
 11
-375.0936157123459
 21
854.8918308567357
 31
0.0
  0
LINE
  5
1D6
330
1F
100
AcDbEntity
  8
C-A
  6
Continuous
 62
     3
370
     9
100
AcDbLine
 10
-384.0933105365646
 20
851.3563083957981
 30
0.0
 11
-375.0936157123459
 21
851.3563083957981
 31
0.0
  0
LINE
  5
1D7
330
1F
100
AcDbEntity
  8
C-A
  6
Continuous
 62
     3
370
     9
100
AcDbLine
 10
-399.0933105365646
 20
858.4273533176734
 30
0.0
 11
-390.0936157123459
 21
858.4273533176734
 31
0.0
  0
LINE
  5
1D8
330
1F
100
AcDbEntity
  8
C-A
  6
Continuous
 62
     3
370
     9
100
AcDbLine
 10
-399.0933105365646
 20
854.8918308567357
 30
0.0
 11
-390.0936157123459
 21
854.8918308567357
 31
0.0
  0
LINE
  5
1D9
330
1F
100
AcDbEntity
  8
C-A
  6
Continuous
 62
     3
370
     9
100
AcDbLine
 10
-399.0933105365646
 20
851.3563083957981
 30
0.0
 11
-390.0936157123459
 21
851.3563083957981
 31
0.0
  0
LINE
  5
1DA
330
1F
100
AcDbEntity
  8
C-A
  6
Continuous
 62
     3
370
     9
100
AcDbLine
 10
-414.0933105365646
 20
858.4273533176734
 30
0.0
 11
-405.0936157123459
 21
858.4273533176734
 31
0.0
  0
LINE
  5
1DB
330
1F
100
AcDbEntity
  8
C-A
  6
Continuous
 62
     3
370
     9
100
AcDbLine
 10
-414.0933105365646
 20
854.8918308567357
 30
0.0
 11
-405.0936157123459
 21
854.8918308567357
 31
0.0
  0
LINE
  5
1DC
330
1F
100
AcDbEntity
  8
C-A
  6
Continuous
 62
     3
370
     9
100
AcDbLine
 10
-414.0933105365646
 20
851.3563083957981
 30
0.0
 11
-405.0936157123459
 21
851.3563083957981
 31
0.0
  0
LINE
  5
1DD
330
1F
100
AcDbEntity
  8
C-A
  6
Continuous
 62
     3
370
     9
100
AcDbLine
 10
-429.0933105365646
 20
858.4273533176734
 30
0.0
 11
-420.0936157123459
 21
858.4273533176734
 31
0.0
  0
LINE
  5
1DE
330
1F
100
AcDbEntity
  8
C-A
  6
Continuous
 62
     3
370
     9
100
AcDbLine
 10
-429.0933105365646
 20
854.8918308567357
 30
0.0
 11
-420.0936157123459
 21
854.8918308567357
 31
0.0
  0
LINE
  5
1DF
330
1F
100
AcDbEntity
  8
C-A
  6
Continuous
 62
     3
370
     9
100
AcDbLine
 10
-429.0933105365646
 20
851.3563083957981
 30
0.0
 11
-420.0936157123459
 21
851.3563083957981
 31
0.0
  0
LINE
  5
1E0
330
1F
100
AcDbEntity
  8
C-A
  6
Continuous
 62
     3
370
     9
100
AcDbLine
 10
-444.0932952777756
 20
858.4273533176734
 30
0.0
 11
-435.0936004535567
 21
858.4273533176734
 31
0.0
  0
LINE
  5
1E1
330
1F
100
AcDbEntity
  8
C-A
  6
Continuous
 62
     3
370
     9
100
AcDbLine
 10
-444.0932952777756
 20
854.8918308567357
 30
0.0
 11
-435.0936004535567
 21
854.8918308567357
 31
0.0
  0
LINE
  5
1E2
330
1F
100
AcDbEntity
  8
C-A
  6
Continuous
 62
     3
370
     9
100
AcDbLine
 10
-444.0932952777756
 20
851.3563083957981
 30
0.0
 11
-435.0936004535567
 21
851.3563083957981
 31
0.0
  0
LINE
  5
1E3
330
1F
100
AcDbEntity
  8
C-A
  6
Continuous
 62
     3
370
     9
100
AcDbLine
 10
-459.0932952777756
 20
858.4273533176734
 30
0.0
 11
-450.0936004535567
 21
858.4273533176734
 31
0.0
  0
LINE
  5
1E4
330
1F
100
AcDbEntity
  8
C-A
  6
Continuous
 62
     3
370
     9
100
AcDbLine
 10
-459.0932952777756
 20
854.8918308567357
 30
0.0
 11
-450.0936004535567
 21
854.8918308567357
 31
0.0
  0
LINE
  5
1E5
330
1F
100
AcDbEntity
  8
C-A
  6
Continuous
 62
     3
370
     9
100
AcDbLine
 10
-459.0932952777756
 20
851.3563083957981
 30
0.0
 11
-450.0936004535567
 21
851.3563083957981
 31
0.0
  0
LINE
  5
1E6
330
1F
100
AcDbEntity
  8
C-A
  6
Continuous
 62
     3
370
     9
100
AcDbLine
 10
-474.0932952777756
 20
858.4273533176734
 30
0.0
 11
-465.0936004535567
 21
858.4273533176734
 31
0.0
  0
LINE
  5
1E7
330
1F
100
AcDbEntity
  8
C-A
  6
Continuous
 62
     3
370
     9
100
AcDbLine
 10
-474.0932952777756
 20
854.8918308567357
 30
0.0
 11
-465.0936004535567
 21
854.8918308567357
 31
0.0
  0
LINE
  5
1E8
330
1F
100
AcDbEntity
  8
C-A
  6
Continuous
 62
     3
370
     9
100
AcDbLine
 10
-474.0932952777756
 20
851.3563083957981
 30
0.0
 11
-465.0936004535567
 21
851.3563083957981
 31
0.0
  0
LINE
  5
1E9
330
1F
100
AcDbEntity
  8
C-A
  6
Continuous
 62
     3
370
     9
100
AcDbLine
 10
-489.0932952777756
 20
858.4273533176734
 30
0.0
 11
-480.0936004535567
 21
858.4273533176734
 31
0.0
  0
LINE
  5
1EA
330
1F
100
AcDbEntity
  8
C-A
  6
Continuous
 62
     3
370
     9
100
AcDbLine
 10
-489.0932952777756
 20
854.8918308567357
 30
0.0
 11
-480.0936004535567
 21
854.8918308567357
 31
0.0
  0
LINE
  5
1EB
330
1F
100
AcDbEntity
  8
C-A
  6
Continuous
 62
     3
370
     9
100
AcDbLine
 10
-489.0932952777756
 20
851.3563083957981
 30
0.0
 11
-480.0936004535567
 21
851.3563083957981
 31
0.0
  0
LINE
  5
1EC
330
1F
100
AcDbEntity
  8
C-A
  6
Continuous
 62
     3
370
     9
100
AcDbLine
 10
-504.0932952777756
 20
858.4273533176734
 30
0.0
 11
-495.0936004535567
 21
858.4273533176734
 31
0.0
  0
LINE
  5
1ED
330
1F
100
AcDbEntity
  8
C-A
  6
Continuous
 62
     3
370
     9
100
AcDbLine
 10
-504.0932952777756
 20
854.8918308567357
 30
0.0
 11
-495.0936004535567
 21
854.8918308567357
 31
0.0
  0
LINE
  5
1EE
330
1F
100
AcDbEntity
  8
C-A
  6
Continuous
 62
     3
370
     9
100
AcDbLine
 10
-504.0932952777756
 20
851.3563083957981
 30
0.0
 11
-495.0936004535567
 21
851.3563083957981
 31
0.0
  0
LINE
  5
1EF
330
1F
100
AcDbEntity
  8
C-A
  6
Continuous
 62
     3
370
     9
100
AcDbLine
 10
-519.0932952777756
 20
858.4273533176734
 30
0.0
 11
-510.0936004535567
 21
858.4273533176734
 31
0.0
  0
LINE
  5
1F0
330
1F
100
AcDbEntity
  8
C-A
  6
Continuous
 62
     3
370
     9
100
AcDbLine
 10
-519.0932952777756
 20
854.8918308567357
 30
0.0
 11
-510.0936004535567
 21
854.8918308567357
 31
0.0
  0
LINE
  5
1F1
330
1F
100
AcDbEntity
  8
C-A
  6
Continuous
 62
     3
370
     9
100
AcDbLine
 10
-519.0932952777756
 20
851.3563083957981
 30
0.0
 11
-510.0936004535567
 21
851.3563083957981
 31
0.0
  0
LINE
  5
1F2
330
1F
100
AcDbEntity
  8
C-A
  6
Continuous
 62
     3
370
     9
100
AcDbLine
 10
-534.0932952777756
 20
858.4273533176734
 30
0.0
 11
-525.0936004535567
 21
858.4273533176734
 31
0.0
  0
LINE
  5
1F3
330
1F
100
AcDbEntity
  8
C-A
  6
Continuous
 62
     3
370
     9
100
AcDbLine
 10
-534.0932952777756
 20
854.8918308567357
 30
0.0
 11
-525.0936004535567
 21
854.8918308567357
 31
0.0
  0
LINE
  5
1F4
330
1F
100
AcDbEntity
  8
C-A
  6
Continuous
 62
     3
370
     9
100
AcDbLine
 10
-534.0932952777756
 20
851.3563083957981
 30
0.0
 11
-525.0936004535567
 21
851.3563083957981
 31
0.0
  0
LINE
  5
1F5
330
1F
100
AcDbEntity
  8
C-A
  6
Continuous
 62
     3
370
     9
100
AcDbLine
 10
-549.0932952777756
 20
858.4273533176734
 30
0.0
 11
-540.0936004535567
 21
858.4273533176734
 31
0.0
  0
LINE
  5
1F6
330
1F
100
AcDbEntity
  8
C-A
  6
Continuous
 62
     3
370
     9
100
AcDbLine
 10
-549.0932952777756
 20
854.8918308567357
 30
0.0
 11
-540.0936004535567
 21
854.8918308567357
 31
0.0
  0
LINE
  5
1F7
330
1F
100
AcDbEntity
  8
C-A
  6
Continuous
 62
     3
370
     9
100
AcDbLine
 10
-549.0932952777756
 20
851.3563083957981
 30
0.0
 11
-540.0936004535567
 21
851.3563083957981
 31
0.0
  0
LINE
  5
1F8
330
1F
100
AcDbEntity
  8
C-A
  6
Continuous
 62
     3
370
     9
100
AcDbLine
 10
-564.0932952777756
 20
858.4273533176734
 30
0.0
 11
-555.0936004535567
 21
858.4273533176734
 31
0.0
  0
LINE
  5
1F9
330
1F
100
AcDbEntity
  8
C-A
  6
Continuous
 62
     3
370
     9
100
AcDbLine
 10
-564.0932952777756
 20
854.8918308567357
 30
0.0
 11
-555.0936004535567
 21
854.8918308567357
 31
0.0
  0
LINE
  5
1FA
330
1F
100
AcDbEntity
  8
C-A
  6
Continuous
 62
     3
370
     9
100
AcDbLine
 10
-564.0932952777756
 20
851.3563083957981
 30
0.0
 11
-555.0936004535567
 21
851.3563083957981
 31
0.0
  0
LINE
  5
1FB
330
1F
100
AcDbEntity
  8
C-A
  6
Continuous
 62
     3
370
     9
100
AcDbLine
 10
-579.0932952777756
 20
858.4273533176734
 30
0.0
 11
-570.0936004535567
 21
858.4273533176734
 31
0.0
  0
LINE
  5
1FC
330
1F
100
AcDbEntity
  8
C-A
  6
Continuous
 62
     3
370
     9
100
AcDbLine
 10
-579.0932952777756
 20
854.8918308567357
 30
0.0
 11
-570.0936004535567
 21
854.8918308567357
 31
0.0
  0
LINE
  5
1FD
330
1F
100
AcDbEntity
  8
C-A
  6
Continuous
 62
     3
370
     9
100
AcDbLine
 10
-579.0932952777756
 20
851.3563083957981
 30
0.0
 11
-570.0936004535567
 21
851.3563083957981
 31
0.0
  0
LINE
  5
1FE
330
1F
100
AcDbEntity
  8
C-A
  6
Continuous
 62
     3
370
     9
100
AcDbLine
 10
-594.0932952777756
 20
858.4273533176734
 30
0.0
 11
-585.0936004535567
 21
858.4273533176734
 31
0.0
  0
LINE
  5
1FF
330
1F
100
AcDbEntity
  8
C-A
  6
Continuous
 62
     3
370
     9
100
AcDbLine
 10
-594.0932952777756
 20
854.8918308567357
 30
0.0
 11
-585.0936004535567
 21
854.8918308567357
 31
0.0
  0
LINE
  5
200
330
1F
100
AcDbEntity
  8
C-A
  6
Continuous
 62
     3
370
     9
100
AcDbLine
 10
-594.0932952777756
 20
851.3563083957981
 30
0.0
 11
-585.0936004535567
 21
851.3563083957981
 31
0.0
  0
LINE
  5
201
330
1F
100
AcDbEntity
  8
C-A
  6
Continuous
 62
     3
370
     9
100
AcDbLine
 10
-609.0932952777756
 20
858.4273533176734
 30
0.0
 11
-600.0936004535567
 21
858.4273533176734
 31
0.0
  0
LINE
  5
202
330
1F
100
AcDbEntity
  8
C-A
  6
Continuous
 62
     3
370
     9
100
AcDbLine
 10
-609.0932952777756
 20
854.8918308567357
 30
0.0
 11
-600.0936004535567
 21
854.8918308567357
 31
0.0
  0
LINE
  5
203
330
1F
100
AcDbEntity
  8
C-A
  6
Continuous
 62
     3
370
     9
100
AcDbLine
 10
-609.0932952777756
 20
851.3563083957981
 30
0.0
 11
-600.0936004535567
 21
851.3563083957981
 31
0.0
  0
LINE
  5
204
330
1F
100
AcDbEntity
  8
C-A
  6
Continuous
 62
     3
370
     9
100
AcDbLine
 10
-264.0934631244552
 20
858.4273533176734
 30
0.0
 11
-255.0937683002365
 21
858.4273533176734
 31
0.0
  0
LINE
  5
205
330
1F
100
AcDbEntity
  8
C-A
  6
Continuous
 62
     3
370
     9
100
AcDbLine
 10
-264.0934631244552
 20
854.8918308567357
 30
0.0
 11
-255.0937683002365
 21
854.8918308567357
 31
0.0
  0
LINE
  5
206
330
1F
100
AcDbEntity
  8
C-A
  6
Continuous
 62
     3
370
     9
100
AcDbLine
 10
-264.0934631244552
 20
851.3563083957981
 30
0.0
 11
-255.0937683002365
 21
851.3563083957981
 31
0.0
  0
LINE
  5
207
330
1F
100
AcDbEntity
  8
C-A
  6
Continuous
 62
     3
370
     9
100
AcDbLine
 10
-279.093402089299
 20
858.4273533176734
 30
0.0
 11
-270.0937072650802
 21
858.4273533176734
 31
0.0
  0
LINE
  5
208
330
1F
100
AcDbEntity
  8
C-A
  6
Continuous
 62
     3
370
     9
100
AcDbLine
 10
-279.093402089299
 20
854.8918308567357
 30
0.0
 11
-270.0937072650802
 21
854.8918308567357
 31
0.0
  0
LINE
  5
209
330
1F
100
AcDbEntity
  8
C-A
  6
Continuous
 62
     3
370
     9
100
AcDbLine
 10
-279.093402089299
 20
851.3563083957981
 30
0.0
 11
-270.0937072650802
 21
851.3563083957981
 31
0.0
  0
LINE
  5
20A
330
1F
100
AcDbEntity
  8
C-A
  6
Continuous
 62
     3
370
     9
100
AcDbLine
 10
-294.093402089299
 20
858.4273533176734
 30
0.0
 11
-285.0937072650802
 21
858.4273533176734
 31
0.0
  0
LINE
  5
20B
330
1F
100
AcDbEntity
  8
C-A
  6
Continuous
 62
     3
370
     9
100
AcDbLine
 10
-294.093402089299
 20
854.8918308567357
 30
0.0
 11
-285.0937072650802
 21
854.8918308567357
 31
0.0
  0
LINE
  5
20C
330
1F
100
AcDbEntity
  8
C-A
  6
Continuous
 62
     3
370
     9
100
AcDbLine
 10
-294.093402089299
 20
851.3563083957981
 30
0.0
 11
-285.0937072650802
 21
851.3563083957981
 31
0.0
  0
LINE
  5
20D
330
1F
100
AcDbEntity
  8
C-A
  6
Continuous
 62
     3
370
     9
100
AcDbLine
 10
-249.0934631244552
 20
858.4273533176734
 30
0.0
 11
-240.0937683002365
 21
858.4273533176734
 31
0.0
  0
LINE
  5
20E
330
1F
100
AcDbEntity
  8
C-A
  6
Continuous
 62
     3
370
     9
100
AcDbLine
 10
-249.0934631244552
 20
854.8918308567357
 30
0.0
 11
-240.0937683002365
 21
854.8918308567357
 31
0.0
  0
LINE
  5
20F
330
1F
100
AcDbEntity
  8
C-A
  6
Continuous
 62
     3
370
     9
100
AcDbLine
 10
-249.0934631244552
 20
851.3563083957981
 30
0.0
 11
-240.0937683002365
 21
851.3563083957981
 31
0.0
  0
LINE
  5
210
330
1F
100
AcDbEntity
  8
C-A
  6
Continuous
 62
     3
370
     9
100
AcDbLine
 10
-309.093402089299
 20
658.4273533176734
 30
0.0
 11
-300.0936767475021
 21
658.4273533176734
 31
0.0
  0
LINE
  5
211
330
1F
100
AcDbEntity
  8
C-A
  6
Continuous
 62
     3
370
     9
100
AcDbLine
 10
-309.093402089299
 20
654.8918308567357
 30
0.0
 11
-300.0936767475021
 21
654.8918308567357
 31
0.0
  0
LINE
  5
212
330
1F
100
AcDbEntity
  8
C-A
  6
Continuous
 62
     3
370
     9
100
AcDbLine
 10
-309.093402089299
 20
651.3563083957981
 30
0.0
 11
-300.0936767475021
 21
651.3563083957981
 31
0.0
  0
LINE
  5
213
330
1F
100
AcDbEntity
  8
C-A
  6
Continuous
 62
     3
370
     9
100
AcDbLine
 10
-324.0933410541427
 20
658.4273533176734
 30
0.0
 11
-315.0936157123459
 21
658.4273533176734
 31
0.0
  0
LINE
  5
214
330
1F
100
AcDbEntity
  8
C-A
  6
Continuous
 62
     3
370
     9
100
AcDbLine
 10
-324.0933410541427
 20
654.8918308567357
 30
0.0
 11
-315.0936157123459
 21
654.8918308567357
 31
0.0
  0
LINE
  5
215
330
1F
100
AcDbEntity
  8
C-A
  6
Continuous
 62
     3
370
     9
100
AcDbLine
 10
-324.0933410541427
 20
651.3563083957981
 30
0.0
 11
-315.0936157123459
 21
651.3563083957981
 31
0.0
  0
LINE
  5
216
330
1F
100
AcDbEntity
  8
C-A
  6
Continuous
 62
     3
370
     9
100
AcDbLine
 10
-339.0933410541427
 20
658.4273533176734
 30
0.0
 11
-330.0936157123459
 21
658.4273533176734
 31
0.0
  0
LINE
  5
217
330
1F
100
AcDbEntity
  8
C-A
  6
Continuous
 62
     3
370
     9
100
AcDbLine
 10
-339.0933410541427
 20
654.8918308567357
 30
0.0
 11
-330.0936157123459
 21
654.8918308567357
 31
0.0
  0
LINE
  5
218
330
1F
100
AcDbEntity
  8
C-A
  6
Continuous
 62
     3
370
     9
100
AcDbLine
 10
-339.0933410541427
 20
651.3563083957981
 30
0.0
 11
-330.0936157123459
 21
651.3563083957981
 31
0.0
  0
LINE
  5
219
330
1F
100
AcDbEntity
  8
C-A
  6
Continuous
 62
     3
370
     9
100
AcDbLine
 10
-354.0933410541427
 20
658.4273533176734
 30
0.0
 11
-345.0936157123459
 21
658.4273533176734
 31
0.0
  0
LINE
  5
21A
330
1F
100
AcDbEntity
  8
C-A
  6
Continuous
 62
     3
370
     9
100
AcDbLine
 10
-354.0933410541427
 20
654.8918308567357
 30
0.0
 11
-345.0936157123459
 21
654.8918308567357
 31
0.0
  0
LINE
  5
21B
330
1F
100
AcDbEntity
  8
C-A
  6
Continuous
 62
     3
370
     9
100
AcDbLine
 10
-354.0933410541427
 20
651.3563083957981
 30
0.0
 11
-345.0936157123459
 21
651.3563083957981
 31
0.0
  0
LINE
  5
21C
330
1F
100
AcDbEntity
  8
C-A
  6
Continuous
 62
     3
370
     9
100
AcDbLine
 10
-369.0933105365646
 20
658.4273533176734
 30
0.0
 11
-360.0936157123459
 21
658.4273533176734
 31
0.0
  0
LINE
  5
21D
330
1F
100
AcDbEntity
  8
C-A
  6
Continuous
 62
     3
370
     9
100
AcDbLine
 10
-369.0933105365646
 20
654.8918308567357
 30
0.0
 11
-360.0936157123459
 21
654.8918308567357
 31
0.0
  0
LINE
  5
21E
330
1F
100
AcDbEntity
  8
C-A
  6
Continuous
 62
     3
370
     9
100
AcDbLine
 10
-369.0933105365646
 20
651.3563083957981
 30
0.0
 11
-360.0936157123459
 21
651.3563083957981
 31
0.0
  0
LINE
  5
21F
330
1F
100
AcDbEntity
  8
C-A
  6
Continuous
 62
     3
370
     9
100
AcDbLine
 10
-384.0933105365646
 20
658.4273533176734
 30
0.0
 11
-375.0936157123459
 21
658.4273533176734
 31
0.0
  0
LINE
  5
220
330
1F
100
AcDbEntity
  8
C-A
  6
Continuous
 62
     3
370
     9
100
AcDbLine
 10
-384.0933105365646
 20
654.8918308567357
 30
0.0
 11
-375.0936157123459
 21
654.8918308567357
 31
0.0
  0
LINE
  5
221
330
1F
100
AcDbEntity
  8
C-A
  6
Continuous
 62
     3
370
     9
100
AcDbLine
 10
-384.0933105365646
 20
651.3563083957981
 30
0.0
 11
-375.0936157123459
 21
651.3563083957981
 31
0.0
  0
LINE
  5
222
330
1F
100
AcDbEntity
  8
C-A
  6
Continuous
 62
     3
370
     9
100
AcDbLine
 10
-399.0933105365646
 20
658.4273533176734
 30
0.0
 11
-390.0936157123459
 21
658.4273533176734
 31
0.0
  0
LINE
  5
223
330
1F
100
AcDbEntity
  8
C-A
  6
Continuous
 62
     3
370
     9
100
AcDbLine
 10
-399.0933105365646
 20
654.8918308567357
 30
0.0
 11
-390.0936157123459
 21
654.8918308567357
 31
0.0
  0
LINE
  5
224
330
1F
100
AcDbEntity
  8
C-A
  6
Continuous
 62
     3
370
     9
100
AcDbLine
 10
-399.0933105365646
 20
651.3563083957981
 30
0.0
 11
-390.0936157123459
 21
651.3563083957981
 31
0.0
  0
LINE
  5
225
330
1F
100
AcDbEntity
  8
C-A
  6
Continuous
 62
     3
370
     9
100
AcDbLine
 10
-414.0933105365646
 20
658.4273533176734
 30
0.0
 11
-405.0936157123459
 21
658.4273533176734
 31
0.0
  0
LINE
  5
226
330
1F
100
AcDbEntity
  8
C-A
  6
Continuous
 62
     3
370
     9
100
AcDbLine
 10
-414.0933105365646
 20
654.8918308567357
 30
0.0
 11
-405.0936157123459
 21
654.8918308567357
 31
0.0
  0
LINE
  5
227
330
1F
100
AcDbEntity
  8
C-A
  6
Continuous
 62
     3
370
     9
100
AcDbLine
 10
-414.0933105365646
 20
651.3563083957981
 30
0.0
 11
-405.0936157123459
 21
651.3563083957981
 31
0.0
  0
LINE
  5
228
330
1F
100
AcDbEntity
  8
C-A
  6
Continuous
 62
     3
370
     9
100
AcDbLine
 10
-429.0933105365646
 20
658.4273533176734
 30
0.0
 11
-420.0936157123459
 21
658.4273533176734
 31
0.0
  0
LINE
  5
229
330
1F
100
AcDbEntity
  8
C-A
  6
Continuous
 62
     3
370
     9
100
AcDbLine
 10
-429.0933105365646
 20
654.8918308567357
 30
0.0
 11
-420.0936157123459
 21
654.8918308567357
 31
0.0
  0
LINE
  5
22A
330
1F
100
AcDbEntity
  8
C-A
  6
Continuous
 62
     3
370
     9
100
AcDbLine
 10
-429.0933105365646
 20
651.3563083957981
 30
0.0
 11
-420.0936157123459
 21
651.3563083957981
 31
0.0
  0
LINE
  5
22B
330
1F
100
AcDbEntity
  8
C-A
  6
Continuous
 62
     3
370
     9
100
AcDbLine
 10
-444.0932952777756
 20
658.4273533176734
 30
0.0
 11
-435.0936004535567
 21
658.4273533176734
 31
0.0
  0
LINE
  5
22C
330
1F
100
AcDbEntity
  8
C-A
  6
Continuous
 62
     3
370
     9
100
AcDbLine
 10
-444.0932952777756
 20
654.8918308567357
 30
0.0
 11
-435.0936004535567
 21
654.8918308567357
 31
0.0
  0
LINE
  5
22D
330
1F
100
AcDbEntity
  8
C-A
  6
Continuous
 62
     3
370
     9
100
AcDbLine
 10
-444.0932952777756
 20
651.3563083957981
 30
0.0
 11
-435.0936004535567
 21
651.3563083957981
 31
0.0
  0
LINE
  5
22E
330
1F
100
AcDbEntity
  8
C-A
  6
Continuous
 62
     3
370
     9
100
AcDbLine
 10
-459.0932952777756
 20
658.4273533176734
 30
0.0
 11
-450.0936004535567
 21
658.4273533176734
 31
0.0
  0
LINE
  5
22F
330
1F
100
AcDbEntity
  8
C-A
  6
Continuous
 62
     3
370
     9
100
AcDbLine
 10
-459.0932952777756
 20
654.8918308567357
 30
0.0
 11
-450.0936004535567
 21
654.8918308567357
 31
0.0
  0
LINE
  5
230
330
1F
100
AcDbEntity
  8
C-A
  6
Continuous
 62
     3
370
     9
100
AcDbLine
 10
-459.0932952777756
 20
651.3563083957981
 30
0.0
 11
-450.0936004535567
 21
651.3563083957981
 31
0.0
  0
LINE
  5
231
330
1F
100
AcDbEntity
  8
C-A
  6
Continuous
 62
     3
370
     9
100
AcDbLine
 10
-474.0932952777756
 20
658.4273533176734
 30
0.0
 11
-465.0936004535567
 21
658.4273533176734
 31
0.0
  0
LINE
  5
232
330
1F
100
AcDbEntity
  8
C-A
  6
Continuous
 62
     3
370
     9
100
AcDbLine
 10
-474.0932952777756
 20
654.8918308567357
 30
0.0
 11
-465.0936004535567
 21
654.8918308567357
 31
0.0
  0
LINE
  5
233
330
1F
100
AcDbEntity
  8
C-A
  6
Continuous
 62
     3
370
     9
100
AcDbLine
 10
-474.0932952777756
 20
651.3563083957981
 30
0.0
 11
-465.0936004535567
 21
651.3563083957981
 31
0.0
  0
LINE
  5
234
330
1F
100
AcDbEntity
  8
C-A
  6
Continuous
 62
     3
370
     9
100
AcDbLine
 10
-489.0932952777756
 20
658.4273533176734
 30
0.0
 11
-480.0936004535567
 21
658.4273533176734
 31
0.0
  0
LINE
  5
235
330
1F
100
AcDbEntity
  8
C-A
  6
Continuous
 62
     3
370
     9
100
AcDbLine
 10
-489.0932952777756
 20
654.8918308567357
 30
0.0
 11
-480.0936004535567
 21
654.8918308567357
 31
0.0
  0
LINE
  5
236
330
1F
100
AcDbEntity
  8
C-A
  6
Continuous
 62
     3
370
     9
100
AcDbLine
 10
-489.0932952777756
 20
651.3563083957981
 30
0.0
 11
-480.0936004535567
 21
651.3563083957981
 31
0.0
  0
LINE
  5
237
330
1F
100
AcDbEntity
  8
C-A
  6
Continuous
 62
     3
370
     9
100
AcDbLine
 10
-504.0932952777756
 20
658.4273533176734
 30
0.0
 11
-495.0936004535567
 21
658.4273533176734
 31
0.0
  0
LINE
  5
238
330
1F
100
AcDbEntity
  8
C-A
  6
Continuous
 62
     3
370
     9
100
AcDbLine
 10
-504.0932952777756
 20
654.8918308567357
 30
0.0
 11
-495.0936004535567
 21
654.8918308567357
 31
0.0
  0
LINE
  5
239
330
1F
100
AcDbEntity
  8
C-A
  6
Continuous
 62
     3
370
     9
100
AcDbLine
 10
-504.0932952777756
 20
651.3563083957981
 30
0.0
 11
-495.0936004535567
 21
651.3563083957981
 31
0.0
  0
LINE
  5
23A
330
1F
100
AcDbEntity
  8
C-A
  6
Continuous
 62
     3
370
     9
100
AcDbLine
 10
-519.0932952777756
 20
658.4273533176734
 30
0.0
 11
-510.0936004535567
 21
658.4273533176734
 31
0.0
  0
LINE
  5
23B
330
1F
100
AcDbEntity
  8
C-A
  6
Continuous
 62
     3
370
     9
100
AcDbLine
 10
-519.0932952777756
 20
654.8918308567357
 30
0.0
 11
-510.0936004535567
 21
654.8918308567357
 31
0.0
  0
LINE
  5
23C
330
1F
100
AcDbEntity
  8
C-A
  6
Continuous
 62
     3
370
     9
100
AcDbLine
 10
-519.0932952777756
 20
651.3563083957981
 30
0.0
 11
-510.0936004535567
 21
651.3563083957981
 31
0.0
  0
LINE
  5
23D
330
1F
100
AcDbEntity
  8
C-A
  6
Continuous
 62
     3
370
     9
100
AcDbLine
 10
-534.0932952777756
 20
658.4273533176734
 30
0.0
 11
-525.0936004535567
 21
658.4273533176734
 31
0.0
  0
LINE
  5
23E
330
1F
100
AcDbEntity
  8
C-A
  6
Continuous
 62
     3
370
     9
100
AcDbLine
 10
-534.0932952777756
 20
654.8918308567357
 30
0.0
 11
-525.0936004535567
 21
654.8918308567357
 31
0.0
  0
LINE
  5
23F
330
1F
100
AcDbEntity
  8
C-A
  6
Continuous
 62
     3
370
     9
100
AcDbLine
 10
-534.0932952777756
 20
651.3563083957981
 30
0.0
 11
-525.0936004535567
 21
651.3563083957981
 31
0.0
  0
LINE
  5
240
330
1F
100
AcDbEntity
  8
C-A
  6
Continuous
 62
     3
370
     9
100
AcDbLine
 10
-549.0932952777756
 20
658.4273533176734
 30
0.0
 11
-540.0936004535567
 21
658.4273533176734
 31
0.0
  0
LINE
  5
241
330
1F
100
AcDbEntity
  8
C-A
  6
Continuous
 62
     3
370
     9
100
AcDbLine
 10
-549.0932952777756
 20
654.8918308567357
 30
0.0
 11
-540.0936004535567
 21
654.8918308567357
 31
0.0
  0
LINE
  5
242
330
1F
100
AcDbEntity
  8
C-A
  6
Continuous
 62
     3
370
     9
100
AcDbLine
 10
-549.0932952777756
 20
651.3563083957981
 30
0.0
 11
-540.0936004535567
 21
651.3563083957981
 31
0.0
  0
LINE
  5
243
330
1F
100
AcDbEntity
  8
C-A
  6
Continuous
 62
     3
370
     9
100
AcDbLine
 10
-564.0932952777756
 20
658.4273533176734
 30
0.0
 11
-555.0936004535567
 21
658.4273533176734
 31
0.0
  0
LINE
  5
244
330
1F
100
AcDbEntity
  8
C-A
  6
Continuous
 62
     3
370
     9
100
AcDbLine
 10
-564.0932952777756
 20
654.8918308567357
 30
0.0
 11
-555.0936004535567
 21
654.8918308567357
 31
0.0
  0
LINE
  5
245
330
1F
100
AcDbEntity
  8
C-A
  6
Continuous
 62
     3
370
     9
100
AcDbLine
 10
-564.0932952777756
 20
651.3563083957981
 30
0.0
 11
-555.0936004535567
 21
651.3563083957981
 31
0.0
  0
LINE
  5
246
330
1F
100
AcDbEntity
  8
C-A
  6
Continuous
 62
     3
370
     9
100
AcDbLine
 10
-579.0932952777756
 20
658.4273533176734
 30
0.0
 11
-570.0936004535567
 21
658.4273533176734
 31
0.0
  0
LINE
  5
247
330
1F
100
AcDbEntity
  8
C-A
  6
Continuous
 62
     3
370
     9
100
AcDbLine
 10
-579.0932952777756
 20
654.8918308567357
 30
0.0
 11
-570.0936004535567
 21
654.8918308567357
 31
0.0
  0
LINE
  5
248
330
1F
100
AcDbEntity
  8
C-A
  6
Continuous
 62
     3
370
     9
100
AcDbLine
 10
-579.0932952777756
 20
651.3563083957981
 30
0.0
 11
-570.0936004535567
 21
651.3563083957981
 31
0.0
  0
LINE
  5
249
330
1F
100
AcDbEntity
  8
C-A
  6
Continuous
 62
     3
370
     9
100
AcDbLine
 10
-594.0932952777756
 20
658.4273533176734
 30
0.0
 11
-585.0936004535567
 21
658.4273533176734
 31
0.0
  0
LINE
  5
24A
330
1F
100
AcDbEntity
  8
C-A
  6
Continuous
 62
     3
370
     9
100
AcDbLine
 10
-594.0932952777756
 20
654.8918308567357
 30
0.0
 11
-585.0936004535567
 21
654.8918308567357
 31
0.0
  0
LINE
  5
24B
330
1F
100
AcDbEntity
  8
C-A
  6
Continuous
 62
     3
370
     9
100
AcDbLine
 10
-594.0932952777756
 20
651.3563083957981
 30
0.0
 11
-585.0936004535567
 21
651.3563083957981
 31
0.0
  0
LINE
  5
24C
330
1F
100
AcDbEntity
  8
C-A
  6
Continuous
 62
     3
370
     9
100
AcDbLine
 10
-609.0932952777756
 20
658.4273533176734
 30
0.0
 11
-600.0936004535567
 21
658.4273533176734
 31
0.0
  0
LINE
  5
24D
330
1F
100
AcDbEntity
  8
C-A
  6
Continuous
 62
     3
370
     9
100
AcDbLine
 10
-609.0932952777756
 20
654.8918308567357
 30
0.0
 11
-600.0936004535567
 21
654.8918308567357
 31
0.0
  0
LINE
  5
24E
330
1F
100
AcDbEntity
  8
C-A
  6
Continuous
 62
     3
370
     9
100
AcDbLine
 10
-609.0932952777756
 20
651.3563083957981
 30
0.0
 11
-600.0936004535567
 21
651.3563083957981
 31
0.0
  0
LINE
  5
24F
330
1F
100
AcDbEntity
  8
C-A
  6
Continuous
 62
     3
370
     9
100
AcDbLine
 10
-264.0934631244552
 20
658.4273533176734
 30
0.0
 11
-255.0937683002365
 21
658.4273533176734
 31
0.0
  0
LINE
  5
250
330
1F
100
AcDbEntity
  8
C-A
  6
Continuous
 62
     3
370
     9
100
AcDbLine
 10
-264.0934631244552
 20
654.8918308567357
 30
0.0
 11
-255.0937683002365
 21
654.8918308567357
 31
0.0
  0
LINE
  5
251
330
1F
100
AcDbEntity
  8
C-A
  6
Continuous
 62
     3
370
     9
100
AcDbLine
 10
-264.0934631244552
 20
651.3563083957981
 30
0.0
 11
-255.0937683002365
 21
651.3563083957981
 31
0.0
  0
LINE
  5
252
330
1F
100
AcDbEntity
  8
C-A
  6
Continuous
 62
     3
370
     9
100
AcDbLine
 10
-279.093402089299
 20
658.4273533176734
 30
0.0
 11
-270.0937072650802
 21
658.4273533176734
 31
0.0
  0
LINE
  5
253
330
1F
100
AcDbEntity
  8
C-A
  6
Continuous
 62
     3
370
     9
100
AcDbLine
 10
-279.093402089299
 20
654.8918308567357
 30
0.0
 11
-270.0937072650802
 21
654.8918308567357
 31
0.0
  0
LINE
  5
254
330
1F
100
AcDbEntity
  8
C-A
  6
Continuous
 62
     3
370
     9
100
AcDbLine
 10
-279.093402089299
 20
651.3563083957981
 30
0.0
 11
-270.0937072650802
 21
651.3563083957981
 31
0.0
  0
LINE
  5
255
330
1F
100
AcDbEntity
  8
C-A
  6
Continuous
 62
     3
370
     9
100
AcDbLine
 10
-294.093402089299
 20
658.4273533176734
 30
0.0
 11
-285.0937072650802
 21
658.4273533176734
 31
0.0
  0
LINE
  5
256
330
1F
100
AcDbEntity
  8
C-A
  6
Continuous
 62
     3
370
     9
100
AcDbLine
 10
-294.093402089299
 20
654.8918308567357
 30
0.0
 11
-285.0937072650802
 21
654.8918308567357
 31
0.0
  0
LINE
  5
257
330
1F
100
AcDbEntity
  8
C-A
  6
Continuous
 62
     3
370
     9
100
AcDbLine
 10
-294.093402089299
 20
651.3563083957981
 30
0.0
 11
-285.0937072650802
 21
651.3563083957981
 31
0.0
  0
LINE
  5
258
330
1F
100
AcDbEntity
  8
C-A
  6
Continuous
 62
     3
370
     9
100
AcDbLine
 10
-369.0933105365646
 20
558.4273685764623
 30
0.0
 11
-360.0936157123459
 21
558.4273685764623
 31
0.0
  0
LINE
  5
259
330
1F
100
AcDbEntity
  8
C-A
  6
Continuous
 62
     3
370
     9
100
AcDbLine
 10
-369.0933105365646
 20
554.8918308567357
 30
0.0
 11
-360.0936157123459
 21
554.8918308567357
 31
0.0
  0
LINE
  5
25A
330
1F
100
AcDbEntity
  8
C-A
  6
Continuous
 62
     3
370
     9
100
AcDbLine
 10
-369.0933105365646
 20
551.3562931370092
 30
0.0
 11
-360.0936157123459
 21
551.3562931370092
 31
0.0
  0
LINE
  5
25B
330
1F
100
AcDbEntity
  8
C-A
  6
Continuous
 62
     3
370
     9
100
AcDbLine
 10
-384.0933105365646
 20
558.4273685764623
 30
0.0
 11
-375.0936157123459
 21
558.4273685764623
 31
0.0
  0
LINE
  5
25C
330
1F
100
AcDbEntity
  8
C-A
  6
Continuous
 62
     3
370
     9
100
AcDbLine
 10
-384.0933105365646
 20
554.8918308567357
 30
0.0
 11
-375.0936157123459
 21
554.8918308567357
 31
0.0
  0
LINE
  5
25D
330
1F
100
AcDbEntity
  8
C-A
  6
Continuous
 62
     3
370
     9
100
AcDbLine
 10
-384.0933105365646
 20
551.3562931370092
 30
0.0
 11
-375.0936157123459
 21
551.3562931370092
 31
0.0
  0
LINE
  5
25E
330
1F
100
AcDbEntity
  8
C-A
  6
Continuous
 62
     3
370
     9
100
AcDbLine
 10
-399.0933105365646
 20
558.4273685764623
 30
0.0
 11
-390.0936157123459
 21
558.4273685764623
 31
0.0
  0
LINE
  5
25F
330
1F
100
AcDbEntity
  8
C-A
  6
Continuous
 62
     3
370
     9
100
AcDbLine
 10
-399.0933105365646
 20
554.8918308567357
 30
0.0
 11
-390.0936157123459
 21
554.8918308567357
 31
0.0
  0
LINE
  5
260
330
1F
100
AcDbEntity
  8
C-A
  6
Continuous
 62
     3
370
     9
100
AcDbLine
 10
-399.0933105365646
 20
551.3562931370092
 30
0.0
 11
-390.0936157123459
 21
551.3562931370092
 31
0.0
  0
LINE
  5
261
330
1F
100
AcDbEntity
  8
C-A
  6
Continuous
 62
     3
370
     9
100
AcDbLine
 10
-414.0933105365646
 20
558.4273685764623
 30
0.0
 11
-405.0936157123459
 21
558.4273685764623
 31
0.0
  0
LINE
  5
262
330
1F
100
AcDbEntity
  8
C-A
  6
Continuous
 62
     3
370
     9
100
AcDbLine
 10
-414.0933105365646
 20
554.8918308567357
 30
0.0
 11
-405.0936157123459
 21
554.8918308567357
 31
0.0
  0
LINE
  5
263
330
1F
100
AcDbEntity
  8
C-A
  6
Continuous
 62
     3
370
     9
100
AcDbLine
 10
-414.0933105365646
 20
551.3562931370092
 30
0.0
 11
-405.0936157123459
 21
551.3562931370092
 31
0.0
  0
LINE
  5
264
330
1F
100
AcDbEntity
  8
C-A
  6
Continuous
 62
     3
370
     9
100
AcDbLine
 10
-429.0933105365646
 20
558.4273685764623
 30
0.0
 11
-420.0936157123459
 21
558.4273685764623
 31
0.0
  0
LINE
  5
265
330
1F
100
AcDbEntity
  8
C-A
  6
Continuous
 62
     3
370
     9
100
AcDbLine
 10
-429.0933105365646
 20
554.8918308567357
 30
0.0
 11
-420.0936157123459
 21
554.8918308567357
 31
0.0
  0
LINE
  5
266
330
1F
100
AcDbEntity
  8
C-A
  6
Continuous
 62
     3
370
     9
100
AcDbLine
 10
-429.0933105365646
 20
551.3562931370092
 30
0.0
 11
-420.0936157123459
 21
551.3562931370092
 31
0.0
  0
LINE
  5
267
330
1F
100
AcDbEntity
  8
C-A
  6
Continuous
 62
     3
370
     9
100
AcDbLine
 10
-444.0932952777756
 20
558.4273685764623
 30
0.0
 11
-435.0936004535567
 21
558.4273685764623
 31
0.0
  0
LINE
  5
268
330
1F
100
AcDbEntity
  8
C-A
  6
Continuous
 62
     3
370
     9
100
AcDbLine
 10
-444.0932952777756
 20
554.8918308567357
 30
0.0
 11
-435.0936004535567
 21
554.8918308567357
 31
0.0
  0
LINE
  5
269
330
1F
100
AcDbEntity
  8
C-A
  6
Continuous
 62
     3
370
     9
100
AcDbLine
 10
-444.0932952777756
 20
551.3562931370092
 30
0.0
 11
-435.0936004535567
 21
551.3562931370092
 31
0.0
  0
LINE
  5
26A
330
1F
100
AcDbEntity
  8
C-A
  6
Continuous
 62
     3
370
     9
100
AcDbLine
 10
-459.0932952777756
 20
558.4273685764623
 30
0.0
 11
-450.0936004535567
 21
558.4273685764623
 31
0.0
  0
LINE
  5
26B
330
1F
100
AcDbEntity
  8
C-A
  6
Continuous
 62
     3
370
     9
100
AcDbLine
 10
-459.0932952777756
 20
554.8918308567357
 30
0.0
 11
-450.0936004535567
 21
554.8918308567357
 31
0.0
  0
LINE
  5
26C
330
1F
100
AcDbEntity
  8
C-A
  6
Continuous
 62
     3
370
     9
100
AcDbLine
 10
-459.0932952777756
 20
551.3562931370092
 30
0.0
 11
-450.0936004535567
 21
551.3562931370092
 31
0.0
  0
LINE
  5
26D
330
1F
100
AcDbEntity
  8
C-A
  6
Continuous
 62
     3
370
     9
100
AcDbLine
 10
-474.0932952777756
 20
558.4273685764623
 30
0.0
 11
-465.0936004535567
 21
558.4273685764623
 31
0.0
  0
LINE
  5
26E
330
1F
100
AcDbEntity
  8
C-A
  6
Continuous
 62
     3
370
     9
100
AcDbLine
 10
-474.0932952777756
 20
554.8918308567357
 30
0.0
 11
-465.0936004535567
 21
554.8918308567357
 31
0.0
  0
LINE
  5
26F
330
1F
100
AcDbEntity
  8
C-A
  6
Continuous
 62
     3
370
     9
100
AcDbLine
 10
-474.0932952777756
 20
551.3562931370092
 30
0.0
 11
-465.0936004535567
 21
551.3562931370092
 31
0.0
  0
LINE
  5
270
330
1F
100
AcDbEntity
  8
C-A
  6
Continuous
 62
     3
370
     9
100
AcDbLine
 10
-489.0932952777756
 20
558.4273685764623
 30
0.0
 11
-480.0936004535567
 21
558.4273685764623
 31
0.0
  0
LINE
  5
271
330
1F
100
AcDbEntity
  8
C-A
  6
Continuous
 62
     3
370
     9
100
AcDbLine
 10
-489.0932952777756
 20
554.8918308567357
 30
0.0
 11
-480.0936004535567
 21
554.8918308567357
 31
0.0
  0
LINE
  5
272
330
1F
100
AcDbEntity
  8
C-A
  6
Continuous
 62
     3
370
     9
100
AcDbLine
 10
-489.0932952777756
 20
551.3562931370092
 30
0.0
 11
-480.0936004535567
 21
551.3562931370092
 31
0.0
  0
LINE
  5
273
330
1F
100
AcDbEntity
  8
C-A
  6
Continuous
 62
     3
370
     9
100
AcDbLine
 10
-504.0932952777756
 20
558.4273685764623
 30
0.0
 11
-495.0936004535567
 21
558.4273685764623
 31
0.0
  0
LINE
  5
274
330
1F
100
AcDbEntity
  8
C-A
  6
Continuous
 62
     3
370
     9
100
AcDbLine
 10
-504.0932952777756
 20
554.8918308567357
 30
0.0
 11
-495.0936004535567
 21
554.8918308567357
 31
0.0
  0
LINE
  5
275
330
1F
100
AcDbEntity
  8
C-A
  6
Continuous
 62
     3
370
     9
100
AcDbLine
 10
-504.0932952777756
 20
551.3562931370092
 30
0.0
 11
-495.0936004535567
 21
551.3562931370092
 31
0.0
  0
LINE
  5
276
330
1F
100
AcDbEntity
  8
C-A
  6
Continuous
 62
     3
370
     9
100
AcDbLine
 10
-519.0932952777756
 20
558.4273685764623
 30
0.0
 11
-510.0936004535567
 21
558.4273685764623
 31
0.0
  0
LINE
  5
277
330
1F
100
AcDbEntity
  8
C-A
  6
Continuous
 62
     3
370
     9
100
AcDbLine
 10
-519.0932952777756
 20
554.8918308567357
 30
0.0
 11
-510.0936004535567
 21
554.8918308567357
 31
0.0
  0
LINE
  5
278
330
1F
100
AcDbEntity
  8
C-A
  6
Continuous
 62
     3
370
     9
100
AcDbLine
 10
-519.0932952777756
 20
551.3562931370092
 30
0.0
 11
-510.0936004535567
 21
551.3562931370092
 31
0.0
  0
LINE
  5
279
330
1F
100
AcDbEntity
  8
C-A
  6
Continuous
 62
     3
370
     9
100
AcDbLine
 10
-534.0932952777756
 20
558.4273685764623
 30
0.0
 11
-525.0936004535567
 21
558.4273685764623
 31
0.0
  0
LINE
  5
27A
330
1F
100
AcDbEntity
  8
C-A
  6
Continuous
 62
     3
370
     9
100
AcDbLine
 10
-534.0932952777756
 20
554.8918308567357
 30
0.0
 11
-525.0936004535567
 21
554.8918308567357
 31
0.0
  0
LINE
  5
27B
330
1F
100
AcDbEntity
  8
C-A
  6
Continuous
 62
     3
370
     9
100
AcDbLine
 10
-534.0932952777756
 20
551.3562931370092
 30
0.0
 11
-525.0936004535567
 21
551.3562931370092
 31
0.0
  0
LINE
  5
27C
330
1F
100
AcDbEntity
  8
C-A
  6
Continuous
 62
     3
370
     9
100
AcDbLine
 10
-549.0932952777756
 20
558.4273685764623
 30
0.0
 11
-540.0936004535567
 21
558.4273685764623
 31
0.0
  0
LINE
  5
27D
330
1F
100
AcDbEntity
  8
C-A
  6
Continuous
 62
     3
370
     9
100
AcDbLine
 10
-549.0932952777756
 20
554.8918308567357
 30
0.0
 11
-540.0936004535567
 21
554.8918308567357
 31
0.0
  0
LINE
  5
27E
330
1F
100
AcDbEntity
  8
C-A
  6
Continuous
 62
     3
370
     9
100
AcDbLine
 10
-549.0932952777756
 20
551.3562931370092
 30
0.0
 11
-540.0936004535567
 21
551.3562931370092
 31
0.0
  0
LINE
  5
27F
330
1F
100
AcDbEntity
  8
C-A
  6
Continuous
 62
     3
370
     9
100
AcDbLine
 10
-564.0932952777756
 20
558.4273685764623
 30
0.0
 11
-555.0936004535567
 21
558.4273685764623
 31
0.0
  0
LINE
  5
280
330
1F
100
AcDbEntity
  8
C-A
  6
Continuous
 62
     3
370
     9
100
AcDbLine
 10
-564.0932952777756
 20
554.8918308567357
 30
0.0
 11
-555.0936004535567
 21
554.8918308567357
 31
0.0
  0
LINE
  5
281
330
1F
100
AcDbEntity
  8
C-A
  6
Continuous
 62
     3
370
     9
100
AcDbLine
 10
-564.0932952777756
 20
551.3562931370092
 30
0.0
 11
-555.0936004535567
 21
551.3562931370092
 31
0.0
  0
LINE
  5
282
330
1F
100
AcDbEntity
  8
C-A
  6
Continuous
 62
     3
370
     9
100
AcDbLine
 10
-579.0932952777756
 20
558.4273685764623
 30
0.0
 11
-570.0936004535567
 21
558.4273685764623
 31
0.0
  0
LINE
  5
283
330
1F
100
AcDbEntity
  8
C-A
  6
Continuous
 62
     3
370
     9
100
AcDbLine
 10
-579.0932952777756
 20
554.8918308567357
 30
0.0
 11
-570.0936004535567
 21
554.8918308567357
 31
0.0
  0
LINE
  5
284
330
1F
100
AcDbEntity
  8
C-A
  6
Continuous
 62
     3
370
     9
100
AcDbLine
 10
-579.0932952777756
 20
551.3562931370092
 30
0.0
 11
-570.0936004535567
 21
551.3562931370092
 31
0.0
  0
LINE
  5
285
330
1F
100
AcDbEntity
  8
C-A
  6
Continuous
 62
     3
370
     9
100
AcDbLine
 10
-594.0932952777756
 20
558.4273685764623
 30
0.0
 11
-585.0936004535567
 21
558.4273685764623
 31
0.0
  0
LINE
  5
286
330
1F
100
AcDbEntity
  8
C-A
  6
Continuous
 62
     3
370
     9
100
AcDbLine
 10
-594.0932952777756
 20
554.8918308567357
 30
0.0
 11
-585.0936004535567
 21
554.8918308567357
 31
0.0
  0
LINE
  5
287
330
1F
100
AcDbEntity
  8
C-A
  6
Continuous
 62
     3
370
     9
100
AcDbLine
 10
-594.0932952777756
 20
551.3562931370092
 30
0.0
 11
-585.0936004535567
 21
551.3562931370092
 31
0.0
  0
LINE
  5
288
330
1F
100
AcDbEntity
  8
C-A
  6
Continuous
 62
     3
370
     9
100
AcDbLine
 10
-609.0932952777756
 20
558.4273685764623
 30
0.0
 11
-600.0936004535567
 21
558.4273685764623
 31
0.0
  0
LINE
  5
289
330
1F
100
AcDbEntity
  8
C-A
  6
Continuous
 62
     3
370
     9
100
AcDbLine
 10
-609.0932952777756
 20
554.8918308567357
 30
0.0
 11
-600.0936004535567
 21
554.8918308567357
 31
0.0
  0
LINE
  5
28A
330
1F
100
AcDbEntity
  8
C-A
  6
Continuous
 62
     3
370
     9
100
AcDbLine
 10
-609.0932952777756
 20
551.3562931370092
 30
0.0
 11
-600.0936004535567
 21
551.3562931370092
 31
0.0
  0
LINE
  5
28B
330
1F
100
AcDbEntity
  8
C-A
  6
Continuous
 62
     3
370
     9
100
AcDbLine
 10
-621.0940505878341
 20
751.3563083957981
 30
0.0
 11
-615.0939208881272
 21
751.3563083957981
 31
0.0
  0
LINE
  5
28C
330
1F
100
AcDbEntity
  8
C-A
  6
Continuous
 62
     3
370
     9
100
AcDbLine
 10
-621.0940505878341
 20
754.8918308567357
 30
0.0
 11
-615.0939208881272
 21
754.8918308567357
 31
0.0
  0
LINE
  5
28D
330
1F
100
AcDbEntity
  8
C-A
  6
Continuous
 62
     3
370
     9
100
AcDbLine
 10
-621.0940505878341
 20
758.4273533176734
 30
0.0
 11
-615.0939208881272
 21
758.4273533176734
 31
0.0
  0
LINE
  5
28E
330
1F
100
AcDbEntity
  8
C-A
  6
Continuous
 62
     3
370
     9
100
AcDbLine
 10
-621.0940505878341
 20
851.3563083957981
 30
0.0
 11
-615.0939208881272
 21
851.3563083957981
 31
0.0
  0
LINE
  5
28F
330
1F
100
AcDbEntity
  8
C-A
  6
Continuous
 62
     3
370
     9
100
AcDbLine
 10
-621.0940505878341
 20
854.8918308567357
 30
0.0
 11
-615.0939208881272
 21
854.8918308567357
 31
0.0
  0
LINE
  5
290
330
1F
100
AcDbEntity
  8
C-A
  6
Continuous
 62
     3
370
     9
100
AcDbLine
 10
-621.0940505878341
 20
858.4273533176734
 30
0.0
 11
-615.0939208881272
 21
858.4273533176734
 31
0.0
  0
LINE
  5
291
330
1F
100
AcDbEntity
  8
C-A
  6
Continuous
 62
     3
370
     9
100
AcDbLine
 10
-621.0940505878341
 20
651.3563083957981
 30
0.0
 11
-615.0939208881272
 21
651.3563083957981
 31
0.0
  0
LINE
  5
292
330
1F
100
AcDbEntity
  8
C-A
  6
Continuous
 62
     3
370
     9
100
AcDbLine
 10
-621.0940505878341
 20
654.8918308567357
 30
0.0
 11
-615.0939208881272
 21
654.8918308567357
 31
0.0
  0
LINE
  5
293
330
1F
100
AcDbEntity
  8
C-A
  6
Continuous
 62
     3
370
     9
100
AcDbLine
 10
-621.0940505878341
 20
658.4273533176734
 30
0.0
 11
-615.0939208881272
 21
658.4273533176734
 31
0.0
  0
LINE
  5
294
330
1F
100
AcDbEntity
  8
C-A
  6
Continuous
 62
     3
370
     9
100
AcDbLine
 10
-621.0940505878341
 20
551.3562931370092
 30
0.0
 11
-615.0939208881272
 21
551.3562931370092
 31
0.0
  0
LINE
  5
295
330
1F
100
AcDbEntity
  8
C-A
  6
Continuous
 62
     3
370
     9
100
AcDbLine
 10
-621.0940505878341
 20
554.8918308567357
 30
0.0
 11
-615.0939208881272
 21
554.8918308567357
 31
0.0
  0
LINE
  5
296
330
1F
100
AcDbEntity
  8
C-A
  6
Continuous
 62
     3
370
     9
100
AcDbLine
 10
-621.0940505878341
 20
558.4273685764623
 30
0.0
 11
-615.0939208881272
 21
558.4273685764623
 31
0.0
  0
LINE
  5
297
330
1F
100
AcDbEntity
  8
C-A
  6
Continuous
 62
     3
370
     9
100
AcDbLine
 10
-354.0933410541427
 20
554.8918308567357
 30
0.0
 11
-352.0940124408614
 21
554.8918308567357
 31
0.0
  0
LINE
  5
298
330
1F
100
AcDbEntity
  8
C-A
  6
Continuous
 62
     3
370
     9
100
AcDbLine
 10
-354.0933410541427
 20
558.4273685764623
 30
0.0
 11
-348.5584594623459
 21
558.4273685764623
 31
0.0
  0
LINE
  5
299
330
1F
100
AcDbEntity
  8
C-A
  6
Continuous
 62
     3
370
     9
100
AcDbLine
 10
-354.0933410541427
 20
926.8915867161106
 30
0.0
 11
-354.0933410541427
 21
552.8924869846653
 31
0.0
  0
LINE
  5
29A
330
1F
100
AcDbEntity
  8
C-A
  6
Continuous
 62
     3
370
     9
100
AcDbLine
 10
-427.0942260639083
 20
479.8917545627904
 30
0.0
 11
-177.0940429584396
 21
729.8914341282202
 31
0.0
  0
LINE
  5
29B
330
1F
100
AcDbEntity
  8
C-A
  6
Continuous
 62
     3
370
     9
100
AcDbLine
 10
-234.0934631244552
 20
758.4273533176734
 30
0.0
 11
-225.0940734760177
 21
758.4273533176734
 31
0.0
  0
LINE
  5
29C
330
1F
100
AcDbEntity
  8
C-A
  6
Continuous
 62
     3
370
     9
100
AcDbLine
 10
-234.0934631244552
 20
754.8918308567357
 30
0.0
 11
-225.0940734760177
 21
754.8918308567357
 31
0.0
  0
LINE
  5
29D
330
1F
100
AcDbEntity
  8
C-A
  6
Continuous
 62
     3
370
     9
100
AcDbLine
 10
-234.0934631244552
 20
751.3563083957981
 30
0.0
 11
-225.0940734760177
 21
751.3563083957981
 31
0.0
  0
LINE
  5
29E
330
1F
100
AcDbEntity
  8
C-A
  6
Continuous
 62
     3
370
     9
100
AcDbLine
 10
-234.0934631244552
 20
858.4273533176734
 30
0.0
 11
-225.0940734760177
 21
858.4273533176734
 31
0.0
  0
LINE
  5
29F
330
1F
100
AcDbEntity
  8
C-A
  6
Continuous
 62
     3
370
     9
100
AcDbLine
 10
-234.0934631244552
 20
854.8918308567357
 30
0.0
 11
-225.0940734760177
 21
854.8918308567357
 31
0.0
  0
LINE
  5
2A0
330
1F
100
AcDbEntity
  8
C-A
  6
Continuous
 62
     3
370
     9
100
AcDbLine
 10
-234.0934631244552
 20
851.3563083957981
 30
0.0
 11
-225.0940734760177
 21
851.3563083957981
 31
0.0
  0
LINE
  5
2A1
330
1F
100
AcDbEntity
  8
C-A
  6
Continuous
 62
     3
370
     9
100
AcDbLine
 10
-225.0940734760177
 20
926.8915867161106
 30
0.0
 11
-225.0940734760177
 21
681.8914036106421
 31
0.0
  0
LINE
  5
2A2
330
1F
100
AcDbEntity
  8
C-A
  6
Continuous
 62
     3
370
     9
100
AcDbLine
 10
-219.0938293353927
 20
758.4273533176734
 30
0.0
 11
-210.094134511174
 21
758.4273533176734
 31
0.0
  0
LINE
  5
2A3
330
1F
100
AcDbEntity
  8
C-A
  6
Continuous
 62
     3
370
     9
100
AcDbLine
 10
-219.0938293353927
 20
754.8918308567357
 30
0.0
 11
-210.094134511174
 21
754.8918308567357
 31
0.0
  0
LINE
  5
2A4
330
1F
100
AcDbEntity
  8
C-A
  6
Continuous
 62
     3
370
     9
100
AcDbLine
 10
-219.0938293353927
 20
751.3563083957981
 30
0.0
 11
-210.094134511174
 21
751.3563083957981
 31
0.0
  0
LINE
  5
2A5
330
1F
100
AcDbEntity
  8
C-A
  6
Continuous
 62
     3
370
     9
100
AcDbLine
 10
-204.0938293353927
 20
758.4273533176734
 30
0.0
 11
-195.094134511174
 21
758.4273533176734
 31
0.0
  0
LINE
  5
2A6
330
1F
100
AcDbEntity
  8
C-A
  6
Continuous
 62
     3
370
     9
100
AcDbLine
 10
-204.0938293353927
 20
754.8918308567357
 30
0.0
 11
-195.094134511174
 21
754.8918308567357
 31
0.0
  0
LINE
  5
2A7
330
1F
100
AcDbEntity
  8
C-A
  6
Continuous
 62
     3
370
     9
100
AcDbLine
 10
-204.0938293353927
 20
751.3563083957981
 30
0.0
 11
-195.094134511174
 21
751.3563083957981
 31
0.0
  0
LINE
  5
2A8
330
1F
100
AcDbEntity
  8
C-A
  6
Continuous
 62
     3
370
     9
100
AcDbLine
 10
-219.0938293353927
 20
858.4273533176734
 30
0.0
 11
-210.094134511174
 21
858.4273533176734
 31
0.0
  0
LINE
  5
2A9
330
1F
100
AcDbEntity
  8
C-A
  6
Continuous
 62
     3
370
     9
100
AcDbLine
 10
-219.0938293353927
 20
854.8918308567357
 30
0.0
 11
-210.094134511174
 21
854.8918308567357
 31
0.0
  0
LINE
  5
2AA
330
1F
100
AcDbEntity
  8
C-A
  6
Continuous
 62
     3
370
     9
100
AcDbLine
 10
-219.0938293353927
 20
851.3563083957981
 30
0.0
 11
-210.094134511174
 21
851.3563083957981
 31
0.0
  0
LINE
  5
2AB
330
1F
100
AcDbEntity
  8
C-A
  6
Continuous
 62
     3
370
     9
100
AcDbLine
 10
-204.0938293353927
 20
858.4273533176734
 30
0.0
 11
-195.094134511174
 21
858.4273533176734
 31
0.0
  0
LINE
  5
2AC
330
1F
100
AcDbEntity
  8
C-A
  6
Continuous
 62
     3
370
     9
100
AcDbLine
 10
-204.0938293353927
 20
854.8918308567357
 30
0.0
 11
-195.094134511174
 21
854.8918308567357
 31
0.0
  0
LINE
  5
2AD
330
1F
100
AcDbEntity
  8
C-A
  6
Continuous
 62
     3
370
     9
100
AcDbLine
 10
-204.0938293353927
 20
851.3563083957981
 30
0.0
 11
-195.094134511174
 21
851.3563083957981
 31
0.0
  0
LINE
  5
2AE
330
1F
100
AcDbEntity
  8
C-A
  6
Continuous
 62
     3
370
     9
100
AcDbLine
 10
-189.0938293353927
 20
758.4273533176734
 30
0.0
 11
-183.0941955463302
 21
758.4273533176734
 31
0.0
  0
LINE
  5
2AF
330
1F
100
AcDbEntity
  8
C-A
  6
Continuous
 62
     3
370
     9
100
AcDbLine
 10
-189.0938293353927
 20
754.8918308567357
 30
0.0
 11
-183.0941955463302
 21
754.8918308567357
 31
0.0
  0
LINE
  5
2B0
330
1F
100
AcDbEntity
  8
C-A
  6
Continuous
 62
     3
370
     9
100
AcDbLine
 10
-189.0938293353927
 20
751.3563083957981
 30
0.0
 11
-183.0941955463302
 21
751.3563083957981
 31
0.0
  0
LINE
  5
2B1
330
1F
100
AcDbEntity
  8
C-A
  6
Continuous
 62
     3
370
     9
100
AcDbLine
 10
-189.0938293353927
 20
858.4273533176734
 30
0.0
 11
-183.0941955463302
 21
858.4273533176734
 31
0.0
  0
LINE
  5
2B2
330
1F
100
AcDbEntity
  8
C-A
  6
Continuous
 62
     3
370
     9
100
AcDbLine
 10
-189.0938293353927
 20
854.8918308567357
 30
0.0
 11
-183.0941955463302
 21
854.8918308567357
 31
0.0
  0
LINE
  5
2B3
330
1F
100
AcDbEntity
  8
C-A
  6
Continuous
 62
     3
370
     9
100
AcDbLine
 10
-189.0938293353927
 20
851.3563083957981
 30
0.0
 11
-183.0941955463302
 21
851.3563083957981
 31
0.0
  0
LINE
  5
2B4
330
1F
100
AcDbEntity
  8
C-A
  6
Continuous
 62
     3
370
     9
100
AcDbLine
 10
-183.0941955463302
 20
926.8915867161106
 30
0.0
 11
-183.0941955463302
 21
723.8913120579076
 31
0.0
  0
TEXT
  5
2B5
330
1F
100
AcDbEntity
  8
C-5
  6
Continuous
 62
     2
370
     9
100
AcDbText
 10
-669.5940029041184
 20
325.0315781330418
 30
0.0
 40
30.48
  1
平面詳細図　Ｓ＝１：１０
 41
1.114583333333333
  7
ＭＳ ゴシック
100
AcDbText
  0
TEXT
  5
2B6
330
1F
100
AcDbEntity
  8
C-5
  6
Continuous
 62
     2
370
     9
100
AcDbText
 10
-250.8539916889083
 20
582.6025095676733
 30
0.0
 40
30.48
  1
Ａ
 41
0.9999999999999998
  7
ＭＳ ゴシック
100
AcDbText
  0
LWPOLYLINE
  5
2B7
330
1F
100
AcDbEntity
  8
C-4
  6
Continuous
 62
     7
370
     9
100
AcDbPolyline
 90
        4
 70
     1
 43
1.0
 10
-627.5945274249923
 20
1064.891037399705
 42
0.4142135623731
 10
-628.0945274249923
 20
1065.391037399705
 42
0.4142135623731
 10
-628.5945274249923
 20
1064.891037399705
 42
0.4142135623731
 10
-628.0945274249923
 20
1064.391037399705
 42
0.4142135623731
  0
LINE
  5
2B8
330
1F
100
AcDbEntity
  8
C-4
  6
Continuous
 62
     7
370
     9
100
AcDbLine
 10
-628.0945274249923
 20
1064.891037399705
 30
0.0
 11
-627.094176472844
 21
1064.891037399705
 31
0.0
  0
LWPOLYLINE
  5
2B9
330
1F
100
AcDbEntity
  8
C-4
  6
Continuous
 62
     7
370
     9
100
AcDbPolyline
 90
        4
 70
     1
 43
1.0
 10
-626.594176472844
 20
1064.891037399705
 42
0.4142135623731
 10
-627.094176472844
 20
1065.391037399705
 42
0.4142135623731
 10
-627.594176472844
 20
1064.891037399705
 42
0.4142135623731
 10
-627.094176472844
 20
1064.391037399705
 42
0.4142135623731
  0
LINE
  5
2BA
330
1F
100
AcDbEntity
  8
C-4
  6
Continuous
 62
     7
370
     9
100
AcDbLine
 10
-627.094176472844
 20
1064.891037399705
 30
0.0
 11
-177.0940429584397
 21
1064.891037399705
 31
0.0
  0
LWPOLYLINE
  5
2BB
330
1F
100
AcDbEntity
  8
C-4
  6
Continuous
 62
     7
370
     9
100
AcDbPolyline
 90
        4
 70
     1
 43
1.0
 10
-176.5940429584397
 20
1064.891037399705
 42
0.4142135623731
 10
-177.0940429584397
 20
1065.391037399705
 42
0.4142135623731
 10
-177.5940429584397
 20
1064.891037399705
 42
0.4142135623731
 10
-177.0940429584397
 20
1064.391037399705
 42
0.4142135623731
  0
TEXT
  5
2BC
330
1F
100
AcDbEntity
  8
C-4
  6
Continuous
 62
     2
370
   211
100
AcDbText
 10
-434.5941097156418
 20
1076.531037638123
 30
0.0
 40
30.48
  1
450
 41
1.083333333333333
  7
ＭＳ ゴシック
100
AcDbText
  0
LINE
  5
2BD
330
1F
100
AcDbEntity
  8
C-4
  6
Continuous
 62
     7
370
     9
100
AcDbLine
 10
-177.0940429584397
 20
1064.891037399705
 30
0.0
 11
-176.0942260639084
 21
1064.891037399705
 31
0.0
  0
LWPOLYLINE
  5
2BE
330
1F
100
AcDbEntity
  8
C-4
  6
Continuous
 62
     7
370
     9
100
AcDbPolyline
 90
        4
 70
     1
 43
1.0
 10
-175.5942260639084
 20
1064.891037399705
 42
0.4142135623731
 10
-176.0942260639084
 20
1065.391037399705
 42
0.4142135623731
 10
-176.5942260639084
 20
1064.891037399705
 42
0.4142135623731
 10
-176.0942260639084
 20
1064.391037399705
 42
0.4142135623731
  0
LINE
  5
2BF
330
1F
100
AcDbEntity
  8
C-4
  6
Continuous
 62
     7
370
     9
100
AcDbLine
 10
-627.094176472844
 20
1009.891769821579
 30
0.0
 11
-602.0943099872483
 21
1009.891769821579
 31
0.0
  0
LWPOLYLINE
  5
2C0
330
1F
100
AcDbEntity
  8
C-4
  6
Continuous
 62
     7
370
     9
100
AcDbPolyline
 90
        4
 70
     1
 43
1.0
 10
-626.594176472844
 20
1009.891769821579
 42
0.4142135623731
 10
-627.094176472844
 20
1010.391769821579
 42
0.4142135623731
 10
-627.594176472844
 20
1009.891769821579
 42
0.4142135623731
 10
-627.094176472844
 20
1009.391769821579
 42
0.4142135623731
  0
LWPOLYLINE
  5
2C1
330
1F
100
AcDbEntity
  8
C-4
  6
Continuous
 62
     7
370
     9
100
AcDbPolyline
 90
        4
 70
     1
 43
1.0
 10
-601.5943099872483
 20
1009.891769821579
 42
0.4142135623731
 10
-602.0943099872483
 20
1010.391769821579
 42
0.4142135623731
 10
-602.5943099872483
 20
1009.891769821579
 42
0.4142135623731
 10
-602.0943099872483
 20
1009.391769821579
 42
0.4142135623731
  0
LINE
  5
2C2
330
1F
100
AcDbEntity
  8
C-4
  6
Continuous
 62
     7
370
     9
100
AcDbLine
 10
-602.0943099872483
 20
1009.891769821579
 30
0.0
 11
-202.0939208881271
 21
1009.891769821579
 31
0.0
  0
LWPOLYLINE
  5
2C3
330
1F
100
AcDbEntity
  8
C-4
  6
Continuous
 62
     7
370
     9
100
AcDbPolyline
 90
        4
 70
     1
 43
1.0
 10
-201.5939208881271
 20
1009.891769821579
 42
0.4142135623731
 10
-202.0939208881271
 20
1010.391769821579
 42
0.4142135623731
 10
-202.5939208881271
 20
1009.891769821579
 42
0.4142135623731
 10
-202.0939208881271
 20
1009.391769821579
 42
0.4142135623731
  0
TEXT
  5
2C4
330
1F
100
AcDbEntity
  8
C-4
  6
Continuous
 62
     2
370
   211
100
AcDbText
 10
-434.5941154376877
 20
1021.531770059998
 30
0.0
 40
30.48
  1
400
 41
1.083333333333333
  7
ＭＳ ゴシック
100
AcDbText
  0
LINE
  5
2C5
330
1F
100
AcDbEntity
  8
C-4
  6
Continuous
 62
     7
370
     9
100
AcDbLine
 10
-202.0939208881271
 20
1009.891769821579
 30
0.0
 11
-177.0940429584397
 21
1009.891769821579
 31
0.0
  0
LWPOLYLINE
  5
2C6
330
1F
100
AcDbEntity
  8
C-4
  6
Continuous
 62
     7
370
     9
100
AcDbPolyline
 90
        4
 70
     1
 43
1.0
 10
-176.5940429584397
 20
1009.891769821579
 42
0.4142135623731
 10
-177.0940429584397
 20
1010.391769821579
 42
0.4142135623731
 10
-177.5940429584397
 20
1009.891769821579
 42
0.4142135623731
 10
-177.0940429584397
 20
1009.391769821579
 42
0.4142135623731
  0
LINE
  5
2C7
330
1F
100
AcDbEntity
  8
C-4
  6
Continuous
 62
     7
370
     9
100
AcDbLine
 10
-628.0945274249923
 20
1067.891037518914
 30
0.0
 11
-628.0945274249923
 21
957.8917087864232
 31
0.0
  0
LINE
  5
2C8
330
1F
100
AcDbEntity
  8
C-4
  6
Continuous
 62
     7
370
     9
100
AcDbLine
 10
-627.094176472844
 20
1067.891037518914
 30
0.0
 11
-627.094176472844
 21
957.8917087864232
 31
0.0
  0
LINE
  5
2C9
330
1F
100
AcDbEntity
  8
C-4
  6
Continuous
 62
     7
370
     9
100
AcDbLine
 10
-177.0940429584397
 20
1067.891037518914
 30
0.0
 11
-177.0940429584397
 21
957.8917087864232
 31
0.0
  0
LINE
  5
2CA
330
1F
100
AcDbEntity
  8
C-4
  6
Continuous
 62
     7
370
     9
100
AcDbLine
 10
-176.0942260639084
 20
1067.891037518914
 30
0.0
 11
-176.0942260639084
 21
957.8917087864232
 31
0.0
  0
LINE
  5
2CB
330
1F
100
AcDbEntity
  8
C-4
  6
Continuous
 62
     7
370
     9
100
AcDbLine
 10
-602.0943099872483
 20
1012.891769940788
 30
0.0
 11
-602.0943099872483
 21
957.8917087864232
 31
0.0
  0
LINE
  5
2CC
330
1F
100
AcDbEntity
  8
C-4
  6
Continuous
 62
     7
370
     9
100
AcDbLine
 10
-202.0939208881271
 20
1012.891769940788
 30
0.0
 11
-202.0939208881271
 21
957.8917087864232
 31
0.0
  0
TEXT
  5
2CD
330
1F
100
AcDbEntity
  8
C-4
  6
Continuous
 62
     2
370
   211
100
AcDbText
 10
-615.8442432300461
 20
1021.531770059998
 30
0.0
 40
30.48
  1
25
 41
1.0625
  7
ＭＳ ゴシック
100
AcDbText
  0
TEXT
  5
2CE
330
1F
100
AcDbEntity
  8
C-4
  6
Continuous
 62
     2
370
   211
100
AcDbText
 10
-617.5943519489181
 20
1076.531037638123
 30
0.0
 40
30.48
  1
1
 41
0.9999999999999998
  7
ＭＳ ゴシック
100
AcDbText
  0
TEXT
  5
2CF
330
1F
100
AcDbEntity
  8
C-4
  6
Continuous
 62
     2
370
   211
100
AcDbText
 10
-230.8439819232834
 20
1021.531770059998
 30
0.0
 40
30.48
  1
25
 41
1.0625
  7
ＭＳ ゴシック
100
AcDbText
  0
TEXT
  5
2D0
330
1F
100
AcDbEntity
  8
C-4
  6
Continuous
 62
     2
370
   211
100
AcDbText
 10
-206.594134511174
 20
1076.531037638123
 30
0.0
 40
30.48
  1
1
 41
0.9999999999999998
  7
ＭＳ ゴシック
100
AcDbText
  0
LINE
  5
2D1
330
1F
100
AcDbEntity
  8
C-5
  6
Continuous
 62
     7
370
     9
100
AcDbLine
 10
35.40656739312297
 20
306.8918918918919
 30
0.0
 11
35.40656739312297
 21
371.8914493870091
 31
0.0
  0
LINE
  5
2D2
330
1F
100
AcDbEntity
  8
C-5
  6
Continuous
 62
     7
370
     9
100
AcDbLine
 10
35.40656739312297
 20
371.8914493870091
 30
0.0
 11
510.4069946392167
 21
371.8914493870091
 31
0.0
  0
LINE
  5
2D3
330
1F
100
AcDbEntity
  8
C-5
  6
Continuous
 62
     7
370
     9
100
AcDbLine
 10
510.4069946392167
 20
371.8914493870091
 30
0.0
 11
510.4069946392167
 21
306.8918918918919
 31
0.0
  0
LINE
  5
2D4
330
1F
100
AcDbEntity
  8
C-5
  6
Continuous
 62
     7
370
     9
100
AcDbLine
 10
510.4069946392167
 20
306.8918918918919
 30
0.0
 11
35.40656739312297
 21
306.8918918918919
 31
0.0
  0
LINE
  5
2D5
330
1F
100
AcDbEntity
  8
C-5
  6
Continuous
 62
     7
370
     9
100
AcDbLine
 10
44.15308838921661
 20
764.7607883762669
 30
0.0
 11
482.1881225689042
 21
764.7607883762669
 31
0.0
  0
LINE
  5
2D6
330
1F
100
AcDbEntity
  8
C-5
  6
Continuous
 62
     7
370
     9
100
AcDbLine
 10
323.9318969829667
 20
1116.787887985642
 30
0.0
 11
569.6413696392167
 21
1116.787887985642
 31
0.0
  0
LINE
  5
2D7
330
1F
100
AcDbEntity
  8
C-2
  6
Continuous
 62
     3
370
     9
100
AcDbLine
 10
232.8989379985917
 20
841.2066501926734
 30
0.0
 11
232.8989379985917
 21
1180.56266825908
 31
0.0
  0
LINE
  5
2D8
330
1F
100
AcDbEntity
  8
C-2
  6
Continuous
 62
     3
370
     9
100
AcDbLine
 10
292.8982055767167
 20
827.7219700168919
 30
0.0
 11
292.8982055767167
 21
1167.077988083298
 31
0.0
  0
LINE
  5
2D9
330
1F
100
AcDbEntity
  8
C-2
  6
Continuous
 62
     3
370
     9
100
AcDbLine
 10
237.8986938579666
 20
883.9606785129856
 30
0.0
 11
237.8986938579666
 21
923.9608616184546
 31
0.0
  0
LINE
  5
2DA
330
1F
100
AcDbEntity
  8
C-2
  6
Continuous
 62
     3
370
     9
100
AcDbLine
 10
237.8986938579666
 20
923.9608616184546
 30
0.0
 11
287.8984497173417
 21
908.9605564426734
 31
0.0
  0
LINE
  5
2DB
330
1F
100
AcDbEntity
  8
C-2
  6
Continuous
 62
     3
370
     9
100
AcDbLine
 10
287.8984497173417
 20
898.9609836887669
 30
0.0
 11
287.8984497173417
 21
908.9605564426734
 31
0.0
  0
LINE
  5
2DC
330
1F
100
AcDbEntity
  8
C-2
  6
Continuous
 62
     3
370
     9
100
AcDbLine
 10
287.8984497173417
 20
898.9609836887669
 30
0.0
 11
237.8986938579666
 21
883.9606785129856
 31
0.0
  0
LINE
  5
2DD
330
1F
100
AcDbEntity
  8
C-2
  6
Continuous
 62
     3
370
     9
100
AcDbLine
 10
292.8982055767167
 20
895.2410129856421
 30
0.0
 11
232.8989379985917
 21
877.2401584934545
 31
0.0
  0
LINE
  5
2DE
330
1F
100
AcDbEntity
  8
C-2
  6
Continuous
 62
     3
370
     9
100
AcDbLine
 10
232.8989379985917
 20
930.6813816379859
 30
0.0
 11
292.8982055767167
 21
912.6805271457982
 31
0.0
  0
LINE
  5
2DF
330
1F
100
AcDbEntity
  8
C-2
  6
Continuous
 62
     3
370
     9
100
AcDbLine
 10
287.8984497173417
 20
988.9609226536106
 30
0.0
 11
287.8984497173417
 21
1028.961105759079
 31
0.0
  0
LINE
  5
2E0
330
1F
100
AcDbEntity
  8
C-2
  6
Continuous
 62
     3
370
     9
100
AcDbLine
 10
287.8984497173417
 20
1028.961105759079
 30
0.0
 11
237.8986938579666
 21
1013.960800583298
 31
0.0
  0
LINE
  5
2E1
330
1F
100
AcDbEntity
  8
C-2
  6
Continuous
 62
     3
370
     9
100
AcDbLine
 10
237.8986938579666
 20
1003.961227829392
 30
0.0
 11
237.8986938579666
 21
1013.960800583298
 31
0.0
  0
LINE
  5
2E2
330
1F
100
AcDbEntity
  8
C-2
  6
Continuous
 62
     3
370
     9
100
AcDbLine
 10
237.8986938579666
 20
1003.961227829392
 30
0.0
 11
287.8984497173417
 21
988.9609226536106
 31
0.0
  0
LINE
  5
2E3
330
1F
100
AcDbEntity
  8
C-2
  6
Continuous
 62
     3
370
     9
100
AcDbLine
 10
232.8989379985917
 20
1000.241257126267
 30
0.0
 11
292.8982055767167
 21
982.2404026340794
 31
0.0
  0
LINE
  5
2E4
330
1F
100
AcDbEntity
  8
C-2
  6
Continuous
 62
     3
370
     9
100
AcDbLine
 10
292.8982055767167
 20
1035.681625778611
 30
0.0
 11
232.8989379985917
 21
1017.680771286423
 31
0.0
  0
LINE
  5
2E5
330
1F
100
AcDbEntity
  8
C-2
  6
Continuous
 62
     3
370
     9
100
AcDbLine
 10
237.8986938579666
 20
1093.960678512986
 30
0.0
 11
237.8986938579666
 21
1133.960861618455
 31
0.0
  0
LINE
  5
2E6
330
1F
100
AcDbEntity
  8
C-2
  6
Continuous
 62
     3
370
     9
100
AcDbLine
 10
237.8986938579666
 20
1133.960861618455
 30
0.0
 11
287.8984497173417
 21
1118.960556442673
 31
0.0
  0
LINE
  5
2E7
330
1F
100
AcDbEntity
  8
C-2
  6
Continuous
 62
     3
370
     9
100
AcDbLine
 10
287.8984497173417
 20
1108.960983688767
 30
0.0
 11
287.8984497173417
 21
1118.960556442673
 31
0.0
  0
LINE
  5
2E8
330
1F
100
AcDbEntity
  8
C-2
  6
Continuous
 62
     3
370
     9
100
AcDbLine
 10
287.8984497173417
 20
1108.960983688767
 30
0.0
 11
237.8986938579666
 21
1093.960678512986
 31
0.0
  0
LINE
  5
2E9
330
1F
100
AcDbEntity
  8
C-2
  6
Continuous
 62
     3
370
     9
100
AcDbLine
 10
292.8982055767167
 20
1105.241012985642
 30
0.0
 11
232.8989379985917
 21
1087.240097458298
 31
0.0
  0
LINE
  5
2EA
330
1F
100
AcDbEntity
  8
C-2
  6
Continuous
 62
     3
370
     9
100
AcDbLine
 10
232.8989379985917
 20
1140.681381637985
 30
0.0
 11
292.8982055767167
 21
1122.680527145798
 31
0.0
  0
LINE
  5
2EB
330
1F
100
AcDbEntity
  8
C-4
  6
Continuous
 62
     7
370
     9
100
AcDbLine
 10
161.1852539165605
 20
883.9606785129856
 30
0.0
 11
161.1852539165605
 21
923.9608616184546
 31
0.0
  0
LINE
  5
2EC
330
1F
100
AcDbEntity
  8
C-4
  6
Continuous
 62
     7
370
     9
100
AcDbLine
 10
221.6483276470292
 20
883.9606785129856
 30
0.0
 11
158.1851928814042
 21
883.9606785129856
 31
0.0
  0
LINE
  5
2ED
330
1F
100
AcDbEntity
  8
C-4
  6
Continuous
 62
     7
370
     9
100
AcDbLine
 10
221.6483276470292
 20
923.9608616184546
 30
0.0
 11
158.1851928814042
 21
923.9608616184546
 31
0.0
  0
LINE
  5
2EE
330
1F
100
AcDbEntity
  8
C-4
  6
Continuous
 62
     7
370
     9
100
AcDbLine
 10
161.1852539165605
 20
923.9608616184546
 30
0.0
 11
161.1852539165605
 21
1003.961227829392
 31
0.0
  0
LINE
  5
2EF
330
1F
100
AcDbEntity
  8
C-4
  6
Continuous
 62
     7
370
     9
100
AcDbLine
 10
221.6483276470292
 20
1003.961227829392
 30
0.0
 11
158.1851928814042
 21
1003.961227829392
 31
0.0
  0
LINE
  5
2F0
330
1F
100
AcDbEntity
  8
C-4
  6
Continuous
 62
     7
370
     9
100
AcDbLine
 10
161.1852539165605
 20
1003.961227829392
 30
0.0
 11
161.1852539165605
 21
1013.960800583298
 31
0.0
  0
LINE
  5
2F1
330
1F
100
AcDbEntity
  8
C-4
  6
Continuous
 62
     7
370
     9
100
AcDbLine
 10
221.6483276470292
 20
1013.960800583298
 30
0.0
 11
158.1851928814042
 21
1013.960800583298
 31
0.0
  0
LINE
  5
2F2
330
1F
100
AcDbEntity
  8
C-4
  6
Continuous
 62
     7
370
     9
100
AcDbLine
 10
161.1852539165605
 20
1013.960800583298
 30
0.0
 11
161.1852539165605
 21
1093.960678512986
 31
0.0
  0
LINE
  5
2F3
330
1F
100
AcDbEntity
  8
C-4
  6
Continuous
 62
     7
370
     9
100
AcDbLine
 10
221.6483276470292
 20
1093.960678512986
 30
0.0
 11
158.1851928814042
 21
1093.960678512986
 31
0.0
  0
LINE
  5
2F4
330
1F
100
AcDbEntity
  8
C-4
  6
Continuous
 62
     7
370
     9
100
AcDbLine
 10
161.1852539165605
 20
1093.960678512986
 30
0.0
 11
161.1852539165605
 21
1133.960861618455
 31
0.0
  0
LINE
  5
2F5
330
1F
100
AcDbEntity
  8
C-4
  6
Continuous
 62
     7
370
     9
100
AcDbLine
 10
221.6483276470292
 20
1133.960861618455
 30
0.0
 11
158.1851928814042
 21
1133.960861618455
 31
0.0
  0
LINE
  5
2F6
330
1F
100
AcDbEntity
  8
C-4
  6
Continuous
 62
     7
370
     9
100
AcDbLine
 10
301.9177368267167
 20
979.5346531223606
 30
0.0
 11
378.2234008892166
 21
956.6425022434544
 31
0.0
  0
LINE
  5
2F7
330
1F
100
AcDbEntity
  8
C-4
  6
Continuous
 62
     7
370
     9
100
AcDbLine
 10
303.3545654399979
 20
984.3238376926731
 30
0.0
 11
379.6602905376542
 21
961.4316868137669
 31
0.0
  0
LINE
  5
2F8
330
1F
100
AcDbEntity
  8
C-4
  6
Continuous
 62
     7
370
     9
100
AcDbLine
 10
375.3501098735917
 20
957.5046238254856
 30
0.0
 11
397.2617309673417
 21
1030.54167216533
 31
0.0
  0
LINE
  5
2F9
330
1F
100
AcDbEntity
  8
C-4
  6
Continuous
 62
     7
370
     9
100
AcDbLine
 10
232.8989379985917
 20
1226.57811015361
 30
0.0
 11
292.8982055767167
 21
1226.57811015361
 31
0.0
  0
LINE
  5
2FA
330
1F
100
AcDbEntity
  8
C-4
  6
Continuous
 62
     7
370
     9
100
AcDbLine
 10
232.8989379985917
 20
1187.303268845018
 30
0.0
 11
232.8989379985917
 21
1229.577927048142
 31
0.0
  0
LINE
  5
2FB
330
1F
100
AcDbEntity
  8
C-4
  6
Continuous
 62
     7
370
     9
100
AcDbLine
 10
292.8982055767167
 20
1178.400925095017
 30
0.0
 11
292.8982055767167
 21
1229.577927048142
 31
0.0
  0
LINE
  5
2FC
330
1F
100
AcDbEntity
  8
C-5
  6
Continuous
 62
     7
370
     9
100
AcDbLine
 10
267.5515258892167
 20
1019.134445602829
 30
0.0
 11
323.9318969829667
 21
1116.787887985642
 31
0.0
  0
LINE
  5
2FD
330
1F
100
AcDbEntity
  8
C-5
  6
Continuous
 62
     7
370
     9
100
AcDbLine
 10
267.5515258892167
 20
1019.134445602829
 30
0.0
 11
277.1185424907792
 21
1042.231491501267
 31
0.0
  0
LINE
  5
2FE
330
1F
100
AcDbEntity
  8
C-5
  6
Continuous
 62
     7
370
     9
100
AcDbLine
 10
267.5515258892167
 20
1019.134445602829
 30
0.0
 11
282.7708252056229
 21
1038.968307907517
 31
0.0
  0
LINE
  5
2FF
330
1F
100
AcDbEntity
  8
C-2
  6
Continuous
 62
     3
370
     9
100
AcDbLine
 10
115.2008178814042
 20
424.498840744431
 30
0.0
 11
115.2008178814042
 21
434.4988865207981
 31
0.0
  0
LINE
  5
300
330
1F
100
AcDbEntity
  8
C-2
  6
Continuous
 62
     3
370
     9
100
AcDbLine
 10
115.2008178814042
 20
524.498810226853
 30
0.0
 11
115.2008178814042
 21
514.4987644504857
 31
0.0
  0
LINE
  5
301
330
1F
100
AcDbEntity
  8
C-2
  6
Continuous
 62
     3
370
     9
100
AcDbLine
 10
142.0512817485917
 20
514.4987644504857
 30
0.0
 11
142.0512817485917
 21
524.498810226853
 31
0.0
  0
LINE
  5
302
330
1F
100
AcDbEntity
  8
C-2
  6
Continuous
 62
     3
370
     9
100
AcDbLine
 10
172.0509155376541
 20
524.498810226853
 30
0.0
 11
172.0509155376541
 21
514.4987644504857
 31
0.0
  0
LINE
  5
303
330
1F
100
AcDbEntity
  8
C-2
  6
Continuous
 62
     3
370
     9
100
AcDbLine
 10
147.0510376079667
 20
514.4987644504857
 30
0.0
 11
142.0512817485917
 21
514.4987644504857
 31
0.0
  0
LINE
  5
304
330
1F
100
AcDbEntity
  8
C-2
  6
Continuous
 62
     3
370
     9
100
AcDbLine
 10
167.0510986431229
 20
514.4987644504857
 30
0.0
 11
172.0509155376541
 21
514.4987644504857
 31
0.0
  0
LINE
  5
305
330
1F
100
AcDbEntity
  8
C-2
  6
Continuous
 62
     3
370
     9
100
AcDbLine
 10
152.0507934673417
 20
509.4984897922825
 30
0.0
 11
152.0488403423417
 21
424.498840744431
 31
0.0
  0
LINE
  5
306
330
1F
100
AcDbEntity
  8
C-2
  6
Continuous
 62
     3
370
     9
100
AcDbLine
 10
162.051342783748
 20
509.4989933323217
 30
0.0
 11
162.051342783748
 21
424.498840744431
 31
0.0
  0
LINE
  5
307
330
1F
100
AcDbEntity
  8
C-2
  6
Continuous
 62
     3
370
     9
100
AcDbLine
 10
217.051342783748
 20
514.4987644504857
 30
0.0
 11
217.051342783748
 21
524.498810226853
 31
0.0
  0
LINE
  5
308
330
1F
100
AcDbEntity
  8
C-2
  6
Continuous
 62
     3
370
     9
100
AcDbLine
 10
247.0509765728104
 20
524.498810226853
 30
0.0
 11
247.0509765728104
 21
514.4987644504857
 31
0.0
  0
LINE
  5
309
330
1F
100
AcDbEntity
  8
C-2
  6
Continuous
 62
     3
370
     9
100
AcDbLine
 10
222.0510986431229
 20
514.4987644504857
 30
0.0
 11
217.051342783748
 21
514.4987644504857
 31
0.0
  0
LINE
  5
30A
330
1F
100
AcDbEntity
  8
C-2
  6
Continuous
 62
     3
370
     9
100
AcDbLine
 10
242.0512207134354
 20
514.4987644504857
 30
0.0
 11
247.0509765728104
 21
514.4987644504857
 31
0.0
  0
LINE
  5
30B
330
1F
100
AcDbEntity
  8
C-2
  6
Continuous
 62
     3
370
     9
100
AcDbLine
 10
227.0509155376541
 20
509.4984897922825
 30
0.0
 11
227.048901377498
 21
424.498840744431
 31
0.0
  0
LINE
  5
30C
330
1F
100
AcDbEntity
  8
C-2
  6
Continuous
 62
     3
370
     9
100
AcDbLine
 10
237.0514648540605
 20
509.4989933323217
 30
0.0
 11
237.0514648540605
 21
424.498840744431
 31
0.0
  0
LINE
  5
30D
330
1F
100
AcDbEntity
  8
C-2
  6
Continuous
 62
     3
370
     9
100
AcDbLine
 10
292.0514648540604
 20
514.4987644504857
 30
0.0
 11
292.0514648540604
 21
524.498810226853
 31
0.0
  0
LINE
  5
30E
330
1F
100
AcDbEntity
  8
C-2
  6
Continuous
 62
     3
370
     9
100
AcDbLine
 10
322.0510986431229
 20
524.498810226853
 30
0.0
 11
322.0510986431229
 21
514.4987644504857
 31
0.0
  0
LINE
  5
30F
330
1F
100
AcDbEntity
  8
C-2
  6
Continuous
 62
     3
370
     9
100
AcDbLine
 10
297.0507324321855
 20
514.4987644504857
 30
0.0
 11
292.0514648540604
 21
514.4987644504857
 31
0.0
  0
LINE
  5
310
330
1F
100
AcDbEntity
  8
C-2
  6
Continuous
 62
     3
370
     9
100
AcDbLine
 10
317.0508545024979
 20
514.4987644504857
 30
0.0
 11
322.0510986431229
 21
514.4987644504857
 31
0.0
  0
LINE
  5
311
330
1F
100
AcDbEntity
  8
C-2
  6
Continuous
 62
     3
370
     9
100
AcDbLine
 10
302.0509765728104
 20
509.4984897922825
 30
0.0
 11
302.0490234478104
 21
424.498840744431
 31
0.0
  0
LINE
  5
312
330
1F
100
AcDbEntity
  8
C-2
  6
Continuous
 62
     3
370
     9
100
AcDbLine
 10
312.0510376079667
 20
509.4989933323217
 30
0.0
 11
312.0510376079667
 21
424.498840744431
 31
0.0
  0
LINE
  5
313
330
1F
100
AcDbEntity
  8
C-2
  6
Continuous
 62
     3
370
     9
100
AcDbLine
 10
348.8975952251542
 20
424.4924015354465
 30
0.0
 11
348.8975952251542
 21
434.4924473118138
 31
0.0
  0
LINE
  5
314
330
1F
100
AcDbEntity
  8
C-2
  6
Continuous
 62
     3
370
     9
100
AcDbLine
 10
348.9024780376542
 20
524.4923710178684
 30
0.0
 11
348.9024780376542
 21
514.4923252415015
 31
0.0
  0
LINE
  5
315
330
1F
100
AcDbEntity
  8
C-2
  6
Continuous
 62
     3
370
     9
100
AcDbLine
 10
348.9024780376542
 20
524.498810226853
 30
0.0
 11
115.2008178814042
 21
524.498810226853
 31
0.0
  0
LINE
  5
316
330
1F
100
AcDbEntity
  8
C-2
  6
Continuous
 62
     3
370
     9
100
AcDbLine
 10
115.2008178814042
 20
424.498840744431
 30
0.0
 11
348.8975952251542
 21
424.498840744431
 31
0.0
  0
LINE
  5
317
330
1F
100
AcDbEntity
  8
C-4
  6
Continuous
 62
     7
370
     9
100
AcDbLine
 10
437.3442504985917
 20
424.498840744431
 30
0.0
 11
437.3442504985917
 21
524.498810226853
 31
0.0
  0
LINE
  5
318
330
1F
100
AcDbEntity
  8
C-4
  6
Continuous
 62
     7
370
     9
100
AcDbLine
 10
360.5554321392167
 20
424.498840744431
 30
0.0
 11
440.3437622173416
 21
424.498840744431
 31
0.0
  0
LINE
  5
319
330
1F
100
AcDbEntity
  8
C-4
  6
Continuous
 62
     7
370
     9
100
AcDbLine
 10
360.5554321392167
 20
524.498810226853
 30
0.0
 11
440.3437622173416
 21
524.498810226853
 31
0.0
  0
LINE
  5
31A
330
1F
100
AcDbEntity
  8
C-4
  6
Continuous
 62
     7
370
     9
100
AcDbLine
 10
142.0512817485917
 20
534.9586490940405
 30
0.0
 11
142.0512817485917
 21
653.5010532688452
 31
0.0
  0
LINE
  5
31B
330
1F
100
AcDbEntity
  8
C-4
  6
Continuous
 62
     7
370
     9
100
AcDbLine
 10
172.0509155376541
 20
534.9586490940405
 30
0.0
 11
172.0509155376541
 21
590.3837742161107
 31
0.0
  0
LINE
  5
31C
330
1F
100
AcDbEntity
  8
C-4
  6
Continuous
 62
     7
370
     9
100
AcDbLine
 10
172.0509155376541
 20
587.3837131809546
 30
0.0
 11
217.051342783748
 21
587.3837131809546
 31
0.0
  0
LINE
  5
31D
330
1F
100
AcDbEntity
  8
C-4
  6
Continuous
 62
     7
370
     9
100
AcDbLine
 10
217.051342783748
 20
534.9586490940405
 30
0.0
 11
217.051342783748
 21
653.5010532688452
 31
0.0
  0
LINE
  5
31E
330
1F
100
AcDbEntity
  8
C-4
  6
Continuous
 62
     7
370
     9
100
AcDbLine
 10
217.051342783748
 20
587.3837131809546
 30
0.0
 11
247.0509765728104
 21
587.3837131809546
 31
0.0
  0
LINE
  5
31F
330
1F
100
AcDbEntity
  8
C-4
  6
Continuous
 62
     7
370
     9
100
AcDbLine
 10
247.0509765728104
 20
534.9586490940405
 30
0.0
 11
247.0509765728104
 21
590.3837742161107
 31
0.0
  0
LINE
  5
320
330
1F
100
AcDbEntity
  8
C-4
  6
Continuous
 62
     7
370
     9
100
AcDbLine
 10
247.0509765728104
 20
587.3837131809546
 30
0.0
 11
292.0514648540604
 21
587.3837131809546
 31
0.0
  0
LINE
  5
321
330
1F
100
AcDbEntity
  8
C-4
  6
Continuous
 62
     7
370
     9
100
AcDbLine
 10
292.0514648540604
 20
534.9586490940405
 30
0.0
 11
292.0514648540604
 21
653.5010532688452
 31
0.0
  0
LINE
  5
322
330
1F
100
AcDbEntity
  8
C-4
  6
Continuous
 62
     7
370
     9
100
AcDbLine
 10
322.0510986431229
 20
534.9586490940405
 30
0.0
 11
322.0510986431229
 21
590.3837742161107
 31
0.0
  0
LINE
  5
323
330
1F
100
AcDbEntity
  8
C-4
  6
Continuous
 62
     7
370
     9
100
AcDbLine
 10
115.2008178814042
 20
587.3837131809546
 30
0.0
 11
172.0509155376541
 21
587.3837131809546
 31
0.0
  0
LINE
  5
324
330
1F
100
AcDbEntity
  8
C-4
  6
Continuous
 62
     7
370
     9
100
AcDbLine
 10
115.2008178814042
 20
650.5009922336887
 30
0.0
 11
217.051342783748
 21
650.5009922336887
 31
0.0
  0
LINE
  5
325
330
1F
100
AcDbEntity
  8
C-4
  6
Continuous
 62
     7
370
     9
100
AcDbLine
 10
292.0514648540604
 20
587.3837131809546
 30
0.0
 11
348.9024780376542
 21
587.3837131809546
 31
0.0
  0
LINE
  5
326
330
1F
100
AcDbEntity
  8
C-4
  6
Continuous
 62
     7
370
     9
100
AcDbLine
 10
217.051342783748
 20
650.5009922336887
 30
0.0
 11
348.9024780376542
 21
650.5009922336887
 31
0.0
  0
LINE
  5
327
330
1F
100
AcDbEntity
  8
C-2
  6
Continuous
 62
     3
370
     9
100
AcDbLine
 10
162.0505493267167
 20
492.1767429661108
 30
0.0
 11
227.0495727642167
 21
492.1767429661108
 31
0.0
  0
LINE
  5
328
330
1F
100
AcDbEntity
  8
C-2
  6
Continuous
 62
     3
370
     9
100
AcDbLine
 10
237.0511596782792
 20
492.1767429661108
 30
0.0
 11
302.0496948345291
 21
492.1767429661108
 31
0.0
  0
LINE
  5
329
330
1F
100
AcDbEntity
  8
C-2
  6
Continuous
 62
     3
370
     9
100
AcDbLine
 10
117.7020996196855
 20
492.1767429661108
 30
0.0
 11
152.0500000103104
 21
492.1767429661108
 31
0.0
  0
LINE
  5
32A
330
1F
100
AcDbEntity
  8
C-2
  6
Continuous
 62
     3
370
     9
100
AcDbLine
 10
346.3985717876542
 20
492.1767429661108
 30
0.0
 11
312.0507324321855
 21
492.1767429661108
 31
0.0
  0
LINE
  5
32B
330
1F
100
AcDbEntity
  8
C-2
  6
Continuous
 62
     3
370
     9
100
AcDbLine
 10
162.0505493267167
 20
474.499069626267
 30
0.0
 11
227.0495727642167
 21
474.499069626267
 31
0.0
  0
LINE
  5
32C
330
1F
100
AcDbEntity
  8
C-2
  6
Continuous
 62
     3
370
     9
100
AcDbLine
 10
237.0511596782792
 20
474.499069626267
 30
0.0
 11
302.0496948345291
 21
474.499069626267
 31
0.0
  0
LINE
  5
32D
330
1F
100
AcDbEntity
  8
C-2
  6
Continuous
 62
     3
370
     9
100
AcDbLine
 10
117.7020996196855
 20
474.499069626267
 30
0.0
 11
152.0500000103104
 21
474.499069626267
 31
0.0
  0
LINE
  5
32E
330
1F
100
AcDbEntity
  8
C-2
  6
Continuous
 62
     3
370
     9
100
AcDbLine
 10
346.3985717876542
 20
474.499069626267
 30
0.0
 11
312.0507324321855
 21
474.499069626267
 31
0.0
  0
LINE
  5
32F
330
1F
100
AcDbEntity
  8
C-2
  6
Continuous
 62
     3
370
     9
100
AcDbLine
 10
162.0505493267167
 20
456.8213962864232
 30
0.0
 11
227.0495727642167
 21
456.8213962864232
 31
0.0
  0
LINE
  5
330
330
1F
100
AcDbEntity
  8
C-2
  6
Continuous
 62
     3
370
     9
100
AcDbLine
 10
237.0511596782792
 20
456.8213962864232
 30
0.0
 11
302.0496948345291
 21
456.8213962864232
 31
0.0
  0
LINE
  5
331
330
1F
100
AcDbEntity
  8
C-2
  6
Continuous
 62
     3
370
     9
100
AcDbLine
 10
117.7020996196855
 20
456.8213962864232
 30
0.0
 11
152.0500000103104
 21
456.8213962864232
 31
0.0
  0
LINE
  5
332
330
1F
100
AcDbEntity
  8
C-2
  6
Continuous
 62
     3
370
     9
100
AcDbLine
 10
346.3985717876542
 20
456.8213962864232
 30
0.0
 11
312.0507324321855
 21
456.8213962864232
 31
0.0
  0
ARC
  5
333
330
1F
100
AcDbEntity
  8
C-2
  6
Continuous
 62
     3
370
     9
100
AcDbCircle
 10
240.3983276470292
 20
1143.820175583298
 30
0.0
 40
37.50014114379883
100
AcDbArc
 50
53.13009643554687
 51
126.8699035644531
  0
ARC
  5
334
330
1F
100
AcDbEntity
  8
C-2
  6
Continuous
 62
     3
370
     9
100
AcDbCircle
 10
285.3988159282792
 20
1203.820480759079
 30
0.0
 40
37.50014114379883
100
AcDbArc
 50
233.1300964355469
 51
306.8699035644532
  0
ARC
  5
335
330
1F
100
AcDbEntity
  8
C-2
  6
Continuous
 62
     3
370
     9
100
AcDbCircle
 10
240.3983276470292
 20
804.4641880344702
 30
0.0
 40
37.50014114379883
100
AcDbArc
 50
53.13009643554687
 51
126.8699035644531
  0
ARC
  5
336
330
1F
100
AcDbEntity
  8
C-2
  6
Continuous
 62
     3
370
     9
100
AcDbCircle
 10
285.3988159282792
 20
864.4644626926731
 30
0.0
 40
37.50014114379883
100
AcDbArc
 50
233.1300964355469
 51
306.8699035644532
  0
ARC
  5
337
330
1F
100
AcDbEntity
  8
C-2
  6
Continuous
 62
     3
370
     9
100
AcDbCircle
 10
147.0510376079667
 20
509.4989933323217
 30
0.0
 40
5.0
100
AcDbArc
 50
359.9943237304688
 51
90.0
  0
ARC
  5
338
330
1F
100
AcDbEntity
  8
C-2
  6
Continuous
 62
     3
370
     9
100
AcDbCircle
 10
167.0510986431229
 20
509.4989933323217
 30
0.0
 40
5.0
100
AcDbArc
 50
90.0
 51
180.0
  0
ARC
  5
339
330
1F
100
AcDbEntity
  8
C-2
  6
Continuous
 62
     3
370
     9
100
AcDbCircle
 10
222.0510986431229
 20
509.4989933323217
 30
0.0
 40
5.0
100
AcDbArc
 50
359.9943237304688
 51
90.0
  0
ARC
  5
33A
330
1F
100
AcDbEntity
  8
C-2
  6
Continuous
 62
     3
370
     9
100
AcDbCircle
 10
242.0512207134354
 20
509.4989933323217
 30
0.0
 40
5.0
100
AcDbArc
 50
90.0
 51
180.0
  0
ARC
  5
33B
330
1F
100
AcDbEntity
  8
C-2
  6
Continuous
 62
     3
370
     9
100
AcDbCircle
 10
297.0507324321855
 20
509.4989933323217
 30
0.0
 40
5.0
100
AcDbArc
 50
359.9943237304688
 51
90.0
  0
ARC
  5
33C
330
1F
100
AcDbEntity
  8
C-2
  6
Continuous
 62
     3
370
     9
100
AcDbCircle
 10
317.0508545024979
 20
509.4989933323217
 30
0.0
 40
5.0
100
AcDbArc
 50
90.0
 51
180.0
  0
LWPOLYLINE
  5
33D
330
1F
100
AcDbEntity
  8
C-4
  6
Continuous
 62
     7
370
     9
100
AcDbPolyline
 90
        4
 70
     1
 43
1.0
 10
161.6852539165605
 20
883.9606785129856
 42
0.4142135623731
 10
161.1852539165605
 20
884.4606785129856
 42
0.4142135623731
 10
160.6852539165605
 20
883.9606785129856
 42
0.4142135623731
 10
161.1852539165605
 20
883.4606785129857
 42
0.4142135623731
  0
LWPOLYLINE
  5
33E
330
1F
100
AcDbEntity
  8
C-4
  6
Continuous
 62
     7
370
     9
100
AcDbPolyline
 90
        4
 70
     1
 43
1.0
 10
161.6852539165605
 20
923.9608616184546
 42
0.4142135623731
 10
161.1852539165605
 20
924.4608616184546
 42
0.4142135623731
 10
160.6852539165605
 20
923.9608616184546
 42
0.4142135623731
 10
161.1852539165605
 20
923.4608616184546
 42
0.4142135623731
  0
LWPOLYLINE
  5
33F
330
1F
100
AcDbEntity
  8
C-4
  6
Continuous
 62
     7
370
     9
100
AcDbPolyline
 90
        4
 70
     1
 43
1.0
 10
161.6852539165605
 20
1003.961227829392
 42
0.4142135623731
 10
161.1852539165605
 20
1004.461227829392
 42
0.4142135623731
 10
160.6852539165605
 20
1003.961227829392
 42
0.4142135623731
 10
161.1852539165605
 20
1003.461227829392
 42
0.4142135623731
  0
LWPOLYLINE
  5
340
330
1F
100
AcDbEntity
  8
C-4
  6
Continuous
 62
     7
370
     9
100
AcDbPolyline
 90
        4
 70
     1
 43
1.0
 10
161.6852539165605
 20
1013.960800583298
 42
0.4142135623731
 10
161.1852539165605
 20
1014.460800583298
 42
0.4142135623731
 10
160.6852539165605
 20
1013.960800583298
 42
0.4142135623731
 10
161.1852539165605
 20
1013.460800583298
 42
0.4142135623731
  0
LWPOLYLINE
  5
341
330
1F
100
AcDbEntity
  8
C-4
  6
Continuous
 62
     7
370
     9
100
AcDbPolyline
 90
        4
 70
     1
 43
1.0
 10
161.6852539165605
 20
1093.960678512986
 42
0.4142135623731
 10
161.1852539165605
 20
1094.460678512986
 42
0.4142135623731
 10
160.6852539165605
 20
1093.960678512986
 42
0.4142135623731
 10
161.1852539165605
 20
1093.460678512986
 42
0.4142135623731
  0
LWPOLYLINE
  5
342
330
1F
100
AcDbEntity
  8
C-4
  6
Continuous
 62
     7
370
     9
100
AcDbPolyline
 90
        4
 70
     1
 43
1.0
 10
161.6852539165605
 20
1133.960861618455
 42
0.4142135623731
 10
161.1852539165605
 20
1134.460861618455
 42
0.4142135623731
 10
160.6852539165605
 20
1133.960861618455
 42
0.4142135623731
 10
161.1852539165605
 20
1133.460861618455
 42
0.4142135623731
  0
LWPOLYLINE
  5
343
330
1F
100
AcDbEntity
  8
C-4
  6
Continuous
 62
     7
370
     9
100
AcDbPolyline
 90
        4
 70
     1
 43
1.0
 10
375.8501098735917
 20
957.5046238254856
 42
0.4142135623731
 10
375.3501098735917
 20
958.0046238254856
 42
0.4142135623731
 10
374.8501098735917
 20
957.5046238254856
 42
0.4142135623731
 10
375.3501098735917
 20
957.0046238254856
 42
0.4142135623731
  0
LWPOLYLINE
  5
344
330
1F
100
AcDbEntity
  8
C-4
  6
Continuous
 62
     7
370
     9
100
AcDbPolyline
 90
        4
 70
     1
 43
1.0
 10
377.2869995220292
 20
962.2938083957981
 42
0.4142135623731
 10
376.7869995220292
 20
962.7938083957981
 42
0.4142135623731
 10
376.2869995220292
 20
962.2938083957981
 42
0.4142135623731
 10
376.7869995220292
 20
961.7938083957982
 42
0.4142135623731
  0
LWPOLYLINE
  5
345
330
1F
100
AcDbEntity
  8
C-4
  6
Continuous
 62
     7
370
     9
100
AcDbPolyline
 90
        4
 70
     1
 43
1.0
 10
233.3989379985917
 20
1226.57811015361
 42
0.4142135623731
 10
232.8989379985917
 20
1227.07811015361
 42
0.4142135623731
 10
232.3989379985917
 20
1226.57811015361
 42
0.4142135623731
 10
232.8989379985917
 20
1226.07811015361
 42
0.4142135623731
  0
LWPOLYLINE
  5
346
330
1F
100
AcDbEntity
  8
C-4
  6
Continuous
 62
     7
370
     9
100
AcDbPolyline
 90
        4
 70
     1
 43
1.0
 10
293.3982055767167
 20
1226.57811015361
 42
0.4142135623731
 10
292.8982055767167
 20
1227.07811015361
 42
0.4142135623731
 10
292.3982055767167
 20
1226.57811015361
 42
0.4142135623731
 10
292.8982055767167
 20
1226.07811015361
 42
0.4142135623731
  0
LWPOLYLINE
  5
347
330
1F
100
AcDbEntity
  8
C-4
  6
Continuous
 62
     7
370
     9
100
AcDbPolyline
 90
        4
 70
     1
 43
1.0
 10
437.8442504985917
 20
424.498840744431
 42
0.4142135623731
 10
437.3442504985917
 20
424.998840744431
 42
0.4142135623731
 10
436.8442504985917
 20
424.498840744431
 42
0.4142135623731
 10
437.3442504985917
 20
423.998840744431
 42
0.4142135623731
  0
LWPOLYLINE
  5
348
330
1F
100
AcDbEntity
  8
C-4
  6
Continuous
 62
     7
370
     9
100
AcDbPolyline
 90
        4
 70
     1
 43
1.0
 10
437.8442504985917
 20
524.498810226853
 42
0.4142135623731
 10
437.3442504985917
 20
524.998810226853
 42
0.4142135623731
 10
436.8442504985917
 20
524.498810226853
 42
0.4142135623731
 10
437.3442504985917
 20
523.998810226853
 42
0.4142135623731
  0
LWPOLYLINE
  5
349
330
1F
100
AcDbEntity
  8
C-4
  6
Continuous
 62
     7
370
     9
100
AcDbPolyline
 90
        4
 70
     1
 43
1.0
 10
142.5512817485917
 20
587.3837131809546
 42
0.4142135623731
 10
142.0512817485917
 20
587.8837131809546
 42
0.4142135623731
 10
141.5512817485917
 20
587.3837131809546
 42
0.4142135623731
 10
142.0512817485917
 20
586.8837131809546
 42
0.4142135623731
  0
LWPOLYLINE
  5
34A
330
1F
100
AcDbEntity
  8
C-4
  6
Continuous
 62
     7
370
     9
100
AcDbPolyline
 90
        4
 70
     1
 43
1.0
 10
172.5509155376541
 20
587.3837131809546
 42
0.4142135623731
 10
172.0509155376541
 20
587.8837131809546
 42
0.4142135623731
 10
171.5509155376541
 20
587.3837131809546
 42
0.4142135623731
 10
172.0509155376541
 20
586.8837131809546
 42
0.4142135623731
  0
LWPOLYLINE
  5
34B
330
1F
100
AcDbEntity
  8
C-4
  6
Continuous
 62
     7
370
     9
100
AcDbPolyline
 90
        4
 70
     1
 43
1.0
 10
217.551342783748
 20
587.3837131809546
 42
0.4142135623731
 10
217.051342783748
 20
587.8837131809546
 42
0.4142135623731
 10
216.551342783748
 20
587.3837131809546
 42
0.4142135623731
 10
217.051342783748
 20
586.8837131809546
 42
0.4142135623731
  0
LWPOLYLINE
  5
34C
330
1F
100
AcDbEntity
  8
C-4
  6
Continuous
 62
     7
370
     9
100
AcDbPolyline
 90
        4
 70
     1
 43
1.0
 10
247.5509765728104
 20
587.3837131809546
 42
0.4142135623731
 10
247.0509765728104
 20
587.8837131809546
 42
0.4142135623731
 10
246.5509765728104
 20
587.3837131809546
 42
0.4142135623731
 10
247.0509765728104
 20
586.8837131809546
 42
0.4142135623731
  0
LWPOLYLINE
  5
34D
330
1F
100
AcDbEntity
  8
C-4
  6
Continuous
 62
     7
370
     9
100
AcDbPolyline
 90
        4
 70
     1
 43
1.0
 10
292.5514648540605
 20
587.3837131809546
 42
0.4142135623731
 10
292.0514648540604
 20
587.8837131809546
 42
0.4142135623731
 10
291.5514648540604
 20
587.3837131809546
 42
0.4142135623731
 10
292.0514648540604
 20
586.8837131809546
 42
0.4142135623731
  0
LWPOLYLINE
  5
34E
330
1F
100
AcDbEntity
  8
C-4
  6
Continuous
 62
     7
370
     9
100
AcDbPolyline
 90
        4
 70
     1
 43
1.0
 10
322.5510986431229
 20
587.3837131809546
 42
0.4142135623731
 10
322.0510986431229
 20
587.8837131809546
 42
0.4142135623731
 10
321.5510986431229
 20
587.3837131809546
 42
0.4142135623731
 10
322.0510986431229
 20
586.8837131809546
 42
0.4142135623731
  0
LWPOLYLINE
  5
34F
330
1F
100
AcDbEntity
  8
C-4
  6
Continuous
 62
     7
370
     9
100
AcDbPolyline
 90
        4
 70
     1
 43
1.0
 10
142.5512817485917
 20
650.5009922336887
 42
0.4142135623731
 10
142.0512817485917
 20
651.0009922336887
 42
0.4142135623731
 10
141.5512817485917
 20
650.5009922336887
 42
0.4142135623731
 10
142.0512817485917
 20
650.0009922336887
 42
0.4142135623731
  0
LWPOLYLINE
  5
350
330
1F
100
AcDbEntity
  8
C-4
  6
Continuous
 62
     7
370
     9
100
AcDbPolyline
 90
        4
 70
     1
 43
1.0
 10
217.551342783748
 20
650.5009922336887
 42
0.4142135623731
 10
217.051342783748
 20
651.0009922336887
 42
0.4142135623731
 10
216.551342783748
 20
650.5009922336887
 42
0.4142135623731
 10
217.051342783748
 20
650.0009922336887
 42
0.4142135623731
  0
LWPOLYLINE
  5
351
330
1F
100
AcDbEntity
  8
C-4
  6
Continuous
 62
     7
370
     9
100
AcDbPolyline
 90
        4
 70
     1
 43
1.0
 10
292.5514648540605
 20
650.5009922336887
 42
0.4142135623731
 10
292.0514648540604
 20
651.0009922336887
 42
0.4142135623731
 10
291.5514648540604
 20
650.5009922336887
 42
0.4142135623731
 10
292.0514648540604
 20
650.0009922336887
 42
0.4142135623731
  0
TEXT
  5
352
330
1F
100
AcDbEntity
  8
C-5
  6
Continuous
 62
     2
370
     9
100
AcDbText
 10
51.33192139702913
 20
328.5018416141819
 30
0.0
 40
30.48
  1
Ａ断面図　Ｓ＝１：２
 41
1.1125
  7
ＭＳ ゴシック
100
AcDbText
  0
TEXT
  5
353
330
1F
100
AcDbEntity
  8
C-5
  6
Continuous
 62
     7
370
     9
100
AcDbText
 10
40.59260254937286
 20
775.6920212864234
 30
0.0
 40
22.86
  1
メインバー表面　Ｓ＝１：１
 41
1.153846153846154
  7
ＭＳ ゴシック
100
AcDbText
  0
TEXT
  5
354
330
1F
100
AcDbEntity
  8
C-5
  6
Continuous
 62
     7
370
     9
100
AcDbText
 10
326.8378418071854
 20
1123.116215622361
 30
0.0
 40
22.86
  1
デルタパターン
 41
1.142857142857143
  7
ＭＳ ゴシック
100
AcDbText
  0
TEXT
  5
355
330
1F
100
AcDbEntity
  8
C-4
  6
Continuous
 62
     2
370
     9
100
AcDbText
 10
150.5454980571855
 20
893.9607393016098
 30
0.0
 40
30.48
  1
4
 50
90.00000250447768
 41
1.000000000000001
  7
ＭＳ ゴシック
100
AcDbText
  0
TEXT
  5
356
330
1F
100
AcDbEntity
  8
C-4
  6
Continuous
 62
     2
370
     9
100
AcDbText
 10
150.5454980571855
 20
953.9609834422347
 30
0.0
 40
30.48
  1
8
 50
90.00000250447768
 41
1.000000000000001
  7
ＭＳ ゴシック
100
AcDbText
  0
TEXT
  5
357
330
1F
100
AcDbEntity
  8
C-4
  6
Continuous
 62
     2
370
     9
100
AcDbText
 10
150.5454980571855
 20
998.9609834422347
 30
0.0
 40
30.48
  1
1
 50
90.00000250447768
 41
1.000000000000001
  7
ＭＳ ゴシック
100
AcDbText
  0
TEXT
  5
358
330
1F
100
AcDbEntity
  8
C-4
  6
Continuous
 62
     2
370
     9
100
AcDbText
 10
150.5454980571855
 20
1043.960678266453
 30
0.0
 40
30.48
  1
8
 50
90.00000250447768
 41
1.000000000000001
  7
ＭＳ ゴシック
100
AcDbText
  0
TEXT
  5
359
330
1F
100
AcDbEntity
  8
C-4
  6
Continuous
 62
     2
370
     9
100
AcDbText
 10
150.5454980571855
 20
1103.96073930161
 30
0.0
 40
30.48
  1
4
 50
90.00000250447768
 41
1.000000000000001
  7
ＭＳ ゴシック
100
AcDbText
  0
TEXT
  5
35A
330
1F
100
AcDbEntity
  8
C-4
  6
Continuous
 62
     2
370
     9
100
AcDbText
 10
369.3123527603142
 20
974.964388070023
 30
0.0
 40
30.48
  1
0.5
 50
73.30064077628187
 41
1.083333333333336
  7
ＭＳ ゴシック
100
AcDbText
  0
TEXT
  5
35B
330
1F
100
AcDbEntity
  8
C-4
  6
Continuous
 62
     2
370
     9
100
AcDbText
 10
252.898510752498
 20
1237.21811015361
 30
0.0
 40
30.48
  1
6
 41
0.9999999999999998
  7
ＭＳ ゴシック
100
AcDbText
  0
TEXT
  5
35C
330
1F
100
AcDbEntity
  8
C-4
  6
Continuous
 62
     2
370
     9
100
AcDbText
 10
426.7038842876541
 20
453.2489167918441
 30
0.0
 40
30.48
  1
20
 50
90.00000250447789
 41
1.062500000000001
  7
ＭＳ ゴシック
100
AcDbText
  0
TEXT
  5
35D
330
1F
100
AcDbEntity
  8
C-4
  6
Continuous
 62
     2
370
     9
100
AcDbText
 10
147.0510376079667
 20
598.0234995579077
 30
0.0
 40
30.48
  1
6
 41
0.9999999999999998
  7
ＭＳ ゴシック
100
AcDbText
  0
TEXT
  5
35E
330
1F
100
AcDbEntity
  8
C-4
  6
Continuous
 62
     2
370
     9
100
AcDbText
 10
184.5510986431229
 20
598.0234995579077
 30
0.0
 40
30.48
  1
9
 41
0.9999999999999998
  7
ＭＳ ゴシック
100
AcDbText
  0
TEXT
  5
35F
330
1F
100
AcDbEntity
  8
C-4
  6
Continuous
 62
     2
370
     9
100
AcDbText
 10
222.0510986431229
 20
598.0234995579077
 30
0.0
 40
30.48
  1
6
 41
0.9999999999999998
  7
ＭＳ ゴシック
100
AcDbText
  0
TEXT
  5
360
330
1F
100
AcDbEntity
  8
C-4
  6
Continuous
 62
     2
370
     9
100
AcDbText
 10
259.5511596782792
 20
598.0234995579077
 30
0.0
 40
30.48
  1
9
 41
0.9999999999999998
  7
ＭＳ ゴシック
100
AcDbText
  0
TEXT
  5
361
330
1F
100
AcDbEntity
  8
C-4
  6
Continuous
 62
     2
370
     9
100
AcDbText
 10
297.0512207134354
 20
598.0234995579077
 30
0.0
 40
30.48
  1
6
 41
0.9999999999999998
  7
ＭＳ ゴシック
100
AcDbText
  0
TEXT
  5
362
330
1F
100
AcDbEntity
  8
C-4
  6
Continuous
 62
     2
370
     9
100
AcDbText
 10
158.3011596782792
 20
661.1407480930637
 30
0.0
 40
30.48
  1
15
 41
1.0625
  7
ＭＳ ゴシック
100
AcDbText
  0
TEXT
  5
363
330
1F
100
AcDbEntity
  8
C-4
  6
Continuous
 62
     2
370
     9
100
AcDbText
 10
233.3012207134354
 20
661.1407480930637
 30
0.0
 40
30.48
  1
15
 41
1.0625
  7
ＭＳ ゴシック
100
AcDbText
  0
TEXT
  5
364
330
1F
100
AcDbEntity
  8
C-5
  6
Continuous
 62
     7
370
     9
100
AcDbText
 10
-97.97313231390831
 20
717.0106553196263
 30
0.0
 40
22.86
  1
※デルタパターンの配列は一定ではありません。
 41
1.159090909090909
  7
ＭＳ ゴシック
100
AcDbText
  0
LINE
  5
365
330
1F
100
AcDbEntity
  8
D-9
  6
Continuous
 62
     4
370
     9
100
AcDbLine
 10
-451.4192496131872
 20
-424.5568853243492
 30
0.0
 11
-455.0440992306684
 21
-428.1817346438072
 31
0.0
  0
LINE
  5
366
330
1F
100
AcDbEntity
  8
D-9
  6
Continuous
 62
     4
370
     9
100
AcDbLine
 10
-566.4195309471104
 20
-415.6815534456871
 30
0.0
 11
-451.4192496131872
 21
-415.6815534456871
 31
0.0
  0
LINE
  5
367
330
1F
100
AcDbEntity
  8
D-9
  6
Continuous
 62
     4
370
     9
100
AcDbLine
 10
-451.4192496131872
 20
-417.4860483034752
 30
0.0
 11
-462.1154294799779
 21
-428.1817346438072
 31
0.0
  0
LINE
  5
368
330
1F
100
AcDbEntity
  8
D-9
  6
Continuous
 62
     4
370
     9
100
AcDbLine
 10
-456.6860827322815
 20
-415.6815534456871
 30
0.0
 11
-469.1867600273107
 21
-428.1817346438072
 31
0.0
  0
LINE
  5
369
330
1F
100
AcDbEntity
  8
D-9
  6
Continuous
 62
     4
370
     9
100
AcDbLine
 10
-463.7574128698324
 20
-415.6815534456871
 30
0.0
 11
-476.2580905746435
 21
-428.1817346438072
 31
0.0
  0
LINE
  5
36A
330
1F
100
AcDbEntity
  8
D-9
  6
Continuous
 62
     4
370
     9
100
AcDbLine
 10
-470.8287440132116
 20
-415.6815534456871
 30
0.0
 11
-483.3284293006872
 21
-428.1817346438072
 31
0.0
  0
LINE
  5
36B
330
1F
100
AcDbEntity
  8
D-9
  6
Continuous
 62
     4
370
     9
100
AcDbLine
 10
-477.8990827392553
 20
-415.6815534456871
 30
0.0
 11
-490.3997598480199
 21
-428.1817346438072
 31
0.0
  0
LINE
  5
36C
330
1F
100
AcDbEntity
  8
D-9
  6
Continuous
 62
     4
370
     9
100
AcDbLine
 10
-484.970413286588
 20
-415.6815534456871
 30
0.0
 11
-497.4710903953527
 21
-428.1817346438072
 31
0.0
  0
LINE
  5
36D
330
1F
100
AcDbEntity
  8
D-9
  6
Continuous
 62
     4
370
     9
100
AcDbLine
 10
-492.0417438339208
 20
-415.6815534456871
 30
0.0
 11
-503.5267077278112
 21
-427.1660238131187
 31
0.0
  0
LINE
  5
36E
330
1F
100
AcDbEntity
  8
D-9
  6
Continuous
 62
     4
370
     9
100
AcDbLine
 10
-499.1130743812536
 20
-415.6815534456871
 30
0.0
 11
-508.9402018379186
 21
-425.5086809023521
 31
0.0
  0
LINE
  5
36F
330
1F
100
AcDbEntity
  8
D-9
  6
Continuous
 62
     4
370
     9
100
AcDbLine
 10
-506.1834154914831
 20
-415.6815534456871
 30
0.0
 11
-514.1564951728795
 21
-423.6546331270836
 31
0.0
  0
LINE
  5
370
330
1F
100
AcDbEntity
  8
D-9
  6
Continuous
 62
     4
370
     9
100
AcDbLine
 10
-513.25474365463
 20
-415.6815534456871
 30
0.0
 11
-519.3727932762121
 21
-421.8000894411705
 31
0.0
  0
LINE
  5
371
330
1F
100
AcDbEntity
  8
D-9
  6
Continuous
 62
     4
370
     9
100
AcDbLine
 10
-520.326071817777
 20
-415.6815534456871
 30
0.0
 11
-525.3263436149572
 21
-420.6818204744957
 31
0.0
  0
LINE
  5
372
330
1F
100
AcDbEntity
  8
D-9
  6
Continuous
 62
     4
370
     9
100
AcDbLine
 10
-527.3974047492956
 20
-415.6815534456871
 30
0.0
 11
-532.3966847251867
 21
-420.6818204744957
 31
0.0
  0
LINE
  5
373
330
1F
100
AcDbEntity
  8
D-9
  6
Continuous
 62
     4
370
     9
100
AcDbLine
 10
-562.7530632804844
 20
-415.6815534456871
 30
0.0
 11
-567.7523480247471
 21
-420.6818204744957
 31
0.0
  0
LINE
  5
374
330
1F
100
AcDbEntity
  8
D-A
  6
JWW_DASHED3
 62
     3
370
     9
100
AcDbLine
 10
-431.4191566299413
 20
-398.1815915926597
 30
0.0
 11
-431.4191566299413
 21
-348.181360326638
 31
0.0
  0
LINE
  5
375
330
1F
100
AcDbEntity
  8
D-A
  6
Continuous
 62
     3
370
     9
100
AcDbLine
 10
-406.4187918495153
 20
-373.181725107064
 30
0.0
 11
-406.4187918495153
 21
-357.6819759234093
 31
0.0
  0
LINE
  5
376
330
1F
100
AcDbEntity
  8
D-A
  6
Continuous
 62
     3
370
     9
100
AcDbLine
 10
-431.4191566299413
 20
-348.181360326638
 30
0.0
 11
-431.4191566299413
 21
-318.1817173584602
 31
0.0
  0
LINE
  5
377
330
1F
100
AcDbEntity
  8
D-A
  6
Continuous
 62
     3
370
     9
100
AcDbLine
 10
-281.4189492057775
 20
-436.6815000399254
 30
0.0
 11
-406.4187918495153
 21
-436.6815000399254
 31
0.0
  0
LINE
  5
378
330
1F
100
AcDbEntity
  8
D-A
  6
Continuous
 62
     3
370
     9
100
AcDbLine
 10
-409.3489943336461
 20
-420.2522474154136
 30
0.0
 11
-431.4191566299413
 21
-398.1815915926597
 31
0.0
  0
LINE
  5
379
330
1F
100
AcDbEntity
  8
D-A
  6
Continuous
 62
     3
370
     9
100
AcDbLine
 10
-406.4187918495153
 20
-448.1813245638511
 30
0.0
 11
-406.4187918495153
 21
-427.3235803469322
 31
0.0
  0
LINE
  5
37A
330
1F
100
AcDbEntity
  8
D-A
  6
Continuous
 62
     3
370
     9
100
AcDbLine
 10
-281.4189492057775
 20
-448.1813245638511
 30
0.0
 11
-406.4187918495153
 21
-448.1813245638511
 31
0.0
  0
LINE
  5
37B
330
1F
100
AcDbEntity
  8
D-A
  6
Continuous
 62
     3
370
     9
100
AcDbLine
 10
-431.4191566299413
 20
-430.681372247567
 30
0.0
 11
-431.4191566299413
 21
-398.1815915926597
 31
0.0
  0
LINE
  5
37C
330
1F
100
AcDbEntity
  8
D-A
  6
Continuous
 62
     3
370
     9
100
AcDbLine
 10
-431.4191566299413
 20
-430.681372247567
 30
0.0
 11
-442.9189871143316
 21
-430.681372247567
 31
0.0
  0
LINE
  5
37D
330
1F
100
AcDbEntity
  8
D-A
  6
Continuous
 62
     3
370
     9
100
AcDbLine
 10
-442.9189871143316
 20
-318.1817173584602
 30
0.0
 11
-442.9189871143316
 21
-430.681372247567
 31
0.0
  0
LINE
  5
37E
330
1F
100
AcDbEntity
  8
D-A
  6
JWW_CENTER2
 62
     3
370
     9
100
AcDbLine
 10
-388.4243594001745
 20
-375.6818586214683
 30
0.0
 11
-448.8418207954381
 21
-375.6818586214683
 31
0.0
  0
LINE
  5
37F
330
1F
100
AcDbEntity
  8
D-A
  6
JWW_DASHED3
 62
     3
370
     9
100
AcDbLine
 10
-406.4187918495153
 20
-385.6819063051842
 30
0.0
 11
-442.9189871143316
 21
-385.6819063051842
 31
0.0
  0
LINE
  5
380
330
1F
100
AcDbEntity
  8
D-A
  6
JWW_DASHED3
 62
     3
370
     9
100
AcDbLine
 10
-406.4187918495153
 20
-393.681746087899
 30
0.0
 11
-406.4187918495153
 21
-373.181725107064
 31
0.0
  0
LINE
  5
381
330
1F
100
AcDbEntity
  8
D-A
  6
JWW_DASHED3
 62
     3
370
     9
100
AcDbLine
 10
-406.4187918495153
 20
-384.4323354586265
 30
0.0
 11
-442.9189871143316
 21
-384.4323354586265
 31
0.0
  0
LINE
  5
382
330
1F
100
AcDbEntity
  8
D-A
  6
Continuous
 62
     3
370
     9
100
AcDbLine
 10
-445.1694069694494
 20
-365.6818157061241
 30
0.0
 11
-446.4189790080999
 21
-366.9318824633262
 31
0.0
  0
LINE
  5
383
330
1F
100
AcDbEntity
  8
D-A
  6
Continuous
 62
     3
370
     9
100
AcDbLine
 10
-445.1694069694494
 20
-385.6819063051842
 30
0.0
 11
-446.4189790080999
 21
-384.4323354586265
 31
0.0
  0
LINE
  5
384
330
1F
100
AcDbEntity
  8
D-A
  6
Continuous
 62
     3
370
     9
100
AcDbLine
 10
-445.1694069694494
 20
-365.6818157061241
 30
0.0
 11
-445.1694069694494
 21
-385.6819063051842
 31
0.0
  0
LINE
  5
385
330
1F
100
AcDbEntity
  8
D-A
  6
Continuous
 62
     3
370
     9
100
AcDbLine
 10
-442.9189871143316
 20
-366.9318824633262
 30
0.0
 11
-446.4189790080999
 21
-366.9318824633262
 31
0.0
  0
LINE
  5
386
330
1F
100
AcDbEntity
  8
D-A
  6
Continuous
 62
     3
370
     9
100
AcDbLine
 10
-442.9189871143316
 20
-365.6818157061241
 30
0.0
 11
-445.1694069694494
 21
-365.6818157061241
 31
0.0
  0
LINE
  5
387
330
1F
100
AcDbEntity
  8
D-A
  6
Continuous
 62
     3
370
     9
100
AcDbLine
 10
-442.9189871143316
 20
-384.4323354586265
 30
0.0
 11
-446.4189790080999
 21
-384.4323354586265
 31
0.0
  0
LINE
  5
388
330
1F
100
AcDbEntity
  8
D-A
  6
Continuous
 62
     3
370
     9
100
AcDbLine
 10
-442.9189871143316
 20
-385.6819063051842
 30
0.0
 11
-445.1694069694494
 21
-385.6819063051842
 31
0.0
  0
LINE
  5
389
330
1F
100
AcDbEntity
  8
D-A
  6
Continuous
 62
     3
370
     9
100
AcDbLine
 10
-399.9192343543981
 20
-357.6819759234093
 30
0.0
 11
-406.4187918495153
 21
-357.6819759234093
 31
0.0
  0
LINE
  5
38A
330
1F
100
AcDbEntity
  8
D-A
  6
JWW_DASHED3
 62
     3
370
     9
100
AcDbLine
 10
-399.9192343543981
 20
-393.681746087899
 30
0.0
 11
-406.4187918495153
 21
-393.681746087899
 31
0.0
  0
LINE
  5
38B
330
1F
100
AcDbEntity
  8
D-A
  6
JWW_DASHED3
 62
     3
370
     9
100
AcDbLine
 10
-393.4196768592809
 20
-387.1816879137657
 30
0.0
 11
-393.4196768592809
 21
-386.182327829232
 31
0.0
  0
LINE
  5
38C
330
1F
100
AcDbEntity
  8
D-A
  6
Continuous
 62
     3
370
     9
100
AcDbLine
 10
-393.4196768592809
 20
-364.1810375078819
 30
0.0
 11
-393.4196768592809
 21
-386.182327829232
 31
0.0
  0
LINE
  5
38D
330
1F
100
AcDbEntity
  8
D-A
  6
Continuous
 62
     3
370
     9
100
AcDbLine
 10
-406.4187918495153
 20
-365.6818157061241
 30
0.0
 11
-413.9192019294713
 21
-365.6818157061241
 31
0.0
  0
LINE
  5
38E
330
1F
100
AcDbEntity
  8
D-A
  6
Continuous
 62
     3
370
     9
100
AcDbLine
 10
-406.4187918495153
 20
-366.9318824633262
 30
0.0
 11
-412.6696263145421
 21
-366.9318824633262
 31
0.0
  0
LINE
  5
38F
330
1F
100
AcDbEntity
  8
D-A
  6
JWW_DASHED3
 62
     3
370
     9
100
AcDbLine
 10
-413.9192019294713
 20
-365.6818157061241
 30
0.0
 11
-442.9189871143316
 21
-365.6818157061241
 31
0.0
  0
LINE
  5
390
330
1F
100
AcDbEntity
  8
D-A
  6
JWW_DASHED3
 62
     3
370
     9
100
AcDbLine
 10
-442.9189871143316
 20
-366.9318824633262
 30
0.0
 11
-412.6696263145421
 21
-366.9318824633262
 31
0.0
  0
LINE
  5
391
330
1F
100
AcDbEntity
  8
D-A
  6
Continuous
 62
     3
370
     9
100
AcDbLine
 10
-390.2070532630895
 20
-389.3944555147789
 30
0.0
 11
-431.4191566299413
 21
-348.181360326638
 31
0.0
  0
LINE
  5
392
330
1F
100
AcDbEntity
  8
D-A
  6
Continuous
 62
     3
370
     9
100
AcDbLine
 10
-368.9930687736486
 20
-398.1815915926597
 30
0.0
 11
-291.419502336881
 21
-398.1815915926597
 31
0.0
  0
LINE
  5
393
330
1F
100
AcDbEntity
  8
D-4
  6
Continuous
 62
     7
370
     9
100
AcDbLine
 10
-1154.087139208219
 20
-192.2627836092613
 30
0.0
 11
-581.4193592857334
 21
-192.2627836092613
 31
0.0
  0
LINE
  5
394
330
1F
100
AcDbEntity
  8
D-4
  6
Continuous
 62
     7
370
     9
100
AcDbLine
 10
-581.4193592857334
 20
-297.7257936819694
 30
0.0
 11
-581.4193592857334
 21
-189.2617326601646
 31
0.0
  0
LINE
  5
395
330
1F
100
AcDbEntity
  8
D-4
  6
Continuous
 62
     7
370
     9
100
AcDbLine
 10
-581.4193592857334
 20
-192.2627836092613
 30
0.0
 11
-456.4185295890783
 21
-192.2627836092613
 31
0.0
  0
LINE
  5
396
330
1F
100
AcDbEntity
  8
D-4
  6
Continuous
 62
     7
370
     9
100
AcDbLine
 10
-456.4185295890783
 20
-297.7257936819694
 30
0.0
 11
-456.4185295890783
 21
-80.51079805933455
 31
0.0
  0
LINE
  5
397
330
1F
100
AcDbEntity
  8
D-4
  6
Continuous
 62
     7
370
     9
100
AcDbLine
 10
-451.418258983991
 20
-297.7257936819694
 30
0.0
 11
-451.418258983991
 21
-80.51079805933455
 31
0.0
  0
LINE
  5
398
330
1F
100
AcDbEntity
  8
D-4
  6
Continuous
 62
     7
370
     9
100
AcDbLine
 10
-426.4198766540502
 20
-297.7257936819694
 30
0.0
 11
-426.4198766540502
 21
30.18584195531389
 31
0.0
  0
LINE
  5
399
330
1F
100
AcDbEntity
  8
D-5
  6
Continuous
 62
     7
370
     9
100
AcDbLine
 10
-289.9885903190587
 20
-205.1330858095787
 30
0.0
 11
-30.60721977462514
 21
-205.1330858095787
 31
0.0
  0
LINE
  5
39A
330
1F
100
AcDbEntity
  8
D-4
  6
Continuous
 62
     7
370
     9
100
AcDbLine
 10
-581.4183674644444
 20
-873.265314660897
 30
0.0
 11
-181.4174996208166
 21
-873.265314660897
 31
0.0
  0
LINE
  5
39B
330
1F
100
AcDbEntity
  8
D-4
  6
Continuous
 62
     7
370
     9
100
AcDbLine
 10
-181.4174996208166
 20
-633.0551057680748
 30
0.0
 11
-181.4174996208166
 21
-876.2643533571861
 31
0.0
  0
LINE
  5
39C
330
1F
100
AcDbEntity
  8
D-4
  6
Continuous
 62
     7
370
     9
100
AcDbLine
 10
-581.4183674644444
 20
-718.8004403933189
 30
0.0
 11
-431.4191566299413
 21
-718.8004403933189
 31
0.0
  0
LINE
  5
39D
330
1F
100
AcDbEntity
  8
D-4
  6
Continuous
 62
     7
370
     9
100
AcDbLine
 10
90.26634589920292
 20
-563.1821161135338
 30
0.0
 11
90.26634589920292
 21
-313.181942067971
 31
0.0
  0
LINE
  5
39E
330
1F
100
AcDbEntity
  8
D-4
  6
Continuous
 62
     7
370
     9
100
AcDbLine
 10
-5.388828356168105
 20
-313.181942067971
 30
0.0
 11
93.26691047439823
 21
-313.181942067971
 31
0.0
  0
LINE
  5
39F
330
1F
100
AcDbEntity
  8
D-6
  6
Continuous
 62
     6
370
     5
100
AcDbLine
 10
-431.4191566299413
 20
-563.1821161135338
 30
0.0
 11
-431.4191566299413
 21
-813.1817727907799
 31
0.0
  0
LINE
  5
3A0
330
1F
100
AcDbEntity
  8
D-6
  6
JWW_DASHED3
 62
     6
370
     5
100
AcDbLine
 10
-337.9172669242834
 20
-690.6815820559166
 30
0.0
 11
-337.9172669242834
 21
-563.1821161135338
 31
0.0
  0
LINE
  5
3A1
330
1F
100
AcDbEntity
  8
D-6
  6
JWW_DASHED3
 62
     6
370
     5
100
AcDbLine
 10
-292.9178009819005
 20
-563.1821161135338
 30
0.0
 11
-292.9178009819005
 21
-690.6815820559166
 31
0.0
  0
LINE
  5
3A2
330
1F
100
AcDbEntity
  8
D-6
  6
Continuous
 62
     6
370
     5
100
AcDbLine
 10
-181.4194832633947
 20
-463.1821447237633
 30
0.0
 11
-16.41898735275014
 21
-463.1821447237633
 31
0.0
  0
LINE
  5
3A3
330
1F
100
AcDbEntity
  8
D-6
  6
Continuous
 62
     6
370
     5
100
AcDbLine
 10
-181.4194832633947
 20
-463.1821447237633
 30
0.0
 11
-181.4194832633947
 21
-563.1821161135338
 31
0.0
  0
LINE
  5
3A4
330
1F
100
AcDbEntity
  8
D-4
  6
Continuous
 62
     7
370
     9
100
AcDbLine
 10
-125.6396065544103
 20
-563.1821161135338
 30
0.0
 11
93.26691047439823
 21
-563.1821161135338
 31
0.0
  0
LINE
  5
3A5
330
1F
100
AcDbEntity
  8
D-6
  6
Continuous
 62
     6
370
     5
100
AcDbLine
 10
-431.4191566299413
 20
-563.1821161135338
 30
0.0
 11
-181.4194832633947
 21
-563.1821161135338
 31
0.0
  0
LINE
  5
3A6
330
1F
100
AcDbEntity
  8
D-6
  6
Continuous
 62
     6
370
     5
100
AcDbLine
 10
-337.9172669242834
 20
-365.682306848397
 30
0.0
 11
-292.9178009819005
 21
-365.682306848397
 31
0.0
  0
LINE
  5
3A7
330
1F
100
AcDbEntity
  8
D-6
  6
JWW_CENTER2
 62
     6
370
     5
100
AcDbLine
 10
-315.4180298637365
 20
-361.6021257265709
 30
0.0
 11
-315.4180298637365
 21
-690.6815820559166
 31
0.0
  0
LINE
  5
3A8
330
1F
100
AcDbEntity
  8
D-4
  6
Continuous
 62
     7
370
     9
100
AcDbLine
 10
-426.4188872169469
 20
-451.1496835573814
 30
0.0
 11
-426.4188872169469
 21
-506.7125421389244
 31
0.0
  0
LINE
  5
3A9
330
1F
100
AcDbEntity
  8
D-4
  6
Continuous
 62
     7
370
     9
100
AcDbLine
 10
-269.592109758756
 20
-448.1818204744957
 30
0.0
 11
-190.368648607633
 21
-448.1818204744957
 31
0.0
  0
LINE
  5
3AA
330
1F
100
AcDbEntity
  8
D-4
  6
Continuous
 62
     7
370
     9
100
AcDbLine
 10
-269.592109758756
 20
-398.1820875033043
 30
0.0
 11
-190.368648607633
 21
-398.1820875033043
 31
0.0
  0
LINE
  5
3AB
330
1F
100
AcDbEntity
  8
D-4
  6
Continuous
 62
     7
370
     9
100
AcDbLine
 10
-193.3682022880529
 20
-398.1820875033043
 30
0.0
 11
-193.3682022880529
 21
-313.181942067971
 31
0.0
  0
LINE
  5
3AC
330
1F
100
AcDbEntity
  8
D-6
  6
Continuous
 62
     6
370
     5
100
AcDbLine
 10
-337.9172669242834
 20
-398.1815915926597
 30
0.0
 11
-337.9172669242834
 21
-365.682306848397
 31
0.0
  0
LINE
  5
3AD
330
1F
100
AcDbEntity
  8
D-6
  6
Continuous
 62
     6
370
     5
100
AcDbLine
 10
-292.9178009819005
 20
-398.1815915926597
 30
0.0
 11
-292.9178009819005
 21
-365.682306848397
 31
0.0
  0
LINE
  5
3AE
330
1F
100
AcDbEntity
  8
D-6
  6
Continuous
 62
     6
370
     5
100
AcDbLine
 10
-337.9172669242834
 20
-563.1821161135338
 30
0.0
 11
-337.9172669242834
 21
-448.1813245638511
 31
0.0
  0
LINE
  5
3AF
330
1F
100
AcDbEntity
  8
D-6
  6
Continuous
 62
     6
370
     5
100
AcDbLine
 10
-292.9178009819005
 20
-563.1821161135338
 30
0.0
 11
-292.9178009819005
 21
-448.1813245638511
 31
0.0
  0
LINE
  5
3B0
330
1F
100
AcDbEntity
  8
D-4
  6
Continuous
 62
     7
370
     9
100
AcDbLine
 10
-726.9018708061192
 20
-438.181782327523
 30
0.0
 11
-726.9018708061192
 21
-313.181942067971
 31
0.0
  0
LINE
  5
3B1
330
1F
100
AcDbEntity
  8
D-4
  6
Continuous
 62
     7
370
     9
100
AcDbLine
 10
-586.3433228324864
 20
-438.181782327523
 30
0.0
 11
-729.9014435600254
 21
-438.181782327523
 31
0.0
  0
LINE
  5
3B2
330
1F
100
AcDbEntity
  8
D-4
  6
Continuous
 62
     7
370
     9
100
AcDbLine
 10
-1154.087139208219
 20
27.18527738011858
 30
0.0
 11
-426.4198766540502
 21
27.18527738011858
 31
0.0
  0
LINE
  5
3B3
330
1F
100
AcDbEntity
  8
D-4
  6
Continuous
 62
     7
370
     9
100
AcDbLine
 10
-463.6989478658651
 20
-313.181942067971
 30
0.0
 11
-729.9014435600254
 21
-313.181942067971
 31
0.0
  0
LINE
  5
3B4
330
1F
100
AcDbEntity
  8
D-4
  6
Continuous
 62
     7
370
     9
100
AcDbLine
 10
-1154.087139208219
 20
-83.5103708132408
 30
0.0
 11
-426.4198766540502
 21
-83.5103708132408
 31
0.0
  0
LINE
  5
3B5
330
1F
100
AcDbEntity
  8
D-4
  6
Continuous
 62
     7
370
     9
100
AcDbLine
 10
-426.4188872169469
 20
-503.7124734743736
 30
0.0
 11
-281.4189492057775
 21
-503.7124734743736
 31
0.0
  0
LINE
  5
3B6
330
1F
100
AcDbEntity
  8
D-5
  6
Continuous
 62
     2
370
     9
100
AcDbLine
 10
-923.4136925529453
 20
-1009.123812280526
 30
0.0
 11
-923.4136925529453
 21
-944.1242700441978
 31
0.0
  0
LINE
  5
3B7
330
1F
100
AcDbEntity
  8
D-5
  6
Continuous
 62
     2
370
     9
100
AcDbLine
 10
-923.4136925529453
 20
-944.1242700441978
 30
0.0
 11
-348.4132729362462
 21
-944.1242700441978
 31
0.0
  0
LINE
  5
3B8
330
1F
100
AcDbEntity
  8
D-5
  6
Continuous
 62
     2
370
     9
100
AcDbLine
 10
-348.4132729362462
 20
-944.1242700441978
 30
0.0
 11
-348.4132729362462
 21
-1009.123812280526
 31
0.0
  0
LINE
  5
3B9
330
1F
100
AcDbEntity
  8
D-5
  6
Continuous
 62
     2
370
     9
100
AcDbLine
 10
-348.4132729362462
 20
-1009.123812280526
 30
0.0
 11
-923.4136925529453
 21
-1009.123812280526
 31
0.0
  0
LINE
  5
3BA
330
1F
100
AcDbEntity
  8
D-4
  6
Continuous
 62
     7
370
     9
100
AcDbLine
 10
-193.3682022880529
 20
-448.1818204744957
 30
0.0
 11
-193.3682022880529
 21
-398.1820875033043
 31
0.0
  0
LINE
  5
3BB
330
1F
100
AcDbEntity
  8
D-4
  6
Continuous
 62
     7
370
     9
100
AcDbLine
 10
-581.4183674644444
 20
-838.1821542605064
 30
0.0
 11
-581.4183674644444
 21
-876.2643533571861
 31
0.0
  0
LINE
  5
3BC
330
1F
100
AcDbEntity
  8
D-A
  6
Continuous
 62
     3
370
     9
100
AcDbLine
 10
-442.9189871143316
 20
-318.1817173584602
 30
0.0
 11
-431.4191566299413
 21
-318.1817173584602
 31
0.0
  0
LINE
  5
3BD
330
1F
100
AcDbEntity
  8
D-5
  6
Continuous
 62
     7
370
     9
100
AcDbLine
 10
-401.2203369926427
 20
-406.8993669375084
 30
0.0
 11
-387.4096403907751
 21
-386.0599475725792
 31
0.0
  0
LINE
  5
3BE
330
1F
100
AcDbEntity
  8
D-5
  6
Continuous
 62
     7
370
     9
100
AcDbLine
 10
-401.2203369926427
 20
-406.8993669375084
 30
0.0
 11
-382.4856720756505
 21
-390.3452592714928
 31
0.0
  0
LINE
  5
3BF
330
1F
100
AcDbEntity
  8
D-5
  6
Continuous
 62
     7
370
     9
100
AcDbLine
 10
-401.2193451713537
 20
-406.8983751162193
 30
0.0
 11
-275.3108177970861
 21
-262.2358613833092
 31
0.0
  0
LINE
  5
3C0
330
1F
100
AcDbEntity
  8
D-5
  6
Continuous
 62
     7
370
     9
100
AcDbLine
 10
-275.3108177970861
 20
-262.2358613833092
 30
0.0
 11
111.390155713656
 21
-262.2358613833092
 31
0.0
  0
LINE
  5
3C1
330
1F
100
AcDbEntity
  8
D-5
  6
Continuous
 62
     7
370
     9
100
AcDbLine
 10
-478.5025630783056
 20
-421.723795495858
 30
0.0
 11
-464.6898852180456
 21
-400.8858590944908
 31
0.0
  0
LINE
  5
3C2
330
1F
100
AcDbEntity
  8
D-5
  6
Continuous
 62
     7
370
     9
100
AcDbLine
 10
-478.5025630783056
 20
-421.723795495858
 30
0.0
 11
-459.768889386556
 21
-405.1696878298424
 31
0.0
  0
LINE
  5
3C3
330
1F
100
AcDbEntity
  8
D-5
  6
Continuous
 62
     7
370
     9
100
AcDbLine
 10
-428.3710323165868
 20
-315.9778723865054
 30
0.0
 11
-414.5603380989049
 21
-295.1394468172691
 31
0.0
  0
LINE
  5
3C4
330
1F
100
AcDbEntity
  8
D-5
  6
Continuous
 62
     7
370
     9
100
AcDbLine
 10
-428.3710323165868
 20
-315.9778723865054
 30
0.0
 11
-409.6363697837804
 21
-299.4237655028007
 31
0.0
  0
LINE
  5
3C5
330
1F
100
AcDbEntity
  8
D-5
  6
Continuous
 62
     7
370
     9
100
AcDbLine
 10
-284.1450272392248
 20
-150.2703195437095
 30
0.0
 11
-428.3710323165868
 21
-315.9778723865054
 31
0.0
  0
LINE
  5
3C6
330
1F
100
AcDbEntity
  8
D-5
  6
Continuous
 62
     7
370
     9
100
AcDbLine
 10
-284.1450272392248
 20
-150.2703195437095
 30
0.0
 11
164.6431388069178
 21
-150.2703195437095
 31
0.0
  0
LINE
  5
3C7
330
1F
100
AcDbEntity
  8
D-6
  6
Continuous
 62
     6
370
     5
100
AcDbLine
 10
-429.4194446395849
 20
-313.181942067971
 30
0.0
 11
-16.41898735275014
 21
-313.181942067971
 31
0.0
  0
LINE
  5
3C8
330
1F
100
AcDbEntity
  8
D-6
  6
Continuous
 62
     6
370
     5
100
AcDbLine
 10
-581.4183674644444
 20
-433.1815057619713
 30
0.0
 11
-581.4183674644444
 21
-813.1817727907799
 31
0.0
  0
LINE
  5
3C9
330
1F
100
AcDbEntity
  8
D-A
  6
Continuous
 62
     3
370
     9
100
AcDbLine
 10
-281.4189492057775
 20
-408.1816392763756
 30
0.0
 11
-281.4189492057775
 21
-448.1813245638511
 31
0.0
  0
LINE
  5
3CA
330
1F
100
AcDbEntity
  8
D-1
  6
Continuous
 62
     2
370
     9
100
AcDbLine
 10
-431.4201484512304
 20
-318.1817173584602
 30
0.0
 11
-446.419969637296
 21
-318.1817173584602
 31
0.0
  0
LINE
  5
3CB
330
1F
100
AcDbEntity
  8
D-1
  6
Continuous
 62
     2
370
     9
100
AcDbLine
 10
-426.4198766540502
 20
-410.6817727907799
 30
0.0
 11
-431.4201484512304
 21
-410.6817727907799
 31
0.0
  0
LINE
  5
3CC
330
1F
100
AcDbEntity
  8
D-1
  6
Continuous
 62
     2
370
     9
100
AcDbLine
 10
-431.4201484512304
 20
-433.1815057619713
 30
0.0
 11
-431.4201484512304
 21
-410.6817727907799
 31
0.0
  0
LINE
  5
3CD
330
1F
100
AcDbEntity
  8
D-1
  6
Continuous
 62
     2
370
     9
100
AcDbLine
 10
-426.4198766540502
 20
-340.6814509256981
 30
0.0
 11
-431.4201484512304
 21
-340.6814509256981
 31
0.0
  0
LINE
  5
3CE
330
1F
100
AcDbEntity
  8
D-1
  6
Continuous
 62
     2
370
     9
100
AcDbLine
 10
-431.4201484512304
 20
-340.6814509256981
 30
0.0
 11
-431.4201484512304
 21
-318.1817173584602
 31
0.0
  0
LINE
  5
3CF
330
1F
100
AcDbEntity
  8
D-1
  6
Continuous
 62
     2
370
     9
100
AcDbLine
 10
-426.4198766540502
 20
-316.1815100535057
 30
0.0
 11
-426.4198766540502
 21
-340.6814509256981
 31
0.0
  0
LINE
  5
3D0
330
1F
100
AcDbEntity
  8
D-1
  6
Continuous
 62
     2
370
     9
100
AcDbLine
 10
-426.4198766540502
 20
-435.1817136629722
 30
0.0
 11
-426.4198766540502
 21
-410.6817727907799
 31
0.0
  0
LINE
  5
3D1
330
1F
100
AcDbEntity
  8
D-1
  6
Continuous
 62
     2
370
     9
100
AcDbLine
 10
-451.4202405404066
 20
-428.1817346438072
 30
0.0
 11
-501.4199744056676
 21
-428.1817346438072
 31
0.0
  0
LINE
  5
3D2
330
1F
100
AcDbEntity
  8
D-1
  6
Continuous
 62
     2
370
     9
100
AcDbLine
 10
-446.419969637296
 20
-428.1817346438072
 30
0.0
 11
-446.419969637296
 21
-318.1817173584602
 31
0.0
  0
LINE
  5
3D3
330
1F
100
AcDbEntity
  8
D-1
  6
Continuous
 62
     2
370
     9
100
AcDbLine
 10
-451.4202405404066
 20
-428.1817346438072
 30
0.0
 11
-451.4202405404066
 21
-316.1815100535057
 31
0.0
  0
LINE
  5
3D4
330
1F
100
AcDbEntity
  8
D-1
  6
Continuous
 62
     2
370
     9
100
AcDbLine
 10
-521.707440454862
 20
-420.970678888192
 30
0.0
 11
-501.4199744056676
 21
-428.1817346438072
 31
0.0
  0
LINE
  5
3D5
330
1F
100
AcDbEntity
  8
D-1
  6
Continuous
 62
     2
370
     9
100
AcDbLine
 10
-502.7904425453161
 20
-432.8931432589195
 30
0.0
 11
-523.0863295387243
 21
-425.6815915926597
 31
0.0
  0
LINE
  5
3D6
330
1F
100
AcDbEntity
  8
D-1
  6
Continuous
 62
     2
370
     9
100
AcDbLine
 10
-448.4196816276525
 20
-313.181942067971
 30
0.0
 11
-429.4199405502294
 21
-313.181942067971
 31
0.0
  0
LINE
  5
3D7
330
1F
100
AcDbEntity
  8
D-1
  6
Continuous
 62
     2
370
     9
100
AcDbLine
 10
-576.4200745414707
 20
-433.1815057619713
 30
0.0
 11
-431.4201484512304
 21
-433.1815057619713
 31
0.0
  0
LINE
  5
3D8
330
1F
100
AcDbEntity
  8
D-1
  6
Continuous
 62
     2
370
     9
100
AcDbLine
 10
-576.4200745414707
 20
-433.1815057619713
 30
0.0
 11
-576.4200745414707
 21
-425.6815915926597
 31
0.0
  0
LINE
  5
3D9
330
1F
100
AcDbEntity
  8
D-1
  6
Continuous
 62
     2
370
     9
100
AcDbLine
 10
-576.4200745414707
 20
-438.181782327523
 30
0.0
 11
-429.4199405502294
 21
-438.181782327523
 31
0.0
  0
LINE
  5
3DA
330
1F
100
AcDbEntity
  8
D-1
  6
Continuous
 62
     2
370
     9
100
AcDbLine
 10
-581.419855196378
 20
-433.1815057619713
 30
0.0
 11
-581.419855196378
 21
-425.6815915926597
 31
0.0
  0
LINE
  5
3DB
330
1F
100
AcDbEntity
  8
D-1
  6
Continuous
 62
     2
370
     9
100
AcDbLine
 10
-539.5898972343421
 20
-421.3516908510826
 30
0.0
 11
-551.420208055875
 21
-428.1817346438072
 31
0.0
  0
LINE
  5
3DC
330
1F
100
AcDbEntity
  8
D-1
  6
Continuous
 62
     2
370
     9
100
AcDbLine
 10
-548.9200745414707
 20
-432.5116353853844
 30
0.0
 11
-537.0897637199378
 21
-425.6815915926597
 31
0.0
  0
LINE
  5
3DD
330
1F
100
AcDbEntity
  8
D-1
  6
Continuous
 62
     2
370
     9
100
AcDbLine
 10
-553.9198456596348
 20
-432.5116353853844
 30
0.0
 11
-565.750156481168
 21
-425.6815915926597
 31
0.0
  0
LINE
  5
3DE
330
1F
100
AcDbEntity
  8
D-1
  6
Continuous
 62
     2
370
     9
100
AcDbLine
 10
-563.2500229667637
 20
-421.3516908510826
 30
0.0
 11
-551.420208055875
 21
-428.1817346438072
 31
0.0
  0
LINE
  5
3DF
330
1F
100
AcDbEntity
  8
D-1
  6
Continuous
 62
     2
370
     9
100
AcDbLine
 10
-523.0863295387243
 20
-425.6815915926597
 30
0.0
 11
-537.0897637199378
 21
-425.6815915926597
 31
0.0
  0
LINE
  5
3E0
330
1F
100
AcDbEntity
  8
D-1
  6
Continuous
 62
     2
370
     9
100
AcDbLine
 10
-565.750156481168
 20
-425.6815915926597
 30
0.0
 11
-576.4200745414707
 21
-425.6815915926597
 31
0.0
  0
LINE
  5
3E1
330
1F
100
AcDbEntity
  8
D-1
  6
Continuous
 62
     2
370
     9
100
AcDbLine
 10
-523.3821259330724
 20
-420.6818204744957
 30
0.0
 11
-537.0897637199378
 21
-420.6818204744957
 31
0.0
  0
LINE
  5
3E2
330
1F
100
AcDbEntity
  8
D-1
  6
Continuous
 62
     2
370
     9
100
AcDbLine
 10
-565.750156481168
 20
-420.6818204744957
 30
0.0
 11
-576.4200745414707
 21
-420.6818204744957
 31
0.0
  0
LINE
  5
3E3
330
1F
100
AcDbEntity
  8
D-9
  6
Continuous
 62
     4
370
     9
100
AcDbLine
 10
-534.467745859525
 20
-415.6815534456871
 30
0.0
 11
-540.886045534513
 21
-422.0998483523033
 31
0.0
  0
LINE
  5
3E4
330
1F
100
AcDbEntity
  8
D-9
  6
Continuous
 62
     4
370
     9
100
AcDbLine
 10
-541.5390740226721
 20
-415.6815534456871
 30
0.0
 11
-553.0805264305088
 21
-427.2229963167808
 31
0.0
  0
LINE
  5
3E5
330
1F
100
AcDbEntity
  8
D-9
  6
Continuous
 62
     4
370
     9
100
AcDbLine
 10
-548.6104069541905
 20
-415.6815534456871
 30
0.0
 11
-557.5635300468418
 21
-424.6346670015953
 31
0.0
  0
LINE
  5
3E6
330
1F
100
AcDbEntity
  8
D-9
  6
Continuous
 62
     4
370
     9
100
AcDbLine
 10
-555.6817303489659
 20
-415.6815534456871
 30
0.0
 11
-562.0455323051426
 21
-422.0468335970543
 31
0.0
  0
LINE
  5
3E7
330
1F
100
AcDbEntity
  8
D-4
  6
Continuous
 62
     7
370
     9
100
AcDbLine
 10
-281.4189492057775
 20
-458.0580049379967
 30
0.0
 11
-281.4189492057775
 21
-506.7125421389244
 31
0.0
  0
LINE
  5
3E8
330
1F
100
AcDbEntity
  8
D-5
  6
Continuous
 62
     7
370
     9
100
AcDbLine
 10
-289.9885903190587
 20
-205.1330858095787
 30
0.0
 11
-478.5020695518468
 21
-421.7232995852135
 31
0.0
  0
LINE
  5
3E9
330
1F
100
AcDbEntity
  8
D-6
  6
Continuous
 62
     6
370
     5
100
AcDbLine
 10
-181.4194832633947
 20
-510.5222040041588
 30
0.0
 11
-134.0794335197423
 21
-463.1821447237633
 31
0.0
  0
LINE
  5
3EA
330
1F
100
AcDbEntity
  8
D-6
  6
Continuous
 62
     6
370
     5
100
AcDbLine
 10
-431.4191566299413
 20
-760.5198770388267
 30
0.0
 11
-234.0798912834142
 21
-563.1821161135338
 31
0.0
  0
LINE
  5
3EB
330
1F
100
AcDbEntity
  8
D-6
  6
Continuous
 62
     6
370
     5
100
AcDbLine
 10
-431.4191566299413
 20
-774.660578332772
 30
0.0
 11
-219.9392090629552
 21
-563.1821161135338
 31
0.0
  0
LINE
  5
3EC
330
1F
100
AcDbEntity
  8
D-6
  6
Continuous
 62
     6
370
     5
100
AcDbLine
 10
-181.4194832633947
 20
-524.6628862246178
 30
0.0
 11
-119.938732225797
 21
-463.1821447237633
 31
0.0
  0
LINE
  5
3ED
330
1F
100
AcDbEntity
  8
D-6
  6
Continuous
 62
     6
370
     5
100
AcDbLine
 10
-431.4191566299413
 20
-788.8012414797447
 30
0.0
 11
-205.7985268424962
 21
-563.1821161135338
 31
0.0
  0
LINE
  5
3EE
330
1F
100
AcDbEntity
  8
D-6
  6
Continuous
 62
     6
370
     5
100
AcDbLine
 10
-181.4194832633947
 20
-538.8035493715904
 30
0.0
 11
-105.7980690788244
 21
-463.1821447237633
 31
0.0
  0
LINE
  5
3EF
330
1F
100
AcDbEntity
  8
D-6
  6
Continuous
 62
     6
370
     5
100
AcDbLine
 10
-92.2470055412267
 20
-813.1817727907799
 30
0.0
 11
-16.41799553146107
 21
-737.3537546023033
 31
0.0
  0
LINE
  5
3F0
330
1F
100
AcDbEntity
  8
D-6
  6
Continuous
 62
     6
370
     5
100
AcDbLine
 10
-106.3876686881994
 20
-813.1817727907799
 30
0.0
 11
-16.41799553146107
 21
-723.2130914553306
 31
0.0
  0
LINE
  5
3F1
330
1F
100
AcDbEntity
  8
D-6
  6
Continuous
 62
     6
370
     5
100
AcDbLine
 10
-78.10630424728139
 20
-813.1817727907799
 30
0.0
 11
-16.41799553146107
 21
-751.494417749276
 31
0.0
  0
LINE
  5
3F2
330
1F
100
AcDbEntity
  8
D-0
  6
Continuous
 62
     7
370
     9
100
AcDbLine
 10
-154.5739899467443
 20
-334.1318481787346
 30
0.0
 11
-154.5739899467443
 21
-332.6315682753227
 31
0.0
  0
LINE
  5
3F3
330
1F
100
AcDbEntity
  8
D-0
  6
Continuous
 62
     7
370
     9
100
AcDbLine
 10
-154.5739899467443
 20
-332.6315682753227
 30
0.0
 11
-153.0742035697912
 21
-332.6315682753227
 31
0.0
  0
LINE
  5
3F4
330
1F
100
AcDbEntity
  8
D-0
  6
Continuous
 62
     7
370
     9
100
AcDbLine
 10
-153.0742035697912
 20
-332.6315682753227
 30
0.0
 11
-153.0742035697912
 21
-334.1318481787346
 31
0.0
  0
LINE
  5
3F5
330
1F
100
AcDbEntity
  8
D-0
  6
Continuous
 62
     7
370
     9
100
AcDbLine
 10
-153.0742035697912
 20
-334.1318481787346
 30
0.0
 11
-154.5739899467443
 21
-334.1318481787346
 31
0.0
  0
LINE
  5
3F6
330
1F
100
AcDbEntity
  8
D-0
  6
Continuous
 62
     7
370
     9
100
AcDbLine
 10
-103.8181649040197
 20
-336.8390899523399
 30
0.0
 11
-103.8181649040197
 21
-335.3388100489281
 31
0.0
  0
LINE
  5
3F7
330
1F
100
AcDbEntity
  8
D-0
  6
Continuous
 62
     7
370
     9
100
AcDbLine
 10
-103.8181649040197
 20
-335.3388100489281
 30
0.0
 11
-102.317882616422
 21
-335.3388100489281
 31
0.0
  0
LINE
  5
3F8
330
1F
100
AcDbEntity
  8
D-0
  6
Continuous
 62
     7
370
     9
100
AcDbLine
 10
-102.317882616422
 20
-335.3388100489281
 30
0.0
 11
-102.317882616422
 21
-336.8390899523399
 31
0.0
  0
LINE
  5
3F9
330
1F
100
AcDbEntity
  8
D-0
  6
Continuous
 62
     7
370
     9
100
AcDbLine
 10
-102.317882616422
 20
-336.8390899523399
 30
0.0
 11
-103.8181649040197
 21
-336.8390899523399
 31
0.0
  0
LINE
  5
3FA
330
1F
100
AcDbEntity
  8
D-0
  6
Continuous
 62
     7
370
     9
100
AcDbLine
 10
-38.85081871261342
 20
-334.8086589201591
 30
0.0
 11
-38.85081871261342
 21
-333.3083790167473
 31
0.0
  0
LINE
  5
3FB
330
1F
100
AcDbEntity
  8
D-0
  6
Continuous
 62
     7
370
     9
100
AcDbLine
 10
-38.85081871261342
 20
-333.3083790167473
 30
0.0
 11
-37.35053642501576
 21
-333.3083790167473
 31
0.0
  0
LINE
  5
3FC
330
1F
100
AcDbEntity
  8
D-0
  6
Continuous
 62
     7
370
     9
100
AcDbLine
 10
-37.35053642501576
 20
-333.3083790167473
 30
0.0
 11
-37.35053642501576
 21
-334.8086589201591
 31
0.0
  0
LINE
  5
3FD
330
1F
100
AcDbEntity
  8
D-0
  6
Continuous
 62
     7
370
     9
100
AcDbLine
 10
-37.35053642501576
 20
-334.8086589201591
 30
0.0
 11
-38.85081871261342
 21
-334.8086589201591
 31
0.0
  0
LINE
  5
3FE
330
1F
100
AcDbEntity
  8
D-0
  6
Continuous
 62
     7
370
     9
100
AcDbLine
 10
-63.2135353874181
 20
-367.2925811632774
 30
0.0
 11
-63.2135353874181
 21
-365.7923036440513
 31
0.0
  0
LINE
  5
3FF
330
1F
100
AcDbEntity
  8
D-0
  6
Continuous
 62
     7
370
     9
100
AcDbLine
 10
-63.2135353874181
 20
-365.7923036440513
 30
0.0
 11
-61.71325309982045
 21
-365.7923036440513
 31
0.0
  0
LINE
  5
400
330
1F
100
AcDbEntity
  8
D-0
  6
Continuous
 62
     7
370
     9
100
AcDbLine
 10
-61.71325309982045
 20
-365.7923036440513
 30
0.0
 11
-61.71325309982045
 21
-367.2925811632774
 31
0.0
  0
LINE
  5
401
330
1F
100
AcDbEntity
  8
D-0
  6
Continuous
 62
     7
370
     9
100
AcDbLine
 10
-61.71325309982045
 20
-367.2925811632774
 30
0.0
 11
-63.2135353874181
 21
-367.2925811632774
 31
0.0
  0
LINE
  5
402
330
1F
100
AcDbEntity
  8
D-0
  6
Continuous
 62
     7
370
     9
100
AcDbLine
 10
-113.7785683464025
 20
-371.2236314638756
 30
0.0
 11
-113.7785683464025
 21
-369.7233539446495
 31
0.0
  0
LINE
  5
403
330
1F
100
AcDbEntity
  8
D-0
  6
Continuous
 62
     7
370
     9
100
AcDbLine
 10
-113.7785683464025
 20
-369.7233539446495
 30
0.0
 11
-112.2787819694494
 21
-369.7233539446495
 31
0.0
  0
LINE
  5
404
330
1F
100
AcDbEntity
  8
D-0
  6
Continuous
 62
     7
370
     9
100
AcDbLine
 10
-112.2787819694494
 20
-369.7233539446495
 30
0.0
 11
-112.2787819694494
 21
-371.2236314638756
 31
0.0
  0
LINE
  5
405
330
1F
100
AcDbEntity
  8
D-0
  6
Continuous
 62
     7
370
     9
100
AcDbLine
 10
-112.2787819694494
 20
-371.2236314638756
 30
0.0
 11
-113.7785683464025
 21
-371.2236314638756
 31
0.0
  0
LINE
  5
406
330
1F
100
AcDbEntity
  8
D-0
  6
Continuous
 62
     7
370
     9
100
AcDbLine
 10
-130.8880959342931
 20
-405.1904970034263
 30
0.0
 11
-130.8880959342931
 21
-403.6902147158287
 31
0.0
  0
LINE
  5
407
330
1F
100
AcDbEntity
  8
D-0
  6
Continuous
 62
     7
370
     9
100
AcDbLine
 10
-130.8880959342931
 20
-403.6902147158287
 30
0.0
 11
-129.3878136466955
 21
-403.6902147158287
 31
0.0
  0
LINE
  5
408
330
1F
100
AcDbEntity
  8
D-0
  6
Continuous
 62
     7
370
     9
100
AcDbLine
 10
-129.3878136466955
 20
-403.6902147158287
 30
0.0
 11
-129.3878136466955
 21
-405.1904970034263
 31
0.0
  0
LINE
  5
409
330
1F
100
AcDbEntity
  8
D-0
  6
Continuous
 62
     7
370
     9
100
AcDbLine
 10
-129.3878136466955
 20
-405.1904970034263
 30
0.0
 11
-130.8880959342931
 21
-405.1904970034263
 31
0.0
  0
LINE
  5
40A
330
1F
100
AcDbEntity
  8
D-0
  6
Continuous
 62
     7
370
     9
100
AcDbLine
 10
-162.2443543266271
 20
-390.6187587603233
 30
0.0
 11
-162.2443543266271
 21
-389.1184764727257
 31
0.0
  0
LINE
  5
40B
330
1F
100
AcDbEntity
  8
D-0
  6
Continuous
 62
     7
370
     9
100
AcDbLine
 10
-162.2443543266271
 20
-389.1184764727257
 30
0.0
 11
-160.744567949674
 21
-389.1184764727257
 31
0.0
  0
LINE
  5
40C
330
1F
100
AcDbEntity
  8
D-0
  6
Continuous
 62
     7
370
     9
100
AcDbLine
 10
-160.744567949674
 20
-389.1184764727257
 30
0.0
 11
-160.744567949674
 21
-390.6187587603233
 31
0.0
  0
LINE
  5
40D
330
1F
100
AcDbEntity
  8
D-0
  6
Continuous
 62
     7
370
     9
100
AcDbLine
 10
-160.744567949674
 20
-390.6187587603233
 30
0.0
 11
-162.2443543266271
 21
-390.6187587603233
 31
0.0
  0
LINE
  5
40E
330
1F
100
AcDbEntity
  8
D-0
  6
Continuous
 62
     7
370
     9
100
AcDbLine
 10
-172.9687653373693
 20
-431.8387895449303
 30
0.0
 11
-172.9687653373693
 21
-430.3385072573326
 31
0.0
  0
LINE
  5
40F
330
1F
100
AcDbEntity
  8
D-0
  6
Continuous
 62
     7
370
     9
100
AcDbLine
 10
-172.9687653373693
 20
-430.3385072573326
 30
0.0
 11
-171.4684830497716
 21
-430.3385072573326
 31
0.0
  0
LINE
  5
410
330
1F
100
AcDbEntity
  8
D-0
  6
Continuous
 62
     7
370
     9
100
AcDbLine
 10
-171.4684830497716
 20
-430.3385072573326
 30
0.0
 11
-171.4684830497716
 21
-431.8387895449303
 31
0.0
  0
LINE
  5
411
330
1F
100
AcDbEntity
  8
D-0
  6
Continuous
 62
     7
370
     9
100
AcDbLine
 10
-171.4684830497716
 20
-431.8387895449303
 30
0.0
 11
-172.9687653373693
 21
-431.8387895449303
 31
0.0
  0
LINE
  5
412
330
1F
100
AcDbEntity
  8
D-0
  6
Continuous
 62
     7
370
     9
100
AcDbLine
 10
-135.6253014396642
 20
-440.3811651095054
 30
0.0
 11
-135.6253014396642
 21
-438.8808828219078
 31
0.0
  0
LINE
  5
413
330
1F
100
AcDbEntity
  8
D-0
  6
Continuous
 62
     7
370
     9
100
AcDbLine
 10
-135.6253014396642
 20
-438.8808828219078
 30
0.0
 11
-134.1250191520666
 21
-438.8808828219078
 31
0.0
  0
LINE
  5
414
330
1F
100
AcDbEntity
  8
D-0
  6
Continuous
 62
     7
370
     9
100
AcDbLine
 10
-134.1250191520666
 20
-438.8808828219078
 30
0.0
 11
-134.1250191520666
 21
-440.3811651095054
 31
0.0
  0
LINE
  5
415
330
1F
100
AcDbEntity
  8
D-0
  6
Continuous
 62
     7
370
     9
100
AcDbLine
 10
-134.1250191520666
 20
-440.3811651095054
 30
0.0
 11
-135.6253014396642
 21
-440.3811651095054
 31
0.0
  0
LINE
  5
416
330
1F
100
AcDbEntity
  8
D-0
  6
Continuous
 62
     7
370
     9
100
AcDbLine
 10
-83.42021568526967
 20
-445.1059537752769
 30
0.0
 11
-83.42021568526967
 21
-443.6056714876793
 31
0.0
  0
LINE
  5
417
330
1F
100
AcDbEntity
  8
D-0
  6
Continuous
 62
     7
370
     9
100
AcDbLine
 10
-83.42021568526967
 20
-443.6056714876793
 30
0.0
 11
-81.92042930831654
 21
-443.6056714876793
 31
0.0
  0
LINE
  5
418
330
1F
100
AcDbEntity
  8
D-0
  6
Continuous
 62
     7
370
     9
100
AcDbLine
 10
-81.92042930831654
 20
-443.6056714876793
 30
0.0
 11
-81.92042930831654
 21
-445.1059537752769
 31
0.0
  0
LINE
  5
419
330
1F
100
AcDbEntity
  8
D-0
  6
Continuous
 62
     7
370
     9
100
AcDbLine
 10
-81.92042930831654
 20
-445.1059537752769
 30
0.0
 11
-83.42021568526967
 21
-445.1059537752769
 31
0.0
  0
LINE
  5
41A
330
1F
100
AcDbEntity
  8
D-0
  6
Continuous
 62
     7
370
     9
100
AcDbLine
 10
-28.6996422599767
 20
-438.3507352694176
 30
0.0
 11
-28.6996422599767
 21
-436.8504529818199
 31
0.0
  0
LINE
  5
41B
330
1F
100
AcDbEntity
  8
D-0
  6
Continuous
 62
     7
370
     9
100
AcDbLine
 10
-28.6996422599767
 20
-436.8504529818199
 30
0.0
 11
-27.1993981193517
 21
-436.8504529818199
 31
0.0
  0
LINE
  5
41C
330
1F
100
AcDbEntity
  8
D-0
  6
Continuous
 62
     7
370
     9
100
AcDbLine
 10
-27.1993981193517
 20
-436.8504529818199
 30
0.0
 11
-27.1993981193517
 21
-438.3507352694176
 31
0.0
  0
LINE
  5
41D
330
1F
100
AcDbEntity
  8
D-0
  6
Continuous
 62
     7
370
     9
100
AcDbLine
 10
-27.1993981193517
 20
-438.3507352694176
 30
0.0
 11
-28.6996422599767
 21
-438.3507352694176
 31
0.0
  0
LINE
  5
41E
330
1F
100
AcDbEntity
  8
D-0
  6
Continuous
 62
     7
370
     9
100
AcDbLine
 10
-40.88027580489857
 20
-398.4228902681969
 30
0.0
 11
-40.88027580489857
 21
-396.9226079805992
 31
0.0
  0
LINE
  5
41F
330
1F
100
AcDbEntity
  8
D-0
  6
Continuous
 62
     7
370
     9
100
AcDbLine
 10
-40.88027580489857
 20
-396.9226079805992
 30
0.0
 11
-39.37999351730092
 21
-396.9226079805992
 31
0.0
  0
LINE
  5
420
330
1F
100
AcDbEntity
  8
D-0
  6
Continuous
 62
     7
370
     9
100
AcDbLine
 10
-39.37999351730092
 20
-396.9226079805992
 30
0.0
 11
-39.37999351730092
 21
-398.4228902681969
 31
0.0
  0
LINE
  5
421
330
1F
100
AcDbEntity
  8
D-0
  6
Continuous
 62
     7
370
     9
100
AcDbLine
 10
-39.37999351730092
 20
-398.4228902681969
 30
0.0
 11
-40.88027580489857
 21
-398.4228902681969
 31
0.0
  0
LINE
  5
422
330
1F
100
AcDbEntity
  8
D-0
  6
Continuous
 62
     7
370
     9
100
AcDbLine
 10
-81.90951927413685
 20
-407.540503106942
 30
0.0
 11
-81.90951927413685
 21
-406.0402208193443
 31
0.0
  0
LINE
  5
423
330
1F
100
AcDbEntity
  8
D-0
  6
Continuous
 62
     7
370
     9
100
AcDbLine
 10
-81.90951927413685
 20
-406.0402208193443
 30
0.0
 11
-80.40977104415639
 21
-406.0402208193443
 31
0.0
  0
LINE
  5
424
330
1F
100
AcDbEntity
  8
D-0
  6
Continuous
 62
     7
370
     9
100
AcDbLine
 10
-80.40977104415639
 20
-406.0402208193443
 30
0.0
 11
-80.40977104415639
 21
-407.540503106942
 31
0.0
  0
LINE
  5
425
330
1F
100
AcDbEntity
  8
D-0
  6
Continuous
 62
     7
370
     9
100
AcDbLine
 10
-80.40977104415639
 20
-407.540503106942
 30
0.0
 11
-81.90951927413685
 21
-407.540503106942
 31
0.0
  0
LINE
  5
426
330
1F
100
AcDbEntity
  8
D-0
  6
Continuous
 62
     7
370
     9
100
AcDbLine
 10
-21.42421348800404
 20
-368.0521350725792
 30
0.0
 11
-21.42421348800404
 21
-366.5518575533531
 31
0.0
  0
LINE
  5
427
330
1F
100
AcDbEntity
  8
D-0
  6
Continuous
 62
     7
370
     9
100
AcDbLine
 10
-21.42421348800404
 20
-366.5518575533531
 30
0.0
 11
-19.92393120040639
 21
-366.5518575533531
 31
0.0
  0
LINE
  5
428
330
1F
100
AcDbEntity
  8
D-0
  6
Continuous
 62
     7
370
     9
100
AcDbLine
 10
-19.92393120040639
 20
-366.5518575533531
 30
0.0
 11
-19.92393120040639
 21
-368.0521350725792
 31
0.0
  0
LINE
  5
429
330
1F
100
AcDbEntity
  8
D-0
  6
Continuous
 62
     7
370
     9
100
AcDbLine
 10
-19.92393120040639
 20
-368.0521350725792
 30
0.0
 11
-21.42421348800404
 21
-368.0521350725792
 31
0.0
  0
LINE
  5
42A
330
1F
100
AcDbEntity
  8
D-0
  6
Continuous
 62
     7
370
     9
100
AcDbLine
 10
-175.4252968620275
 20
-357.1592574938438
 30
0.0
 11
-175.4252968620275
 21
-355.6589752062462
 31
0.0
  0
LINE
  5
42B
330
1F
100
AcDbEntity
  8
D-0
  6
Continuous
 62
     7
370
     9
100
AcDbLine
 10
-175.4252968620275
 20
-355.6589752062462
 30
0.0
 11
-173.9250336479162
 21
-355.6589752062462
 31
0.0
  0
LINE
  5
42C
330
1F
100
AcDbEntity
  8
D-0
  6
Continuous
 62
     7
370
     9
100
AcDbLine
 10
-173.9250336479162
 20
-355.6589752062462
 30
0.0
 11
-173.9250336479162
 21
-357.1592574938438
 31
0.0
  0
LINE
  5
42D
330
1F
100
AcDbEntity
  8
D-0
  6
Continuous
 62
     7
370
     9
100
AcDbLine
 10
-173.9250336479162
 20
-357.1592574938438
 30
0.0
 11
-175.4252968620275
 21
-357.1592574938438
 31
0.0
  0
LINE
  5
42E
330
1F
100
AcDbEntity
  8
D-0
  6
Continuous
 62
     7
370
     9
100
AcDbLine
 10
-258.7750397514318
 20
-480.4095941408775
 30
0.0
 11
-258.7750397514318
 21
-478.9093118532799
 31
0.0
  0
LINE
  5
42F
330
1F
100
AcDbEntity
  8
D-0
  6
Continuous
 62
     7
370
     9
100
AcDbLine
 10
-258.7750397514318
 20
-478.9093118532799
 30
0.0
 11
-257.2747574638341
 21
-478.9093118532799
 31
0.0
  0
LINE
  5
430
330
1F
100
AcDbEntity
  8
D-0
  6
Continuous
 62
     7
370
     9
100
AcDbLine
 10
-257.2747574638341
 20
-478.9093118532799
 30
0.0
 11
-257.2747574638341
 21
-480.4095941408775
 31
0.0
  0
LINE
  5
431
330
1F
100
AcDbEntity
  8
D-0
  6
Continuous
 62
     7
370
     9
100
AcDbLine
 10
-257.2747574638341
 20
-480.4095941408775
 30
0.0
 11
-258.7750397514318
 21
-480.4095941408775
 31
0.0
  0
LINE
  5
432
330
1F
100
AcDbEntity
  8
D-0
  6
Continuous
 62
     7
370
     9
100
AcDbLine
 10
-209.4104920219396
 20
-488.3078676088951
 30
0.0
 11
-209.4104920219396
 21
-486.8075853212974
 31
0.0
  0
LINE
  5
433
330
1F
100
AcDbEntity
  8
D-0
  6
Continuous
 62
     7
370
     9
100
AcDbLine
 10
-209.4104920219396
 20
-486.8075853212974
 30
0.0
 11
-207.9102288078283
 21
-486.8075853212974
 31
0.0
  0
LINE
  5
434
330
1F
100
AcDbEntity
  8
D-0
  6
Continuous
 62
     7
370
     9
100
AcDbLine
 10
-207.9102288078283
 20
-486.8075853212974
 30
0.0
 11
-207.9102288078283
 21
-488.3078676088951
 31
0.0
  0
LINE
  5
435
330
1F
100
AcDbEntity
  8
D-0
  6
Continuous
 62
     7
370
     9
100
AcDbLine
 10
-207.9102288078283
 20
-488.3078676088951
 30
0.0
 11
-209.4104920219396
 21
-488.3078676088951
 31
0.0
  0
LINE
  5
436
330
1F
100
AcDbEntity
  8
D-0
  6
Continuous
 62
     7
370
     9
100
AcDbLine
 10
-226.2916146110509
 20
-508.8886361941002
 30
0.0
 11
-226.2916146110509
 21
-507.3883539065025
 31
0.0
  0
LINE
  5
437
330
1F
100
AcDbEntity
  8
D-0
  6
Continuous
 62
     7
370
     9
100
AcDbLine
 10
-226.2916146110509
 20
-507.3883539065025
 30
0.0
 11
-224.7918282340978
 21
-507.3883539065025
 31
0.0
  0
LINE
  5
438
330
1F
100
AcDbEntity
  8
D-0
  6
Continuous
 62
     7
370
     9
100
AcDbLine
 10
-224.7918282340978
 20
-507.3883539065025
 30
0.0
 11
-224.7918282340978
 21
-508.8886361941002
 31
0.0
  0
LINE
  5
439
330
1F
100
AcDbEntity
  8
D-0
  6
Continuous
 62
     7
370
     9
100
AcDbLine
 10
-224.7918282340978
 20
-508.8886361941002
 30
0.0
 11
-226.2916146110509
 21
-508.8886361941002
 31
0.0
  0
LINE
  5
43A
330
1F
100
AcDbEntity
  8
D-0
  6
Continuous
 62
     7
370
     9
100
AcDbLine
 10
-274.5715866874669
 20
-543.5967164858482
 30
0.0
 11
-274.5715866874669
 21
-542.0964532717369
 31
0.0
  0
LINE
  5
43B
330
1F
100
AcDbEntity
  8
D-0
  6
Continuous
 62
     7
370
     9
100
AcDbLine
 10
-274.5715866874669
 20
-542.0964532717369
 30
0.0
 11
-273.0718003105138
 21
-542.0964532717369
 31
0.0
  0
LINE
  5
43C
330
1F
100
AcDbEntity
  8
D-0
  6
Continuous
 62
     7
370
     9
100
AcDbLine
 10
-273.0718003105138
 20
-542.0964532717369
 30
0.0
 11
-273.0718003105138
 21
-543.5967164858482
 31
0.0
  0
LINE
  5
43D
330
1F
100
AcDbEntity
  8
D-0
  6
Continuous
 62
     7
370
     9
100
AcDbLine
 10
-273.0718003105138
 20
-543.5967164858482
 30
0.0
 11
-274.5715866874669
 21
-543.5967164858482
 31
0.0
  0
LINE
  5
43E
330
1F
100
AcDbEntity
  8
D-0
  6
Continuous
 62
     7
370
     9
100
AcDbLine
 10
-203.4866677116369
 20
-541.6217904909752
 30
0.0
 11
-203.4866677116369
 21
-540.1215082033775
 31
0.0
  0
LINE
  5
43F
330
1F
100
AcDbEntity
  8
D-0
  6
Continuous
 62
     7
370
     9
100
AcDbLine
 10
-203.4866677116369
 20
-540.1215082033775
 30
0.0
 11
-201.9863854240392
 21
-540.1215082033775
 31
0.0
  0
LINE
  5
440
330
1F
100
AcDbEntity
  8
D-0
  6
Continuous
 62
     7
370
     9
100
AcDbLine
 10
-201.9863854240392
 20
-540.1215082033775
 30
0.0
 11
-201.9863854240392
 21
-541.6217904909752
 31
0.0
  0
LINE
  5
441
330
1F
100
AcDbEntity
  8
D-0
  6
Continuous
 62
     7
370
     9
100
AcDbLine
 10
-201.9863854240392
 20
-541.6217904909752
 30
0.0
 11
-203.4866677116369
 21
-541.6217904909752
 31
0.0
  0
LINE
  5
442
330
1F
100
AcDbEntity
  8
D-0
  6
Continuous
 62
     7
370
     9
100
AcDbLine
 10
-260.7494889091466
 20
-510.0287156923912
 30
0.0
 11
-260.7494889091466
 21
-508.5284334047935
 31
0.0
  0
LINE
  5
443
330
1F
100
AcDbEntity
  8
D-0
  6
Continuous
 62
     7
370
     9
100
AcDbLine
 10
-260.7494889091466
 20
-508.5284334047935
 30
0.0
 11
-259.2497025321935
 21
-508.5284334047935
 31
0.0
  0
LINE
  5
444
330
1F
100
AcDbEntity
  8
D-0
  6
Continuous
 62
     7
370
     9
100
AcDbLine
 10
-259.2497025321935
 20
-508.5284334047935
 30
0.0
 11
-259.2497025321935
 21
-510.0287156923912
 31
0.0
  0
LINE
  5
445
330
1F
100
AcDbEntity
  8
D-0
  6
Continuous
 62
     7
370
     9
100
AcDbLine
 10
-259.2497025321935
 20
-510.0287156923912
 30
0.0
 11
-260.7494889091466
 21
-510.0287156923912
 31
0.0
  0
LINE
  5
446
330
1F
100
AcDbEntity
  8
D-0
  6
Continuous
 62
     7
370
     9
100
AcDbLine
 10
-228.8824234794591
 20
-466.1499982699058
 30
0.0
 11
-228.8824234794591
 21
-464.6497159823082
 31
0.0
  0
LINE
  5
447
330
1F
100
AcDbEntity
  8
D-0
  6
Continuous
 62
     7
370
     9
100
AcDbLine
 10
-228.8824234794591
 20
-464.6497159823082
 30
0.0
 11
-227.3821411918615
 21
-464.6497159823082
 31
0.0
  0
LINE
  5
448
330
1F
100
AcDbEntity
  8
D-0
  6
Continuous
 62
     7
370
     9
100
AcDbLine
 10
-227.3821411918615
 20
-464.6497159823082
 30
0.0
 11
-227.3821411918615
 21
-466.1499982699058
 31
0.0
  0
LINE
  5
449
330
1F
100
AcDbEntity
  8
D-0
  6
Continuous
 62
     7
370
     9
100
AcDbLine
 10
-227.3821411918615
 20
-466.1499982699058
 30
0.0
 11
-228.8824234794591
 21
-466.1499982699058
 31
0.0
  0
LINE
  5
44A
330
1F
100
AcDbEntity
  8
D-0
  6
Continuous
 62
     7
370
     9
100
AcDbLine
 10
-238.1660233329748
 20
-537.5896554812095
 30
0.0
 11
-238.1660233329748
 21
-536.0893731936119
 31
0.0
  0
LINE
  5
44B
330
1F
100
AcDbEntity
  8
D-0
  6
Continuous
 62
     7
370
     9
100
AcDbLine
 10
-238.1660233329748
 20
-536.0893731936119
 30
0.0
 11
-236.6657410453771
 21
-536.0893731936119
 31
0.0
  0
LINE
  5
44C
330
1F
100
AcDbEntity
  8
D-0
  6
Continuous
 62
     7
370
     9
100
AcDbLine
 10
-236.6657410453771
 20
-536.0893731936119
 30
0.0
 11
-236.6657410453771
 21
-537.5896554812095
 31
0.0
  0
LINE
  5
44D
330
1F
100
AcDbEntity
  8
D-0
  6
Continuous
 62
     7
370
     9
100
AcDbLine
 10
-236.6657410453771
 20
-537.5896554812095
 30
0.0
 11
-238.1660233329748
 21
-537.5896554812095
 31
0.0
  0
LINE
  5
44E
330
1F
100
AcDbEntity
  8
D-0
  6
Continuous
 62
     7
370
     9
100
AcDbLine
 10
-413.7968169044469
 20
-325.6291085108421
 30
0.0
 11
-413.7968169044469
 21
-324.1288292034767
 31
0.0
  0
LINE
  5
44F
330
1F
100
AcDbEntity
  8
D-0
  6
Continuous
 62
     7
370
     9
100
AcDbLine
 10
-413.7968169044469
 20
-324.1288292034767
 30
0.0
 11
-412.2965393852209
 21
-324.1288292034767
 31
0.0
  0
LINE
  5
450
330
1F
100
AcDbEntity
  8
D-0
  6
Continuous
 62
     7
370
     9
100
AcDbLine
 10
-412.2965393852209
 20
-324.1288292034767
 30
0.0
 11
-412.2965393852209
 21
-325.6291085108421
 31
0.0
  0
LINE
  5
451
330
1F
100
AcDbEntity
  8
D-0
  6
Continuous
 62
     7
370
     9
100
AcDbLine
 10
-412.2965393852209
 20
-325.6291085108421
 30
0.0
 11
-413.7968169044469
 21
-325.6291085108421
 31
0.0
  0
LINE
  5
452
330
1F
100
AcDbEntity
  8
D-0
  6
Continuous
 62
     7
370
     9
100
AcDbLine
 10
-385.6046448539709
 20
-334.4806581362388
 30
0.0
 11
-385.6046448539709
 21
-332.9803794249199
 31
0.0
  0
LINE
  5
453
330
1F
100
AcDbEntity
  8
D-0
  6
Continuous
 62
     7
370
     9
100
AcDbLine
 10
-385.6046448539709
 20
-332.9803794249199
 30
0.0
 11
-384.1043673347448
 21
-332.9803794249199
 31
0.0
  0
LINE
  5
454
330
1F
100
AcDbEntity
  8
D-0
  6
Continuous
 62
     7
370
     9
100
AcDbLine
 10
-384.1043673347448
 20
-332.9803794249199
 30
0.0
 11
-384.1043673347448
 21
-334.4806581362388
 31
0.0
  0
LINE
  5
455
330
1F
100
AcDbEntity
  8
D-0
  6
Continuous
 62
     7
370
     9
100
AcDbLine
 10
-384.1043673347448
 20
-334.4806581362388
 30
0.0
 11
-385.6046448539709
 21
-334.4806581362388
 31
0.0
  0
LINE
  5
456
330
1F
100
AcDbEntity
  8
D-0
  6
Continuous
 62
     7
370
     9
100
AcDbLine
 10
-356.1807404350255
 20
-384.5923715456627
 30
0.0
 11
-356.1807404350255
 21
-383.092089258065
 31
0.0
  0
LINE
  5
457
330
1F
100
AcDbEntity
  8
D-0
  6
Continuous
 62
     7
370
     9
100
AcDbLine
 10
-356.1807404350255
 20
-383.092089258065
 30
0.0
 11
-354.6809540580724
 21
-383.092089258065
 31
0.0
  0
LINE
  5
458
330
1F
100
AcDbEntity
  8
D-0
  6
Continuous
 62
     7
370
     9
100
AcDbLine
 10
-354.6809540580724
 20
-383.092089258065
 30
0.0
 11
-354.6809540580724
 21
-384.5923715456627
 31
0.0
  0
LINE
  5
459
330
1F
100
AcDbEntity
  8
D-0
  6
Continuous
 62
     7
370
     9
100
AcDbLine
 10
-354.6809540580724
 20
-384.5923715456627
 30
0.0
 11
-356.1807404350255
 21
-384.5923715456627
 31
0.0
  0
LINE
  5
45A
330
1F
100
AcDbEntity
  8
D-0
  6
Continuous
 62
     7
370
     9
100
AcDbLine
 10
-297.789245684049
 20
-331.6366678103111
 30
0.0
 11
-297.789245684049
 21
-330.1363879068992
 31
0.0
  0
LINE
  5
45B
330
1F
100
AcDbEntity
  8
D-0
  6
Continuous
 62
     7
370
     9
100
AcDbLine
 10
-297.789245684049
 20
-330.1363879068992
 30
0.0
 11
-296.2894593070959
 21
-330.1363879068992
 31
0.0
  0
LINE
  5
45C
330
1F
100
AcDbEntity
  8
D-0
  6
Continuous
 62
     7
370
     9
100
AcDbLine
 10
-296.2894593070959
 20
-330.1363879068992
 30
0.0
 11
-296.2894593070959
 21
-331.6366678103111
 31
0.0
  0
LINE
  5
45D
330
1F
100
AcDbEntity
  8
D-0
  6
Continuous
 62
     7
370
     9
100
AcDbLine
 10
-296.2894593070959
 20
-331.6366678103111
 30
0.0
 11
-297.789245684049
 21
-331.6366678103111
 31
0.0
  0
LINE
  5
45E
330
1F
100
AcDbEntity
  8
D-0
  6
Continuous
 62
     7
370
     9
100
AcDbLine
 10
-262.8581963371252
 20
-326.2380402907036
 30
0.0
 11
-262.8581963371252
 21
-324.7377603872917
 31
0.0
  0
LINE
  5
45F
330
1F
100
AcDbEntity
  8
D-0
  6
Continuous
 62
     7
370
     9
100
AcDbLine
 10
-262.8581963371252
 20
-324.7377603872917
 30
0.0
 11
-261.358409960172
 21
-324.7377603872917
 31
0.0
  0
LINE
  5
460
330
1F
100
AcDbEntity
  8
D-0
  6
Continuous
 62
     7
370
     9
100
AcDbLine
 10
-261.358409960172
 20
-324.7377603872917
 30
0.0
 11
-261.358409960172
 21
-326.2380402907036
 31
0.0
  0
LINE
  5
461
330
1F
100
AcDbEntity
  8
D-0
  6
Continuous
 62
     7
370
     9
100
AcDbLine
 10
-261.358409960172
 20
-326.2380402907036
 30
0.0
 11
-262.8581963371252
 21
-326.2380402907036
 31
0.0
  0
LINE
  5
462
330
1F
100
AcDbEntity
  8
D-0
  6
Continuous
 62
     7
370
     9
100
AcDbLine
 10
-266.6876755546544
 20
-350.9698587282799
 30
0.0
 11
-266.6876755546544
 21
-349.469578824868
 31
0.0
  0
LINE
  5
463
330
1F
100
AcDbEntity
  8
D-0
  6
Continuous
 62
     7
370
     9
100
AcDbLine
 10
-266.6876755546544
 20
-349.469578824868
 30
0.0
 11
-265.1873932670568
 21
-349.469578824868
 31
0.0
  0
LINE
  5
464
330
1F
100
AcDbEntity
  8
D-0
  6
Continuous
 62
     7
370
     9
100
AcDbLine
 10
-265.1873932670568
 20
-349.469578824868
 30
0.0
 11
-265.1873932670568
 21
-350.9698587282799
 31
0.0
  0
LINE
  5
465
330
1F
100
AcDbEntity
  8
D-0
  6
Continuous
 62
     7
370
     9
100
AcDbLine
 10
-265.1873932670568
 20
-350.9698587282799
 30
0.0
 11
-266.6876755546544
 21
-350.9698587282799
 31
0.0
  0
LINE
  5
466
330
1F
100
AcDbEntity
  8
D-0
  6
Continuous
 62
     7
370
     9
100
AcDbLine
 10
-258.1140862297033
 20
-383.938847146859
 30
0.0
 11
-258.1140862297033
 21
-382.4385696276329
 31
0.0
  0
LINE
  5
467
330
1F
100
AcDbEntity
  8
D-0
  6
Continuous
 62
     7
370
     9
100
AcDbLine
 10
-258.1140862297033
 20
-382.4385696276329
 30
0.0
 11
-256.6138039421056
 21
-382.4385696276329
 31
0.0
  0
LINE
  5
468
330
1F
100
AcDbEntity
  8
D-0
  6
Continuous
 62
     7
370
     9
100
AcDbLine
 10
-256.6138039421056
 20
-382.4385696276329
 30
0.0
 11
-256.6138039421056
 21
-383.938847146859
 31
0.0
  0
LINE
  5
469
330
1F
100
AcDbEntity
  8
D-0
  6
Continuous
 62
     7
370
     9
100
AcDbLine
 10
-256.6138039421056
 20
-383.938847146859
 30
0.0
 11
-258.1140862297033
 21
-383.938847146859
 31
0.0
  0
LINE
  5
46A
330
1F
100
AcDbEntity
  8
D-0
  6
Continuous
 62
     7
370
     9
100
AcDbLine
 10
-254.1909752677892
 20
-422.5115877016685
 30
0.0
 11
-254.1909752677892
 21
-421.0113054140709
 31
0.0
  0
LINE
  5
46B
330
1F
100
AcDbEntity
  8
D-0
  6
Continuous
 62
     7
370
     9
100
AcDbLine
 10
-254.1909752677892
 20
-421.0113054140709
 30
0.0
 11
-252.6911888908361
 21
-421.0113054140709
 31
0.0
  0
LINE
  5
46C
330
1F
100
AcDbEntity
  8
D-0
  6
Continuous
 62
     7
370
     9
100
AcDbLine
 10
-252.6911888908361
 20
-421.0113054140709
 30
0.0
 11
-252.6911888908361
 21
-422.5115877016685
 31
0.0
  0
LINE
  5
46D
330
1F
100
AcDbEntity
  8
D-0
  6
Continuous
 62
     7
370
     9
100
AcDbLine
 10
-252.6911888908361
 20
-422.5115877016685
 30
0.0
 11
-254.1909752677892
 21
-422.5115877016685
 31
0.0
  0
LINE
  5
46E
330
1F
100
AcDbEntity
  8
D-0
  6
Continuous
 62
     7
370
     9
100
AcDbLine
 10
-321.652017671964
 20
-346.7692738398216
 30
0.0
 11
-321.652017671964
 21
-345.2689963205955
 31
0.0
  0
LINE
  5
46F
330
1F
100
AcDbEntity
  8
D-0
  6
Continuous
 62
     7
370
     9
100
AcDbLine
 10
-321.652017671964
 20
-345.2689963205955
 30
0.0
 11
-320.1517353843664
 21
-345.2689963205955
 31
0.0
  0
LINE
  5
470
330
1F
100
AcDbEntity
  8
D-0
  6
Continuous
 62
     7
370
     9
100
AcDbLine
 10
-320.1517353843664
 20
-345.2689963205955
 30
0.0
 11
-320.1517353843664
 21
-346.7692738398216
 31
0.0
  0
LINE
  5
471
330
1F
100
AcDbEntity
  8
D-0
  6
Continuous
 62
     7
370
     9
100
AcDbLine
 10
-320.1517353843664
 20
-346.7692738398216
 30
0.0
 11
-321.652017671964
 21
-346.7692738398216
 31
0.0
  0
LINE
  5
472
330
1F
100
AcDbEntity
  8
D-0
  6
Continuous
 62
     7
370
     9
100
AcDbLine
 10
-558.9131794761631
 20
-462.6381116732261
 30
0.0
 11
-558.9131794761631
 21
-461.1378389223717
 31
0.0
  0
LINE
  5
473
330
1F
100
AcDbEntity
  8
D-0
  6
Continuous
 62
     7
370
     9
100
AcDbLine
 10
-558.9131794761631
 20
-461.1378389223717
 30
0.0
 11
-557.4129067253086
 21
-461.1378389223717
 31
0.0
  0
LINE
  5
474
330
1F
100
AcDbEntity
  8
D-0
  6
Continuous
 62
     7
370
     9
100
AcDbLine
 10
-557.4129067253086
 20
-461.1378389223717
 30
0.0
 11
-557.4129067253086
 21
-462.6381116732261
 31
0.0
  0
LINE
  5
475
330
1F
100
AcDbEntity
  8
D-0
  6
Continuous
 62
     7
370
     9
100
AcDbLine
 10
-557.4129067253086
 20
-462.6381116732261
 30
0.0
 11
-558.9131794761631
 21
-462.6381116732261
 31
0.0
  0
LINE
  5
476
330
1F
100
AcDbEntity
  8
D-0
  6
Continuous
 62
     7
370
     9
100
AcDbLine
 10
-483.8779054473852
 20
-477.4471765383385
 30
0.0
 11
-483.8779054473852
 21
-475.9468942507408
 31
0.0
  0
LINE
  5
477
330
1F
100
AcDbEntity
  8
D-0
  6
Continuous
 62
     7
370
     9
100
AcDbLine
 10
-483.8779054473852
 20
-475.9468942507408
 30
0.0
 11
-482.3776255439733
 21
-475.9468942507408
 31
0.0
  0
LINE
  5
478
330
1F
100
AcDbEntity
  8
D-0
  6
Continuous
 62
     7
370
     9
100
AcDbLine
 10
-482.3776255439733
 20
-475.9468942507408
 30
0.0
 11
-482.3776255439733
 21
-477.4471765383385
 31
0.0
  0
LINE
  5
479
330
1F
100
AcDbEntity
  8
D-0
  6
Continuous
 62
     7
370
     9
100
AcDbLine
 10
-482.3776255439733
 20
-477.4471765383385
 30
0.0
 11
-483.8779054473852
 21
-477.4471765383385
 31
0.0
  0
LINE
  5
47A
330
1F
100
AcDbEntity
  8
D-0
  6
Continuous
 62
     7
370
     9
100
AcDbLine
 10
-470.0563071559881
 20
-506.0793405398033
 30
0.0
 11
-470.0563071559881
 21
-504.5790582522056
 31
0.0
  0
LINE
  5
47B
330
1F
100
AcDbEntity
  8
D-0
  6
Continuous
 62
     7
370
     9
100
AcDbLine
 10
-470.0563071559881
 20
-504.5790582522056
 30
0.0
 11
-468.5565231632207
 21
-504.5790582522056
 31
0.0
  0
LINE
  5
47C
330
1F
100
AcDbEntity
  8
D-0
  6
Continuous
 62
     7
370
     9
100
AcDbLine
 10
-468.5565231632207
 20
-504.5790582522056
 30
0.0
 11
-468.5565231632207
 21
-506.0793405398033
 31
0.0
  0
LINE
  5
47D
330
1F
100
AcDbEntity
  8
D-0
  6
Continuous
 62
     7
370
     9
100
AcDbLine
 10
-468.5565231632207
 20
-506.0793405398033
 30
0.0
 11
-470.0563071559881
 21
-506.0793405398033
 31
0.0
  0
LINE
  5
47E
330
1F
100
AcDbEntity
  8
D-0
  6
Continuous
 62
     7
370
     9
100
AcDbLine
 10
-499.6749363731359
 20
-567.2915178164146
 30
0.0
 11
-499.6749363731359
 21
-565.7912546023033
 31
0.0
  0
LINE
  5
47F
330
1F
100
AcDbEntity
  8
D-0
  6
Continuous
 62
     7
370
     9
100
AcDbLine
 10
-499.6749363731359
 20
-565.7912546023033
 30
0.0
 11
-498.1751499961828
 21
-565.7912546023033
 31
0.0
  0
LINE
  5
480
330
1F
100
AcDbEntity
  8
D-0
  6
Continuous
 62
     7
370
     9
100
AcDbLine
 10
-498.1751499961828
 20
-565.7912546023033
 30
0.0
 11
-498.1751499961828
 21
-567.2915178164146
 31
0.0
  0
LINE
  5
481
330
1F
100
AcDbEntity
  8
D-0
  6
Continuous
 62
     7
370
     9
100
AcDbLine
 10
-498.1751499961828
 20
-567.2915178164146
 30
0.0
 11
-499.6749363731359
 21
-567.2915178164146
 31
0.0
  0
LINE
  5
482
330
1F
100
AcDbEntity
  8
D-0
  6
Continuous
 62
     7
370
     9
100
AcDbLine
 10
-513.4975252937292
 20
-626.5292840822838
 30
0.0
 11
-513.4975252937292
 21
-625.0290017946861
 31
0.0
  0
LINE
  5
483
330
1F
100
AcDbEntity
  8
D-0
  6
Continuous
 62
     7
370
     9
100
AcDbLine
 10
-513.4975252937292
 20
-625.0290017946861
 30
0.0
 11
-511.9972430061315
 21
-625.0290017946861
 31
0.0
  0
LINE
  5
484
330
1F
100
AcDbEntity
  8
D-0
  6
Continuous
 62
     7
370
     9
100
AcDbLine
 10
-511.9972430061315
 20
-625.0290017946861
 30
0.0
 11
-511.9972430061315
 21
-626.5292840822838
 31
0.0
  0
LINE
  5
485
330
1F
100
AcDbEntity
  8
D-0
  6
Continuous
 62
     7
370
     9
100
AcDbLine
 10
-511.9972430061315
 20
-626.5292840822838
 30
0.0
 11
-513.4975252937292
 21
-626.5292840822838
 31
0.0
  0
LINE
  5
486
330
1F
100
AcDbEntity
  8
D-0
  6
Continuous
 62
     7
370
     9
100
AcDbLine
 10
-544.1036187004065
 20
-637.3894601687095
 30
0.0
 11
-544.1036187004065
 21
-635.8891778811119
 31
0.0
  0
LINE
  5
487
330
1F
100
AcDbEntity
  8
D-0
  6
Continuous
 62
     7
370
     9
100
AcDbLine
 10
-544.1036187004065
 20
-635.8891778811119
 30
0.0
 11
-542.603345949552
 21
-635.8891778811119
 31
0.0
  0
LINE
  5
488
330
1F
100
AcDbEntity
  8
D-0
  6
Continuous
 62
     7
370
     9
100
AcDbLine
 10
-542.603345949552
 20
-635.8891778811119
 30
0.0
 11
-542.603345949552
 21
-637.3894601687095
 31
0.0
  0
LINE
  5
489
330
1F
100
AcDbEntity
  8
D-0
  6
Continuous
 62
     7
370
     9
100
AcDbLine
 10
-542.603345949552
 20
-637.3894601687095
 30
0.0
 11
-544.1036187004065
 21
-637.3894601687095
 31
0.0
  0
LINE
  5
48A
330
1F
100
AcDbEntity
  8
D-0
  6
Continuous
 62
     7
370
     9
100
AcDbLine
 10
-566.9571171592686
 20
-571.2409120424888
 30
0.0
 11
-566.9571171592686
 21
-569.7406297548912
 31
0.0
  0
LINE
  5
48B
330
1F
100
AcDbEntity
  8
D-0
  6
Continuous
 62
     7
370
     9
100
AcDbLine
 10
-566.9571171592686
 20
-569.7406297548912
 30
0.0
 11
-565.4573307823155
 21
-569.7406297548912
 31
0.0
  0
LINE
  5
48C
330
1F
100
AcDbEntity
  8
D-0
  6
Continuous
 62
     7
370
     9
100
AcDbLine
 10
-565.4573307823155
 20
-569.7406297548912
 30
0.0
 11
-565.4573307823155
 21
-571.2409120424888
 31
0.0
  0
LINE
  5
48D
330
1F
100
AcDbEntity
  8
D-0
  6
Continuous
 62
     7
370
     9
100
AcDbLine
 10
-565.4573307823155
 20
-571.2409120424888
 30
0.0
 11
-566.9571171592686
 21
-571.2409120424888
 31
0.0
  0
LINE
  5
48E
330
1F
100
AcDbEntity
  8
D-0
  6
Continuous
 62
     7
370
     9
100
AcDbLine
 10
-533.2434426139806
 20
-490.2822976931236
 30
0.0
 11
-533.2434426139806
 21
-488.782015405526
 31
0.0
  0
LINE
  5
48F
330
1F
100
AcDbEntity
  8
D-0
  6
Continuous
 62
     7
370
     9
100
AcDbLine
 10
-533.2434426139806
 20
-488.782015405526
 30
0.0
 11
-531.743160326383
 21
-488.782015405526
 31
0.0
  0
LINE
  5
490
330
1F
100
AcDbEntity
  8
D-0
  6
Continuous
 62
     7
370
     9
100
AcDbLine
 10
-531.743160326383
 20
-488.782015405526
 30
0.0
 11
-531.743160326383
 21
-490.2822976931236
 31
0.0
  0
LINE
  5
491
330
1F
100
AcDbEntity
  8
D-0
  6
Continuous
 62
     7
370
     9
100
AcDbLine
 10
-531.743160326383
 20
-490.2822976931236
 30
0.0
 11
-533.2434426139806
 21
-490.2822976931236
 31
0.0
  0
LINE
  5
492
330
1F
100
AcDbEntity
  8
D-0
  6
Continuous
 62
     7
370
     9
100
AcDbLine
 10
-541.1417065452551
 20
-549.520540796151
 30
0.0
 11
-541.1417065452551
 21
-548.0202775820396
 31
0.0
  0
LINE
  5
493
330
1F
100
AcDbEntity
  8
D-0
  6
Continuous
 62
     7
370
     9
100
AcDbLine
 10
-541.1417065452551
 20
-548.0202775820396
 30
0.0
 11
-539.6414242576575
 21
-548.0202775820396
 31
0.0
  0
LINE
  5
494
330
1F
100
AcDbEntity
  8
D-0
  6
Continuous
 62
     7
370
     9
100
AcDbLine
 10
-539.6414242576575
 20
-548.0202775820396
 30
0.0
 11
-539.6414242576575
 21
-549.520540796151
 31
0.0
  0
LINE
  5
495
330
1F
100
AcDbEntity
  8
D-0
  6
Continuous
 62
     7
370
     9
100
AcDbLine
 10
-539.6414242576575
 20
-549.520540796151
 30
0.0
 11
-541.1417065452551
 21
-549.520540796151
 31
0.0
  0
LINE
  5
496
330
1F
100
AcDbEntity
  8
D-0
  6
Continuous
 62
     7
370
     9
100
AcDbLine
 10
-477.9545746635412
 20
-602.0134836062095
 30
0.0
 11
-477.9545746635412
 21
-600.5132013186119
 31
0.0
  0
LINE
  5
497
330
1F
100
AcDbEntity
  8
D-0
  6
Continuous
 62
     7
370
     9
100
AcDbLine
 10
-477.9545746635412
 20
-600.5132013186119
 30
0.0
 11
-476.4547906707738
 21
-600.5132013186119
 31
0.0
  0
LINE
  5
498
330
1F
100
AcDbEntity
  8
D-0
  6
Continuous
 62
     7
370
     9
100
AcDbLine
 10
-476.4547906707738
 20
-600.5132013186119
 30
0.0
 11
-476.4547906707738
 21
-602.0134836062095
 31
0.0
  0
LINE
  5
499
330
1F
100
AcDbEntity
  8
D-0
  6
Continuous
 62
     7
370
     9
100
AcDbLine
 10
-476.4547906707738
 20
-602.0134836062095
 30
0.0
 11
-477.9545746635412
 21
-602.0134836062095
 31
0.0
  0
LINE
  5
49A
330
1F
100
AcDbEntity
  8
D-0
  6
Continuous
 62
     7
370
     9
100
AcDbLine
 10
-554.9638043235752
 20
-739.8925500734947
 30
0.0
 11
-554.9638043235752
 21
-738.392267785897
 31
0.0
  0
LINE
  5
49B
330
1F
100
AcDbEntity
  8
D-0
  6
Continuous
 62
     7
370
     9
100
AcDbLine
 10
-554.9638043235752
 20
-738.392267785897
 30
0.0
 11
-553.4640179466221
 21
-738.392267785897
 31
0.0
  0
LINE
  5
49C
330
1F
100
AcDbEntity
  8
D-0
  6
Continuous
 62
     7
370
     9
100
AcDbLine
 10
-553.4640179466221
 20
-738.392267785897
 30
0.0
 11
-553.4640179466221
 21
-739.8925500734947
 31
0.0
  0
LINE
  5
49D
330
1F
100
AcDbEntity
  8
D-0
  6
Continuous
 62
     7
370
     9
100
AcDbLine
 10
-553.4640179466221
 20
-739.8925500734947
 30
0.0
 11
-554.9638043235752
 21
-739.8925500734947
 31
0.0
  0
LINE
  5
49E
330
1F
100
AcDbEntity
  8
D-0
  6
Continuous
 62
     7
370
     9
100
AcDbLine
 10
-484.5735417198156
 20
-743.6045938357017
 30
0.0
 11
-484.5735417198156
 21
-742.1043115481041
 31
0.0
  0
LINE
  5
49F
330
1F
100
AcDbEntity
  8
D-0
  6
Continuous
 62
     7
370
     9
100
AcDbLine
 10
-484.5735417198156
 20
-742.1043115481041
 30
0.0
 11
-483.0737577270482
 21
-742.1043115481041
 31
0.0
  0
LINE
  5
4A0
330
1F
100
AcDbEntity
  8
D-0
  6
Continuous
 62
     7
370
     9
100
AcDbLine
 10
-483.0737577270482
 20
-742.1043115481041
 30
0.0
 11
-483.0737577270482
 21
-743.6045938357017
 31
0.0
  0
LINE
  5
4A1
330
1F
100
AcDbEntity
  8
D-0
  6
Continuous
 62
     7
370
     9
100
AcDbLine
 10
-483.0737577270482
 20
-743.6045938357017
 30
0.0
 11
-484.5735417198156
 21
-743.6045938357017
 31
0.0
  0
LINE
  5
4A2
330
1F
100
AcDbEntity
  8
D-0
  6
Continuous
 62
     7
370
     9
100
AcDbLine
 10
-460.1831014346097
 20
-769.5111566408775
 30
0.0
 11
-460.1831014346097
 21
-768.0108743532799
 31
0.0
  0
LINE
  5
4A3
330
1F
100
AcDbEntity
  8
D-0
  6
Continuous
 62
     7
370
     9
100
AcDbLine
 10
-460.1831014346097
 20
-768.0108743532799
 30
0.0
 11
-458.6833172928308
 21
-768.0108743532799
 31
0.0
  0
LINE
  5
4A4
330
1F
100
AcDbEntity
  8
D-0
  6
Continuous
 62
     7
370
     9
100
AcDbLine
 10
-458.6833172928308
 20
-768.0108743532799
 30
0.0
 11
-458.6833172928308
 21
-769.5111566408775
 31
0.0
  0
LINE
  5
4A5
330
1F
100
AcDbEntity
  8
D-0
  6
Continuous
 62
     7
370
     9
100
AcDbLine
 10
-458.6833172928308
 20
-769.5111566408775
 30
0.0
 11
-460.1831014346097
 21
-769.5111566408775
 31
0.0
  0
LINE
  5
4A6
330
1F
100
AcDbEntity
  8
D-0
  6
Continuous
 62
     7
370
     9
100
AcDbLine
 10
-453.9045210074399
 20
-807.7232080324791
 30
0.0
 11
-453.9045210074399
 21
-806.2229257448814
 31
0.0
  0
LINE
  5
4A7
330
1F
100
AcDbEntity
  8
D-0
  6
Continuous
 62
     7
370
     9
100
AcDbLine
 10
-453.9045210074399
 20
-806.2229257448814
 30
0.0
 11
-452.4042417000745
 21
-806.2229257448814
 31
0.0
  0
LINE
  5
4A8
330
1F
100
AcDbEntity
  8
D-0
  6
Continuous
 62
     7
370
     9
100
AcDbLine
 10
-452.4042417000745
 20
-806.2229257448814
 30
0.0
 11
-452.4042417000745
 21
-807.7232080324791
 31
0.0
  0
LINE
  5
4A9
330
1F
100
AcDbEntity
  8
D-0
  6
Continuous
 62
     7
370
     9
100
AcDbLine
 10
-452.4042417000745
 20
-807.7232080324791
 30
0.0
 11
-453.9045210074399
 21
-807.7232080324791
 31
0.0
  0
LINE
  5
4AA
330
1F
100
AcDbEntity
  8
D-0
  6
Continuous
 62
     7
370
     9
100
AcDbLine
 10
-528.1331740211461
 20
-813.1817727907799
 30
0.0
 11
-528.1331740211461
 21
-811.6814905031822
 31
0.0
  0
LINE
  5
4AB
330
1F
100
AcDbEntity
  8
D-0
  6
Continuous
 62
     7
370
     9
100
AcDbLine
 10
-528.1331740211461
 20
-811.6814905031822
 30
0.0
 11
-526.6328965019201
 21
-811.6814905031822
 31
0.0
  0
LINE
  5
4AC
330
1F
100
AcDbEntity
  8
D-0
  6
Continuous
 62
     7
370
     9
100
AcDbLine
 10
-526.6328965019201
 20
-811.6814905031822
 30
0.0
 11
-526.6328965019201
 21
-813.1817727907799
 31
0.0
  0
LINE
  5
4AD
330
1F
100
AcDbEntity
  8
D-0
  6
Continuous
 62
     7
370
     9
100
AcDbLine
 10
-526.6328965019201
 20
-813.1817727907799
 30
0.0
 11
-528.1331740211461
 21
-813.1817727907799
 31
0.0
  0
LINE
  5
4AE
330
1F
100
AcDbEntity
  8
D-0
  6
Continuous
 62
     7
370
     9
100
AcDbLine
 10
-562.8620682548496
 20
-803.8853174074791
 30
0.0
 11
-562.8620682548496
 21
-802.3850351198814
 31
0.0
  0
LINE
  5
4AF
330
1F
100
AcDbEntity
  8
D-0
  6
Continuous
 62
     7
370
     9
100
AcDbLine
 10
-562.8620682548496
 20
-802.3850351198814
 30
0.0
 11
-561.361785967252
 21
-802.3850351198814
 31
0.0
  0
LINE
  5
4B0
330
1F
100
AcDbEntity
  8
D-0
  6
Continuous
 62
     7
370
     9
100
AcDbLine
 10
-561.361785967252
 20
-802.3850351198814
 30
0.0
 11
-561.361785967252
 21
-803.8853174074791
 31
0.0
  0
LINE
  5
4B1
330
1F
100
AcDbEntity
  8
D-0
  6
Continuous
 62
     7
370
     9
100
AcDbLine
 10
-561.361785967252
 20
-803.8853174074791
 30
0.0
 11
-562.8620682548496
 21
-803.8853174074791
 31
0.0
  0
LINE
  5
4B2
330
1F
100
AcDbEntity
  8
D-0
  6
Continuous
 62
     7
370
     9
100
AcDbLine
 10
-565.0733433555577
 20
-763.5873514040611
 30
0.0
 11
-565.0733433555577
 21
-762.0870691164635
 31
0.0
  0
LINE
  5
4B3
330
1F
100
AcDbEntity
  8
D-0
  6
Continuous
 62
     7
370
     9
100
AcDbLine
 10
-565.0733433555577
 20
-762.0870691164635
 30
0.0
 11
-563.5735569786045
 21
-762.0870691164635
 31
0.0
  0
LINE
  5
4B4
330
1F
100
AcDbEntity
  8
D-0
  6
Continuous
 62
     7
370
     9
100
AcDbLine
 10
-563.5735569786045
 20
-762.0870691164635
 30
0.0
 11
-563.5735569786045
 21
-763.5873514040611
 31
0.0
  0
LINE
  5
4B5
330
1F
100
AcDbEntity
  8
D-0
  6
Continuous
 62
     7
370
     9
100
AcDbLine
 10
-563.5735569786045
 20
-763.5873514040611
 30
0.0
 11
-565.0733433555577
 21
-763.5873514040611
 31
0.0
  0
LINE
  5
4B6
330
1F
100
AcDbEntity
  8
D-0
  6
Continuous
 62
     7
370
     9
100
AcDbLine
 10
-507.5737009834264
 20
-783.3332544191978
 30
0.0
 11
-507.5737009834264
 21
-781.8329721316002
 31
0.0
  0
LINE
  5
4B7
330
1F
100
AcDbEntity
  8
D-0
  6
Continuous
 62
     7
370
     9
100
AcDbLine
 10
-507.5737009834264
 20
-781.8329721316002
 30
0.0
 11
-506.0734186958288
 21
-781.8329721316002
 31
0.0
  0
LINE
  5
4B8
330
1F
100
AcDbEntity
  8
D-0
  6
Continuous
 62
     7
370
     9
100
AcDbLine
 10
-506.0734186958288
 20
-781.8329721316002
 30
0.0
 11
-506.0734186958288
 21
-783.3332544191978
 31
0.0
  0
LINE
  5
4B9
330
1F
100
AcDbEntity
  8
D-0
  6
Continuous
 62
     7
370
     9
100
AcDbLine
 10
-506.0734186958288
 20
-783.3332544191978
 30
0.0
 11
-507.5737009834264
 21
-783.3332544191978
 31
0.0
  0
LINE
  5
4BA
330
1F
100
AcDbEntity
  8
D-0
  6
Continuous
 62
     7
370
     9
100
AcDbLine
 10
-519.4213496040319
 20
-749.7652536257408
 30
0.0
 11
-519.4213496040319
 21
-748.2649713381431
 31
0.0
  0
LINE
  5
4BB
330
1F
100
AcDbEntity
  8
D-0
  6
Continuous
 62
     7
370
     9
100
AcDbLine
 10
-519.4213496040319
 20
-748.2649713381431
 30
0.0
 11
-517.9210673164342
 21
-748.2649713381431
 31
0.0
  0
LINE
  5
4BC
330
1F
100
AcDbEntity
  8
D-0
  6
Continuous
 62
     7
370
     9
100
AcDbLine
 10
-517.9210673164342
 20
-748.2649713381431
 30
0.0
 11
-517.9210673164342
 21
-749.7652536257408
 31
0.0
  0
LINE
  5
4BD
330
1F
100
AcDbEntity
  8
D-0
  6
Continuous
 62
     7
370
     9
100
AcDbLine
 10
-517.9210673164342
 20
-749.7652536257408
 30
0.0
 11
-519.4213496040319
 21
-749.7652536257408
 31
0.0
  0
LINE
  5
4BE
330
1F
100
AcDbEntity
  8
D-0
  6
Continuous
 62
     7
370
     9
100
AcDbLine
 10
-464.1324828456853
 20
-635.5814843996666
 30
0.0
 11
-464.1324828456853
 21
-634.0812211855553
 31
0.0
  0
LINE
  5
4BF
330
1F
100
AcDbEntity
  8
D-0
  6
Continuous
 62
     7
370
     9
100
AcDbLine
 10
-464.1324828456853
 20
-634.0812211855553
 30
0.0
 11
-462.632698852918
 21
-634.0812211855553
 31
0.0
  0
LINE
  5
4C0
330
1F
100
AcDbEntity
  8
D-0
  6
Continuous
 62
     7
370
     9
100
AcDbLine
 10
-462.632698852918
 20
-634.0812211855553
 30
0.0
 11
-462.632698852918
 21
-635.5814843996666
 31
0.0
  0
LINE
  5
4C1
330
1F
100
AcDbEntity
  8
D-0
  6
Continuous
 62
     7
370
     9
100
AcDbLine
 10
-462.632698852918
 20
-635.5814843996666
 30
0.0
 11
-464.1324828456853
 21
-635.5814843996666
 31
0.0
  0
LINE
  5
4C2
330
1F
100
AcDbEntity
  8
D-0
  6
Continuous
 62
     7
370
     9
100
AcDbLine
 10
-452.2853289436315
 20
-535.6979661806724
 30
0.0
 11
-452.2853289436315
 21
-534.1976838930748
 31
0.0
  0
LINE
  5
4C3
330
1F
100
AcDbEntity
  8
D-0
  6
Continuous
 62
     7
370
     9
100
AcDbLine
 10
-452.2853289436315
 20
-534.1976838930748
 30
0.0
 11
-450.7850496362661
 21
-534.1976838930748
 31
0.0
  0
LINE
  5
4C4
330
1F
100
AcDbEntity
  8
D-0
  6
Continuous
 62
     7
370
     9
100
AcDbLine
 10
-450.7850496362661
 20
-534.1976838930748
 30
0.0
 11
-450.7850496362661
 21
-535.6979661806724
 31
0.0
  0
LINE
  5
4C5
330
1F
100
AcDbEntity
  8
D-0
  6
Continuous
 62
     7
370
     9
100
AcDbLine
 10
-450.7850496362661
 20
-535.6979661806724
 30
0.0
 11
-452.2853289436315
 21
-535.6979661806724
 31
0.0
  0
LINE
  5
4C6
330
1F
100
AcDbEntity
  8
D-0
  6
Continuous
 62
     7
370
     9
100
AcDbLine
 10
-356.1742935966466
 20
-546.9223123415611
 30
0.0
 11
-356.1742935966466
 21
-545.4220300539635
 31
0.0
  0
LINE
  5
4C7
330
1F
100
AcDbEntity
  8
D-0
  6
Continuous
 62
     7
370
     9
100
AcDbLine
 10
-356.1742935966466
 20
-545.4220300539635
 30
0.0
 11
-354.6745072196935
 21
-545.4220300539635
 31
0.0
  0
LINE
  5
4C8
330
1F
100
AcDbEntity
  8
D-0
  6
Continuous
 62
     7
370
     9
100
AcDbLine
 10
-354.6745072196935
 20
-545.4220300539635
 30
0.0
 11
-354.6745072196935
 21
-546.9223123415611
 31
0.0
  0
LINE
  5
4C9
330
1F
100
AcDbEntity
  8
D-0
  6
Continuous
 62
     7
370
     9
100
AcDbLine
 10
-354.6745072196935
 20
-546.9223123415611
 30
0.0
 11
-356.1742935966466
 21
-546.9223123415611
 31
0.0
  0
LINE
  5
4CA
330
1F
100
AcDbEntity
  8
D-0
  6
Continuous
 62
     7
370
     9
100
AcDbLine
 10
-417.8908787559484
 20
-532.1756654604576
 30
0.0
 11
-417.8908787559484
 21
-530.6754022463463
 31
0.0
  0
LINE
  5
4CB
330
1F
100
AcDbEntity
  8
D-0
  6
Continuous
 62
     7
370
     9
100
AcDbLine
 10
-417.8908787559484
 20
-530.6754022463463
 30
0.0
 11
-416.3910923789953
 21
-530.6754022463463
 31
0.0
  0
LINE
  5
4CC
330
1F
100
AcDbEntity
  8
D-0
  6
Continuous
 62
     7
370
     9
100
AcDbLine
 10
-416.3910923789953
 20
-530.6754022463463
 30
0.0
 11
-416.3910923789953
 21
-532.1756654604576
 31
0.0
  0
LINE
  5
4CD
330
1F
100
AcDbEntity
  8
D-0
  6
Continuous
 62
     7
370
     9
100
AcDbLine
 10
-416.3910923789953
 20
-532.1756654604576
 30
0.0
 11
-417.8908787559484
 21
-532.1756654604576
 31
0.0
  0
LINE
  5
4CE
330
1F
100
AcDbEntity
  8
D-0
  6
Continuous
 62
     7
370
     9
100
AcDbLine
 10
-545.0905953239414
 20
-598.8850885256431
 30
0.0
 11
-545.0905953239414
 21
-597.3848062380455
 31
0.0
  0
LINE
  5
4CF
330
1F
100
AcDbEntity
  8
D-0
  6
Continuous
 62
     7
370
     9
100
AcDbLine
 10
-545.0905953239414
 20
-597.3848062380455
 30
0.0
 11
-543.5908089469885
 21
-597.3848062380455
 31
0.0
  0
LINE
  5
4D0
330
1F
100
AcDbEntity
  8
D-0
  6
Continuous
 62
     7
370
     9
100
AcDbLine
 10
-543.5908089469885
 20
-597.3848062380455
 30
0.0
 11
-543.5908089469885
 21
-598.8850885256431
 31
0.0
  0
LINE
  5
4D1
330
1F
100
AcDbEntity
  8
D-0
  6
Continuous
 62
     7
370
     9
100
AcDbLine
 10
-543.5908089469885
 20
-598.8850885256431
 30
0.0
 11
-545.0905953239414
 21
-598.8850885256431
 31
0.0
  0
LINE
  5
4D2
330
1F
100
AcDbEntity
  8
D-0
  6
Continuous
 62
     7
370
     9
100
AcDbLine
 10
-501.6498719047521
 20
-523.8508134707115
 30
0.0
 11
-501.6498719047521
 21
-522.3505311831138
 31
0.0
  0
LINE
  5
4D3
330
1F
100
AcDbEntity
  8
D-0
  6
Continuous
 62
     7
370
     9
100
AcDbLine
 10
-501.6498719047521
 20
-522.3505311831138
 30
0.0
 11
-500.149594385526
 21
-522.3505311831138
 31
0.0
  0
LINE
  5
4D4
330
1F
100
AcDbEntity
  8
D-0
  6
Continuous
 62
     7
370
     9
100
AcDbLine
 10
-500.149594385526
 20
-522.3505311831138
 30
0.0
 11
-500.149594385526
 21
-523.8508134707115
 31
0.0
  0
LINE
  5
4D5
330
1F
100
AcDbEntity
  8
D-0
  6
Continuous
 62
     7
370
     9
100
AcDbLine
 10
-500.149594385526
 20
-523.8508134707115
 30
0.0
 11
-501.6498719047521
 21
-523.8508134707115
 31
0.0
  0
LINE
  5
4D6
330
1F
100
AcDbEntity
  8
D-0
  6
Continuous
 62
     7
370
     9
100
AcDbLine
 10
-566.8114529441807
 20
-519.9014192446373
 30
0.0
 11
-566.8114529441807
 21
-518.4011369570396
 31
0.0
  0
LINE
  5
4D7
330
1F
100
AcDbEntity
  8
D-0
  6
Continuous
 62
     7
370
     9
100
AcDbLine
 10
-566.8114529441807
 20
-518.4011369570396
 30
0.0
 11
-565.311170656583
 21
-518.4011369570396
 31
0.0
  0
LINE
  5
4D8
330
1F
100
AcDbEntity
  8
D-0
  6
Continuous
 62
     7
370
     9
100
AcDbLine
 10
-565.311170656583
 20
-518.4011369570396
 30
0.0
 11
-565.311170656583
 21
-519.9014192446373
 31
0.0
  0
LINE
  5
4D9
330
1F
100
AcDbEntity
  8
D-0
  6
Continuous
 62
     7
370
     9
100
AcDbLine
 10
-565.311170656583
 20
-519.9014192446373
 30
0.0
 11
-566.8114529441807
 21
-519.9014192446373
 31
0.0
  0
LINE
  5
4DA
330
1F
100
AcDbEntity
  8
D-0
  6
Continuous
 62
     7
370
     9
100
AcDbLine
 10
-513.9701996635412
 20
-457.1141343935631
 30
0.0
 11
-513.9701996635412
 21
-455.6138521059654
 31
0.0
  0
LINE
  5
4DB
330
1F
100
AcDbEntity
  8
D-0
  6
Continuous
 62
     7
370
     9
100
AcDbLine
 10
-513.9701996635412
 20
-455.6138521059654
 30
0.0
 11
-512.4699221443151
 21
-455.6138521059654
 31
0.0
  0
LINE
  5
4DC
330
1F
100
AcDbEntity
  8
D-0
  6
Continuous
 62
     7
370
     9
100
AcDbLine
 10
-512.4699221443151
 20
-455.6138521059654
 30
0.0
 11
-512.4699221443151
 21
-457.1141343935631
 31
0.0
  0
LINE
  5
4DD
330
1F
100
AcDbEntity
  8
D-0
  6
Continuous
 62
     7
370
     9
100
AcDbLine
 10
-512.4699221443151
 20
-457.1141343935631
 30
0.0
 11
-513.9701996635412
 21
-457.1141343935631
 31
0.0
  0
LINE
  5
4DE
330
1F
100
AcDbEntity
  8
D-0
  6
Continuous
 62
     7
370
     9
100
AcDbLine
 10
-458.2091537009691
 20
-568.4454828127525
 30
0.0
 11
-458.2091537009691
 21
-566.9452005251549
 31
0.0
  0
LINE
  5
4DF
330
1F
100
AcDbEntity
  8
D-0
  6
Continuous
 62
     7
370
     9
100
AcDbLine
 10
-458.2091537009691
 20
-566.9452005251549
 30
0.0
 11
-456.7088743004714
 21
-566.9452005251549
 31
0.0
  0
LINE
  5
4E0
330
1F
100
AcDbEntity
  8
D-0
  6
Continuous
 62
     7
370
     9
100
AcDbLine
 10
-456.7088743004714
 20
-566.9452005251549
 30
0.0
 11
-456.7088743004714
 21
-568.4454828127525
 31
0.0
  0
LINE
  5
4E1
330
1F
100
AcDbEntity
  8
D-0
  6
Continuous
 62
     7
370
     9
100
AcDbLine
 10
-456.7088743004714
 20
-568.4454828127525
 30
0.0
 11
-458.2091537009691
 21
-568.4454828127525
 31
0.0
  0
LINE
  5
4E2
330
1F
100
AcDbEntity
  8
D-0
  6
Continuous
 62
     7
370
     9
100
AcDbLine
 10
-517.4464093040441
 20
-590.9868341311119
 30
0.0
 11
-517.4464093040441
 21
-589.4865518435142
 31
0.0
  0
LINE
  5
4E3
330
1F
100
AcDbEntity
  8
D-0
  6
Continuous
 62
     7
370
     9
100
AcDbLine
 10
-517.4464093040441
 20
-589.4865518435142
 30
0.0
 11
-515.9466276954626
 21
-589.4865518435142
 31
0.0
  0
LINE
  5
4E4
330
1F
100
AcDbEntity
  8
D-0
  6
Continuous
 62
     7
370
     9
100
AcDbLine
 10
-515.9466276954626
 20
-589.4865518435142
 30
0.0
 11
-515.9466276954626
 21
-590.9868341311119
 31
0.0
  0
LINE
  5
4E5
330
1F
100
AcDbEntity
  8
D-0
  6
Continuous
 62
     7
370
     9
100
AcDbLine
 10
-515.9466276954626
 20
-590.9868341311119
 30
0.0
 11
-517.4464093040441
 21
-590.9868341311119
 31
0.0
  0
LINE
  5
4E6
330
1F
100
AcDbEntity
  8
D-0
  6
Continuous
 62
     7
370
     9
100
AcDbLine
 10
-505.5987606834386
 20
-664.046679101815
 30
0.0
 11
-505.5987606834386
 21
-662.5463968142174
 31
0.0
  0
LINE
  5
4E7
330
1F
100
AcDbEntity
  8
D-0
  6
Continuous
 62
     7
370
     9
100
AcDbLine
 10
-505.5987606834386
 20
-662.5463968142174
 30
0.0
 11
-504.0989743064855
 21
-662.5463968142174
 31
0.0
  0
LINE
  5
4E8
330
1F
100
AcDbEntity
  8
D-0
  6
Continuous
 62
     7
370
     9
100
AcDbLine
 10
-504.0989743064855
 20
-662.5463968142174
 30
0.0
 11
-504.0989743064855
 21
-664.046679101815
 31
0.0
  0
LINE
  5
4E9
330
1F
100
AcDbEntity
  8
D-0
  6
Continuous
 62
     7
370
     9
100
AcDbLine
 10
-504.0989743064855
 20
-664.046679101815
 30
0.0
 11
-505.5987606834386
 21
-664.046679101815
 31
0.0
  0
LINE
  5
4EA
330
1F
100
AcDbEntity
  8
D-0
  6
Continuous
 62
     7
370
     9
100
AcDbLine
 10
-553.9763317893955
 20
-663.0592065676353
 30
0.0
 11
-553.9763317893955
 21
-661.5589242800377
 31
0.0
  0
LINE
  5
4EB
330
1F
100
AcDbEntity
  8
D-0
  6
Continuous
 62
     7
370
     9
100
AcDbLine
 10
-553.9763317893955
 20
-661.5589242800377
 30
0.0
 11
-552.4760495017979
 21
-661.5589242800377
 31
0.0
  0
LINE
  5
4EC
330
1F
100
AcDbEntity
  8
D-0
  6
Continuous
 62
     7
370
     9
100
AcDbLine
 10
-552.4760495017979
 20
-661.5589242800377
 30
0.0
 11
-552.4760495017979
 21
-663.0592065676353
 31
0.0
  0
LINE
  5
4ED
330
1F
100
AcDbEntity
  8
D-0
  6
Continuous
 62
     7
370
     9
100
AcDbLine
 10
-552.4760495017979
 20
-663.0592065676353
 30
0.0
 11
-553.9763317893955
 21
-663.0592065676353
 31
0.0
  0
LINE
  5
4EE
330
1F
100
AcDbEntity
  8
D-0
  6
Continuous
 62
     7
370
     9
100
AcDbLine
 10
-541.023288805387
 20
-782.1649270876549
 30
0.0
 11
-541.023288805387
 21
-780.6646448000572
 31
0.0
  0
LINE
  5
4EF
330
1F
100
AcDbEntity
  8
D-0
  6
Continuous
 62
     7
370
     9
100
AcDbLine
 10
-541.023288805387
 20
-780.6646448000572
 30
0.0
 11
-539.523511965177
 21
-780.6646448000572
 31
0.0
  0
LINE
  5
4F0
330
1F
100
AcDbEntity
  8
D-0
  6
Continuous
 62
     7
370
     9
100
AcDbLine
 10
-539.523511965177
 20
-780.6646448000572
 30
0.0
 11
-539.523511965177
 21
-782.1649270876549
 31
0.0
  0
LINE
  5
4F1
330
1F
100
AcDbEntity
  8
D-0
  6
Continuous
 62
     7
370
     9
100
AcDbLine
 10
-539.523511965177
 20
-782.1649270876549
 30
0.0
 11
-541.023288805387
 21
-782.1649270876549
 31
0.0
  0
LINE
  5
4F2
330
1F
100
AcDbEntity
  8
D-0
  6
Continuous
 62
     7
370
     9
100
AcDbLine
 10
-490.4973684143041
 20
-811.6725641115806
 30
0.0
 11
-490.4973684143041
 21
-810.1723199709556
 31
0.0
  0
LINE
  5
4F3
330
1F
100
AcDbEntity
  8
D-0
  6
Continuous
 62
     7
370
     9
100
AcDbLine
 10
-490.4973684143041
 20
-810.1723199709556
 30
0.0
 11
-488.9975844215368
 21
-810.1723199709556
 31
0.0
  0
LINE
  5
4F4
330
1F
100
AcDbEntity
  8
D-0
  6
Continuous
 62
     7
370
     9
100
AcDbLine
 10
-488.9975844215368
 20
-810.1723199709556
 30
0.0
 11
-488.9975844215368
 21
-811.6725641115806
 31
0.0
  0
LINE
  5
4F5
330
1F
100
AcDbEntity
  8
D-0
  6
Continuous
 62
     7
370
     9
100
AcDbLine
 10
-488.9975844215368
 20
-811.6725641115806
 30
0.0
 11
-490.4973684143041
 21
-811.6725641115806
 31
0.0
  0
LINE
  5
4F6
330
1F
100
AcDbEntity
  8
D-0
  6
Continuous
 62
     7
370
     9
100
AcDbLine
 10
-454.2597721408819
 20
-735.9431558474205
 30
0.0
 11
-454.2597721408819
 21
-734.4428735598228
 31
0.0
  0
LINE
  5
4F7
330
1F
100
AcDbEntity
  8
D-0
  6
Continuous
 62
     7
370
     9
100
AcDbLine
 10
-454.2597721408819
 20
-734.4428735598228
 30
0.0
 11
-452.7594925354932
 21
-734.4428735598228
 31
0.0
  0
LINE
  5
4F8
330
1F
100
AcDbEntity
  8
D-0
  6
Continuous
 62
     7
370
     9
100
AcDbLine
 10
-452.7594925354932
 20
-734.4428735598228
 30
0.0
 11
-452.7594925354932
 21
-735.9431558474205
 31
0.0
  0
LINE
  5
4F9
330
1F
100
AcDbEntity
  8
D-0
  6
Continuous
 62
     7
370
     9
100
AcDbLine
 10
-452.7594925354932
 20
-735.9431558474205
 30
0.0
 11
-454.2597721408819
 21
-735.9431558474205
 31
0.0
  0
LINE
  5
4FA
330
1F
100
AcDbEntity
  8
D-0
  6
Continuous
 62
     7
370
     9
100
AcDbLine
 10
-571.2924729179356
 20
-617.8798776491783
 30
0.0
 11
-571.2924729179356
 21
-616.3795953615806
 31
0.0
  0
LINE
  5
4FB
330
1F
100
AcDbEntity
  8
D-0
  6
Continuous
 62
     7
370
     9
100
AcDbLine
 10
-571.2924729179356
 20
-616.3795953615806
 30
0.0
 11
-569.7921906303379
 21
-616.3795953615806
 31
0.0
  0
LINE
  5
4FC
330
1F
100
AcDbEntity
  8
D-0
  6
Continuous
 62
     7
370
     9
100
AcDbLine
 10
-569.7921906303379
 20
-616.3795953615806
 30
0.0
 11
-569.7921906303379
 21
-617.8798776491783
 31
0.0
  0
LINE
  5
4FD
330
1F
100
AcDbEntity
  8
D-0
  6
Continuous
 62
     7
370
     9
100
AcDbLine
 10
-569.7921906303379
 20
-617.8798776491783
 30
0.0
 11
-571.2924729179356
 21
-617.8798776491783
 31
0.0
  0
LINE
  5
4FE
330
1F
100
AcDbEntity
  8
D-0
  6
Continuous
 62
     7
370
     9
100
AcDbLine
 10
-454.3707571815465
 20
-661.613932214608
 30
0.0
 11
-454.3707571815465
 21
-660.1136499270103
 31
0.0
  0
LINE
  5
4FF
330
1F
100
AcDbEntity
  8
D-0
  6
Continuous
 62
     7
370
     9
100
AcDbLine
 10
-454.3707571815465
 20
-660.1136499270103
 30
0.0
 11
-452.8704775761579
 21
-660.1136499270103
 31
0.0
  0
LINE
  5
500
330
1F
100
AcDbEntity
  8
D-0
  6
Continuous
 62
     7
370
     9
100
AcDbLine
 10
-452.8704775761579
 20
-660.1136499270103
 30
0.0
 11
-452.8704775761579
 21
-661.613932214608
 31
0.0
  0
LINE
  5
501
330
1F
100
AcDbEntity
  8
D-0
  6
Continuous
 62
     7
370
     9
100
AcDbLine
 10
-452.8704775761579
 20
-661.613932214608
 30
0.0
 11
-454.3707571815465
 21
-661.613932214608
 31
0.0
  0
LINE
  5
502
330
1F
100
AcDbEntity
  8
D-0
  6
Continuous
 62
     7
370
     9
100
AcDbLine
 10
-479.1010890792821
 20
-784.959879480233
 30
0.0
 11
-479.1010890792821
 21
-783.4595971926353
 31
0.0
  0
LINE
  5
503
330
1F
100
AcDbEntity
  8
D-0
  6
Continuous
 62
     7
370
     9
100
AcDbLine
 10
-479.1010890792821
 20
-783.4595971926353
 30
0.0
 11
-477.6008115600561
 21
-783.4595971926353
 31
0.0
  0
LINE
  5
504
330
1F
100
AcDbEntity
  8
D-0
  6
Continuous
 62
     7
370
     9
100
AcDbLine
 10
-477.6008115600561
 20
-783.4595971926353
 30
0.0
 11
-477.6008115600561
 21
-784.959879480233
 31
0.0
  0
LINE
  5
505
330
1F
100
AcDbEntity
  8
D-0
  6
Continuous
 62
     7
370
     9
100
AcDbLine
 10
-477.6008115600561
 20
-784.959879480233
 30
0.0
 11
-479.1010890792821
 21
-784.959879480233
 31
0.0
  0
LINE
  5
506
330
1F
100
AcDbEntity
  8
D-0
  6
Continuous
 62
     7
370
     9
100
AcDbLine
 10
-447.2573117803548
 20
-472.4979406222008
 30
0.0
 11
-447.2573117803548
 21
-470.9976678713463
 31
0.0
  0
LINE
  5
507
330
1F
100
AcDbEntity
  8
D-0
  6
Continuous
 62
     7
370
     9
100
AcDbLine
 10
-447.2573117803548
 20
-470.9976678713463
 30
0.0
 11
-445.7570324729894
 21
-470.9976678713463
 31
0.0
  0
LINE
  5
508
330
1F
100
AcDbEntity
  8
D-0
  6
Continuous
 62
     7
370
     9
100
AcDbLine
 10
-445.7570324729894
 20
-470.9976678713463
 30
0.0
 11
-445.7570324729894
 21
-472.4979406222008
 31
0.0
  0
LINE
  5
509
330
1F
100
AcDbEntity
  8
D-0
  6
Continuous
 62
     7
370
     9
100
AcDbLine
 10
-445.7570324729894
 20
-472.4979406222008
 30
0.0
 11
-447.2573117803548
 21
-472.4979406222008
 31
0.0
  0
LINE
  5
50A
330
1F
100
AcDbEntity
  8
D-0
  6
Continuous
 62
     7
370
     9
100
AcDbLine
 10
-353.6469136070226
 20
-326.1439007147453
 30
0.0
 11
-353.6469136070226
 21
-324.6436214073799
 31
0.0
  0
LINE
  5
50B
330
1F
100
AcDbEntity
  8
D-0
  6
Continuous
 62
     7
370
     9
100
AcDbLine
 10
-353.6469136070226
 20
-324.6436214073799
 30
0.0
 11
-352.146631319425
 21
-324.6436214073799
 31
0.0
  0
LINE
  5
50C
330
1F
100
AcDbEntity
  8
D-0
  6
Continuous
 62
     7
370
     9
100
AcDbLine
 10
-352.146631319425
 20
-324.6436214073799
 30
0.0
 11
-352.146631319425
 21
-326.1439007147453
 31
0.0
  0
LINE
  5
50D
330
1F
100
AcDbEntity
  8
D-0
  6
Continuous
 62
     7
370
     9
100
AcDbLine
 10
-352.146631319425
 20
-326.1439007147453
 30
0.0
 11
-353.6469136070226
 21
-326.1439007147453
 31
0.0
  0
LINE
  5
50E
330
1F
100
AcDbEntity
  8
D-0
  6
Continuous
 62
     7
370
     9
100
AcDbLine
 10
-375.18345459213
 20
-357.4069887026451
 30
0.0
 11
-375.18345459213
 21
-355.906711183419
 31
0.0
  0
LINE
  5
50F
330
1F
100
AcDbEntity
  8
D-0
  6
Continuous
 62
     7
370
     9
100
AcDbLine
 10
-375.18345459213
 20
-355.906711183419
 30
0.0
 11
-373.6831723045324
 21
-355.906711183419
 31
0.0
  0
LINE
  5
510
330
1F
100
AcDbEntity
  8
D-0
  6
Continuous
 62
     7
370
     9
100
AcDbLine
 10
-373.6831723045324
 20
-355.906711183419
 30
0.0
 11
-373.6831723045324
 21
-357.4069887026451
 31
0.0
  0
LINE
  5
511
330
1F
100
AcDbEntity
  8
D-0
  6
Continuous
 62
     7
370
     9
100
AcDbLine
 10
-373.6831723045324
 20
-357.4069887026451
 30
0.0
 11
-375.18345459213
 21
-357.4069887026451
 31
0.0
  0
LINE
  5
512
330
1F
100
AcDbEntity
  8
D-0
  6
Continuous
 62
     7
370
     9
100
AcDbLine
 10
-383.6118708442663
 20
-526.6665559633873
 30
0.0
 11
-383.6118708442663
 21
-525.1662736757896
 31
0.0
  0
LINE
  5
513
330
1F
100
AcDbEntity
  8
D-0
  6
Continuous
 62
     7
370
     9
100
AcDbLine
 10
-383.6118708442663
 20
-525.1662736757896
 30
0.0
 11
-382.1120844673131
 21
-525.1662736757896
 31
0.0
  0
LINE
  5
514
330
1F
100
AcDbEntity
  8
D-0
  6
Continuous
 62
     7
370
     9
100
AcDbLine
 10
-382.1120844673131
 20
-525.1662736757896
 30
0.0
 11
-382.1120844673131
 21
-526.6665559633873
 31
0.0
  0
LINE
  5
515
330
1F
100
AcDbEntity
  8
D-0
  6
Continuous
 62
     7
370
     9
100
AcDbLine
 10
-382.1120844673131
 20
-526.6665559633873
 30
0.0
 11
-383.6118708442663
 21
-526.6665559633873
 31
0.0
  0
ARC
  5
516
330
1F
100
AcDbEntity
  8
D-9
  6
Continuous
 62
     4
370
     9
100
AcDbCircle
 10
-566.4195309471104
 20
-420.6818204744957
 30
0.0
 40
5.0
100
AcDbArc
 50
90.0
 51
180.0
  0
ARC
  5
517
330
1F
100
AcDbEntity
  8
D-A
  6
Continuous
 62
     3
370
     9
100
AcDbCircle
 10
-399.9192343543981
 20
-364.1810375078819
 30
0.0
 40
6.499999761581421
100
AcDbArc
 50
0.0
 51
90.0
  0
ARC
  5
518
330
1F
100
AcDbEntity
  8
D-A
  6
JWW_DASHED3
 62
     3
370
     9
100
AcDbCircle
 10
-399.9192343543981
 20
-387.1816879137657
 30
0.0
 40
6.499999761581421
100
AcDbArc
 50
270.0
 51
0.0
  0
ARC
  5
519
330
1F
100
AcDbEntity
  8
D-A
  6
Continuous
 62
     3
370
     9
100
AcDbCircle
 10
-416.4193354438756
 20
-427.3235803469322
 30
0.0
 40
10.0
100
AcDbArc
 50
0.0
 51
45.0
  0
ARC
  5
51A
330
1F
100
AcDbEntity
  8
D-A
  6
Continuous
 62
     3
370
     9
100
AcDbCircle
 10
-368.9930687736486
 20
-368.1819492205284
 30
0.0
 40
30.0
100
AcDbArc
 50
224.9996643066406
 51
270.0
  0
ARC
  5
51B
330
1F
100
AcDbEntity
  8
D-A
  6
Continuous
 62
     3
370
     9
100
AcDbCircle
 10
-291.419502336881
 20
-408.1816392763756
 30
0.0
 40
10.0
100
AcDbArc
 50
0.0
 51
90.0
  0
ARC
  5
51C
330
1F
100
AcDbEntity
  8
D-1
  6
Continuous
 62
     2
370
     9
100
AcDbCircle
 10
-576.4200745414707
 20
-425.6815915926597
 30
0.0
 40
5.0
100
AcDbArc
 50
90.0
 51
180.0
  0
ARC
  5
51D
330
1F
100
AcDbEntity
  8
D-1
  6
Continuous
 62
     2
370
     9
100
AcDbCircle
 10
-429.4199405502294
 20
-316.1815100535057
 30
0.0
 40
3.00000011920929
100
AcDbArc
 50
0.0
 51
90.0
  0
ARC
  5
51E
330
1F
100
AcDbEntity
  8
D-1
  6
Continuous
 62
     2
370
     9
100
AcDbCircle
 10
-448.4196816276525
 20
-316.1815100535057
 30
0.0
 40
3.00000011920929
100
AcDbArc
 50
90.0
 51
180.0
  0
ARC
  5
51F
330
1F
100
AcDbEntity
  8
D-1
  6
Continuous
 62
     2
370
     9
100
AcDbCircle
 10
-429.4199405502294
 20
-435.1817136629722
 30
0.0
 40
3.00000011920929
100
AcDbArc
 50
270.0
 51
0.0
  0
ARC
  5
520
330
1F
100
AcDbEntity
  8
D-1
  6
Continuous
 62
     2
370
     9
100
AcDbCircle
 10
-451.4202405404066
 20
-428.1817346438072
 30
0.0
 40
5.0
100
AcDbArc
 50
270.0
 51
0.0
  0
ARC
  5
521
330
1F
100
AcDbEntity
  8
D-1
  6
Continuous
 62
     2
370
     9
100
AcDbCircle
 10
-523.3821259330724
 20
-425.6815915926597
 30
0.0
 40
5.0
100
AcDbArc
 50
70.43162536621094
 51
90.0
  0
ARC
  5
522
330
1F
100
AcDbEntity
  8
D-1
  6
Continuous
 62
     2
370
     9
100
AcDbCircle
 10
-501.1162529777502
 20
-428.1817346438072
 30
0.0
 40
5.0
100
AcDbArc
 50
250.4390106201172
 51
270.0
  0
ARC
  5
523
330
1F
100
AcDbEntity
  8
D-1
  6
Continuous
 62
     2
370
     9
100
AcDbCircle
 10
-576.4200745414707
 20
-433.1815057619713
 30
0.0
 40
5.0
100
AcDbArc
 50
180.0
 51
270.0
  0
ARC
  5
524
330
1F
100
AcDbEntity
  8
D-1
  6
Continuous
 62
     2
370
     9
100
AcDbCircle
 10
-565.750156481168
 20
-425.6815915926597
 30
0.0
 40
5.0
100
AcDbArc
 50
59.99996948242189
 51
90.00000000000001
  0
ARC
  5
525
330
1F
100
AcDbEntity
  8
D-1
  6
Continuous
 62
     2
370
     9
100
AcDbCircle
 10
-537.0897637199378
 20
-425.6815915926597
 30
0.0
 40
5.0
100
AcDbArc
 50
90.0
 51
120.0000305175781
  0
ARC
  5
526
330
1F
100
AcDbEntity
  8
D-1
  6
Continuous
 62
     2
370
     9
100
AcDbCircle
 10
-551.420208055875
 20
-428.1817346438072
 30
0.0
 40
5.0
100
AcDbArc
 50
239.9999694824219
 51
300.0000305175781
  0
LWPOLYLINE
  5
527
330
1F
100
AcDbEntity
  8
D-4
  6
Continuous
 62
     7
370
     9
100
AcDbPolyline
 90
        4
 70
     1
 43
1.0
 10
-425.9198766540502
 20
27.18527738011858
 42
0.4142135623731
 10
-426.4198766540502
 20
27.68527738011858
 42
0.4142135623731
 10
-426.9198766540501
 20
27.18527738011858
 42
0.4142135623731
 10
-426.4198766540502
 20
26.68527738011858
 42
0.4142135623731
  0
LWPOLYLINE
  5
528
330
1F
100
AcDbEntity
  8
D-4
  6
Continuous
 62
     7
370
     9
100
AcDbPolyline
 90
        4
 70
     1
 43
1.0
 10
-580.9193592857334
 20
-192.2627836092613
 42
0.4142135623731
 10
-581.4193592857334
 20
-191.7627836092613
 42
0.4142135623731
 10
-581.9193592857334
 20
-192.2627836092613
 42
0.4142135623731
 10
-581.4193592857334
 20
-192.7627836092613
 42
0.4142135623731
  0
LWPOLYLINE
  5
529
330
1F
100
AcDbEntity
  8
D-4
  6
Continuous
 62
     7
370
     9
100
AcDbPolyline
 90
        4
 70
     1
 43
1.0
 10
-455.9185295890783
 20
-192.2627836092613
 42
0.4142135623731
 10
-456.4185295890783
 20
-191.7627836092613
 42
0.4142135623731
 10
-456.9185295890782
 20
-192.2627836092613
 42
0.4142135623731
 10
-456.4185295890783
 20
-192.7627836092613
 42
0.4142135623731
  0
LWPOLYLINE
  5
52A
330
1F
100
AcDbEntity
  8
D-4
  6
Continuous
 62
     7
370
     9
100
AcDbPolyline
 90
        4
 70
     1
 43
1.0
 10
-455.9185295890783
 20
-83.5103708132408
 42
0.4142135623731
 10
-456.4185295890783
 20
-83.0103708132408
 42
0.4142135623731
 10
-456.9185295890782
 20
-83.5103708132408
 42
0.4142135623731
 10
-456.4185295890783
 20
-84.0103708132408
 42
0.4142135623731
  0
LWPOLYLINE
  5
52B
330
1F
100
AcDbEntity
  8
D-4
  6
Continuous
 62
     7
370
     9
100
AcDbPolyline
 90
        4
 70
     1
 43
1.0
 10
-450.918258983991
 20
-83.5103708132408
 42
0.4142135623731
 10
-451.418258983991
 20
-83.0103708132408
 42
0.4142135623731
 10
-451.9182589839909
 20
-83.5103708132408
 42
0.4142135623731
 10
-451.418258983991
 20
-84.0103708132408
 42
0.4142135623731
  0
LWPOLYLINE
  5
52C
330
1F
100
AcDbEntity
  8
D-4
  6
Continuous
 62
     7
370
     9
100
AcDbPolyline
 90
        4
 70
     1
 43
1.0
 10
-425.9198766540502
 20
-83.5103708132408
 42
0.4142135623731
 10
-426.4198766540502
 20
-83.0103708132408
 42
0.4142135623731
 10
-426.9198766540501
 20
-83.5103708132408
 42
0.4142135623731
 10
-426.4198766540502
 20
-84.0103708132408
 42
0.4142135623731
  0
LWPOLYLINE
  5
52D
330
1F
100
AcDbEntity
  8
D-4
  6
Continuous
 62
     7
370
     9
100
AcDbPolyline
 90
        4
 70
     1
 43
1.0
 10
-726.4018708061192
 20
-438.181782327523
 42
0.4142135623731
 10
-726.9018708061192
 20
-437.681782327523
 42
0.4142135623731
 10
-727.4018708061192
 20
-438.181782327523
 42
0.4142135623731
 10
-726.9018708061192
 20
-438.681782327523
 42
0.4142135623731
  0
LWPOLYLINE
  5
52E
330
1F
100
AcDbEntity
  8
D-4
  6
Continuous
 62
     7
370
     9
100
AcDbPolyline
 90
        4
 70
     1
 43
1.0
 10
-726.4018708061192
 20
-313.181942067971
 42
0.4142135623731
 10
-726.9018708061192
 20
-312.681942067971
 42
0.4142135623731
 10
-727.4018708061192
 20
-313.181942067971
 42
0.4142135623731
 10
-726.9018708061192
 20
-313.681942067971
 42
0.4142135623731
  0
LWPOLYLINE
  5
52F
330
1F
100
AcDbEntity
  8
D-4
  6
Continuous
 62
     7
370
     9
100
AcDbPolyline
 90
        4
 70
     1
 43
1.0
 10
-425.9188872169469
 20
-503.7124734743736
 42
0.4142135623731
 10
-426.4188872169469
 20
-503.2124734743736
 42
0.4142135623731
 10
-426.9188872169469
 20
-503.7124734743736
 42
0.4142135623731
 10
-426.4188872169469
 20
-504.2124734743736
 42
0.4142135623731
  0
LWPOLYLINE
  5
530
330
1F
100
AcDbEntity
  8
D-4
  6
Continuous
 62
     7
370
     9
100
AcDbPolyline
 90
        4
 70
     1
 43
1.0
 10
-280.9189492057775
 20
-503.7124734743736
 42
0.4142135623731
 10
-281.4189492057775
 20
-503.2124734743736
 42
0.4142135623731
 10
-281.9189492057775
 20
-503.7124734743736
 42
0.4142135623731
 10
-281.4189492057775
 20
-504.2124734743736
 42
0.4142135623731
  0
LWPOLYLINE
  5
531
330
1F
100
AcDbEntity
  8
D-4
  6
Continuous
 62
     7
370
     9
100
AcDbPolyline
 90
        4
 70
     1
 43
1.0
 10
-192.8682022880529
 20
-313.181942067971
 42
0.4142135623731
 10
-193.3682022880529
 20
-312.681942067971
 42
0.4142135623731
 10
-193.8682022880529
 20
-313.181942067971
 42
0.4142135623731
 10
-193.3682022880529
 20
-313.681942067971
 42
0.4142135623731
  0
LWPOLYLINE
  5
532
330
1F
100
AcDbEntity
  8
D-4
  6
Continuous
 62
     7
370
     9
100
AcDbPolyline
 90
        4
 70
     1
 43
1.0
 10
-192.8682022880529
 20
-398.1820875033043
 42
0.4142135623731
 10
-193.3682022880529
 20
-397.6820875033043
 42
0.4142135623731
 10
-193.8682022880529
 20
-398.1820875033043
 42
0.4142135623731
 10
-193.3682022880529
 20
-398.6820875033043
 42
0.4142135623731
  0
LWPOLYLINE
  5
533
330
1F
100
AcDbEntity
  8
D-4
  6
Continuous
 62
     7
370
     9
100
AcDbPolyline
 90
        4
 70
     1
 43
1.0
 10
-192.8682022880529
 20
-448.1818204744957
 42
0.4142135623731
 10
-193.3682022880529
 20
-447.6818204744957
 42
0.4142135623731
 10
-193.8682022880529
 20
-448.1818204744957
 42
0.4142135623731
 10
-193.3682022880529
 20
-448.6818204744957
 42
0.4142135623731
  0
LWPOLYLINE
  5
534
330
1F
100
AcDbEntity
  8
D-4
  6
Continuous
 62
     7
370
     9
100
AcDbPolyline
 90
        4
 70
     1
 43
1.0
 10
90.76634589920292
 20
-563.1821161135338
 42
0.4142135623731
 10
90.26634589920292
 20
-562.6821161135338
 42
0.4142135623731
 10
89.76634589920292
 20
-563.1821161135338
 42
0.4142135623731
 10
90.26634589920292
 20
-563.6821161135338
 42
0.4142135623731
  0
LWPOLYLINE
  5
535
330
1F
100
AcDbEntity
  8
D-4
  6
Continuous
 62
     7
370
     9
100
AcDbPolyline
 90
        4
 70
     1
 43
1.0
 10
90.76634589920292
 20
-313.181942067971
 42
0.4142135623731
 10
90.26634589920292
 20
-312.681942067971
 42
0.4142135623731
 10
89.76634589920292
 20
-313.181942067971
 42
0.4142135623731
 10
90.26634589920292
 20
-313.681942067971
 42
0.4142135623731
  0
LWPOLYLINE
  5
536
330
1F
100
AcDbEntity
  8
D-4
  6
Continuous
 62
     7
370
     9
100
AcDbPolyline
 90
        4
 70
     1
 43
1.0
 10
-580.9183674644444
 20
-718.8004403933189
 42
0.4142135623731
 10
-581.4183674644444
 20
-718.3004403933189
 42
0.4142135623731
 10
-581.9183674644444
 20
-718.8004403933189
 42
0.4142135623731
 10
-581.4183674644444
 20
-719.3004403933189
 42
0.4142135623731
  0
LWPOLYLINE
  5
537
330
1F
100
AcDbEntity
  8
D-4
  6
Continuous
 62
     7
370
     9
100
AcDbPolyline
 90
        4
 70
     1
 43
1.0
 10
-430.9191566299413
 20
-718.8004403933189
 42
0.4142135623731
 10
-431.4191566299413
 20
-718.3004403933189
 42
0.4142135623731
 10
-431.9191566299413
 20
-718.8004403933189
 42
0.4142135623731
 10
-431.4191566299413
 20
-719.3004403933189
 42
0.4142135623731
  0
LWPOLYLINE
  5
538
330
1F
100
AcDbEntity
  8
D-4
  6
Continuous
 62
     7
370
     9
100
AcDbPolyline
 90
        4
 70
     1
 43
1.0
 10
-580.9183674644444
 20
-873.265314660897
 42
0.4142135623731
 10
-581.4183674644444
 20
-872.765314660897
 42
0.4142135623731
 10
-581.9183674644444
 20
-873.265314660897
 42
0.4142135623731
 10
-581.4183674644444
 20
-873.765314660897
 42
0.4142135623731
  0
LWPOLYLINE
  5
539
330
1F
100
AcDbEntity
  8
D-4
  6
Continuous
 62
     7
370
     9
100
AcDbPolyline
 90
        4
 70
     1
 43
1.0
 10
-180.9174996208165
 20
-873.265314660897
 42
0.4142135623731
 10
-181.4174996208166
 20
-872.765314660897
 42
0.4142135623731
 10
-181.9174996208166
 20
-873.265314660897
 42
0.4142135623731
 10
-181.4174996208166
 20
-873.765314660897
 42
0.4142135623731
  0
TEXT
  5
53A
330
1F
100
AcDbEntity
  8
D-4
  6
Continuous
 62
     2
370
     9
100
AcDbText
 10
-489.3642292808507
 20
-72.87107653223494
 30
0.0
 40
30.48
  1
1
 41
0.9999999999999998
  7
ＭＳ ゴシック
100
AcDbText
  0
TEXT
  5
53B
330
1F
100
AcDbEntity
  8
D-4
  6
Continuous
 62
     2
370
     9
100
AcDbText
 10
-540.1686058830237
 20
-181.6225165804527
 30
0.0
 40
30.48
  1
25
 41
1.062500000000002
  7
ＭＳ ゴシック
100
AcDbText
  0
TEXT
  5
53C
330
1F
100
AcDbEntity
  8
D-5
  6
Continuous
 62
     7
370
     9
100
AcDbText
 10
-289.156204302213
 20
-197.3812905367515
 30
0.0
 40
22.86
  1
塩ビクッション
 41
1.142857142857143
  7
ＭＳ ゴシック
100
AcDbText
  0
TEXT
  5
53D
330
1F
100
AcDbEntity
  8
D-4
  6
Continuous
 62
     2
370
     9
100
AcDbText
 10
-572.6683865379307
 20
-708.1606692751549
 30
0.0
 40
30.48
  1
25～30
 41
1.104166666666666
  7
ＭＳ ゴシック
100
AcDbText
  0
TEXT
  5
53E
330
1F
100
AcDbEntity
  8
D-4
  6
Continuous
 62
     2
370
     9
100
AcDbText
 10
-449.2867521833394
 20
-862.6250094851158
 30
0.0
 40
30.48
  1
75～80
 41
1.104166666666667
  7
ＭＳ ゴシック
100
AcDbText
  0
TEXT
  5
53F
330
1F
100
AcDbEntity
  8
D-4
  6
Continuous
 62
     2
370
     9
100
AcDbText
 10
79.62607887039432
 20
-504.4314106410719
 30
0.0
 40
30.48
  1
40～50
 50
90.00000250447816
 41
1.104166666666667
  7
ＭＳ ゴシック
100
AcDbText
  0
TEXT
  5
540
330
1F
100
AcDbEntity
  8
D-4
  6
Continuous
 62
     2
370
     9
100
AcDbText
 10
-402.4292813133214
 20
-493.0727023562096
 30
0.0
 40
30.48
  1
29
 41
1.0625
  7
ＭＳ ゴシック
100
AcDbText
  0
TEXT
  5
541
330
1F
100
AcDbEntity
  8
D-4
  6
Continuous
 62
     2
370
     9
100
AcDbText
 10
-204.0084883903478
 20
-444.4316204494215
 30
0.0
 40
30.48
  1
10
 50
90.00000250447819
 41
1.062500000000001
  7
ＭＳ ゴシック
100
AcDbText
  0
TEXT
  5
542
330
1F
100
AcDbEntity
  8
D-4
  6
Continuous
 62
     2
370
     9
100
AcDbText
 10
-204.0084883903478
 20
-376.9319256252027
 30
0.0
 40
30.48
  1
17
 50
90.00000250447819
 41
1.062500000000001
  7
ＭＳ ゴシック
100
AcDbText
  0
TEXT
  5
543
330
1F
100
AcDbEntity
  8
D-4
  6
Continuous
 62
     2
370
     9
100
AcDbText
 10
-448.7764190029119
 20
-72.87107653223494
 30
0.0
 40
30.48
  1
5
 41
0.9999999999999998
  7
ＭＳ ゴシック
100
AcDbText
  0
TEXT
  5
544
330
1F
100
AcDbEntity
  8
D-5
  6
Continuous
 62
     2
370
     9
100
AcDbText
 10
-880.9133812300497
 20
-990.9841174563105
 30
0.0
 40
30.48
  1
断面詳細図　Ｓ＝１：２
 50
359.9999375525338
 41
1.113636363636363
  7
ＭＳ ゴシック
100
AcDbText
  0
TEXT
  5
545
330
1F
100
AcDbEntity
  8
D-5
  6
Continuous
 62
     7
370
     9
100
AcDbText
 10
-274.868866045377
 20
-291.7661121901176
 30
0.0
 40
22.86
  1
ｔ＝２．３（ＳＰＨＣ）
 41
1.151515151515151
  7
ＭＳ ゴシック
100
AcDbText
  0
TEXT
  5
546
330
1F
100
AcDbEntity
  8
D-5
  6
Continuous
 62
     7
370
     9
100
AcDbText
 10
-284.5067177604649
 20
-141.2823430117271
 30
0.0
 40
22.86
  1
ステンレス製受枠ＳＦ２０Ｂ
 41
1.153846153846153
  7
ＭＳ ゴシック
100
AcDbText
  0
TEXT
  5
547
330
1F
100
AcDbEntity
  8
D-4
  6
Continuous
 62
     2
370
     9
100
AcDbText
 10
-737.5421378349278
 20
-396.9320209926344
 30
0.0
 40
30.48
  1
25
 50
90.00000250447827
 41
1.062500000000001
  7
ＭＳ ゴシック
100
AcDbText
  0
TEXT
  5
548
330
1F
100
AcDbEntity
  8
D-5
  6
Continuous
 62
     2
370
     9
100
AcDbText
 10
480.0546302009609
 20
-820.2248019655846
 30
0.0
 40
30.48
  1
材質：冷間圧延ステンレス鋼板（ＳＵＳ３０４－２Ｂ）
 41
1.119999999999999
  7
ＭＳ ゴシック
100
AcDbText
  0
LINE
  5
549
330
1F
100
AcDbEntity
  8
D-2
  6
Continuous
 62
     3
370
     9
100
AcDbLine
 10
-471.4188466857885
 20
-315.6815820559166
 30
0.0
 11
-471.4188466857885
 21
-415.6815534456871
 31
0.0
  0
LINE
  5
54A
330
1F
100
AcDbEntity
  8
D-2
  6
Continuous
 62
     3
370
     9
100
AcDbLine
 10
-1129.087215502164
 20
-470.9253316744469
 30
0.0
 11
-1129.087215502164
 21
-246.9828563555382
 31
0.0
  0
LINE
  5
54B
330
1F
100
AcDbEntity
  8
D-4
  6
Continuous
 62
     7
370
     9
100
AcDbLine
 10
-938.1449852775547
 20
-415.6815534456871
 30
0.0
 11
-938.1449852775547
 21
-315.6815820559166
 31
0.0
  0
LINE
  5
54C
330
1F
100
AcDbEntity
  8
D-2
  6
Continuous
 62
     3
370
     9
100
AcDbLine
 10
-471.4188466857885
 20
-325.681132636895
 30
0.0
 11
-1129.087215502164
 21
-325.681132636895
 31
0.0
  0
LINE
  5
54D
330
1F
100
AcDbEntity
  8
D-2
  6
Continuous
 62
     3
370
     9
100
AcDbLine
 10
-456.4185295890783
 20
-315.6815820559166
 30
0.0
 11
-456.4185295890783
 21
-415.6815534456871
 31
0.0
  0
LINE
  5
54E
330
1F
100
AcDbEntity
  8
D-2
  6
Continuous
 62
     3
370
     9
100
AcDbLine
 10
-456.4210069330292
 20
-415.6815534456871
 30
0.0
 11
-1129.087215502164
 21
-415.6815534456871
 31
0.0
  0
LINE
  5
54F
330
1F
100
AcDbEntity
  8
D-2
  6
Continuous
 62
     3
370
     9
100
AcDbLine
 10
-456.4185295890783
 20
-315.6815820559166
 30
0.0
 11
-1129.087215502164
 21
-315.6815820559166
 31
0.0
  0
LINE
  5
550
330
1F
100
AcDbEntity
  8
D-2
  6
JWW_CENTER2
 62
     3
370
     9
100
AcDbLine
 10
-831.4185295890782
 20
-398.6205774172447
 30
0.0
 11
-831.4185295890782
 21
-334.1016250475548
 31
0.0
  0
LINE
  5
551
330
1F
100
AcDbEntity
  8
D-2
  6
JWW_CENTER2
 62
     3
370
     9
100
AcDbLine
 10
-861.7431984733555
 20
-365.6813197954796
 30
0.0
 11
-800.7718239616368
 21
-365.6813197954796
 31
0.0
  0
LINE
  5
552
330
1F
100
AcDbEntity
  8
D-5
  6
Continuous
 62
     7
370
     9
100
AcDbLine
 10
-331.896329958341
 20
-89.43568285547713
 30
0.0
 11
-529.4090090583776
 21
-318.1817173584602
 31
0.0
  0
LINE
  5
553
330
1F
100
AcDbEntity
  8
D-5
  6
Continuous
 62
     7
370
     9
100
AcDbLine
 10
-529.4090090583776
 20
-318.1817173584602
 30
0.0
 11
-515.6805573295568
 21
-297.2887903078697
 31
0.0
  0
LINE
  5
554
330
1F
100
AcDbEntity
  8
D-5
  6
Continuous
 62
     7
370
     9
100
AcDbLine
 10
-529.4090090583776
 20
-318.1817173584602
 30
0.0
 11
-510.740734178922
 21
-301.5537851675651
 31
0.0
  0
LINE
  5
555
330
1F
100
AcDbEntity
  8
D-0
  6
Continuous
 62
     3
370
     9
100
AcDbLine
 10
-818.9188347648594
 20
-353.1811719759605
 30
0.0
 11
-818.9188347648594
 21
-360.5038886889122
 31
0.0
  0
LINE
  5
556
330
1F
100
AcDbEntity
  8
D-0
  6
Continuous
 62
     3
370
     9
100
AcDbLine
 10
-818.9188347648594
 20
-353.1811719759605
 30
0.0
 11
-826.2408409904453
 21
-353.1811719759605
 31
0.0
  0
LINE
  5
557
330
1F
100
AcDbEntity
  8
D-0
  6
Continuous
 62
     3
370
     9
100
AcDbLine
 10
-836.5959130119297
 20
-353.1811719759605
 30
0.0
 11
-843.9182244132969
 21
-353.1811719759605
 31
0.0
  0
LINE
  5
558
330
1F
100
AcDbEntity
  8
D-0
  6
Continuous
 62
     3
370
     9
100
AcDbLine
 10
-843.9182244132969
 20
-353.1811719759605
 30
0.0
 11
-843.9182244132969
 21
-360.5033641680382
 31
0.0
  0
LINE
  5
559
330
1F
100
AcDbEntity
  8
D-0
  6
Continuous
 62
     3
370
     9
100
AcDbLine
 10
-836.5959130119297
 20
-378.1814676149986
 30
0.0
 11
-843.9182244132969
 21
-378.1814676149986
 31
0.0
  0
LINE
  5
55A
330
1F
100
AcDbEntity
  8
D-0
  6
Continuous
 62
     3
370
     9
100
AcDbLine
 10
-843.9182244132969
 20
-370.859275422921
 30
0.0
 11
-843.9182244132969
 21
-378.1814676149986
 31
0.0
  0
LINE
  5
55B
330
1F
100
AcDbEntity
  8
D-0
  6
Continuous
 62
     3
370
     9
100
AcDbLine
 10
-818.9188347648594
 20
-378.1814676149986
 30
0.0
 11
-826.2408409904453
 21
-378.1814676149986
 31
0.0
  0
LINE
  5
55C
330
1F
100
AcDbEntity
  8
D-0
  6
Continuous
 62
     3
370
     9
100
AcDbLine
 10
-818.9188347648594
 20
-370.859275422921
 30
0.0
 11
-818.9188347648594
 21
-378.1814676149986
 31
0.0
  0
LINE
  5
55D
330
1F
100
AcDbEntity
  8
D-0
  6
Continuous
 62
     3
370
     9
100
AcDbLine
 10
-831.4183770011875
 20
-348.0036526545189
 30
0.0
 11
-849.0964470695469
 21
-365.6815820559166
 31
0.0
  0
LINE
  5
55E
330
1F
100
AcDbEntity
  8
D-0
  6
Continuous
 62
     3
370
     9
100
AcDbLine
 10
-831.4183770011875
 20
-383.359160982003
 30
0.0
 11
-813.7406121086094
 21
-365.6815820559166
 31
0.0
  0
LINE
  5
55F
330
1F
100
AcDbEntity
  8
D-0
  6
Continuous
 62
     3
370
     9
100
AcDbLine
 10
-813.7406121086094
 20
-365.6815820559166
 30
0.0
 11
-831.4183770011875
 21
-348.0036526545189
 31
0.0
  0
LINE
  5
560
330
1F
100
AcDbEntity
  8
D-0
  6
Continuous
 62
     3
370
     9
100
AcDbLine
 10
-849.0964470695469
 20
-365.6815820559166
 30
0.0
 11
-831.4183770011875
 21
-383.359160982003
 31
0.0
  0
LWPOLYLINE
  5
561
330
1F
100
AcDbEntity
  8
D-4
  6
Continuous
 62
     7
370
     9
100
AcDbPolyline
 90
        4
 70
     1
 43
1.0
 10
-937.6449852775547
 20
-315.6815820559166
 42
0.4142135623731
 10
-938.1449852775547
 20
-315.1815820559166
 42
0.4142135623731
 10
-938.6449852775547
 20
-315.6815820559166
 42
0.4142135623731
 10
-938.1449852775547
 20
-316.1815820559166
 42
0.4142135623731
  0
LWPOLYLINE
  5
562
330
1F
100
AcDbEntity
  8
D-4
  6
Continuous
 62
     7
370
     9
100
AcDbPolyline
 90
        4
 70
     1
 43
1.0
 10
-937.6449852775547
 20
-415.6815534456871
 42
0.4142135623731
 10
-938.1449852775547
 20
-415.1815534456871
 42
0.4142135623731
 10
-938.6449852775547
 20
-415.6815534456871
 42
0.4142135623731
 10
-938.1449852775547
 20
-416.1815534456871
 42
0.4142135623731
  0
TEXT
  5
563
330
1F
100
AcDbEntity
  8
D-4
  6
Continuous
 62
     2
370
     9
100
AcDbText
 10
-948.7847563957188
 20
-386.931477398274
 30
0.0
 40
30.48
  1
20
 50
90.00000250447827
 41
1.062500000000001
  7
ＭＳ ゴシック
100
AcDbText
  0
TEXT
  5
564
330
1F
100
AcDbEntity
  8
D-5
  6
Continuous
 62
     2
370
     9
100
AcDbText
 10
480.0556220222496
 20
-482.9621715029381
 30
0.0
 40
30.48
  1
材質：メインバー　ＳＵＳ３０４　＠１５
 41
1.118421052631579
  7
ＭＳ ゴシック
100
AcDbText
  0
TEXT
  5
565
330
1F
100
AcDbEntity
  8
D-5
  6
Continuous
 62
     2
370
     9
100
AcDbText
 10
480.05562202225
 20
-547.9622287233971
 30
0.0
 40
30.48
  1
　　　クロスバー　ＳＵＳ３０４　＠１００
 41
1.118749999999999
  7
ＭＳ ゴシック
100
AcDbText
  0
TEXT
  5
566
330
1F
100
AcDbEntity
  8
D-5
  6
Continuous
 62
     2
370
     9
100
AcDbText
 10
480.0556220222496
 20
-612.9622668703697
 30
0.0
 40
30.48
  1
　　　サイドバー　ＳＵＳ３０４
 41
1.116666666666667
  7
ＭＳ ゴシック
100
AcDbText
  0
TEXT
  5
567
330
1F
100
AcDbEntity
  8
D-5
  6
Continuous
 62
     7
370
     9
100
AcDbText
 10
-274.8688660453771
 20
-250.5421200808189
 30
0.0
 40
22.86
  1
溶接用アンカー
 41
1.142857142857143
  7
ＭＳ ゴシック
100
AcDbText
  0
TEXT
  5
568
330
1F
100
AcDbEntity
  8
D-5
  6
Continuous
 62
     2
370
     9
100
AcDbText
 10
420.3427161384606
 20
-755.2252215822838
 30
0.0
 40
30.48
  1
ステンレス製受枠　ＳＦ２０Ｂ（四方枠）
 41
1.118421052631579
  7
ＭＳ ゴシック
100
AcDbText
  0
TEXT
  5
569
330
1F
100
AcDbEntity
  8
D-4
  6
Continuous
 62
     2
370
     9
100
AcDbText
 10
-1151.492504429867
 20
-182.10352495225
 30
0.0
 40
30.48
  1
□400
 41
1.100000000000001
  7
ＭＳ ゴシック
100
AcDbText
  0
TEXT
  5
56A
330
1F
100
AcDbEntity
  8
D-4
  6
Continuous
 62
     2
370
     9
100
AcDbText
 10
-1151.492504429867
 20
-73.30352495225007
 30
0.0
 40
30.48
  1
□450
 41
1.100000000000001
  7
ＭＳ ゴシック
100
AcDbText
  0
TEXT
  5
56B
330
1F
100
AcDbEntity
  8
D-4
  6
Continuous
 62
     2
370
     9
100
AcDbText
 10
-1151.492504429867
 20
37.39647504774986
 30
0.0
 40
30.48
  1
□462
 41
1.1
  7
ＭＳ ゴシック
100
AcDbText
  0
LINE
  5
56C
330
1F
100
AcDbEntity
  8
C-3
  6
Continuous
 62
     2
370
     9
100
AcDbLine
 10
-633.0945274249923
 20
935.8917087864231
 30
0.0
 11
-633.0945274249923
 21
473.8914036106419
 31
0.0
  0
LINE
  5
56D
330
1F
100
AcDbEntity
  8
C-3
  6
Continuous
 62
     2
370
     9
100
AcDbLine
 10
-633.0945274249923
 20
473.8914036106419
 30
0.0
 11
-171.0942260639084
 21
473.8914036106419
 31
0.0
  0
LINE
  5
56E
330
1F
100
AcDbEntity
  8
C-3
  6
Continuous
 62
     2
370
     9
100
AcDbLine
 10
-171.0942260639084
 20
935.8917087864231
 30
0.0
 11
-633.0945274249923
 21
935.8917087864231
 31
0.0
  0
LINE
  5
56F
330
1F
100
AcDbEntity
  8
C-3
  6
Continuous
 62
     2
370
     9
100
AcDbLine
 10
-171.0942260639084
 20
473.8914036106419
 30
0.0
 11
-171.0942260639084
 21
935.8917087864231
 31
0.0
  0
LWPOLYLINE
  5
570
330
1F
100
AcDbEntity
  8
C-4
  6
Continuous
 62
     7
370
     9
100
AcDbPolyline
 90
        4
 70
     1
 43
1.0
 10
-632.5945274249923
 20
1119.891037399705
 42
0.4142135623731
 10
-633.0945274249923
 20
1120.391037399705
 42
0.4142135623731
 10
-633.5945274249923
 20
1119.891037399705
 42
0.4142135623731
 10
-633.0945274249923
 20
1119.391037399705
 42
0.4142135623731
  0
LWPOLYLINE
  5
571
330
1F
100
AcDbEntity
  8
C-4
  6
Continuous
 62
     7
370
     9
100
AcDbPolyline
 90
        4
 70
     1
 43
1.0
 10
-632.5945274249923
 20
1064.891037399705
 42
0.4142135623731
 10
-633.0945274249923
 20
1065.391037399705
 42
0.4142135623731
 10
-633.5945274249923
 20
1064.891037399705
 42
0.4142135623731
 10
-633.0945274249923
 20
1064.391037399705
 42
0.4142135623731
  0
LINE
  5
572
330
1F
100
AcDbEntity
  8
C-4
  6
Continuous
 62
     7
370
     9
100
AcDbLine
 10
-633.0945274249923
 20
1122.891037518914
 30
0.0
 11
-633.0945274249923
 21
957.8917087864232
 31
0.0
  0
LINE
  5
573
330
1F
100
AcDbEntity
  8
C-4
  6
Continuous
 62
     7
370
     9
100
AcDbLine
 10
-633.0945274249923
 20
1064.891037399705
 30
0.0
 11
-683.0945274249923
 21
1064.891037399705
 31
0.0
  0
LWPOLYLINE
  5
574
330
1F
100
AcDbEntity
  8
C-4
  6
Continuous
 62
     7
370
     9
100
AcDbPolyline
 90
        4
 70
     1
 43
1.0
 10
-170.5942260639084
 20
1119.891037399705
 42
0.4142135623731
 10
-171.0942260639084
 20
1120.391037399705
 42
0.4142135623731
 10
-171.5942260639084
 20
1119.891037399705
 42
0.4142135623731
 10
-171.0942260639084
 20
1119.391037399705
 42
0.4142135623731
  0
LWPOLYLINE
  5
575
330
1F
100
AcDbEntity
  8
C-4
  6
Continuous
 62
     7
370
     9
100
AcDbPolyline
 90
        4
 70
     1
 43
1.0
 10
-170.5942260639084
 20
1064.891037399705
 42
0.4142135623731
 10
-171.0942260639084
 20
1065.391037399705
 42
0.4142135623731
 10
-171.5942260639084
 20
1064.891037399705
 42
0.4142135623731
 10
-171.0942260639084
 20
1064.391037399705
 42
0.4142135623731
  0
LINE
  5
576
330
1F
100
AcDbEntity
  8
C-4
  6
Continuous
 62
     7
370
     9
100
AcDbLine
 10
-171.0942260639084
 20
1122.891037518914
 30
0.0
 11
-171.0942260639084
 21
957.8917087864232
 31
0.0
  0
LINE
  5
577
330
1F
100
AcDbEntity
  8
C-4
  6
Continuous
 62
     7
370
     9
100
AcDbLine
 10
-171.0942260639084
 20
1064.891037399705
 30
0.0
 11
-121.0942260639084
 21
1064.891037399705
 31
0.0
  0
LINE
  5
578
330
1F
100
AcDbEntity
  8
C-4
  6
Continuous
 62
     7
370
     9
100
AcDbLine
 10
-633.0945274249923
 20
1064.891037399705
 30
0.0
 11
-628.0945274249923
 21
1064.891037399705
 31
0.0
  0
TEXT
  5
579
330
1F
100
AcDbEntity
  8
C-4
  6
Continuous
 62
     2
370
   211
100
AcDbText
 10
-669.5945350543867
 20
1076.531037638123
 30
0.0
 40
30.48
  1
5
 41
0.9999999999999998
  7
ＭＳ ゴシック
100
AcDbText
  0
LINE
  5
57A
330
1F
100
AcDbEntity
  8
C-4
  6
Continuous
 62
     7
370
     9
100
AcDbLine
 10
-633.0945274249923
 20
1119.891037399705
 30
0.0
 11
-171.0942260639084
 21
1119.891037399705
 31
0.0
  0
TEXT
  5
57B
330
1F
100
AcDbEntity
  8
C-4
  6
Continuous
 62
     2
370
   211
100
AcDbText
 10
-434.5943767444504
 20
1131.531037638123
 30
0.0
 40
30.48
  1
462
 41
1.083333333333333
  7
ＭＳ ゴシック
100
AcDbText
  0
LINE
  5
57C
330
1F
100
AcDbEntity
  8
C-4
  6
Continuous
 62
     7
370
     9
100
AcDbLine
 10
-176.0942260639084
 20
1064.891037399705
 30
0.0
 11
-171.0942260639084
 21
1064.891037399705
 31
0.0
  0
TEXT
  5
57D
330
1F
100
AcDbEntity
  8
C-4
  6
Continuous
 62
     2
370
   211
100
AcDbText
 10
-154.5942260639084
 20
1076.531037638123
 30
0.0
 40
30.48
  1
5
 41
0.9999999999999998
  7
ＭＳ ゴシック
100
AcDbText
  0
LWPOLYLINE
  5
57E
330
1F
100
AcDbEntity
  8
C-4
  6
Continuous
 62
     7
370
     9
100
AcDbPolyline
 90
        4
 70
     1
 43
1.0
 10
-761.5938560382739
 20
478.8914074253391
 42
0.4142135623731
 10
-762.0938560382739
 20
479.3914074253391
 42
0.4142135623731
 10
-762.5938560382738
 20
478.8914074253391
 42
0.4142135623731
 10
-762.0938560382739
 20
478.3914074253391
 42
0.4142135623731
  0
LINE
  5
57F
330
1F
100
AcDbEntity
  8
C-4
  6
Continuous
 62
     7
370
     9
100
AcDbLine
 10
-762.0938560382739
 20
478.8914074253391
 30
0.0
 11
-762.0938560382739
 21
479.8917583774875
 31
0.0
  0
LWPOLYLINE
  5
580
330
1F
100
AcDbEntity
  8
C-4
  6
Continuous
 62
     7
370
     9
100
AcDbPolyline
 90
        4
 70
     1
 43
1.0
 10
-761.5938560382739
 20
479.8917583774875
 42
0.4142135623731
 10
-762.0938560382739
 20
480.3917583774875
 42
0.4142135623731
 10
-762.5938560382738
 20
479.8917583774875
 42
0.4142135623731
 10
-762.0938560382739
 20
479.3917583774875
 42
0.4142135623731
  0
LINE
  5
581
330
1F
100
AcDbEntity
  8
C-4
  6
Continuous
 62
     7
370
     9
100
AcDbLine
 10
-762.0938560382739
 20
479.8917583774875
 30
0.0
 11
-762.0938560382739
 21
929.8918918918918
 31
0.0
  0
LWPOLYLINE
  5
582
330
1F
100
AcDbEntity
  8
C-4
  6
Continuous
 62
     7
370
     9
100
AcDbPolyline
 90
        4
 70
     1
 43
1.0
 10
-761.5938560382739
 20
929.8918918918918
 42
0.4142135623731
 10
-762.0938560382739
 20
930.3918918918918
 42
0.4142135623731
 10
-762.5938560382738
 20
929.8918918918918
 42
0.4142135623731
 10
-762.0938560382739
 20
929.3918918918918
 42
0.4142135623731
  0
TEXT
  5
583
330
1F
100
AcDbEntity
  8
C-4
  6
Continuous
 62
     2
370
   211
100
AcDbText
 10
-773.7338562766924
 20
672.3918251346896
 30
0.0
 40
30.48
  1
450
 50
90.0
 41
1.083333333333333
  7
ＭＳ ゴシック
100
AcDbText
  0
LINE
  5
584
330
1F
100
AcDbEntity
  8
C-4
  6
Continuous
 62
     7
370
     9
100
AcDbLine
 10
-762.0938560382739
 20
929.8918918918918
 30
0.0
 11
-762.0938560382739
 21
930.8917087864231
 31
0.0
  0
LWPOLYLINE
  5
585
330
1F
100
AcDbEntity
  8
C-4
  6
Continuous
 62
     7
370
     9
100
AcDbPolyline
 90
        4
 70
     1
 43
1.0
 10
-761.5938560382739
 20
930.8917087864231
 42
0.4142135623731
 10
-762.0938560382739
 20
931.391708786423
 42
0.4142135623731
 10
-762.5938560382738
 20
930.8917087864231
 42
0.4142135623731
 10
-762.0938560382739
 20
930.3917087864231
 42
0.4142135623731
  0
LINE
  5
586
330
1F
100
AcDbEntity
  8
C-4
  6
Continuous
 62
     7
370
     9
100
AcDbLine
 10
-707.0945884601484
 20
479.8917583774875
 30
0.0
 11
-707.0945884601484
 21
504.8916248630832
 31
0.0
  0
LWPOLYLINE
  5
587
330
1F
100
AcDbEntity
  8
C-4
  6
Continuous
 62
     7
370
     9
100
AcDbPolyline
 90
        4
 70
     1
 43
1.0
 10
-706.5945884601484
 20
479.8917583774875
 42
0.4142135623731
 10
-707.0945884601484
 20
480.3917583774875
 42
0.4142135623731
 10
-707.5945884601483
 20
479.8917583774875
 42
0.4142135623731
 10
-707.0945884601484
 20
479.3917583774875
 42
0.4142135623731
  0
LWPOLYLINE
  5
588
330
1F
100
AcDbEntity
  8
C-4
  6
Continuous
 62
     7
370
     9
100
AcDbPolyline
 90
        4
 70
     1
 43
1.0
 10
-706.5945884601484
 20
504.8916248630832
 42
0.4142135623731
 10
-707.0945884601484
 20
505.3916248630832
 42
0.4142135623731
 10
-707.5945884601483
 20
504.8916248630832
 42
0.4142135623731
 10
-707.0945884601484
 20
504.3916248630832
 42
0.4142135623731
  0
LINE
  5
589
330
1F
100
AcDbEntity
  8
C-4
  6
Continuous
 62
     7
370
     9
100
AcDbLine
 10
-707.0945884601484
 20
504.8916248630832
 30
0.0
 11
-707.0945884601484
 21
904.8920139622044
 31
0.0
  0
LWPOLYLINE
  5
58A
330
1F
100
AcDbEntity
  8
C-4
  6
Continuous
 62
     7
370
     9
100
AcDbPolyline
 90
        4
 70
     1
 43
1.0
 10
-706.5945884601484
 20
904.8920139622044
 42
0.4142135623731
 10
-707.0945884601484
 20
905.3920139622044
 42
0.4142135623731
 10
-707.5945884601483
 20
904.8920139622044
 42
0.4142135623731
 10
-707.0945884601484
 20
904.3920139622044
 42
0.4142135623731
  0
TEXT
  5
58B
330
1F
100
AcDbEntity
  8
C-4
  6
Continuous
 62
     2
370
   211
100
AcDbText
 10
-718.734588698567
 20
672.3918194126438
 30
0.0
 40
30.48
  1
400
 50
90.0
 41
1.083333333333333
  7
ＭＳ ゴシック
100
AcDbText
  0
LINE
  5
58C
330
1F
100
AcDbEntity
  8
C-4
  6
Continuous
 62
     7
370
     9
100
AcDbLine
 10
-707.0945884601484
 20
904.8920139622044
 30
0.0
 11
-707.0945884601484
 21
929.8918918918918
 31
0.0
  0
LWPOLYLINE
  5
58D
330
1F
100
AcDbEntity
  8
C-4
  6
Continuous
 62
     7
370
     9
100
AcDbPolyline
 90
        4
 70
     1
 43
1.0
 10
-706.5945884601484
 20
929.8918918918918
 42
0.4142135623731
 10
-707.0945884601484
 20
930.3918918918918
 42
0.4142135623731
 10
-707.5945884601483
 20
929.8918918918918
 42
0.4142135623731
 10
-707.0945884601484
 20
929.3918918918918
 42
0.4142135623731
  0
LINE
  5
58E
330
1F
100
AcDbEntity
  8
C-4
  6
Continuous
 62
     7
370
     9
100
AcDbLine
 10
-765.0938561574832
 20
478.8914074253391
 30
0.0
 11
-655.0945274249925
 21
478.8914074253391
 31
0.0
  0
LINE
  5
58F
330
1F
100
AcDbEntity
  8
C-4
  6
Continuous
 62
     7
370
     9
100
AcDbLine
 10
-765.0938561574832
 20
479.8917583774875
 30
0.0
 11
-655.0945274249925
 21
479.8917583774875
 31
0.0
  0
LINE
  5
590
330
1F
100
AcDbEntity
  8
C-4
  6
Continuous
 62
     7
370
     9
100
AcDbLine
 10
-765.0938561574832
 20
929.8918918918918
 30
0.0
 11
-655.0945274249925
 21
929.8918918918918
 31
0.0
  0
LINE
  5
591
330
1F
100
AcDbEntity
  8
C-4
  6
Continuous
 62
     7
370
     9
100
AcDbLine
 10
-765.0938561574832
 20
930.8917087864231
 30
0.0
 11
-655.0945274249925
 21
930.8917087864231
 31
0.0
  0
LINE
  5
592
330
1F
100
AcDbEntity
  8
C-4
  6
Continuous
 62
     7
370
     9
100
AcDbLine
 10
-710.0945885793577
 20
504.8916248630832
 30
0.0
 11
-655.0945274249925
 21
504.8916248630832
 31
0.0
  0
LINE
  5
593
330
1F
100
AcDbEntity
  8
C-4
  6
Continuous
 62
     7
370
     9
100
AcDbLine
 10
-710.0945885793577
 20
904.8920139622044
 30
0.0
 11
-655.0945274249925
 21
904.8920139622044
 31
0.0
  0
TEXT
  5
594
330
1F
100
AcDbEntity
  8
C-4
  6
Continuous
 62
     2
370
   211
100
AcDbText
 10
-718.734588698567
 20
491.1416916202853
 30
0.0
 40
30.48
  1
25
 50
90.0
 41
1.0625
  7
ＭＳ ゴシック
100
AcDbText
  0
TEXT
  5
595
330
1F
100
AcDbEntity
  8
C-4
  6
Continuous
 62
     2
370
   211
100
AcDbText
 10
-773.7338562766924
 20
489.3915829014134
 30
0.0
 40
30.48
  1
1
 50
90.0
 41
0.9999999999999998
  7
ＭＳ ゴシック
100
AcDbText
  0
TEXT
  5
596
330
1F
100
AcDbEntity
  8
C-4
  6
Continuous
 62
     2
370
   211
100
AcDbText
 10
-718.734588698567
 20
876.1419529270481
 30
0.0
 40
30.48
  1
25
 50
90.0
 41
1.0625
  7
ＭＳ ゴシック
100
AcDbText
  0
TEXT
  5
597
330
1F
100
AcDbEntity
  8
C-4
  6
Continuous
 62
     2
370
   211
100
AcDbText
 10
-773.7338562766924
 20
900.3918003391574
 30
0.0
 40
30.48
  1
1
 50
90.0
 41
0.9999999999999998
  7
ＭＳ ゴシック
100
AcDbText
  0
LWPOLYLINE
  5
598
330
1F
100
AcDbEntity
  8
C-4
  6
Continuous
 62
     7
370
     9
100
AcDbPolyline
 90
        4
 70
     1
 43
1.0
 10
-816.5938560382739
 20
473.8914074253391
 42
0.4142135623731
 10
-817.0938560382739
 20
474.3914074253391
 42
0.4142135623731
 10
-817.5938560382738
 20
473.8914074253391
 42
0.4142135623731
 10
-817.0938560382739
 20
473.3914074253391
 42
0.4142135623731
  0
LWPOLYLINE
  5
599
330
1F
100
AcDbEntity
  8
C-4
  6
Continuous
 62
     7
370
     9
100
AcDbPolyline
 90
        4
 70
     1
 43
1.0
 10
-761.5938560382739
 20
473.8914074253391
 42
0.4142135623731
 10
-762.0938560382739
 20
474.3914074253391
 42
0.4142135623731
 10
-762.5938560382738
 20
473.8914074253391
 42
0.4142135623731
 10
-762.0938560382739
 20
473.3914074253391
 42
0.4142135623731
  0
LINE
  5
59A
330
1F
100
AcDbEntity
  8
C-4
  6
Continuous
 62
     7
370
     9
100
AcDbLine
 10
-820.0938561574832
 20
473.8914074253391
 30
0.0
 11
-655.0945274249925
 21
473.8914074253391
 31
0.0
  0
LINE
  5
59B
330
1F
100
AcDbEntity
  8
C-4
  6
Continuous
 62
     7
370
     9
100
AcDbLine
 10
-762.0938560382739
 20
473.8914074253391
 30
0.0
 11
-762.0938560382739
 21
423.8914074253391
 31
0.0
  0
LWPOLYLINE
  5
59C
330
1F
100
AcDbEntity
  8
C-4
  6
Continuous
 62
     7
370
     9
100
AcDbPolyline
 90
        4
 70
     1
 43
1.0
 10
-816.5938560382739
 20
935.8917087864231
 42
0.4142135623731
 10
-817.0938560382739
 20
936.391708786423
 42
0.4142135623731
 10
-817.5938560382738
 20
935.8917087864231
 42
0.4142135623731
 10
-817.0938560382739
 20
935.3917087864231
 42
0.4142135623731
  0
LWPOLYLINE
  5
59D
330
1F
100
AcDbEntity
  8
C-4
  6
Continuous
 62
     7
370
     9
100
AcDbPolyline
 90
        4
 70
     1
 43
1.0
 10
-761.5938560382739
 20
935.8917087864231
 42
0.4142135623731
 10
-762.0938560382739
 20
936.391708786423
 42
0.4142135623731
 10
-762.5938560382738
 20
935.8917087864231
 42
0.4142135623731
 10
-762.0938560382739
 20
935.3917087864231
 42
0.4142135623731
  0
LINE
  5
59E
330
1F
100
AcDbEntity
  8
C-4
  6
Continuous
 62
     7
370
     9
100
AcDbLine
 10
-820.0938561574832
 20
935.8917087864231
 30
0.0
 11
-655.0945274249925
 21
935.8917087864231
 31
0.0
  0
LINE
  5
59F
330
1F
100
AcDbEntity
  8
C-4
  6
Continuous
 62
     7
370
     9
100
AcDbLine
 10
-762.0938560382739
 20
935.8917087864231
 30
0.0
 11
-762.0938560382739
 21
985.8917087864231
 31
0.0
  0
LINE
  5
5A0
330
1F
100
AcDbEntity
  8
C-4
  6
Continuous
 62
     7
370
     9
100
AcDbLine
 10
-762.0938560382739
 20
473.8914074253391
 30
0.0
 11
-762.0938560382739
 21
478.8914074253391
 31
0.0
  0
TEXT
  5
5A1
330
1F
100
AcDbEntity
  8
C-4
  6
Continuous
 62
     2
370
   211
100
AcDbText
 10
-773.7338562766924
 20
437.3913997959447
 30
0.0
 40
30.48
  1
5
 50
90.0
 41
0.9999999999999998
  7
ＭＳ ゴシック
100
AcDbText
  0
LINE
  5
5A2
330
1F
100
AcDbEntity
  8
C-4
  6
Continuous
 62
     7
370
     9
100
AcDbLine
 10
-817.0938560382739
 20
473.8914074253391
 30
0.0
 11
-817.0938560382739
 21
935.8917087864231
 31
0.0
  0
TEXT
  5
5A3
330
1F
100
AcDbEntity
  8
C-4
  6
Continuous
 62
     2
370
   211
100
AcDbText
 10
-828.7338562766924
 20
672.391558105881
 30
0.0
 40
30.48
  1
462
 50
90.0
 41
1.083333333333333
  7
ＭＳ ゴシック
100
AcDbText
  0
LINE
  5
5A4
330
1F
100
AcDbEntity
  8
C-4
  6
Continuous
 62
     7
370
     9
100
AcDbLine
 10
-762.0938560382739
 20
930.8917087864231
 30
0.0
 11
-762.0938560382739
 21
935.8917087864231
 31
0.0
  0
TEXT
  5
5A5
330
1F
100
AcDbEntity
  8
C-4
  6
Continuous
 62
     2
370
   211
100
AcDbText
 10
-773.7338562766924
 20
952.3917087864231
 30
0.0
 40
30.48
  1
5
 50
90.0
 41
0.9999999999999998
  7
ＭＳ ゴシック
100
AcDbText
  0
LINE
  5
5A6
330
1F
100
AcDbEntity
  8
D-5
  6
Continuous
 62
     7
370
     9
100
AcDbLine
 10
-331.896329958341
 20
-89.43568285547713
 30
0.0
 11
528.7314679500643
 21
-89.43568285547713
 31
0.0
  0
TEXT
  5
5A7
330
1F
100
AcDbEntity
  8
D-5
  6
Continuous
 62
     7
370
     9
100
AcDbText
 10
-331.8963327213824
 20
-77.27866564356397
 30
0.0
 40
22.86
  1
グレーチング（すきま9mm）ＤＱ－２０（h=20）
 50
0.0000374256994594
 41
1.158914728682171
  7
ＭＳ ゴシック
100
AcDbText
  0
TEXT
  5
5A8
330
1F
100
AcDbEntity
  8
D-5
  6
Continuous
 62
     7
370
     9
100
AcDbText
 10
-331.896329958341
 20
-44.57370195948103
 30
0.0
 40
22.86
  1
ステンレス製　細目ノンスリップタイプ（デルタ模様）
 41
1.16
  7
ＭＳ ゴシック
100
AcDbText
  0
LINE
  5
5A9
330
1F
100
AcDbEntity
  8
D-5
  6
Continuous
 62
     2
370
     9
100
AcDbLine
 10
543.2531961222287
 20
-306.953799212396
 30
0.0
 11
318.2539384416967
 21
-306.953799212396
 31
0.0
  0
LINE
  5
5AA
330
1F
100
AcDbEntity
  8
D-5
  6
Continuous
 62
     2
370
     9
100
AcDbLine
 10
318.2539384416967
 20
-256.9535105326029
 30
0.0
 11
543.2531961222287
 21
-256.9535105326029
 31
0.0
  0
LINE
  5
5AB
330
1F
100
AcDbEntity
  8
D-5
  6
Continuous
 62
     2
370
     9
100
AcDbLine
 10
318.2539384416967
 20
-306.953799212396
 30
0.0
 11
318.2539384416967
 21
-256.9535105326029
 31
0.0
  0
TEXT
  5
5AC
330
1F
100
AcDbEntity
  8
D-5
  6
Continuous
 62
     2
370
     9
100
AcDbText
 10
420.3437265177365
 20
-359.234104747996
 30
0.0
 40
30.48
  1
ステンレス製　細目ノンスリップタイプ（デルタ模様）
 41
1.119999999999999
  7
ＭＳ ゴシック
100
AcDbText
  0
LINE
  5
5AD
330
1F
100
AcDbEntity
  8
D-5
  6
Continuous
 62
     2
370
     9
100
AcDbLine
 10
543.2531961222287
 20
-256.9535105326029
 30
0.0
 11
543.2531961222287
 21
-306.953799212396
 31
0.0
  0
TEXT
  5
5AE
330
1F
100
AcDbEntity
  8
D-5
  6
Continuous
 62
     2
370
     9
100
AcDbText
 10
365.7534435620514
 20
-296.3135352765852
 30
0.0
 40
30.48
  1
仕　様
 41
1.083333333333333
  7
ＭＳ ゴシック
100
AcDbText
  0
TEXT
  5
5AF
330
1F
100
AcDbEntity
  8
F-4ﾚｲﾔ
  6
Continuous
 62
     2
370
     9
100
AcDbText
 10
-767.3313624353841
 20
-1329.432522372265
 30
0.0
 40
30.48
  1
ステンレス製　細目ノンスリップタイプ（デルタ模様）
 41
0.7739999999999999
  7
ＭＳ ゴシック
100
AcDbText
  0
TEXT
  5
5B0
330
1F
100
AcDbEntity
  8
D-5
  6
Continuous
 62
     2
370
     9
100
AcDbText
 10
420.3437268974122
 20
-424.2335993006082
 30
0.0
 40
30.48
  1
グレーチング（すきま9mm）ＤＱ－２０　４５０×４５０×２０
 50
359.999996142952
 41
1.120614035087719
  7
ＭＳ ゴシック
100
AcDbText
  0
TEXT
  5
5B1
330
1F
100
AcDbEntity
  8
F-4ﾚｲﾔ
  6
Continuous
 62
     2
370
     9
100
AcDbText
 10
-767.3313624353843
 20
-1371.63542092299
 30
0.0
 40
30.48
  1
グレーチング（すきま9mm）ＤＱ－２０　４５０×４５０×２０＋ＳＦ２０Ｂ（四方枠）
 41
0.6999999999999998
  7
ＭＳ ゴシック
100
AcDbText
  0
ENDSEC
  0
SECTION
  2
OBJECTS
  0
DICTIONARY
  5
C
330
0
100
AcDbDictionary
281
     1
  3
ACAD_GROUP
350
D
  3
ACAD_LAYOUT
350
1A
  3
ACAD_MLEADERSTYLE
350
5B3
  3
ACAD_MLINESTYLE
350
17
  3
ACAD_PLOTSETTINGS
350
19
  3
ACAD_PLOTSTYLENAME
350
E
  3
ACAD_TABLESTYLE
350
5B2
  3
ACAD_VISUALSTYLE
350
2A
  0
DICTIONARY
  5
D
102
{ACAD_REACTORS
330
C
102
}
330
C
100
AcDbDictionary
281
     1
  0
DICTIONARY
  5
1A
102
{ACAD_REACTORS
330
C
102
}
330
C
100
AcDbDictionary
281
     1
  3
Layout1
350
1E
  3
Layout2
350
26
  3
Model
350
22
  0
DICTIONARY
  5
5B3
102
{ACAD_REACTORS
330
C
102
}
330
C
100
AcDbDictionary
281
     1
  0
DICTIONARY
  5
17
102
{ACAD_REACTORS
330
C
102
}
330
C
100
AcDbDictionary
281
     1
  3
Standard
350
18
  0
DICTIONARY
  5
19
102
{ACAD_REACTORS
330
C
102
}
330
C
100
AcDbDictionary
281
     1
  0
ACDBDICTIONARYWDFLT
  5
E
102
{ACAD_REACTORS
330
C
102
}
330
C
100
AcDbDictionary
281
     1
  3
Normal
350
F
100
AcDbDictionaryWithDefault
340
F
  0
DICTIONARY
  5
5B2
102
{ACAD_REACTORS
330
C
102
}
330
C
100
AcDbDictionary
281
     1
  0
DICTIONARY
  5
2A
102
{ACAD_REACTORS
330
C
102
}
330
C
100
AcDbDictionary
281
     1
  3
2dWireframe
350
2F
  3
3D Hidden
350
31
  3
3dWireframe
350
30
  3
Basic
350
32
  3
Brighten
350
36
  3
ColorChange
350
3A
  3
Conceptual
350
34
  3
Dim
350
35
  3
Facepattern
350
39
  3
Flat
350
2B
  3
FlatWithEdges
350
2C
  3
Gouraud
350
2D
  3
GouraudWithEdges
350
2E
  3
Linepattern
350
38
  3
Realistic
350
33
  3
Thicken
350
37
  0
LAYOUT
  5
1E
102
{ACAD_REACTORS
330
1A
102
}
330
1A
100
AcDbPlotSettings
  1

  2
none_device
  4

  6

 40
0.0
 41
0.0
 42
0.0
 43
0.0
 44
0.0
 45
0.0
 46
0.0
 47
0.0
 48
0.0
 49
0.0
140
0.0
141
0.0
142
1.0
143
1.0
 70
   688
 72
     0
 73
     0
 74
     5
  7

 75
    16
 76
     0
 77
     5
 78
   300
147
1.0
148
0.0
149
0.0
100
AcDbLayout
  1
Layout1
 70
     1
 71
     1
 10
0.0
 20
0.0
 11
420.0
 21
297.0
 12
0.0
 22
0.0
 32
0.0
 14
1.000000000000000E+20
 24
1.000000000000000E+20
 34
1.000000000000000E+20
 15
-1.000000000000000E+20
 25
-1.000000000000000E+20
 35
-1.000000000000000E+20
146
0.0
 13
0.0
 23
0.0
 33
0.0
 16
1.0
 26
0.0
 36
0.0
 17
0.0
 27
1.0
 37
0.0
 76
     0
330
1B
  0
LAYOUT
  5
26
102
{ACAD_REACTORS
330
1A
102
}
330
1A
100
AcDbPlotSettings
  1

  2
none_device
  4

  6

 40
0.0
 41
0.0
 42
0.0
 43
0.0
 44
0.0
 45
0.0
 46
0.0
 47
0.0
 48
0.0
 49
0.0
140
0.0
141
0.0
142
1.0
143
1.0
 70
   688
 72
     0
 73
     0
 74
     5
  7

 75
    16
 76
     0
 77
     5
 78
   300
147
1.0
148
0.0
149
0.0
100
AcDbLayout
  1
Layout2
 70
     1
 71
     2
 10
0.0
 20
0.0
 11
0.0
 21
0.0
 12
0.0
 22
0.0
 32
0.0
 14
0.0
 24
0.0
 34
0.0
 15
0.0
 25
0.0
 35
0.0
146
0.0
 13
0.0
 23
0.0
 33
0.0
 16
1.0
 26
0.0
 36
0.0
 17
0.0
 27
1.0
 37
0.0
 76
     0
330
23
  0
LAYOUT
  5
22
102
{ACAD_REACTORS
330
1A
102
}
330
1A
100
AcDbPlotSettings
  1

  2
none_device
  4

  6

 40
0.0
 41
0.0
 42
0.0
 43
0.0
 44
0.0
 45
0.0
 46
0.0
 47
0.0
 48
0.0
 49
0.0
140
0.0
141
0.0
142
1.0
143
1.0
 70
  1712
 72
     0
 73
     0
 74
     0
  7

 75
     0
 76
     0
 77
     5
 78
   300
147
1.0
148
0.0
149
0.0
100
AcDbLayout
  1
Model
 70
     1
 71
     0
 10
-2100.0
 20
-1485.0
 11
2100.0
 21
1485.0
 12
0.0
 22
0.0
 32
0.0
 14
-2100.0
 24
-1485.0
 34
0.0
 15
2100.0
 25
1485.0
 35
0.0
146
0.0
 13
0.0
 23
0.0
 33
0.0
 16
1.0
 26
0.0
 36
0.0
 17
0.0
 27
1.0
 37
0.0
 76
     0
330
1F
331
29
  0
MLINESTYLE
  5
18
102
{ACAD_REACTORS
330
17
102
}
330
17
100
AcDbMlineStyle
  2
Standard
 70
     0
  3

 62
   256
 51
90.0
 52
90.0
 71
     2
 49
0.5
 62
   256
  6
BYLAYER
 49
-0.5
 62
   256
  6
BYLAYER
  0
ACDBPLACEHOLDER
  5
F
102
{ACAD_REACTORS
330
E
102
}
330
E
  0
VISUALSTYLE
  5
2F
102
{ACAD_REACTORS
330
2A
102
}
330
2A
100
AcDbVisualStyle
  2
2dWireframe
 70
     4
 71
     0
 72
     2
 73
     0
 90
        0
 40
-0.6
 41
-30.0
 62
     5
 63
     7
421
 16777215
 74
     1
 91
        4
 64
     7
 65
   257
 75
     1
175
     1
 42
1.0
 92
        0
 66
   257
 43
1.0
 76
     1
 77
     6
 78
     2
 67
     7
 79
     5
170
     0
171
     0
290
     0
174
     0
 93
        1
 44
0.0
173
     0
291
     0
 45
0.0
1001
ACAD
1000
AcDbSavedByObjectVersion
1070
     0
  0
VISUALSTYLE
  5
31
102
{ACAD_REACTORS
330
2A
102
}
330
2A
100
AcDbVisualStyle
  2
3D Hidden
 70
     6
 71
     1
 72
     2
 73
     2
 90
        0
 40
-0.6
 41
-30.0
 62
     5
 63
     7
421
 16777215
 74
     2
 91
        2
 64
     7
 65
   257
 75
     2
175
     1
 42
40.0
 92
        0
 66
   257
 43
1.0
 76
     1
 77
     6
 78
     2
 67
     7
 79
     3
170
     0
171
     0
290
     0
174
     0
 93
        1
 44
0.0
173
     0
291
     0
 45
0.0
1001
ACAD
1000
AcDbSavedByObjectVersion
1070
     0
  0
VISUALSTYLE
  5
30
102
{ACAD_REACTORS
330
2A
102
}
330
2A
100
AcDbVisualStyle
  2
3dWireframe
 70
     5
 71
     0
 72
     2
 73
     0
 90
        0
 40
-0.6
 41
-30.0
 62
     5
 63
     7
421
 16777215
 74
     1
 91
        4
 64
     7
 65
   257
 75
     1
175
     1
 42
1.0
 92
        0
 66
   257
 43
1.0
 76
     1
 77
     6
 78
     2
 67
     7
 79
     5
170
     0
171
     0
290
     0
174
     0
 93
        1
 44
0.0
173
     0
291
     0
 45
0.0
1001
ACAD
1000
AcDbSavedByObjectVersion
1070
     0
  0
VISUALSTYLE
  5
32
102
{ACAD_REACTORS
330
2A
102
}
330
2A
100
AcDbVisualStyle
  2
Basic
 70
     7
 71
     1
 72
     0
 73
     1
 90
        0
 40
-0.6
 41
-30.0
 62
     5
 63
     7
421
 16777215
 74
     0
 91
        4
 64
     7
 65
   257
 75
     1
175
     1
 42
1.0
 92
        8
 66
     7
 43
1.0
 76
     1
 77
     6
 78
     2
 67
     7
 79
     5
170
     0
171
     0
290
     0
174
     0
 93
        1
 44
0.0
173
     0
291
     1
 45
0.0
1001
ACAD
1000
AcDbSavedByObjectVersion
1070
     0
  0
VISUALSTYLE
  5
36
102
{ACAD_REACTORS
330
2A
102
}
330
2A
100
AcDbVisualStyle
  2
Brighten
 70
    12
 71
     2
 72
     2
 73
     0
 90
        0
 40
-0.6
 41
-30.0
 62
     5
 63
     7
421
 16777215
 74
     1
 91
        4
 64
     7
 65
   257
 75
     1
175
     1
 42
1.0
 92
        8
 66
     7
 43
1.0
 76
     1
 77
     6
 78
     2
 67
     7
 79
     5
170
     0
171
     0
290
     0
174
     0
 93
        1
 44
50.0
173
     0
291
     1
 45
0.0
1001
ACAD
1000
AcDbSavedByObjectVersion
1070
     0
  0
VISUALSTYLE
  5
3A
102
{ACAD_REACTORS
330
2A
102
}
330
2A
100
AcDbVisualStyle
  2
ColorChange
 70
    16
 71
     2
 72
     2
 73
     3
 90
        0
 40
-0.6
 41
-30.0
 62
     5
 63
     8
421
  8421504
 74
     1
 91
        4
 64
     7
 65
   257
 75
     1
175
     1
 42
1.0
 92
        8
 66
     8
424
  8421504
 43
1.0
 76
     1
 77
     6
 78
     2
 67
     7
 79
     5
170
     0
171
     0
290
     0
174
     0
 93
        1
 44
0.0
173
     0
291
     1
 45
0.0
1001
ACAD
1000
AcDbSavedByObjectVersion
1070
     0
  0
VISUALSTYLE
  5
34
102
{ACAD_REACTORS
330
2A
102
}
330
2A
100
AcDbVisualStyle
  2
Conceptual
 70
     9
 71
     3
 72
     2
 73
     0
 90
        0
 40
-0.6
 41
-30.0
 62
     5
 63
     7
421
 16777215
 74
     2
 91
        2
 64
     7
 65
   257
 75
     1
175
     1
 42
40.0
 92
        8
 66
     7
 43
1.0
 76
     1
 77
     6
 78
     2
 67
     7
 79
     3
170
     0
171
     0
290
     0
174
     0
 93
        1
 44
0.0
173
     0
291
     0
 45
0.0
1001
ACAD
1000
AcDbSavedByObjectVersion
1070
     0
  0
VISUALSTYLE
  5
35
102
{ACAD_REACTORS
330
2A
102
}
330
2A
100
AcDbVisualStyle
  2
Dim
 70
    11
 71
     2
 72
     2
 73
     0
 90
        0
 40
-0.6
 41
-30.0
 62
     5
 63
     7
421
 16777215
 74
     1
 91
        4
 64
     7
 65
   257
 75
     1
175
     1
 42
1.0
 92
        8
 66
     7
 43
1.0
 76
     1
 77
     6
 78
     2
 67
     7
 79
     5
170
     0
171
     0
290
     0
174
     0
 93
        1
 44
-50.0
173
     0
291
     1
 45
0.0
1001
ACAD
1000
AcDbSavedByObjectVersion
1070
     0
  0
VISUALSTYLE
  5
39
102
{ACAD_REACTORS
330
2A
102
}
330
2A
100
AcDbVisualStyle
  2
Facepattern
 70
    15
 71
     2
 72
     2
 73
     0
 90
        0
 40
-0.6
 41
-30.0
 62
     5
 63
     7
421
 16777215
 74
     1
 91
        4
 64
     7
 65
   257
 75
     1
175
     1
 42
1.0
 92
        8
 66
     7
 43
1.0
 76
     1
 77
     6
 78
     2
 67
     7
 79
     5
170
     0
171
     0
290
     0
174
     0
 93
        1
 44
0.0
173
     0
291
     1
 45
0.0
1001
ACAD
1000
AcDbSavedByObjectVersion
1070
     0
  0
VISUALSTYLE
  5
2B
102
{ACAD_REACTORS
330
2A
102
}
330
2A
100
AcDbVisualStyle
  2
Flat
 70
     0
 71
     2
 72
     1
 73
     1
 90
        2
 40
-0.6
 41
30.0
 62
     5
 63
     7
421
 16777215
 74
     0
 91
        4
 64
     7
 65
   257
 75
     1
175
     1
 42
1.0
 92
        8
 66
     7
 43
1.0
 76
     1
 77
     6
 78
     2
 67
     7
 79
     5
170
     0
171
     0
290
     0
174
     0
 93
       13
 44
0.0
173
     0
291
     1
 45
0.0
1001
ACAD
1000
AcDbSavedByObjectVersion
1070
     0
  0
VISUALSTYLE
  5
2C
102
{ACAD_REACTORS
330
2A
102
}
330
2A
100
AcDbVisualStyle
  2
FlatWithEdges
 70
     1
 71
     2
 72
     1
 73
     1
 90
        2
 40
-0.6
 41
30.0
 62
     5
 63
     7
421
 16777215
 74
     1
 91
        4
 64
     7
 65
   257
 75
     1
175
     1
 42
1.0
 92
        0
 66
   257
 43
1.0
 76
     1
 77
     6
 78
     2
 67
     7
 79
     5
170
     0
171
     0
290
     0
174
     0
 93
       13
 44
0.0
173
     0
291
     1
 45
0.0
1001
ACAD
1000
AcDbSavedByObjectVersion
1070
     0
  0
VISUALSTYLE
  5
2D
102
{ACAD_REACTORS
330
2A
102
}
330
2A
100
AcDbVisualStyle
  2
Gouraud
 70
     2
 71
     2
 72
     2
 73
     1
 90
        2
 40
-0.6
 41
30.0
 62
     5
 63
     7
421
 16777215
 74
     0
 91
        4
 64
     7
 65
   257
 75
     1
175
     1
 42
1.0
 92
        0
 66
     7
 43
1.0
 76
     1
 77
     6
 78
     2
 67
     7
 79
     5
170
     0
171
     0
290
     0
174
     0
 93
       13
 44
0.0
173
     0
291
     1
 45
0.0
1001
ACAD
1000
AcDbSavedByObjectVersion
1070
     0
  0
VISUALSTYLE
  5
2E
102
{ACAD_REACTORS
330
2A
102
}
330
2A
100
AcDbVisualStyle
  2
GouraudWithEdges
 70
     3
 71
     2
 72
     2
 73
     1
 90
        2
 40
-0.6
 41
30.0
 62
     5
 63
     7
421
 16777215
 74
     1
 91
        4
 64
     7
 65
   257
 75
     1
175
     1
 42
1.0
 92
        0
 66
   257
 43
1.0
 76
     1
 77
     6
 78
     2
 67
     7
 79
     5
170
     0
171
     0
290
     0
174
     0
 93
       13
 44
0.0
173
     0
291
     1
 45
0.0
1001
ACAD
1000
AcDbSavedByObjectVersion
1070
     0
  0
VISUALSTYLE
  5
38
102
{ACAD_REACTORS
330
2A
102
}
330
2A
100
AcDbVisualStyle
  2
Linepattern
 70
    14
 71
     2
 72
     2
 73
     0
 90
        0
 40
-0.6
 41
-30.0
 62
     5
 63
     7
421
 16777215
 74
     1
 91
        4
 64
     7
 65
   257
 75
     7
175
     7
 42
1.0
 92
        8
 66
     7
 43
1.0
 76
     1
 77
     6
 78
     2
 67
     7
 79
     5
170
     0
171
     0
290
     0
174
     0
 93
        1
 44
0.0
173
     0
291
     1
 45
0.0
1001
ACAD
1000
AcDbSavedByObjectVersion
1070
     0
  0
VISUALSTYLE
  5
33
102
{ACAD_REACTORS
330
2A
102
}
330
2A
100
AcDbVisualStyle
  2
Realistic
 70
     8
 71
     2
 72
     2
 73
     0
 90
        0
 40
-0.6
 41
-30.0
 62
     5
 63
     7
421
 16777215
 74
     1
 91
        0
 64
     7
 65
   257
 75
     1
175
     1
 42
1.0
 92
        8
 66
     8
424
  7895160
 43
1.0
 76
     1
 77
     6
 78
     2
 67
     7
 79
     5
170
     0
171
     0
290
     0
174
     0
 93
       13
 44
0.0
173
     0
291
     0
 45
0.0
1001
ACAD
1000
AcDbSavedByObjectVersion
1070
     0
  0
VISUALSTYLE
  5
37
102
{ACAD_REACTORS
330
2A
102
}
330
2A
100
AcDbVisualStyle
  2
Thicken
 70
    13
 71
     2
 72
     2
 73
     0
 90
        0
 40
-0.6
 41
-30.0
 62
     5
 63
     7
421
 16777215
 74
     1
 91
        4
 64
     7
 65
   257
 75
     1
175
     1
 42
1.0
 92
       12
 66
     7
 43
1.0
 76
     1
 77
     6
 78
     2
 67
     7
 79
     5
170
     0
171
     0
290
     0
174
     0
 93
        1
 44
0.0
173
     0
291
     1
 45
0.0
1001
ACAD
1000
AcDbSavedByObjectVersion
1070
     0
  0
ENDSEC
  0
EOF
