  0
SECTION
  2
HEADER
  9
$ACADVER
  1
AC1021
  9
$ACADMAINTVER
 70
    25
  9
$DWGCODEPAGE
  3
ANSI_932
  9
$INSBASE
 10
0.0
 20
0.0
 30
0.0
  9
$EXTMIN
 10
-2100.0
 20
-1485.0
 30
0.0
  9
$EXTMAX
 10
2100.0
 20
1485.0
 30
0.0
  9
$LIMMIN
 10
-2100.0
 20
-1485.0
  9
$LIMMAX
 10
2100.0
 20
1485.0
  9
$ORTHOMODE
 70
     0
  9
$REGENMODE
 70
     1
  9
$FILLMODE
 70
     1
  9
$QTEXTMODE
 70
     0
  9
$MIRRTEXT
 70
     1
  9
$LTSCALE
 40
10.0
  9
$ATTMODE
 70
     1
  9
$TEXTSIZE
 40
2.5
  9
$TRACEWID
 40
1.0
  9
$TEXTSTYLE
  7
Standard
  9
$CLAYER
  8
0
  9
$CELTYPE
  6
ByLayer
  9
$CECOLOR
 62
   256
  9
$CELTSCALE
 40
1.0
  9
$DISPSILH
 70
     0
  9
$DIMSCALE
 40
1.0
  9
$DIMASZ
 40
2.5
  9
$DIMEXO
 40
0.625
  9
$DIMDLI
 40
3.75
  9
$DIMRND
 40
0.0
  9
$DIMDLE
 40
0.0
  9
$DIMEXE
 40
1.25
  9
$DIMTP
 40
0.0
  9
$DIMTM
 40
0.0
  9
$DIMTXT
 40
2.5
  9
$DIMCEN
 40
2.5
  9
$DIMTSZ
 40
0.0
  9
$DIMTOL
 70
     0
  9
$DIMLIM
 70
     0
  9
$DIMTIH
 70
     0
  9
$DIMTOH
 70
     0
  9
$DIMSE1
 70
     0
  9
$DIMSE2
 70
     0
  9
$DIMTAD
 70
     1
  9
$DIMZIN
 70
     8
  9
$DIMBLK
  1

  9
$DIMASO
 70
     1
  9
$DIMSHO
 70
     1
  9
$DIMPOST
  1

  9
$DIMAPOST
  1

  9
$DIMALT
 70
     0
  9
$DIMALTD
 70
     3
  9
$DIMALTF
 40
0.03937007874016
  9
$DIMLFAC
 40
1.0
  9
$DIMTOFL
 70
     1
  9
$DIMTVP
 40
0.0
  9
$DIMTIX
 70
     0
  9
$DIMSOXD
 70
     0
  9
$DIMSAH
 70
     0
  9
$DIMBLK1
  1

  9
$DIMBLK2
  1

  9
$DIMSTYLE
  2
ISO-25
  9
$DIMCLRD
 70
     0
  9
$DIMCLRE
 70
     0
  9
$DIMCLRT
 70
     0
  9
$DIMTFAC
 40
1.0
  9
$DIMGAP
 40
0.625
  9
$DIMJUST
 70
     0
  9
$DIMSD1
 70
     0
  9
$DIMSD2
 70
     0
  9
$DIMTOLJ
 70
     0
  9
$DIMTZIN
 70
     8
  9
$DIMALTZ
 70
     0
  9
$DIMALTTZ
 70
     0
  9
$DIMUPT
 70
     0
  9
$DIMDEC
 70
     2
  9
$DIMTDEC
 70
     2
  9
$DIMALTU
 70
     2
  9
$DIMALTTD
 70
     3
  9
$DIMTXSTY
  7
Standard
  9
$DIMAUNIT
 70
     0
  9
$DIMADEC
 70
     0
  9
$DIMALTRND
 40
0.0
  9
$DIMAZIN
 70
     0
  9
$DIMDSEP
 70
    44
  9
$DIMATFIT
 70
     3
  9
$DIMFRAC
 70
     0
  9
$DIMLDRBLK
  1

  9
$DIMLUNIT
 70
     2
  9
$DIMLWD
 70
    -2
  9
$DIMLWE
 70
    -2
  9
$DIMTMOVE
 70
     0
  9
$DIMFXL
 40
1.0
  9
$DIMFXLON
 70
     0
  9
$DIMJOGANG
 40
0.7853981633974483
  9
$DIMTFILL
 70
     0
  9
$DIMTFILLCLR
 70
     0
  9
$DIMARCSYM
 70
     0
  9
$DIMLTYPE
  6

  9
$DIMLTEX1
  6

  9
$DIMLTEX2
  6

  9
$LUNITS
 70
     2
  9
$LUPREC
 70
     4
  9
$SKETCHINC
 40
1.0
  9
$FILLETRAD
 40
10.0
  9
$AUNITS
 70
     0
  9
$AUPREC
 70
     0
  9
$MENU
  1
.
  9
$ELEVATION
 40
0.0
  9
$PELEVATION
 40
0.0
  9
$THICKNESS
 40
0.0
  9
$LIMCHECK
 70
     0
  9
$CHAMFERA
 40
10.0
  9
$CHAMFERB
 40
10.0
  9
$CHAMFERC
 40
20.0
  9
$CHAMFERD
 40
0.0
  9
$SKPOLY
 70
     0
  9
$TDCREATE
 40
2458635.431133472
  9
$TDUCREATE
 40
2458635.056133472
  9
$TDUPDATE
 40
2458635.431133484
  9
$TDUUPDATE
 40
2458635.056133484
  9
$TDINDWG
 40
0.0000000116
  9
$TDUSRTIMER
 40
0.0000000116
  9
$USRTIMER
 70
     1
  9
$ANGBASE
 50
0.0
  9
$ANGDIR
 70
     0
  9
$PDMODE
 70
     0
  9
$PDSIZE
 40
0.0
  9
$PLINEWID
 40
0.0
  9
$SPLFRAME
 70
     0
  9
$SPLINETYPE
 70
     6
  9
$SPLINESEGS
 70
     8
  9
$HANDSEED
  5
613
  9
$SURFTAB1
 70
     6
  9
$SURFTAB2
 70
     6
  9
$SURFTYPE
 70
     6
  9
$SURFU
 70
     6
  9
$SURFV
 70
     6
  9
$UCSBASE
  2

  9
$UCSNAME
  2

  9
$UCSORG
 10
0.0
 20
0.0
 30
0.0
  9
$UCSXDIR
 10
1.0
 20
0.0
 30
0.0
  9
$UCSYDIR
 10
0.0
 20
1.0
 30
0.0
  9
$UCSORTHOREF
  2

  9
$UCSORTHOVIEW
 70
     0
  9
$UCSORGTOP
 10
0.0
 20
0.0
 30
0.0
  9
$UCSORGBOTTOM
 10
0.0
 20
0.0
 30
0.0
  9
$UCSORGLEFT
 10
0.0
 20
0.0
 30
0.0
  9
$UCSORGRIGHT
 10
0.0
 20
0.0
 30
0.0
  9
$UCSORGFRONT
 10
0.0
 20
0.0
 30
0.0
  9
$UCSORGBACK
 10
0.0
 20
0.0
 30
0.0
  9
$PUCSBASE
  2

  9
$PUCSNAME
  2

  9
$PUCSORG
 10
0.0
 20
0.0
 30
0.0
  9
$PUCSXDIR
 10
1.0
 20
0.0
 30
0.0
  9
$PUCSYDIR
 10
0.0
 20
1.0
 30
0.0
  9
$PUCSORTHOREF
  2

  9
$PUCSORTHOVIEW
 70
     0
  9
$PUCSORGTOP
 10
0.0
 20
0.0
 30
0.0
  9
$PUCSORGBOTTOM
 10
0.0
 20
0.0
 30
0.0
  9
$PUCSORGLEFT
 10
0.0
 20
0.0
 30
0.0
  9
$PUCSORGRIGHT
 10
0.0
 20
0.0
 30
0.0
  9
$PUCSORGFRONT
 10
0.0
 20
0.0
 30
0.0
  9
$PUCSORGBACK
 10
0.0
 20
0.0
 30
0.0
  9
$USERI1
 70
     0
  9
$USERI2
 70
     0
  9
$USERI3
 70
     0
  9
$USERI4
 70
     0
  9
$USERI5
 70
     0
  9
$USERR1
 40
0.0
  9
$USERR2
 40
0.0
  9
$USERR3
 40
0.0
  9
$USERR4
 40
0.0
  9
$USERR5
 40
0.0
  9
$WORLDVIEW
 70
     1
  9
$SHADEDGE
 70
     3
  9
$SHADEDIF
 70
    70
  9
$TILEMODE
 70
     1
  9
$MAXACTVP
 70
    64
  9
$PINSBASE
 10
0.0
 20
0.0
 30
0.0
  9
$PLIMCHECK
 70
     0
  9
$PEXTMIN
 10
1.000000000000000E+20
 20
1.000000000000000E+20
 30
1.000000000000000E+20
  9
$PEXTMAX
 10
-1.000000000000000E+20
 20
-1.000000000000000E+20
 30
-1.000000000000000E+20
  9
$PLIMMIN
 10
0.0
 20
0.0
  9
$PLIMMAX
 10
420.0
 20
297.0
  9
$UNITMODE
 70
     0
  9
$VISRETAIN
 70
     1
  9
$PLINEGEN
 70
     0
  9
$PSLTSCALE
 70
     1
  9
$TREEDEPTH
 70
  3020
  9
$CMLSTYLE
  2
Standard
  9
$CMLJUST
 70
     0
  9
$CMLSCALE
 40
20.0
  9
$PROXYGRAPHICS
 70
     1
  9
$MEASUREMENT
 70
     1
  9
$CELWEIGHT
370
    -1
  9
$ENDCAPS
280
     0
  9
$JOINSTYLE
280
     0
  9
$LWDISPLAY
290
     0
  9
$INSUNITS
 70
     4
  9
$HYPERLINKBASE
  1

  9
$STYLESHEET
  1

  9
$XEDIT
290
     1
  9
$CEPSNTYPE
380
     0
  9
$PSTYLEMODE
290
     1
  9
$FINGERPRINTGUID
  2
{2331A7F5-773C-4EE9-A201-8F6B1EA339E3}
  9
$VERSIONGUID
  2
{FAEB1C32-E019-11D5-929B-00C0DF256EC4}
  9
$EXTNAMES
290
     1
  9
$PSVPSCALE
 40
0.0
  9
$OLESTARTUP
290
     0
  9
$SORTENTS
280
   127
  9
$INDEXCTL
280
     0
  9
$HIDETEXT
280
     1
  9
$XCLIPFRAME
290
     0
  9
$HALOGAP
280
     0
  9
$OBSCOLOR
 70
   257
  9
$OBSLTYPE
280
     0
  9
$INTERSECTIONDISPLAY
280
     0
  9
$INTERSECTIONCOLOR
 70
   257
  9
$DIMASSOC
280
     2
  9
$PROJECTNAME
  1

  9
$CAMERADISPLAY
290
     0
  9
$LENSLENGTH
 40
50.0
  9
$CAMERAHEIGHT
 40
0.0
  9
$STEPSPERSEC
 40
2.0
  9
$STEPSIZE
 40
6.0
  9
$3DDWFPREC
 40
2.0
  9
$PSOLWIDTH
 40
5.0
  9
$PSOLHEIGHT
 40
80.0
  9
$LOFTANG1
 40
1.570796326794897
  9
$LOFTANG2
 40
1.570796326794897
  9
$LOFTMAG1
 40
0.0
  9
$LOFTMAG2
 40
0.0
  9
$LOFTPARAM
 70
     7
  9
$LOFTNORMALS
280
     1
  9
$LATITUDE
 40
37.795
  9
$LONGITUDE
 40
-122.394
  9
$NORTHDIRECTION
 40
0.0
  9
$TIMEZONE
 70
 -8000
  9
$LIGHTGLYPHDISPLAY
280
     1
  9
$TILEMODELIGHTSYNCH
280
     1
  9
$SOLIDHIST
280
     1
  9
$SHOWHIST
280
     1
  9
$DWFFRAME
280
     2
  9
$DGNFRAME
280
     2
  9
$REALWORLDSCALE
290
     1
  9
$INTERFERECOLOR
 62
   256
  9
$CSHADOW
280
     0
  9
$SHADOWPLANELOCATION
 40
0.0
  0
ENDSEC
  0
SECTION
  2
CLASSES
  0
CLASS
  1
ACDBDICTIONARYWDFLT
  2
AcDbDictionaryWithDefault
  3
ObjectDBX Classes
 90
        0
 91
        4
280
     0
281
     0
  0
CLASS
  1
VISUALSTYLE
  2
AcDbVisualStyle
  3
ObjectDBX Classes
 90
     4095
 91
        4
280
     0
281
     0
  0
ENDSEC
  0
SECTION
  2
TABLES
  0
TABLE
  2
VPORT
  5
8
330
0
100
AcDbSymbolTable
 70
     1
  0
VPORT
  5
29
330
8
100
AcDbSymbolTableRecord
100
AcDbViewportTableRecord
  2
*Active
 70
     0
 10
0.0
 20
0.0
 11
1.0
 21
1.0
 12
0.0
 22
0.0
 13
0.0
 23
0.0
 14
10.0
 24
10.0
 15
10.0
 25
10.0
 16
0.0
 26
0.0
 36
1.0
 17
0.0
 27
0.0
 37
0.0
 40
3267.0
 41
1.414141414141414
 42
50.0
 43
0.0
 44
0.0
 50
0.0
 51
0.0
 71
     0
 72
 10000
 73
     1
 74
     3
 75
     0
 76
     0
 77
     0
 78
     0
281
     0
 65
     1
110
0.0
120
0.0
130
0.0
111
1.0
121
0.0
131
0.0
112
0.0
122
1.0
132
0.0
 79
     0
146
0.0
 60
     3
 61
     5
292
     1
282
     1
141
0.0
142
0.0
 63
   256
  0
ENDTAB
  0
TABLE
  2
LTYPE
  5
5
330
0
100
AcDbSymbolTable
 70
     4
  0
LTYPE
  5
14
330
5
100
AcDbSymbolTableRecord
100
AcDbLinetypeTableRecord
  2
ByBlock
 70
     0
  3

 72
    65
 73
     0
 40
0.0
  0
LTYPE
  5
15
330
5
100
AcDbSymbolTableRecord
100
AcDbLinetypeTableRecord
  2
ByLayer
 70
     0
  3

 72
    65
 73
     0
 40
0.0
  0
LTYPE
  5
16
330
5
100
AcDbSymbolTableRecord
100
AcDbLinetypeTableRecord
  2
Continuous
 70
     0
  3
Solid line
 72
    65
 73
     0
 40
0.0
  0
LTYPE
  5
3C
330
5
100
AcDbSymbolTableRecord
100
AcDbLinetypeTableRecord
  2
JWW_DASHED3
 70
     0
  3
---  ------  ------  ------  ---
 72
    65
 73
     2
 40
3.386666666666667
 49
2.54
 74
     0
 49
-0.8466666666666667
 74
     0
  0
LTYPE
  5
3D
330
5
100
AcDbSymbolTableRecord
100
AcDbLinetypeTableRecord
  2
JWW_CENTER1
 70
     0
  3
-----  --  ----------  --  -----
 72
    65
 73
     4
 40
6.773333333333333
 49
4.233333333333333
 74
     0
 49
-0.8466666666666667
 74
     0
 49
0.8466666666666667
 74
     0
 49
-0.8466666666666667
 74
     0
  0
LTYPE
  5
3E
330
5
100
AcDbSymbolTableRecord
100
AcDbLinetypeTableRecord
  2
JWW_CENTER2
 70
     0
  3
-------------  --  -------------
 72
    65
 73
     4
 40
13.54666666666667
 49
11.00666666666667
 74
     0
 49
-0.8466666666666667
 74
     0
 49
0.8466666666666667
 74
     0
 49
-0.8466666666666667
 74
     0
  0
ENDTAB
  0
TABLE
  2
LAYER
  5
2
330
0
100
AcDbSymbolTable
 70
    16
  0
LAYER
  5
10
330
2
100
AcDbSymbolTableRecord
100
AcDbLayerTableRecord
  2
0
 70
     0
 62
     7
  6
Continuous
370
    -3
390
F
347
0
  0
LAYER
  5
3F
330
2
100
AcDbSymbolTableRecord
100
AcDbLayerTableRecord
  2
D-5
 70
     0
 62
     7
  6
Continuous
370
    -1
390
F
347
0
  0
LAYER
  5
40
330
2
100
AcDbSymbolTableRecord
100
AcDbLayerTableRecord
  2
C-2
 70
     0
 62
     7
  6
Continuous
370
    -1
390
F
347
0
  0
LAYER
  5
41
330
2
100
AcDbSymbolTableRecord
100
AcDbLayerTableRecord
  2
C-1
 70
     0
 62
     7
  6
Continuous
370
    -1
390
F
347
0
  0
LAYER
  5
42
330
2
100
AcDbSymbolTableRecord
100
AcDbLayerTableRecord
  2
C-4
 70
     0
 62
     7
  6
Continuous
370
    -1
390
F
347
0
  0
LAYER
  5
43
330
2
100
AcDbSymbolTableRecord
100
AcDbLayerTableRecord
  2
C-5
 70
     0
 62
     7
  6
Continuous
370
    -1
390
F
347
0
  0
LAYER
  5
44
330
2
100
AcDbSymbolTableRecord
100
AcDbLayerTableRecord
  2
C-9
 70
     0
 62
     7
  6
Continuous
370
    -1
390
F
347
0
  0
LAYER
  5
45
330
2
100
AcDbSymbolTableRecord
100
AcDbLayerTableRecord
  2
C-0
 70
     0
 62
     7
  6
Continuous
370
    -1
390
F
347
0
  0
LAYER
  5
46
330
2
100
AcDbSymbolTableRecord
100
AcDbLayerTableRecord
  2
F-4ﾚｲﾔ
 70
     0
 62
     7
  6
Continuous
370
    -1
390
F
347
0
  0
LAYER
  5
47
330
2
100
AcDbSymbolTableRecord
100
AcDbLayerTableRecord
  2
D-9
 70
     0
 62
     7
  6
Continuous
370
    -1
390
F
347
0
  0
LAYER
  5
48
330
2
100
AcDbSymbolTableRecord
100
AcDbLayerTableRecord
  2
D-A
 70
     0
 62
     7
  6
Continuous
370
    -1
390
F
347
0
  0
LAYER
  5
49
330
2
100
AcDbSymbolTableRecord
100
AcDbLayerTableRecord
  2
D-4
 70
     0
 62
     7
  6
Continuous
370
    -1
390
F
347
0
  0
LAYER
  5
4A
330
2
100
AcDbSymbolTableRecord
100
AcDbLayerTableRecord
  2
D-6
 70
     0
 62
     7
  6
Continuous
370
    -1
390
F
347
0
  0
LAYER
  5
4B
330
2
100
AcDbSymbolTableRecord
100
AcDbLayerTableRecord
  2
D-1
 70
     0
 62
     7
  6
Continuous
370
    -1
390
F
347
0
  0
LAYER
  5
4C
330
2
100
AcDbSymbolTableRecord
100
AcDbLayerTableRecord
  2
D-2
 70
     0
 62
     7
  6
Continuous
370
    -1
390
F
347
0
  0
LAYER
  5
4D
330
2
100
AcDbSymbolTableRecord
100
AcDbLayerTableRecord
  2
D-0
 70
     0
 62
     7
  6
Continuous
370
    -1
390
F
347
0
  0
ENDTAB
  0
TABLE
  2
STYLE
  5
3
330
0
100
AcDbSymbolTable
 70
     2
  0
STYLE
  5
11
330
3
100
AcDbSymbolTableRecord
100
AcDbTextStyleTableRecord
  2
Standard
 70
     0
 40
0.0
 41
1.0
 50
0.0
 71
     0
 42
2.5
  3
txt
  4

1001
ACAD
1000

1071
        0
  0
STYLE
  5
3B
330
3
100
AcDbSymbolTableRecord
100
AcDbTextStyleTableRecord
  2
ＭＳ ゴシック
 70
     0
 40
1.0
 41
1.0
 50
0.0
 71
     0
 42
10.0
  3

  4

1001
ACAD
1000
MS Gothic
1071
    32817
  0
ENDTAB
  0
TABLE
  2
VIEW
  5
6
330
0
100
AcDbSymbolTable
 70
     0
  0
ENDTAB
  0
TABLE
  2
UCS
  5
7
330
0
100
AcDbSymbolTable
 70
     0
  0
ENDTAB
  0
TABLE
  2
APPID
  5
9
330
0
100
AcDbSymbolTable
 70
     1
  0
APPID
  5
12
330
9
100
AcDbSymbolTableRecord
100
AcDbRegAppTableRecord
  2
ACAD
 70
     0
  0
ENDTAB
  0
TABLE
  2
DIMSTYLE
  5
A
330
0
100
AcDbSymbolTable
 70
     1
100
AcDbDimStyleTable
  0
DIMSTYLE
105
27
330
A
100
AcDbSymbolTableRecord
100
AcDbDimStyleTableRecord
  2
ISO-25
 70
     0
 41
2.5
 42
0.625
 43
3.75
 44
1.25
 73
     0
 74
     0
 77
     1
 78
     8
140
2.5
141
2.5
143
0.03937007874016
147
0.625
171
     3
172
     1
271
     2
272
     2
274
     3
278
    44
283
     0
284
     8
340
11
  0
ENDTAB
  0
TABLE
  2
BLOCK_RECORD
  5
1
330
0
100
AcDbSymbolTable
 70
     1
  0
BLOCK_RECORD
  5
1F
330
1
100
AcDbSymbolTableRecord
100
AcDbBlockTableRecord
  2
*Model_Space
340
22
 70
     0
280
     1
281
     0
  0
BLOCK_RECORD
  5
1B
330
1
100
AcDbSymbolTableRecord
100
AcDbBlockTableRecord
  2
*Paper_Space
340
1E
 70
     0
280
     1
281
     0
  0
BLOCK_RECORD
  5
23
330
1
100
AcDbSymbolTableRecord
100
AcDbBlockTableRecord
  2
*Paper_Space0
340
26
 70
     0
280
     1
281
     0
  0
ENDTAB
  0
ENDSEC
  0
SECTION
  2
BLOCKS
  0
BLOCK
  5
20
330
1F
100
AcDbEntity
  8
0
100
AcDbBlockBegin
  2
*Model_Space
 70
     0
 10
0.0
 20
0.0
 30
0.0
  3
*Model_Space
  1

  0
ENDBLK
  5
21
330
1F
100
AcDbEntity
  8
0
100
AcDbBlockEnd
  0
BLOCK
  5
1C
330
1B
100
AcDbEntity
 67
     1
  8
0
100
AcDbBlockBegin
  2
*Paper_Space
 70
     0
 10
0.0
 20
0.0
 30
0.0
  3
*Paper_Space
  1

  0
ENDBLK
  5
1D
330
1B
100
AcDbEntity
 67
     1
  8
0
100
AcDbBlockEnd
  0
BLOCK
  5
24
330
23
100
AcDbEntity
  8
0
100
AcDbBlockBegin
  2
*Paper_Space0
 70
     0
 10
0.0
 20
0.0
 30
0.0
  3
*Paper_Space0
  1

  0
ENDBLK
  5
25
330
23
100
AcDbEntity
  8
0
100
AcDbBlockEnd
  0
ENDSEC
  0
SECTION
  2
ENTITIES
  0
LINE
  5
4E
330
1F
100
AcDbEntity
  8
D-5
  6
Continuous
 62
     2
370
     9
100
AcDbLine
 10
472.2397946022656
 20
-278.1088009396115
 30
0.0
 11
247.2392997226203
 21
-278.1088009396115
 31
0.0
  0
LINE
  5
4F
330
1F
100
AcDbEntity
  8
D-5
  6
Continuous
 62
     2
370
     9
100
AcDbLine
 10
472.2397946022656
 20
-228.1085122598184
 30
0.0
 11
472.2397946022656
 21
-278.1088009396115
 31
0.0
  0
LINE
  5
50
330
1F
100
AcDbEntity
  8
D-5
  6
Continuous
 62
     2
370
     9
100
AcDbLine
 10
247.2392997226203
 20
-228.1085122598184
 30
0.0
 11
472.2397946022656
 21
-228.1085122598184
 31
0.0
  0
LINE
  5
51
330
1F
100
AcDbEntity
  8
D-5
  6
Continuous
 62
     2
370
     9
100
AcDbLine
 10
247.2392997226203
 20
-278.1088009396115
 30
0.0
 11
247.2392997226203
 21
-228.1085122598184
 31
0.0
  0
LINE
  5
52
330
1F
100
AcDbEntity
  8
C-2
  6
Continuous
 62
     3
370
     9
100
AcDbLine
 10
-512.4604650445883
 20
496.6226856128591
 30
0.0
 11
-512.4604650445883
 21
846.6222319731842
 31
0.0
  0
LINE
  5
53
330
1F
100
AcDbEntity
  8
C-2
  6
Continuous
 62
     3
370
     9
100
AcDbLine
 10
-512.4604650445883
 20
846.6222319731842
 30
0.0
 11
-162.4607949643519
 21
846.6222319731842
 31
0.0
  0
LINE
  5
54
330
1F
100
AcDbEntity
  8
C-2
  6
Continuous
 62
     3
370
     9
100
AcDbLine
 10
-162.4607949643519
 20
846.6222319731842
 30
0.0
 11
-162.4607949643519
 21
496.6226856128591
 31
0.0
  0
LINE
  5
55
330
1F
100
AcDbEntity
  8
C-2
  6
Continuous
 62
     3
370
     9
100
AcDbLine
 10
-162.4607949643519
 20
496.6226856128591
 30
0.0
 11
-512.4604650445883
 21
496.6226856128591
 31
0.0
  0
LINE
  5
56
330
1F
100
AcDbEntity
  8
C-2
  6
Continuous
 62
     3
370
     9
100
AcDbLine
 10
-509.4598860354031
 20
496.6226856128591
 30
0.0
 11
-509.4598860354031
 21
846.6222319731842
 31
0.0
  0
LINE
  5
57
330
1F
100
AcDbEntity
  8
C-2
  6
Continuous
 62
     3
370
     9
100
AcDbLine
 10
-509.4603809150485
 20
837.6225981841217
 30
0.0
 11
-165.4603842142461
 21
837.6225981841217
 31
0.0
  0
LINE
  5
58
330
1F
100
AcDbEntity
  8
C-2
  6
Continuous
 62
     3
370
     9
100
AcDbLine
 10
-509.4603809150485
 20
832.5728462837839
 30
0.0
 11
-165.4603842142461
 21
832.5728462837839
 31
0.0
  0
LINE
  5
59
330
1F
100
AcDbEntity
  8
C-2
  6
Continuous
 62
     3
370
     9
100
AcDbLine
 10
-509.4603809150485
 20
823.5719752956084
 30
0.0
 11
-165.4603842142461
 21
823.5719752956084
 31
0.0
  0
LINE
  5
5A
330
1F
100
AcDbEntity
  8
C-2
  6
Continuous
 62
     3
370
     9
100
AcDbLine
 10
-509.4603809150485
 20
817.6725150443415
 30
0.0
 11
-165.4603842142461
 21
817.6725150443415
 31
0.0
  0
LINE
  5
5B
330
1F
100
AcDbEntity
  8
C-2
  6
Continuous
 62
     3
370
     9
100
AcDbLine
 10
-509.4603809150485
 20
808.6718914959883
 30
0.0
 11
-165.4603842142461
 21
808.6718914959883
 31
0.0
  0
LINE
  5
5C
330
1F
100
AcDbEntity
  8
C-2
  6
Continuous
 62
     3
370
     9
100
AcDbLine
 10
-509.4603809150485
 20
802.7721838048988
 30
0.0
 11
-165.4603842142461
 21
802.7721838048988
 31
0.0
  0
LINE
  5
5D
330
1F
100
AcDbEntity
  8
C-2
  6
Continuous
 62
     3
370
     9
100
AcDbLine
 10
-509.4603809150485
 20
793.7725500158363
 30
0.0
 11
-165.4603842142461
 21
793.7725500158363
 31
0.0
  0
LINE
  5
5E
330
1F
100
AcDbEntity
  8
C-2
  6
Continuous
 62
     3
370
     9
100
AcDbLine
 10
-509.4603809150485
 20
787.8725948849242
 30
0.0
 11
-165.4603842142461
 21
787.8725948849242
 31
0.0
  0
LINE
  5
5F
330
1F
100
AcDbEntity
  8
C-2
  6
Continuous
 62
     3
370
     9
100
AcDbLine
 10
-509.4603809150485
 20
778.8729610958617
 30
0.0
 11
-165.4603842142461
 21
778.8729610958617
 31
0.0
  0
LINE
  5
60
330
1F
100
AcDbEntity
  8
C-2
  6
Continuous
 62
     3
370
     9
100
AcDbLine
 10
-509.4603809150485
 20
772.9722636454815
 30
0.0
 11
-165.4603842142461
 21
772.9722636454815
 31
0.0
  0
LINE
  5
61
330
1F
100
AcDbEntity
  8
C-2
  6
Continuous
 62
     3
370
     9
100
AcDbLine
 10
-509.4603809150485
 20
763.972629856419
 30
0.0
 11
-165.4603842142461
 21
763.972629856419
 31
0.0
  0
LINE
  5
62
330
1F
100
AcDbEntity
  8
C-2
  6
Continuous
 62
     3
370
     9
100
AcDbLine
 10
-509.4603809150485
 20
758.0721798458617
 30
0.0
 11
-165.4603842142461
 21
758.0721798458617
 31
0.0
  0
LINE
  5
63
330
1F
100
AcDbEntity
  8
C-2
  6
Continuous
 62
     3
370
     9
100
AcDbLine
 10
-509.4603809150485
 20
749.0722986169766
 30
0.0
 11
-165.4603842142461
 21
749.0722986169766
 31
0.0
  0
LINE
  5
64
330
1F
100
AcDbEntity
  8
C-1
  6
JWW_DASHED3
 62
     2
370
     9
100
AcDbLine
 10
-187.4597639650906
 20
821.6228918127113
 30
0.0
 11
-187.4597639650906
 21
521.6220257733321
 31
0.0
  0
LINE
  5
65
330
1F
100
AcDbEntity
  8
C-1
  6
JWW_DASHED3
 62
     2
370
     9
100
AcDbLine
 10
-187.4597639650906
 20
521.6220257733321
 30
0.0
 11
-487.4605062845586
 21
521.6220257733321
 31
0.0
  0
LINE
  5
66
330
1F
100
AcDbEntity
  8
C-1
  6
JWW_DASHED3
 62
     2
370
     9
100
AcDbLine
 10
-487.4605062845586
 20
521.6220257733321
 30
0.0
 11
-487.4605062845586
 21
821.6228918127113
 31
0.0
  0
LINE
  5
67
330
1F
100
AcDbEntity
  8
C-1
  6
JWW_DASHED3
 62
     2
370
     9
100
AcDbLine
 10
-487.4605062845586
 20
821.6228918127113
 30
0.0
 11
-187.4597639650906
 21
821.6228918127113
 31
0.0
  0
LINE
  5
68
330
1F
100
AcDbEntity
  8
C-1
  6
Continuous
 62
     2
370
     9
100
AcDbLine
 10
-161.4600246017039
 20
847.6221362964529
 30
0.0
 11
-161.4600246017039
 21
495.6227812895904
 31
0.0
  0
LINE
  5
69
330
1F
100
AcDbEntity
  8
C-1
  6
Continuous
 62
     2
370
     9
100
AcDbLine
 10
-161.4600246017039
 20
495.6227812895904
 30
0.0
 11
-513.4602456479456
 21
495.6227812895904
 31
0.0
  0
LINE
  5
6A
330
1F
100
AcDbEntity
  8
C-1
  6
Continuous
 62
     2
370
     9
100
AcDbLine
 10
-154.4594571397107
 20
854.6222088788008
 30
0.0
 11
-154.4594571397107
 21
488.6228324271539
 31
0.0
  0
LINE
  5
6B
330
1F
100
AcDbEntity
  8
C-1
  6
Continuous
 62
     2
370
     9
100
AcDbLine
 10
-154.4594571397107
 20
488.6228324271539
 30
0.0
 11
-520.4603182302935
 21
488.6228324271539
 31
0.0
  0
LINE
  5
6C
330
1F
100
AcDbEntity
  8
C-1
  6
Continuous
 62
     2
370
     9
100
AcDbLine
 10
-161.4600246017039
 20
847.6221362964529
 30
0.0
 11
-513.4602456479456
 21
847.6221362964529
 31
0.0
  0
LINE
  5
6D
330
1F
100
AcDbEntity
  8
C-1
  6
Continuous
 62
     2
370
     9
100
AcDbLine
 10
-513.4602456479456
 20
495.6227812895904
 30
0.0
 11
-513.4602456479456
 21
847.6221362964529
 31
0.0
  0
LINE
  5
6E
330
1F
100
AcDbEntity
  8
C-1
  6
Continuous
 62
     2
370
     9
100
AcDbLine
 10
-154.4594571397107
 20
854.6222088788008
 30
0.0
 11
-520.4603182302935
 21
854.6222088788008
 31
0.0
  0
LINE
  5
6F
330
1F
100
AcDbEntity
  8
C-1
  6
Continuous
 62
     2
370
     9
100
AcDbLine
 10
-520.4603182302935
 20
488.6228324271539
 30
0.0
 11
-520.4603182302935
 21
854.6222088788008
 31
0.0
  0
LINE
  5
70
330
1F
100
AcDbEntity
  8
C-4
  6
Continuous
 62
     7
370
     9
100
AcDbLine
 10
-512.4604650445883
 20
981.6221824852198
 30
0.0
 11
-162.4598052050612
 21
981.6221824852198
 31
0.0
  0
LINE
  5
71
330
1F
100
AcDbEntity
  8
C-4
  6
Continuous
 62
     7
370
     9
100
AcDbLine
 10
-512.4604650445883
 20
866.6227928367823
 30
0.0
 11
-512.4604650445883
 21
984.6216480152029
 31
0.0
  0
LINE
  5
72
330
1F
100
AcDbEntity
  8
C-4
  6
Continuous
 62
     7
370
     9
100
AcDbLine
 10
-162.4598052050612
 20
866.6227928367823
 30
0.0
 11
-162.4598052050612
 21
984.6216480152029
 31
0.0
  0
LINE
  5
73
330
1F
100
AcDbEntity
  8
C-4
  6
Continuous
 62
     7
370
     9
100
AcDbLine
 10
-520.4603182302935
 20
1036.621621621622
 30
0.0
 11
-154.4594571397107
 21
1036.621621621622
 31
0.0
  0
LINE
  5
74
330
1F
100
AcDbEntity
  8
C-4
  6
Continuous
 62
     7
370
     9
100
AcDbLine
 10
-154.4594571397107
 20
866.6227928367823
 30
0.0
 11
-154.4594571397107
 21
1039.62158203125
 31
0.0
  0
LINE
  5
75
330
1F
100
AcDbEntity
  8
C-4
  6
Continuous
 62
     7
370
     9
100
AcDbLine
 10
-487.4605062845586
 20
926.6227433488177
 30
0.0
 11
-187.4597639650906
 21
926.6227433488177
 31
0.0
  0
LINE
  5
76
330
1F
100
AcDbEntity
  8
C-4
  6
Continuous
 62
     7
370
     9
100
AcDbLine
 10
-487.4605062845586
 20
866.6227928367823
 30
0.0
 11
-487.4605062845586
 21
929.6222088788008
 31
0.0
  0
LINE
  5
77
330
1F
100
AcDbEntity
  8
C-4
  6
Continuous
 62
     7
370
     9
100
AcDbLine
 10
-187.4597639650906
 20
866.6227928367823
 30
0.0
 11
-187.4597639650906
 21
929.6222088788008
 31
0.0
  0
LINE
  5
78
330
1F
100
AcDbEntity
  8
C-4
  6
Continuous
 62
     7
370
     9
100
AcDbLine
 10
-512.4604650445883
 20
926.6227433488177
 30
0.0
 11
-487.4605062845586
 21
926.6227433488177
 31
0.0
  0
LINE
  5
79
330
1F
100
AcDbEntity
  8
C-4
  6
Continuous
 62
     7
370
     9
100
AcDbLine
 10
-187.4597639650906
 20
926.6227433488177
 30
0.0
 11
-162.4607949643519
 21
926.6227433488177
 31
0.0
  0
LINE
  5
7A
330
1F
100
AcDbEntity
  8
C-4
  6
Continuous
 62
     7
370
     9
100
AcDbLine
 10
-162.4607949643519
 20
926.6227433488177
 30
0.0
 11
-162.4607949643519
 21
923.6225354993667
 31
0.0
  0
LINE
  5
7B
330
1F
100
AcDbEntity
  8
C-4
  6
Continuous
 62
     7
370
     9
100
AcDbLine
 10
-512.4604650445883
 20
981.6221824852198
 30
0.0
 11
-513.4602456479456
 21
981.6221824852198
 31
0.0
  0
LINE
  5
7C
330
1F
100
AcDbEntity
  8
C-4
  6
Continuous
 62
     7
370
     9
100
AcDbLine
 10
-513.4602456479456
 20
866.6227928367823
 30
0.0
 11
-513.4602456479456
 21
984.6216480152029
 31
0.0
  0
LINE
  5
7D
330
1F
100
AcDbEntity
  8
C-4
  6
Continuous
 62
     7
370
     9
100
AcDbLine
 10
-520.4603182302935
 20
866.6227928367823
 30
0.0
 11
-520.4603182302935
 21
1039.62158203125
 31
0.0
  0
LINE
  5
7E
330
1F
100
AcDbEntity
  8
C-4
  6
Continuous
 62
     7
370
     9
100
AcDbLine
 10
-162.4598052050612
 20
981.6221824852198
 30
0.0
 11
-161.4600246017039
 21
981.6221824852198
 31
0.0
  0
LINE
  5
7F
330
1F
100
AcDbEntity
  8
C-4
  6
Continuous
 62
     7
370
     9
100
AcDbLine
 10
-161.4600246017039
 20
866.6227928367823
 30
0.0
 11
-161.4600246017039
 21
984.6216480152029
 31
0.0
  0
LINE
  5
80
330
1F
100
AcDbEntity
  8
C-4
  6
Continuous
 62
     7
370
     9
100
AcDbLine
 10
-513.4602456479456
 20
981.6221824852198
 30
0.0
 11
-561.7774486541746
 21
981.6221824852198
 31
0.0
  0
LINE
  5
81
330
1F
100
AcDbEntity
  8
C-4
  6
Continuous
 62
     7
370
     9
100
AcDbLine
 10
-161.4600246017039
 20
981.6221824852198
 30
0.0
 11
-109.7092228966787
 21
981.6221824852198
 31
0.0
  0
LINE
  5
82
330
1F
100
AcDbEntity
  8
C-5
  6
Continuous
 62
     7
370
     9
100
AcDbLine
 10
-49.96017636479507
 20
388.6223787874789
 30
0.0
 11
-49.96017636479507
 21
323.6227829391893
 31
0.0
  0
LINE
  5
83
330
1F
100
AcDbEntity
  8
C-5
  6
Continuous
 62
     7
370
     9
100
AcDbLine
 10
-49.96017636479507
 20
323.6227829391893
 30
0.0
 11
-624.9600938848541
 21
323.6227829391893
 31
0.0
  0
LINE
  5
84
330
1F
100
AcDbEntity
  8
C-5
  6
Continuous
 62
     7
370
     9
100
AcDbLine
 10
-624.9600938848541
 20
388.6223787874789
 30
0.0
 11
-49.96017636479507
 21
388.6223787874789
 31
0.0
  0
LINE
  5
85
330
1F
100
AcDbEntity
  8
C-5
  6
Continuous
 62
     7
370
     9
100
AcDbLine
 10
-624.9600938848541
 20
323.6227829391893
 30
0.0
 11
-624.9600938848541
 21
388.6223787874789
 31
0.0
  0
LINE
  5
86
330
1F
100
AcDbEntity
  8
C-5
  6
Continuous
 62
     7
370
     9
100
AcDbLine
 10
-459.3085353438914
 20
544.2549751900339
 30
0.0
 11
-259.3076280645417
 21
544.2549751900339
 31
0.0
  0
LINE
  5
87
330
1F
100
AcDbEntity
  8
C-5
  6
Continuous
 62
     7
370
     9
100
AcDbLine
 10
-259.3076280645417
 20
544.2549751900339
 30
0.0
 11
-259.3076280645417
 21
634.020699165963
 31
0.0
  0
LINE
  5
88
330
1F
100
AcDbEntity
  8
C-5
  6
Continuous
 62
     7
370
     9
100
AcDbLine
 10
-259.3076280645417
 20
634.020699165963
 30
0.0
 11
-239.3085518398797
 21
584.0202867662586
 31
0.0
  0
LINE
  5
89
330
1F
100
AcDbEntity
  8
C-5
  6
Continuous
 62
     7
370
     9
100
AcDbLine
 10
-239.3085518398797
 20
584.0202867662586
 30
0.0
 11
-269.5736588658508
 21
584.0202867662586
 31
0.0
  0
LINE
  5
8A
330
1F
100
AcDbEntity
  8
C-2
  6
Continuous
 62
     3
370
     9
100
AcDbLine
 10
-412.4600114049133
 20
496.6226856128591
 30
0.0
 11
-162.4598052050612
 21
746.6219020534209
 31
0.0
  0
LINE
  5
8B
330
1F
100
AcDbEntity
  8
C-2
  6
Continuous
 62
     3
370
     9
100
AcDbLine
 10
-165.4603842142461
 20
846.6222319731842
 30
0.0
 11
-165.4603842142461
 21
743.6211993243245
 31
0.0
  0
LINE
  5
8C
330
1F
100
AcDbEntity
  8
C-2
  6
Continuous
 62
     3
370
     9
100
AcDbLine
 10
-403.4602538959396
 20
505.6223194019216
 30
0.0
 11
-509.4598860354031
 21
505.6223194019216
 31
0.0
  0
LINE
  5
8D
330
1F
100
AcDbEntity
  8
C-2
  6
Continuous
 62
     3
370
     9
100
AcDbLine
 10
-509.4603809150485
 20
743.171848606419
 30
0.0
 11
-165.9097349321516
 21
743.171848606419
 31
0.0
  0
LINE
  5
8E
330
1F
100
AcDbEntity
  8
C-2
  6
Continuous
 62
     3
370
     9
100
AcDbLine
 10
-509.4603809150485
 20
734.1722148173565
 30
0.0
 11
-174.9099873207706
 21
734.1722148173565
 31
0.0
  0
LINE
  5
8F
330
1F
100
AcDbEntity
  8
C-2
  6
Continuous
 62
     3
370
     9
100
AcDbLine
 10
-509.4603809150485
 20
728.2720122466217
 30
0.0
 11
-180.809571291949
 21
728.2720122466217
 31
0.0
  0
LINE
  5
90
330
1F
100
AcDbEntity
  8
C-2
  6
Continuous
 62
     3
370
     9
100
AcDbLine
 10
-509.4603809150485
 20
719.2723784575592
 30
0.0
 11
-189.8101948403018
 21
719.2723784575592
 31
0.0
  0
LINE
  5
91
330
1F
100
AcDbEntity
  8
C-2
  6
Continuous
 62
     3
370
     9
100
AcDbLine
 10
-509.4603809150485
 20
713.3724233266471
 30
0.0
 11
-195.7102736911253
 21
713.3724233266471
 31
0.0
  0
LINE
  5
92
330
1F
100
AcDbEntity
  8
C-2
  6
Continuous
 62
     3
370
     9
100
AcDbLine
 10
-509.4603809150485
 20
704.3722946579394
 30
0.0
 11
-204.7094126005427
 21
704.3722946579394
 31
0.0
  0
LINE
  5
93
330
1F
100
AcDbEntity
  8
C-2
  6
Continuous
 62
     3
370
     9
100
AcDbLine
 10
-509.4603809150485
 20
698.4725869668498
 30
0.0
 11
-210.6094914513662
 21
698.4725869668498
 31
0.0
  0
LINE
  5
94
330
1F
100
AcDbEntity
  8
C-2
  6
Continuous
 62
     3
370
     9
100
AcDbLine
 10
-509.4603809150485
 20
689.4719634184967
 30
0.0
 11
-219.609620120074
 21
689.4719634184967
 31
0.0
  0
LINE
  5
95
330
1F
100
AcDbEntity
  8
C-2
  6
Continuous
 62
     3
370
     9
100
AcDbLine
 10
-509.4603809150485
 20
683.5720082875846
 30
0.0
 11
-225.5096989708974
 21
683.5720082875846
 31
0.0
  0
LINE
  5
96
330
1F
100
AcDbEntity
  8
C-2
  6
Continuous
 62
     3
370
     9
100
AcDbLine
 10
-509.4603809150485
 20
674.5726219383448
 30
0.0
 11
-234.5099513595164
 21
674.5726219383448
 31
0.0
  0
LINE
  5
97
330
1F
100
AcDbEntity
  8
C-2
  6
Continuous
 62
     3
370
     9
100
AcDbLine
 10
-509.4603809150485
 20
668.6726668074325
 30
0.0
 11
-240.4094116107834
 21
668.6726668074325
 31
0.0
  0
LINE
  5
98
330
1F
100
AcDbEntity
  8
C-2
  6
Continuous
 62
     3
370
     9
100
AcDbLine
 10
-509.4603809150485
 20
659.6720432590794
 30
0.0
 11
-249.4101588790477
 21
659.6720432590794
 31
0.0
  0
LINE
  5
99
330
1F
100
AcDbEntity
  8
C-2
  6
Continuous
 62
     3
370
     9
100
AcDbLine
 10
-509.4603809150485
 20
653.7723355679898
 30
0.0
 11
-255.3096191303146
 21
653.7723355679898
 31
0.0
  0
LINE
  5
9A
330
1F
100
AcDbEntity
  8
C-2
  6
Continuous
 62
     3
370
     9
100
AcDbLine
 10
-509.4603809150485
 20
644.7727017789273
 30
0.0
 11
-264.3093766392883
 21
644.7727017789273
 31
0.0
  0
LINE
  5
9B
330
1F
100
AcDbEntity
  8
C-2
  6
Continuous
 62
     3
370
     9
100
AcDbLine
 10
-509.4603809150485
 20
638.87225176837
 30
0.0
 11
-270.2098266498459
 21
638.87225176837
 31
0.0
  0
LINE
  5
9C
330
1F
100
AcDbEntity
  8
C-2
  6
Continuous
 62
     3
370
     9
100
AcDbLine
 10
-509.4603809150485
 20
629.8721230996623
 30
0.0
 11
-279.2095841588196
 21
629.8721230996623
 31
0.0
  0
LINE
  5
9D
330
1F
100
AcDbEntity
  8
C-2
  6
Continuous
 62
     3
370
     9
100
AcDbLine
 10
-509.4603809150485
 20
623.9724154085727
 30
0.0
 11
-285.1101578892883
 21
623.9724154085727
 31
0.0
  0
LINE
  5
9E
330
1F
100
AcDbEntity
  8
C-2
  6
Continuous
 62
     3
370
     9
100
AcDbLine
 10
-509.4603809150485
 20
614.9727816195102
 30
0.0
 11
-294.1092967987058
 21
614.9727816195102
 31
0.0
  0
LINE
  5
9F
330
1F
100
AcDbEntity
  8
C-2
  6
Continuous
 62
     3
370
     9
100
AcDbLine
 10
-509.4603809150485
 20
609.0723316089529
 30
0.0
 11
-300.0103654088196
 21
609.0723316089529
 31
0.0
  0
LINE
  5
A0
330
1F
100
AcDbEntity
  8
C-2
  6
Continuous
 62
     3
370
     9
100
AcDbLine
 10
-509.4603809150485
 20
600.0724503800677
 30
0.0
 11
-309.0101229177935
 21
600.0724503800677
 31
0.0
  0
LINE
  5
A1
330
1F
100
AcDbEntity
  8
C-2
  6
Continuous
 62
     3
370
     9
100
AcDbLine
 10
-509.4603809150485
 20
594.1720003695102
 30
0.0
 11
-314.9105729283508
 21
594.1720003695102
 31
0.0
  0
LINE
  5
A2
330
1F
100
AcDbEntity
  8
C-2
  6
Continuous
 62
     3
370
     9
100
AcDbLine
 10
-509.4603809150485
 20
585.1718717008023
 30
0.0
 11
-323.9103304373248
 21
585.1718717008023
 31
0.0
  0
LINE
  5
A3
330
1F
100
AcDbEntity
  8
C-2
  6
Continuous
 62
     3
370
     9
100
AcDbLine
 10
-509.4603809150485
 20
579.271792849979
 30
0.0
 11
-329.8099144085029
 21
579.271792849979
 31
0.0
  0
LINE
  5
A4
330
1F
100
AcDbEntity
  8
C-2
  6
Continuous
 62
     3
370
     9
100
AcDbLine
 10
-509.4603809150485
 20
570.2720353410052
 30
0.0
 11
-338.8100430772107
 21
570.2720353410052
 31
0.0
  0
LINE
  5
A5
330
1F
100
AcDbEntity
  8
C-2
  6
Continuous
 62
     3
370
     9
100
AcDbLine
 10
-509.4603809150485
 20
564.3720802100929
 30
0.0
 11
-344.7096270483888
 21
564.3720802100929
 31
0.0
  0
LINE
  5
A6
330
1F
100
AcDbEntity
  8
C-2
  6
Continuous
 62
     3
370
     9
100
AcDbLine
 10
-509.4603809150485
 20
555.3723227011193
 30
0.0
 11
-353.710250596742
 21
555.3723227011193
 31
0.0
  0
LINE
  5
A7
330
1F
100
AcDbEntity
  8
C-2
  6
Continuous
 62
     3
370
     9
100
AcDbLine
 10
-509.4603809150485
 20
549.4722438502959
 30
0.0
 11
-359.6103294475654
 21
549.4722438502959
 31
0.0
  0
LINE
  5
A8
330
1F
100
AcDbEntity
  8
C-2
  6
Continuous
 62
     3
370
     9
100
AcDbLine
 10
-509.4603809150485
 20
540.472115181588
 30
0.0
 11
-368.6104581162732
 21
540.472115181588
 31
0.0
  0
LINE
  5
A9
330
1F
100
AcDbEntity
  8
C-2
  6
Continuous
 62
     3
370
     9
100
AcDbLine
 10
-509.4603809150485
 20
534.5720363307646
 30
0.0
 11
-374.5105369670966
 21
534.5720363307646
 31
0.0
  0
LINE
  5
AA
330
1F
100
AcDbEntity
  8
C-2
  6
Continuous
 62
     3
370
     9
100
AcDbLine
 10
-509.4603809150485
 20
525.5719076620568
 30
0.0
 11
-383.5102944760706
 21
525.5719076620568
 31
0.0
  0
LINE
  5
AB
330
1F
100
AcDbEntity
  8
C-2
  6
Continuous
 62
     3
370
     9
100
AcDbLine
 10
-509.4603809150485
 20
519.6718288112334
 30
0.0
 11
-389.4107444866279
 21
519.6718288112334
 31
0.0
  0
LINE
  5
AC
330
1F
100
AcDbEntity
  8
C-2
  6
Continuous
 62
     3
370
     9
100
AcDbLine
 10
-509.4603809150485
 20
510.6726899018159
 30
0.0
 11
-398.4100071159565
 21
510.6726899018159
 31
0.0
  0
LINE
  5
AD
330
1F
100
AcDbEntity
  8
C-5
  6
Continuous
 62
     7
370
     9
100
AcDbLine
 10
50.04027727487966
 20
323.6227829391893
 30
0.0
 11
50.04027727487966
 21
388.6223787874789
 31
0.0
  0
LINE
  5
AE
330
1F
100
AcDbEntity
  8
C-5
  6
Continuous
 62
     7
370
     9
100
AcDbLine
 10
50.04027727487966
 20
388.6223787874789
 30
0.0
 11
575.0404009947908
 21
388.6223787874789
 31
0.0
  0
LINE
  5
AF
330
1F
100
AcDbEntity
  8
C-5
  6
Continuous
 62
     7
370
     9
100
AcDbLine
 10
575.0404009947908
 20
388.6223787874789
 30
0.0
 11
575.0404009947908
 21
323.6227829391893
 31
0.0
  0
LINE
  5
B0
330
1F
100
AcDbEntity
  8
C-5
  6
Continuous
 62
     7
370
     9
100
AcDbLine
 10
575.0404009947908
 20
323.6227829391893
 30
0.0
 11
50.04027727487966
 21
323.6227829391893
 31
0.0
  0
LINE
  5
B1
330
1F
100
AcDbEntity
  8
C-2
  6
Continuous
 62
     3
370
     9
100
AcDbLine
 10
470.1437318647234
 20
1014.665048960093
 30
0.0
 11
490.1437978486763
 21
934.663547825169
 31
0.0
  0
LINE
  5
B2
330
1F
100
AcDbEntity
  8
C-2
  6
Continuous
 62
     3
370
     9
100
AcDbLine
 10
455.1434349369362
 20
1014.665048960093
 30
0.0
 11
435.1428740733382
 21
934.663547825169
 31
0.0
  0
LINE
  5
B3
330
1F
100
AcDbEntity
  8
C-2
  6
Continuous
 62
     3
370
     9
100
AcDbLine
 10
470.1437318647234
 20
1014.665048960093
 30
0.0
 11
455.1434349369362
 21
1014.665048960093
 31
0.0
  0
LINE
  5
B4
330
1F
100
AcDbEntity
  8
C-2
  6
Continuous
 62
     3
370
     9
100
AcDbLine
 10
490.1437978486763
 20
934.663547825169
 30
0.0
 11
435.1428740733382
 21
934.663547825169
 31
0.0
  0
LINE
  5
B5
330
1F
100
AcDbEntity
  8
C-2
  6
Continuous
 62
     3
370
     9
100
AcDbLine
 10
474.047589946438
 20
1019.665312895904
 30
0.0
 11
496.5472930186507
 21
929.6642736486488
 31
0.0
  0
LINE
  5
B6
330
1F
100
AcDbEntity
  8
C-2
  6
Continuous
 62
     3
370
     9
100
AcDbLine
 10
451.2393294153992
 20
1019.665312895904
 30
0.0
 11
428.7396263431862
 21
929.6642736486488
 31
0.0
  0
LINE
  5
B7
330
1F
100
AcDbEntity
  8
C-2
  6
Continuous
 62
     3
370
     9
100
AcDbLine
 10
474.047589946438
 20
1019.665312895904
 30
0.0
 11
470.1437318647234
 21
1014.665048960093
 31
0.0
  0
LINE
  5
B8
330
1F
100
AcDbEntity
  8
C-2
  6
Continuous
 62
     3
370
     9
100
AcDbLine
 10
451.2393294153992
 20
1019.665312895904
 30
0.0
 11
455.1434349369362
 21
1014.665048960093
 31
0.0
  0
LINE
  5
B9
330
1F
100
AcDbEntity
  8
C-2
  6
Continuous
 62
     3
370
     9
100
AcDbLine
 10
435.1428740733382
 20
934.663547825169
 30
0.0
 11
428.7396263431862
 21
929.6642736486488
 31
0.0
  0
LINE
  5
BA
330
1F
100
AcDbEntity
  8
C-2
  6
Continuous
 62
     3
370
     9
100
AcDbLine
 10
496.5472930186507
 20
929.6642736486488
 30
0.0
 11
490.1437978486763
 21
934.663547825169
 31
0.0
  0
LINE
  5
BB
330
1F
100
AcDbEntity
  8
C-2
  6
Continuous
 62
     3
370
     9
100
AcDbLine
 10
320.1442267443687
 20
934.663547825169
 30
0.0
 11
300.1439133205935
 21
1014.665048960093
 31
0.0
  0
LINE
  5
BC
330
1F
100
AcDbEntity
  8
C-2
  6
Continuous
 62
     3
370
     9
100
AcDbLine
 10
335.1435339128653
 20
934.663547825169
 30
0.0
 11
320.1442267443687
 21
934.663547825169
 31
0.0
  0
LINE
  5
BD
330
1F
100
AcDbEntity
  8
C-2
  6
Continuous
 62
     3
370
     9
100
AcDbLine
 10
355.1435998968179
 20
1014.665048960093
 30
0.0
 11
300.1439133205935
 21
1014.665048960093
 31
0.0
  0
LINE
  5
BE
330
1F
100
AcDbEntity
  8
C-2
  6
Continuous
 62
     3
370
     9
100
AcDbLine
 10
361.5473425066153
 20
1019.665312895904
 30
0.0
 11
339.0471445547573
 21
929.6642736486488
 31
0.0
  0
LINE
  5
BF
330
1F
100
AcDbEntity
  8
C-2
  6
Continuous
 62
     3
370
     9
100
AcDbLine
 10
316.2393789033638
 20
929.6642736486488
 30
0.0
 11
293.7389335116828
 21
1019.665312895904
 31
0.0
  0
LINE
  5
C0
330
1F
100
AcDbEntity
  8
C-2
  6
Continuous
 62
     3
370
     9
100
AcDbLine
 10
200.1440782804752
 20
1014.665048960093
 30
0.0
 11
220.1446391440732
 21
934.663547825169
 31
0.0
  0
LINE
  5
C1
330
1F
100
AcDbEntity
  8
C-2
  6
Continuous
 62
     3
370
     9
100
AcDbLine
 10
185.143781352688
 20
1014.665048960093
 30
0.0
 11
165.1437153687354
 21
934.663547825169
 31
0.0
  0
LINE
  5
C2
330
1F
100
AcDbEntity
  8
C-2
  6
Continuous
 62
     3
370
     9
100
AcDbLine
 10
200.1440782804752
 20
1014.665048960093
 30
0.0
 11
185.143781352688
 21
1014.665048960093
 31
0.0
  0
LINE
  5
C3
330
1F
100
AcDbEntity
  8
C-2
  6
Continuous
 62
     3
370
     9
100
AcDbLine
 10
220.1446391440732
 20
934.663547825169
 30
0.0
 11
165.1437153687354
 21
934.663547825169
 31
0.0
  0
LINE
  5
C4
330
1F
100
AcDbEntity
  8
C-2
  6
Continuous
 62
     3
370
     9
100
AcDbLine
 10
204.0474414825445
 20
1019.665312895904
 30
0.0
 11
226.5471445547573
 21
929.6642736486488
 31
0.0
  0
LINE
  5
C5
330
1F
100
AcDbEntity
  8
C-2
  6
Continuous
 62
     3
370
     9
100
AcDbLine
 10
181.2399232709734
 20
1019.665312895904
 30
0.0
 11
158.73923043947
 21
929.6642736486488
 31
0.0
  0
LINE
  5
C6
330
1F
100
AcDbEntity
  8
C-2
  6
Continuous
 62
     3
370
     9
100
AcDbLine
 10
204.0474414825445
 20
1019.665312895904
 30
0.0
 11
200.1440782804752
 21
1014.665048960093
 31
0.0
  0
LINE
  5
C7
330
1F
100
AcDbEntity
  8
C-2
  6
Continuous
 62
     3
370
     9
100
AcDbLine
 10
181.2399232709734
 20
1019.665312895904
 30
0.0
 11
185.143781352688
 21
1014.665048960093
 31
0.0
  0
LINE
  5
C8
330
1F
100
AcDbEntity
  8
C-2
  6
Continuous
 62
     3
370
     9
100
AcDbLine
 10
165.1437153687354
 20
934.663547825169
 30
0.0
 11
158.73923043947
 21
929.6642736486488
 31
0.0
  0
LINE
  5
C9
330
1F
100
AcDbEntity
  8
C-2
  6
Continuous
 62
     3
370
     9
100
AcDbLine
 10
226.5471445547573
 20
929.6642736486488
 30
0.0
 11
220.1446391440732
 21
934.663547825169
 31
0.0
  0
LINE
  5
CA
330
1F
100
AcDbEntity
  8
C-2
  6
Continuous
 62
     3
370
     9
100
AcDbLine
 10
545.1432369850781
 20
1019.665312895904
 30
0.0
 11
139.9392475952979
 21
1019.665312895904
 31
0.0
  0
LINE
  5
CB
330
1F
100
AcDbEntity
  8
C-2
  6
Continuous
 62
     3
370
     9
100
AcDbLine
 10
515.1421482498586
 20
929.6642736486488
 30
0.0
 11
109.9379114202554
 21
929.6642736486488
 31
0.0
  0
LINE
  5
CC
330
1F
100
AcDbEntity
  8
C-5
  6
Continuous
 62
     7
370
     9
100
AcDbLine
 10
93.52399078575388
 20
772.398945576436
 30
0.0
 11
531.5578009631188
 21
772.398945576436
 31
0.0
  0
LINE
  5
CD
330
1F
100
AcDbEntity
  8
C-2
  6
Continuous
 62
     3
370
     9
100
AcDbLine
 10
355.1435998968179
 20
1014.665048960093
 30
0.0
 11
335.1435339128653
 21
934.663547825169
 31
0.0
  0
LINE
  5
CE
330
1F
100
AcDbEntity
  8
C-4
  6
Continuous
 62
     7
370
     9
100
AcDbLine
 10
185.143781352688
 20
1035.331965266048
 30
0.0
 11
185.143781352688
 21
1092.664267050254
 31
0.0
  0
LINE
  5
CF
330
1F
100
AcDbEntity
  8
C-4
  6
Continuous
 62
     7
370
     9
100
AcDbLine
 10
200.1440782804752
 20
1035.331965266048
 30
0.0
 11
200.1440782804752
 21
1092.664267050254
 31
0.0
  0
LINE
  5
D0
330
1F
100
AcDbEntity
  8
C-4
  6
Continuous
 62
     7
370
     9
100
AcDbLine
 10
300.1439133205935
 20
1035.331965266048
 30
0.0
 11
300.1439133205935
 21
1092.664267050254
 31
0.0
  0
LINE
  5
D1
330
1F
100
AcDbEntity
  8
C-4
  6
Continuous
 62
     7
370
     9
100
AcDbLine
 10
355.1435998968179
 20
1035.331965266048
 30
0.0
 11
355.1435998968179
 21
1092.664267050254
 31
0.0
  0
LINE
  5
D2
330
1F
100
AcDbEntity
  8
C-4
  6
Continuous
 62
     7
370
     9
100
AcDbLine
 10
455.1434349369362
 20
1035.331965266048
 30
0.0
 11
455.1434349369362
 21
1092.664267050254
 31
0.0
  0
LINE
  5
D3
330
1F
100
AcDbEntity
  8
C-4
  6
Continuous
 62
     7
370
     9
100
AcDbLine
 10
470.1437318647234
 20
1035.331965266048
 30
0.0
 11
470.1437318647234
 21
1092.664267050254
 31
0.0
  0
LINE
  5
D4
330
1F
100
AcDbEntity
  8
C-4
  6
Continuous
 62
     7
370
     9
100
AcDbLine
 10
330.9642753085578
 20
917.9445338893584
 30
0.0
 11
314.45212106447
 21
851.8959169130068
 31
0.0
  0
LINE
  5
D5
330
1F
100
AcDbEntity
  8
C-4
  6
Continuous
 62
     7
370
     9
100
AcDbLine
 10
335.8143432720291
 20
916.7310889991554
 30
0.0
 11
319.302436467764
 21
850.6832143422721
 31
0.0
  0
LINE
  5
D6
330
1F
100
AcDbEntity
  8
C-4
  6
Continuous
 62
     7
370
     9
100
AcDbLine
 10
315.1800890226627
 20
854.8067989864867
 30
0.0
 11
389.2764387903992
 21
836.281721785262
 31
0.0
  0
LINE
  5
D7
330
1F
100
AcDbEntity
  8
C-2
  6
Continuous
 62
     3
370
     9
100
AcDbLine
 10
361.5473425066153
 20
1019.665312895904
 30
0.0
 11
355.1435998968179
 21
1014.665048960093
 31
0.0
  0
LINE
  5
D8
330
1F
100
AcDbEntity
  8
C-2
  6
Continuous
 62
     3
370
     9
100
AcDbLine
 10
300.1439133205935
 20
1014.665048960093
 30
0.0
 11
293.7389335116828
 21
1019.665312895904
 31
0.0
  0
LINE
  5
D9
330
1F
100
AcDbEntity
  8
C-2
  6
Continuous
 62
     3
370
     9
100
AcDbLine
 10
320.1442267443687
 20
934.663547825169
 30
0.0
 11
316.2393789033638
 21
929.6642736486488
 31
0.0
  0
LINE
  5
DA
330
1F
100
AcDbEntity
  8
C-2
  6
Continuous
 62
     3
370
     9
100
AcDbLine
 10
339.0471445547573
 20
929.6642736486488
 30
0.0
 11
335.1435339128653
 21
934.663547825169
 31
0.0
  0
LINE
  5
DB
330
1F
100
AcDbEntity
  8
C-5
  6
Continuous
 62
     7
370
     9
100
AcDbLine
 10
526.9343878771813
 20
834.8876458245356
 30
0.0
 11
768.2720970463112
 21
834.8876458245356
 31
0.0
  0
LINE
  5
DC
330
1F
100
AcDbEntity
  8
C-4
  6
Continuous
 62
     7
370
     9
100
AcDbLine
 10
119.077348709107
 20
1089.665048960093
 30
0.0
 11
538.3069695653146
 21
1089.665048960093
 31
0.0
  0
LINE
  5
DD
330
1F
100
AcDbEntity
  8
C-4
  6
Continuous
 62
     7
370
     9
100
AcDbLine
 10
53.90392638541613
 20
929.6642736486488
 30
0.0
 11
53.90392638541613
 21
1019.665312895904
 31
0.0
  0
LINE
  5
DE
330
1F
100
AcDbEntity
  8
C-4
  6
Continuous
 62
     7
370
     9
100
AcDbLine
 10
94.93860425175882
 20
929.6642736486488
 30
0.0
 11
50.90347109614243
 21
929.6642736486488
 31
0.0
  0
LINE
  5
DF
330
1F
100
AcDbEntity
  8
C-4
  6
Continuous
 62
     7
370
     9
100
AcDbLine
 10
124.9389506675107
 20
1019.665312895904
 30
0.0
 11
50.90347109614243
 21
1019.665312895904
 31
0.0
  0
LINE
  5
E0
330
1F
100
AcDbEntity
  8
C-5
  6
Continuous
 62
     7
370
     9
100
AcDbLine
 10
466.0659235876963
 20
940.3148259343328
 30
0.0
 11
526.9343878771813
 21
834.8876458245356
 31
0.0
  0
LINE
  5
E1
330
1F
100
AcDbEntity
  8
C-5
  6
Continuous
 62
     7
370
     9
100
AcDbLine
 10
466.0659235876963
 20
940.3148259343328
 30
0.0
 11
481.2844624390479
 21
920.4817818306589
 31
0.0
  0
LINE
  5
E2
330
1F
100
AcDbEntity
  8
C-5
  6
Continuous
 62
     7
370
     9
100
AcDbLine
 10
466.0659235876963
 20
940.3148259343328
 30
0.0
 11
475.6329368900612
 21
917.2180505701016
 31
0.0
  0
LINE
  5
E3
330
1F
100
AcDbEntity
  8
C-9
  6
Continuous
 62
     6
370
     9
100
AcDbLine
 10
-475.2472477990224
 20
846.1228984111065
 30
0.0
 11
-473.2470679927513
 21
838.1219317461995
 31
0.0
  0
LINE
  5
E4
330
1F
100
AcDbEntity
  8
C-9
  6
Continuous
 62
     6
370
     9
100
AcDbLine
 10
-476.7471042839253
 20
846.1228984111065
 30
0.0
 11
-478.7467892105511
 21
838.1219317461995
 31
0.0
  0
LINE
  5
E5
330
1F
100
AcDbEntity
  8
C-9
  6
Continuous
 62
     6
370
     9
100
AcDbLine
 10
-475.2472477990224
 20
846.1228984111065
 30
0.0
 11
-476.7471042839253
 21
846.1228984111065
 31
0.0
  0
LINE
  5
E6
330
1F
100
AcDbEntity
  8
C-9
  6
Continuous
 62
     6
370
     9
100
AcDbLine
 10
-473.2470679927513
 20
838.1219317461995
 30
0.0
 11
-478.7467892105511
 21
838.1219317461995
 31
0.0
  0
LINE
  5
E7
330
1F
100
AcDbEntity
  8
C-9
  6
Continuous
 62
     6
370
     9
100
AcDbLine
 10
-474.8569114788154
 20
846.6222319731842
 30
0.0
 11
-472.606446291949
 21
837.6225981841217
 31
0.0
  0
LINE
  5
E8
330
1F
100
AcDbEntity
  8
C-9
  6
Continuous
 62
     6
370
     9
100
AcDbLine
 10
-477.1374406041321
 20
846.6222319731842
 30
0.0
 11
-479.3869160317081
 21
837.6225981841217
 31
0.0
  0
LINE
  5
E9
330
1F
100
AcDbEntity
  8
C-9
  6
Continuous
 62
     6
370
     9
100
AcDbLine
 10
-474.8569114788154
 20
846.6222319731842
 30
0.0
 11
-475.2472477990224
 21
846.1228984111065
 31
0.0
  0
LINE
  5
EA
330
1F
100
AcDbEntity
  8
C-9
  6
Continuous
 62
     6
370
     9
100
AcDbLine
 10
-477.1374406041321
 20
846.6222319731842
 30
0.0
 11
-476.7471042839253
 21
846.1228984111065
 31
0.0
  0
LINE
  5
EB
330
1F
100
AcDbEntity
  8
C-9
  6
Continuous
 62
     6
370
     9
100
AcDbLine
 10
-478.7467892105511
 20
838.1219317461995
 30
0.0
 11
-479.3869160317081
 21
837.6225981841217
 31
0.0
  0
LINE
  5
EC
330
1F
100
AcDbEntity
  8
C-9
  6
Continuous
 62
     6
370
     9
100
AcDbLine
 10
-472.606446291949
 20
837.6225981841217
 30
0.0
 11
-473.2470679927513
 21
838.1219317461995
 31
0.0
  0
LINE
  5
ED
330
1F
100
AcDbEntity
  8
C-9
  6
Continuous
 62
     6
370
     9
100
AcDbLine
 10
-490.246554967519
 20
838.1219317461995
 30
0.0
 11
-492.2473533733466
 21
846.1228984111065
 31
0.0
  0
LINE
  5
EE
330
1F
100
AcDbEntity
  8
C-9
  6
Continuous
 62
     6
370
     9
100
AcDbLine
 10
-488.7468222025274
 20
838.1219317461995
 30
0.0
 11
-490.246554967519
 21
838.1219317461995
 31
0.0
  0
LINE
  5
EF
330
1F
100
AcDbEntity
  8
C-9
  6
Continuous
 62
     6
370
     9
100
AcDbLine
 10
-486.7466423962563
 20
846.1228984111065
 30
0.0
 11
-492.2473533733466
 21
846.1228984111065
 31
0.0
  0
LINE
  5
F0
330
1F
100
AcDbEntity
  8
C-9
  6
Continuous
 62
     6
370
     9
100
AcDbLine
 10
-486.1060206954539
 20
846.6222319731842
 30
0.0
 11
-488.3563621624091
 21
837.6225981841217
 31
0.0
  0
LINE
  5
F1
330
1F
100
AcDbEntity
  8
C-9
  6
Continuous
 62
     6
370
     9
100
AcDbLine
 10
-490.6375098872826
 20
837.6225981841217
 30
0.0
 11
-492.8869853148586
 21
846.6222319731842
 31
0.0
  0
LINE
  5
F2
330
1F
100
AcDbEntity
  8
C-9
  6
Continuous
 62
     6
370
     9
100
AcDbLine
 10
-502.2473863653229
 20
846.1228984111065
 30
0.0
 11
-500.2470828391407
 21
838.1219317461995
 31
0.0
  0
LINE
  5
F3
330
1F
100
AcDbEntity
  8
C-9
  6
Continuous
 62
     6
370
     9
100
AcDbLine
 10
-503.7466242506693
 20
846.1228984111065
 30
0.0
 11
-505.7468040569404
 21
838.1219317461995
 31
0.0
  0
LINE
  5
F4
330
1F
100
AcDbEntity
  8
C-9
  6
Continuous
 62
     6
370
     9
100
AcDbLine
 10
-502.2473863653229
 20
846.1228984111065
 30
0.0
 11
-503.7466242506693
 21
846.1228984111065
 31
0.0
  0
LINE
  5
F5
330
1F
100
AcDbEntity
  8
C-9
  6
Continuous
 62
     6
370
     9
100
AcDbLine
 10
-500.2470828391407
 20
838.1219317461995
 30
0.0
 11
-505.7468040569404
 21
838.1219317461995
 31
0.0
  0
LINE
  5
F6
330
1F
100
AcDbEntity
  8
C-9
  6
Continuous
 62
     6
370
     9
100
AcDbLine
 10
-501.8569263252047
 20
846.6222319731842
 30
0.0
 11
-499.605966258693
 21
837.6225981841217
 31
0.0
  0
LINE
  5
F7
330
1F
100
AcDbEntity
  8
C-9
  6
Continuous
 62
     6
370
     9
100
AcDbLine
 10
-504.1370842907875
 20
846.6222319731842
 30
0.0
 11
-506.3864359984524
 21
837.6225981841217
 31
0.0
  0
LINE
  5
F8
330
1F
100
AcDbEntity
  8
C-9
  6
Continuous
 62
     6
370
     9
100
AcDbLine
 10
-501.8569263252047
 20
846.6222319731842
 30
0.0
 11
-502.2473863653229
 21
846.1228984111065
 31
0.0
  0
LINE
  5
F9
330
1F
100
AcDbEntity
  8
C-9
  6
Continuous
 62
     6
370
     9
100
AcDbLine
 10
-504.1370842907875
 20
846.6222319731842
 30
0.0
 11
-503.7466242506693
 21
846.1228984111065
 31
0.0
  0
LINE
  5
FA
330
1F
100
AcDbEntity
  8
C-9
  6
Continuous
 62
     6
370
     9
100
AcDbLine
 10
-505.7468040569404
 20
838.1219317461995
 30
0.0
 11
-506.3864359984524
 21
837.6225981841217
 31
0.0
  0
LINE
  5
FB
330
1F
100
AcDbEntity
  8
C-9
  6
Continuous
 62
     6
370
     9
100
AcDbLine
 10
-499.605966258693
 20
837.6225981841217
 30
0.0
 11
-500.2470828391407
 21
838.1219317461995
 31
0.0
  0
LINE
  5
FC
330
1F
100
AcDbEntity
  8
C-9
  6
Continuous
 62
     6
370
     9
100
AcDbLine
 10
-486.7466423962563
 20
846.1228984111065
 30
0.0
 11
-488.7468222025274
 21
838.1219317461995
 31
0.0
  0
LINE
  5
FD
330
1F
100
AcDbEntity
  8
C-9
  6
Continuous
 62
     6
370
     9
100
AcDbLine
 10
-486.1060206954539
 20
846.6222319731842
 30
0.0
 11
-486.7466423962563
 21
846.1228984111065
 31
0.0
  0
LINE
  5
FE
330
1F
100
AcDbEntity
  8
C-9
  6
Continuous
 62
     6
370
     9
100
AcDbLine
 10
-492.2473533733466
 20
846.1228984111065
 30
0.0
 11
-492.8869853148586
 21
846.6222319731842
 31
0.0
  0
LINE
  5
FF
330
1F
100
AcDbEntity
  8
C-9
  6
Continuous
 62
     6
370
     9
100
AcDbLine
 10
-490.246554967519
 20
838.1219317461995
 30
0.0
 11
-490.6375098872826
 21
837.6225981841217
 31
0.0
  0
LINE
  5
100
330
1F
100
AcDbEntity
  8
C-9
  6
Continuous
 62
     6
370
     9
100
AcDbLine
 10
-488.3563621624091
 20
837.6225981841217
 30
0.0
 11
-488.7468222025274
 21
838.1219317461995
 31
0.0
  0
LINE
  5
101
330
1F
100
AcDbEntity
  8
C-9
  6
Continuous
 62
     6
370
     9
100
AcDbLine
 10
-448.2472329526331
 20
846.1228984111065
 30
0.0
 11
-446.2474243060959
 21
838.1219317461995
 31
0.0
  0
LINE
  5
102
330
1F
100
AcDbEntity
  8
C-9
  6
Continuous
 62
     6
370
     9
100
AcDbLine
 10
-449.7479554769151
 20
846.1228984111065
 30
0.0
 11
-451.7471455238956
 21
838.1219317461995
 31
0.0
  0
LINE
  5
103
330
1F
100
AcDbEntity
  8
C-9
  6
Continuous
 62
     6
370
     9
100
AcDbLine
 10
-448.2472329526331
 20
846.1228984111065
 30
0.0
 11
-449.7479554769151
 21
846.1228984111065
 31
0.0
  0
LINE
  5
104
330
1F
100
AcDbEntity
  8
C-9
  6
Continuous
 62
     6
370
     9
100
AcDbLine
 10
-446.2474243060959
 20
838.1219317461995
 30
0.0
 11
-451.7471455238956
 21
838.1219317461995
 31
0.0
  0
LINE
  5
105
330
1F
100
AcDbEntity
  8
C-9
  6
Continuous
 62
     6
370
     9
100
AcDbLine
 10
-447.8572677921599
 20
846.6222319731842
 30
0.0
 11
-445.6072974849388
 21
837.6225981841217
 31
0.0
  0
LINE
  5
106
330
1F
100
AcDbEntity
  8
C-9
  6
Continuous
 62
     6
370
     9
100
AcDbLine
 10
-450.1384155170334
 20
846.6222319731842
 30
0.0
 11
-452.3877672246979
 21
837.6225981841217
 31
0.0
  0
LINE
  5
107
330
1F
100
AcDbEntity
  8
C-9
  6
Continuous
 62
     6
370
     9
100
AcDbLine
 10
-447.8572677921599
 20
846.6222319731842
 30
0.0
 11
-448.2472329526331
 21
846.1228984111065
 31
0.0
  0
LINE
  5
108
330
1F
100
AcDbEntity
  8
C-9
  6
Continuous
 62
     6
370
     9
100
AcDbLine
 10
-450.1384155170334
 20
846.6222319731842
 30
0.0
 11
-449.7479554769151
 21
846.1228984111065
 31
0.0
  0
LINE
  5
109
330
1F
100
AcDbEntity
  8
C-9
  6
Continuous
 62
     6
370
     9
100
AcDbLine
 10
-451.7471455238956
 20
838.1219317461995
 30
0.0
 11
-452.3877672246979
 21
837.6225981841217
 31
0.0
  0
LINE
  5
10A
330
1F
100
AcDbEntity
  8
C-9
  6
Continuous
 62
     6
370
     9
100
AcDbLine
 10
-445.6072974849388
 20
837.6225981841217
 30
0.0
 11
-446.2474243060959
 21
838.1219317461995
 31
0.0
  0
LINE
  5
10B
330
1F
100
AcDbEntity
  8
C-9
  6
Continuous
 62
     6
370
     9
100
AcDbLine
 10
-463.2475298804201
 20
838.1219317461995
 30
0.0
 11
-465.2477096866912
 21
846.1228984111065
 31
0.0
  0
LINE
  5
10C
330
1F
100
AcDbEntity
  8
C-9
  6
Continuous
 62
     6
370
     9
100
AcDbLine
 10
-461.7477971154287
 20
838.1219317461995
 30
0.0
 11
-463.2475298804201
 21
838.1219317461995
 31
0.0
  0
LINE
  5
10D
330
1F
100
AcDbEntity
  8
C-9
  6
Continuous
 62
     6
370
     9
100
AcDbLine
 10
-459.7469987096008
 20
846.1228984111065
 30
0.0
 11
-465.2477096866912
 21
846.1228984111065
 31
0.0
  0
LINE
  5
10E
330
1F
100
AcDbEntity
  8
C-9
  6
Continuous
 62
     6
370
     9
100
AcDbLine
 10
-459.1068718884438
 20
846.6222319731842
 30
0.0
 11
-461.3568421956651
 21
837.6225981841217
 31
0.0
  0
LINE
  5
10F
330
1F
100
AcDbEntity
  8
C-9
  6
Continuous
 62
     6
370
     9
100
AcDbLine
 10
-463.6379899205383
 20
837.6225981841217
 30
0.0
 11
-465.8873416282032
 21
846.6222319731842
 31
0.0
  0
LINE
  5
110
330
1F
100
AcDbEntity
  8
C-9
  6
Continuous
 62
     6
370
     9
100
AcDbLine
 10
-459.7469987096008
 20
846.1228984111065
 30
0.0
 11
-461.7477971154287
 21
838.1219317461995
 31
0.0
  0
LINE
  5
111
330
1F
100
AcDbEntity
  8
C-9
  6
Continuous
 62
     6
370
     9
100
AcDbLine
 10
-459.1068718884438
 20
846.6222319731842
 30
0.0
 11
-459.7469987096008
 21
846.1228984111065
 31
0.0
  0
LINE
  5
112
330
1F
100
AcDbEntity
  8
C-9
  6
Continuous
 62
     6
370
     9
100
AcDbLine
 10
-465.2477096866912
 20
846.1228984111065
 30
0.0
 11
-465.8873416282032
 21
846.6222319731842
 31
0.0
  0
LINE
  5
113
330
1F
100
AcDbEntity
  8
C-9
  6
Continuous
 62
     6
370
     9
100
AcDbLine
 10
-463.2475298804201
 20
838.1219317461995
 30
0.0
 11
-463.6379899205383
 21
837.6225981841217
 31
0.0
  0
LINE
  5
114
330
1F
100
AcDbEntity
  8
C-9
  6
Continuous
 62
     6
370
     9
100
AcDbLine
 10
-461.3568421956651
 20
837.6225981841217
 30
0.0
 11
-461.7477971154287
 21
838.1219317461995
 31
0.0
  0
LINE
  5
115
330
1F
100
AcDbEntity
  8
C-9
  6
Continuous
 62
     6
370
     9
100
AcDbLine
 10
-421.2475892659776
 20
846.1228984111065
 30
0.0
 11
-419.2479043393519
 21
838.1219317461995
 31
0.0
  0
LINE
  5
116
330
1F
100
AcDbEntity
  8
C-9
  6
Continuous
 62
     6
370
     9
100
AcDbLine
 10
-422.7484355101711
 20
846.1228984111065
 30
0.0
 11
-424.7481204367969
 21
838.1219317461995
 31
0.0
  0
LINE
  5
117
330
1F
100
AcDbEntity
  8
C-9
  6
Continuous
 62
     6
370
     9
100
AcDbLine
 10
-421.2475892659776
 20
846.1228984111065
 30
0.0
 11
-422.7484355101711
 21
846.1228984111065
 31
0.0
  0
LINE
  5
118
330
1F
100
AcDbEntity
  8
C-9
  6
Continuous
 62
     6
370
     9
100
AcDbLine
 10
-419.2479043393519
 20
838.1219317461995
 30
0.0
 11
-424.7481204367969
 21
838.1219317461995
 31
0.0
  0
LINE
  5
119
330
1F
100
AcDbEntity
  8
C-9
  6
Continuous
 62
     6
370
     9
100
AcDbLine
 10
-420.8571292258594
 20
846.6222319731842
 30
0.0
 11
-418.6077775181946
 21
837.6225981841217
 31
0.0
  0
LINE
  5
11A
330
1F
100
AcDbEntity
  8
C-9
  6
Continuous
 62
     6
370
     9
100
AcDbLine
 10
-423.1372871914422
 20
846.6222319731842
 30
0.0
 11
-425.3882472579539
 21
837.6225981841217
 31
0.0
  0
LINE
  5
11B
330
1F
100
AcDbEntity
  8
C-9
  6
Continuous
 62
     6
370
     9
100
AcDbLine
 10
-420.8571292258594
 20
846.6222319731842
 30
0.0
 11
-421.2475892659776
 21
846.1228984111065
 31
0.0
  0
LINE
  5
11C
330
1F
100
AcDbEntity
  8
C-9
  6
Continuous
 62
     6
370
     9
100
AcDbLine
 10
-423.1372871914422
 20
846.6222319731842
 30
0.0
 11
-422.7484355101711
 21
846.1228984111065
 31
0.0
  0
LINE
  5
11D
330
1F
100
AcDbEntity
  8
C-9
  6
Continuous
 62
     6
370
     9
100
AcDbLine
 10
-424.7481204367969
 20
838.1219317461995
 30
0.0
 11
-425.3882472579539
 21
837.6225981841217
 31
0.0
  0
LINE
  5
11E
330
1F
100
AcDbEntity
  8
C-9
  6
Continuous
 62
     6
370
     9
100
AcDbLine
 10
-418.6077775181946
 20
837.6225981841217
 30
0.0
 11
-419.2479043393519
 21
838.1219317461995
 31
0.0
  0
LINE
  5
11F
330
1F
100
AcDbEntity
  8
C-9
  6
Continuous
 62
     6
370
     9
100
AcDbLine
 10
-436.2473913141196
 20
838.1219317461995
 30
0.0
 11
-438.2476948403018
 21
846.1228984111065
 31
0.0
  0
LINE
  5
120
330
1F
100
AcDbEntity
  8
C-9
  6
Continuous
 62
     6
370
     9
100
AcDbLine
 10
-434.7481534287732
 20
838.1219317461995
 30
0.0
 11
-436.2473913141196
 21
838.1219317461995
 31
0.0
  0
LINE
  5
121
330
1F
100
AcDbEntity
  8
C-9
  6
Continuous
 62
     6
370
     9
100
AcDbLine
 10
-432.7479736225021
 20
846.1228984111065
 30
0.0
 11
-438.2476948403018
 21
846.1228984111065
 31
0.0
  0
LINE
  5
122
330
1F
100
AcDbEntity
  8
C-9
  6
Continuous
 62
     6
370
     9
100
AcDbLine
 10
-432.1073519216998
 20
846.6222319731842
 30
0.0
 11
-434.357693388655
 21
837.6225981841217
 31
0.0
  0
LINE
  5
123
330
1F
100
AcDbEntity
  8
C-9
  6
Continuous
 62
     6
370
     9
100
AcDbLine
 10
-436.6373564745925
 20
837.6225981841217
 30
0.0
 11
-438.8883165411042
 21
846.6222319731842
 31
0.0
  0
LINE
  5
124
330
1F
100
AcDbEntity
  8
C-9
  6
Continuous
 62
     6
370
     9
100
AcDbLine
 10
-432.7479736225021
 20
846.1228984111065
 30
0.0
 11
-434.7481534287732
 21
838.1219317461995
 31
0.0
  0
LINE
  5
125
330
1F
100
AcDbEntity
  8
C-9
  6
Continuous
 62
     6
370
     9
100
AcDbLine
 10
-432.1073519216998
 20
846.6222319731842
 30
0.0
 11
-432.7479736225021
 21
846.1228984111065
 31
0.0
  0
LINE
  5
126
330
1F
100
AcDbEntity
  8
C-9
  6
Continuous
 62
     6
370
     9
100
AcDbLine
 10
-438.2476948403018
 20
846.1228984111065
 30
0.0
 11
-438.8883165411042
 21
846.6222319731842
 31
0.0
  0
LINE
  5
127
330
1F
100
AcDbEntity
  8
C-9
  6
Continuous
 62
     6
370
     9
100
AcDbLine
 10
-436.2473913141196
 20
838.1219317461995
 30
0.0
 11
-436.6373564745925
 21
837.6225981841217
 31
0.0
  0
LINE
  5
128
330
1F
100
AcDbEntity
  8
C-9
  6
Continuous
 62
     6
370
     9
100
AcDbLine
 10
-434.357693388655
 20
837.6225981841217
 30
0.0
 11
-434.7481534287732
 21
838.1219317461995
 31
0.0
  0
LINE
  5
129
330
1F
100
AcDbEntity
  8
C-9
  6
Continuous
 62
     6
370
     9
100
AcDbLine
 10
-394.2485641788787
 20
846.1228984111065
 30
0.0
 11
-392.2488792522529
 21
838.1219317461995
 31
0.0
  0
LINE
  5
12A
330
1F
100
AcDbEntity
  8
C-9
  6
Continuous
 62
     6
370
     9
100
AcDbLine
 10
-395.7482969438703
 20
846.1228984111065
 30
0.0
 11
-397.7484767501414
 21
838.1219317461995
 31
0.0
  0
LINE
  5
12B
330
1F
100
AcDbEntity
  8
C-9
  6
Continuous
 62
     6
370
     9
100
AcDbLine
 10
-394.2485641788787
 20
846.1228984111065
 30
0.0
 11
-395.7482969438703
 21
846.1228984111065
 31
0.0
  0
LINE
  5
12C
330
1F
100
AcDbEntity
  8
C-9
  6
Continuous
 62
     6
370
     9
100
AcDbLine
 10
-392.2488792522529
 20
838.1219317461995
 30
0.0
 11
-397.7484767501414
 21
838.1219317461995
 31
0.0
  0
LINE
  5
12D
330
1F
100
AcDbEntity
  8
C-9
  6
Continuous
 62
     6
370
     9
100
AcDbLine
 10
-393.8576092591154
 20
846.6222319731842
 30
0.0
 11
-391.607638951894
 21
837.6225981841217
 31
0.0
  0
LINE
  5
12E
330
1F
100
AcDbEntity
  8
C-9
  6
Continuous
 62
     6
370
     9
100
AcDbLine
 10
-396.1382621043433
 20
846.6222319731842
 30
0.0
 11
-398.3890984509438
 21
837.6225981841217
 31
0.0
  0
LINE
  5
12F
330
1F
100
AcDbEntity
  8
C-9
  6
Continuous
 62
     6
370
     9
100
AcDbLine
 10
-393.8576092591154
 20
846.6222319731842
 30
0.0
 11
-394.2485641788787
 21
846.1228984111065
 31
0.0
  0
LINE
  5
130
330
1F
100
AcDbEntity
  8
C-9
  6
Continuous
 62
     6
370
     9
100
AcDbLine
 10
-396.1382621043433
 20
846.6222319731842
 30
0.0
 11
-395.7482969438703
 21
846.1228984111065
 31
0.0
  0
LINE
  5
131
330
1F
100
AcDbEntity
  8
C-9
  6
Continuous
 62
     6
370
     9
100
AcDbLine
 10
-397.7484767501414
 20
838.1219317461995
 30
0.0
 11
-398.3890984509438
 21
837.6225981841217
 31
0.0
  0
LINE
  5
132
330
1F
100
AcDbEntity
  8
C-9
  6
Continuous
 62
     6
370
     9
100
AcDbLine
 10
-391.607638951894
 20
837.6225981841217
 30
0.0
 11
-392.2488792522529
 21
838.1219317461995
 31
0.0
  0
LINE
  5
133
330
1F
100
AcDbEntity
  8
C-9
  6
Continuous
 62
     6
370
     9
100
AcDbLine
 10
-409.2478713473753
 20
838.1219317461995
 30
0.0
 11
-411.2480511536467
 21
846.1228984111065
 31
0.0
  0
LINE
  5
134
330
1F
100
AcDbEntity
  8
C-9
  6
Continuous
 62
     6
370
     9
100
AcDbLine
 10
-407.7480148624724
 20
838.1219317461995
 30
0.0
 11
-409.2478713473753
 21
838.1219317461995
 31
0.0
  0
LINE
  5
135
330
1F
100
AcDbEntity
  8
C-9
  6
Continuous
 62
     6
370
     9
100
AcDbLine
 10
-405.7478350562013
 20
846.1228984111065
 30
0.0
 11
-411.2480511536467
 21
846.1228984111065
 31
0.0
  0
LINE
  5
136
330
1F
100
AcDbEntity
  8
C-9
  6
Continuous
 62
     6
370
     9
100
AcDbLine
 10
-405.1082031146896
 20
846.6222319731842
 30
0.0
 11
-407.3576785422657
 21
837.6225981841217
 31
0.0
  0
LINE
  5
137
330
1F
100
AcDbEntity
  8
C-9
  6
Continuous
 62
     6
370
     9
100
AcDbLine
 10
-409.6378365078485
 20
837.6225981841217
 30
0.0
 11
-411.888672854449
 21
846.6222319731842
 31
0.0
  0
LINE
  5
138
330
1F
100
AcDbEntity
  8
C-9
  6
Continuous
 62
     6
370
     9
100
AcDbLine
 10
-405.7478350562013
 20
846.1228984111065
 30
0.0
 11
-407.7480148624724
 21
838.1219317461995
 31
0.0
  0
LINE
  5
139
330
1F
100
AcDbEntity
  8
C-9
  6
Continuous
 62
     6
370
     9
100
AcDbLine
 10
-405.1082031146896
 20
846.6222319731842
 30
0.0
 11
-405.7478350562013
 21
846.1228984111065
 31
0.0
  0
LINE
  5
13A
330
1F
100
AcDbEntity
  8
C-9
  6
Continuous
 62
     6
370
     9
100
AcDbLine
 10
-411.2480511536467
 20
846.1228984111065
 30
0.0
 11
-411.888672854449
 21
846.6222319731842
 31
0.0
  0
LINE
  5
13B
330
1F
100
AcDbEntity
  8
C-9
  6
Continuous
 62
     6
370
     9
100
AcDbLine
 10
-409.2478713473753
 20
838.1219317461995
 30
0.0
 11
-409.6378365078485
 21
837.6225981841217
 31
0.0
  0
LINE
  5
13C
330
1F
100
AcDbEntity
  8
C-9
  6
Continuous
 62
     6
370
     9
100
AcDbLine
 10
-407.3576785422657
 20
837.6225981841217
 30
0.0
 11
-407.7480148624724
 21
838.1219317461995
 31
0.0
  0
LINE
  5
13D
330
1F
100
AcDbEntity
  8
C-9
  6
Continuous
 62
     6
370
     9
100
AcDbLine
 10
-490.0270758448417
 20
832.0727704022383
 30
0.0
 11
-488.0268960385706
 21
824.0725460567992
 31
0.0
  0
LINE
  5
13E
330
1F
100
AcDbEntity
  8
C-9
  6
Continuous
 62
     6
370
     9
100
AcDbLine
 10
-491.5264374500993
 20
832.0727704022383
 30
0.0
 11
-493.5266172563703
 21
824.0725460567992
 31
0.0
  0
LINE
  5
13F
330
1F
100
AcDbEntity
  8
C-9
  6
Continuous
 62
     6
370
     9
100
AcDbLine
 10
-490.0270758448417
 20
832.0727704022383
 30
0.0
 11
-491.5264374500993
 21
832.0727704022383
 31
0.0
  0
LINE
  5
140
330
1F
100
AcDbEntity
  8
C-9
  6
Continuous
 62
     6
370
     9
100
AcDbLine
 10
-488.0268960385706
 20
824.0725460567992
 30
0.0
 11
-493.5266172563703
 21
824.0725460567992
 31
0.0
  0
LINE
  5
141
330
1F
100
AcDbEntity
  8
C-9
  6
Continuous
 62
     6
370
     9
100
AcDbLine
 10
-489.6367395246347
 20
832.5728462837839
 30
0.0
 11
-487.3862743377683
 21
823.5719752956084
 31
0.0
  0
LINE
  5
142
330
1F
100
AcDbEntity
  8
C-9
  6
Continuous
 62
     6
370
     9
100
AcDbLine
 10
-491.9172686499513
 20
832.5728462837839
 30
0.0
 11
-494.167733836818
 21
823.5719752956084
 31
0.0
  0
LINE
  5
143
330
1F
100
AcDbEntity
  8
C-9
  6
Continuous
 62
     6
370
     9
100
AcDbLine
 10
-489.6367395246347
 20
832.5728462837839
 30
0.0
 11
-490.0270758448417
 21
832.0727704022383
 31
0.0
  0
LINE
  5
144
330
1F
100
AcDbEntity
  8
C-9
  6
Continuous
 62
     6
370
     9
100
AcDbLine
 10
-491.9172686499513
 20
832.5728462837839
 30
0.0
 11
-491.5264374500993
 21
832.0727704022383
 31
0.0
  0
LINE
  5
145
330
1F
100
AcDbEntity
  8
C-9
  6
Continuous
 62
     6
370
     9
100
AcDbLine
 10
-493.5266172563703
 20
824.0725460567992
 30
0.0
 11
-494.167733836818
 21
823.5719752956084
 31
0.0
  0
LINE
  5
146
330
1F
100
AcDbEntity
  8
C-9
  6
Continuous
 62
     6
370
     9
100
AcDbLine
 10
-487.3862743377683
 20
823.5719752956084
 30
0.0
 11
-488.0268960385706
 21
824.0725460567992
 31
0.0
  0
LINE
  5
147
330
1F
100
AcDbEntity
  8
C-9
  6
Continuous
 62
     6
370
     9
100
AcDbLine
 10
-505.025888133693
 20
824.0725460567992
 30
0.0
 11
-507.0271814191659
 21
832.0727704022383
 31
0.0
  0
LINE
  5
148
330
1F
100
AcDbEntity
  8
C-9
  6
Continuous
 62
     6
370
     9
100
AcDbLine
 10
-503.5266502483466
 20
824.0725460567992
 30
0.0
 11
-505.025888133693
 21
824.0725460567992
 31
0.0
  0
LINE
  5
149
330
1F
100
AcDbEntity
  8
C-9
  6
Continuous
 62
     6
370
     9
100
AcDbLine
 10
-501.5264704420755
 20
832.0727704022383
 30
0.0
 11
-507.0271814191659
 21
832.0727704022383
 31
0.0
  0
LINE
  5
14A
330
1F
100
AcDbEntity
  8
C-9
  6
Continuous
 62
     6
370
     9
100
AcDbLine
 10
-500.8868385005638
 20
832.5728462837839
 30
0.0
 11
-503.1361902082284
 21
823.5719752956084
 31
0.0
  0
LINE
  5
14B
330
1F
100
AcDbEntity
  8
C-9
  6
Continuous
 62
     6
370
     9
100
AcDbLine
 10
-505.4173379331019
 20
823.5719752956084
 30
0.0
 11
-507.6673082403229
 21
832.5728462837839
 31
0.0
  0
LINE
  5
14C
330
1F
100
AcDbEntity
  8
C-9
  6
Continuous
 62
     6
370
     9
100
AcDbLine
 10
-501.5264704420755
 20
832.0727704022383
 30
0.0
 11
-503.5266502483466
 21
824.0725460567992
 31
0.0
  0
LINE
  5
14D
330
1F
100
AcDbEntity
  8
C-9
  6
Continuous
 62
     6
370
     9
100
AcDbLine
 10
-500.8868385005638
 20
832.5728462837839
 30
0.0
 11
-501.5264704420755
 21
832.0727704022383
 31
0.0
  0
LINE
  5
14E
330
1F
100
AcDbEntity
  8
C-9
  6
Continuous
 62
     6
370
     9
100
AcDbLine
 10
-507.0271814191659
 20
832.0727704022383
 30
0.0
 11
-507.6673082403229
 21
832.5728462837839
 31
0.0
  0
LINE
  5
14F
330
1F
100
AcDbEntity
  8
C-9
  6
Continuous
 62
     6
370
     9
100
AcDbLine
 10
-505.025888133693
 20
824.0725460567992
 30
0.0
 11
-505.4173379331019
 21
823.5719752956084
 31
0.0
  0
LINE
  5
150
330
1F
100
AcDbEntity
  8
C-9
  6
Continuous
 62
     6
370
     9
100
AcDbLine
 10
-503.1361902082284
 20
823.5719752956084
 30
0.0
 11
-503.5266502483466
 21
824.0725460567992
 31
0.0
  0
LINE
  5
151
330
1F
100
AcDbEntity
  8
C-9
  6
Continuous
 62
     6
370
     9
100
AcDbLine
 10
-463.0260712391618
 20
832.0727704022383
 30
0.0
 11
-461.0272523519151
 21
824.0725460567992
 31
0.0
  0
LINE
  5
152
330
1F
100
AcDbEntity
  8
C-9
  6
Continuous
 62
     6
370
     9
100
AcDbLine
 10
-464.5267937634438
 20
832.0727704022383
 30
0.0
 11
-466.5269735697149
 21
824.0725460567992
 31
0.0
  0
LINE
  5
153
330
1F
100
AcDbEntity
  8
C-9
  6
Continuous
 62
     6
370
     9
100
AcDbLine
 10
-463.0260712391618
 20
832.0727704022383
 30
0.0
 11
-464.5267937634438
 21
832.0727704022383
 31
0.0
  0
LINE
  5
154
330
1F
100
AcDbEntity
  8
C-9
  6
Continuous
 62
     6
370
     9
100
AcDbLine
 10
-461.0272523519151
 20
824.0725460567992
 30
0.0
 11
-466.5269735697149
 21
824.0725460567992
 31
0.0
  0
LINE
  5
155
330
1F
100
AcDbEntity
  8
C-9
  6
Continuous
 62
     6
370
     9
100
AcDbLine
 10
-462.6370958379792
 20
832.5728462837839
 30
0.0
 11
-460.3871255307581
 21
823.5719752956084
 31
0.0
  0
LINE
  5
156
330
1F
100
AcDbEntity
  8
C-9
  6
Continuous
 62
     6
370
     9
100
AcDbLine
 10
-464.9182435628526
 20
832.5728462837839
 30
0.0
 11
-467.1677189904287
 21
823.5719752956084
 31
0.0
  0
LINE
  5
157
330
1F
100
AcDbEntity
  8
C-9
  6
Continuous
 62
     6
370
     9
100
AcDbLine
 10
-462.6370958379792
 20
832.5728462837839
 30
0.0
 11
-463.0260712391618
 21
832.0727704022383
 31
0.0
  0
LINE
  5
158
330
1F
100
AcDbEntity
  8
C-9
  6
Continuous
 62
     6
370
     9
100
AcDbLine
 10
-464.9182435628526
 20
832.5728462837839
 30
0.0
 11
-464.5267937634438
 21
832.0727704022383
 31
0.0
  0
LINE
  5
159
330
1F
100
AcDbEntity
  8
C-9
  6
Continuous
 62
     6
370
     9
100
AcDbLine
 10
-466.5269735697149
 20
824.0725460567992
 30
0.0
 11
-467.1677189904287
 21
823.5719752956084
 31
0.0
  0
LINE
  5
15A
330
1F
100
AcDbEntity
  8
C-9
  6
Continuous
 62
     6
370
     9
100
AcDbLine
 10
-460.3871255307581
 20
823.5719752956084
 30
0.0
 11
-461.0272523519151
 21
824.0725460567992
 31
0.0
  0
LINE
  5
15B
330
1F
100
AcDbEntity
  8
C-9
  6
Continuous
 62
     6
370
     9
100
AcDbLine
 10
-478.026368166949
 20
824.0725460567992
 30
0.0
 11
-480.0275377325104
 21
832.0727704022383
 31
0.0
  0
LINE
  5
15C
330
1F
100
AcDbEntity
  8
C-9
  6
Continuous
 62
     6
370
     9
100
AcDbLine
 10
-476.527625161248
 20
824.0725460567992
 30
0.0
 11
-478.026368166949
 21
824.0725460567992
 31
0.0
  0
LINE
  5
15D
330
1F
100
AcDbEntity
  8
C-9
  6
Continuous
 62
     6
370
     9
100
AcDbLine
 10
-474.5268267554201
 20
832.0727704022383
 30
0.0
 11
-480.0275377325104
 21
832.0727704022383
 31
0.0
  0
LINE
  5
15E
330
1F
100
AcDbEntity
  8
C-9
  6
Continuous
 62
     6
370
     9
100
AcDbLine
 10
-473.886699934263
 20
832.5728462837839
 30
0.0
 11
-476.1366702414844
 21
823.5719752956084
 31
0.0
  0
LINE
  5
15F
330
1F
100
AcDbEntity
  8
C-9
  6
Continuous
 62
     6
370
     9
100
AcDbLine
 10
-478.4178179663576
 20
823.5719752956084
 30
0.0
 11
-480.6681594333128
 21
832.5728462837839
 31
0.0
  0
LINE
  5
160
330
1F
100
AcDbEntity
  8
C-9
  6
Continuous
 62
     6
370
     9
100
AcDbLine
 10
-474.5268267554201
 20
832.0727704022383
 30
0.0
 11
-476.527625161248
 21
824.0725460567992
 31
0.0
  0
LINE
  5
161
330
1F
100
AcDbEntity
  8
C-9
  6
Continuous
 62
     6
370
     9
100
AcDbLine
 10
-473.886699934263
 20
832.5728462837839
 30
0.0
 11
-474.5268267554201
 21
832.0727704022383
 31
0.0
  0
LINE
  5
162
330
1F
100
AcDbEntity
  8
C-9
  6
Continuous
 62
     6
370
     9
100
AcDbLine
 10
-480.0275377325104
 20
832.0727704022383
 30
0.0
 11
-480.6681594333128
 21
832.5728462837839
 31
0.0
  0
LINE
  5
163
330
1F
100
AcDbEntity
  8
C-9
  6
Continuous
 62
     6
370
     9
100
AcDbLine
 10
-478.026368166949
 20
824.0725460567992
 30
0.0
 11
-478.4178179663576
 21
823.5719752956084
 31
0.0
  0
LINE
  5
164
330
1F
100
AcDbEntity
  8
C-9
  6
Continuous
 62
     6
370
     9
100
AcDbLine
 10
-476.1366702414844
 20
823.5719752956084
 30
0.0
 11
-476.527625161248
 21
824.0725460567992
 31
0.0
  0
LINE
  5
165
330
1F
100
AcDbEntity
  8
C-9
  6
Continuous
 62
     6
370
     9
100
AcDbLine
 10
-436.0269224321516
 20
832.0727704022383
 30
0.0
 11
-434.0277323851711
 21
824.0725460567992
 31
0.0
  0
LINE
  5
166
330
1F
100
AcDbEntity
  8
C-9
  6
Continuous
 62
     6
370
     9
100
AcDbLine
 10
-437.5272737966998
 20
832.0727704022383
 30
0.0
 11
-439.5279484826162
 21
824.0725460567992
 31
0.0
  0
LINE
  5
167
330
1F
100
AcDbEntity
  8
C-9
  6
Continuous
 62
     6
370
     9
100
AcDbLine
 10
-436.0269224321516
 20
832.0727704022383
 30
0.0
 11
-437.5272737966998
 21
832.0727704022383
 31
0.0
  0
LINE
  5
168
330
1F
100
AcDbEntity
  8
C-9
  6
Continuous
 62
     6
370
     9
100
AcDbLine
 10
-434.0277323851711
 20
824.0725460567992
 30
0.0
 11
-439.5279484826162
 21
824.0725460567992
 31
0.0
  0
LINE
  5
169
330
1F
100
AcDbEntity
  8
C-9
  6
Continuous
 62
     6
370
     9
100
AcDbLine
 10
-435.6369572716787
 20
832.5728462837839
 30
0.0
 11
-433.3876055640138
 21
823.5719752956084
 31
0.0
  0
LINE
  5
16A
330
1F
100
AcDbEntity
  8
C-9
  6
Continuous
 62
     6
370
     9
100
AcDbLine
 10
-437.9185998761972
 20
832.5728462837839
 30
0.0
 11
-440.1680753037732
 21
823.5719752956084
 31
0.0
  0
LINE
  5
16B
330
1F
100
AcDbEntity
  8
C-9
  6
Continuous
 62
     6
370
     9
100
AcDbLine
 10
-435.6369572716787
 20
832.5728462837839
 30
0.0
 11
-436.0269224321516
 21
832.0727704022383
 31
0.0
  0
LINE
  5
16C
330
1F
100
AcDbEntity
  8
C-9
  6
Continuous
 62
     6
370
     9
100
AcDbLine
 10
-437.9185998761972
 20
832.5728462837839
 30
0.0
 11
-437.5272737966998
 21
832.0727704022383
 31
0.0
  0
LINE
  5
16D
330
1F
100
AcDbEntity
  8
C-9
  6
Continuous
 62
     6
370
     9
100
AcDbLine
 10
-439.5279484826162
 20
824.0725460567992
 30
0.0
 11
-440.1680753037732
 21
823.5719752956084
 31
0.0
  0
LINE
  5
16E
330
1F
100
AcDbEntity
  8
C-9
  6
Continuous
 62
     6
370
     9
100
AcDbLine
 10
-433.3876055640138
 20
823.5719752956084
 30
0.0
 11
-434.0277323851711
 21
824.0725460567992
 31
0.0
  0
LINE
  5
16F
330
1F
100
AcDbEntity
  8
C-9
  6
Continuous
 62
     6
370
     9
100
AcDbLine
 10
-451.0272193599388
 20
824.0725460567992
 30
0.0
 11
-453.0275228861211
 21
832.0727704022383
 31
0.0
  0
LINE
  5
170
330
1F
100
AcDbEntity
  8
C-9
  6
Continuous
 62
     6
370
     9
100
AcDbLine
 10
-449.5279814745925
 20
824.0725460567992
 30
0.0
 11
-451.0272193599388
 21
824.0725460567992
 31
0.0
  0
LINE
  5
171
330
1F
100
AcDbEntity
  8
C-9
  6
Continuous
 62
     6
370
     9
100
AcDbLine
 10
-447.5278016683214
 20
832.0727704022383
 30
0.0
 11
-453.0275228861211
 21
832.0727704022383
 31
0.0
  0
LINE
  5
172
330
1F
100
AcDbEntity
  8
C-9
  6
Continuous
 62
     6
370
     9
100
AcDbLine
 10
-446.887179967519
 20
832.5728462837839
 30
0.0
 11
-449.1375214344743
 21
823.5719752956084
 31
0.0
  0
LINE
  5
173
330
1F
100
AcDbEntity
  8
C-9
  6
Continuous
 62
     6
370
     9
100
AcDbLine
 10
-451.4176794000571
 20
823.5719752956084
 30
0.0
 11
-453.6686394665688
 21
832.5728462837839
 31
0.0
  0
LINE
  5
174
330
1F
100
AcDbEntity
  8
C-9
  6
Continuous
 62
     6
370
     9
100
AcDbLine
 10
-447.5278016683214
 20
832.0727704022383
 30
0.0
 11
-449.5279814745925
 21
824.0725460567992
 31
0.0
  0
LINE
  5
175
330
1F
100
AcDbEntity
  8
C-9
  6
Continuous
 62
     6
370
     9
100
AcDbLine
 10
-446.887179967519
 20
832.5728462837839
 30
0.0
 11
-447.5278016683214
 21
832.0727704022383
 31
0.0
  0
LINE
  5
176
330
1F
100
AcDbEntity
  8
C-9
  6
Continuous
 62
     6
370
     9
100
AcDbLine
 10
-453.0275228861211
 20
832.0727704022383
 30
0.0
 11
-453.6686394665688
 21
832.5728462837839
 31
0.0
  0
LINE
  5
177
330
1F
100
AcDbEntity
  8
C-9
  6
Continuous
 62
     6
370
     9
100
AcDbLine
 10
-451.0272193599388
 20
824.0725460567992
 30
0.0
 11
-451.4176794000571
 21
823.5719752956084
 31
0.0
  0
LINE
  5
178
330
1F
100
AcDbEntity
  8
C-9
  6
Continuous
 62
     6
370
     9
100
AcDbLine
 10
-449.1375214344743
 20
823.5719752956084
 30
0.0
 11
-449.5279814745925
 21
824.0725460567992
 31
0.0
  0
LINE
  5
179
330
1F
100
AcDbEntity
  8
C-9
  6
Continuous
 62
     6
370
     9
100
AcDbLine
 10
-409.0274024654076
 20
832.0727704022383
 30
0.0
 11
-407.0287072980722
 21
824.0725460567992
 31
0.0
  0
LINE
  5
17A
330
1F
100
AcDbEntity
  8
C-9
  6
Continuous
 62
     6
370
     9
100
AcDbLine
 10
-410.5281249896896
 20
832.0727704022383
 30
0.0
 11
-412.5283047959607
 21
824.0725460567992
 31
0.0
  0
LINE
  5
17B
330
1F
100
AcDbEntity
  8
C-9
  6
Continuous
 62
     6
370
     9
100
AcDbLine
 10
-409.0274024654076
 20
832.0727704022383
 30
0.0
 11
-410.5281249896896
 21
832.0727704022383
 31
0.0
  0
LINE
  5
17C
330
1F
100
AcDbEntity
  8
C-9
  6
Continuous
 62
     6
370
     9
100
AcDbLine
 10
-407.0287072980722
 20
824.0725460567992
 30
0.0
 11
-412.5283047959607
 21
824.0725460567992
 31
0.0
  0
LINE
  5
17D
330
1F
100
AcDbEntity
  8
C-9
  6
Continuous
 62
     6
370
     9
100
AcDbLine
 10
-408.6374373049344
 20
832.5728462837839
 30
0.0
 11
-406.3874669977133
 21
823.5719752956084
 31
0.0
  0
LINE
  5
17E
330
1F
100
AcDbEntity
  8
C-9
  6
Continuous
 62
     6
370
     9
100
AcDbLine
 10
-410.9185850298078
 20
832.5728462837839
 30
0.0
 11
-413.1690502166745
 21
823.5719752956084
 31
0.0
  0
LINE
  5
17F
330
1F
100
AcDbEntity
  8
C-9
  6
Continuous
 62
     6
370
     9
100
AcDbLine
 10
-408.6374373049344
 20
832.5728462837839
 30
0.0
 11
-409.0274024654076
 21
832.0727704022383
 31
0.0
  0
LINE
  5
180
330
1F
100
AcDbEntity
  8
C-9
  6
Continuous
 62
     6
370
     9
100
AcDbLine
 10
-410.9185850298078
 20
832.5728462837839
 30
0.0
 11
-410.5281249896896
 21
832.0727704022383
 31
0.0
  0
LINE
  5
181
330
1F
100
AcDbEntity
  8
C-9
  6
Continuous
 62
     6
370
     9
100
AcDbLine
 10
-412.5283047959607
 20
824.0725460567992
 30
0.0
 11
-413.1690502166745
 21
823.5719752956084
 31
0.0
  0
LINE
  5
182
330
1F
100
AcDbEntity
  8
C-9
  6
Continuous
 62
     6
370
     9
100
AcDbLine
 10
-406.3874669977133
 20
823.5719752956084
 30
0.0
 11
-407.0287072980722
 21
824.0725460567992
 31
0.0
  0
LINE
  5
183
330
1F
100
AcDbEntity
  8
C-9
  6
Continuous
 62
     6
370
     9
100
AcDbLine
 10
-424.0276993931946
 20
824.0725460567992
 30
0.0
 11
-426.0278791994656
 21
832.0727704022383
 31
0.0
  0
LINE
  5
184
330
1F
100
AcDbEntity
  8
C-9
  6
Continuous
 62
     6
370
     9
100
AcDbLine
 10
-422.5273480286467
 20
824.0725460567992
 30
0.0
 11
-424.0276993931946
 21
824.0725460567992
 31
0.0
  0
LINE
  5
185
330
1F
100
AcDbEntity
  8
C-9
  6
Continuous
 62
     6
370
     9
100
AcDbLine
 10
-420.5276631020206
 20
832.0727704022383
 30
0.0
 11
-426.0278791994656
 21
832.0727704022383
 31
0.0
  0
LINE
  5
186
330
1F
100
AcDbEntity
  8
C-9
  6
Continuous
 62
     6
370
     9
100
AcDbLine
 10
-419.8880311605089
 20
832.5728462837839
 30
0.0
 11
-422.1375065880849
 21
823.5719752956084
 31
0.0
  0
LINE
  5
187
330
1F
100
AcDbEntity
  8
C-9
  6
Continuous
 62
     6
370
     9
100
AcDbLine
 10
-424.4181594333128
 20
823.5719752956084
 30
0.0
 11
-426.6685009002683
 21
832.5728462837839
 31
0.0
  0
LINE
  5
188
330
1F
100
AcDbEntity
  8
C-9
  6
Continuous
 62
     6
370
     9
100
AcDbLine
 10
-420.5276631020206
 20
832.0727704022383
 30
0.0
 11
-422.5273480286467
 21
824.0725460567992
 31
0.0
  0
LINE
  5
189
330
1F
100
AcDbEntity
  8
C-9
  6
Continuous
 62
     6
370
     9
100
AcDbLine
 10
-419.8880311605089
 20
832.5728462837839
 30
0.0
 11
-420.5276631020206
 21
832.0727704022383
 31
0.0
  0
LINE
  5
18A
330
1F
100
AcDbEntity
  8
C-9
  6
Continuous
 62
     6
370
     9
100
AcDbLine
 10
-426.0278791994656
 20
832.0727704022383
 30
0.0
 11
-426.6685009002683
 21
832.5728462837839
 31
0.0
  0
LINE
  5
18B
330
1F
100
AcDbEntity
  8
C-9
  6
Continuous
 62
     6
370
     9
100
AcDbLine
 10
-424.0276993931946
 20
824.0725460567992
 30
0.0
 11
-424.4181594333128
 21
823.5719752956084
 31
0.0
  0
LINE
  5
18C
330
1F
100
AcDbEntity
  8
C-9
  6
Continuous
 62
     6
370
     9
100
AcDbLine
 10
-422.1375065880849
 20
823.5719752956084
 30
0.0
 11
-422.5273480286467
 21
824.0725460567992
 31
0.0
  0
LINE
  5
18D
330
1F
100
AcDbEntity
  8
C-9
  6
Continuous
 62
     6
370
     9
100
AcDbLine
 10
-499.5921096286253
 20
817.1721917229731
 30
0.0
 11
-497.5924247019995
 21
809.1722148173565
 31
0.0
  0
LINE
  5
18E
330
1F
100
AcDbEntity
  8
C-9
  6
Continuous
 62
     6
370
     9
100
AcDbLine
 10
-501.0919661135281
 20
817.1721917229731
 30
0.0
 11
-503.0921459197995
 21
809.1722148173565
 31
0.0
  0
LINE
  5
18F
330
1F
100
AcDbEntity
  8
C-9
  6
Continuous
 62
     6
370
     9
100
AcDbLine
 10
-499.5921096286253
 20
817.1721917229731
 30
0.0
 11
-501.0919661135281
 21
817.1721917229731
 31
0.0
  0
LINE
  5
190
330
1F
100
AcDbEntity
  8
C-9
  6
Continuous
 62
     6
370
     9
100
AcDbLine
 10
-497.5924247019995
 20
809.1722148173565
 30
0.0
 11
-503.0921459197995
 21
809.1722148173565
 31
0.0
  0
LINE
  5
191
330
1F
100
AcDbEntity
  8
C-9
  6
Continuous
 62
     6
370
     9
100
AcDbLine
 10
-499.201154708862
 20
817.6725150443415
 30
0.0
 11
-496.9513081215518
 21
808.6723863756336
 31
0.0
  0
LINE
  5
192
330
1F
100
AcDbEntity
  8
C-9
  6
Continuous
 62
     6
370
     9
100
AcDbLine
 10
-501.4818075540899
 20
817.6725150443415
 30
0.0
 11
-503.7322727409565
 21
808.6723863756336
 31
0.0
  0
LINE
  5
193
330
1F
100
AcDbEntity
  8
C-9
  6
Continuous
 62
     6
370
     9
100
AcDbLine
 10
-499.201154708862
 20
817.6725150443415
 30
0.0
 11
-499.5921096286253
 21
817.1721917229731
 31
0.0
  0
LINE
  5
194
330
1F
100
AcDbEntity
  8
C-9
  6
Continuous
 62
     6
370
     9
100
AcDbLine
 10
-501.4818075540899
 20
817.6725150443415
 30
0.0
 11
-501.0919661135281
 21
817.1721917229731
 31
0.0
  0
LINE
  5
195
330
1F
100
AcDbEntity
  8
C-9
  6
Continuous
 62
     6
370
     9
100
AcDbLine
 10
-503.0921459197995
 20
809.1722148173565
 30
0.0
 11
-503.7322727409565
 21
808.6723863756336
 31
0.0
  0
LINE
  5
196
330
1F
100
AcDbEntity
  8
C-9
  6
Continuous
 62
     6
370
     9
100
AcDbLine
 10
-496.9513081215518
 20
808.6723863756336
 30
0.0
 11
-497.5924247019995
 21
809.1722148173565
 31
0.0
  0
LINE
  5
197
330
1F
100
AcDbEntity
  8
C-9
  6
Continuous
 62
     6
370
     9
100
AcDbLine
 10
-472.5925896618813
 20
817.1721917229731
 30
0.0
 11
-470.592286135699
 21
809.1722148173565
 31
0.0
  0
LINE
  5
198
330
1F
100
AcDbEntity
  8
C-9
  6
Continuous
 62
     6
370
     9
100
AcDbLine
 10
-474.092322426873
 20
817.1721917229731
 30
0.0
 11
-476.0920073534987
 21
809.1722148173565
 31
0.0
  0
LINE
  5
199
330
1F
100
AcDbEntity
  8
C-9
  6
Continuous
 62
     6
370
     9
100
AcDbLine
 10
-472.5925896618813
 20
817.1721917229731
 30
0.0
 11
-474.092322426873
 21
817.1721917229731
 31
0.0
  0
LINE
  5
19A
330
1F
100
AcDbEntity
  8
C-9
  6
Continuous
 62
     6
370
     9
100
AcDbLine
 10
-470.592286135699
 20
809.1722148173565
 30
0.0
 11
-476.0920073534987
 21
809.1722148173565
 31
0.0
  0
LINE
  5
19B
330
1F
100
AcDbEntity
  8
C-9
  6
Continuous
 62
     6
370
     9
100
AcDbLine
 10
-472.202129621763
 20
817.6725150443415
 30
0.0
 11
-469.9516644348967
 21
808.6723863756336
 31
0.0
  0
LINE
  5
19C
330
1F
100
AcDbEntity
  8
C-9
  6
Continuous
 62
     6
370
     9
100
AcDbLine
 10
-474.4822875873459
 20
817.6725150443415
 30
0.0
 11
-476.7332476538576
 21
808.6723863756336
 31
0.0
  0
LINE
  5
19D
330
1F
100
AcDbEntity
  8
C-9
  6
Continuous
 62
     6
370
     9
100
AcDbLine
 10
-472.202129621763
 20
817.6725150443415
 30
0.0
 11
-472.5925896618813
 21
817.1721917229731
 31
0.0
  0
LINE
  5
19E
330
1F
100
AcDbEntity
  8
C-9
  6
Continuous
 62
     6
370
     9
100
AcDbLine
 10
-474.4822875873459
 20
817.6725150443415
 30
0.0
 11
-474.092322426873
 21
817.1721917229731
 31
0.0
  0
LINE
  5
19F
330
1F
100
AcDbEntity
  8
C-9
  6
Continuous
 62
     6
370
     9
100
AcDbLine
 10
-476.0920073534987
 20
809.1722148173565
 30
0.0
 11
-476.7332476538576
 21
808.6723863756336
 31
0.0
  0
LINE
  5
1A0
330
1F
100
AcDbEntity
  8
C-9
  6
Continuous
 62
     6
370
     9
100
AcDbLine
 10
-469.9516644348967
 20
808.6723863756336
 30
0.0
 11
-470.592286135699
 21
809.1722148173565
 31
0.0
  0
LINE
  5
1A1
330
1F
100
AcDbEntity
  8
C-9
  6
Continuous
 62
     6
370
     9
100
AcDbLine
 10
-487.5918968303779
 20
809.1722148173565
 30
0.0
 11
-489.5925715162943
 21
817.1721917229731
 31
0.0
  0
LINE
  5
1A2
330
1F
100
AcDbEntity
  8
C-9
  6
Continuous
 62
     6
370
     9
100
AcDbLine
 10
-486.092040345475
 20
809.1722148173565
 30
0.0
 11
-487.5918968303779
 21
809.1722148173565
 31
0.0
  0
LINE
  5
1A3
330
1F
100
AcDbEntity
  8
C-9
  6
Continuous
 62
     6
370
     9
100
AcDbLine
 10
-484.0918605392039
 20
817.1721917229731
 30
0.0
 11
-489.5925715162943
 21
817.1721917229731
 31
0.0
  0
LINE
  5
1A4
330
1F
100
AcDbEntity
  8
C-9
  6
Continuous
 62
     6
370
     9
100
AcDbLine
 10
-483.4522285976922
 20
817.6725150443415
 30
0.0
 11
-485.7017040252683
 21
808.6723863756336
 31
0.0
  0
LINE
  5
1A5
330
1F
100
AcDbEntity
  8
C-9
  6
Continuous
 62
     6
370
     9
100
AcDbLine
 10
-487.9818619908508
 20
808.6723863756336
 30
0.0
 11
-490.2326983374513
 21
817.6725150443415
 31
0.0
  0
LINE
  5
1A6
330
1F
100
AcDbEntity
  8
C-9
  6
Continuous
 62
     6
370
     9
100
AcDbLine
 10
-484.0918605392039
 20
817.1721917229731
 30
0.0
 11
-486.092040345475
 21
809.1722148173565
 31
0.0
  0
LINE
  5
1A7
330
1F
100
AcDbEntity
  8
C-9
  6
Continuous
 62
     6
370
     9
100
AcDbLine
 10
-483.4522285976922
 20
817.6725150443415
 30
0.0
 11
-484.0918605392039
 21
817.1721917229731
 31
0.0
  0
LINE
  5
1A8
330
1F
100
AcDbEntity
  8
C-9
  6
Continuous
 62
     6
370
     9
100
AcDbLine
 10
-489.5925715162943
 20
817.1721917229731
 30
0.0
 11
-490.2326983374513
 21
817.6725150443415
 31
0.0
  0
LINE
  5
1A9
330
1F
100
AcDbEntity
  8
C-9
  6
Continuous
 62
     6
370
     9
100
AcDbLine
 10
-487.5918968303779
 20
809.1722148173565
 30
0.0
 11
-487.9818619908508
 21
808.6723863756336
 31
0.0
  0
LINE
  5
1AA
330
1F
100
AcDbEntity
  8
C-9
  6
Continuous
 62
     6
370
     9
100
AcDbLine
 10
-485.7017040252683
 20
808.6723863756336
 30
0.0
 11
-486.092040345475
 21
809.1722148173565
 31
0.0
  0
LINE
  5
1AB
330
1F
100
AcDbEntity
  8
C-9
  6
Continuous
 62
     6
370
     9
100
AcDbLine
 10
-445.5924510955808
 20
817.1721917229731
 30
0.0
 11
-443.5927661689547
 21
809.1722148173565
 31
0.0
  0
LINE
  5
1AC
330
1F
100
AcDbEntity
  8
C-9
  6
Continuous
 62
     6
370
     9
100
AcDbLine
 10
-447.093297339774
 20
817.1721917229731
 30
0.0
 11
-449.0924873867547
 21
809.1722148173565
 31
0.0
  0
LINE
  5
1AD
330
1F
100
AcDbEntity
  8
C-9
  6
Continuous
 62
     6
370
     9
100
AcDbLine
 10
-445.5924510955808
 20
817.1721917229731
 30
0.0
 11
-447.093297339774
 21
817.1721917229731
 31
0.0
  0
LINE
  5
1AE
330
1F
100
AcDbEntity
  8
C-9
  6
Continuous
 62
     6
370
     9
100
AcDbLine
 10
-443.5927661689547
 20
809.1722148173565
 30
0.0
 11
-449.0924873867547
 21
809.1722148173565
 31
0.0
  0
LINE
  5
1AF
330
1F
100
AcDbEntity
  8
C-9
  6
Continuous
 62
     6
370
     9
100
AcDbLine
 10
-445.2024859351076
 20
817.6725150443415
 30
0.0
 11
-442.9526393477977
 21
808.6723863756336
 31
0.0
  0
LINE
  5
1B0
330
1F
100
AcDbEntity
  8
C-9
  6
Continuous
 62
     6
370
     9
100
AcDbLine
 10
-447.4826439006904
 20
817.6725150443415
 30
0.0
 11
-449.7331090875571
 21
808.6723863756336
 31
0.0
  0
LINE
  5
1B1
330
1F
100
AcDbEntity
  8
C-9
  6
Continuous
 62
     6
370
     9
100
AcDbLine
 10
-445.2024859351076
 20
817.6725150443415
 30
0.0
 11
-445.5924510955808
 21
817.1721917229731
 31
0.0
  0
LINE
  5
1B2
330
1F
100
AcDbEntity
  8
C-9
  6
Continuous
 62
     6
370
     9
100
AcDbLine
 10
-447.4826439006904
 20
817.6725150443415
 30
0.0
 11
-447.093297339774
 21
817.1721917229731
 31
0.0
  0
LINE
  5
1B3
330
1F
100
AcDbEntity
  8
C-9
  6
Continuous
 62
     6
370
     9
100
AcDbLine
 10
-449.0924873867547
 20
809.1722148173565
 30
0.0
 11
-449.7331090875571
 21
808.6723863756336
 31
0.0
  0
LINE
  5
1B4
330
1F
100
AcDbEntity
  8
C-9
  6
Continuous
 62
     6
370
     9
100
AcDbLine
 10
-442.9526393477977
 20
808.6723863756336
 30
0.0
 11
-443.5927661689547
 21
809.1722148173565
 31
0.0
  0
LINE
  5
1B5
330
1F
100
AcDbEntity
  8
C-9
  6
Continuous
 62
     6
370
     9
100
AcDbLine
 10
-460.5927480233677
 20
809.1722148173565
 30
0.0
 11
-462.5930515495503
 21
817.1721917229731
 31
0.0
  0
LINE
  5
1B6
330
1F
100
AcDbEntity
  8
C-9
  6
Continuous
 62
     6
370
     9
100
AcDbLine
 10
-459.0930152583763
 20
809.1722148173565
 30
0.0
 11
-460.5927480233677
 21
809.1722148173565
 31
0.0
  0
LINE
  5
1B7
330
1F
100
AcDbEntity
  8
C-9
  6
Continuous
 62
     6
370
     9
100
AcDbLine
 10
-457.0923405724599
 20
817.1721917229731
 30
0.0
 11
-462.5930515495503
 21
817.1721917229731
 31
0.0
  0
LINE
  5
1B8
330
1F
100
AcDbEntity
  8
C-9
  6
Continuous
 62
     6
370
     9
100
AcDbLine
 10
-456.4520900313914
 20
817.6725150443415
 30
0.0
 11
-458.7020603386128
 21
808.6723863756336
 31
0.0
  0
LINE
  5
1B9
330
1F
100
AcDbEntity
  8
C-9
  6
Continuous
 62
     6
370
     9
100
AcDbLine
 10
-460.9827131838406
 20
808.6723863756336
 30
0.0
 11
-463.2336732503526
 21
817.6725150443415
 31
0.0
  0
LINE
  5
1BA
330
1F
100
AcDbEntity
  8
C-9
  6
Continuous
 62
     6
370
     9
100
AcDbLine
 10
-457.0923405724599
 20
817.1721917229731
 30
0.0
 11
-459.0930152583763
 21
809.1722148173565
 31
0.0
  0
LINE
  5
1BB
330
1F
100
AcDbEntity
  8
C-9
  6
Continuous
 62
     6
370
     9
100
AcDbLine
 10
-456.4520900313914
 20
817.6725150443415
 30
0.0
 11
-457.0923405724599
 21
817.1721917229731
 31
0.0
  0
LINE
  5
1BC
330
1F
100
AcDbEntity
  8
C-9
  6
Continuous
 62
     6
370
     9
100
AcDbLine
 10
-462.5930515495503
 20
817.1721917229731
 30
0.0
 11
-463.2336732503526
 21
817.6725150443415
 31
0.0
  0
LINE
  5
1BD
330
1F
100
AcDbEntity
  8
C-9
  6
Continuous
 62
     6
370
     9
100
AcDbLine
 10
-460.5927480233677
 20
809.1722148173565
 30
0.0
 11
-460.9827131838406
 21
808.6723863756336
 31
0.0
  0
LINE
  5
1BE
330
1F
100
AcDbEntity
  8
C-9
  6
Continuous
 62
     6
370
     9
100
AcDbLine
 10
-458.7020603386128
 20
808.6723863756336
 30
0.0
 11
-459.0930152583763
 21
809.1722148173565
 31
0.0
  0
LINE
  5
1BF
330
1F
100
AcDbEntity
  8
C-9
  6
Continuous
 62
     6
370
     9
100
AcDbLine
 10
-418.5929311288365
 20
817.1721917229731
 30
0.0
 11
-416.5931224822995
 21
809.1722148173565
 31
0.0
  0
LINE
  5
1C0
330
1F
100
AcDbEntity
  8
C-9
  6
Continuous
 62
     6
370
     9
100
AcDbLine
 10
-420.0936536531188
 20
817.1721917229731
 30
0.0
 11
-422.0933385797446
 21
809.1722148173565
 31
0.0
  0
LINE
  5
1C1
330
1F
100
AcDbEntity
  8
C-9
  6
Continuous
 62
     6
370
     9
100
AcDbLine
 10
-418.5929311288365
 20
817.1721917229731
 30
0.0
 11
-420.0936536531188
 21
817.1721917229731
 31
0.0
  0
LINE
  5
1C2
330
1F
100
AcDbEntity
  8
C-9
  6
Continuous
 62
     6
370
     9
100
AcDbLine
 10
-416.5931224822995
 20
809.1722148173565
 30
0.0
 11
-422.0933385797446
 21
809.1722148173565
 31
0.0
  0
LINE
  5
1C3
330
1F
100
AcDbEntity
  8
C-9
  6
Continuous
 62
     6
370
     9
100
AcDbLine
 10
-418.2024710887183
 20
817.6725150443415
 30
0.0
 11
-415.9529956611422
 21
808.6723863756336
 31
0.0
  0
LINE
  5
1C4
330
1F
100
AcDbEntity
  8
C-9
  6
Continuous
 62
     6
370
     9
100
AcDbLine
 10
-420.4836188135917
 20
817.6725150443415
 30
0.0
 11
-422.7334654009016
 21
808.6723863756336
 31
0.0
  0
LINE
  5
1C5
330
1F
100
AcDbEntity
  8
C-9
  6
Continuous
 62
     6
370
     9
100
AcDbLine
 10
-418.2024710887183
 20
817.6725150443415
 30
0.0
 11
-418.5929311288365
 21
817.1721917229731
 31
0.0
  0
LINE
  5
1C6
330
1F
100
AcDbEntity
  8
C-9
  6
Continuous
 62
     6
370
     9
100
AcDbLine
 10
-420.4836188135917
 20
817.6725150443415
 30
0.0
 11
-420.0936536531188
 21
817.1721917229731
 31
0.0
  0
LINE
  5
1C7
330
1F
100
AcDbEntity
  8
C-9
  6
Continuous
 62
     6
370
     9
100
AcDbLine
 10
-422.0933385797446
 20
809.1722148173565
 30
0.0
 11
-422.7334654009016
 21
808.6723863756336
 31
0.0
  0
LINE
  5
1C8
330
1F
100
AcDbEntity
  8
C-9
  6
Continuous
 62
     6
370
     9
100
AcDbLine
 10
-415.9529956611422
 20
808.6723863756336
 30
0.0
 11
-416.5931224822995
 21
809.1722148173565
 31
0.0
  0
LINE
  5
1C9
330
1F
100
AcDbEntity
  8
C-9
  6
Continuous
 62
     6
370
     9
100
AcDbLine
 10
-433.5927331769784
 20
809.1722148173565
 30
0.0
 11
-435.5929129832495
 21
817.1721917229731
 31
0.0
  0
LINE
  5
1CA
330
1F
100
AcDbEntity
  8
C-9
  6
Continuous
 62
     6
370
     9
100
AcDbLine
 10
-432.0933715717209
 20
809.1722148173565
 30
0.0
 11
-433.5927331769784
 21
809.1722148173565
 31
0.0
  0
LINE
  5
1CB
330
1F
100
AcDbEntity
  8
C-9
  6
Continuous
 62
     6
370
     9
100
AcDbLine
 10
-430.0931917654498
 20
817.1721917229731
 30
0.0
 11
-435.5929129832495
 21
817.1721917229731
 31
0.0
  0
LINE
  5
1CC
330
1F
100
AcDbEntity
  8
C-9
  6
Continuous
 62
     6
370
     9
100
AcDbLine
 10
-429.4525700646474
 20
817.6725150443415
 30
0.0
 11
-431.7030352515138
 21
808.6723863756336
 31
0.0
  0
LINE
  5
1CD
330
1F
100
AcDbEntity
  8
C-9
  6
Continuous
 62
     6
370
     9
100
AcDbLine
 10
-433.9831932170966
 20
808.6723863756336
 30
0.0
 11
-436.2340295636972
 21
817.6725150443415
 31
0.0
  0
LINE
  5
1CE
330
1F
100
AcDbEntity
  8
C-9
  6
Continuous
 62
     6
370
     9
100
AcDbLine
 10
-430.0931917654498
 20
817.1721917229731
 30
0.0
 11
-432.0933715717209
 21
809.1722148173565
 31
0.0
  0
LINE
  5
1CF
330
1F
100
AcDbEntity
  8
C-9
  6
Continuous
 62
     6
370
     9
100
AcDbLine
 10
-429.4525700646474
 20
817.6725150443415
 30
0.0
 11
-430.0931917654498
 21
817.1721917229731
 31
0.0
  0
LINE
  5
1D0
330
1F
100
AcDbEntity
  8
C-9
  6
Continuous
 62
     6
370
     9
100
AcDbLine
 10
-435.5929129832495
 20
817.1721917229731
 30
0.0
 11
-436.2340295636972
 21
817.6725150443415
 31
0.0
  0
LINE
  5
1D1
330
1F
100
AcDbEntity
  8
C-9
  6
Continuous
 62
     6
370
     9
100
AcDbLine
 10
-433.5927331769784
 20
809.1722148173565
 30
0.0
 11
-433.9831932170966
 21
808.6723863756336
 31
0.0
  0
LINE
  5
1D2
330
1F
100
AcDbEntity
  8
C-9
  6
Continuous
 62
     6
370
     9
100
AcDbLine
 10
-431.7030352515138
 20
808.6723863756336
 30
0.0
 11
-432.0933715717209
 21
809.1722148173565
 31
0.0
  0
LINE
  5
1D3
330
1F
100
AcDbEntity
  8
C-9
  6
Continuous
 62
     6
370
     9
100
AcDbLine
 10
-486.5022955714042
 20
802.2718604835304
 30
0.0
 11
-484.5021157651331
 21
794.2726258973818
 31
0.0
  0
LINE
  5
1D4
330
1F
100
AcDbEntity
  8
C-9
  6
Continuous
 62
     6
370
     9
100
AcDbLine
 10
-488.0021520563071
 20
802.2718604835304
 30
0.0
 11
-490.0018369829328
 21
794.2726258973818
 31
0.0
  0
LINE
  5
1D5
330
1F
100
AcDbEntity
  8
C-9
  6
Continuous
 62
     6
370
     9
100
AcDbLine
 10
-486.5022955714042
 20
802.2718604835304
 30
0.0
 11
-488.0021520563071
 21
802.2718604835304
 31
0.0
  0
LINE
  5
1D6
330
1F
100
AcDbEntity
  8
C-9
  6
Continuous
 62
     6
370
     9
100
AcDbLine
 10
-484.5021157651331
 20
794.2726258973818
 30
0.0
 11
-490.0018369829328
 21
794.2726258973818
 31
0.0
  0
LINE
  5
1D7
330
1F
100
AcDbEntity
  8
C-9
  6
Continuous
 62
     6
370
     9
100
AcDbLine
 10
-486.1119592511972
 20
802.7721838048988
 30
0.0
 11
-483.8609991846855
 21
793.7725500158363
 31
0.0
  0
LINE
  5
1D8
330
1F
100
AcDbEntity
  8
C-9
  6
Continuous
 62
     6
370
     9
100
AcDbLine
 10
-488.3926120964253
 20
802.7721838048988
 30
0.0
 11
-490.6429535633805
 21
793.7725500158363
 31
0.0
  0
LINE
  5
1D9
330
1F
100
AcDbEntity
  8
C-9
  6
Continuous
 62
     6
370
     9
100
AcDbLine
 10
-486.1119592511972
 20
802.7721838048988
 30
0.0
 11
-486.5022955714042
 21
802.2718604835304
 31
0.0
  0
LINE
  5
1DA
330
1F
100
AcDbEntity
  8
C-9
  6
Continuous
 62
     6
370
     9
100
AcDbLine
 10
-488.3926120964253
 20
802.7721838048988
 30
0.0
 11
-488.0021520563071
 21
802.2718604835304
 31
0.0
  0
LINE
  5
1DB
330
1F
100
AcDbEntity
  8
C-9
  6
Continuous
 62
     6
370
     9
100
AcDbLine
 10
-490.0018369829328
 20
794.2726258973818
 30
0.0
 11
-490.6429535633805
 21
793.7725500158363
 31
0.0
  0
LINE
  5
1DC
330
1F
100
AcDbEntity
  8
C-9
  6
Continuous
 62
     6
370
     9
100
AcDbLine
 10
-483.8609991846855
 20
793.7725500158363
 30
0.0
 11
-484.5021157651331
 21
794.2726258973818
 31
0.0
  0
LINE
  5
1DD
330
1F
100
AcDbEntity
  8
C-9
  6
Continuous
 62
     6
370
     9
100
AcDbLine
 10
-501.5022213394573
 20
794.2726258973818
 30
0.0
 11
-503.5024011457284
 21
802.2718604835304
 31
0.0
  0
LINE
  5
1DE
330
1F
100
AcDbEntity
  8
C-9
  6
Continuous
 62
     6
370
     9
100
AcDbLine
 10
-500.0018699749091
 20
794.2726258973818
 30
0.0
 11
-501.5022213394573
 21
794.2726258973818
 31
0.0
  0
LINE
  5
1DF
330
1F
100
AcDbEntity
  8
C-9
  6
Continuous
 62
     6
370
     9
100
AcDbLine
 10
-498.001690168638
 20
802.2718604835304
 30
0.0
 11
-503.5024011457284
 21
802.2718604835304
 31
0.0
  0
LINE
  5
1E0
330
1F
100
AcDbEntity
  8
C-9
  6
Continuous
 62
     6
370
     9
100
AcDbLine
 10
-497.3620582271263
 20
802.7721838048988
 30
0.0
 11
-499.6114099347909
 21
793.7725500158363
 31
0.0
  0
LINE
  5
1E1
330
1F
100
AcDbEntity
  8
C-9
  6
Continuous
 62
     6
370
     9
100
AcDbLine
 10
-501.8925576596644
 20
793.7725500158363
 30
0.0
 11
-504.1425279668854
 21
802.7721838048988
 31
0.0
  0
LINE
  5
1E2
330
1F
100
AcDbEntity
  8
C-9
  6
Continuous
 62
     6
370
     9
100
AcDbLine
 10
-498.001690168638
 20
802.2718604835304
 30
0.0
 11
-500.0018699749091
 21
794.2726258973818
 31
0.0
  0
LINE
  5
1E3
330
1F
100
AcDbEntity
  8
C-9
  6
Continuous
 62
     6
370
     9
100
AcDbLine
 10
-497.3620582271263
 20
802.7721838048988
 30
0.0
 11
-498.001690168638
 21
802.2718604835304
 31
0.0
  0
LINE
  5
1E4
330
1F
100
AcDbEntity
  8
C-9
  6
Continuous
 62
     6
370
     9
100
AcDbLine
 10
-503.5024011457284
 20
802.2718604835304
 30
0.0
 11
-504.1425279668854
 21
802.7721838048988
 31
0.0
  0
LINE
  5
1E5
330
1F
100
AcDbEntity
  8
C-9
  6
Continuous
 62
     6
370
     9
100
AcDbLine
 10
-501.5022213394573
 20
794.2726258973818
 30
0.0
 11
-501.8925576596644
 21
793.7725500158363
 31
0.0
  0
LINE
  5
1E6
330
1F
100
AcDbEntity
  8
C-9
  6
Continuous
 62
     6
370
     9
100
AcDbLine
 10
-499.6114099347909
 20
793.7725500158363
 30
0.0
 11
-500.0018699749091
 21
794.2726258973818
 31
0.0
  0
LINE
  5
1E7
330
1F
100
AcDbEntity
  8
C-9
  6
Continuous
 62
     6
370
     9
100
AcDbLine
 10
-459.5022807250149
 20
802.2718604835304
 30
0.0
 11
-457.5025957983888
 21
794.2726258973818
 31
0.0
  0
LINE
  5
1E8
330
1F
100
AcDbEntity
  8
C-9
  6
Continuous
 62
     6
370
     9
100
AcDbLine
 10
-461.0030032492969
 20
802.2718604835304
 30
0.0
 11
-463.0023170161888
 21
794.2726258973818
 31
0.0
  0
LINE
  5
1E9
330
1F
100
AcDbEntity
  8
C-9
  6
Continuous
 62
     6
370
     9
100
AcDbLine
 10
-459.5022807250149
 20
802.2718604835304
 30
0.0
 11
-461.0030032492969
 21
802.2718604835304
 31
0.0
  0
LINE
  5
1EA
330
1F
100
AcDbEntity
  8
C-9
  6
Continuous
 62
     6
370
     9
100
AcDbLine
 10
-457.5025957983888
 20
794.2726258973818
 30
0.0
 11
-463.0023170161888
 21
794.2726258973818
 31
0.0
  0
LINE
  5
1EB
330
1F
100
AcDbEntity
  8
C-9
  6
Continuous
 62
     6
370
     9
100
AcDbLine
 10
-459.1118206848967
 20
802.7721838048988
 30
0.0
 11
-456.86135549803
 21
793.7725500158363
 31
0.0
  0
LINE
  5
1EC
330
1F
100
AcDbEntity
  8
C-9
  6
Continuous
 62
     6
370
     9
100
AcDbLine
 10
-461.3934632894151
 20
802.7721838048988
 30
0.0
 11
-463.6424438373459
 21
793.7725500158363
 31
0.0
  0
LINE
  5
1ED
330
1F
100
AcDbEntity
  8
C-9
  6
Continuous
 62
     6
370
     9
100
AcDbLine
 10
-459.1118206848967
 20
802.7721838048988
 30
0.0
 11
-459.5022807250149
 21
802.2718604835304
 31
0.0
  0
LINE
  5
1EE
330
1F
100
AcDbEntity
  8
C-9
  6
Continuous
 62
     6
370
     9
100
AcDbLine
 10
-461.3934632894151
 20
802.7721838048988
 30
0.0
 11
-461.0030032492969
 21
802.2718604835304
 31
0.0
  0
LINE
  5
1EF
330
1F
100
AcDbEntity
  8
C-9
  6
Continuous
 62
     6
370
     9
100
AcDbLine
 10
-463.0023170161888
 20
794.2726258973818
 30
0.0
 11
-463.6424438373459
 21
793.7725500158363
 31
0.0
  0
LINE
  5
1F0
330
1F
100
AcDbEntity
  8
C-9
  6
Continuous
 62
     6
370
     9
100
AcDbLine
 10
-456.86135549803
 20
793.7725500158363
 30
0.0
 11
-457.5025957983888
 21
794.2726258973818
 31
0.0
  0
LINE
  5
1F1
330
1F
100
AcDbEntity
  8
C-9
  6
Continuous
 62
     6
370
     9
100
AcDbLine
 10
-474.5025776528018
 20
794.2726258973818
 30
0.0
 11
-476.5022625794279
 21
802.2718604835304
 31
0.0
  0
LINE
  5
1F2
330
1F
100
AcDbEntity
  8
C-9
  6
Continuous
 62
     6
370
     9
100
AcDbLine
 10
-473.0028448878105
 20
794.2726258973818
 30
0.0
 11
-474.5025776528018
 21
794.2726258973818
 31
0.0
  0
LINE
  5
1F3
330
1F
100
AcDbEntity
  8
C-9
  6
Continuous
 62
     6
370
     9
100
AcDbLine
 10
-471.0020464819826
 20
802.2718604835304
 30
0.0
 11
-476.5022625794279
 21
802.2718604835304
 31
0.0
  0
LINE
  5
1F4
330
1F
100
AcDbEntity
  8
C-9
  6
Continuous
 62
     6
370
     9
100
AcDbLine
 10
-470.3614247811802
 20
802.7721838048988
 30
0.0
 11
-472.6118899680469
 21
793.7725500158363
 31
0.0
  0
LINE
  5
1F5
330
1F
100
AcDbEntity
  8
C-9
  6
Continuous
 62
     6
370
     9
100
AcDbLine
 10
-474.892542813275
 20
793.7725500158363
 30
0.0
 11
-477.1435028797868
 21
802.7721838048988
 31
0.0
  0
LINE
  5
1F6
330
1F
100
AcDbEntity
  8
C-9
  6
Continuous
 62
     6
370
     9
100
AcDbLine
 10
-471.0020464819826
 20
802.2718604835304
 30
0.0
 11
-473.0028448878105
 21
794.2726258973818
 31
0.0
  0
LINE
  5
1F7
330
1F
100
AcDbEntity
  8
C-9
  6
Continuous
 62
     6
370
     9
100
AcDbLine
 10
-470.3614247811802
 20
802.7721838048988
 30
0.0
 11
-471.0020464819826
 21
802.2718604835304
 31
0.0
  0
LINE
  5
1F8
330
1F
100
AcDbEntity
  8
C-9
  6
Continuous
 62
     6
370
     9
100
AcDbLine
 10
-476.5022625794279
 20
802.2718604835304
 30
0.0
 11
-477.1435028797868
 21
802.7721838048988
 31
0.0
  0
LINE
  5
1F9
330
1F
100
AcDbEntity
  8
C-9
  6
Continuous
 62
     6
370
     9
100
AcDbLine
 10
-474.5025776528018
 20
794.2726258973818
 30
0.0
 11
-474.892542813275
 21
793.7725500158363
 31
0.0
  0
LINE
  5
1FA
330
1F
100
AcDbEntity
  8
C-9
  6
Continuous
 62
     6
370
     9
100
AcDbLine
 10
-472.6118899680469
 20
793.7725500158363
 30
0.0
 11
-473.0028448878105
 21
794.2726258973818
 31
0.0
  0
LINE
  5
1FB
330
1F
100
AcDbEntity
  8
C-9
  6
Continuous
 62
     6
370
     9
100
AcDbLine
 10
-432.5026370383594
 20
802.2718604835304
 30
0.0
 11
-430.5034469913787
 21
794.2726258973818
 31
0.0
  0
LINE
  5
1FC
330
1F
100
AcDbEntity
  8
C-9
  6
Continuous
 62
     6
370
     9
100
AcDbLine
 10
-434.0034832825529
 20
802.2718604835304
 30
0.0
 11
-436.0031682091787
 21
794.2726258973818
 31
0.0
  0
LINE
  5
1FD
330
1F
100
AcDbEntity
  8
C-9
  6
Continuous
 62
     6
370
     9
100
AcDbLine
 10
-432.5026370383594
 20
802.2718604835304
 30
0.0
 11
-434.0034832825529
 21
802.2718604835304
 31
0.0
  0
LINE
  5
1FE
330
1F
100
AcDbEntity
  8
C-9
  6
Continuous
 62
     6
370
     9
100
AcDbLine
 10
-430.5034469913787
 20
794.2726258973818
 30
0.0
 11
-436.0031682091787
 21
794.2726258973818
 31
0.0
  0
LINE
  5
1FF
330
1F
100
AcDbEntity
  8
C-9
  6
Continuous
 62
     6
370
     9
100
AcDbLine
 10
-432.1123007181524
 20
802.7721838048988
 30
0.0
 11
-429.8623304109313
 21
793.7725500158363
 31
0.0
  0
LINE
  5
200
330
1F
100
AcDbEntity
  8
C-9
  6
Continuous
 62
     6
370
     9
100
AcDbLine
 10
-434.3933247231143
 20
802.7721838048988
 30
0.0
 11
-436.6428001506904
 21
793.7725500158363
 31
0.0
  0
LINE
  5
201
330
1F
100
AcDbEntity
  8
C-9
  6
Continuous
 62
     6
370
     9
100
AcDbLine
 10
-432.1123007181524
 20
802.7721838048988
 30
0.0
 11
-432.5026370383594
 21
802.2718604835304
 31
0.0
  0
LINE
  5
202
330
1F
100
AcDbEntity
  8
C-9
  6
Continuous
 62
     6
370
     9
100
AcDbLine
 10
-434.3933247231143
 20
802.7721838048988
 30
0.0
 11
-434.0034832825529
 21
802.2718604835304
 31
0.0
  0
LINE
  5
203
330
1F
100
AcDbEntity
  8
C-9
  6
Continuous
 62
     6
370
     9
100
AcDbLine
 10
-436.0031682091787
 20
794.2726258973818
 30
0.0
 11
-436.6428001506904
 21
793.7725500158363
 31
0.0
  0
LINE
  5
204
330
1F
100
AcDbEntity
  8
C-9
  6
Continuous
 62
     6
370
     9
100
AcDbLine
 10
-429.8623304109313
 20
793.7725500158363
 30
0.0
 11
-430.5034469913787
 21
794.2726258973818
 31
0.0
  0
LINE
  5
205
330
1F
100
AcDbEntity
  8
C-9
  6
Continuous
 62
     6
370
     9
100
AcDbLine
 10
-447.5024390865013
 20
794.2726258973818
 30
0.0
 11
-449.5027426126836
 21
802.2718604835304
 31
0.0
  0
LINE
  5
206
330
1F
100
AcDbEntity
  8
C-9
  6
Continuous
 62
     6
370
     9
100
AcDbLine
 10
-446.003201201155
 20
794.2726258973818
 30
0.0
 11
-447.5024390865013
 21
794.2726258973818
 31
0.0
  0
LINE
  5
207
330
1F
100
AcDbEntity
  8
C-9
  6
Continuous
 62
     6
370
     9
100
AcDbLine
 10
-444.0030213948839
 20
802.2718604835304
 30
0.0
 11
-449.5027426126836
 21
802.2718604835304
 31
0.0
  0
LINE
  5
208
330
1F
100
AcDbEntity
  8
C-9
  6
Continuous
 62
     6
370
     9
100
AcDbLine
 10
-443.3619048144362
 20
802.7721838048988
 30
0.0
 11
-445.6127411610368
 21
793.7725500158363
 31
0.0
  0
LINE
  5
209
330
1F
100
AcDbEntity
  8
C-9
  6
Continuous
 62
     6
370
     9
100
AcDbLine
 10
-447.8928991266196
 20
793.7725500158363
 30
0.0
 11
-450.1438591931313
 21
802.7721838048988
 31
0.0
  0
LINE
  5
20A
330
1F
100
AcDbEntity
  8
C-9
  6
Continuous
 62
     6
370
     9
100
AcDbLine
 10
-444.0030213948839
 20
802.2718604835304
 30
0.0
 11
-446.003201201155
 21
794.2726258973818
 31
0.0
  0
LINE
  5
20B
330
1F
100
AcDbEntity
  8
C-9
  6
Continuous
 62
     6
370
     9
100
AcDbLine
 10
-443.3619048144362
 20
802.7721838048988
 30
0.0
 11
-444.0030213948839
 21
802.2718604835304
 31
0.0
  0
LINE
  5
20C
330
1F
100
AcDbEntity
  8
C-9
  6
Continuous
 62
     6
370
     9
100
AcDbLine
 10
-449.5027426126836
 20
802.2718604835304
 30
0.0
 11
-450.1438591931313
 21
802.7721838048988
 31
0.0
  0
LINE
  5
20D
330
1F
100
AcDbEntity
  8
C-9
  6
Continuous
 62
     6
370
     9
100
AcDbLine
 10
-447.5024390865013
 20
794.2726258973818
 30
0.0
 11
-447.8928991266196
 21
793.7725500158363
 31
0.0
  0
LINE
  5
20E
330
1F
100
AcDbEntity
  8
C-9
  6
Continuous
 62
     6
370
     9
100
AcDbLine
 10
-445.6127411610368
 20
793.7725500158363
 30
0.0
 11
-446.003201201155
 21
794.2726258973818
 31
0.0
  0
LINE
  5
20F
330
1F
100
AcDbEntity
  8
C-9
  6
Continuous
 62
     6
370
     9
100
AcDbLine
 10
-504.1964698482201
 20
787.3730138830238
 30
0.0
 11
-502.196290041949
 21
779.3722946579394
 31
0.0
  0
LINE
  5
210
330
1F
100
AcDbEntity
  8
C-9
  6
Continuous
 62
     6
370
     9
100
AcDbLine
 10
-505.696326333123
 20
787.3730138830238
 30
0.0
 11
-507.6960112597487
 21
779.3722946579394
 31
0.0
  0
LINE
  5
211
330
1F
100
AcDbEntity
  8
C-9
  6
Continuous
 62
     6
370
     9
100
AcDbLine
 10
-504.1964698482201
 20
787.3730138830238
 30
0.0
 11
-505.696326333123
 21
787.3730138830238
 31
0.0
  0
LINE
  5
212
330
1F
100
AcDbEntity
  8
C-9
  6
Continuous
 62
     6
370
     9
100
AcDbLine
 10
-502.196290041949
 20
779.3722946579394
 30
0.0
 11
-507.6960112597487
 21
779.3722946579394
 31
0.0
  0
LINE
  5
213
330
1F
100
AcDbEntity
  8
C-9
  6
Continuous
 62
     6
370
     9
100
AcDbLine
 10
-503.8051437687224
 20
787.8725948849242
 30
0.0
 11
-501.5556683411467
 21
778.8729610958617
 31
0.0
  0
LINE
  5
214
330
1F
100
AcDbEntity
  8
C-9
  6
Continuous
 62
     6
370
     9
100
AcDbLine
 10
-506.0867863732412
 20
787.8725948849242
 30
0.0
 11
-508.3371278401964
 21
778.8729610958617
 31
0.0
  0
LINE
  5
215
330
1F
100
AcDbEntity
  8
C-9
  6
Continuous
 62
     6
370
     9
100
AcDbLine
 10
-503.8051437687224
 20
787.8725948849242
 30
0.0
 11
-504.1964698482201
 21
787.3730138830238
 31
0.0
  0
LINE
  5
216
330
1F
100
AcDbEntity
  8
C-9
  6
Continuous
 62
     6
370
     9
100
AcDbLine
 10
-506.0867863732412
 20
787.8725948849242
 30
0.0
 11
-505.696326333123
 21
787.3730138830238
 31
0.0
  0
LINE
  5
217
330
1F
100
AcDbEntity
  8
C-9
  6
Continuous
 62
     6
370
     9
100
AcDbLine
 10
-507.6960112597487
 20
779.3722946579394
 30
0.0
 11
-508.3371278401964
 21
778.8729610958617
 31
0.0
  0
LINE
  5
218
330
1F
100
AcDbEntity
  8
C-9
  6
Continuous
 62
     6
370
     9
100
AcDbLine
 10
-501.5556683411467
 20
778.8729610958617
 30
0.0
 11
-502.196290041949
 21
779.3722946579394
 31
0.0
  0
LINE
  5
219
330
1F
100
AcDbEntity
  8
C-9
  6
Continuous
 62
     6
370
     9
100
AcDbLine
 10
-477.1964550018308
 20
787.3730138830238
 30
0.0
 11
-475.1967700752047
 21
779.3722946579394
 31
0.0
  0
LINE
  5
21A
330
1F
100
AcDbEntity
  8
C-9
  6
Continuous
 62
     6
370
     9
100
AcDbLine
 10
-478.6971775261128
 20
787.3730138830238
 30
0.0
 11
-480.6964912930047
 21
779.3722946579394
 31
0.0
  0
LINE
  5
21B
330
1F
100
AcDbEntity
  8
C-9
  6
Continuous
 62
     6
370
     9
100
AcDbLine
 10
-477.1964550018308
 20
787.3730138830238
 30
0.0
 11
-478.6971775261128
 21
787.3730138830238
 31
0.0
  0
LINE
  5
21C
330
1F
100
AcDbEntity
  8
C-9
  6
Continuous
 62
     6
370
     9
100
AcDbLine
 10
-475.1967700752047
 20
779.3722946579394
 30
0.0
 11
-480.6964912930047
 21
779.3722946579394
 31
0.0
  0
LINE
  5
21D
330
1F
100
AcDbEntity
  8
C-9
  6
Continuous
 62
     6
370
     9
100
AcDbLine
 10
-476.8059949617125
 20
787.8725948849242
 30
0.0
 11
-474.5565195341365
 21
778.8729610958617
 31
0.0
  0
LINE
  5
21E
330
1F
100
AcDbEntity
  8
C-9
  6
Continuous
 62
     6
370
     9
100
AcDbLine
 10
-479.087637566231
 20
787.8725948849242
 30
0.0
 11
-481.3371129938071
 21
778.8729610958617
 31
0.0
  0
LINE
  5
21F
330
1F
100
AcDbEntity
  8
C-9
  6
Continuous
 62
     6
370
     9
100
AcDbLine
 10
-476.8059949617125
 20
787.8725948849242
 30
0.0
 11
-477.1964550018308
 21
787.3730138830238
 31
0.0
  0
LINE
  5
220
330
1F
100
AcDbEntity
  8
C-9
  6
Continuous
 62
     6
370
     9
100
AcDbLine
 10
-479.087637566231
 20
787.8725948849242
 30
0.0
 11
-478.6971775261128
 21
787.3730138830238
 31
0.0
  0
LINE
  5
221
330
1F
100
AcDbEntity
  8
C-9
  6
Continuous
 62
     6
370
     9
100
AcDbLine
 10
-480.6964912930047
 20
779.3722946579394
 30
0.0
 11
-481.3371129938071
 21
778.8729610958617
 31
0.0
  0
LINE
  5
222
330
1F
100
AcDbEntity
  8
C-9
  6
Continuous
 62
     6
370
     9
100
AcDbLine
 10
-474.5565195341365
 20
778.8729610958617
 30
0.0
 11
-475.1967700752047
 21
779.3722946579394
 31
0.0
  0
LINE
  5
223
330
1F
100
AcDbEntity
  8
C-9
  6
Continuous
 62
     6
370
     9
100
AcDbLine
 10
-492.1967519296177
 20
779.3722946579394
 30
0.0
 11
-494.1964368562438
 21
787.3730138830238
 31
0.0
  0
LINE
  5
224
330
1F
100
AcDbEntity
  8
C-9
  6
Continuous
 62
     6
370
     9
100
AcDbLine
 10
-490.6970191646263
 20
779.3722946579394
 30
0.0
 11
-492.1967519296177
 21
779.3722946579394
 31
0.0
  0
LINE
  5
225
330
1F
100
AcDbEntity
  8
C-9
  6
Continuous
 62
     6
370
     9
100
AcDbLine
 10
-488.6967156384438
 20
787.3730138830238
 30
0.0
 11
-494.1964368562438
 21
787.3730138830238
 31
0.0
  0
LINE
  5
226
330
1F
100
AcDbEntity
  8
C-9
  6
Continuous
 62
     6
370
     9
100
AcDbLine
 10
-488.0560939376414
 20
787.8725948849242
 30
0.0
 11
-490.3055693652175
 21
778.8729610958617
 31
0.0
  0
LINE
  5
227
330
1F
100
AcDbEntity
  8
C-9
  6
Continuous
 62
     6
370
     9
100
AcDbLine
 10
-492.5867170900906
 20
778.8729610958617
 30
0.0
 11
-494.8375534366912
 21
787.8725948849242
 31
0.0
  0
LINE
  5
228
330
1F
100
AcDbEntity
  8
C-9
  6
Continuous
 62
     6
370
     9
100
AcDbLine
 10
-488.6967156384438
 20
787.3730138830238
 30
0.0
 11
-490.6970191646263
 21
779.3722946579394
 31
0.0
  0
LINE
  5
229
330
1F
100
AcDbEntity
  8
C-9
  6
Continuous
 62
     6
370
     9
100
AcDbLine
 10
-488.0560939376414
 20
787.8725948849242
 30
0.0
 11
-488.6967156384438
 21
787.3730138830238
 31
0.0
  0
LINE
  5
22A
330
1F
100
AcDbEntity
  8
C-9
  6
Continuous
 62
     6
370
     9
100
AcDbLine
 10
-494.1964368562438
 20
787.3730138830238
 30
0.0
 11
-494.8375534366912
 21
787.8725948849242
 31
0.0
  0
LINE
  5
22B
330
1F
100
AcDbEntity
  8
C-9
  6
Continuous
 62
     6
370
     9
100
AcDbLine
 10
-492.1967519296177
 20
779.3722946579394
 30
0.0
 11
-492.5867170900906
 21
778.8729610958617
 31
0.0
  0
LINE
  5
22C
330
1F
100
AcDbEntity
  8
C-9
  6
Continuous
 62
     6
370
     9
100
AcDbLine
 10
-490.3055693652175
 20
778.8729610958617
 30
0.0
 11
-490.6970191646263
 21
779.3722946579394
 31
0.0
  0
LINE
  5
22D
330
1F
100
AcDbEntity
  8
C-9
  6
Continuous
 62
     6
370
     9
100
AcDbLine
 10
-450.1968113151753
 20
787.3730138830238
 30
0.0
 11
-448.1976212681946
 21
779.3722946579394
 31
0.0
  0
LINE
  5
22E
330
1F
100
AcDbEntity
  8
C-9
  6
Continuous
 62
     6
370
     9
100
AcDbLine
 10
-451.6976575593688
 20
787.3730138830238
 30
0.0
 11
-453.6973424859946
 21
779.3722946579394
 31
0.0
  0
LINE
  5
22F
330
1F
100
AcDbEntity
  8
C-9
  6
Continuous
 62
     6
370
     9
100
AcDbLine
 10
-450.1968113151753
 20
787.3730138830238
 30
0.0
 11
-451.6976575593688
 21
787.3730138830238
 31
0.0
  0
LINE
  5
230
330
1F
100
AcDbEntity
  8
C-9
  6
Continuous
 62
     6
370
     9
100
AcDbLine
 10
-448.1976212681946
 20
779.3722946579394
 30
0.0
 11
-453.6973424859946
 21
779.3722946579394
 31
0.0
  0
LINE
  5
231
330
1F
100
AcDbEntity
  8
C-9
  6
Continuous
 62
     6
370
     9
100
AcDbLine
 10
-449.8064749949683
 20
787.8725948849242
 30
0.0
 11
-447.5569995673922
 21
778.8729610958617
 31
0.0
  0
LINE
  5
232
330
1F
100
AcDbEntity
  8
C-9
  6
Continuous
 62
     6
370
     9
100
AcDbLine
 10
-452.0876227198417
 20
787.8725948849242
 30
0.0
 11
-454.3374693071516
 21
778.8729610958617
 31
0.0
  0
LINE
  5
233
330
1F
100
AcDbEntity
  8
C-9
  6
Continuous
 62
     6
370
     9
100
AcDbLine
 10
-449.8064749949683
 20
787.8725948849242
 30
0.0
 11
-450.1968113151753
 21
787.3730138830238
 31
0.0
  0
LINE
  5
234
330
1F
100
AcDbEntity
  8
C-9
  6
Continuous
 62
     6
370
     9
100
AcDbLine
 10
-452.0876227198417
 20
787.8725948849242
 30
0.0
 11
-451.6976575593688
 21
787.3730138830238
 31
0.0
  0
LINE
  5
235
330
1F
100
AcDbEntity
  8
C-9
  6
Continuous
 62
     6
370
     9
100
AcDbLine
 10
-453.6973424859946
 20
779.3722946579394
 30
0.0
 11
-454.3374693071516
 21
778.8729610958617
 31
0.0
  0
LINE
  5
236
330
1F
100
AcDbEntity
  8
C-9
  6
Continuous
 62
     6
370
     9
100
AcDbLine
 10
-447.5569995673922
 20
778.8729610958617
 30
0.0
 11
-448.1976212681946
 21
779.3722946579394
 31
0.0
  0
LINE
  5
237
330
1F
100
AcDbEntity
  8
C-9
  6
Continuous
 62
     6
370
     9
100
AcDbLine
 10
-465.1967370832284
 20
779.3722946579394
 30
0.0
 11
-467.1969168894995
 21
787.3730138830238
 31
0.0
  0
LINE
  5
238
330
1F
100
AcDbEntity
  8
C-9
  6
Continuous
 62
     6
370
     9
100
AcDbLine
 10
-463.6968805983255
 20
779.3722946579394
 30
0.0
 11
-465.1967370832284
 21
779.3722946579394
 31
0.0
  0
LINE
  5
239
330
1F
100
AcDbEntity
  8
C-9
  6
Continuous
 62
     6
370
     9
100
AcDbLine
 10
-461.6971956716998
 20
787.3730138830238
 30
0.0
 11
-467.1969168894995
 21
787.3730138830238
 31
0.0
  0
LINE
  5
23A
330
1F
100
AcDbEntity
  8
C-9
  6
Continuous
 62
     6
370
     9
100
AcDbLine
 10
-461.0565739708974
 20
787.8725948849242
 30
0.0
 11
-463.305925678562
 21
778.8729610958617
 31
0.0
  0
LINE
  5
23B
330
1F
100
AcDbEntity
  8
C-9
  6
Continuous
 62
     6
370
     9
100
AcDbLine
 10
-465.5870734034355
 20
778.8729610958617
 30
0.0
 11
-467.8380334699472
 21
787.8725948849242
 31
0.0
  0
LINE
  5
23C
330
1F
100
AcDbEntity
  8
C-9
  6
Continuous
 62
     6
370
     9
100
AcDbLine
 10
-461.6971956716998
 20
787.3730138830238
 30
0.0
 11
-463.6968805983255
 21
779.3722946579394
 31
0.0
  0
LINE
  5
23D
330
1F
100
AcDbEntity
  8
C-9
  6
Continuous
 62
     6
370
     9
100
AcDbLine
 10
-461.0565739708974
 20
787.8725948849242
 30
0.0
 11
-461.6971956716998
 21
787.3730138830238
 31
0.0
  0
LINE
  5
23E
330
1F
100
AcDbEntity
  8
C-9
  6
Continuous
 62
     6
370
     9
100
AcDbLine
 10
-467.1969168894995
 20
787.3730138830238
 30
0.0
 11
-467.8380334699472
 21
787.8725948849242
 31
0.0
  0
LINE
  5
23F
330
1F
100
AcDbEntity
  8
C-9
  6
Continuous
 62
     6
370
     9
100
AcDbLine
 10
-465.1967370832284
 20
779.3722946579394
 30
0.0
 11
-465.5870734034355
 21
778.8729610958617
 31
0.0
  0
LINE
  5
240
330
1F
100
AcDbEntity
  8
C-9
  6
Continuous
 62
     6
370
     9
100
AcDbLine
 10
-463.305925678562
 20
778.8729610958617
 30
0.0
 11
-463.6968805983255
 21
779.3722946579394
 31
0.0
  0
LINE
  5
241
330
1F
100
AcDbEntity
  8
C-0
  6
Continuous
 62
     3
370
     9
100
AcDbLine
 10
637.5397411552638
 20
438.6220488677154
 30
0.0
 11
-12.45869172585941
 21
438.6220488677154
 31
0.0
  0
LINE
  5
242
330
1F
100
AcDbEntity
  8
C-0
  6
Continuous
 62
     3
370
     9
100
AcDbLine
 10
-12.45869172585941
 20
538.6229973870356
 30
0.0
 11
637.5397411552638
 21
538.6229973870356
 31
0.0
  0
LINE
  5
243
330
1F
100
AcDbEntity
  8
C-0
  6
Continuous
 62
     3
370
     9
100
AcDbLine
 10
-12.45869172585941
 20
532.6224579682221
 30
0.0
 11
637.5397411552638
 21
532.6224579682221
 31
0.0
  0
LINE
  5
244
330
1F
100
AcDbEntity
  8
C-2
  6
Continuous
 62
     3
370
     9
100
AcDbLine
 10
2.541728921839024
 20
494.8667289115289
 30
0.0
 11
-12.45869172585941
 21
494.8667289115289
 31
0.0
  0
LINE
  5
245
330
1F
100
AcDbEntity
  8
C-2
  6
Continuous
 62
     3
370
     9
100
AcDbLine
 10
2.541728921839024
 20
494.8667289115289
 30
0.0
 11
-27.45898865364637
 21
474.8661680479307
 31
0.0
  0
LINE
  5
246
330
1F
100
AcDbEntity
  8
C-2
  6
Continuous
 62
     3
370
     9
100
AcDbLine
 10
-12.45869172585941
 20
474.8661680479307
 30
0.0
 11
-27.45898865364637
 21
474.8661680479307
 31
0.0
  0
LINE
  5
247
330
1F
100
AcDbEntity
  8
C-2
  6
Continuous
 62
     3
370
     9
100
AcDbLine
 10
652.5410278423419
 20
494.8667289115289
 30
0.0
 11
637.5397411552638
 21
494.8667289115289
 31
0.0
  0
LINE
  5
248
330
1F
100
AcDbEntity
  8
C-2
  6
Continuous
 62
     3
370
     9
100
AcDbLine
 10
652.5410278423419
 20
494.8667289115289
 30
0.0
 11
622.5404339867674
 21
474.8661680479307
 31
0.0
  0
LINE
  5
249
330
1F
100
AcDbEntity
  8
C-2
  6
Continuous
 62
     3
370
     9
100
AcDbLine
 10
637.5397411552638
 20
474.8661680479307
 30
0.0
 11
622.5404339867674
 21
474.8661680479307
 31
0.0
  0
LINE
  5
24A
330
1F
100
AcDbEntity
  8
C-2
  6
Continuous
 62
     3
370
     9
100
AcDbLine
 10
-12.45869172585941
 20
581.9031916437925
 30
0.0
 11
-12.45869172585941
 21
494.8667289115289
 31
0.0
  0
LINE
  5
24B
330
1F
100
AcDbEntity
  8
C-2
  6
Continuous
 62
     3
370
     9
100
AcDbLine
 10
-12.45869172585941
 20
474.8661680479307
 30
0.0
 11
-12.45869172585941
 21
387.829581595756
 31
0.0
  0
LINE
  5
24C
330
1F
100
AcDbEntity
  8
C-2
  6
Continuous
 62
     3
370
     9
100
AcDbLine
 10
637.5397411552638
 20
581.9031916437925
 30
0.0
 11
637.5397411552638
 21
494.8667289115289
 31
0.0
  0
LINE
  5
24D
330
1F
100
AcDbEntity
  8
C-2
  6
Continuous
 62
     3
370
     9
100
AcDbLine
 10
637.5397411552638
 20
474.8661680479307
 30
0.0
 11
637.5397411552638
 21
387.829581595756
 31
0.0
  0
LINE
  5
24E
330
1F
100
AcDbEntity
  8
C-4
  6
Continuous
 62
     7
370
     9
100
AcDbLine
 10
112.5402360349094
 20
608.080840239654
 30
0.0
 11
512.5415557139632
 21
608.080840239654
 31
0.0
  0
LINE
  5
24F
330
1F
100
AcDbEntity
  8
C-4
  6
Continuous
 62
     7
370
     9
100
AcDbLine
 10
112.5402360349094
 20
550.9933801599453
 30
0.0
 11
112.5402360349094
 21
611.0808006492823
 31
0.0
  0
LINE
  5
250
330
1F
100
AcDbEntity
  8
C-4
  6
Continuous
 62
     7
370
     9
100
AcDbLine
 10
512.5415557139632
 20
550.9933801599453
 30
0.0
 11
512.5415557139632
 21
611.0808006492823
 31
0.0
  0
LINE
  5
251
330
1F
100
AcDbEntity
  8
C-4
  6
Continuous
 62
     7
370
     9
100
AcDbLine
 10
726.9239129246898
 20
438.6220488677154
 30
0.0
 11
726.9239129246898
 21
538.6229973870356
 31
0.0
  0
LINE
  5
252
330
1F
100
AcDbEntity
  8
C-4
  6
Continuous
 62
     7
370
     9
100
AcDbLine
 10
652.2713184356695
 20
438.6220488677154
 30
0.0
 11
729.9238733343179
 21
438.6220488677154
 31
0.0
  0
LINE
  5
253
330
1F
100
AcDbEntity
  8
C-4
  6
Continuous
 62
     7
370
     9
100
AcDbLine
 10
652.2713184356695
 20
538.6229973870356
 30
0.0
 11
729.9238733343179
 21
538.6229973870356
 31
0.0
  0
LINE
  5
254
330
1F
100
AcDbEntity
  8
C-4
  6
Continuous
 62
     3
370
     9
100
AcDbLine
 10
487.7923772141745
 20
478.6223045555323
 30
0.0
 11
512.5415557139632
 21
503.3714830553211
 31
0.0
  0
LINE
  5
255
330
1F
100
AcDbEntity
  8
C-4
  6
Continuous
 62
     3
370
     9
100
AcDbLine
 10
512.5415557139632
 20
503.3714830553211
 30
0.0
 11
537.290239334107
 21
478.6223045555323
 31
0.0
  0
LINE
  5
256
330
1F
100
AcDbEntity
  8
C-4
  6
Continuous
 62
     3
370
     9
100
AcDbLine
 10
494.7909651575867
 20
496.3724002322635
 30
0.0
 11
505.542472890906
 21
496.3724002322635
 31
0.0
  0
LINE
  5
257
330
1F
100
AcDbEntity
  8
C-4
  6
Continuous
 62
     3
370
     9
100
AcDbLine
 10
519.5406385370209
 20
496.3724002322635
 30
0.0
 11
530.2911565110494
 21
496.3724002322635
 31
0.0
  0
LINE
  5
258
330
1F
100
AcDbEntity
  8
C-4
  6
Continuous
 62
     3
370
     9
100
AcDbLine
 10
537.290239334107
 20
478.6223045555323
 30
0.0
 11
512.5415557139632
 21
453.8736209353885
 31
0.0
  0
LINE
  5
259
330
1F
100
AcDbEntity
  8
C-4
  6
Continuous
 62
     3
370
     9
100
AcDbLine
 10
512.5415557139632
 20
453.8736209353885
 30
0.0
 11
487.7923772141745
 21
478.6223045555323
 31
0.0
  0
LINE
  5
25A
330
1F
100
AcDbEntity
  8
C-4
  6
Continuous
 62
     3
370
     9
100
AcDbLine
 10
494.7909651575867
 20
460.8725800385346
 30
0.0
 11
494.7909651575867
 21
471.6237166121201
 31
0.0
  0
LINE
  5
25B
330
1F
100
AcDbEntity
  8
C-4
  6
Continuous
 62
     3
370
     9
100
AcDbLine
 10
494.7909651575867
 20
485.6212636586784
 30
0.0
 11
494.7909651575867
 21
496.3724002322635
 31
0.0
  0
LINE
  5
25C
330
1F
100
AcDbEntity
  8
C-4
  6
Continuous
 62
     3
370
     9
100
AcDbLine
 10
530.2911565110494
 20
460.8725800385346
 30
0.0
 11
519.5406385370209
 21
460.8725800385346
 31
0.0
  0
LINE
  5
25D
330
1F
100
AcDbEntity
  8
C-4
  6
Continuous
 62
     3
370
     9
100
AcDbLine
 10
505.542472890906
 20
460.8725800385346
 30
0.0
 11
494.7909651575867
 21
460.8725800385346
 31
0.0
  0
LINE
  5
25E
330
1F
100
AcDbEntity
  8
C-4
  6
Continuous
 62
     3
370
     9
100
AcDbLine
 10
530.2911565110494
 20
496.3724002322635
 30
0.0
 11
530.2911565110494
 21
485.6212636586784
 31
0.0
  0
LINE
  5
25F
330
1F
100
AcDbEntity
  8
C-4
  6
Continuous
 62
     3
370
     9
100
AcDbLine
 10
530.2911565110494
 20
471.6237166121201
 30
0.0
 11
530.2911565110494
 21
460.8725800385346
 31
0.0
  0
LINE
  5
260
330
1F
100
AcDbEntity
  8
C-0
  6
JWW_CENTER1
 62
     3
370
     9
100
AcDbLine
 10
475.2028864783213
 20
478.6223045555323
 30
0.0
 11
550.659660390906
 21
478.6223045555323
 31
0.0
  0
LINE
  5
261
330
1F
100
AcDbEntity
  8
C-0
  6
JWW_CENTER1
 62
     3
370
     9
100
AcDbLine
 10
512.5415557139632
 20
447.2511415223818
 30
0.0
 11
512.5415557139632
 21
517.5631466427365
 31
0.0
  0
LINE
  5
262
330
1F
100
AcDbEntity
  8
C-4
  6
Continuous
 62
     3
370
     9
100
AcDbLine
 10
87.79105753512027
 20
478.6223045555323
 30
0.0
 11
112.5402360349094
 21
503.3714830553211
 31
0.0
  0
LINE
  5
263
330
1F
100
AcDbEntity
  8
C-4
  6
Continuous
 62
     3
370
     9
100
AcDbLine
 10
112.5402360349094
 20
503.3714830553211
 30
0.0
 11
137.2894145346982
 21
478.6223045555323
 31
0.0
  0
LINE
  5
264
330
1F
100
AcDbEntity
  8
C-4
  6
Continuous
 62
     3
370
     9
100
AcDbLine
 10
94.79014035817784
 20
496.3724002322635
 30
0.0
 11
105.5411532118518
 21
496.3724002322635
 31
0.0
  0
LINE
  5
265
330
1F
100
AcDbEntity
  8
C-4
  6
Continuous
 62
     3
370
     9
100
AcDbLine
 10
119.5393188579666
 20
496.3724002322635
 30
0.0
 11
130.2903317116406
 21
496.3724002322635
 31
0.0
  0
LINE
  5
266
330
1F
100
AcDbEntity
  8
C-4
  6
Continuous
 62
     3
370
     9
100
AcDbLine
 10
137.2894145346982
 20
478.6223045555323
 30
0.0
 11
112.5402360349094
 21
453.8736209353885
 31
0.0
  0
LINE
  5
267
330
1F
100
AcDbEntity
  8
C-4
  6
Continuous
 62
     3
370
     9
100
AcDbLine
 10
112.5402360349094
 20
453.8736209353885
 30
0.0
 11
87.79105753512027
 21
478.6223045555323
 31
0.0
  0
LINE
  5
268
330
1F
100
AcDbEntity
  8
C-4
  6
Continuous
 62
     3
370
     9
100
AcDbLine
 10
94.79014035817784
 20
460.8725800385346
 30
0.0
 11
94.79014035817784
 21
471.6237166121201
 31
0.0
  0
LINE
  5
269
330
1F
100
AcDbEntity
  8
C-4
  6
Continuous
 62
     3
370
     9
100
AcDbLine
 10
94.79014035817784
 20
485.6212636586784
 30
0.0
 11
94.79014035817784
 21
496.3724002322635
 31
0.0
  0
LINE
  5
26A
330
1F
100
AcDbEntity
  8
C-4
  6
Continuous
 62
     3
370
     9
100
AcDbLine
 10
130.2903317116406
 20
460.8725800385346
 30
0.0
 11
119.5393188579666
 21
460.8725800385346
 31
0.0
  0
LINE
  5
26B
330
1F
100
AcDbEntity
  8
C-4
  6
Continuous
 62
     3
370
     9
100
AcDbLine
 10
105.5411532118518
 20
460.8725800385346
 30
0.0
 11
94.79014035817784
 21
460.8725800385346
 31
0.0
  0
LINE
  5
26C
330
1F
100
AcDbEntity
  8
C-4
  6
Continuous
 62
     3
370
     9
100
AcDbLine
 10
130.2903317116406
 20
496.3724002322635
 30
0.0
 11
130.2903317116406
 21
485.6212636586784
 31
0.0
  0
LINE
  5
26D
330
1F
100
AcDbEntity
  8
C-4
  6
Continuous
 62
     3
370
     9
100
AcDbLine
 10
130.2903317116406
 20
471.6237166121201
 30
0.0
 11
130.2903317116406
 21
460.8725800385346
 31
0.0
  0
LINE
  5
26E
330
1F
100
AcDbEntity
  8
C-0
  6
JWW_CENTER1
 62
     3
370
     9
100
AcDbLine
 10
75.20255655855777
 20
478.6223045555323
 30
0.0
 11
150.6590830313198
 21
478.6223045555323
 31
0.0
  0
LINE
  5
26F
330
1F
100
AcDbEntity
  8
C-0
  6
JWW_CENTER1
 62
     3
370
     9
100
AcDbLine
 10
112.5402360349094
 20
447.2511415223818
 30
0.0
 11
112.5402360349094
 21
517.5631466427365
 31
0.0
  0
LINE
  5
270
330
1F
100
AcDbEntity
  8
C-2
  6
Continuous
 62
     3
370
     9
100
AcDbLine
 10
-462.410193520623
 20
837.6225981841217
 30
0.0
 11
-462.410193520623
 21
832.5728462837839
 31
0.0
  0
LINE
  5
271
330
1F
100
AcDbEntity
  8
C-2
  6
Continuous
 62
     3
370
     9
100
AcDbLine
 10
-457.4604073086297
 20
837.6225981841217
 30
0.0
 11
-457.4604073086297
 21
832.5728462837839
 31
0.0
  0
LINE
  5
272
330
1F
100
AcDbEntity
  8
C-2
  6
Continuous
 62
     3
370
     9
100
AcDbLine
 10
-452.5107448165477
 20
837.6225981841217
 30
0.0
 11
-452.5107448165477
 21
832.5728462837839
 31
0.0
  0
LINE
  5
273
330
1F
100
AcDbEntity
  8
C-2
  6
Continuous
 62
     3
370
     9
100
AcDbLine
 10
-382.4107956241912
 20
837.6225981841217
 30
0.0
 11
-382.4107956241912
 21
832.5728462837839
 31
0.0
  0
LINE
  5
274
330
1F
100
AcDbEntity
  8
C-2
  6
Continuous
 62
     3
370
     9
100
AcDbLine
 10
-377.4610094121979
 20
837.6225981841217
 30
0.0
 11
-377.4610094121979
 21
832.5728462837839
 31
0.0
  0
LINE
  5
275
330
1F
100
AcDbEntity
  8
C-2
  6
Continuous
 62
     3
370
     9
100
AcDbLine
 10
-372.5113469201162
 20
837.6225981841217
 30
0.0
 11
-372.5113469201162
 21
832.5728462837839
 31
0.0
  0
LINE
  5
276
330
1F
100
AcDbEntity
  8
C-2
  6
Continuous
 62
     3
370
     9
100
AcDbLine
 10
-462.410193520623
 20
823.5719752956084
 30
0.0
 11
-462.410193520623
 21
817.6725150443415
 31
0.0
  0
LINE
  5
277
330
1F
100
AcDbEntity
  8
C-2
  6
Continuous
 62
     3
370
     9
100
AcDbLine
 10
-457.4604073086297
 20
823.5719752956084
 30
0.0
 11
-457.4604073086297
 21
817.6725150443415
 31
0.0
  0
LINE
  5
278
330
1F
100
AcDbEntity
  8
C-2
  6
Continuous
 62
     3
370
     9
100
AcDbLine
 10
-452.5107448165477
 20
823.5719752956084
 30
0.0
 11
-452.5107448165477
 21
817.6725150443415
 31
0.0
  0
LINE
  5
279
330
1F
100
AcDbEntity
  8
C-2
  6
Continuous
 62
     3
370
     9
100
AcDbLine
 10
-382.4107956241912
 20
823.5719752956084
 30
0.0
 11
-382.4107956241912
 21
817.6725150443415
 31
0.0
  0
LINE
  5
27A
330
1F
100
AcDbEntity
  8
C-2
  6
Continuous
 62
     3
370
     9
100
AcDbLine
 10
-377.4610094121979
 20
823.5719752956084
 30
0.0
 11
-377.4610094121979
 21
817.6725150443415
 31
0.0
  0
LINE
  5
27B
330
1F
100
AcDbEntity
  8
C-2
  6
Continuous
 62
     3
370
     9
100
AcDbLine
 10
-372.5113469201162
 20
823.5719752956084
 30
0.0
 11
-372.5113469201162
 21
817.6725150443415
 31
0.0
  0
LINE
  5
27C
330
1F
100
AcDbEntity
  8
C-2
  6
Continuous
 62
     3
370
     9
100
AcDbLine
 10
-462.4111832799133
 20
808.6718914959883
 30
0.0
 11
-462.4111832799133
 21
802.772678684544
 31
0.0
  0
LINE
  5
27D
330
1F
100
AcDbEntity
  8
C-2
  6
Continuous
 62
     3
370
     9
100
AcDbLine
 10
-457.4613970679201
 20
808.6718914959883
 30
0.0
 11
-457.4613970679201
 21
802.772678684544
 31
0.0
  0
LINE
  5
27E
330
1F
100
AcDbEntity
  8
C-2
  6
Continuous
 62
     3
370
     9
100
AcDbLine
 10
-452.5117345758383
 20
808.6718914959883
 30
0.0
 11
-452.5117345758383
 21
802.772678684544
 31
0.0
  0
LINE
  5
27F
330
1F
100
AcDbEntity
  8
C-2
  6
Continuous
 62
     3
370
     9
100
AcDbLine
 10
-382.4117853834818
 20
808.6718914959883
 30
0.0
 11
-382.4117853834818
 21
802.772678684544
 31
0.0
  0
LINE
  5
280
330
1F
100
AcDbEntity
  8
C-2
  6
Continuous
 62
     3
370
     9
100
AcDbLine
 10
-377.4619991714886
 20
808.6718914959883
 30
0.0
 11
-377.4619991714886
 21
802.772678684544
 31
0.0
  0
LINE
  5
281
330
1F
100
AcDbEntity
  8
C-2
  6
Continuous
 62
     3
370
     9
100
AcDbLine
 10
-372.5123366794065
 20
808.6718914959883
 30
0.0
 11
-372.5123366794065
 21
802.772678684544
 31
0.0
  0
LINE
  5
282
330
1F
100
AcDbEntity
  8
C-2
  6
Continuous
 62
     3
370
     9
100
AcDbLine
 10
-462.4116781595586
 20
793.7720551361908
 30
0.0
 11
-462.4116781595586
 21
787.8730897645693
 31
0.0
  0
LINE
  5
283
330
1F
100
AcDbEntity
  8
C-2
  6
Continuous
 62
     3
370
     9
100
AcDbLine
 10
-457.4618919475654
 20
793.7720551361908
 30
0.0
 11
-457.4618919475654
 21
787.8730897645693
 31
0.0
  0
LINE
  5
284
330
1F
100
AcDbEntity
  8
C-2
  6
Continuous
 62
     3
370
     9
100
AcDbLine
 10
-452.5122294554836
 20
793.7720551361908
 30
0.0
 11
-452.5122294554836
 21
787.8730897645693
 31
0.0
  0
LINE
  5
285
330
1F
100
AcDbEntity
  8
C-2
  6
Continuous
 62
     3
370
     9
100
AcDbLine
 10
-382.4122802631271
 20
793.7720551361908
 30
0.0
 11
-382.4122802631271
 21
787.8730897645693
 31
0.0
  0
LINE
  5
286
330
1F
100
AcDbEntity
  8
C-2
  6
Continuous
 62
     3
370
     9
100
AcDbLine
 10
-377.4624940511339
 20
793.7720551361908
 30
0.0
 11
-377.4624940511339
 21
787.8730897645693
 31
0.0
  0
LINE
  5
287
330
1F
100
AcDbEntity
  8
C-2
  6
Continuous
 62
     3
370
     9
100
AcDbLine
 10
-372.5128315590518
 20
793.7720551361908
 30
0.0
 11
-372.5128315590518
 21
787.8730897645693
 31
0.0
  0
LINE
  5
288
330
1F
100
AcDbEntity
  8
C-2
  6
Continuous
 62
     3
370
     9
100
AcDbLine
 10
-462.4126679188493
 20
778.8724662162165
 30
0.0
 11
-462.4126679188493
 21
772.9732534047721
 31
0.0
  0
LINE
  5
289
330
1F
100
AcDbEntity
  8
C-2
  6
Continuous
 62
     3
370
     9
100
AcDbLine
 10
-457.462881706856
 20
778.8724662162165
 30
0.0
 11
-457.462881706856
 21
772.9732534047721
 31
0.0
  0
LINE
  5
28A
330
1F
100
AcDbEntity
  8
C-2
  6
Continuous
 62
     3
370
     9
100
AcDbLine
 10
-452.513219214774
 20
778.8724662162165
 30
0.0
 11
-452.513219214774
 21
772.9732534047721
 31
0.0
  0
LINE
  5
28B
330
1F
100
AcDbEntity
  8
C-2
  6
Continuous
 62
     3
370
     9
100
AcDbLine
 10
-382.4132700224177
 20
778.8724662162165
 30
0.0
 11
-382.4132700224177
 21
772.9732534047721
 31
0.0
  0
LINE
  5
28C
330
1F
100
AcDbEntity
  8
C-2
  6
Continuous
 62
     3
370
     9
100
AcDbLine
 10
-377.4636075303357
 20
778.8724662162165
 30
0.0
 11
-377.4636075303357
 21
772.9732534047721
 31
0.0
  0
LINE
  5
28D
330
1F
100
AcDbEntity
  8
C-2
  6
Continuous
 62
     3
370
     9
100
AcDbLine
 10
-372.5138213183425
 20
778.8724662162165
 30
0.0
 11
-372.5138213183425
 21
772.9732534047721
 31
0.0
  0
LINE
  5
28E
330
1F
100
AcDbEntity
  8
C-2
  6
Continuous
 62
     3
370
     9
100
AcDbLine
 10
-462.4131627984946
 20
763.972629856419
 30
0.0
 11
-462.4131627984946
 21
758.0731696051521
 31
0.0
  0
LINE
  5
28F
330
1F
100
AcDbEntity
  8
C-2
  6
Continuous
 62
     3
370
     9
100
AcDbLine
 10
-457.4633765865013
 20
763.972629856419
 30
0.0
 11
-457.4633765865013
 21
758.0731696051521
 31
0.0
  0
LINE
  5
290
330
1F
100
AcDbEntity
  8
C-2
  6
Continuous
 62
     3
370
     9
100
AcDbLine
 10
-452.5137140944193
 20
763.972629856419
 30
0.0
 11
-452.5137140944193
 21
758.0731696051521
 31
0.0
  0
LINE
  5
291
330
1F
100
AcDbEntity
  8
C-2
  6
Continuous
 62
     3
370
     9
100
AcDbLine
 10
-382.4137649020628
 20
763.972629856419
 30
0.0
 11
-382.4137649020628
 21
758.0731696051521
 31
0.0
  0
LINE
  5
292
330
1F
100
AcDbEntity
  8
C-2
  6
Continuous
 62
     3
370
     9
100
AcDbLine
 10
-377.4639786900696
 20
763.972629856419
 30
0.0
 11
-377.4639786900696
 21
758.0731696051521
 31
0.0
  0
LINE
  5
293
330
1F
100
AcDbEntity
  8
C-2
  6
Continuous
 62
     3
370
     9
100
AcDbLine
 10
-372.5143161979878
 20
763.972629856419
 30
0.0
 11
-372.5143161979878
 21
758.0731696051521
 31
0.0
  0
LINE
  5
294
330
1F
100
AcDbEntity
  8
C-2
  6
Continuous
 62
     3
370
     9
100
AcDbLine
 10
-462.4136576781399
 20
749.0722986169766
 30
0.0
 11
-462.4136576781399
 21
743.173333245355
 31
0.0
  0
LINE
  5
295
330
1F
100
AcDbEntity
  8
C-2
  6
Continuous
 62
     3
370
     9
100
AcDbLine
 10
-457.4638714661467
 20
749.0722986169766
 30
0.0
 11
-457.4638714661467
 21
743.173333245355
 31
0.0
  0
LINE
  5
296
330
1F
100
AcDbEntity
  8
C-2
  6
Continuous
 62
     3
370
     9
100
AcDbLine
 10
-452.5147038537099
 20
749.0722986169766
 30
0.0
 11
-452.5147038537099
 21
743.173333245355
 31
0.0
  0
LINE
  5
297
330
1F
100
AcDbEntity
  8
C-2
  6
Continuous
 62
     3
370
     9
100
AcDbLine
 10
-382.4142597817081
 20
749.0722986169766
 30
0.0
 11
-382.4142597817081
 21
743.173333245355
 31
0.0
  0
LINE
  5
298
330
1F
100
AcDbEntity
  8
C-2
  6
Continuous
 62
     3
370
     9
100
AcDbLine
 10
-377.4645972896263
 20
749.0722986169766
 30
0.0
 11
-377.4645972896263
 21
743.173333245355
 31
0.0
  0
LINE
  5
299
330
1F
100
AcDbEntity
  8
C-2
  6
Continuous
 62
     3
370
     9
100
AcDbLine
 10
-372.5148110776331
 20
749.0722986169766
 30
0.0
 11
-372.5148110776331
 21
743.173333245355
 31
0.0
  0
LINE
  5
29A
330
1F
100
AcDbEntity
  8
C-2
  6
Continuous
 62
     3
370
     9
100
AcDbLine
 10
-462.4146474374302
 20
734.1727096970019
 30
0.0
 11
-462.4146474374302
 21
728.2734968855575
 31
0.0
  0
LINE
  5
29B
330
1F
100
AcDbEntity
  8
C-2
  6
Continuous
 62
     3
370
     9
100
AcDbLine
 10
-457.464861225437
 20
734.1727096970019
 30
0.0
 11
-457.464861225437
 21
728.2734968855575
 31
0.0
  0
LINE
  5
29C
330
1F
100
AcDbEntity
  8
C-2
  6
Continuous
 62
     3
370
     9
100
AcDbLine
 10
-452.5151987333552
 20
734.1727096970019
 30
0.0
 11
-452.5151987333552
 21
728.2734968855575
 31
0.0
  0
LINE
  5
29D
330
1F
100
AcDbEntity
  8
C-2
  6
Continuous
 62
     3
370
     9
100
AcDbLine
 10
-382.4152495409987
 20
734.1727096970019
 30
0.0
 11
-382.4152495409987
 21
728.2734968855575
 31
0.0
  0
LINE
  5
29E
330
1F
100
AcDbEntity
  8
C-2
  6
Continuous
 62
     3
370
     9
100
AcDbLine
 10
-377.4655870489167
 20
734.1727096970019
 30
0.0
 11
-377.4655870489167
 21
728.2734968855575
 31
0.0
  0
LINE
  5
29F
330
1F
100
AcDbEntity
  8
C-2
  6
Continuous
 62
     3
370
     9
100
AcDbLine
 10
-372.5158008369235
 20
734.1727096970019
 30
0.0
 11
-372.5158008369235
 21
728.2734968855575
 31
0.0
  0
LINE
  5
2A0
330
1F
100
AcDbEntity
  8
C-2
  6
Continuous
 62
     3
370
     9
100
AcDbLine
 10
-462.4151423170755
 20
719.2728733372044
 30
0.0
 11
-462.4151423170755
 21
713.3739079655828
 31
0.0
  0
LINE
  5
2A1
330
1F
100
AcDbEntity
  8
C-2
  6
Continuous
 62
     3
370
     9
100
AcDbLine
 10
-457.4653561050823
 20
719.2728733372044
 30
0.0
 11
-457.4653561050823
 21
713.3739079655828
 31
0.0
  0
LINE
  5
2A2
330
1F
100
AcDbEntity
  8
C-2
  6
Continuous
 62
     3
370
     9
100
AcDbLine
 10
-452.5156936130003
 20
719.2728733372044
 30
0.0
 11
-452.5156936130003
 21
713.3739079655828
 31
0.0
  0
LINE
  5
2A3
330
1F
100
AcDbEntity
  8
C-2
  6
Continuous
 62
     3
370
     9
100
AcDbLine
 10
-382.415744420644
 20
719.2728733372044
 30
0.0
 11
-382.415744420644
 21
713.3739079655828
 31
0.0
  0
LINE
  5
2A4
330
1F
100
AcDbEntity
  8
C-2
  6
Continuous
 62
     3
370
     9
100
AcDbLine
 10
-377.4659582086508
 20
719.2728733372044
 30
0.0
 11
-377.4659582086508
 21
713.3739079655828
 31
0.0
  0
LINE
  5
2A5
330
1F
100
AcDbEntity
  8
C-2
  6
Continuous
 62
     3
370
     9
100
AcDbLine
 10
-372.5162957165688
 20
719.2728733372044
 30
0.0
 11
-372.5162957165688
 21
713.3739079655828
 31
0.0
  0
LINE
  5
2A6
330
1F
100
AcDbEntity
  8
C-2
  6
Continuous
 62
     3
370
     9
100
AcDbLine
 10
-462.4161320763662
 20
704.37328441723
 30
0.0
 11
-462.4161320763662
 21
698.4740716057856
 31
0.0
  0
LINE
  5
2A7
330
1F
100
AcDbEntity
  8
C-2
  6
Continuous
 62
     3
370
     9
100
AcDbLine
 10
-457.466345864373
 20
704.37328441723
 30
0.0
 11
-457.466345864373
 21
698.4740716057856
 31
0.0
  0
LINE
  5
2A8
330
1F
100
AcDbEntity
  8
C-2
  6
Continuous
 62
     3
370
     9
100
AcDbLine
 10
-452.5166833722909
 20
704.37328441723
 30
0.0
 11
-452.5166833722909
 21
698.4740716057856
 31
0.0
  0
LINE
  5
2A9
330
1F
100
AcDbEntity
  8
C-2
  6
Continuous
 62
     3
370
     9
100
AcDbLine
 10
-382.4167341799344
 20
704.37328441723
 30
0.0
 11
-382.4167341799344
 21
698.4740716057856
 31
0.0
  0
LINE
  5
2AA
330
1F
100
AcDbEntity
  8
C-2
  6
Continuous
 62
     3
370
     9
100
AcDbLine
 10
-377.4670716878526
 20
704.37328441723
 30
0.0
 11
-377.4670716878526
 21
698.4740716057856
 31
0.0
  0
LINE
  5
2AB
330
1F
100
AcDbEntity
  8
C-2
  6
Continuous
 62
     3
370
     9
100
AcDbLine
 10
-372.5172854758594
 20
704.37328441723
 30
0.0
 11
-372.5172854758594
 21
698.4740716057856
 31
0.0
  0
LINE
  5
2AC
330
1F
100
AcDbEntity
  8
C-2
  6
Continuous
 62
     3
370
     9
100
AcDbLine
 10
-462.4166269560115
 20
689.4734480574325
 30
0.0
 11
-462.4166269560115
 21
683.5739878061656
 31
0.0
  0
LINE
  5
2AD
330
1F
100
AcDbEntity
  8
C-2
  6
Continuous
 62
     3
370
     9
100
AcDbLine
 10
-457.4668407440183
 20
689.4734480574325
 30
0.0
 11
-457.4668407440183
 21
683.5739878061656
 31
0.0
  0
LINE
  5
2AE
330
1F
100
AcDbEntity
  8
C-2
  6
Continuous
 62
     3
370
     9
100
AcDbLine
 10
-452.5171782519362
 20
689.4734480574325
 30
0.0
 11
-452.5171782519362
 21
683.5739878061656
 31
0.0
  0
LINE
  5
2AF
330
1F
100
AcDbEntity
  8
C-2
  6
Continuous
 62
     3
370
     9
100
AcDbLine
 10
-382.4172290595797
 20
689.4734480574325
 30
0.0
 11
-382.4172290595797
 21
683.5739878061656
 31
0.0
  0
LINE
  5
2B0
330
1F
100
AcDbEntity
  8
C-2
  6
Continuous
 62
     3
370
     9
100
AcDbLine
 10
-377.467566567498
 20
689.4734480574325
 30
0.0
 11
-377.467566567498
 21
683.5739878061656
 31
0.0
  0
LINE
  5
2B1
330
1F
100
AcDbEntity
  8
C-2
  6
Continuous
 62
     3
370
     9
100
AcDbLine
 10
-372.5177803555047
 20
689.4734480574325
 30
0.0
 11
-372.5177803555047
 21
683.5739878061656
 31
0.0
  0
LINE
  5
2B2
330
1F
100
AcDbEntity
  8
C-2
  6
Continuous
 62
     3
370
     9
100
AcDbLine
 10
-462.4171218356565
 20
674.5731168179901
 30
0.0
 11
-462.4171218356565
 21
668.6741514463682
 31
0.0
  0
LINE
  5
2B3
330
1F
100
AcDbEntity
  8
C-2
  6
Continuous
 62
     3
370
     9
100
AcDbLine
 10
-457.4678305033086
 20
674.5731168179901
 30
0.0
 11
-457.4678305033086
 21
668.6741514463682
 31
0.0
  0
LINE
  5
2B4
330
1F
100
AcDbEntity
  8
C-2
  6
Continuous
 62
     3
370
     9
100
AcDbLine
 10
-452.5181680112269
 20
674.5731168179901
 30
0.0
 11
-452.5181680112269
 21
668.6741514463682
 31
0.0
  0
LINE
  5
2B5
330
1F
100
AcDbEntity
  8
C-2
  6
Continuous
 62
     3
370
     9
100
AcDbLine
 10
-382.417723939225
 20
674.5731168179901
 30
0.0
 11
-382.417723939225
 21
668.6741514463682
 31
0.0
  0
LINE
  5
2B6
330
1F
100
AcDbEntity
  8
C-2
  6
Continuous
 62
     3
370
     9
100
AcDbLine
 10
-377.4680614471433
 20
674.5731168179901
 30
0.0
 11
-377.4680614471433
 21
668.6741514463682
 31
0.0
  0
LINE
  5
2B7
330
1F
100
AcDbEntity
  8
C-2
  6
Continuous
 62
     3
370
     9
100
AcDbLine
 10
-372.5187701147951
 20
674.5731168179901
 30
0.0
 11
-372.5187701147951
 21
668.6741514463682
 31
0.0
  0
LINE
  5
2B8
330
1F
100
AcDbEntity
  8
C-2
  6
Continuous
 62
     3
370
     9
100
AcDbLine
 10
-462.4181115949472
 20
659.6735278980154
 30
0.0
 11
-462.4181115949472
 21
653.774315086571
 31
0.0
  0
LINE
  5
2B9
330
1F
100
AcDbEntity
  8
C-2
  6
Continuous
 62
     3
370
     9
100
AcDbLine
 10
-457.4683253829539
 20
659.6735278980154
 30
0.0
 11
-457.4683253829539
 21
653.774315086571
 31
0.0
  0
LINE
  5
2BA
330
1F
100
AcDbEntity
  8
C-2
  6
Continuous
 62
     3
370
     9
100
AcDbLine
 10
-452.5186628908719
 20
659.6735278980154
 30
0.0
 11
-452.5186628908719
 21
653.774315086571
 31
0.0
  0
LINE
  5
2BB
330
1F
100
AcDbEntity
  8
C-2
  6
Continuous
 62
     3
370
     9
100
AcDbLine
 10
-382.4187136985157
 20
659.6735278980154
 30
0.0
 11
-382.4187136985157
 21
653.774315086571
 31
0.0
  0
LINE
  5
2BC
330
1F
100
AcDbEntity
  8
C-2
  6
Continuous
 62
     3
370
     9
100
AcDbLine
 10
-377.4690512064336
 20
659.6735278980154
 30
0.0
 11
-377.4690512064336
 21
653.774315086571
 31
0.0
  0
LINE
  5
2BD
330
1F
100
AcDbEntity
  8
C-2
  6
Continuous
 62
     3
370
     9
100
AcDbLine
 10
-372.5192649944404
 20
659.6735278980154
 30
0.0
 11
-372.5192649944404
 21
653.774315086571
 31
0.0
  0
LINE
  5
2BE
330
1F
100
AcDbEntity
  8
C-2
  6
Continuous
 62
     3
370
     9
100
AcDbLine
 10
-462.4186064745925
 20
644.7736915382179
 30
0.0
 11
-462.4186064745925
 21
638.8747261665964
 31
0.0
  0
LINE
  5
2BF
330
1F
100
AcDbEntity
  8
C-2
  6
Continuous
 62
     3
370
     9
100
AcDbLine
 10
-457.4688202625993
 20
644.7736915382179
 30
0.0
 11
-457.4688202625993
 21
638.8747261665964
 31
0.0
  0
LINE
  5
2C0
330
1F
100
AcDbEntity
  8
C-2
  6
Continuous
 62
     3
370
     9
100
AcDbLine
 10
-452.5191577705172
 20
644.7736915382179
 30
0.0
 11
-452.5191577705172
 21
638.8747261665964
 31
0.0
  0
LINE
  5
2C1
330
1F
100
AcDbEntity
  8
C-2
  6
Continuous
 62
     3
370
     9
100
AcDbLine
 10
-382.419208578161
 20
644.7736915382179
 30
0.0
 11
-382.419208578161
 21
638.8747261665964
 31
0.0
  0
LINE
  5
2C2
330
1F
100
AcDbEntity
  8
C-2
  6
Continuous
 62
     3
370
     9
100
AcDbLine
 10
-377.4694223661677
 20
644.7736915382179
 30
0.0
 11
-377.4694223661677
 21
638.8747261665964
 31
0.0
  0
LINE
  5
2C3
330
1F
100
AcDbEntity
  8
C-2
  6
Continuous
 62
     3
370
     9
100
AcDbLine
 10
-372.5197598740857
 20
644.7736915382179
 30
0.0
 11
-372.5197598740857
 21
638.8747261665964
 31
0.0
  0
LINE
  5
2C4
330
1F
100
AcDbEntity
  8
C-2
  6
Continuous
 62
     3
370
     9
100
AcDbLine
 10
-462.4195962338831
 20
629.8741026182432
 30
0.0
 11
-462.4195962338831
 21
623.974394927154
 31
0.0
  0
LINE
  5
2C5
330
1F
100
AcDbEntity
  8
C-2
  6
Continuous
 62
     3
370
     9
100
AcDbLine
 10
-457.4698100218899
 20
629.8741026182432
 30
0.0
 11
-457.4698100218899
 21
623.974394927154
 31
0.0
  0
LINE
  5
2C6
330
1F
100
AcDbEntity
  8
C-2
  6
Continuous
 62
     3
370
     9
100
AcDbLine
 10
-452.5201475298078
 20
629.8741026182432
 30
0.0
 11
-452.5201475298078
 21
623.974394927154
 31
0.0
  0
LINE
  5
2C7
330
1F
100
AcDbEntity
  8
C-2
  6
Continuous
 62
     3
370
     9
100
AcDbLine
 10
-382.4201983374513
 20
629.8741026182432
 30
0.0
 11
-382.4201983374513
 21
623.974394927154
 31
0.0
  0
LINE
  5
2C8
330
1F
100
AcDbEntity
  8
C-2
  6
Continuous
 62
     3
370
     9
100
AcDbLine
 10
-377.4705358453696
 20
629.8741026182432
 30
0.0
 11
-377.4705358453696
 21
623.974394927154
 31
0.0
  0
LINE
  5
2C9
330
1F
100
AcDbEntity
  8
C-2
  6
Continuous
 62
     3
370
     9
100
AcDbLine
 10
-372.5207496333763
 20
629.8741026182432
 30
0.0
 11
-372.5207496333763
 21
623.974394927154
 31
0.0
  0
LINE
  5
2CA
330
1F
100
AcDbEntity
  8
C-2
  6
Continuous
 62
     3
370
     9
100
AcDbLine
 10
-462.4200911135281
 20
614.9737713788008
 30
0.0
 11
-462.4200911135281
 21
609.0748060071792
 31
0.0
  0
LINE
  5
2CB
330
1F
100
AcDbEntity
  8
C-2
  6
Continuous
 62
     3
370
     9
100
AcDbLine
 10
-457.4703049015349
 20
614.9737713788008
 30
0.0
 11
-457.4703049015349
 21
609.0748060071792
 31
0.0
  0
LINE
  5
2CC
330
1F
100
AcDbEntity
  8
C-2
  6
Continuous
 62
     3
370
     9
100
AcDbLine
 10
-452.5206424094532
 20
614.9737713788008
 30
0.0
 11
-452.5206424094532
 21
609.0748060071792
 31
0.0
  0
LINE
  5
2CD
330
1F
100
AcDbEntity
  8
C-2
  6
Continuous
 62
     3
370
     9
100
AcDbLine
 10
-382.4206932170966
 20
614.9737713788008
 30
0.0
 11
-382.4206932170966
 21
609.0748060071792
 31
0.0
  0
LINE
  5
2CE
330
1F
100
AcDbEntity
  8
C-2
  6
Continuous
 62
     3
370
     9
100
AcDbLine
 10
-377.4710307250149
 20
614.9737713788008
 30
0.0
 11
-377.4710307250149
 21
609.0748060071792
 31
0.0
  0
LINE
  5
2CF
330
1F
100
AcDbEntity
  8
C-2
  6
Continuous
 62
     3
370
     9
100
AcDbLine
 10
-372.5212445130217
 20
614.9737713788008
 30
0.0
 11
-372.5212445130217
 21
609.0748060071792
 31
0.0
  0
LINE
  5
2D0
330
1F
100
AcDbEntity
  8
C-2
  6
Continuous
 62
     3
370
     9
100
AcDbLine
 10
-462.4210808728188
 20
600.0739350190033
 30
0.0
 11
-462.4210808728188
 21
594.1749696473818
 31
0.0
  0
LINE
  5
2D1
330
1F
100
AcDbEntity
  8
C-2
  6
Continuous
 62
     3
370
     9
100
AcDbLine
 10
-457.4712946608255
 20
600.0739350190033
 30
0.0
 11
-457.4712946608255
 21
594.1749696473818
 31
0.0
  0
LINE
  5
2D2
330
1F
100
AcDbEntity
  8
C-2
  6
Continuous
 62
     3
370
     9
100
AcDbLine
 10
-452.5216321687438
 20
600.0739350190033
 30
0.0
 11
-452.5216321687438
 21
594.1749696473818
 31
0.0
  0
LINE
  5
2D3
330
1F
100
AcDbEntity
  8
C-2
  6
Continuous
 62
     3
370
     9
100
AcDbLine
 10
-382.421188096742
 20
600.0739350190033
 30
0.0
 11
-382.421188096742
 21
594.1749696473818
 31
0.0
  0
LINE
  5
2D4
330
1F
100
AcDbEntity
  8
C-2
  6
Continuous
 62
     3
370
     9
100
AcDbLine
 10
-377.4720204843052
 20
600.0739350190033
 30
0.0
 11
-377.4720204843052
 21
594.1749696473818
 31
0.0
  0
LINE
  5
2D5
330
1F
100
AcDbEntity
  8
C-2
  6
Continuous
 62
     3
370
     9
100
AcDbLine
 10
-372.522234272312
 20
600.0739350190033
 30
0.0
 11
-372.522234272312
 21
594.1749696473818
 31
0.0
  0
LINE
  5
2D6
330
1F
100
AcDbEntity
  8
C-2
  6
Continuous
 62
     3
370
     9
100
AcDbLine
 10
-462.4215757524641
 20
585.174346099029
 30
0.0
 11
-462.4215757524641
 21
579.2752570074958
 31
0.0
  0
LINE
  5
2D7
330
1F
100
AcDbEntity
  8
C-2
  6
Continuous
 62
     3
370
     9
100
AcDbLine
 10
-457.4717895404709
 20
585.174346099029
 30
0.0
 11
-457.4717895404709
 21
579.2752570074958
 31
0.0
  0
LINE
  5
2D8
330
1F
100
AcDbEntity
  8
C-2
  6
Continuous
 62
     3
370
     9
100
AcDbLine
 10
-452.5221270483888
 20
585.174346099029
 30
0.0
 11
-452.5221270483888
 21
579.2752570074958
 31
0.0
  0
LINE
  5
2D9
330
1F
100
AcDbEntity
  8
C-2
  6
Continuous
 62
     3
370
     9
100
AcDbLine
 10
-382.4221778560326
 20
585.174346099029
 30
0.0
 11
-382.4221778560326
 21
579.2752570074958
 31
0.0
  0
LINE
  5
2DA
330
1F
100
AcDbEntity
  8
C-2
  6
Continuous
 62
     3
370
     9
100
AcDbLine
 10
-377.4725153639505
 20
585.174346099029
 30
0.0
 11
-377.4725153639505
 21
579.2752570074958
 31
0.0
  0
LINE
  5
2DB
330
1F
100
AcDbEntity
  8
C-2
  6
Continuous
 62
     3
370
     9
100
AcDbLine
 10
-372.5227291519573
 20
585.174346099029
 30
0.0
 11
-372.5227291519573
 21
579.2752570074958
 31
0.0
  0
LINE
  5
2DC
330
1F
100
AcDbEntity
  8
C-2
  6
Continuous
 62
     3
370
     9
100
AcDbLine
 10
-462.4220706321094
 20
570.2745097392315
 30
0.0
 11
-462.4220706321094
 21
564.3755443676099
 31
0.0
  0
LINE
  5
2DD
330
1F
100
AcDbEntity
  8
C-2
  6
Continuous
 62
     3
370
     9
100
AcDbLine
 10
-457.4722844201162
 20
570.2745097392315
 30
0.0
 11
-457.4722844201162
 21
564.3755443676099
 31
0.0
  0
LINE
  5
2DE
330
1F
100
AcDbEntity
  8
C-2
  6
Continuous
 62
     3
370
     9
100
AcDbLine
 10
-452.5226219280341
 20
570.2745097392315
 30
0.0
 11
-452.5226219280341
 21
564.3755443676099
 31
0.0
  0
LINE
  5
2DF
330
1F
100
AcDbEntity
  8
C-2
  6
Continuous
 62
     3
370
     9
100
AcDbLine
 10
-382.4226727356779
 20
570.2745097392315
 30
0.0
 11
-382.4226727356779
 21
564.3755443676099
 31
0.0
  0
LINE
  5
2E0
330
1F
100
AcDbEntity
  8
C-2
  6
Continuous
 62
     3
370
     9
100
AcDbLine
 10
-377.4730102435959
 20
570.2745097392315
 30
0.0
 11
-377.4730102435959
 21
564.3755443676099
 31
0.0
  0
LINE
  5
2E1
330
1F
100
AcDbEntity
  8
C-2
  6
Continuous
 62
     3
370
     9
100
AcDbLine
 10
-372.5232240316026
 20
570.2745097392315
 30
0.0
 11
-372.5232240316026
 21
564.3755443676099
 31
0.0
  0
LINE
  5
2E2
330
1F
100
AcDbEntity
  8
C-2
  6
Continuous
 62
     3
370
     9
100
AcDbLine
 10
-462.4230603914
 20
555.3747970993456
 30
0.0
 11
-462.4230603914
 21
549.4752131281675
 31
0.0
  0
LINE
  5
2E3
330
1F
100
AcDbEntity
  8
C-2
  6
Continuous
 62
     3
370
     9
100
AcDbLine
 10
-457.4732741794065
 20
555.3747970993456
 30
0.0
 11
-457.4732741794065
 21
549.4752131281675
 31
0.0
  0
LINE
  5
2E4
330
1F
100
AcDbEntity
  8
C-2
  6
Continuous
 62
     3
370
     9
100
AcDbLine
 10
-452.5236116873248
 20
555.3747970993456
 30
0.0
 11
-452.5236116873248
 21
549.4752131281675
 31
0.0
  0
LINE
  5
2E5
330
1F
100
AcDbEntity
  8
C-2
  6
Continuous
 62
     3
370
     9
100
AcDbLine
 10
-382.4236624949683
 20
555.3747970993456
 30
0.0
 11
-382.4236624949683
 21
549.4752131281675
 31
0.0
  0
LINE
  5
2E6
330
1F
100
AcDbEntity
  8
C-2
  6
Continuous
 62
     3
370
     9
100
AcDbLine
 10
-377.4740000028865
 20
555.3747970993456
 30
0.0
 11
-377.4740000028865
 21
549.4752131281675
 31
0.0
  0
LINE
  5
2E7
330
1F
100
AcDbEntity
  8
C-2
  6
Continuous
 62
     3
370
     9
100
AcDbLine
 10
-372.5242137908933
 20
555.3747970993456
 30
0.0
 11
-372.5242137908933
 21
549.4752131281675
 31
0.0
  0
LINE
  5
2E8
330
1F
100
AcDbEntity
  8
C-2
  6
Continuous
 62
     3
370
     9
100
AcDbLine
 10
-462.4235552710451
 20
540.4745895798144
 30
0.0
 11
-462.4235552710451
 21
534.5755004882812
 31
0.0
  0
LINE
  5
2E9
330
1F
100
AcDbEntity
  8
C-2
  6
Continuous
 62
     3
370
     9
100
AcDbLine
 10
-457.4737690590518
 20
540.4745895798144
 30
0.0
 11
-457.4737690590518
 21
534.5755004882812
 31
0.0
  0
LINE
  5
2EA
330
1F
100
AcDbEntity
  8
C-2
  6
Continuous
 62
     3
370
     9
100
AcDbLine
 10
-452.5241065669701
 20
540.4745895798144
 30
0.0
 11
-452.5241065669701
 21
534.5755004882812
 31
0.0
  0
LINE
  5
2EB
330
1F
100
AcDbEntity
  8
C-2
  6
Continuous
 62
     3
370
     9
100
AcDbLine
 10
-382.4241573746136
 20
540.4745895798144
 30
0.0
 11
-382.4241573746136
 21
534.5755004882812
 31
0.0
  0
LINE
  5
2EC
330
1F
100
AcDbEntity
  8
C-2
  6
Continuous
 62
     3
370
     9
100
AcDbLine
 10
-377.4744948825315
 20
540.4745895798144
 30
0.0
 11
-377.4744948825315
 21
534.5755004882812
 31
0.0
  0
LINE
  5
2ED
330
1F
100
AcDbEntity
  8
C-2
  6
Continuous
 62
     3
370
     9
100
AcDbLine
 10
-462.4245450303357
 20
525.5748769399283
 30
0.0
 11
-462.4245450303357
 21
519.6757878483953
 31
0.0
  0
LINE
  5
2EE
330
1F
100
AcDbEntity
  8
C-2
  6
Continuous
 62
     3
370
     9
100
AcDbLine
 10
-457.4747588183425
 20
525.5748769399283
 30
0.0
 11
-457.4747588183425
 21
519.6757878483953
 31
0.0
  0
LINE
  5
2EF
330
1F
100
AcDbEntity
  8
C-2
  6
Continuous
 62
     3
370
     9
100
AcDbLine
 10
-452.5250963262604
 20
525.5748769399283
 30
0.0
 11
-452.5250963262604
 21
519.6757878483953
 31
0.0
  0
LINE
  5
2F0
330
1F
100
AcDbEntity
  8
C-2
  6
Continuous
 62
     3
370
     9
100
AcDbLine
 10
-462.425039909981
 20
510.6751643000425
 30
0.0
 11
-462.425039909981
 21
505.6223194019216
 31
0.0
  0
LINE
  5
2F1
330
1F
100
AcDbEntity
  8
C-2
  6
Continuous
 62
     3
370
     9
100
AcDbLine
 10
-457.4752536979878
 20
510.6751643000425
 30
0.0
 11
-457.4752536979878
 21
505.6223194019216
 31
0.0
  0
LINE
  5
2F2
330
1F
100
AcDbEntity
  8
C-2
  6
Continuous
 62
     3
370
     9
100
AcDbLine
 10
-452.5255912059058
 20
510.6751643000425
 30
0.0
 11
-452.5255912059058
 21
505.6223194019216
 31
0.0
  0
LINE
  5
2F3
330
1F
100
AcDbEntity
  8
C-2
  6
Continuous
 62
     3
370
     9
100
AcDbLine
 10
-372.5247086705383
 20
540.4745895798144
 30
0.0
 11
-372.5247086705383
 21
536.5573697476773
 31
0.0
  0
LINE
  5
2F4
330
1F
100
AcDbEntity
  8
C-2
  6
Continuous
 62
     3
370
     9
100
AcDbLine
 10
-302.4109028481143
 20
837.6225981841217
 30
0.0
 11
-302.4109028481143
 21
832.5728462837839
 31
0.0
  0
LINE
  5
2F5
330
1F
100
AcDbEntity
  8
C-2
  6
Continuous
 62
     3
370
     9
100
AcDbLine
 10
-297.4611166361211
 20
837.6225981841217
 30
0.0
 11
-297.4611166361211
 21
832.5728462837839
 31
0.0
  0
LINE
  5
2F6
330
1F
100
AcDbEntity
  8
C-2
  6
Continuous
 62
     3
370
     9
100
AcDbLine
 10
-292.5114541440394
 20
837.6225981841217
 30
0.0
 11
-292.5114541440394
 21
832.5728462837839
 31
0.0
  0
LINE
  5
2F7
330
1F
100
AcDbEntity
  8
C-2
  6
Continuous
 62
     3
370
     9
100
AcDbLine
 10
-302.4109028481143
 20
823.5719752956084
 30
0.0
 11
-302.4109028481143
 21
817.6725150443415
 31
0.0
  0
LINE
  5
2F8
330
1F
100
AcDbEntity
  8
C-2
  6
Continuous
 62
     3
370
     9
100
AcDbLine
 10
-297.4611166361211
 20
823.5719752956084
 30
0.0
 11
-297.4611166361211
 21
817.6725150443415
 31
0.0
  0
LINE
  5
2F9
330
1F
100
AcDbEntity
  8
C-2
  6
Continuous
 62
     3
370
     9
100
AcDbLine
 10
-292.5114541440394
 20
823.5719752956084
 30
0.0
 11
-292.5114541440394
 21
817.6725150443415
 31
0.0
  0
LINE
  5
2FA
330
1F
100
AcDbEntity
  8
C-2
  6
Continuous
 62
     3
370
     9
100
AcDbLine
 10
-302.4113977277597
 20
808.6718914959883
 30
0.0
 11
-302.4113977277597
 21
802.772678684544
 31
0.0
  0
LINE
  5
2FB
330
1F
100
AcDbEntity
  8
C-2
  6
Continuous
 62
     3
370
     9
100
AcDbLine
 10
-297.4616115157664
 20
808.6718914959883
 30
0.0
 11
-297.4616115157664
 21
802.772678684544
 31
0.0
  0
LINE
  5
2FC
330
1F
100
AcDbEntity
  8
C-2
  6
Continuous
 62
     3
370
     9
100
AcDbLine
 10
-292.5119490236844
 20
808.6718914959883
 30
0.0
 11
-292.5119490236844
 21
802.772678684544
 31
0.0
  0
LINE
  5
2FD
330
1F
100
AcDbEntity
  8
C-2
  6
Continuous
 62
     3
370
     9
100
AcDbLine
 10
-302.4123874870503
 20
793.7720551361908
 30
0.0
 11
-302.4123874870503
 21
787.8730897645693
 31
0.0
  0
LINE
  5
2FE
330
1F
100
AcDbEntity
  8
C-2
  6
Continuous
 62
     3
370
     9
100
AcDbLine
 10
-297.4626012750571
 20
793.7720551361908
 30
0.0
 11
-297.4626012750571
 21
787.8730897645693
 31
0.0
  0
LINE
  5
2FF
330
1F
100
AcDbEntity
  8
C-2
  6
Continuous
 62
     3
370
     9
100
AcDbLine
 10
-292.512938782975
 20
793.7720551361908
 30
0.0
 11
-292.512938782975
 21
787.8730897645693
 31
0.0
  0
LINE
  5
300
330
1F
100
AcDbEntity
  8
C-2
  6
Continuous
 62
     3
370
     9
100
AcDbLine
 10
-302.4128823666956
 20
778.8724662162165
 30
0.0
 11
-302.4128823666956
 21
772.9732534047721
 31
0.0
  0
LINE
  5
301
330
1F
100
AcDbEntity
  8
C-2
  6
Continuous
 62
     3
370
     9
100
AcDbLine
 10
-297.4630961547024
 20
778.8724662162165
 30
0.0
 11
-297.4630961547024
 21
772.9732534047721
 31
0.0
  0
LINE
  5
302
330
1F
100
AcDbEntity
  8
C-2
  6
Continuous
 62
     3
370
     9
100
AcDbLine
 10
-292.5134336626203
 20
778.8724662162165
 30
0.0
 11
-292.5134336626203
 21
772.9732534047721
 31
0.0
  0
LINE
  5
303
330
1F
100
AcDbEntity
  8
C-2
  6
Continuous
 62
     3
370
     9
100
AcDbLine
 10
-302.4133772463406
 20
763.972629856419
 30
0.0
 11
-302.4133772463406
 21
758.0731696051521
 31
0.0
  0
LINE
  5
304
330
1F
100
AcDbEntity
  8
C-2
  6
Continuous
 62
     3
370
     9
100
AcDbLine
 10
-297.4642096339042
 20
763.972629856419
 30
0.0
 11
-297.4642096339042
 21
758.0731696051521
 31
0.0
  0
LINE
  5
305
330
1F
100
AcDbEntity
  8
C-2
  6
Continuous
 62
     3
370
     9
100
AcDbLine
 10
-292.514423421911
 20
763.972629856419
 30
0.0
 11
-292.514423421911
 21
758.0731696051521
 31
0.0
  0
LINE
  5
306
330
1F
100
AcDbEntity
  8
C-2
  6
Continuous
 62
     3
370
     9
100
AcDbLine
 10
-302.4143670056313
 20
749.0722986169766
 30
0.0
 11
-302.4143670056313
 21
743.173333245355
 31
0.0
  0
LINE
  5
307
330
1F
100
AcDbEntity
  8
C-2
  6
Continuous
 62
     3
370
     9
100
AcDbLine
 10
-297.464580793638
 20
749.0722986169766
 30
0.0
 11
-297.464580793638
 21
743.173333245355
 31
0.0
  0
LINE
  5
308
330
1F
100
AcDbEntity
  8
C-2
  6
Continuous
 62
     3
370
     9
100
AcDbLine
 10
-292.514918301556
 20
749.0722986169766
 30
0.0
 11
-292.514918301556
 21
743.173333245355
 31
0.0
  0
LINE
  5
309
330
1F
100
AcDbEntity
  8
C-2
  6
Continuous
 62
     3
370
     9
100
AcDbLine
 10
-302.4148618852766
 20
734.1727096970019
 30
0.0
 11
-302.4148618852766
 21
728.2734968855575
 31
0.0
  0
LINE
  5
30A
330
1F
100
AcDbEntity
  8
C-2
  6
Continuous
 62
     3
370
     9
100
AcDbLine
 10
-297.4650756732834
 20
734.1727096970019
 30
0.0
 11
-297.4650756732834
 21
728.2734968855575
 31
0.0
  0
LINE
  5
30B
330
1F
100
AcDbEntity
  8
C-2
  6
Continuous
 62
     3
370
     9
100
AcDbLine
 10
-292.5154131812013
 20
734.1727096970019
 30
0.0
 11
-292.5154131812013
 21
728.2734968855575
 31
0.0
  0
LINE
  5
30C
330
1F
100
AcDbEntity
  8
C-2
  6
Continuous
 62
     3
370
     9
100
AcDbLine
 10
-302.4158516445672
 20
719.2728733372044
 30
0.0
 11
-302.4158516445672
 21
713.3739079655828
 31
0.0
  0
LINE
  5
30D
330
1F
100
AcDbEntity
  8
C-2
  6
Continuous
 62
     3
370
     9
100
AcDbLine
 10
-297.4661891524852
 20
719.2728733372044
 30
0.0
 11
-297.4661891524852
 21
713.3739079655828
 31
0.0
  0
LINE
  5
30E
330
1F
100
AcDbEntity
  8
C-2
  6
Continuous
 62
     3
370
     9
100
AcDbLine
 10
-292.516402940492
 20
719.2728733372044
 30
0.0
 11
-292.516402940492
 21
713.3739079655828
 31
0.0
  0
LINE
  5
30F
330
1F
100
AcDbEntity
  8
C-2
  6
Continuous
 62
     3
370
     9
100
AcDbLine
 10
-302.4163465242123
 20
704.37328441723
 30
0.0
 11
-302.4163465242123
 21
698.4740716057856
 31
0.0
  0
LINE
  5
310
330
1F
100
AcDbEntity
  8
C-2
  6
Continuous
 62
     3
370
     9
100
AcDbLine
 10
-297.4666840321305
 20
704.37328441723
 30
0.0
 11
-297.4666840321305
 21
698.4740716057856
 31
0.0
  0
LINE
  5
311
330
1F
100
AcDbEntity
  8
C-2
  6
Continuous
 62
     3
370
     9
100
AcDbLine
 10
-292.5168978201373
 20
704.37328441723
 30
0.0
 11
-292.5168978201373
 21
698.4740716057856
 31
0.0
  0
LINE
  5
312
330
1F
100
AcDbEntity
  8
C-2
  6
Continuous
 62
     3
370
     9
100
AcDbLine
 10
-302.4173362835029
 20
689.4734480574325
 30
0.0
 11
-302.4173362835029
 21
683.5739878061656
 31
0.0
  0
LINE
  5
313
330
1F
100
AcDbEntity
  8
C-2
  6
Continuous
 62
     3
370
     9
100
AcDbLine
 10
-297.4675500715097
 20
689.4734480574325
 30
0.0
 11
-297.4675500715097
 21
683.5739878061656
 31
0.0
  0
LINE
  5
314
330
1F
100
AcDbEntity
  8
C-2
  6
Continuous
 62
     3
370
     9
100
AcDbLine
 10
-292.5178875794279
 20
689.4734480574325
 30
0.0
 11
-292.5178875794279
 21
683.5739878061656
 31
0.0
  0
LINE
  5
315
330
1F
100
AcDbEntity
  8
C-2
  6
Continuous
 62
     3
370
     9
100
AcDbLine
 10
-302.4178311631482
 20
674.5731168179901
 30
0.0
 11
-302.4178311631482
 21
668.6741514463682
 31
0.0
  0
LINE
  5
316
330
1F
100
AcDbEntity
  8
C-2
  6
Continuous
 62
     3
370
     9
100
AcDbLine
 10
-297.4681686710662
 20
674.5731168179901
 30
0.0
 11
-297.4681686710662
 21
668.6741514463682
 31
0.0
  0
LINE
  5
317
330
1F
100
AcDbEntity
  8
C-2
  6
Continuous
 62
     3
370
     9
100
AcDbLine
 10
-292.5183824590729
 20
674.5731168179901
 30
0.0
 11
-292.5183824590729
 21
668.6741514463682
 31
0.0
  0
LINE
  5
318
330
1F
100
AcDbEntity
  8
C-2
  6
Continuous
 62
     3
370
     9
100
AcDbLine
 10
-302.4183260427935
 20
659.6735278980154
 30
0.0
 11
-302.4183260427935
 21
653.774315086571
 31
0.0
  0
LINE
  5
319
330
1F
100
AcDbEntity
  8
C-2
  6
Continuous
 62
     3
370
     9
100
AcDbLine
 10
-297.4686635507115
 20
659.6735278980154
 30
0.0
 11
-297.4686635507115
 21
653.774315086571
 31
0.0
  0
LINE
  5
31A
330
1F
100
AcDbEntity
  8
C-2
  6
Continuous
 62
     3
370
     9
100
AcDbLine
 10
-292.5188773387183
 20
659.6735278980154
 30
0.0
 11
-292.5188773387183
 21
653.774315086571
 31
0.0
  0
LINE
  5
31B
330
1F
100
AcDbEntity
  8
C-2
  6
Continuous
 62
     3
370
     9
100
AcDbLine
 10
-302.4193158020842
 20
644.7736915382179
 30
0.0
 11
-302.4193158020842
 21
638.8747261665964
 31
0.0
  0
LINE
  5
31C
330
1F
100
AcDbEntity
  8
C-2
  6
Continuous
 62
     3
370
     9
100
AcDbLine
 10
-297.4695295900906
 20
644.7736915382179
 30
0.0
 11
-297.4695295900906
 21
638.8747261665964
 31
0.0
  0
LINE
  5
31D
330
1F
100
AcDbEntity
  8
C-2
  6
Continuous
 62
     3
370
     9
100
AcDbLine
 10
-292.5198670980089
 20
644.7736915382179
 30
0.0
 11
-292.5198670980089
 21
638.8747261665964
 31
0.0
  0
LINE
  5
31E
330
1F
100
AcDbEntity
  8
C-2
  6
Continuous
 62
     3
370
     9
100
AcDbLine
 10
-302.4198106817292
 20
629.8741026182432
 30
0.0
 11
-302.4198106817292
 21
623.974394927154
 31
0.0
  0
LINE
  5
31F
330
1F
100
AcDbEntity
  8
C-2
  6
Continuous
 62
     3
370
     9
100
AcDbLine
 10
-297.470024469736
 20
629.8741026182432
 30
0.0
 11
-297.470024469736
 21
623.974394927154
 31
0.0
  0
LINE
  5
320
330
1F
100
AcDbEntity
  8
C-2
  6
Continuous
 62
     3
370
     9
100
AcDbLine
 10
-292.5203619776542
 20
629.8741026182432
 30
0.0
 11
-292.5203619776542
 21
623.974394927154
 31
0.0
  0
LINE
  5
321
330
1F
100
AcDbEntity
  8
C-2
  6
Continuous
 62
     3
370
     9
100
AcDbLine
 10
-302.4208004410198
 20
614.9737713788008
 30
0.0
 11
-302.4208004410198
 21
609.0748060071792
 31
0.0
  0
LINE
  5
322
330
1F
100
AcDbEntity
  8
C-2
  6
Continuous
 62
     3
370
     9
100
AcDbLine
 10
-222.4105151923922
 20
837.6225981841217
 30
0.0
 11
-222.4105151923922
 21
832.5728462837839
 31
0.0
  0
LINE
  5
323
330
1F
100
AcDbEntity
  8
C-2
  6
Continuous
 62
     3
370
     9
100
AcDbLine
 10
-217.4608527003105
 20
837.6225981841217
 30
0.0
 11
-217.4608527003105
 21
832.5728462837839
 31
0.0
  0
LINE
  5
324
330
1F
100
AcDbEntity
  8
C-2
  6
Continuous
 62
     3
370
     9
100
AcDbLine
 10
-212.5110664883172
 20
837.6225981841217
 30
0.0
 11
-212.5110664883172
 21
832.5728462837839
 31
0.0
  0
LINE
  5
325
330
1F
100
AcDbEntity
  8
C-2
  6
Continuous
 62
     3
370
     9
100
AcDbLine
 10
-222.4105151923922
 20
823.5719752956084
 30
0.0
 11
-222.4105151923922
 21
817.6725150443415
 31
0.0
  0
LINE
  5
326
330
1F
100
AcDbEntity
  8
C-2
  6
Continuous
 62
     3
370
     9
100
AcDbLine
 10
-217.4608527003105
 20
823.5719752956084
 30
0.0
 11
-217.4608527003105
 21
817.6725150443415
 31
0.0
  0
LINE
  5
327
330
1F
100
AcDbEntity
  8
C-2
  6
Continuous
 62
     3
370
     9
100
AcDbLine
 10
-212.5110664883172
 20
823.5719752956084
 30
0.0
 11
-212.5110664883172
 21
817.6725150443415
 31
0.0
  0
LINE
  5
328
330
1F
100
AcDbEntity
  8
C-2
  6
Continuous
 62
     3
370
     9
100
AcDbLine
 10
-222.4115049516828
 20
808.6718914959883
 30
0.0
 11
-222.4115049516828
 21
802.772678684544
 31
0.0
  0
LINE
  5
329
330
1F
100
AcDbEntity
  8
C-2
  6
Continuous
 62
     3
370
     9
100
AcDbLine
 10
-217.4618424596008
 20
808.6718914959883
 30
0.0
 11
-217.4618424596008
 21
802.772678684544
 31
0.0
  0
LINE
  5
32A
330
1F
100
AcDbEntity
  8
C-2
  6
Continuous
 62
     3
370
     9
100
AcDbLine
 10
-212.5120562476076
 20
808.6718914959883
 30
0.0
 11
-212.5120562476076
 21
802.772678684544
 31
0.0
  0
LINE
  5
32B
330
1F
100
AcDbEntity
  8
C-2
  6
Continuous
 62
     3
370
     9
100
AcDbLine
 10
-222.4121235512393
 20
793.7720551361908
 30
0.0
 11
-222.4121235512393
 21
787.8730897645693
 31
0.0
  0
LINE
  5
32C
330
1F
100
AcDbEntity
  8
C-2
  6
Continuous
 62
     3
370
     9
100
AcDbLine
 10
-217.4623373392461
 20
793.7720551361908
 30
0.0
 11
-217.4623373392461
 21
787.8730897645693
 31
0.0
  0
LINE
  5
32D
330
1F
100
AcDbEntity
  8
C-2
  6
Continuous
 62
     3
370
     9
100
AcDbLine
 10
-212.5125511272529
 20
793.7720551361908
 30
0.0
 11
-212.5125511272529
 21
787.8730897645693
 31
0.0
  0
LINE
  5
32E
330
1F
100
AcDbEntity
  8
C-2
  6
Continuous
 62
     3
370
     9
100
AcDbLine
 10
-222.4129895906185
 20
778.8724662162165
 30
0.0
 11
-222.4129895906185
 21
772.9732534047721
 31
0.0
  0
LINE
  5
32F
330
1F
100
AcDbEntity
  8
C-2
  6
Continuous
 62
     3
370
     9
100
AcDbLine
 10
-217.4633270985368
 20
778.8724662162165
 30
0.0
 11
-217.4633270985368
 21
772.9732534047721
 31
0.0
  0
LINE
  5
330
330
1F
100
AcDbEntity
  8
C-2
  6
Continuous
 62
     3
370
     9
100
AcDbLine
 10
-212.5135408865435
 20
778.8724662162165
 30
0.0
 11
-212.5135408865435
 21
772.9732534047721
 31
0.0
  0
LINE
  5
331
330
1F
100
AcDbEntity
  8
C-2
  6
Continuous
 62
     3
370
     9
100
AcDbLine
 10
-222.4134844702638
 20
763.972629856419
 30
0.0
 11
-222.4134844702638
 21
758.0731696051521
 31
0.0
  0
LINE
  5
332
330
1F
100
AcDbEntity
  8
C-2
  6
Continuous
 62
     3
370
     9
100
AcDbLine
 10
-217.4638219781821
 20
763.972629856419
 30
0.0
 11
-217.4638219781821
 21
758.0731696051521
 31
0.0
  0
LINE
  5
333
330
1F
100
AcDbEntity
  8
C-2
  6
Continuous
 62
     3
370
     9
100
AcDbLine
 10
-212.5140357661888
 20
763.972629856419
 30
0.0
 11
-212.5140357661888
 21
758.0731696051521
 31
0.0
  0
LINE
  5
334
330
1F
100
AcDbEntity
  8
C-2
  6
Continuous
 62
     3
370
     9
100
AcDbLine
 10
-222.4141030698206
 20
749.0722986169766
 30
0.0
 11
-222.4141030698206
 21
743.173333245355
 31
0.0
  0
LINE
  5
335
330
1F
100
AcDbEntity
  8
C-2
  6
Continuous
 62
     3
370
     9
100
AcDbLine
 10
-217.4643168578274
 20
749.0722986169766
 30
0.0
 11
-217.4643168578274
 21
743.173333245355
 31
0.0
  0
LINE
  5
336
330
1F
100
AcDbEntity
  8
C-2
  6
Continuous
 62
     3
370
     9
100
AcDbLine
 10
-212.5150255254792
 20
749.0722986169766
 30
0.0
 11
-212.5150255254792
 21
743.173333245355
 31
0.0
  0
LINE
  5
337
330
1F
100
AcDbEntity
  8
C-2
  6
Continuous
 62
     3
370
     9
100
AcDbLine
 10
-222.4149691091998
 20
734.1727096970019
 30
0.0
 11
-222.4149691091998
 21
728.2734968855575
 31
0.0
  0
LINE
  5
338
330
1F
100
AcDbEntity
  8
C-2
  6
Continuous
 62
     3
370
     9
100
AcDbLine
 10
-217.4653066171177
 20
734.1727096970019
 30
0.0
 11
-217.4653066171177
 21
728.2734968855575
 31
0.0
  0
LINE
  5
339
330
1F
100
AcDbEntity
  8
C-2
  6
Continuous
 62
     3
370
     9
100
AcDbLine
 10
-212.5155204051245
 20
734.1727096970019
 30
0.0
 11
-212.5155204051245
 21
728.2734968855575
 31
0.0
  0
LINE
  5
33A
330
1F
100
AcDbEntity
  8
C-2
  6
Continuous
 62
     3
370
     9
100
AcDbLine
 10
-222.4154639888451
 20
719.2728733372044
 30
0.0
 11
-222.4154639888451
 21
713.3739079655828
 31
0.0
  0
LINE
  5
33B
330
1F
100
AcDbEntity
  8
C-2
  6
Continuous
 62
     3
370
     9
100
AcDbLine
 10
-217.465801496763
 20
719.2728733372044
 30
0.0
 11
-217.465801496763
 21
713.3739079655828
 31
0.0
  0
LINE
  5
33C
330
1F
100
AcDbEntity
  8
C-2
  6
Continuous
 62
     3
370
     9
100
AcDbLine
 10
-212.5160152847698
 20
719.2728733372044
 30
0.0
 11
-212.5160152847698
 21
713.3739079655828
 31
0.0
  0
LINE
  5
33D
330
1F
100
AcDbEntity
  8
C-2
  6
Continuous
 62
     3
370
     9
100
AcDbLine
 10
-222.4165774680469
 20
704.37328441723
 30
0.0
 11
-222.4165774680469
 21
698.4740716057856
 31
0.0
  0
LINE
  5
33E
330
1F
100
AcDbEntity
  8
C-2
  6
Continuous
 62
     3
370
     9
100
AcDbLine
 10
-217.4667912560537
 20
704.37328441723
 30
0.0
 11
-217.4667912560537
 21
698.4740716057856
 31
0.0
  0
LINE
  5
33F
330
1F
100
AcDbEntity
  8
C-2
  6
Continuous
 62
     3
370
     9
100
AcDbLine
 10
-212.5170050440605
 20
704.37328441723
 30
0.0
 11
-212.5170050440605
 21
698.4740716057856
 31
0.0
  0
LINE
  5
340
330
1F
100
AcDbEntity
  8
C-2
  6
Continuous
 62
     3
370
     9
100
AcDbLine
 10
-297.4711379489378
 20
614.9737713788008
 30
0.0
 11
-297.4711379489378
 21
611.6115590688346
 31
0.0
  0
LINE
  5
341
330
1F
100
AcDbEntity
  8
C-2
  6
Continuous
 62
     3
370
     9
100
AcDbLine
 10
-222.4169486277808
 20
689.4734480574325
 30
0.0
 11
-222.4169486277808
 21
686.6645111908783
 31
0.0
  0
ARC
  5
342
330
1F
100
AcDbEntity
  8
C-2
  6
Continuous
 62
     3
370
     9
100
AcDbCircle
 10
470.1437318647234
 20
1019.665312895904
 30
0.0
 40
75.00028610229492
100
AcDbArc
 50
323.1300964355469
 51
36.86990356445312
  0
ARC
  5
343
330
1F
100
AcDbEntity
  8
C-2
  6
Continuous
 62
     3
370
     9
100
AcDbCircle
 10
590.1438803286169
 20
929.6642736486488
 30
0.0
 40
75.00028610229492
100
AcDbArc
 50
143.1300964355469
 51
216.8699035644531
  0
ARC
  5
344
330
1F
100
AcDbEntity
  8
C-2
  6
Continuous
 62
     3
370
     9
100
AcDbCircle
 10
64.93850527582993
 20
1019.665312895904
 30
0.0
 40
75.00028610229492
100
AcDbArc
 50
323.1300964355469
 51
36.86990356445312
  0
ARC
  5
345
330
1F
100
AcDbEntity
  8
C-2
  6
Continuous
 62
     3
370
     9
100
AcDbCircle
 10
184.9386537397234
 20
929.6642736486488
 30
0.0
 40
75.00028610229492
100
AcDbArc
 50
143.1300964355469
 51
216.8699035644531
  0
TEXT
  5
346
330
1F
100
AcDbEntity
  8
D-5
  6
Continuous
 62
     2
370
     9
100
AcDbText
 10
409.0411803205122
 20
-797.651535248629
 30
0.0
 40
30.48
  1
材質：冷間圧延ステンレス鋼板（ＳＵＳ３０４一２Ｂ）
 50
0.0000094936993723
 41
1.12
  7
ＭＳ ゴシック
100
AcDbText
  0
TEXT
  5
347
330
1F
100
AcDbEntity
  8
D-5
  6
Continuous
 62
     2
370
     9
100
AcDbText
 10
294.739547162443
 20
-267.4685370038006
 30
0.0
 40
30.48
  1
仕　様
 41
1.083333333333333
  7
ＭＳ ゴシック
100
AcDbText
  0
TEXT
  5
348
330
1F
100
AcDbEntity
  8
D-5
  6
Continuous
 62
     2
370
     9
100
AcDbText
 10
409.0417256226416
 20
-460.3887063186233
 30
0.0
 40
30.48
  1
材質：メインバー　ＳＵＳ３０４　＠１５
 41
1.118421052631579
  7
ＭＳ ゴシック
100
AcDbText
  0
TEXT
  5
349
330
1F
100
AcDbEntity
  8
D-5
  6
Continuous
 62
     2
370
     9
100
AcDbText
 10
409.0416761346771
 20
-590.3887640545819
 30
0.0
 40
30.48
  1
　　　サイドバー　ＳＵＳ３０４
 41
1.116666666666666
  7
ＭＳ ゴシック
100
AcDbText
  0
TEXT
  5
34A
330
1F
100
AcDbEntity
  8
D-5
  6
Continuous
 62
     2
370
     9
100
AcDbText
 10
409.0417256226416
 20
-525.3887970465582
 30
0.0
 40
30.48
  1
　　　クロスバー　ＳＵＳ３０４　＠８０
 41
1.118421052631579
  7
ＭＳ ゴシック
100
AcDbText
  0
TEXT
  5
34B
330
1F
100
AcDbEntity
  8
C-4
  6
Continuous
 62
     2
370
     9
100
AcDbText
 10
-486.5924463016931
 20
937.2625124048398
 30
0.0
 40
30.48
  1
25
 50
359.9996664175996
 41
1.062500000000001
  7
ＭＳ ゴシック
100
AcDbText
  0
TEXT
  5
34C
330
1F
100
AcDbEntity
  8
C-4
  6
Continuous
 62
     2
370
     9
100
AcDbText
 10
-234.8403661575842
 20
937.2625124048398
 30
0.0
 40
30.48
  1
25
 50
359.9996664175996
 41
1.0625
  7
ＭＳ ゴシック
100
AcDbText
  0
TEXT
  5
34D
330
1F
100
AcDbEntity
  8
C-4
  6
Continuous
 62
     2
370
     9
100
AcDbText
 10
-503.0901952691976
 20
992.2614566617401
 30
0.0
 40
30.48
  1
1
 41
0.9999999999999998
  7
ＭＳ ゴシック
100
AcDbText
  0
TEXT
  5
34E
330
1F
100
AcDbEntity
  8
C-4
  6
Continuous
 62
     2
370
     9
100
AcDbText
 10
-196.3682450474916
 20
992.2614566617401
 30
0.0
 40
30.48
  1
1
 41
0.9999999999999998
  7
ＭＳ ゴシック
100
AcDbText
  0
TEXT
  5
34F
330
1F
100
AcDbEntity
  8
C-5
  6
Continuous
 62
     2
370
     9
100
AcDbText
 10
-604.9600114049134
 20
341.7629478990711
 30
0.0
 40
30.48
  1
平面詳細図　Ｓ＝１：１０
 41
1.114583333333333
  7
ＭＳ ゴシック
100
AcDbText
  0
TEXT
  5
350
330
1F
100
AcDbEntity
  8
C-5
  6
Continuous
 62
     2
370
     9
100
AcDbText
 10
-236.219261530283
 20
599.3329568728885
 30
0.0
 40
30.48
  1
Ａ
 41
0.9999999999999998
  7
ＭＳ ゴシック
100
AcDbText
  0
TEXT
  5
351
330
1F
100
AcDbEntity
  8
C-5
  6
Continuous
 62
     2
370
     9
100
AcDbText
 10
90.0415144739928
 20
341.7629478990711
 30
0.0
 40
30.48
  1
Ａ断面図　Ｓ＝１：２
 41
1.1125
  7
ＭＳ ゴシック
100
AcDbText
  0
TEXT
  5
352
330
1F
100
AcDbEntity
  8
C-5
  6
Continuous
 62
     7
370
     9
100
AcDbText
 10
-69.95873296582985
 20
725.4922895111908
 30
0.0
 40
22.86
  1
※デルタパターンの配列は一定ではありません。
 41
1.159090909090909
  7
ＭＳ ゴシック
100
AcDbText
  0
TEXT
  5
353
330
1F
100
AcDbEntity
  8
C-5
  6
Continuous
 62
     7
370
     9
100
AcDbText
 10
89.96258941856638
 20
783.3303582928634
 30
0.0
 40
22.86
  1
メインバー表面　Ｓ＝１：１
 41
1.153846153846154
  7
ＭＳ ゴシック
100
AcDbText
  0
TEXT
  5
354
330
1F
100
AcDbEntity
  8
C-5
  6
Continuous
 62
     7
370
     9
100
AcDbText
 10
529.8423254167716
 20
841.2159355204815
 30
0.0
 40
22.86
  1
デルタパターン
 41
1.142857142857143
  7
ＭＳ ゴシック
100
AcDbText
  0
TEXT
  5
355
330
1F
100
AcDbEntity
  8
C-4
  6
Continuous
 62
     2
370
     9
100
AcDbText
 10
119.6100701512522
 20
1100.304323136614
 30
0.0
 40
30.48
  1
1.5
 41
1.083333333333333
  7
ＭＳ ゴシック
100
AcDbText
  0
TEXT
  5
356
330
1F
100
AcDbEntity
  8
C-4
  6
Continuous
 62
     2
370
     9
100
AcDbText
 10
228.8931297611551
 20
1100.304323136614
 30
0.0
 40
30.48
  1
10
 41
1.0625
  7
ＭＳ ゴシック
100
AcDbText
  0
TEXT
  5
357
330
1F
100
AcDbEntity
  8
C-4
  6
Continuous
 62
     2
370
     9
100
AcDbText
 10
295.1433854489717
 20
1100.304323136614
 30
0.0
 40
30.48
  1
5.5
 41
1.083333333333333
  7
ＭＳ ゴシック
100
AcDbText
  0
TEXT
  5
358
330
1F
100
AcDbEntity
  8
C-4
  6
Continuous
 62
     2
370
     9
100
AcDbText
 10
383.8931462571432
 20
1100.304323136614
 30
0.0
 40
30.48
  1
10
 41
1.0625
  7
ＭＳ ゴシック
100
AcDbText
  0
TEXT
  5
359
330
1F
100
AcDbEntity
  8
C-4
  6
Continuous
 62
     2
370
     9
100
AcDbText
 10
474.2269673218602
 20
1100.304323136614
 30
0.0
 40
30.48
  1
1.5
 41
1.083333333333333
  7
ＭＳ ゴシック
100
AcDbText
  0
TEXT
  5
35A
330
1F
100
AcDbEntity
  8
C-4
  6
Continuous
 62
     2
370
     9
100
AcDbText
 10
328.5587482528503
 20
862.3430332387793
 30
0.0
 40
30.48
  1
0.5
 50
345.9637036322679
 41
1.083333333333333
  7
ＭＳ ゴシック
100
AcDbText
  0
TEXT
  5
35B
330
1F
100
AcDbEntity
  8
C-4
  6
Continuous
 62
     2
370
     9
100
AcDbText
 10
43.26366244960518
 20
964.664669552365
 30
0.0
 40
30.48
  1
9
 50
90.0
 41
0.9999999999999998
  7
ＭＳ ゴシック
100
AcDbText
  0
TEXT
  5
35C
330
1F
100
AcDbEntity
  8
C-4
  6
Continuous
 62
     2
370
     9
100
AcDbText
 10
291.2905247147023
 20
618.7206092958193
 30
0.0
 40
30.48
  1
80
 41
1.0625
  7
ＭＳ ゴシック
100
AcDbText
  0
TEXT
  5
35D
330
1F
100
AcDbEntity
  8
C-4
  6
Continuous
 62
     2
370
     9
100
AcDbText
 10
716.2841438685242
 20
467.371718947952
 30
0.0
 40
30.48
  1
20
 50
90.0
 41
1.0625
  7
ＭＳ ゴシック
100
AcDbText
  0
TEXT
  5
35E
330
1F
100
AcDbEntity
  8
C-4
  6
Continuous
 62
     2
370
     9
100
AcDbText
 10
-392.4595530108363
 20
937.2625124049447
 30
0.0
 40
30.48
  1
□300
 50
359.9997422316621
 41
1.1
  7
ＭＳ ゴシック
100
AcDbText
  0
TEXT
  5
35F
330
1F
100
AcDbEntity
  8
C-4
  6
Continuous
 62
     2
370
     9
100
AcDbText
 10
-392.4597021051351
 20
992.2614566617401
 30
0.0
 40
30.48
  1
□350
 41
1.1
  7
ＭＳ ゴシック
100
AcDbText
  0
TEXT
  5
360
330
1F
100
AcDbEntity
  8
C-4
  6
Continuous
 62
     2
370
     9
100
AcDbText
 10
-557.8304411913894
 20
992.2614566617401
 30
0.0
 40
30.48
  1
5
 41
0.9999999999999998
  7
ＭＳ ゴシック
100
AcDbText
  0
TEXT
  5
361
330
1F
100
AcDbEntity
  8
C-4
  6
Continuous
 62
     2
370
     9
100
AcDbText
 10
-132.5506692319298
 20
992.2614566617401
 30
0.0
 40
30.48
  1
5
 41
0.9999999999999998
  7
ＭＳ ゴシック
100
AcDbText
  0
TEXT
  5
362
330
1F
100
AcDbEntity
  8
C-4
  6
Continuous
 62
     2
370
     9
100
AcDbText
 10
-392.4597021051351
 20
1047.260895798142
 30
0.0
 40
30.48
  1
□362
 41
1.1
  7
ＭＳ ゴシック
100
AcDbText
  0
TEXT
  5
363
330
1F
100
AcDbEntity
  8
D-5
  6
Continuous
 62
     2
370
     9
100
AcDbText
 10
349.329300184508
 20
-732.651568240604
 30
0.0
 40
30.48
  1
ステンレス製受枠　ＳＦ２０Ｂ（四方枠）
 41
1.118421052631579
  7
ＭＳ ゴシック
100
AcDbText
  0
LWPOLYLINE
  5
364
330
1F
100
AcDbEntity
  8
C-4
  6
Continuous
 62
     7
370
     9
100
AcDbPolyline
 90
        4
 70
     1
 43
1.0
 10
-511.9604650445883
 20
981.6221824852198
 42
0.4142135623731
 10
-512.4604650445883
 20
982.1221824852198
 42
0.4142135623731
 10
-512.9604650445883
 20
981.6221824852198
 42
0.4142135623731
 10
-512.4604650445883
 20
981.1221824852198
 42
0.4142135623731
  0
LWPOLYLINE
  5
365
330
1F
100
AcDbEntity
  8
C-4
  6
Continuous
 62
     7
370
     9
100
AcDbPolyline
 90
        4
 70
     1
 43
1.0
 10
-161.9598052050612
 20
981.6221824852198
 42
0.4142135623731
 10
-162.4598052050612
 20
982.1221824852198
 42
0.4142135623731
 10
-162.9598052050612
 20
981.6221824852198
 42
0.4142135623731
 10
-162.4598052050612
 20
981.1221824852198
 42
0.4142135623731
  0
LWPOLYLINE
  5
366
330
1F
100
AcDbEntity
  8
C-4
  6
Continuous
 62
     7
370
     9
100
AcDbPolyline
 90
        4
 70
     1
 43
1.0
 10
-519.9603182302935
 20
1036.621621621622
 42
0.4142135623731
 10
-520.4603182302935
 20
1037.121621621622
 42
0.4142135623731
 10
-520.9603182302935
 20
1036.621621621622
 42
0.4142135623731
 10
-520.4603182302935
 20
1036.121621621622
 42
0.4142135623731
  0
LWPOLYLINE
  5
367
330
1F
100
AcDbEntity
  8
C-4
  6
Continuous
 62
     7
370
     9
100
AcDbPolyline
 90
        4
 70
     1
 43
1.0
 10
-153.9594571397107
 20
1036.621621621622
 42
0.4142135623731
 10
-154.4594571397107
 20
1037.121621621622
 42
0.4142135623731
 10
-154.9594571397107
 20
1036.621621621622
 42
0.4142135623731
 10
-154.4594571397107
 20
1036.121621621622
 42
0.4142135623731
  0
LWPOLYLINE
  5
368
330
1F
100
AcDbEntity
  8
C-4
  6
Continuous
 62
     7
370
     9
100
AcDbPolyline
 90
        4
 70
     1
 43
1.0
 10
-486.9605062845586
 20
926.6227433488177
 42
0.4142135623731
 10
-487.4605062845586
 20
927.1227433488177
 42
0.4142135623731
 10
-487.9605062845586
 20
926.6227433488177
 42
0.4142135623731
 10
-487.4605062845586
 20
926.1227433488177
 42
0.4142135623731
  0
LWPOLYLINE
  5
369
330
1F
100
AcDbEntity
  8
C-4
  6
Continuous
 62
     7
370
     9
100
AcDbPolyline
 90
        4
 70
     1
 43
1.0
 10
-186.9597639650906
 20
926.6227433488177
 42
0.4142135623731
 10
-187.4597639650906
 20
927.1227433488177
 42
0.4142135623731
 10
-187.9597639650906
 20
926.6227433488177
 42
0.4142135623731
 10
-187.4597639650906
 20
926.1227433488177
 42
0.4142135623731
  0
LWPOLYLINE
  5
36A
330
1F
100
AcDbEntity
  8
C-4
  6
Continuous
 62
     7
370
     9
100
AcDbPolyline
 90
        4
 70
     1
 43
1.0
 10
-511.9604650445883
 20
926.6227433488177
 42
0.4142135623731
 10
-512.4604650445883
 20
927.1227433488177
 42
0.4142135623731
 10
-512.9604650445883
 20
926.6227433488177
 42
0.4142135623731
 10
-512.4604650445883
 20
926.1227433488177
 42
0.4142135623731
  0
LWPOLYLINE
  5
36B
330
1F
100
AcDbEntity
  8
C-4
  6
Continuous
 62
     7
370
     9
100
AcDbPolyline
 90
        4
 70
     1
 43
1.0
 10
-161.9607949643519
 20
926.6227433488177
 42
0.4142135623731
 10
-162.4607949643519
 20
927.1227433488177
 42
0.4142135623731
 10
-162.9607949643519
 20
926.6227433488177
 42
0.4142135623731
 10
-162.4607949643519
 20
926.1227433488177
 42
0.4142135623731
  0
LWPOLYLINE
  5
36C
330
1F
100
AcDbEntity
  8
C-4
  6
Continuous
 62
     7
370
     9
100
AcDbPolyline
 90
        4
 70
     1
 43
1.0
 10
-512.9602456479456
 20
981.6221824852198
 42
0.4142135623731
 10
-513.4602456479456
 20
982.1221824852198
 42
0.4142135623731
 10
-513.9602456479456
 20
981.6221824852198
 42
0.4142135623731
 10
-513.4602456479456
 20
981.1221824852198
 42
0.4142135623731
  0
LWPOLYLINE
  5
36D
330
1F
100
AcDbEntity
  8
C-4
  6
Continuous
 62
     7
370
     9
100
AcDbPolyline
 90
        4
 70
     1
 43
1.0
 10
-519.9603182302935
 20
981.6221824852198
 42
0.4142135623731
 10
-520.4603182302935
 20
982.1221824852198
 42
0.4142135623731
 10
-520.9603182302935
 20
981.6221824852198
 42
0.4142135623731
 10
-520.4603182302935
 20
981.1221824852198
 42
0.4142135623731
  0
LWPOLYLINE
  5
36E
330
1F
100
AcDbEntity
  8
C-4
  6
Continuous
 62
     7
370
     9
100
AcDbPolyline
 90
        4
 70
     1
 43
1.0
 10
-160.9600246017039
 20
981.6221824852198
 42
0.4142135623731
 10
-161.4600246017039
 20
982.1221824852198
 42
0.4142135623731
 10
-161.9600246017039
 20
981.6221824852198
 42
0.4142135623731
 10
-161.4600246017039
 20
981.1221824852198
 42
0.4142135623731
  0
LWPOLYLINE
  5
36F
330
1F
100
AcDbEntity
  8
C-4
  6
Continuous
 62
     7
370
     9
100
AcDbPolyline
 90
        4
 70
     1
 43
1.0
 10
-153.9594571397107
 20
981.6221824852198
 42
0.4142135623731
 10
-154.4594571397107
 20
982.1221824852198
 42
0.4142135623731
 10
-154.9594571397107
 20
981.6221824852198
 42
0.4142135623731
 10
-154.4594571397107
 20
981.1221824852198
 42
0.4142135623731
  0
LWPOLYLINE
  5
370
330
1F
100
AcDbEntity
  8
C-4
  6
Continuous
 62
     7
370
     9
100
AcDbPolyline
 90
        4
 70
     1
 43
1.0
 10
185.643781352688
 20
1089.665048960093
 42
0.4142135623731
 10
185.143781352688
 20
1090.165048960093
 42
0.4142135623731
 10
184.643781352688
 20
1089.665048960093
 42
0.4142135623731
 10
185.143781352688
 20
1089.165048960093
 42
0.4142135623731
  0
LWPOLYLINE
  5
371
330
1F
100
AcDbEntity
  8
C-4
  6
Continuous
 62
     7
370
     9
100
AcDbPolyline
 90
        4
 70
     1
 43
1.0
 10
200.6440782804752
 20
1089.665048960093
 42
0.4142135623731
 10
200.1440782804752
 20
1090.165048960093
 42
0.4142135623731
 10
199.6440782804752
 20
1089.665048960093
 42
0.4142135623731
 10
200.1440782804752
 20
1089.165048960093
 42
0.4142135623731
  0
LWPOLYLINE
  5
372
330
1F
100
AcDbEntity
  8
C-4
  6
Continuous
 62
     7
370
     9
100
AcDbPolyline
 90
        4
 70
     1
 43
1.0
 10
300.6439133205935
 20
1089.665048960093
 42
0.4142135623731
 10
300.1439133205935
 20
1090.165048960093
 42
0.4142135623731
 10
299.6439133205935
 20
1089.665048960093
 42
0.4142135623731
 10
300.1439133205935
 20
1089.165048960093
 42
0.4142135623731
  0
LWPOLYLINE
  5
373
330
1F
100
AcDbEntity
  8
C-4
  6
Continuous
 62
     7
370
     9
100
AcDbPolyline
 90
        4
 70
     1
 43
1.0
 10
355.6435998968179
 20
1089.665048960093
 42
0.4142135623731
 10
355.1435998968179
 20
1090.165048960093
 42
0.4142135623731
 10
354.6435998968179
 20
1089.665048960093
 42
0.4142135623731
 10
355.1435998968179
 20
1089.165048960093
 42
0.4142135623731
  0
LWPOLYLINE
  5
374
330
1F
100
AcDbEntity
  8
C-4
  6
Continuous
 62
     7
370
     9
100
AcDbPolyline
 90
        4
 70
     1
 43
1.0
 10
455.6434349369362
 20
1089.665048960093
 42
0.4142135623731
 10
455.1434349369362
 20
1090.165048960093
 42
0.4142135623731
 10
454.6434349369362
 20
1089.665048960093
 42
0.4142135623731
 10
455.1434349369362
 20
1089.165048960093
 42
0.4142135623731
  0
LWPOLYLINE
  5
375
330
1F
100
AcDbEntity
  8
C-4
  6
Continuous
 62
     7
370
     9
100
AcDbPolyline
 90
        4
 70
     1
 43
1.0
 10
470.6437318647233
 20
1089.665048960093
 42
0.4142135623731
 10
470.1437318647234
 20
1090.165048960093
 42
0.4142135623731
 10
469.6437318647235
 20
1089.665048960093
 42
0.4142135623731
 10
470.1437318647234
 20
1089.165048960093
 42
0.4142135623731
  0
LWPOLYLINE
  5
376
330
1F
100
AcDbEntity
  8
C-4
  6
Continuous
 62
     7
370
     9
100
AcDbPolyline
 90
        4
 70
     1
 43
1.0
 10
315.6800890226627
 20
854.8067989864867
 42
0.4142135623731
 10
315.1800890226627
 20
855.3067989864867
 42
0.4142135623731
 10
314.6800890226627
 20
854.8067989864867
 42
0.4142135623731
 10
315.1800890226627
 20
854.3067989864868
 42
0.4142135623731
  0
LWPOLYLINE
  5
377
330
1F
100
AcDbEntity
  8
C-4
  6
Continuous
 62
     7
370
     9
100
AcDbPolyline
 90
        4
 70
     1
 43
1.0
 10
320.5296621064888
 20
853.5936015361065
 42
0.4142135623731
 10
320.0296621064888
 20
854.0936015361065
 42
0.4142135623731
 10
319.5296621064888
 20
853.5936015361065
 42
0.4142135623731
 10
320.0296621064888
 20
853.0936015361066
 42
0.4142135623731
  0
LWPOLYLINE
  5
378
330
1F
100
AcDbEntity
  8
C-4
  6
Continuous
 62
     7
370
     9
100
AcDbPolyline
 90
        4
 70
     1
 43
1.0
 10
54.40392638541613
 20
929.6642736486488
 42
0.4142135623731
 10
53.90392638541613
 20
930.1642736486486
 42
0.4142135623731
 10
53.40392638541613
 20
929.6642736486488
 42
0.4142135623731
 10
53.90392638541613
 20
929.1642736486488
 42
0.4142135623731
  0
LWPOLYLINE
  5
379
330
1F
100
AcDbEntity
  8
C-4
  6
Continuous
 62
     7
370
     9
100
AcDbPolyline
 90
        4
 70
     1
 43
1.0
 10
54.40392638541613
 20
1019.665312895904
 42
0.4142135623731
 10
53.90392638541613
 20
1020.165312895904
 42
0.4142135623731
 10
53.40392638541613
 20
1019.665312895904
 42
0.4142135623731
 10
53.90392638541613
 20
1019.165312895904
 42
0.4142135623731
  0
LWPOLYLINE
  5
37A
330
1F
100
AcDbEntity
  8
C-4
  6
Continuous
 62
     7
370
     9
100
AcDbPolyline
 90
        4
 70
     1
 43
1.0
 10
113.0402360349094
 20
608.080840239654
 42
0.4142135623731
 10
112.5402360349094
 20
608.5808402396539
 42
0.4142135623731
 10
112.0402360349094
 20
608.080840239654
 42
0.4142135623731
 10
112.5402360349094
 20
607.580840239654
 42
0.4142135623731
  0
LWPOLYLINE
  5
37B
330
1F
100
AcDbEntity
  8
C-4
  6
Continuous
 62
     7
370
     9
100
AcDbPolyline
 90
        4
 70
     1
 43
1.0
 10
513.0415557139632
 20
608.080840239654
 42
0.4142135623731
 10
512.5415557139632
 20
608.5808402396539
 42
0.4142135623731
 10
512.0415557139632
 20
608.080840239654
 42
0.4142135623731
 10
512.5415557139632
 20
607.580840239654
 42
0.4142135623731
  0
LWPOLYLINE
  5
37C
330
1F
100
AcDbEntity
  8
C-4
  6
Continuous
 62
     7
370
     9
100
AcDbPolyline
 90
        4
 70
     1
 43
1.0
 10
727.4239129246898
 20
438.6220488677154
 42
0.4142135623731
 10
726.9239129246898
 20
439.1220488677153
 42
0.4142135623731
 10
726.4239129246898
 20
438.6220488677154
 42
0.4142135623731
 10
726.9239129246898
 20
438.1220488677154
 42
0.4142135623731
  0
LWPOLYLINE
  5
37D
330
1F
100
AcDbEntity
  8
C-4
  6
Continuous
 62
     7
370
     9
100
AcDbPolyline
 90
        4
 70
     1
 43
1.0
 10
727.4239129246898
 20
538.6229973870356
 42
0.4142135623731
 10
726.9239129246898
 20
539.1229973870356
 42
0.4142135623731
 10
726.4239129246898
 20
538.6229973870356
 42
0.4142135623731
 10
726.9239129246898
 20
538.1229973870358
 42
0.4142135623731
  0
TEXT
  5
37E
330
1F
100
AcDbEntity
  8
D-5
  6
Continuous
 62
     2
370
     9
100
AcDbText
 10
349.3302651998163
 20
-330.3891434623099
 30
0.0
 40
30.48
  1
ステンレス製　縦目タイプ　細目ノンスリップタイプ（デルタ模様）
 41
1.120967741935484
  7
ＭＳ ゴシック
100
AcDbText
  0
TEXT
  5
37F
330
1F
100
AcDbEntity
  8
F-4ﾚｲﾔ
  6
Continuous
 62
     2
370
     9
100
AcDbText
 10
-754.5909822866344
 20
-1325.380128824477
 30
0.0
 40
30.48
  1
ステンレス製　縦目タイプ　細目ノンスリップタイプ（デルタ模様）
 41
0.7741935483870968
  7
ＭＳ ゴシック
100
AcDbText
  0
TEXT
  5
380
330
1F
100
AcDbEntity
  8
D-5
  6
Continuous
 62
     2
370
     9
100
AcDbText
 10
349.3302657764972
 20
-395.38861559069
 30
0.0
 40
30.48
  1
グレーチング（すきま6mm）ＤＱ－Ｗ－Ａ－２０　３５０×３５０×２０
 50
359.9999941416293
 41
1.121153846153846
  7
ＭＳ ゴシック
100
AcDbText
  0
LINE
  5
381
330
1F
100
AcDbEntity
  8
D-9
  6
Continuous
 62
     4
370
     9
100
AcDbLine
 10
-670.4976762477878
 20
-401.9836095861485
 30
0.0
 11
-674.1225459294812
 21
-405.6082318280194
 31
0.0
  0
LINE
  5
382
330
1F
100
AcDbEntity
  8
D-9
  6
Continuous
 62
     4
370
     9
100
AcDbLine
 10
-785.4979319356048
 20
-393.1080668681376
 30
0.0
 11
-670.4976762477878
 21
-393.1080668681376
 31
0.0
  0
LINE
  5
383
330
1F
100
AcDbEntity
  8
D-9
  6
Continuous
 62
     4
370
     9
100
AcDbLine
 10
-670.4976762477878
 20
-394.9125217747043
 30
0.0
 11
-681.1938811807482
 21
-405.6082318280194
 31
0.0
  0
LINE
  5
384
330
1F
100
AcDbEntity
  8
D-9
  6
Continuous
 62
     4
370
     9
100
AcDbLine
 10
-675.7645565924881
 20
-393.1080668681376
 30
0.0
 11
-688.2652164320152
 21
-405.6082318280194
 31
0.0
  0
LINE
  5
385
330
1F
100
AcDbEntity
  8
D-9
  6
Continuous
 62
     4
370
     9
100
AcDbLine
 10
-682.835891843755
 20
-393.1080668681376
 30
0.0
 11
-695.3365516832821
 21
-405.6082318280194
 31
0.0
  0
LINE
  5
386
330
1F
100
AcDbEntity
  8
D-9
  6
Continuous
 62
     4
370
     9
100
AcDbLine
 10
-689.9071033751104
 20
-393.1080668681376
 30
0.0
 11
-702.4068971752583
 21
-405.6082318280194
 31
0.0
  0
LINE
  5
387
330
1F
100
AcDbEntity
  8
D-9
  6
Continuous
 62
     4
370
     9
100
AcDbLine
 10
-696.9774488670871
 20
-393.1080668681376
 30
0.0
 11
-709.4782324265253
 21
-405.6082318280194
 31
0.0
  0
LINE
  5
388
330
1F
100
AcDbEntity
  8
D-9
  6
Continuous
 62
     4
370
     9
100
AcDbLine
 10
-704.0487841183538
 20
-393.1080668681376
 30
0.0
 11
-716.5495676777923
 21
-405.6082318280194
 31
0.0
  0
LINE
  5
389
330
1F
100
AcDbEntity
  8
D-9
  6
Continuous
 62
     4
370
     9
100
AcDbLine
 10
-711.1201193696206
 20
-393.1080668681376
 30
0.0
 11
-722.6051624571417
 21
-404.5923676361909
 31
0.0
  0
LINE
  5
38A
330
1F
100
AcDbEntity
  8
D-9
  6
Continuous
 62
     4
370
     9
100
AcDbLine
 10
-718.1914546208875
 20
-393.1080668681376
 30
0.0
 11
-728.0186508967531
 21
-402.9352631440034
 31
0.0
  0
LINE
  5
38B
330
1F
100
AcDbEntity
  8
D-9
  6
Continuous
 62
     4
370
     9
100
AcDbLine
 10
-725.2618001128639
 20
-393.1080668681376
 30
0.0
 11
-733.2349297977246
 21
-401.0809491131756
 31
0.0
  0
LINE
  5
38C
330
1F
100
AcDbEntity
  8
D-9
  6
Continuous
 62
     4
370
     9
100
AcDbLine
 10
-732.3331353641308
 20
-393.1080668681376
 30
0.0
 11
-738.4512086986958
 21
-399.2266350823479
 31
0.0
  0
LINE
  5
38D
330
1F
100
AcDbEntity
  8
D-9
  6
Continuous
 62
     4
370
     9
100
AcDbLine
 10
-739.4044706153977
 20
-393.1080668681376
 30
0.0
 11
-744.4047345512087
 21
-398.1083308039484
 31
0.0
  0
LINE
  5
38E
330
1F
100
AcDbEntity
  8
D-9
  6
Continuous
 62
     4
370
     9
100
AcDbLine
 10
-746.4758058666646
 20
-393.1080668681376
 30
0.0
 11
-751.475080043185
 21
-398.1083308039484
 31
0.0
  0
LINE
  5
38F
330
1F
100
AcDbEntity
  8
D-9
  6
Continuous
 62
     4
370
     9
100
AcDbLine
 10
-781.8314923637087
 20
-393.1080668681376
 30
0.0
 11
-786.8307665402288
 21
-398.1083308039484
 31
0.0
  0
LINE
  5
390
330
1F
100
AcDbEntity
  8
D-A
  6
JWW_DASHED3
 62
     3
370
     9
100
AcDbLine
 10
-650.4976102638352
 20
-375.6081328520904
 30
0.0
 11
-650.4976102638352
 21
-325.6080916121199
 31
0.0
  0
LINE
  5
391
330
1F
100
AcDbEntity
  8
D-A
  6
Continuous
 62
     3
370
     9
100
AcDbLine
 10
-625.4971566241604
 20
-350.6082978119721
 30
0.0
 11
-625.4971566241604
 21
-335.1082961623733
 31
0.0
  0
LINE
  5
392
330
1F
100
AcDbEntity
  8
D-A
  6
Continuous
 62
     3
370
     9
100
AcDbLine
 10
-650.4976102638352
 20
-325.6080916121199
 30
0.0
 11
-650.4976102638352
 21
-295.608487515836
 31
0.0
  0
LINE
  5
393
330
1F
100
AcDbEntity
  8
D-A
  6
Continuous
 62
     3
370
     9
100
AcDbLine
 10
-500.4973628240126
 20
-414.1077897355364
 30
0.0
 11
-625.4971566241604
 21
-414.1077897355364
 31
0.0
  0
LINE
  5
394
330
1F
100
AcDbEntity
  8
D-A
  6
Continuous
 62
     3
370
     9
100
AcDbLine
 10
-628.427462723717
 20
-397.6790227116765
 30
0.0
 11
-650.4976102638352
 21
-375.6081328520904
 31
0.0
  0
LINE
  5
395
330
1F
100
AcDbEntity
  8
D-A
  6
Continuous
 62
     3
370
     9
100
AcDbLine
 10
-625.4971566241604
 20
-425.6080503721495
 30
0.0
 11
-625.4971566241604
 21
-404.7503579629433
 31
0.0
  0
LINE
  5
396
330
1F
100
AcDbEntity
  8
D-A
  6
Continuous
 62
     3
370
     9
100
AcDbLine
 10
-500.4973628240126
 20
-425.6080503721495
 30
0.0
 11
-625.4971566241604
 21
-425.6080503721495
 31
0.0
  0
LINE
  5
397
330
1F
100
AcDbEntity
  8
D-A
  6
Continuous
 62
     3
370
     9
100
AcDbLine
 10
-650.4976102638352
 20
-408.1081163561021
 30
0.0
 11
-650.4976102638352
 21
-375.6081328520904
 31
0.0
  0
LINE
  5
398
330
1F
100
AcDbEntity
  8
D-A
  6
Continuous
 62
     3
370
     9
100
AcDbLine
 10
-650.4976102638352
 20
-408.1081163561021
 30
0.0
 11
-661.9973760208031
 21
-408.1081163561021
 31
0.0
  0
LINE
  5
399
330
1F
100
AcDbEntity
  8
D-A
  6
Continuous
 62
     3
370
     9
100
AcDbLine
 10
-661.9973760208031
 20
-295.608487515836
 30
0.0
 11
-661.9973760208031
 21
-408.1081163561021
 31
0.0
  0
LINE
  5
39A
330
1F
100
AcDbEntity
  8
D-A
  6
JWW_CENTER2
 62
     3
370
     9
100
AcDbLine
 10
-607.5027141225769
 20
-353.1084297798775
 30
0.0
 11
-667.920219335309
 21
-353.1084297798775
 31
0.0
  0
LINE
  5
39B
330
1F
100
AcDbEntity
  8
D-A
  6
JWW_DASHED3
 62
     3
370
     9
100
AcDbLine
 10
-625.4971566241604
 20
-363.1084627718537
 30
0.0
 11
-661.9973760208031
 21
-363.1084627718537
 31
0.0
  0
LINE
  5
39C
330
1F
100
AcDbEntity
  8
D-A
  6
JWW_DASHED3
 62
     3
370
     9
100
AcDbLine
 10
-625.4971566241604
 20
-371.1080685177365
 30
0.0
 11
-625.4971566241604
 21
-350.6082978119721
 31
0.0
  0
LINE
  5
39D
330
1F
100
AcDbEntity
  8
D-A
  6
JWW_DASHED3
 62
     3
370
     9
100
AcDbLine
 10
-625.4971566241604
 20
-361.8588916675463
 30
0.0
 11
-661.9973760208031
 21
-361.8588916675463
 31
0.0
  0
LINE
  5
39E
330
1F
100
AcDbEntity
  8
D-A
  6
Continuous
 62
     3
370
     9
100
AcDbLine
 10
-664.2478412076696
 20
-343.1083967879011
 30
0.0
 11
-665.4974123119771
 21
-344.3584627718537
 31
0.0
  0
LINE
  5
39F
330
1F
100
AcDbEntity
  8
D-A
  6
Continuous
 62
     3
370
     9
100
AcDbLine
 10
-664.2478412076696
 20
-363.1084627718537
 30
0.0
 11
-665.4974123119771
 21
-361.8588916675463
 31
0.0
  0
LINE
  5
3A0
330
1F
100
AcDbEntity
  8
D-A
  6
Continuous
 62
     3
370
     9
100
AcDbLine
 10
-664.2478412076696
 20
-343.1083967879011
 30
0.0
 11
-664.2478412076696
 21
-363.1084627718537
 31
0.0
  0
LINE
  5
3A1
330
1F
100
AcDbEntity
  8
D-A
  6
Continuous
 62
     3
370
     9
100
AcDbLine
 10
-661.9973760208031
 20
-344.3584627718537
 30
0.0
 11
-665.4974123119771
 21
-344.3584627718537
 31
0.0
  0
LINE
  5
3A2
330
1F
100
AcDbEntity
  8
D-A
  6
Continuous
 62
     3
370
     9
100
AcDbLine
 10
-661.9973760208031
 20
-343.1083967879011
 30
0.0
 11
-664.2478412076696
 21
-343.1083967879011
 31
0.0
  0
LINE
  5
3A3
330
1F
100
AcDbEntity
  8
D-A
  6
Continuous
 62
     3
370
     9
100
AcDbLine
 10
-661.9973760208031
 20
-361.8588916675463
 30
0.0
 11
-665.4974123119771
 21
-361.8588916675463
 31
0.0
  0
LINE
  5
3A4
330
1F
100
AcDbEntity
  8
D-A
  6
Continuous
 62
     3
370
     9
100
AcDbLine
 10
-661.9973760208031
 20
-363.1084627718537
 30
0.0
 11
-664.2478412076696
 21
-363.1084627718537
 31
0.0
  0
LINE
  5
3A5
330
1F
100
AcDbEntity
  8
D-A
  6
Continuous
 62
     3
370
     9
100
AcDbLine
 10
-618.9976548030031
 20
-335.1082961623733
 30
0.0
 11
-625.4971566241604
 21
-335.1082961623733
 31
0.0
  0
LINE
  5
3A6
330
1F
100
AcDbEntity
  8
D-A
  6
JWW_DASHED3
 62
     3
370
     9
100
AcDbLine
 10
-618.9976548030031
 20
-371.1080685177365
 30
0.0
 11
-625.4971566241604
 21
-371.1080685177365
 31
0.0
  0
LINE
  5
3A7
330
1F
100
AcDbEntity
  8
D-A
  6
JWW_DASHED3
 62
     3
370
     9
100
AcDbLine
 10
-612.4981529818461
 20
-364.6081955368454
 30
0.0
 11
-612.4981529818461
 21
-363.6086623733108
 31
0.0
  0
LINE
  5
3A8
330
1F
100
AcDbEntity
  8
D-A
  6
Continuous
 62
     3
370
     9
100
AcDbLine
 10
-612.4981529818461
 20
-341.6077979835303
 30
0.0
 11
-612.4981529818461
 21
-363.6086623733108
 31
0.0
  0
LINE
  5
3A9
330
1F
100
AcDbEntity
  8
D-A
  6
Continuous
 62
     3
370
     9
100
AcDbLine
 10
-625.4971566241604
 20
-343.1083967879011
 30
0.0
 11
-632.9976762477878
 21
-343.1083967879011
 31
0.0
  0
LINE
  5
3AA
330
1F
100
AcDbEntity
  8
D-A
  6
Continuous
 62
     3
370
     9
100
AcDbLine
 10
-625.4971566241604
 20
-344.3584627718537
 30
0.0
 11
-631.7481051434805
 21
-344.3584627718537
 31
0.0
  0
LINE
  5
3AB
330
1F
100
AcDbEntity
  8
D-A
  6
JWW_DASHED3
 62
     3
370
     9
100
AcDbLine
 10
-632.9976762477878
 20
-343.1083967879011
 30
0.0
 11
-661.9973760208031
 21
-343.1083967879011
 31
0.0
  0
LINE
  5
3AC
330
1F
100
AcDbEntity
  8
D-A
  6
JWW_DASHED3
 62
     3
370
     9
100
AcDbLine
 10
-661.9973760208031
 20
-344.3584627718537
 30
0.0
 11
-631.7481051434805
 21
-344.3584627718537
 31
0.0
  0
LINE
  5
3AD
330
1F
100
AcDbEntity
  8
D-A
  6
Continuous
 62
     3
370
     9
100
AcDbLine
 10
-609.2855180446628
 20
-366.8211735905827
 30
0.0
 11
-650.4976102638352
 21
-325.6080916121199
 31
0.0
  0
LINE
  5
3AE
330
1F
100
AcDbEntity
  8
D-A
  6
Continuous
 62
     3
370
     9
100
AcDbLine
 10
-588.0715122908623
 20
-375.6081328520904
 30
0.0
 11
-510.4978906956342
 21
-375.6081328520904
 31
0.0
  0
LINE
  5
3AF
330
1F
100
AcDbEntity
  8
D-4
  6
Continuous
 62
     7
370
     9
100
AcDbLine
 10
-1373.165593035425
 20
-169.6890836148648
 30
0.0
 11
-800.4977339837467
 21
-169.6890836148648
 31
0.0
  0
LINE
  5
3B0
330
1F
100
AcDbEntity
  8
D-4
  6
Continuous
 62
     7
370
     9
100
AcDbLine
 10
-800.4977339837467
 20
-275.1522662188555
 30
0.0
 11
-800.4977339837467
 21
-166.68850460568
 31
0.0
  0
LINE
  5
3B1
330
1F
100
AcDbEntity
  8
D-4
  6
Continuous
 62
     7
370
     9
100
AcDbLine
 10
-800.4977339837467
 20
-169.6890836148648
 30
0.0
 11
-675.4969504243081
 21
-169.6890836148648
 31
0.0
  0
LINE
  5
3B2
330
1F
100
AcDbEntity
  8
D-4
  6
Continuous
 62
     7
370
     9
100
AcDbLine
 10
-675.4969504243081
 20
-275.1522662188555
 30
0.0
 11
-675.4969504243081
 21
-57.93709419869089
 31
0.0
  0
LINE
  5
3B3
330
1F
100
AcDbEntity
  8
D-4
  6
Continuous
 62
     7
370
     9
100
AcDbLine
 10
-670.4966864884975
 20
-275.1522662188555
 30
0.0
 11
-670.4966864884975
 21
-57.93709419869089
 31
0.0
  0
LINE
  5
3B4
330
1F
100
AcDbEntity
  8
D-4
  6
Continuous
 62
     7
370
     9
100
AcDbLine
 10
-645.4983360873149
 20
-275.1522662188555
 30
0.0
 11
-645.4983360873149
 21
52.75956437394427
 31
0.0
  0
LINE
  5
3B5
330
1F
100
AcDbEntity
  8
D-5
  6
Continuous
 62
     7
370
     9
100
AcDbLine
 10
-509.0669462013352
 20
-182.5594185494086
 30
0.0
 11
-249.6851828461831
 21
-182.5594185494086
 31
0.0
  0
LINE
  5
3B6
330
1F
100
AcDbEntity
  8
D-4
  6
Continuous
 62
     7
370
     9
100
AcDbLine
 10
-800.496744224456
 20
-850.6916025522593
 30
0.0
 11
-400.4959194250472
 21
-850.6916025522593
 31
0.0
  0
LINE
  5
3B7
330
1F
100
AcDbEntity
  8
D-4
  6
Continuous
 62
     7
370
     9
100
AcDbLine
 10
-400.4959194250472
 20
-610.4818478146115
 30
0.0
 11
-400.4959194250472
 21
-853.691129942198
 31
0.0
  0
LINE
  5
3B8
330
1F
100
AcDbEntity
  8
D-4
  6
Continuous
 62
     7
370
     9
100
AcDbLine
 10
-800.496744224456
 20
-696.2271695523648
 30
0.0
 11
-650.4976102638352
 21
-696.2271695523648
 31
0.0
  0
LINE
  5
3B9
330
1F
100
AcDbEntity
  8
D-4
  6
Continuous
 62
     7
370
     9
100
AcDbLine
 10
-128.8125615676782
 20
-540.6084297798775
 30
0.0
 11
-128.8125615676782
 21
-290.6082235800253
 31
0.0
  0
LINE
  5
3BA
330
1F
100
AcDbEntity
  8
D-4
  6
Continuous
 62
     7
370
     9
100
AcDbLine
 10
-224.4676007621459
 20
-290.6082235800253
 30
0.0
 11
-125.8118588385818
 21
-290.6082235800253
 31
0.0
  0
LINE
  5
3BB
330
1F
100
AcDbEntity
  8
D-6
  6
Continuous
 62
     6
370
     9
100
AcDbLine
 10
-650.4976102638352
 20
-540.6084297798775
 30
0.0
 11
-650.4976102638352
 21
-790.6081411000844
 31
0.0
  0
LINE
  5
3BC
330
1F
100
AcDbEntity
  8
D-6
  6
JWW_DASHED3
 62
     6
370
     9
100
AcDbLine
 10
-556.9956686860269
 20
-668.1083555479307
 30
0.0
 11
-556.9956686860269
 21
-540.6084297798775
 31
0.0
  0
LINE
  5
3BD
330
1F
100
AcDbEntity
  8
D-6
  6
JWW_DASHED3
 62
     6
370
     9
100
AcDbLine
 10
-511.9962625416014
 20
-540.6084297798775
 30
0.0
 11
-511.9962625416014
 21
-668.1083555479307
 31
0.0
  0
LINE
  5
3BE
330
1F
100
AcDbEntity
  8
D-6
  6
Continuous
 62
     6
370
     9
100
AcDbLine
 10
-400.4978989436282
 20
-440.6084710198479
 30
0.0
 11
-235.4969834162844
 21
-440.6084710198479
 31
0.0
  0
LINE
  5
3BF
330
1F
100
AcDbEntity
  8
D-6
  6
Continuous
 62
     6
370
     9
100
AcDbLine
 10
-635.4978082156933
 20
-785.7574545370564
 30
0.0
 11
-290.3462265803469
 21
-440.6084710198479
 31
0.0
  0
LINE
  5
3C0
330
1F
100
AcDbEntity
  8
D-6
  6
Continuous
 62
     6
370
     9
100
AcDbLine
 10
-635.4978082156933
 20
-778.685129526499
 30
0.0
 11
-297.4205311094855
 21
-440.6084710198479
 31
0.0
  0
LINE
  5
3C1
330
1F
100
AcDbEntity
  8
D-6
  6
Continuous
 62
     6
370
     9
100
AcDbLine
 10
-635.4978082156933
 20
-771.616763553104
 30
0.0
 11
-404.487494923886
 21
-540.6084297798775
 31
0.0
  0
LINE
  5
3C2
330
1F
100
AcDbEntity
  8
D-6
  6
Continuous
 62
     6
370
     9
100
AcDbLine
 10
-400.4978989436282
 20
-440.6084710198479
 30
0.0
 11
-400.4978989436282
 21
-540.6084297798775
 31
0.0
  0
LINE
  5
3C3
330
1F
100
AcDbEntity
  8
D-6
  6
Continuous
 62
     6
370
     9
100
AcDbLine
 10
-400.4978989436282
 20
-536.6183389199746
 30
0.0
 11
-304.4869175642998
 21
-440.6084710198479
 31
0.0
  0
LINE
  5
3C4
330
1F
100
AcDbEntity
  8
D-4
  6
Continuous
 62
     7
370
     9
100
AcDbLine
 10
-344.7180346066349
 20
-540.6084297798775
 30
0.0
 11
-125.8118588385818
 21
-540.6084297798775
 31
0.0
  0
LINE
  5
3C5
330
1F
100
AcDbEntity
  8
D-6
  6
Continuous
 62
     6
370
     9
100
AcDbLine
 10
-650.4976102638352
 20
-540.6084297798775
 30
0.0
 11
-400.4978989436282
 21
-540.6084297798775
 31
0.0
  0
LINE
  5
3C6
330
1F
100
AcDbEntity
  8
D-6
  6
Continuous
 62
     6
370
     9
100
AcDbLine
 10
-556.9956686860269
 20
-343.1088916675463
 30
0.0
 11
-511.9962625416014
 21
-343.1088916675463
 31
0.0
  0
LINE
  5
3C7
330
1F
100
AcDbEntity
  8
D-6
  6
JWW_CENTER2
 62
     6
370
     9
100
AcDbLine
 10
-534.4964604934594
 20
-339.0288564321156
 30
0.0
 11
-534.4964604934594
 21
-668.1083555479307
 31
0.0
  0
LINE
  5
3C8
330
1F
100
AcDbEntity
  8
D-4
  6
Continuous
 62
     7
370
     9
100
AcDbLine
 10
-645.4973463280246
 20
-428.5759673247466
 30
0.0
 11
-645.4973463280246
 21
-484.1393218169341
 31
0.0
  0
LINE
  5
3C9
330
1F
100
AcDbEntity
  8
D-4
  6
Continuous
 62
     7
370
     9
100
AcDbLine
 10
-500.4973628240126
 20
-428.5759673247466
 30
0.0
 11
-500.4973628240126
 21
-484.1393218169341
 31
0.0
  0
LINE
  5
3CA
330
1F
100
AcDbEntity
  8
D-4
  6
Continuous
 62
     7
370
     9
100
AcDbLine
 10
-488.6704816215212
 20
-425.6085452517947
 30
0.0
 11
-409.4470550088732
 21
-425.6085452517947
 31
0.0
  0
LINE
  5
3CB
330
1F
100
AcDbEntity
  8
D-4
  6
Continuous
 62
     7
370
     9
100
AcDbLine
 10
-488.6704816215212
 20
-375.6086277317355
 30
0.0
 11
-409.4470550088732
 21
-375.6086277317355
 31
0.0
  0
LINE
  5
3CC
330
1F
100
AcDbEntity
  8
D-4
  6
Continuous
 62
     7
370
     9
100
AcDbLine
 10
-412.4466442587678
 20
-375.6086277317355
 30
0.0
 11
-412.4466442587678
 21
-290.6082235800253
 31
0.0
  0
LINE
  5
3CD
330
1F
100
AcDbEntity
  8
D-6
  6
Continuous
 62
     6
370
     9
100
AcDbLine
 10
-556.9956686860269
 20
-375.6081328520904
 30
0.0
 11
-556.9956686860269
 21
-343.1088916675463
 31
0.0
  0
LINE
  5
3CE
330
1F
100
AcDbEntity
  8
D-6
  6
Continuous
 62
     6
370
     9
100
AcDbLine
 10
-511.9962625416014
 20
-375.6081328520904
 30
0.0
 11
-511.9962625416014
 21
-343.1088916675463
 31
0.0
  0
LINE
  5
3CF
330
1F
100
AcDbEntity
  8
D-6
  6
Continuous
 62
     6
370
     9
100
AcDbLine
 10
-556.9956686860269
 20
-540.6084297798775
 30
0.0
 11
-556.9956686860269
 21
-425.6080503721495
 31
0.0
  0
LINE
  5
3D0
330
1F
100
AcDbEntity
  8
D-6
  6
Continuous
 62
     6
370
     9
100
AcDbLine
 10
-511.9962625416014
 20
-540.6084297798775
 30
0.0
 11
-511.9962625416014
 21
-425.6080503721495
 31
0.0
  0
LINE
  5
3D1
330
1F
100
AcDbEntity
  8
D-4
  6
Continuous
 62
     7
370
     9
100
AcDbLine
 10
-945.9803488618082
 20
-415.6082648199957
 30
0.0
 11
-945.9803488618082
 21
-290.6082235800253
 31
0.0
  0
LINE
  5
3D2
330
1F
100
AcDbEntity
  8
D-4
  6
Continuous
 62
     7
370
     9
100
AcDbLine
 10
-805.4217864541857
 20
-415.6082648199957
 30
0.0
 11
-948.9798143917914
 21
-415.6082648199957
 31
0.0
  0
LINE
  5
3D3
330
1F
100
AcDbEntity
  8
D-4
  6
Continuous
 62
     7
370
     9
100
AcDbLine
 10
-1373.165593035425
 20
49.75873792493672
 30
0.0
 11
-645.4983360873149
 21
49.75873792493672
 31
0.0
  0
LINE
  5
3D4
330
1F
100
AcDbEntity
  8
D-4
  6
Continuous
 62
     7
370
     9
100
AcDbLine
 10
-682.7773723257019
 20
-290.6082235800253
 30
0.0
 11
-948.9798143917914
 21
-290.6082235800253
 31
0.0
  0
LINE
  5
3D5
330
1F
100
AcDbEntity
  8
D-4
  6
Continuous
 62
     7
370
     9
100
AcDbLine
 10
-1373.165593035425
 20
-60.9369308884078
 30
0.0
 11
-645.4983360873149
 21
-60.9369308884078
 31
0.0
  0
LINE
  5
3D6
330
1F
100
AcDbEntity
  8
D-4
  6
Continuous
 62
     7
370
     9
100
AcDbLine
 10
-645.4973463280246
 20
-481.1389902475718
 30
0.0
 11
-500.4973628240126
 21
-481.1389902475718
 31
0.0
  0
LINE
  5
3D7
330
1F
100
AcDbEntity
  8
D-5
  6
Continuous
 62
     2
370
     9
100
AcDbLine
 10
-1142.49210720218
 20
-986.5506022685282
 30
0.0
 11
-1142.49210720218
 21
-921.5510064202385
 31
0.0
  0
LINE
  5
3D8
330
1F
100
AcDbEntity
  8
D-5
  6
Continuous
 62
     2
370
     9
100
AcDbLine
 10
-1142.49210720218
 20
-921.5510064202385
 30
0.0
 11
-567.4916948024753
 21
-921.5510064202385
 31
0.0
  0
LINE
  5
3D9
330
1F
100
AcDbEntity
  8
D-5
  6
Continuous
 62
     2
370
     9
100
AcDbLine
 10
-567.4916948024753
 20
-921.5510064202385
 30
0.0
 11
-567.4916948024753
 21
-986.5506022685282
 31
0.0
  0
LINE
  5
3DA
330
1F
100
AcDbEntity
  8
D-5
  6
Continuous
 62
     2
370
     9
100
AcDbLine
 10
-567.4916948024753
 20
-986.5506022685282
 30
0.0
 11
-1142.49210720218
 21
-986.5506022685282
 31
0.0
  0
LINE
  5
3DB
330
1F
100
AcDbEntity
  8
D-4
  6
Continuous
 62
     7
370
     9
100
AcDbLine
 10
-412.4466442587678
 20
-425.6085452517947
 30
0.0
 11
-412.4466442587678
 21
-375.6086277317355
 31
0.0
  0
LINE
  5
3DC
330
1F
100
AcDbEntity
  8
D-4
  6
Continuous
 62
     7
370
     9
100
AcDbLine
 10
-800.496744224456
 20
-815.6084091598923
 30
0.0
 11
-800.496744224456
 21
-853.691129942198
 31
0.0
  0
LINE
  5
3DD
330
1F
100
AcDbEntity
  8
D-A
  6
Continuous
 62
     3
370
     9
100
AcDbLine
 10
-661.9973760208031
 20
-295.608487515836
 30
0.0
 11
-650.4976102638352
 21
-295.608487515836
 31
0.0
  0
LINE
  5
3DE
330
1F
100
AcDbEntity
  8
D-5
  6
Continuous
 62
     7
370
     9
100
AcDbLine
 10
-620.2988171103302
 20
-384.3259326831713
 30
0.0
 11
-606.4880871298615
 21
-363.4866745407517
 31
0.0
  0
LINE
  5
3DF
330
1F
100
AcDbEntity
  8
D-5
  6
Continuous
 62
     7
370
     9
100
AcDbLine
 10
-620.2988171103302
 20
-384.3259326831713
 30
0.0
 11
-601.5640346594222
 21
-367.7715899493242
 31
0.0
  0
LINE
  5
3E0
330
1F
100
AcDbEntity
  8
D-5
  6
Continuous
 62
     7
370
     9
100
AcDbLine
 10
-620.2978273510396
 20
-384.3249429238808
 30
0.0
 11
-494.3891870823529
 21
-239.6625910578547
 31
0.0
  0
LINE
  5
3E1
330
1F
100
AcDbEntity
  8
D-5
  6
Continuous
 62
     7
370
     9
100
AcDbLine
 10
-494.3891870823529
 20
-239.6625910578547
 30
0.0
 11
-107.6878815898488
 21
-239.6625910578547
 31
0.0
  0
LINE
  5
3E2
330
1F
100
AcDbEntity
  8
D-5
  6
Continuous
 62
     7
370
     9
100
AcDbLine
 10
-690.9783940872094
 20
-391.5644135346284
 30
0.0
 11
-677.1656845881594
 21
-370.7260214315878
 31
0.0
  0
LINE
  5
3E3
330
1F
100
AcDbEntity
  8
D-5
  6
Continuous
 62
     7
370
     9
100
AcDbLine
 10
-690.9783940872094
 20
-391.5644135346284
 30
0.0
 11
-672.2447251155031
 21
-375.0100708007812
 31
0.0
  0
LINE
  5
3E4
330
1F
100
AcDbEntity
  8
D-5
  6
Continuous
 62
     7
370
     9
100
AcDbLine
 10
-647.449399088793
 20
-293.404169855891
 30
0.0
 11
-633.6387928282354
 21
-272.5657777528504
 31
0.0
  0
LINE
  5
3E5
330
1F
100
AcDbEntity
  8
D-5
  6
Continuous
 62
     7
370
     9
100
AcDbLine
 10
-647.449399088793
 20
-293.404169855891
 30
0.0
 11
-628.7147403577965
 21
-276.8500745618666
 31
0.0
  0
LINE
  5
3E6
330
1F
100
AcDbEntity
  8
D-5
  6
Continuous
 62
     7
370
     9
100
AcDbLine
 10
-503.2234073499839
 20
-127.6970610747466
 30
0.0
 11
-647.449399088793
 21
-293.404169855891
 31
0.0
  0
LINE
  5
3E7
330
1F
100
AcDbEntity
  8
D-5
  6
Continuous
 62
     7
370
     9
100
AcDbLine
 10
-509.0669462013352
 20
-182.5594185494086
 30
0.0
 11
-690.9783940872094
 21
-391.5644135346284
 31
0.0
  0
LINE
  5
3E8
330
1F
100
AcDbEntity
  8
D-5
  6
Continuous
 62
     7
370
     9
100
AcDbLine
 10
-503.2234073499839
 20
-127.6970610747466
 30
0.0
 11
-54.43487272160553
 21
-127.6970610747466
 31
0.0
  0
LINE
  5
3E9
330
1F
100
AcDbEntity
  8
D-6
  6
Continuous
 62
     6
370
     9
100
AcDbLine
 10
-648.4979253372094
 20
-290.6082235800253
 30
0.0
 11
-235.4969834162844
 21
-290.6082235800253
 31
0.0
  0
LINE
  5
3EA
330
1F
100
AcDbEntity
  8
D-6
  6
Continuous
 62
     6
370
     9
100
AcDbLine
 10
-800.496744224456
 20
-410.6082483240075
 30
0.0
 11
-800.496744224456
 21
-790.6081411000844
 31
0.0
  0
LINE
  5
3EB
330
1F
100
AcDbEntity
  8
D-A
  6
Continuous
 62
     3
370
     9
100
AcDbLine
 10
-500.4973628240126
 20
-385.6084132838893
 30
0.0
 11
-500.4973628240126
 21
-425.6080503721495
 31
0.0
  0
LINE
  5
3EC
330
1F
100
AcDbEntity
  8
D-1
  6
Continuous
 62
     2
370
     9
100
AcDbLine
 10
-650.4983525833031
 20
-295.6082400760134
 30
0.0
 11
-665.4984020712677
 21
-295.6082400760134
 31
0.0
  0
LINE
  5
3ED
330
1F
100
AcDbEntity
  8
D-1
  6
Continuous
 62
     2
370
     9
100
AcDbLine
 10
-645.4983360873149
 20
-388.1081740920608
 30
0.0
 11
-650.4983525833031
 21
-388.1081740920608
 31
0.0
  0
LINE
  5
3EE
330
1F
100
AcDbEntity
  8
D-1
  6
Continuous
 62
     2
370
     9
100
AcDbLine
 10
-650.4983525833031
 20
-410.6082483240075
 30
0.0
 11
-650.4983525833031
 21
-388.1081740920608
 31
0.0
  0
LINE
  5
3EF
330
1F
100
AcDbEntity
  8
D-1
  6
Continuous
 62
     2
370
     9
100
AcDbLine
 10
-645.4983360873149
 20
-318.108190588049
 30
0.0
 11
-650.4983525833031
 21
-318.108190588049
 31
0.0
  0
LINE
  5
3F0
330
1F
100
AcDbEntity
  8
D-1
  6
Continuous
 62
     2
370
     9
100
AcDbLine
 10
-650.4983525833031
 20
-318.108190588049
 30
0.0
 11
-650.4983525833031
 21
-295.6082400760134
 31
0.0
  0
LINE
  5
3F1
330
1F
100
AcDbEntity
  8
D-1
  6
Continuous
 62
     2
370
     9
100
AcDbLine
 10
-645.4983360873149
 20
-293.6081839896536
 30
0.0
 11
-645.4983360873149
 21
-318.108190588049
 31
0.0
  0
LINE
  5
3F2
330
1F
100
AcDbEntity
  8
D-1
  6
Continuous
 62
     2
370
     9
100
AcDbLine
 10
-645.4983360873149
 20
-412.608180690456
 30
0.0
 11
-645.4983360873149
 21
-388.1081740920608
 31
0.0
  0
LINE
  5
3F3
330
1F
100
AcDbEntity
  8
D-1
  6
Continuous
 62
     2
370
     9
100
AcDbLine
 10
-670.4984185672558
 20
-405.6082318280194
 30
0.0
 11
-720.4983360873149
 21
-405.6082318280194
 31
0.0
  0
LINE
  5
3F4
330
1F
100
AcDbEntity
  8
D-1
  6
Continuous
 62
     2
370
     9
100
AcDbLine
 10
-665.4984020712677
 20
-405.6082318280194
 30
0.0
 11
-665.4984020712677
 21
-295.6082400760134
 31
0.0
  0
LINE
  5
3F5
330
1F
100
AcDbEntity
  8
D-1
  6
Continuous
 62
     2
370
     9
100
AcDbLine
 10
-670.4984185672558
 20
-405.6082318280194
 30
0.0
 11
-670.4984185672558
 21
-293.6081839896536
 31
0.0
  0
LINE
  5
3F6
330
1F
100
AcDbEntity
  8
D-1
  6
Continuous
 62
     2
370
     9
100
AcDbLine
 10
-740.7858034252583
 20
-398.3969693570523
 30
0.0
 11
-720.4983360873149
 21
-405.6082318280194
 31
0.0
  0
LINE
  5
3F7
330
1F
100
AcDbEntity
  8
D-1
  6
Continuous
 62
     2
370
     9
100
AcDbLine
 10
-721.8689052648909
 20
-410.3196097709036
 30
0.0
 11
-742.1649092767154
 21
-403.1082235800253
 31
0.0
  0
LINE
  5
3F8
330
1F
100
AcDbEntity
  8
D-1
  6
Continuous
 62
     2
370
     9
100
AcDbLine
 10
-667.4983344377163
 20
-290.6082235800253
 30
0.0
 11
-648.4982964969433
 21
-290.6082235800253
 31
0.0
  0
LINE
  5
3F9
330
1F
100
AcDbEntity
  8
D-1
  6
Continuous
 62
     2
370
     9
100
AcDbLine
 10
-795.4983360873149
 20
-410.6082483240075
 30
0.0
 11
-650.4983525833031
 21
-410.6082483240075
 31
0.0
  0
LINE
  5
3FA
330
1F
100
AcDbEntity
  8
D-1
  6
Continuous
 62
     2
370
     9
100
AcDbLine
 10
-795.4983360873149
 20
-410.6082483240075
 30
0.0
 11
-795.4983360873149
 21
-403.1082235800253
 31
0.0
  0
LINE
  5
3FB
330
1F
100
AcDbEntity
  8
D-1
  6
Continuous
 62
     2
370
     9
100
AcDbLine
 10
-795.4983360873149
 20
-415.6082648199957
 30
0.0
 11
-648.4982964969433
 21
-415.6082648199957
 31
0.0
  0
LINE
  5
3FC
330
1F
100
AcDbEntity
  8
D-1
  6
Continuous
 62
     2
370
     9
100
AcDbLine
 10
-800.4983525833031
 20
-410.6082483240075
 30
0.0
 11
-800.4983525833031
 21
-403.1082235800253
 31
0.0
  0
LINE
  5
3FD
330
1F
100
AcDbEntity
  8
D-1
  6
Continuous
 62
     2
370
     9
100
AcDbLine
 10
-758.6681556871883
 20
-398.7780266839104
 30
0.0
 11
-770.4983773272854
 21
-405.6082318280194
 31
0.0
  0
LINE
  5
3FE
330
1F
100
AcDbEntity
  8
D-1
  6
Continuous
 62
     2
370
     9
100
AcDbLine
 10
-767.9983690792913
 20
-409.9383050042229
 30
0.0
 11
-756.1682711591055
 21
-403.1082235800253
 31
0.0
  0
LINE
  5
3FF
330
1F
100
AcDbEntity
  8
D-1
  6
Continuous
 62
     2
370
     9
100
AcDbLine
 10
-772.9983855752795
 20
-409.9383050042229
 30
0.0
 11
-784.8286072153767
 21
-403.1082235800253
 31
0.0
  0
LINE
  5
400
330
1F
100
AcDbEntity
  8
D-1
  6
Continuous
 62
     2
370
     9
100
AcDbLine
 10
-782.3285989673826
 20
-398.7780266839104
 30
0.0
 11
-770.4983773272854
 21
-405.6082318280194
 31
0.0
  0
LINE
  5
401
330
1F
100
AcDbEntity
  8
D-1
  6
Continuous
 62
     2
370
     9
100
AcDbLine
 10
-742.1649092767154
 20
-403.1082235800253
 30
0.0
 11
-756.1682711591055
 21
-403.1082235800253
 31
0.0
  0
LINE
  5
402
330
1F
100
AcDbEntity
  8
D-1
  6
Continuous
 62
     2
370
     9
100
AcDbLine
 10
-784.8286072153767
 20
-403.1082235800253
 30
0.0
 11
-795.4983360873149
 21
-403.1082235800253
 31
0.0
  0
LINE
  5
403
330
1F
100
AcDbEntity
  8
D-1
  6
Continuous
 62
     2
370
     9
100
AcDbLine
 10
-742.4604761448529
 20
-398.1082070840371
 30
0.0
 11
-756.1681474391941
 21
-398.1082070840371
 31
0.0
  0
LINE
  5
404
330
1F
100
AcDbEntity
  8
D-1
  6
Continuous
 62
     2
370
     9
100
AcDbLine
 10
-784.8286072153767
 20
-398.1082070840371
 30
0.0
 11
-795.4983360873149
 21
-398.1082070840371
 31
0.0
  0
LINE
  5
405
330
1F
100
AcDbEntity
  8
D-9
  6
Continuous
 62
     4
370
     9
100
AcDbLine
 10
-753.5461513586409
 20
-393.1080668681376
 30
0.0
 11
-759.964616637885
 21
-399.5265321473817
 31
0.0
  0
LINE
  5
406
330
1F
100
AcDbEntity
  8
D-9
  6
Continuous
 62
     4
370
     9
100
AcDbLine
 10
-760.6174866099079
 20
-393.1080668681376
 30
0.0
 11
-772.1589459769899
 21
-404.6495262352195
 31
0.0
  0
LINE
  5
407
330
1F
100
AcDbEntity
  8
D-9
  6
Continuous
 62
     4
370
     9
100
AcDbLine
 10
-767.6888218611748
 20
-393.1080668681376
 30
0.0
 11
-776.6419369635819
 21
-402.0611819705447
 31
0.0
  0
LINE
  5
408
330
1F
100
AcDbEntity
  8
D-9
  6
Continuous
 62
     4
370
     9
100
AcDbLine
 10
-774.7601571124417
 20
-393.1080668681376
 30
0.0
 11
-781.124185630706
 21
-399.4734563054265
 31
0.0
  0
LINE
  5
409
330
1F
100
AcDbEntity
  8
D-2
  6
Continuous
 62
     3
370
     9
100
AcDbLine
 10
-692.9963895607102
 20
-313.108297811972
 30
0.0
 11
-692.9963895607102
 21
-388.1074317725928
 31
0.0
  0
LINE
  5
40A
330
1F
100
AcDbEntity
  8
D-2
  6
Continuous
 62
     3
370
     9
100
AcDbLine
 10
-702.9974123119771
 20
-313.108297811972
 30
0.0
 11
-702.9974123119771
 21
-388.1074317725928
 31
0.0
  0
LINE
  5
40B
330
1F
100
AcDbEntity
  8
D-2
  6
Continuous
 62
     3
370
     9
100
AcDbLine
 10
-715.4968349523909
 20
-303.1082648199957
 30
0.0
 11
-712.9974453039534
 21
-303.1082648199957
 31
0.0
  0
LINE
  5
40C
330
1F
100
AcDbEntity
  8
D-2
  6
Continuous
 62
     3
370
     9
100
AcDbLine
 10
-680.4969669202965
 20
-303.1082648199957
 30
0.0
 11
-682.9966040085566
 21
-303.1082648199957
 31
0.0
  0
LINE
  5
40D
330
1F
100
AcDbEntity
  8
D-2
  6
Continuous
 62
     3
370
     9
100
AcDbLine
 10
-720.4968514483792
 20
-295.6082400760134
 30
0.0
 11
-720.4968514483792
 21
-298.1083720439188
 31
0.0
  0
LINE
  5
40E
330
1F
100
AcDbEntity
  8
D-2
  6
Continuous
 62
     3
370
     9
100
AcDbLine
 10
-675.4969504243081
 20
-295.6077451963682
 30
0.0
 11
-720.4968514483792
 21
-295.6077451963682
 31
0.0
  0
LINE
  5
40F
330
1F
100
AcDbEntity
  8
D-2
  6
Continuous
 62
     3
370
     9
100
AcDbLine
 10
-767.9965132806217
 20
-313.108297811972
 30
0.0
 11
-767.9965132806217
 21
-388.1074317725928
 31
0.0
  0
LINE
  5
410
330
1F
100
AcDbEntity
  8
D-2
  6
Continuous
 62
     3
370
     9
100
AcDbLine
 10
-777.9972885920656
 20
-313.108297811972
 30
0.0
 11
-777.9972885920656
 21
-388.1074317725928
 31
0.0
  0
LINE
  5
411
330
1F
100
AcDbEntity
  8
D-2
  6
Continuous
 62
     3
370
     9
100
AcDbLine
 10
-790.4972061121248
 20
-303.1082648199957
 30
0.0
 11
-787.9975690238649
 21
-303.1082648199957
 31
0.0
  0
LINE
  5
412
330
1F
100
AcDbEntity
  8
D-2
  6
Continuous
 62
     3
370
     9
100
AcDbLine
 10
-755.4970906402076
 20
-303.1082648199957
 30
0.0
 11
-757.9967277284677
 21
-303.1082648199957
 31
0.0
  0
LINE
  5
413
330
1F
100
AcDbEntity
  8
D-2
  6
Continuous
 62
     3
370
     9
100
AcDbLine
 10
-795.4969751682904
 20
-295.6082400760134
 30
0.0
 11
-795.4969751682904
 21
-298.1083720439188
 31
0.0
  0
LINE
  5
414
330
1F
100
AcDbEntity
  8
D-2
  6
Continuous
 62
     3
370
     9
100
AcDbLine
 10
-750.4968267043969
 20
-295.6082400760134
 30
0.0
 11
-750.4968267043969
 21
-298.1083720439188
 31
0.0
  0
LINE
  5
415
330
1F
100
AcDbEntity
  8
D-2
  6
Continuous
 62
     3
370
     9
100
AcDbLine
 10
-750.4968267043969
 20
-295.6077451963682
 30
0.0
 11
-795.4969751682904
 21
-295.6077451963682
 31
0.0
  0
LINE
  5
416
330
1F
100
AcDbEntity
  8
D-2
  6
Continuous
 62
     3
370
     9
100
AcDbLine
 10
-842.9966370005329
 20
-313.108297811972
 30
0.0
 11
-842.9966370005329
 21
-388.1074317725928
 31
0.0
  0
LINE
  5
417
330
1F
100
AcDbEntity
  8
D-2
  6
Continuous
 62
     3
370
     9
100
AcDbLine
 10
-852.9974123119771
 20
-313.108297811972
 30
0.0
 11
-852.9974123119771
 21
-388.1074317725928
 31
0.0
  0
LINE
  5
418
330
1F
100
AcDbEntity
  8
D-2
  6
Continuous
 62
     3
370
     9
100
AcDbLine
 10
-865.4970823922135
 20
-303.1082648199957
 30
0.0
 11
-862.9971978641308
 21
-303.1082648199957
 31
0.0
  0
LINE
  5
419
330
1F
100
AcDbEntity
  8
D-2
  6
Continuous
 62
     3
370
     9
100
AcDbLine
 10
-830.4969669202965
 20
-303.1082648199957
 30
0.0
 11
-832.996356568734
 21
-303.1082648199957
 31
0.0
  0
LINE
  5
41A
330
1F
100
AcDbEntity
  8
D-2
  6
Continuous
 62
     3
370
     9
100
AcDbLine
 10
-870.4970988882018
 20
-295.6082400760134
 30
0.0
 11
-870.4970988882018
 21
-298.1083720439188
 31
0.0
  0
LINE
  5
41B
330
1F
100
AcDbEntity
  8
D-2
  6
Continuous
 62
     3
370
     9
100
AcDbLine
 10
-825.4969504243081
 20
-295.6082400760134
 30
0.0
 11
-825.4969504243081
 21
-298.1083720439188
 31
0.0
  0
LINE
  5
41C
330
1F
100
AcDbEntity
  8
D-2
  6
Continuous
 62
     3
370
     9
100
AcDbLine
 10
-825.4969504243081
 20
-295.6077451963682
 30
0.0
 11
-870.4970988882018
 21
-295.6077451963682
 31
0.0
  0
LINE
  5
41D
330
1F
100
AcDbEntity
  8
D-2
  6
Continuous
 62
     3
370
     9
100
AcDbLine
 10
-917.9963895607102
 20
-313.108297811972
 30
0.0
 11
-917.9963895607102
 21
-388.1074317725928
 31
0.0
  0
LINE
  5
41E
330
1F
100
AcDbEntity
  8
D-2
  6
Continuous
 62
     3
370
     9
100
AcDbLine
 10
-927.9975360318884
 20
-313.108297811972
 30
0.0
 11
-927.9975360318884
 21
-388.1074317725928
 31
0.0
  0
LINE
  5
41F
330
1F
100
AcDbEntity
  8
D-2
  6
Continuous
 62
     3
370
     9
100
AcDbLine
 10
-940.4969586723023
 20
-303.1082648199957
 30
0.0
 11
-937.9975690238648
 21
-303.1082648199957
 31
0.0
  0
LINE
  5
420
330
1F
100
AcDbEntity
  8
D-2
  6
Continuous
 62
     3
370
     9
100
AcDbLine
 10
-905.4969669202965
 20
-303.1082648199957
 30
0.0
 11
-907.9966040085566
 21
-303.1082648199957
 31
0.0
  0
LINE
  5
421
330
1F
100
AcDbEntity
  8
D-2
  6
Continuous
 62
     3
370
     9
100
AcDbLine
 10
-945.4969751682904
 20
-295.6082400760134
 30
0.0
 11
-945.4969751682904
 21
-298.1083720439188
 31
0.0
  0
LINE
  5
422
330
1F
100
AcDbEntity
  8
D-2
  6
Continuous
 62
     3
370
     9
100
AcDbLine
 10
-900.4969504243082
 20
-295.6082400760134
 30
0.0
 11
-900.4969504243082
 21
-298.1083720439188
 31
0.0
  0
LINE
  5
423
330
1F
100
AcDbEntity
  8
D-2
  6
Continuous
 62
     3
370
     9
100
AcDbLine
 10
-900.4969504243082
 20
-295.6077451963682
 30
0.0
 11
-945.4969751682904
 21
-295.6077451963682
 31
0.0
  0
LINE
  5
424
330
1F
100
AcDbEntity
  8
D-2
  6
Continuous
 62
     3
370
     9
100
AcDbLine
 10
-992.9966370005329
 20
-313.108297811972
 30
0.0
 11
-992.9966370005329
 21
-388.1074317725928
 31
0.0
  0
LINE
  5
425
330
1F
100
AcDbEntity
  8
D-2
  6
Continuous
 62
     3
370
     9
100
AcDbLine
 10
-1002.997412311977
 20
-313.108297811972
 30
0.0
 11
-1002.997412311977
 21
-388.1074317725928
 31
0.0
  0
LINE
  5
426
330
1F
100
AcDbEntity
  8
D-2
  6
Continuous
 62
     3
370
     9
100
AcDbLine
 10
-1015.497082392214
 20
-303.1082648199957
 30
0.0
 11
-1012.997445303953
 21
-303.1082648199957
 31
0.0
  0
LINE
  5
427
330
1F
100
AcDbEntity
  8
D-2
  6
Continuous
 62
     3
370
     9
100
AcDbLine
 10
-980.4965957605624
 20
-303.1082648199957
 30
0.0
 11
-982.9962328488226
 21
-303.1082648199957
 31
0.0
  0
LINE
  5
428
330
1F
100
AcDbEntity
  8
D-2
  6
Continuous
 62
     3
370
     9
100
AcDbLine
 10
-1020.497098888202
 20
-295.6082400760134
 30
0.0
 11
-1020.497098888202
 21
-298.1083720439188
 31
0.0
  0
LINE
  5
429
330
1F
100
AcDbEntity
  8
D-2
  6
Continuous
 62
     3
370
     9
100
AcDbLine
 10
-975.4968267043969
 20
-295.6082400760134
 30
0.0
 11
-975.4968267043969
 21
-298.1083720439188
 31
0.0
  0
LINE
  5
42A
330
1F
100
AcDbEntity
  8
D-2
  6
Continuous
 62
     3
370
     9
100
AcDbLine
 10
-975.4968267043969
 20
-295.6077451963682
 30
0.0
 11
-1020.497098888202
 21
-295.6077451963682
 31
0.0
  0
LINE
  5
42B
330
1F
100
AcDbEntity
  8
D-2
  6
Continuous
 62
     3
370
     9
100
AcDbLine
 10
-1067.996637000533
 20
-313.108297811972
 30
0.0
 11
-1067.996637000533
 21
-388.1074317725928
 31
0.0
  0
LINE
  5
42C
330
1F
100
AcDbEntity
  8
D-2
  6
Continuous
 62
     3
370
     9
100
AcDbLine
 10
-1077.997412311977
 20
-313.108297811972
 30
0.0
 11
-1077.997412311977
 21
-388.1074317725928
 31
0.0
  0
LINE
  5
42D
330
1F
100
AcDbEntity
  8
D-2
  6
Continuous
 62
     3
370
     9
100
AcDbLine
 10
-1090.496834952391
 20
-303.1082648199957
 30
0.0
 11
-1087.997197864131
 21
-303.1082648199957
 31
0.0
  0
LINE
  5
42E
330
1F
100
AcDbEntity
  8
D-2
  6
Continuous
 62
     3
370
     9
100
AcDbLine
 10
-1055.496966920296
 20
-303.1082648199957
 30
0.0
 11
-1057.996356568734
 21
-303.1082648199957
 31
0.0
  0
LINE
  5
42F
330
1F
100
AcDbEntity
  8
D-2
  6
Continuous
 62
     3
370
     9
100
AcDbLine
 10
-1095.497222608113
 20
-295.6082400760134
 30
0.0
 11
-1095.497222608113
 21
-298.1083720439188
 31
0.0
  0
LINE
  5
430
330
1F
100
AcDbEntity
  8
D-2
  6
Continuous
 62
     3
370
     9
100
AcDbLine
 10
-1050.496950424308
 20
-295.6082400760134
 30
0.0
 11
-1050.496950424308
 21
-298.1083720439188
 31
0.0
  0
LINE
  5
431
330
1F
100
AcDbEntity
  8
D-2
  6
Continuous
 62
     3
370
     9
100
AcDbLine
 10
-1050.496950424308
 20
-295.6077451963682
 30
0.0
 11
-1095.497222608113
 21
-295.6077451963682
 31
0.0
  0
LINE
  5
432
330
1F
100
AcDbEntity
  8
D-2
  6
Continuous
 62
     3
370
     9
100
AcDbLine
 10
-1142.996513280621
 20
-313.108297811972
 30
0.0
 11
-1142.996513280621
 21
-388.1074317725928
 31
0.0
  0
LINE
  5
433
330
1F
100
AcDbEntity
  8
D-2
  6
Continuous
 62
     3
370
     9
100
AcDbLine
 10
-1152.997536031889
 20
-313.108297811972
 30
0.0
 11
-1152.997536031889
 21
-388.1074317725928
 31
0.0
  0
LINE
  5
434
330
1F
100
AcDbEntity
  8
D-2
  6
Continuous
 62
     3
370
     9
100
AcDbLine
 10
-1165.497453551948
 20
-303.1082648199957
 30
0.0
 11
-1162.997569023865
 21
-303.1082648199957
 31
0.0
  0
LINE
  5
435
330
1F
100
AcDbEntity
  8
D-2
  6
Continuous
 62
     3
370
     9
100
AcDbLine
 10
-1130.496843200385
 20
-303.1082648199957
 30
0.0
 11
-1132.996480288645
 21
-303.1082648199957
 31
0.0
  0
LINE
  5
436
330
1F
100
AcDbEntity
  8
D-2
  6
Continuous
 62
     3
370
     9
100
AcDbLine
 10
-1170.496727728468
 20
-295.6082400760134
 30
0.0
 11
-1170.496727728468
 21
-298.1083720439188
 31
0.0
  0
LINE
  5
437
330
1F
100
AcDbEntity
  8
D-2
  6
Continuous
 62
     3
370
     9
100
AcDbLine
 10
-1125.49707414422
 20
-295.6082400760134
 30
0.0
 11
-1125.49707414422
 21
-298.1083720439188
 31
0.0
  0
LINE
  5
438
330
1F
100
AcDbEntity
  8
D-2
  6
Continuous
 62
     3
370
     9
100
AcDbLine
 10
-1125.49707414422
 20
-295.6077451963682
 30
0.0
 11
-1170.496727728468
 21
-295.6077451963682
 31
0.0
  0
LINE
  5
439
330
1F
100
AcDbEntity
  8
D-2
  6
Continuous
 62
     3
370
     9
100
AcDbLine
 10
-1217.996637000533
 20
-313.108297811972
 30
0.0
 11
-1217.996637000533
 21
-388.1074317725928
 31
0.0
  0
LINE
  5
43A
330
1F
100
AcDbEntity
  8
D-2
  6
Continuous
 62
     3
370
     9
100
AcDbLine
 10
-1227.997164872154
 20
-313.108297811972
 30
0.0
 11
-1227.997164872154
 21
-388.1074317725928
 31
0.0
  0
LINE
  5
43B
330
1F
100
AcDbEntity
  8
D-2
  6
Continuous
 62
     3
370
     9
100
AcDbLine
 10
-1240.497082392214
 20
-303.1082648199957
 30
0.0
 11
-1237.997445303954
 21
-303.1082648199957
 31
0.0
  0
LINE
  5
43C
330
1F
100
AcDbEntity
  8
D-2
  6
Continuous
 62
     3
370
     9
100
AcDbLine
 10
-1205.496719480474
 20
-303.1082648199957
 30
0.0
 11
-1207.996294708778
 21
-303.1082648199957
 31
0.0
  0
LINE
  5
43D
330
1F
100
AcDbEntity
  8
D-2
  6
Continuous
 62
     3
370
     9
100
AcDbLine
 10
-1245.497098888202
 20
-295.6082400760134
 30
0.0
 11
-1245.497098888202
 21
-298.1083720439188
 31
0.0
  0
LINE
  5
43E
330
1F
100
AcDbEntity
  8
D-2
  6
Continuous
 62
     3
370
     9
100
AcDbLine
 10
-1200.496888564353
 20
-295.6082400760134
 30
0.0
 11
-1200.496888564353
 21
-298.1083720439188
 31
0.0
  0
LINE
  5
43F
330
1F
100
AcDbEntity
  8
D-2
  6
Continuous
 62
     3
370
     9
100
AcDbLine
 10
-1200.496888564353
 20
-295.6077451963682
 30
0.0
 11
-1245.497098888202
 21
-295.6077451963682
 31
0.0
  0
LINE
  5
440
330
1F
100
AcDbEntity
  8
D-2
  6
Continuous
 62
     3
370
     9
100
AcDbLine
 10
-1292.996698860489
 20
-313.108297811972
 30
0.0
 11
-1292.996698860489
 21
-388.1074317725928
 31
0.0
  0
LINE
  5
441
330
1F
100
AcDbEntity
  8
D-2
  6
Continuous
 62
     3
370
     9
100
AcDbLine
 10
-1302.997474171933
 20
-313.108297811972
 30
0.0
 11
-1302.997474171933
 21
-388.1074317725928
 31
0.0
  0
LINE
  5
442
330
1F
100
AcDbEntity
  8
D-2
  6
Continuous
 62
     3
370
     9
100
AcDbLine
 10
-1315.496958672302
 20
-303.1082648199957
 30
0.0
 11
-1312.997321584042
 21
-303.1082648199957
 31
0.0
  0
LINE
  5
443
330
1F
100
AcDbEntity
  8
D-2
  6
Continuous
 62
     3
370
     9
100
AcDbLine
 10
-1280.497028780252
 20
-303.1082648199957
 30
0.0
 11
-1282.996913308335
 21
-303.1082648199957
 31
0.0
  0
LINE
  5
444
330
1F
100
AcDbEntity
  8
D-2
  6
Continuous
 62
     3
370
     9
100
AcDbLine
 10
-1320.497160748158
 20
-295.6082400760134
 30
0.0
 11
-1320.497160748158
 21
-298.1083720439188
 31
0.0
  0
LINE
  5
445
330
1F
100
AcDbEntity
  8
D-2
  6
Continuous
 62
     3
370
     9
100
AcDbLine
 10
-1275.497012284264
 20
-295.6082400760134
 30
0.0
 11
-1275.497012284264
 21
-298.1083720439188
 31
0.0
  0
LINE
  5
446
330
1F
100
AcDbEntity
  8
D-2
  6
Continuous
 62
     3
370
     9
100
AcDbLine
 10
-1275.497012284264
 20
-295.6077451963682
 30
0.0
 11
-1320.497160748158
 21
-295.6077451963682
 31
0.0
  0
LINE
  5
447
330
1F
100
AcDbEntity
  8
D-2
  6
Continuous
 62
     3
370
     9
100
AcDbLine
 10
-675.4969504243081
 20
-293.1081081081081
 30
0.0
 11
-675.4969504243081
 21
-393.1076957084036
 31
0.0
  0
LINE
  5
448
330
1F
100
AcDbEntity
  8
D-2
  6
Continuous
 62
     3
370
     9
100
AcDbLine
 10
-1348.165634275396
 20
-258.1082400760134
 30
0.0
 11
-1348.165634275396
 21
-428.1075637404983
 31
0.0
  0
LINE
  5
449
330
1F
100
AcDbEntity
  8
D-2
  6
Continuous
 62
     3
370
     9
100
AcDbLine
 10
-675.4969504243081
 20
-293.1081081081081
 30
0.0
 11
-1348.165634275396
 21
-293.1081081081081
 31
0.0
  0
LINE
  5
44A
330
1F
100
AcDbEntity
  8
D-2
  6
Continuous
 62
     3
370
     9
100
AcDbLine
 10
-1348.165634275396
 20
-393.1076957084036
 30
0.0
 11
-675.4969504243081
 21
-393.1076957084036
 31
0.0
  0
LINE
  5
44B
330
1F
100
AcDbEntity
  8
D-5
  6
Continuous
 62
     7
370
     9
100
AcDbLine
 10
-550.9747154818461
 20
-66.8622486011401
 30
0.0
 11
-748.4874916246883
 21
-295.6082400760134
 31
0.0
  0
LINE
  5
44C
330
1F
100
AcDbEntity
  8
D-5
  6
Continuous
 62
     7
370
     9
100
AcDbLine
 10
-748.4874916246883
 20
-295.6082400760134
 30
0.0
 11
-734.7590353852456
 21
-274.7152874920819
 31
0.0
  0
LINE
  5
44D
330
1F
100
AcDbEntity
  8
D-5
  6
Continuous
 62
     7
370
     9
100
AcDbLine
 10
-748.4874916246883
 20
-295.6082400760134
 30
0.0
 11
-729.8188993263352
 21
-278.9804077148438
 31
0.0
  0
LINE
  5
44E
330
1F
100
AcDbEntity
  8
D-4
  6
Continuous
 62
     7
370
     9
100
AcDbLine
 10
-1408.165708507343
 20
-393.1076957084036
 30
0.0
 11
-1408.165708507343
 21
-293.1081081081081
 31
0.0
  0
LINE
  5
44F
330
1F
100
AcDbEntity
  8
D-4
  6
Continuous
 62
     7
370
     9
100
AcDbLine
 10
-1363.165498183493
 20
-393.1076957084036
 30
0.0
 11
-1411.16554519706
 21
-393.1076957084036
 31
0.0
  0
LINE
  5
450
330
1F
100
AcDbEntity
  8
D-4
  6
Continuous
 62
     7
370
     9
100
AcDbLine
 10
-1363.165498183493
 20
-293.1081081081081
 30
0.0
 11
-1411.16554519706
 21
-293.1081081081081
 31
0.0
  0
LINE
  5
451
330
1F
100
AcDbEntity
  8
D-2
  6
Continuous
 62
     3
370
     9
100
AcDbLine
 10
-682.9970988882019
 20
-328.3576429212416
 30
0.0
 11
-682.9970988882019
 21
-377.8576082796662
 31
0.0
  0
LINE
  5
452
330
1F
100
AcDbEntity
  8
D-2
  6
Continuous
 62
     3
370
     9
100
AcDbLine
 10
-692.9963895607102
 20
-328.3576429212416
 30
0.0
 11
-682.9970988882019
 21
-328.3576429212416
 31
0.0
  0
LINE
  5
453
330
1F
100
AcDbEntity
  8
D-2
  6
Continuous
 62
     3
370
     9
100
AcDbLine
 10
-692.9963895607102
 20
-353.1075637404983
 30
0.0
 11
-682.9970988882019
 21
-353.1075637404983
 31
0.0
  0
LINE
  5
454
330
1F
100
AcDbEntity
  8
D-2
  6
Continuous
 62
     3
370
     9
100
AcDbLine
 10
-692.9963895607102
 20
-377.8576082796662
 30
0.0
 11
-682.9970988882019
 21
-377.8576082796662
 31
0.0
  0
LINE
  5
455
330
1F
100
AcDbEntity
  8
D-2
  6
Continuous
 62
     3
370
     9
100
AcDbLine
 10
-767.9965132806217
 20
-377.8576082796662
 30
0.0
 11
-702.9974123119771
 21
-377.8576082796662
 31
0.0
  0
LINE
  5
456
330
1F
100
AcDbEntity
  8
D-2
  6
Continuous
 62
     3
370
     9
100
AcDbLine
 10
-767.9965132806217
 20
-353.1075637404983
 30
0.0
 11
-702.9974123119771
 21
-353.1075637404983
 31
0.0
  0
LINE
  5
457
330
1F
100
AcDbEntity
  8
D-2
  6
Continuous
 62
     3
370
     9
100
AcDbLine
 10
-767.9965132806217
 20
-328.3576429212416
 30
0.0
 11
-702.9974123119771
 21
-328.3576429212416
 31
0.0
  0
LINE
  5
458
330
1F
100
AcDbEntity
  8
D-2
  6
Continuous
 62
     3
370
     9
100
AcDbLine
 10
-842.9966370005329
 20
-328.3576429212416
 30
0.0
 11
-777.9972885920656
 21
-328.3576429212416
 31
0.0
  0
LINE
  5
459
330
1F
100
AcDbEntity
  8
D-2
  6
Continuous
 62
     3
370
     9
100
AcDbLine
 10
-842.9966370005329
 20
-353.1075637404983
 30
0.0
 11
-777.9972885920656
 21
-353.1075637404983
 31
0.0
  0
LINE
  5
45A
330
1F
100
AcDbEntity
  8
D-2
  6
Continuous
 62
     3
370
     9
100
AcDbLine
 10
-842.9966370005329
 20
-377.8576082796662
 30
0.0
 11
-777.9972885920656
 21
-377.8576082796662
 31
0.0
  0
LINE
  5
45B
330
1F
100
AcDbEntity
  8
D-2
  6
Continuous
 62
     3
370
     9
100
AcDbLine
 10
-917.9963895607102
 20
-328.3576429212416
 30
0.0
 11
-852.9974123119771
 21
-328.3576429212416
 31
0.0
  0
LINE
  5
45C
330
1F
100
AcDbEntity
  8
D-2
  6
Continuous
 62
     3
370
     9
100
AcDbLine
 10
-917.9963895607102
 20
-353.1075637404983
 30
0.0
 11
-852.9974123119771
 21
-353.1075637404983
 31
0.0
  0
LINE
  5
45D
330
1F
100
AcDbEntity
  8
D-2
  6
Continuous
 62
     3
370
     9
100
AcDbLine
 10
-917.9963895607102
 20
-377.8576082796662
 30
0.0
 11
-852.9974123119771
 21
-377.8576082796662
 31
0.0
  0
LINE
  5
45E
330
1F
100
AcDbEntity
  8
D-2
  6
Continuous
 62
     3
370
     9
100
AcDbLine
 10
-992.9966370005329
 20
-328.3576429212416
 30
0.0
 11
-927.9975360318884
 21
-328.3576429212416
 31
0.0
  0
LINE
  5
45F
330
1F
100
AcDbEntity
  8
D-2
  6
Continuous
 62
     3
370
     9
100
AcDbLine
 10
-992.9966370005329
 20
-353.1075637404983
 30
0.0
 11
-927.9975360318884
 21
-353.1075637404983
 31
0.0
  0
LINE
  5
460
330
1F
100
AcDbEntity
  8
D-2
  6
Continuous
 62
     3
370
     9
100
AcDbLine
 10
-992.9966370005329
 20
-377.8576082796662
 30
0.0
 11
-927.9975360318884
 21
-377.8576082796662
 31
0.0
  0
LINE
  5
461
330
1F
100
AcDbEntity
  8
D-2
  6
Continuous
 62
     3
370
     9
100
AcDbLine
 10
-1067.996637000533
 20
-377.8576082796662
 30
0.0
 11
-1002.997412311977
 21
-377.8576082796662
 31
0.0
  0
LINE
  5
462
330
1F
100
AcDbEntity
  8
D-2
  6
Continuous
 62
     3
370
     9
100
AcDbLine
 10
-1067.996637000533
 20
-353.1075637404983
 30
0.0
 11
-1002.997412311977
 21
-353.1075637404983
 31
0.0
  0
LINE
  5
463
330
1F
100
AcDbEntity
  8
D-2
  6
Continuous
 62
     3
370
     9
100
AcDbLine
 10
-1067.996637000533
 20
-328.3576429212416
 30
0.0
 11
-1002.997412311977
 21
-328.3576429212416
 31
0.0
  0
LINE
  5
464
330
1F
100
AcDbEntity
  8
D-2
  6
Continuous
 62
     3
370
     9
100
AcDbLine
 10
-1142.996513280621
 20
-377.8576082796662
 30
0.0
 11
-1077.997412311977
 21
-377.8576082796662
 31
0.0
  0
LINE
  5
465
330
1F
100
AcDbEntity
  8
D-2
  6
Continuous
 62
     3
370
     9
100
AcDbLine
 10
-1142.996513280621
 20
-353.1075637404983
 30
0.0
 11
-1077.997412311977
 21
-353.1075637404983
 31
0.0
  0
LINE
  5
466
330
1F
100
AcDbEntity
  8
D-2
  6
Continuous
 62
     3
370
     9
100
AcDbLine
 10
-1142.996513280621
 20
-328.3576429212416
 30
0.0
 11
-1077.997412311977
 21
-328.3576429212416
 31
0.0
  0
LINE
  5
467
330
1F
100
AcDbEntity
  8
D-2
  6
Continuous
 62
     3
370
     9
100
AcDbLine
 10
-1217.996637000533
 20
-377.8576082796662
 30
0.0
 11
-1152.997536031889
 21
-377.8576082796662
 31
0.0
  0
LINE
  5
468
330
1F
100
AcDbEntity
  8
D-2
  6
Continuous
 62
     3
370
     9
100
AcDbLine
 10
-1217.996637000533
 20
-353.1075637404983
 30
0.0
 11
-1152.997536031889
 21
-353.1075637404983
 31
0.0
  0
LINE
  5
469
330
1F
100
AcDbEntity
  8
D-2
  6
Continuous
 62
     3
370
     9
100
AcDbLine
 10
-1217.996637000533
 20
-328.3576429212416
 30
0.0
 11
-1152.997536031889
 21
-328.3576429212416
 31
0.0
  0
LINE
  5
46A
330
1F
100
AcDbEntity
  8
D-2
  6
Continuous
 62
     3
370
     9
100
AcDbLine
 10
-1348.165634275396
 20
-328.3576429212416
 30
0.0
 11
-1302.997474171933
 21
-328.3576429212416
 31
0.0
  0
LINE
  5
46B
330
1F
100
AcDbEntity
  8
D-2
  6
Continuous
 62
     3
370
     9
100
AcDbLine
 10
-1292.996698860489
 20
-328.3576429212416
 30
0.0
 11
-1227.997164872154
 21
-328.3576429212416
 31
0.0
  0
LINE
  5
46C
330
1F
100
AcDbEntity
  8
D-2
  6
Continuous
 62
     3
370
     9
100
AcDbLine
 10
-1348.165634275396
 20
-353.1075637404983
 30
0.0
 11
-1302.997474171933
 21
-353.1075637404983
 31
0.0
  0
LINE
  5
46D
330
1F
100
AcDbEntity
  8
D-2
  6
Continuous
 62
     3
370
     9
100
AcDbLine
 10
-1292.996698860489
 20
-353.1075637404983
 30
0.0
 11
-1227.997164872154
 21
-353.1075637404983
 31
0.0
  0
LINE
  5
46E
330
1F
100
AcDbEntity
  8
D-2
  6
Continuous
 62
     3
370
     9
100
AcDbLine
 10
-1348.165634275396
 20
-377.8576082796662
 30
0.0
 11
-1302.997474171933
 21
-377.8576082796662
 31
0.0
  0
LINE
  5
46F
330
1F
100
AcDbEntity
  8
D-2
  6
Continuous
 62
     3
370
     9
100
AcDbLine
 10
-1292.996698860489
 20
-377.8576082796662
 30
0.0
 11
-1227.997164872154
 21
-377.8576082796662
 31
0.0
  0
ARC
  5
470
330
1F
100
AcDbEntity
  8
D-9
  6
Continuous
 62
     4
370
     9
100
AcDbCircle
 10
-785.4979319356048
 20
-398.1083308039484
 30
0.0
 40
5.000000064437454
100
AcDbArc
 50
90.0
 51
180.0
  0
ARC
  5
471
330
1F
100
AcDbEntity
  8
D-A
  6
Continuous
 62
     3
370
     9
100
AcDbCircle
 10
-618.9976548030031
 20
-341.6077979835303
 30
0.0
 40
6.50000008376869
100
AcDbArc
 50
0.0
 51
90.0
  0
ARC
  5
472
330
1F
100
AcDbEntity
  8
D-A
  6
JWW_DASHED3
 62
     3
370
     9
100
AcDbCircle
 10
-618.9976548030031
 20
-364.6081955368454
 30
0.0
 40
6.50000008376869
100
AcDbArc
 50
270.0
 51
0.0
  0
ARC
  5
473
330
1F
100
AcDbEntity
  8
D-A
  6
Continuous
 62
     3
370
     9
100
AcDbCircle
 10
-635.4978082156933
 20
-404.7503579629433
 30
0.0
 40
10.00000012887491
100
AcDbArc
 50
0.0
 51
45.0
  0
ARC
  5
474
330
1F
100
AcDbEntity
  8
D-A
  6
Continuous
 62
     3
370
     9
100
AcDbCircle
 10
-588.0715122908623
 20
-345.6085287558065
 30
0.0
 40
30.00000038662472
100
AcDbArc
 50
224.9996643066406
 51
270.0
  0
ARC
  5
475
330
1F
100
AcDbEntity
  8
D-A
  6
Continuous
 62
     3
370
     9
100
AcDbCircle
 10
-510.4978906956342
 20
-385.6084132838893
 30
0.0
 40
10.00000012887491
100
AcDbArc
 50
0.0
 51
90.0
  0
ARC
  5
476
330
1F
100
AcDbEntity
  8
D-1
  6
Continuous
 62
     2
370
     9
100
AcDbCircle
 10
-795.4983360873149
 20
-403.1082235800253
 30
0.0
 40
5.000000064437454
100
AcDbArc
 50
90.0
 51
180.0
  0
ARC
  5
477
330
1F
100
AcDbEntity
  8
D-1
  6
Continuous
 62
     2
370
     9
100
AcDbCircle
 10
-648.4982964969433
 20
-293.6081839896536
 30
0.0
 40
3.000000038662472
100
AcDbArc
 50
0.0
 51
90.0
  0
ARC
  5
478
330
1F
100
AcDbEntity
  8
D-1
  6
Continuous
 62
     2
370
     9
100
AcDbCircle
 10
-667.4983344377163
 20
-293.6081839896536
 30
0.0
 40
3.000000038662472
100
AcDbArc
 50
90.0
 51
180.0
  0
ARC
  5
479
330
1F
100
AcDbEntity
  8
D-1
  6
Continuous
 62
     2
370
     9
100
AcDbCircle
 10
-648.4982964969433
 20
-412.608180690456
 30
0.0
 40
3.000000038662472
100
AcDbArc
 50
270.0
 51
0.0
  0
ARC
  5
47A
330
1F
100
AcDbEntity
  8
D-1
  6
Continuous
 62
     2
370
     9
100
AcDbCircle
 10
-670.4984185672558
 20
-405.6082318280194
 30
0.0
 40
5.000000064437454
100
AcDbArc
 50
270.0
 51
0.0
  0
ARC
  5
47B
330
1F
100
AcDbEntity
  8
D-1
  6
Continuous
 62
     2
370
     9
100
AcDbCircle
 10
-742.4604761448529
 20
-403.1082235800253
 30
0.0
 40
5.000000064437454
100
AcDbArc
 50
70.43162536621098
 51
90.00000000000006
  0
ARC
  5
47C
330
1F
100
AcDbEntity
  8
D-1
  6
Continuous
 62
     2
370
     9
100
AcDbCircle
 10
-720.1948511448529
 20
-405.6082318280194
 30
0.0
 40
5.000000064437454
100
AcDbArc
 50
250.4390106201172
 51
270.0
  0
ARC
  5
47D
330
1F
100
AcDbEntity
  8
D-1
  6
Continuous
 62
     2
370
     9
100
AcDbCircle
 10
-795.4983360873149
 20
-410.6082483240075
 30
0.0
 40
5.000000064437454
100
AcDbArc
 50
180.0
 51
270.0
  0
ARC
  5
47E
330
1F
100
AcDbEntity
  8
D-1
  6
Continuous
 62
     2
370
     9
100
AcDbCircle
 10
-784.8286072153767
 20
-403.1082235800253
 30
0.0
 40
5.000000064437454
100
AcDbArc
 50
59.99996948242189
 51
90.00000000000003
  0
ARC
  5
47F
330
1F
100
AcDbEntity
  8
D-1
  6
Continuous
 62
     2
370
     9
100
AcDbCircle
 10
-756.1681474391941
 20
-403.1082235800253
 30
0.0
 40
5.000000064437454
100
AcDbArc
 50
90.0
 51
120.0000305175781
  0
ARC
  5
480
330
1F
100
AcDbEntity
  8
D-1
  6
Continuous
 62
     2
370
     9
100
AcDbCircle
 10
-770.4983773272854
 20
-405.6082318280194
 30
0.0
 40
5.000000064437454
100
AcDbArc
 50
239.9999694824219
 51
300.0000305175781
  0
ARC
  5
481
330
1F
100
AcDbEntity
  8
D-2
  6
Continuous
 62
     3
370
     9
100
AcDbCircle
 10
-697.9969009363435
 20
-388.1074317725928
 30
0.0
 40
5.000000064437454
100
AcDbArc
 50
180.0
 51
0.0
  0
ARC
  5
482
330
1F
100
AcDbEntity
  8
D-2
  6
Continuous
 62
     3
370
     9
100
AcDbCircle
 10
-682.9966040085566
 20
-313.108297811972
 30
0.0
 40
10.00000012887491
100
AcDbArc
 50
90.0
 51
180.0
  0
ARC
  5
483
330
1F
100
AcDbEntity
  8
D-2
  6
Continuous
 62
     3
370
     9
100
AcDbCircle
 10
-712.9974453039534
 20
-313.108297811972
 30
0.0
 40
10.00000012887491
100
AcDbArc
 50
0.0
 51
90.0
  0
ARC
  5
484
330
1F
100
AcDbEntity
  8
D-2
  6
Continuous
 62
     3
370
     9
100
AcDbCircle
 10
-715.4968349523909
 20
-298.1083720439188
 30
0.0
 40
5.000000064437454
100
AcDbArc
 50
180.0
 51
270.0
  0
ARC
  5
485
330
1F
100
AcDbEntity
  8
D-2
  6
Continuous
 62
     3
370
     9
100
AcDbCircle
 10
-680.4969669202965
 20
-298.1083720439188
 30
0.0
 40
5.000000064437454
100
AcDbArc
 50
270.0
 51
0.0
  0
ARC
  5
486
330
1F
100
AcDbEntity
  8
D-2
  6
Continuous
 62
     3
370
     9
100
AcDbCircle
 10
-717.9972143601191
 20
-295.6082400760134
 30
0.0
 40
2.500000032218727
100
AcDbArc
 50
90.0
 51
180.0
  0
ARC
  5
487
330
1F
100
AcDbEntity
  8
D-2
  6
Continuous
 62
     3
370
     9
100
AcDbCircle
 10
-677.9968349523909
 20
-295.6082400760134
 30
0.0
 40
2.500000032218727
100
AcDbArc
 50
0.0
 51
90.0
  0
ARC
  5
488
330
1F
100
AcDbEntity
  8
D-2
  6
Continuous
 62
     3
370
     9
100
AcDbCircle
 10
-772.997024656255
 20
-388.1074317725928
 30
0.0
 40
5.000000064437454
100
AcDbArc
 50
180.0
 51
0.0
  0
ARC
  5
489
330
1F
100
AcDbEntity
  8
D-2
  6
Continuous
 62
     3
370
     9
100
AcDbCircle
 10
-757.9967277284677
 20
-313.108297811972
 30
0.0
 40
10.00000012887491
100
AcDbArc
 50
90.0
 51
180.0
  0
ARC
  5
48A
330
1F
100
AcDbEntity
  8
D-2
  6
Continuous
 62
     3
370
     9
100
AcDbCircle
 10
-787.9975690238649
 20
-313.108297811972
 30
0.0
 40
10.00000012887491
100
AcDbArc
 50
0.0
 51
90.0
  0
ARC
  5
48B
330
1F
100
AcDbEntity
  8
D-2
  6
Continuous
 62
     3
370
     9
100
AcDbCircle
 10
-790.4972061121248
 20
-298.1083720439188
 30
0.0
 40
5.000000064437454
100
AcDbArc
 50
180.0
 51
270.0
  0
ARC
  5
48C
330
1F
100
AcDbEntity
  8
D-2
  6
Continuous
 62
     3
370
     9
100
AcDbCircle
 10
-755.4970906402076
 20
-298.1083720439188
 30
0.0
 40
5.000000064437454
100
AcDbArc
 50
270.0
 51
0.0
  0
ARC
  5
48D
330
1F
100
AcDbEntity
  8
D-2
  6
Continuous
 62
     3
370
     9
100
AcDbCircle
 10
-792.9973380800302
 20
-295.6082400760134
 30
0.0
 40
2.500000032218727
100
AcDbArc
 50
90.0
 51
180.0
  0
ARC
  5
48E
330
1F
100
AcDbEntity
  8
D-2
  6
Continuous
 62
     3
370
     9
100
AcDbCircle
 10
-752.9969586723024
 20
-295.6082400760134
 30
0.0
 40
2.500000032218727
100
AcDbArc
 50
0.0
 51
90.0
  0
ARC
  5
48F
330
1F
100
AcDbEntity
  8
D-2
  6
Continuous
 62
     3
370
     9
100
AcDbCircle
 10
-847.9966534965212
 20
-388.1074317725928
 30
0.0
 40
5.000000064437454
100
AcDbArc
 50
180.0
 51
0.0
  0
ARC
  5
490
330
1F
100
AcDbEntity
  8
D-2
  6
Continuous
 62
     3
370
     9
100
AcDbCircle
 10
-832.996356568734
 20
-313.108297811972
 30
0.0
 40
10.00000012887491
100
AcDbArc
 50
90.0
 51
180.0
  0
ARC
  5
491
330
1F
100
AcDbEntity
  8
D-2
  6
Continuous
 62
     3
370
     9
100
AcDbCircle
 10
-862.9971978641308
 20
-313.108297811972
 30
0.0
 40
10.00000012887491
100
AcDbArc
 50
0.0
 51
90.0
  0
ARC
  5
492
330
1F
100
AcDbEntity
  8
D-2
  6
Continuous
 62
     3
370
     9
100
AcDbCircle
 10
-865.4970823922135
 20
-298.1083720439188
 30
0.0
 40
5.000000064437454
100
AcDbArc
 50
180.0
 51
270.0
  0
ARC
  5
493
330
1F
100
AcDbEntity
  8
D-2
  6
Continuous
 62
     3
370
     9
100
AcDbCircle
 10
-830.4969669202965
 20
-298.1083720439188
 30
0.0
 40
5.000000064437454
100
AcDbArc
 50
270.0
 51
0.0
  0
ARC
  5
494
330
1F
100
AcDbEntity
  8
D-2
  6
Continuous
 62
     3
370
     9
100
AcDbCircle
 10
-867.9969669202965
 20
-295.6082400760134
 30
0.0
 40
2.500000032218727
100
AcDbArc
 50
90.0
 51
180.0
  0
ARC
  5
495
330
1F
100
AcDbEntity
  8
D-2
  6
Continuous
 62
     3
370
     9
100
AcDbCircle
 10
-827.9965875125683
 20
-295.6082400760134
 30
0.0
 40
2.500000032218727
100
AcDbArc
 50
0.0
 51
90.0
  0
ARC
  5
496
330
1F
100
AcDbEntity
  8
D-2
  6
Continuous
 62
     3
370
     9
100
AcDbCircle
 10
-922.997024656255
 20
-388.1074317725928
 30
0.0
 40
5.000000064437454
100
AcDbArc
 50
180.0
 51
0.0
  0
ARC
  5
497
330
1F
100
AcDbEntity
  8
D-2
  6
Continuous
 62
     3
370
     9
100
AcDbCircle
 10
-907.9966040085566
 20
-313.108297811972
 30
0.0
 40
10.00000012887491
100
AcDbArc
 50
90.0
 51
180.0
  0
ARC
  5
498
330
1F
100
AcDbEntity
  8
D-2
  6
Continuous
 62
     3
370
     9
100
AcDbCircle
 10
-937.9975690238648
 20
-313.108297811972
 30
0.0
 40
10.00000012887491
100
AcDbArc
 50
0.0
 51
90.0
  0
ARC
  5
499
330
1F
100
AcDbEntity
  8
D-2
  6
Continuous
 62
     3
370
     9
100
AcDbCircle
 10
-940.4969586723023
 20
-298.1083720439188
 30
0.0
 40
5.000000064437454
100
AcDbArc
 50
180.0
 51
270.0
  0
ARC
  5
49A
330
1F
100
AcDbEntity
  8
D-2
  6
Continuous
 62
     3
370
     9
100
AcDbCircle
 10
-905.4969669202965
 20
-298.1083720439188
 30
0.0
 40
5.000000064437454
100
AcDbArc
 50
270.0
 51
0.0
  0
ARC
  5
49B
330
1F
100
AcDbEntity
  8
D-2
  6
Continuous
 62
     3
370
     9
100
AcDbCircle
 10
-942.9973380800304
 20
-295.6082400760134
 30
0.0
 40
2.500000032218727
100
AcDbArc
 50
90.0
 51
180.0
  0
ARC
  5
49C
330
1F
100
AcDbEntity
  8
D-2
  6
Continuous
 62
     3
370
     9
100
AcDbCircle
 10
-902.9968349523909
 20
-295.6082400760134
 30
0.0
 40
2.500000032218727
100
AcDbArc
 50
0.0
 51
90.0
  0
ARC
  5
49D
330
1F
100
AcDbEntity
  8
D-2
  6
Continuous
 62
     3
370
     9
100
AcDbCircle
 10
-997.9965297766097
 20
-388.1074317725928
 30
0.0
 40
5.000000064437454
100
AcDbArc
 50
180.0
 51
0.0
  0
ARC
  5
49E
330
1F
100
AcDbEntity
  8
D-2
  6
Continuous
 62
     3
370
     9
100
AcDbCircle
 10
-982.9962328488226
 20
-313.108297811972
 30
0.0
 40
10.00000012887491
100
AcDbArc
 50
90.0
 51
180.0
  0
ARC
  5
49F
330
1F
100
AcDbEntity
  8
D-2
  6
Continuous
 62
     3
370
     9
100
AcDbCircle
 10
-1012.997445303953
 20
-313.108297811972
 30
0.0
 40
10.00000012887491
100
AcDbArc
 50
0.0
 51
90.0
  0
ARC
  5
4A0
330
1F
100
AcDbEntity
  8
D-2
  6
Continuous
 62
     3
370
     9
100
AcDbCircle
 10
-1015.497082392214
 20
-298.1083720439188
 30
0.0
 40
5.000000064437454
100
AcDbArc
 50
180.0
 51
270.0
  0
ARC
  5
4A1
330
1F
100
AcDbEntity
  8
D-2
  6
Continuous
 62
     3
370
     9
100
AcDbCircle
 10
-980.4965957605624
 20
-298.1083720439188
 30
0.0
 40
5.000000064437454
100
AcDbArc
 50
270.0
 51
0.0
  0
ARC
  5
4A2
330
1F
100
AcDbEntity
  8
D-2
  6
Continuous
 62
     3
370
     9
100
AcDbCircle
 10
-1017.996966920296
 20
-295.6082400760134
 30
0.0
 40
2.500000032218727
100
AcDbArc
 50
90.0
 51
180.0
  0
ARC
  5
4A3
330
1F
100
AcDbEntity
  8
D-2
  6
Continuous
 62
     3
370
     9
100
AcDbCircle
 10
-977.9967112324796
 20
-295.6082400760134
 30
0.0
 40
2.500000032218727
100
AcDbArc
 50
0.0
 51
90.0
  0
ARC
  5
4A4
330
1F
100
AcDbEntity
  8
D-2
  6
Continuous
 62
     3
370
     9
100
AcDbCircle
 10
-1072.996900936344
 20
-388.1074317725928
 30
0.0
 40
5.000000064437454
100
AcDbArc
 50
180.0
 51
0.0
  0
ARC
  5
4A5
330
1F
100
AcDbEntity
  8
D-2
  6
Continuous
 62
     3
370
     9
100
AcDbCircle
 10
-1057.996356568734
 20
-313.108297811972
 30
0.0
 40
10.00000012887491
100
AcDbArc
 50
90.0
 51
180.0
  0
ARC
  5
4A6
330
1F
100
AcDbEntity
  8
D-2
  6
Continuous
 62
     3
370
     9
100
AcDbCircle
 10
-1087.997197864131
 20
-313.108297811972
 30
0.0
 40
10.00000012887491
100
AcDbArc
 50
0.0
 51
90.0
  0
ARC
  5
4A7
330
1F
100
AcDbEntity
  8
D-2
  6
Continuous
 62
     3
370
     9
100
AcDbCircle
 10
-1090.496834952391
 20
-298.1083720439188
 30
0.0
 40
5.000000064437454
100
AcDbArc
 50
180.0
 51
270.0
  0
ARC
  5
4A8
330
1F
100
AcDbEntity
  8
D-2
  6
Continuous
 62
     3
370
     9
100
AcDbCircle
 10
-1055.496966920296
 20
-298.1083720439188
 30
0.0
 40
5.000000064437454
100
AcDbArc
 50
270.0
 51
0.0
  0
ARC
  5
4A9
330
1F
100
AcDbEntity
  8
D-2
  6
Continuous
 62
     3
370
     9
100
AcDbCircle
 10
-1092.996966920296
 20
-295.6082400760134
 30
0.0
 40
2.500000032218727
100
AcDbArc
 50
90.0
 51
180.0
  0
ARC
  5
4AA
330
1F
100
AcDbEntity
  8
D-2
  6
Continuous
 62
     3
370
     9
100
AcDbCircle
 10
-1052.996587512568
 20
-295.6082400760134
 30
0.0
 40
2.500000032218727
100
AcDbArc
 50
0.0
 51
90.0
  0
ARC
  5
4AB
330
1F
100
AcDbEntity
  8
D-2
  6
Continuous
 62
     3
370
     9
100
AcDbCircle
 10
-1147.996777216432
 20
-388.1074317725928
 30
0.0
 40
5.000000064437454
100
AcDbArc
 50
180.0
 51
0.0
  0
ARC
  5
4AC
330
1F
100
AcDbEntity
  8
D-2
  6
Continuous
 62
     3
370
     9
100
AcDbCircle
 10
-1132.996480288645
 20
-313.108297811972
 30
0.0
 40
10.00000012887491
100
AcDbArc
 50
90.0
 51
180.0
  0
ARC
  5
4AD
330
1F
100
AcDbEntity
  8
D-2
  6
Continuous
 62
     3
370
     9
100
AcDbCircle
 10
-1162.997569023865
 20
-313.108297811972
 30
0.0
 40
10.00000012887491
100
AcDbArc
 50
0.0
 51
90.0
  0
ARC
  5
4AE
330
1F
100
AcDbEntity
  8
D-2
  6
Continuous
 62
     3
370
     9
100
AcDbCircle
 10
-1165.497453551948
 20
-298.1083720439188
 30
0.0
 40
5.000000064437454
100
AcDbArc
 50
180.0
 51
270.0
  0
ARC
  5
4AF
330
1F
100
AcDbEntity
  8
D-2
  6
Continuous
 62
     3
370
     9
100
AcDbCircle
 10
-1130.496843200385
 20
-298.1083720439188
 30
0.0
 40
5.000000064437454
100
AcDbArc
 50
270.0
 51
0.0
  0
ARC
  5
4B0
330
1F
100
AcDbEntity
  8
D-2
  6
Continuous
 62
     3
370
     9
100
AcDbCircle
 10
-1167.99733808003
 20
-295.6082400760134
 30
0.0
 40
2.500000032218727
100
AcDbArc
 50
90.0
 51
180.0
  0
ARC
  5
4B1
330
1F
100
AcDbEntity
  8
D-2
  6
Continuous
 62
     3
370
     9
100
AcDbCircle
 10
-1127.99671123248
 20
-295.6082400760134
 30
0.0
 40
2.500000032218727
100
AcDbArc
 50
0.0
 51
90.0
  0
ARC
  5
4B2
330
1F
100
AcDbEntity
  8
D-2
  6
Continuous
 62
     3
370
     9
100
AcDbCircle
 10
-1222.996653496521
 20
-388.1074317725928
 30
0.0
 40
5.000000064437454
100
AcDbArc
 50
180.0
 51
0.0
  0
ARC
  5
4B3
330
1F
100
AcDbEntity
  8
D-2
  6
Continuous
 62
     3
370
     9
100
AcDbCircle
 10
-1207.996294708778
 20
-313.108297811972
 30
0.0
 40
10.00000012887491
100
AcDbArc
 50
90.0
 51
180.0
  0
ARC
  5
4B4
330
1F
100
AcDbEntity
  8
D-2
  6
Continuous
 62
     3
370
     9
100
AcDbCircle
 10
-1237.997445303954
 20
-313.108297811972
 30
0.0
 40
10.00000012887491
100
AcDbArc
 50
0.0
 51
90.0
  0
ARC
  5
4B5
330
1F
100
AcDbEntity
  8
D-2
  6
Continuous
 62
     3
370
     9
100
AcDbCircle
 10
-1240.497082392214
 20
-298.1083720439188
 30
0.0
 40
5.000000064437454
100
AcDbArc
 50
180.0
 51
270.0
  0
ARC
  5
4B6
330
1F
100
AcDbEntity
  8
D-2
  6
Continuous
 62
     3
370
     9
100
AcDbCircle
 10
-1205.496719480474
 20
-298.1083720439188
 30
0.0
 40
5.000000064437454
100
AcDbArc
 50
270.0
 51
0.0
  0
ARC
  5
4B7
330
1F
100
AcDbEntity
  8
D-2
  6
Continuous
 62
     3
370
     9
100
AcDbCircle
 10
-1242.996966920296
 20
-295.6082400760134
 30
0.0
 40
2.500000032218727
100
AcDbArc
 50
90.0
 51
180.0
  0
ARC
  5
4B8
330
1F
100
AcDbEntity
  8
D-2
  6
Continuous
 62
     3
370
     9
100
AcDbCircle
 10
-1202.996834952391
 20
-295.6082400760134
 30
0.0
 40
2.500000032218727
100
AcDbArc
 50
0.0
 51
90.0
  0
ARC
  5
4B9
330
1F
100
AcDbEntity
  8
D-2
  6
Continuous
 62
     3
370
     9
100
AcDbCircle
 10
-1297.997024656255
 20
-388.1074317725928
 30
0.0
 40
5.000000064437454
100
AcDbArc
 50
180.0
 51
0.0
  0
ARC
  5
4BA
330
1F
100
AcDbEntity
  8
D-2
  6
Continuous
 62
     3
370
     9
100
AcDbCircle
 10
-1282.996913308335
 20
-313.108297811972
 30
0.0
 40
10.00000012887491
100
AcDbArc
 50
90.0
 51
180.0
  0
ARC
  5
4BB
330
1F
100
AcDbEntity
  8
D-2
  6
Continuous
 62
     3
370
     9
100
AcDbCircle
 10
-1312.997321584042
 20
-313.108297811972
 30
0.0
 40
10.00000012887491
100
AcDbArc
 50
0.0
 51
90.0
  0
ARC
  5
4BC
330
1F
100
AcDbEntity
  8
D-2
  6
Continuous
 62
     3
370
     9
100
AcDbCircle
 10
-1315.496958672302
 20
-298.1083720439188
 30
0.0
 40
5.000000064437454
100
AcDbArc
 50
180.0
 51
270.0
  0
ARC
  5
4BD
330
1F
100
AcDbEntity
  8
D-2
  6
Continuous
 62
     3
370
     9
100
AcDbCircle
 10
-1280.497028780252
 20
-298.1083720439188
 30
0.0
 40
5.000000064437454
100
AcDbArc
 50
270.0
 51
0.0
  0
ARC
  5
4BE
330
1F
100
AcDbEntity
  8
D-2
  6
Continuous
 62
     3
370
     9
100
AcDbCircle
 10
-1317.997585519853
 20
-295.6082400760134
 30
0.0
 40
2.500000032218727
100
AcDbArc
 50
90.0
 51
180.0
  0
ARC
  5
4BF
330
1F
100
AcDbEntity
  8
D-2
  6
Continuous
 62
     3
370
     9
100
AcDbCircle
 10
-1277.996649372524
 20
-295.6082400760134
 30
0.0
 40
2.500000032218727
100
AcDbArc
 50
0.0
 51
90.0
  0
TEXT
  5
4C0
330
1F
100
AcDbEntity
  8
D-4
  6
Continuous
 62
     2
370
     9
100
AcDbText
 10
-708.4427256367765
 20
-50.2975329919763
 30
0.0
 40
30.48
  1
1
 41
0.9999999999999998
  7
ＭＳ ゴシック
100
AcDbText
  0
TEXT
  5
4C1
330
1F
100
AcDbEntity
  8
D-4
  6
Continuous
 62
     2
370
     9
100
AcDbText
 10
-759.2470329042492
 20
-159.0488196790539
 30
0.0
 40
30.48
  1
25
 41
1.0625
  7
ＭＳ ゴシック
100
AcDbText
  0
TEXT
  5
4C2
330
1F
100
AcDbEntity
  8
D-5
  6
Continuous
 62
     7
370
     9
100
AcDbText
 10
-508.2345338940084
 20
-174.807607553843
 30
0.0
 40
22.86
  1
塩ビクッション
 41
1.142857142857143
  7
ＭＳ ゴシック
100
AcDbText
  0
TEXT
  5
4C3
330
1F
100
AcDbEntity
  8
D-4
  6
Continuous
 62
     2
370
     9
100
AcDbText
 10
-791.746744224456
 20
-685.5874004961994
 30
0.0
 40
30.48
  1
25～30
 41
1.104166666666667
  7
ＭＳ ゴシック
100
AcDbText
  0
TEXT
  5
4C4
330
1F
100
AcDbEntity
  8
D-4
  6
Continuous
 62
     2
370
     9
100
AcDbText
 10
-668.3650805112915
 20
-840.0513386164645
 30
0.0
 40
30.48
  1
75～80
 50
359.9999732504708
 41
1.104166666666667
  7
ＭＳ ゴシック
100
AcDbText
  0
TEXT
  5
4C5
330
1F
100
AcDbEntity
  8
D-4
  6
Continuous
 62
     2
370
     9
100
AcDbText
 10
-139.4518357441985
 20
-481.8581411000844
 30
0.0
 40
30.48
  1
40～50
 50
90.0
 41
1.104166666666667
  7
ＭＳ ゴシック
100
AcDbText
  0
TEXT
  5
4C6
330
1F
100
AcDbEntity
  8
D-4
  6
Continuous
 62
     2
370
     9
100
AcDbText
 10
-603.5063052992027
 20
-470.4992211914063
 30
0.0
 40
30.48
  1
29
 41
1.0625
  7
ＭＳ ゴシック
100
AcDbText
  0
TEXT
  5
4C7
330
1F
100
AcDbEntity
  8
D-4
  6
Continuous
 62
     2
370
     9
100
AcDbText
 10
-423.0869081945784
 20
-421.8583390519425
 30
0.0
 40
30.48
  1
10
 50
90.0
 41
1.0625
  7
ＭＳ ゴシック
100
AcDbText
  0
TEXT
  5
4C8
330
1F
100
AcDbEntity
  8
D-4
  6
Continuous
 62
     2
370
     9
100
AcDbText
 10
-423.0869081945784
 20
-354.3584875158361
 30
0.0
 40
30.48
  1
17
 50
90.0
 41
1.0625
  7
ＭＳ ゴシック
100
AcDbText
  0
TEXT
  5
4C9
330
1F
100
AcDbEntity
  8
D-4
  6
Continuous
 62
     2
370
     9
100
AcDbText
 10
-667.8549240901127
 20
-50.2975329919763
 30
0.0
 40
30.48
  1
5
 41
0.9999999999999998
  7
ＭＳ ゴシック
100
AcDbText
  0
TEXT
  5
4CA
330
1F
100
AcDbEntity
  8
D-5
  6
Continuous
 62
     2
370
     9
100
AcDbText
 10
-1099.991839142372
 20
-968.4109321882918
 30
0.0
 40
30.48
  1
断面詳細図　Ｓ＝１：２
 41
1.113636363636364
  7
ＭＳ ゴシック
100
AcDbText
  0
TEXT
  5
4CB
330
1F
100
AcDbEntity
  8
D-5
  6
Continuous
 62
     7
370
     9
100
AcDbText
 10
-493.9472513111325
 20
-269.1924144188133
 30
0.0
 40
22.86
  1
ｔ＝２．３（ＳＰＨＣ）
 41
1.151515151515152
  7
ＭＳ ゴシック
100
AcDbText
  0
TEXT
  5
4CC
330
1F
100
AcDbEntity
  8
D-5
  6
Continuous
 62
     7
370
     9
100
AcDbText
 10
-503.5851643706764
 20
-118.7089170053841
 30
0.0
 40
22.86
  1
ステンレス製受枠ＳＦ２０Ｂ
 41
1.153846153846154
  7
ＭＳ ゴシック
100
AcDbText
  0
TEXT
  5
4CD
330
1F
100
AcDbEntity
  8
D-4
  6
Continuous
 62
     2
370
     9
100
AcDbText
 10
-1418.805725003331
 20
-364.3577781883445
 30
0.0
 40
30.48
  1
20
 50
90.0
 41
1.0625
  7
ＭＳ ゴシック
100
AcDbText
  0
TEXT
  5
4CE
330
1F
100
AcDbEntity
  8
D-4
  6
Continuous
 62
     2
370
     9
100
AcDbText
 10
-1367.732622833778
 20
-159.0488196790539
 30
0.0
 40
30.48
  1
□300
 41
1.1
  7
ＭＳ ゴシック
100
AcDbText
  0
TEXT
  5
4CF
330
1F
100
AcDbEntity
  8
D-4
  6
Continuous
 62
     2
370
     9
100
AcDbText
 10
-1367.732622833778
 20
-50.29666695259714
 30
0.0
 40
30.48
  1
□350
 41
1.1
  7
ＭＳ ゴシック
100
AcDbText
  0
TEXT
  5
4D0
330
1F
100
AcDbEntity
  8
D-4
  6
Continuous
 62
     2
370
     9
100
AcDbText
 10
-1367.732622833778
 20
60.39900186074767
 30
0.0
 40
30.48
  1
□362
 41
1.1
  7
ＭＳ ゴシック
100
AcDbText
  0
TEXT
  5
4D1
330
1F
100
AcDbEntity
  8
D-5
  6
Continuous
 62
     7
370
     9
100
AcDbText
 10
-423.5566675511029
 20
-232.6225407120987
 30
0.0
 40
22.86
  1
溶接用アンカ－
 41
1.142857142857143
  7
ＭＳ ゴシック
100
AcDbText
  0
LWPOLYLINE
  5
4D2
330
1F
100
AcDbEntity
  8
D-4
  6
Continuous
 62
     7
370
     9
100
AcDbPolyline
 90
        4
 70
     1
 43
1.0
 10
-644.9983360873149
 20
49.75873792493672
 42
0.4142135623731
 10
-645.4983360873149
 20
50.25873792493672
 42
0.4142135623731
 10
-645.9983360873149
 20
49.75873792493672
 42
0.4142135623731
 10
-645.4983360873149
 20
49.25873792493672
 42
0.4142135623731
  0
LWPOLYLINE
  5
4D3
330
1F
100
AcDbEntity
  8
D-4
  6
Continuous
 62
     7
370
     9
100
AcDbPolyline
 90
        4
 70
     1
 43
1.0
 10
-799.9977339837467
 20
-169.6890836148648
 42
0.4142135623731
 10
-800.4977339837467
 20
-169.1890836148648
 42
0.4142135623731
 10
-800.9977339837467
 20
-169.6890836148648
 42
0.4142135623731
 10
-800.4977339837467
 20
-170.1890836148648
 42
0.4142135623731
  0
LWPOLYLINE
  5
4D4
330
1F
100
AcDbEntity
  8
D-4
  6
Continuous
 62
     7
370
     9
100
AcDbPolyline
 90
        4
 70
     1
 43
1.0
 10
-674.9969504243081
 20
-169.6890836148648
 42
0.4142135623731
 10
-675.4969504243081
 20
-169.1890836148648
 42
0.4142135623731
 10
-675.9969504243081
 20
-169.6890836148648
 42
0.4142135623731
 10
-675.4969504243081
 20
-170.1890836148648
 42
0.4142135623731
  0
LWPOLYLINE
  5
4D5
330
1F
100
AcDbEntity
  8
D-4
  6
Continuous
 62
     7
370
     9
100
AcDbPolyline
 90
        4
 70
     1
 43
1.0
 10
-674.9969504243081
 20
-60.9369308884078
 42
0.4142135623731
 10
-675.4969504243081
 20
-60.4369308884078
 42
0.4142135623731
 10
-675.9969504243081
 20
-60.9369308884078
 42
0.4142135623731
 10
-675.4969504243081
 20
-61.4369308884078
 42
0.4142135623731
  0
LWPOLYLINE
  5
4D6
330
1F
100
AcDbEntity
  8
D-4
  6
Continuous
 62
     7
370
     9
100
AcDbPolyline
 90
        4
 70
     1
 43
1.0
 10
-669.9966864884975
 20
-60.9369308884078
 42
0.4142135623731
 10
-670.4966864884975
 20
-60.4369308884078
 42
0.4142135623731
 10
-670.9966864884974
 20
-60.9369308884078
 42
0.4142135623731
 10
-670.4966864884975
 20
-61.4369308884078
 42
0.4142135623731
  0
LWPOLYLINE
  5
4D7
330
1F
100
AcDbEntity
  8
D-4
  6
Continuous
 62
     7
370
     9
100
AcDbPolyline
 90
        4
 70
     1
 43
1.0
 10
-644.9983360873149
 20
-60.9369308884078
 42
0.4142135623731
 10
-645.4983360873149
 20
-60.4369308884078
 42
0.4142135623731
 10
-645.9983360873149
 20
-60.9369308884078
 42
0.4142135623731
 10
-645.4983360873149
 20
-61.4369308884078
 42
0.4142135623731
  0
LWPOLYLINE
  5
4D8
330
1F
100
AcDbEntity
  8
D-4
  6
Continuous
 62
     7
370
     9
100
AcDbPolyline
 90
        4
 70
     1
 43
1.0
 10
-945.4803488618084
 20
-415.6082648199957
 42
0.4142135623731
 10
-945.9803488618082
 20
-415.1082648199957
 42
0.4142135623731
 10
-946.4803488618082
 20
-415.6082648199957
 42
0.4142135623731
 10
-945.9803488618082
 20
-416.1082648199957
 42
0.4142135623731
  0
LWPOLYLINE
  5
4D9
330
1F
100
AcDbEntity
  8
D-4
  6
Continuous
 62
     7
370
     9
100
AcDbPolyline
 90
        4
 70
     1
 43
1.0
 10
-945.4803488618084
 20
-290.6082235800253
 42
0.4142135623731
 10
-945.9803488618082
 20
-290.1082235800253
 42
0.4142135623731
 10
-946.4803488618082
 20
-290.6082235800253
 42
0.4142135623731
 10
-945.9803488618082
 20
-291.1082235800253
 42
0.4142135623731
  0
LWPOLYLINE
  5
4DA
330
1F
100
AcDbEntity
  8
D-4
  6
Continuous
 62
     7
370
     9
100
AcDbPolyline
 90
        4
 70
     1
 43
1.0
 10
-644.9973463280246
 20
-481.1389902475718
 42
0.4142135623731
 10
-645.4973463280246
 20
-480.6389902475718
 42
0.4142135623731
 10
-645.9973463280245
 20
-481.1389902475718
 42
0.4142135623731
 10
-645.4973463280246
 20
-481.6389902475717
 42
0.4142135623731
  0
LWPOLYLINE
  5
4DB
330
1F
100
AcDbEntity
  8
D-4
  6
Continuous
 62
     7
370
     9
100
AcDbPolyline
 90
        4
 70
     1
 43
1.0
 10
-499.9973628240126
 20
-481.1389902475718
 42
0.4142135623731
 10
-500.4973628240126
 20
-480.6389902475718
 42
0.4142135623731
 10
-500.9973628240125
 20
-481.1389902475718
 42
0.4142135623731
 10
-500.4973628240126
 20
-481.6389902475717
 42
0.4142135623731
  0
LWPOLYLINE
  5
4DC
330
1F
100
AcDbEntity
  8
D-4
  6
Continuous
 62
     7
370
     9
100
AcDbPolyline
 90
        4
 70
     1
 43
1.0
 10
-411.9466442587678
 20
-290.6082235800253
 42
0.4142135623731
 10
-412.4466442587678
 20
-290.1082235800253
 42
0.4142135623731
 10
-412.9466442587677
 20
-290.6082235800253
 42
0.4142135623731
 10
-412.4466442587678
 20
-291.1082235800253
 42
0.4142135623731
  0
LWPOLYLINE
  5
4DD
330
1F
100
AcDbEntity
  8
D-4
  6
Continuous
 62
     7
370
     9
100
AcDbPolyline
 90
        4
 70
     1
 43
1.0
 10
-411.9466442587678
 20
-375.6086277317355
 42
0.4142135623731
 10
-412.4466442587678
 20
-375.1086277317356
 42
0.4142135623731
 10
-412.9466442587677
 20
-375.6086277317355
 42
0.4142135623731
 10
-412.4466442587678
 20
-376.1086277317355
 42
0.4142135623731
  0
LWPOLYLINE
  5
4DE
330
1F
100
AcDbEntity
  8
D-4
  6
Continuous
 62
     7
370
     9
100
AcDbPolyline
 90
        4
 70
     1
 43
1.0
 10
-411.9466442587678
 20
-425.6085452517947
 42
0.4142135623731
 10
-412.4466442587678
 20
-425.1085452517947
 42
0.4142135623731
 10
-412.9466442587677
 20
-425.6085452517947
 42
0.4142135623731
 10
-412.4466442587678
 20
-426.1085452517946
 42
0.4142135623731
  0
LWPOLYLINE
  5
4DF
330
1F
100
AcDbEntity
  8
D-4
  6
Continuous
 62
     7
370
     9
100
AcDbPolyline
 90
        4
 70
     1
 43
1.0
 10
-128.3125615676782
 20
-540.6084297798775
 42
0.4142135623731
 10
-128.8125615676782
 20
-540.1084297798775
 42
0.4142135623731
 10
-129.3125615676782
 20
-540.6084297798775
 42
0.4142135623731
 10
-128.8125615676782
 20
-541.1084297798775
 42
0.4142135623731
  0
LWPOLYLINE
  5
4E0
330
1F
100
AcDbEntity
  8
D-4
  6
Continuous
 62
     7
370
     9
100
AcDbPolyline
 90
        4
 70
     1
 43
1.0
 10
-128.3125615676782
 20
-290.6082235800253
 42
0.4142135623731
 10
-128.8125615676782
 20
-290.1082235800253
 42
0.4142135623731
 10
-129.3125615676782
 20
-290.6082235800253
 42
0.4142135623731
 10
-128.8125615676782
 20
-291.1082235800253
 42
0.4142135623731
  0
LWPOLYLINE
  5
4E1
330
1F
100
AcDbEntity
  8
D-4
  6
Continuous
 62
     7
370
     9
100
AcDbPolyline
 90
        4
 70
     1
 43
1.0
 10
-799.996744224456
 20
-696.2271695523648
 42
0.4142135623731
 10
-800.496744224456
 20
-695.7271695523649
 42
0.4142135623731
 10
-800.996744224456
 20
-696.2271695523648
 42
0.4142135623731
 10
-800.496744224456
 20
-696.7271695523648
 42
0.4142135623731
  0
LWPOLYLINE
  5
4E2
330
1F
100
AcDbEntity
  8
D-4
  6
Continuous
 62
     7
370
     9
100
AcDbPolyline
 90
        4
 70
     1
 43
1.0
 10
-649.9976102638352
 20
-696.2271695523648
 42
0.4142135623731
 10
-650.4976102638352
 20
-695.7271695523649
 42
0.4142135623731
 10
-650.9976102638352
 20
-696.2271695523648
 42
0.4142135623731
 10
-650.4976102638352
 20
-696.7271695523648
 42
0.4142135623731
  0
LWPOLYLINE
  5
4E3
330
1F
100
AcDbEntity
  8
D-4
  6
Continuous
 62
     7
370
     9
100
AcDbPolyline
 90
        4
 70
     1
 43
1.0
 10
-799.996744224456
 20
-850.6916025522593
 42
0.4142135623731
 10
-800.496744224456
 20
-850.1916025522593
 42
0.4142135623731
 10
-800.996744224456
 20
-850.6916025522593
 42
0.4142135623731
 10
-800.496744224456
 20
-851.1916025522592
 42
0.4142135623731
  0
LWPOLYLINE
  5
4E4
330
1F
100
AcDbEntity
  8
D-4
  6
Continuous
 62
     7
370
     9
100
AcDbPolyline
 90
        4
 70
     1
 43
1.0
 10
-399.9959194250472
 20
-850.6916025522593
 42
0.4142135623731
 10
-400.4959194250472
 20
-850.1916025522593
 42
0.4142135623731
 10
-400.9959194250472
 20
-850.6916025522593
 42
0.4142135623731
 10
-400.4959194250472
 20
-851.1916025522592
 42
0.4142135623731
  0
LWPOLYLINE
  5
4E5
330
1F
100
AcDbEntity
  8
D-4
  6
Continuous
 62
     7
370
     9
100
AcDbPolyline
 90
        4
 70
     1
 43
1.0
 10
-1407.665708507343
 20
-393.1076957084036
 42
0.4142135623731
 10
-1408.165708507343
 20
-392.6076957084036
 42
0.4142135623731
 10
-1408.665708507343
 20
-393.1076957084036
 42
0.4142135623731
 10
-1408.165708507343
 20
-393.6076957084036
 42
0.4142135623731
  0
LWPOLYLINE
  5
4E6
330
1F
100
AcDbEntity
  8
D-4
  6
Continuous
 62
     7
370
     9
100
AcDbPolyline
 90
        4
 70
     1
 43
1.0
 10
-1407.665708507343
 20
-293.1081081081081
 42
0.4142135623731
 10
-1408.165708507343
 20
-292.6081081081081
 42
0.4142135623731
 10
-1408.665708507343
 20
-293.1081081081081
 42
0.4142135623731
 10
-1408.165708507343
 20
-293.6081081081081
 42
0.4142135623731
  0
LINE
  5
4E7
330
1F
100
AcDbEntity
  8
D-5
  6
Continuous
 62
     7
370
     9
100
AcDbLine
 10
-550.9747154818461
 20
-66.8622486011401
 30
0.0
 11
522.6767571977691
 21
-66.8622486011401
 31
0.0
  0
TEXT
  5
4E8
330
1F
100
AcDbEntity
  8
D-5
  6
Continuous
 62
     7
370
     9
100
AcDbText
 10
-550.974689481373
 20
-54.70526644318242
 30
0.0
 40
22.86
  1
グレーチング（すきま6mm）ＤＱ－Ｗ－Ａ－２０（h=20）
 50
0.00003884179835
 41
1.160130718954248
  7
ＭＳ ゴシック
100
AcDbText
  0
TEXT
  5
4E9
330
1F
100
AcDbEntity
  8
D-5
  6
Continuous
 62
     7
370
     9
100
AcDbText
 10
-550.97479383779
 20
-22.00027904613593
 30
0.0
 40
22.86
  1
ステンレス製　縦目タイプ　細目ノンスリップタイプ（デルタ模様）
 41
1.161290322580645
  7
ＭＳ ゴシック
100
AcDbText
  0
TEXT
  5
4EA
330
1F
100
AcDbEntity
  8
F-4ﾚｲﾔ
  6
Continuous
 62
     2
370
     9
100
AcDbText
 10
-754.5909822866344
 20
-1370.829404186796
 30
0.0
 40
30.48
  1
グレーチング（すきま6mm）ＤＱ－Ｗ－Ａ－２０　３５０×３５０×２０＋ＳＦ２０Ｂ（四方枠）
 41
0.7
  7
ＭＳ ゴシック
100
AcDbText
  0
LINE
  5
4EB
330
1F
100
AcDbEntity
  8
D-0
  6
Continuous
 62
     7
370
     9
100
AcDbLine
 10
-601.1905001475473
 20
-504.0928822594719
 30
0.0
 11
-602.6902865245004
 21
-504.0928822594719
 31
0.0
  0
LINE
  5
4EC
330
1F
100
AcDbEntity
  8
D-0
  6
Continuous
 62
     7
370
     9
100
AcDbLine
 10
-601.1905001475473
 20
-502.5925999718743
 30
0.0
 11
-601.1905001475473
 21
-504.0928822594719
 31
0.0
  0
LINE
  5
4ED
330
1F
100
AcDbEntity
  8
D-0
  6
Continuous
 62
     7
370
     9
100
AcDbLine
 10
-602.6902865245004
 20
-502.5925999718743
 30
0.0
 11
-601.1905001475473
 21
-502.5925999718743
 31
0.0
  0
LINE
  5
4EE
330
1F
100
AcDbEntity
  8
D-0
  6
Continuous
 62
     7
370
     9
100
AcDbLine
 10
-602.6902865245004
 20
-504.0928822594719
 30
0.0
 11
-602.6902865245004
 21
-502.5925999718743
 31
0.0
  0
LINE
  5
4EF
330
1F
100
AcDbEntity
  8
D-0
  6
Continuous
 62
     7
370
     9
100
AcDbLine
 10
-592.7615879847665
 20
-334.8333149987297
 30
0.0
 11
-594.2618702723641
 21
-334.8333149987297
 31
0.0
  0
LINE
  5
4F0
330
1F
100
AcDbEntity
  8
D-0
  6
Continuous
 62
     7
370
     9
100
AcDbLine
 10
-592.7615879847665
 20
-333.3330374795037
 30
0.0
 11
-592.7615879847665
 21
-334.8333149987297
 31
0.0
  0
LINE
  5
4F1
330
1F
100
AcDbEntity
  8
D-0
  6
Continuous
 62
     7
370
     9
100
AcDbLine
 10
-594.2618702723641
 20
-333.3330374795037
 30
0.0
 11
-592.7615879847665
 21
-333.3330374795037
 31
0.0
  0
LINE
  5
4F2
330
1F
100
AcDbEntity
  8
D-0
  6
Continuous
 62
     7
370
     9
100
AcDbLine
 10
-594.2618702723641
 20
-334.8333149987297
 30
0.0
 11
-594.2618702723641
 21
-333.3330374795037
 31
0.0
  0
LINE
  5
4F3
330
1F
100
AcDbEntity
  8
D-0
  6
Continuous
 62
     7
370
     9
100
AcDbLine
 10
-571.2250469996591
 20
-303.57022701083
 30
0.0
 11
-572.7253292872567
 21
-303.57022701083
 31
0.0
  0
LINE
  5
4F4
330
1F
100
AcDbEntity
  8
D-0
  6
Continuous
 62
     7
370
     9
100
AcDbLine
 10
-571.2250469996591
 20
-302.0699477034645
 30
0.0
 11
-571.2250469996591
 21
-303.57022701083
 31
0.0
  0
LINE
  5
4F5
330
1F
100
AcDbEntity
  8
D-0
  6
Continuous
 62
     7
370
     9
100
AcDbLine
 10
-572.7253292872567
 20
-302.0699477034645
 30
0.0
 11
-571.2250469996591
 21
-302.0699477034645
 31
0.0
  0
LINE
  5
4F6
330
1F
100
AcDbEntity
  8
D-0
  6
Continuous
 62
     7
370
     9
100
AcDbLine
 10
-572.7253292872567
 20
-303.57022701083
 30
0.0
 11
-572.7253292872567
 21
-302.0699477034645
 31
0.0
  0
LINE
  5
4F7
330
1F
100
AcDbEntity
  8
D-0
  6
Continuous
 62
     7
370
     9
100
AcDbLine
 10
-664.8354481532235
 20
-449.9242669182854
 30
0.0
 11
-666.3357274605889
 21
-449.9242669182854
 31
0.0
  0
LINE
  5
4F8
330
1F
100
AcDbEntity
  8
D-0
  6
Continuous
 62
     7
370
     9
100
AcDbLine
 10
-664.8354481532235
 20
-448.4239941674309
 30
0.0
 11
-664.8354481532235
 21
-449.9242669182854
 31
0.0
  0
LINE
  5
4F9
330
1F
100
AcDbEntity
  8
D-0
  6
Continuous
 62
     7
370
     9
100
AcDbLine
 10
-666.3357274605889
 20
-448.4239941674309
 30
0.0
 11
-664.8354481532235
 21
-448.4239941674309
 31
0.0
  0
LINE
  5
4FA
330
1F
100
AcDbEntity
  8
D-0
  6
Continuous
 62
     7
370
     9
100
AcDbLine
 10
-666.3357274605889
 20
-449.9242669182854
 30
0.0
 11
-666.3357274605889
 21
-448.4239941674309
 31
0.0
  0
LINE
  5
4FB
330
1F
100
AcDbEntity
  8
D-0
  6
Continuous
 62
     7
370
     9
100
AcDbLine
 10
-696.6792272402902
 20
-762.3862057763176
 30
0.0
 11
-698.1795047595162
 21
-762.3862057763176
 31
0.0
  0
LINE
  5
4FC
330
1F
100
AcDbEntity
  8
D-0
  6
Continuous
 62
     7
370
     9
100
AcDbLine
 10
-696.6792272402902
 20
-760.88592348872
 30
0.0
 11
-696.6792272402902
 21
-762.3862057763176
 31
0.0
  0
LINE
  5
4FD
330
1F
100
AcDbEntity
  8
D-0
  6
Continuous
 62
     7
370
     9
100
AcDbLine
 10
-698.1795047595162
 20
-760.88592348872
 30
0.0
 11
-696.6792272402902
 21
-760.88592348872
 31
0.0
  0
LINE
  5
4FE
330
1F
100
AcDbEntity
  8
D-0
  6
Continuous
 62
     7
370
     9
100
AcDbLine
 10
-698.1795047595162
 20
-762.3862057763176
 30
0.0
 11
-698.1795047595162
 21
-760.88592348872
 31
0.0
  0
LINE
  5
4FF
330
1F
100
AcDbEntity
  8
D-0
  6
Continuous
 62
     7
370
     9
100
AcDbLine
 10
-671.948893256392
 20
-639.0402585106926
 30
0.0
 11
-673.4491728617807
 21
-639.0402585106926
 31
0.0
  0
LINE
  5
500
330
1F
100
AcDbEntity
  8
D-0
  6
Continuous
 62
     7
370
     9
100
AcDbLine
 10
-671.948893256392
 20
-637.539976223095
 30
0.0
 11
-671.948893256392
 21
-639.0402585106926
 31
0.0
  0
LINE
  5
501
330
1F
100
AcDbEntity
  8
D-0
  6
Continuous
 62
     7
370
     9
100
AcDbLine
 10
-673.4491728617807
 20
-637.539976223095
 30
0.0
 11
-671.948893256392
 21
-637.539976223095
 31
0.0
  0
LINE
  5
502
330
1F
100
AcDbEntity
  8
D-0
  6
Continuous
 62
     7
370
     9
100
AcDbLine
 10
-673.4491728617807
 20
-639.0402585106926
 30
0.0
 11
-673.4491728617807
 21
-637.539976223095
 31
0.0
  0
LINE
  5
503
330
1F
100
AcDbEntity
  8
D-0
  6
Continuous
 62
     7
370
     9
100
AcDbLine
 10
-788.8706063105722
 20
-595.306203945263
 30
0.0
 11
-790.3708885981698
 21
-595.306203945263
 31
0.0
  0
LINE
  5
504
330
1F
100
AcDbEntity
  8
D-0
  6
Continuous
 62
     7
370
     9
100
AcDbLine
 10
-788.8706063105722
 20
-593.8059216576653
 30
0.0
 11
-788.8706063105722
 21
-595.306203945263
 31
0.0
  0
LINE
  5
505
330
1F
100
AcDbEntity
  8
D-0
  6
Continuous
 62
     7
370
     9
100
AcDbLine
 10
-790.3708885981698
 20
-593.8059216576653
 30
0.0
 11
-788.8706063105722
 21
-593.8059216576653
 31
0.0
  0
LINE
  5
506
330
1F
100
AcDbEntity
  8
D-0
  6
Continuous
 62
     7
370
     9
100
AcDbLine
 10
-790.3708885981698
 20
-595.306203945263
 30
0.0
 11
-790.3708885981698
 21
-593.8059216576653
 31
0.0
  0
LINE
  5
507
330
1F
100
AcDbEntity
  8
D-0
  6
Continuous
 62
     7
370
     9
100
AcDbLine
 10
-671.8379082157273
 20
-713.3694821435051
 30
0.0
 11
-673.338187821116
 21
-713.3694821435051
 31
0.0
  0
LINE
  5
508
330
1F
100
AcDbEntity
  8
D-0
  6
Continuous
 62
     7
370
     9
100
AcDbLine
 10
-671.8379082157273
 20
-711.8691998559075
 30
0.0
 11
-671.8379082157273
 21
-713.3694821435051
 31
0.0
  0
LINE
  5
509
330
1F
100
AcDbEntity
  8
D-0
  6
Continuous
 62
     7
370
     9
100
AcDbLine
 10
-673.338187821116
 20
-711.8691998559075
 30
0.0
 11
-671.8379082157273
 21
-711.8691998559075
 31
0.0
  0
LINE
  5
50A
330
1F
100
AcDbEntity
  8
D-0
  6
Continuous
 62
     7
370
     9
100
AcDbLine
 10
-673.338187821116
 20
-713.3694821435051
 30
0.0
 11
-673.338187821116
 21
-711.8691998559075
 31
0.0
  0
LINE
  5
50B
330
1F
100
AcDbEntity
  8
D-0
  6
Continuous
 62
     7
370
     9
100
AcDbLine
 10
-708.0760001017709
 20
-789.0988904076653
 30
0.0
 11
-709.5757840945382
 21
-789.0988904076653
 31
0.0
  0
LINE
  5
50C
330
1F
100
AcDbEntity
  8
D-0
  6
Continuous
 62
     7
370
     9
100
AcDbLine
 10
-708.0760001017709
 20
-787.5986462670403
 30
0.0
 11
-708.0760001017709
 21
-789.0988904076653
 31
0.0
  0
LINE
  5
50D
330
1F
100
AcDbEntity
  8
D-0
  6
Continuous
 62
     7
370
     9
100
AcDbLine
 10
-709.5757840945382
 20
-787.5986462670403
 30
0.0
 11
-708.0760001017709
 21
-787.5986462670403
 31
0.0
  0
LINE
  5
50E
330
1F
100
AcDbEntity
  8
D-0
  6
Continuous
 62
     7
370
     9
100
AcDbLine
 10
-709.5757840945382
 20
-789.0988904076653
 30
0.0
 11
-709.5757840945382
 21
-787.5986462670403
 31
0.0
  0
LINE
  5
50F
330
1F
100
AcDbEntity
  8
D-0
  6
Continuous
 62
     7
370
     9
100
AcDbLine
 10
-758.601927645411
 20
-759.5912533837395
 30
0.0
 11
-760.101704485621
 21
-759.5912533837395
 31
0.0
  0
LINE
  5
510
330
1F
100
AcDbEntity
  8
D-0
  6
Continuous
 62
     7
370
     9
100
AcDbLine
 10
-758.601927645411
 20
-758.0909710961419
 30
0.0
 11
-758.601927645411
 21
-759.5912533837395
 31
0.0
  0
LINE
  5
511
330
1F
100
AcDbEntity
  8
D-0
  6
Continuous
 62
     7
370
     9
100
AcDbLine
 10
-760.101704485621
 20
-758.0909710961419
 30
0.0
 11
-758.601927645411
 21
-758.0909710961419
 31
0.0
  0
LINE
  5
512
330
1F
100
AcDbEntity
  8
D-0
  6
Continuous
 62
     7
370
     9
100
AcDbLine
 10
-760.101704485621
 20
-759.5912533837395
 30
0.0
 11
-760.101704485621
 21
-758.0909710961419
 31
0.0
  0
LINE
  5
513
330
1F
100
AcDbEntity
  8
D-0
  6
Continuous
 62
     7
370
     9
100
AcDbLine
 10
-771.5544651820321
 20
-640.48553286372
 30
0.0
 11
-773.0547474696298
 21
-640.48553286372
 31
0.0
  0
LINE
  5
514
330
1F
100
AcDbEntity
  8
D-0
  6
Continuous
 62
     7
370
     9
100
AcDbLine
 10
-771.5544651820321
 20
-638.9852505761223
 30
0.0
 11
-771.5544651820321
 21
-640.48553286372
 31
0.0
  0
LINE
  5
515
330
1F
100
AcDbEntity
  8
D-0
  6
Continuous
 62
     7
370
     9
100
AcDbLine
 10
-773.0547474696298
 20
-638.9852505761223
 30
0.0
 11
-771.5544651820321
 21
-638.9852505761223
 31
0.0
  0
LINE
  5
516
330
1F
100
AcDbEntity
  8
D-0
  6
Continuous
 62
     7
370
     9
100
AcDbLine
 10
-773.0547474696298
 20
-640.48553286372
 30
0.0
 11
-773.0547474696298
 21
-638.9852505761223
 31
0.0
  0
LINE
  5
517
330
1F
100
AcDbEntity
  8
D-0
  6
Continuous
 62
     7
370
     9
100
AcDbLine
 10
-723.1773899867196
 20
-641.4730053978997
 30
0.0
 11
-724.6771763636727
 21
-641.4730053978997
 31
0.0
  0
LINE
  5
518
330
1F
100
AcDbEntity
  8
D-0
  6
Continuous
 62
     7
370
     9
100
AcDbLine
 10
-723.1773899867196
 20
-639.972723110302
 30
0.0
 11
-723.1773899867196
 21
-641.4730053978997
 31
0.0
  0
LINE
  5
519
330
1F
100
AcDbEntity
  8
D-0
  6
Continuous
 62
     7
370
     9
100
AcDbLine
 10
-724.6771763636727
 20
-639.972723110302
 30
0.0
 11
-723.1773899867196
 21
-639.972723110302
 31
0.0
  0
LINE
  5
51A
330
1F
100
AcDbEntity
  8
D-0
  6
Continuous
 62
     7
370
     9
100
AcDbLine
 10
-724.6771763636727
 20
-641.4730053978997
 30
0.0
 11
-724.6771763636727
 21
-639.972723110302
 31
0.0
  0
LINE
  5
51B
330
1F
100
AcDbEntity
  8
D-0
  6
Continuous
 62
     7
370
     9
100
AcDbLine
 10
-735.0250433756967
 20
-568.4131604271965
 30
0.0
 11
-736.5248249842782
 21
-568.4131604271965
 31
0.0
  0
LINE
  5
51C
330
1F
100
AcDbEntity
  8
D-0
  6
Continuous
 62
     7
370
     9
100
AcDbLine
 10
-735.0250433756967
 20
-566.9128781395989
 30
0.0
 11
-735.0250433756967
 21
-568.4131604271965
 31
0.0
  0
LINE
  5
51D
330
1F
100
AcDbEntity
  8
D-0
  6
Continuous
 62
     7
370
     9
100
AcDbLine
 10
-736.5248249842782
 20
-566.9128781395989
 30
0.0
 11
-735.0250433756967
 21
-566.9128781395989
 31
0.0
  0
LINE
  5
51E
330
1F
100
AcDbEntity
  8
D-0
  6
Continuous
 62
     7
370
     9
100
AcDbLine
 10
-736.5248249842782
 20
-568.4131604271965
 30
0.0
 11
-736.5248249842782
 21
-566.9128781395989
 31
0.0
  0
LINE
  5
51F
330
1F
100
AcDbEntity
  8
D-0
  6
Continuous
 62
     7
370
     9
100
AcDbLine
 10
-675.7872899807055
 20
-545.8718091088372
 30
0.0
 11
-677.2875693812032
 21
-545.8718091088372
 31
0.0
  0
LINE
  5
520
330
1F
100
AcDbEntity
  8
D-0
  6
Continuous
 62
     7
370
     9
100
AcDbLine
 10
-675.7872899807055
 20
-544.3715268212395
 30
0.0
 11
-675.7872899807055
 21
-545.8718091088372
 31
0.0
  0
LINE
  5
521
330
1F
100
AcDbEntity
  8
D-0
  6
Continuous
 62
     7
370
     9
100
AcDbLine
 10
-677.2875693812032
 20
-544.3715268212395
 30
0.0
 11
-675.7872899807055
 21
-544.3715268212395
 31
0.0
  0
LINE
  5
522
330
1F
100
AcDbEntity
  8
D-0
  6
Continuous
 62
     7
370
     9
100
AcDbLine
 10
-677.2875693812032
 20
-545.8718091088372
 30
0.0
 11
-677.2875693812032
 21
-544.3715268212395
 31
0.0
  0
LINE
  5
523
330
1F
100
AcDbEntity
  8
D-0
  6
Continuous
 62
     7
370
     9
100
AcDbLine
 10
-731.5483378245492
 20
-434.5404606896477
 30
0.0
 11
-733.0486153437753
 21
-434.5404606896477
 31
0.0
  0
LINE
  5
524
330
1F
100
AcDbEntity
  8
D-0
  6
Continuous
 62
     7
370
     9
100
AcDbLine
 10
-731.5483378245492
 20
-433.0401784020501
 30
0.0
 11
-731.5483378245492
 21
-434.5404606896477
 31
0.0
  0
LINE
  5
525
330
1F
100
AcDbEntity
  8
D-0
  6
Continuous
 62
     7
370
     9
100
AcDbLine
 10
-733.0486153437753
 20
-433.0401784020501
 30
0.0
 11
-731.5483378245492
 21
-433.0401784020501
 31
0.0
  0
LINE
  5
526
330
1F
100
AcDbEntity
  8
D-0
  6
Continuous
 62
     7
370
     9
100
AcDbLine
 10
-733.0486153437753
 20
-434.5404606896477
 30
0.0
 11
-733.0486153437753
 21
-433.0401784020501
 31
0.0
  0
LINE
  5
527
330
1F
100
AcDbEntity
  8
D-0
  6
Continuous
 62
     7
370
     9
100
AcDbLine
 10
-784.3895863368173
 20
-497.3277455407219
 30
0.0
 11
-785.8898686244149
 21
-497.3277455407219
 31
0.0
  0
LINE
  5
528
330
1F
100
AcDbEntity
  8
D-0
  6
Continuous
 62
     7
370
     9
100
AcDbLine
 10
-784.3895863368173
 20
-495.8274632531243
 30
0.0
 11
-784.3895863368173
 21
-497.3277455407219
 31
0.0
  0
LINE
  5
529
330
1F
100
AcDbEntity
  8
D-0
  6
Continuous
 62
     7
370
     9
100
AcDbLine
 10
-785.8898686244149
 20
-495.8274632531243
 30
0.0
 11
-784.3895863368173
 21
-495.8274632531243
 31
0.0
  0
LINE
  5
52A
330
1F
100
AcDbEntity
  8
D-0
  6
Continuous
 62
     7
370
     9
100
AcDbLine
 10
-785.8898686244149
 20
-497.3277455407219
 30
0.0
 11
-785.8898686244149
 21
-495.8274632531243
 31
0.0
  0
LINE
  5
52B
330
1F
100
AcDbEntity
  8
D-0
  6
Continuous
 62
     7
370
     9
100
AcDbLine
 10
-719.2280100657601
 20
-501.2771397667962
 30
0.0
 11
-720.7282875849862
 21
-501.2771397667962
 31
0.0
  0
LINE
  5
52C
330
1F
100
AcDbEntity
  8
D-0
  6
Continuous
 62
     7
370
     9
100
AcDbLine
 10
-719.2280100657601
 20
-499.7768574791985
 30
0.0
 11
-719.2280100657601
 21
-501.2771397667962
 31
0.0
  0
LINE
  5
52D
330
1F
100
AcDbEntity
  8
D-0
  6
Continuous
 62
     7
370
     9
100
AcDbLine
 10
-720.7282875849862
 20
-499.7768574791985
 30
0.0
 11
-719.2280100657601
 21
-499.7768574791985
 31
0.0
  0
LINE
  5
52E
330
1F
100
AcDbEntity
  8
D-0
  6
Continuous
 62
     7
370
     9
100
AcDbLine
 10
-720.7282875849862
 20
-501.2771397667962
 30
0.0
 11
-720.7282875849862
 21
-499.7768574791985
 31
0.0
  0
LINE
  5
52F
330
1F
100
AcDbEntity
  8
D-0
  6
Continuous
 62
     7
370
     9
100
AcDbLine
 10
-762.6692246272225
 20
-576.3114148217278
 30
0.0
 11
-764.1690110041757
 21
-576.3114148217278
 31
0.0
  0
LINE
  5
530
330
1F
100
AcDbEntity
  8
D-0
  6
Continuous
 62
     7
370
     9
100
AcDbLine
 10
-762.6692246272225
 20
-574.8111325341301
 30
0.0
 11
-762.6692246272225
 21
-576.3114148217278
 31
0.0
  0
LINE
  5
531
330
1F
100
AcDbEntity
  8
D-0
  6
Continuous
 62
     7
370
     9
100
AcDbLine
 10
-764.1690110041757
 20
-574.8111325341301
 30
0.0
 11
-762.6692246272225
 21
-574.8111325341301
 31
0.0
  0
LINE
  5
532
330
1F
100
AcDbEntity
  8
D-0
  6
Continuous
 62
     7
370
     9
100
AcDbLine
 10
-764.1690110041757
 20
-576.3114148217278
 30
0.0
 11
-764.1690110041757
 21
-574.8111325341301
 31
0.0
  0
LINE
  5
533
330
1F
100
AcDbEntity
  8
D-0
  6
Continuous
 62
     7
370
     9
100
AcDbLine
 10
-635.4695080592294
 20
-509.6019917565422
 30
0.0
 11
-636.9692944361825
 21
-509.6019917565422
 31
0.0
  0
LINE
  5
534
330
1F
100
AcDbEntity
  8
D-0
  6
Continuous
 62
     7
370
     9
100
AcDbLine
 10
-635.4695080592294
 20
-508.1017285424309
 30
0.0
 11
-635.4695080592294
 21
-509.6019917565422
 31
0.0
  0
LINE
  5
535
330
1F
100
AcDbEntity
  8
D-0
  6
Continuous
 62
     7
370
     9
100
AcDbLine
 10
-636.9692944361825
 20
-508.1017285424309
 30
0.0
 11
-635.4695080592294
 21
-508.1017285424309
 31
0.0
  0
LINE
  5
536
330
1F
100
AcDbEntity
  8
D-0
  6
Continuous
 62
     7
370
     9
100
AcDbLine
 10
-636.9692944361825
 20
-509.6019917565422
 30
0.0
 11
-636.9692944361825
 21
-508.1017285424309
 31
0.0
  0
LINE
  5
537
330
1F
100
AcDbEntity
  8
D-0
  6
Continuous
 62
     7
370
     9
100
AcDbLine
 10
-573.7529228999276
 20
-524.3486386376458
 30
0.0
 11
-575.2527092768808
 21
-524.3486386376458
 31
0.0
  0
LINE
  5
538
330
1F
100
AcDbEntity
  8
D-0
  6
Continuous
 62
     7
370
     9
100
AcDbLine
 10
-573.7529228999276
 20
-522.8483563500481
 30
0.0
 11
-573.7529228999276
 21
-524.3486386376458
 31
0.0
  0
LINE
  5
539
330
1F
100
AcDbEntity
  8
D-0
  6
Continuous
 62
     7
370
     9
100
AcDbLine
 10
-575.2527092768808
 20
-522.8483563500481
 30
0.0
 11
-573.7529228999276
 21
-522.8483563500481
 31
0.0
  0
LINE
  5
53A
330
1F
100
AcDbEntity
  8
D-0
  6
Continuous
 62
     7
370
     9
100
AcDbLine
 10
-575.2527092768808
 20
-524.3486386376458
 30
0.0
 11
-575.2527092768808
 21
-522.8483563500481
 31
0.0
  0
LINE
  5
53B
330
1F
100
AcDbEntity
  8
D-0
  6
Continuous
 62
     7
370
     9
100
AcDbLine
 10
-669.8634653165002
 20
-513.1242924767571
 30
0.0
 11
-671.3637446238656
 21
-513.1242924767571
 31
0.0
  0
LINE
  5
53C
330
1F
100
AcDbEntity
  8
D-0
  6
Continuous
 62
     7
370
     9
100
AcDbLine
 10
-669.8634653165002
 20
-511.6240101891594
 30
0.0
 11
-669.8634653165002
 21
-513.1242924767571
 31
0.0
  0
LINE
  5
53D
330
1F
100
AcDbEntity
  8
D-0
  6
Continuous
 62
     7
370
     9
100
AcDbLine
 10
-671.3637446238656
 20
-511.6240101891594
 30
0.0
 11
-669.8634653165002
 21
-511.6240101891594
 31
0.0
  0
LINE
  5
53E
330
1F
100
AcDbEntity
  8
D-0
  6
Continuous
 62
     7
370
     9
100
AcDbLine
 10
-671.3637446238656
 20
-513.1242924767571
 30
0.0
 11
-671.3637446238656
 21
-511.6240101891594
 31
0.0
  0
LINE
  5
53F
330
1F
100
AcDbEntity
  8
D-0
  6
Continuous
 62
     7
370
     9
100
AcDbLine
 10
-681.7111145331521
 20
-613.0078106957512
 30
0.0
 11
-683.2108985259194
 21
-613.0078106957512
 31
0.0
  0
LINE
  5
540
330
1F
100
AcDbEntity
  8
D-0
  6
Continuous
 62
     7
370
     9
100
AcDbLine
 10
-681.7111145331521
 20
-611.5075474816399
 30
0.0
 11
-681.7111145331521
 21
-613.0078106957512
 31
0.0
  0
LINE
  5
541
330
1F
100
AcDbEntity
  8
D-0
  6
Continuous
 62
     7
370
     9
100
AcDbLine
 10
-683.2108985259194
 20
-611.5075474816399
 30
0.0
 11
-681.7111145331521
 21
-611.5075474816399
 31
0.0
  0
LINE
  5
542
330
1F
100
AcDbEntity
  8
D-0
  6
Continuous
 62
     7
370
     9
100
AcDbLine
 10
-683.2108985259194
 20
-613.0078106957512
 30
0.0
 11
-683.2108985259194
 21
-611.5075474816399
 31
0.0
  0
LINE
  5
543
330
1F
100
AcDbEntity
  8
D-0
  6
Continuous
 62
     7
370
     9
100
AcDbLine
 10
-736.9994829966683
 20
-727.1915799218255
 30
0.0
 11
-738.499765284266
 21
-727.1915799218255
 31
0.0
  0
LINE
  5
544
330
1F
100
AcDbEntity
  8
D-0
  6
Continuous
 62
     7
370
     9
100
AcDbLine
 10
-736.9994829966683
 20
-725.6912976342278
 30
0.0
 11
-736.9994829966683
 21
-727.1915799218255
 31
0.0
  0
LINE
  5
545
330
1F
100
AcDbEntity
  8
D-0
  6
Continuous
 62
     7
370
     9
100
AcDbLine
 10
-738.499765284266
 20
-725.6912976342278
 30
0.0
 11
-736.9994829966683
 21
-725.6912976342278
 31
0.0
  0
LINE
  5
546
330
1F
100
AcDbEntity
  8
D-0
  6
Continuous
 62
     7
370
     9
100
AcDbLine
 10
-738.499765284266
 20
-727.1915799218255
 30
0.0
 11
-738.499765284266
 21
-725.6912976342278
 31
0.0
  0
LINE
  5
547
330
1F
100
AcDbEntity
  8
D-0
  6
Continuous
 62
     7
370
     9
100
AcDbLine
 10
-725.1518343760629
 20
-760.7595807152825
 30
0.0
 11
-726.6521166636605
 21
-760.7595807152825
 31
0.0
  0
LINE
  5
548
330
1F
100
AcDbEntity
  8
D-0
  6
Continuous
 62
     7
370
     9
100
AcDbLine
 10
-725.1518343760629
 20
-759.2592984276848
 30
0.0
 11
-725.1518343760629
 21
-760.7595807152825
 31
0.0
  0
LINE
  5
549
330
1F
100
AcDbEntity
  8
D-0
  6
Continuous
 62
     7
370
     9
100
AcDbLine
 10
-726.6521166636605
 20
-759.2592984276848
 30
0.0
 11
-725.1518343760629
 21
-759.2592984276848
 31
0.0
  0
LINE
  5
54A
330
1F
100
AcDbEntity
  8
D-0
  6
Continuous
 62
     7
370
     9
100
AcDbLine
 10
-726.6521166636605
 20
-760.7595807152825
 30
0.0
 11
-726.6521166636605
 21
-759.2592984276848
 31
0.0
  0
LINE
  5
54B
330
1F
100
AcDbEntity
  8
D-0
  6
Continuous
 62
     7
370
     9
100
AcDbLine
 10
-782.6519726588388
 20
-741.0136777001458
 30
0.0
 11
-784.1517590357919
 21
-741.0136777001458
 31
0.0
  0
LINE
  5
54C
330
1F
100
AcDbEntity
  8
D-0
  6
Continuous
 62
     7
370
     9
100
AcDbLine
 10
-782.6519726588388
 20
-739.5133954125481
 30
0.0
 11
-782.6519726588388
 21
-741.0136777001458
 31
0.0
  0
LINE
  5
54D
330
1F
100
AcDbEntity
  8
D-0
  6
Continuous
 62
     7
370
     9
100
AcDbLine
 10
-784.1517590357919
 20
-739.5133954125481
 30
0.0
 11
-782.6519726588388
 21
-739.5133954125481
 31
0.0
  0
LINE
  5
54E
330
1F
100
AcDbEntity
  8
D-0
  6
Continuous
 62
     7
370
     9
100
AcDbLine
 10
-784.1517590357919
 20
-741.0136777001458
 30
0.0
 11
-784.1517590357919
 21
-739.5133954125481
 31
0.0
  0
LINE
  5
54F
330
1F
100
AcDbEntity
  8
D-0
  6
Continuous
 62
     7
370
     9
100
AcDbLine
 10
-780.4402016474862
 20
-781.3116437035637
 30
0.0
 11
-781.9404839350839
 21
-781.3116437035637
 31
0.0
  0
LINE
  5
550
330
1F
100
AcDbEntity
  8
D-0
  6
Continuous
 62
     7
370
     9
100
AcDbLine
 10
-780.4402016474862
 20
-779.8113614159661
 30
0.0
 11
-780.4402016474862
 21
-781.3116437035637
 31
0.0
  0
LINE
  5
551
330
1F
100
AcDbEntity
  8
D-0
  6
Continuous
 62
     7
370
     9
100
AcDbLine
 10
-781.9404839350839
 20
-779.8113614159661
 30
0.0
 11
-780.4402016474862
 21
-779.8113614159661
 31
0.0
  0
LINE
  5
552
330
1F
100
AcDbEntity
  8
D-0
  6
Continuous
 62
     7
370
     9
100
AcDbLine
 10
-781.9404839350839
 20
-781.3116437035637
 30
0.0
 11
-781.9404839350839
 21
-779.8113614159661
 31
0.0
  0
LINE
  5
553
330
1F
100
AcDbEntity
  8
D-0
  6
Continuous
 62
     7
370
     9
100
AcDbLine
 10
-745.7113121821542
 20
-790.6080990868645
 30
0.0
 11
-747.2115897013803
 21
-790.6080990868645
 31
0.0
  0
LINE
  5
554
330
1F
100
AcDbEntity
  8
D-0
  6
Continuous
 62
     7
370
     9
100
AcDbLine
 10
-745.7113121821542
 20
-789.1078167992669
 30
0.0
 11
-745.7113121821542
 21
-790.6080990868645
 31
0.0
  0
LINE
  5
555
330
1F
100
AcDbEntity
  8
D-0
  6
Continuous
 62
     7
370
     9
100
AcDbLine
 10
-747.2115897013803
 20
-789.1078167992669
 30
0.0
 11
-745.7113121821542
 21
-789.1078167992669
 31
0.0
  0
LINE
  5
556
330
1F
100
AcDbEntity
  8
D-0
  6
Continuous
 62
     7
370
     9
100
AcDbLine
 10
-747.2115897013803
 20
-790.6080990868645
 30
0.0
 11
-747.2115897013803
 21
-789.1078167992669
 31
0.0
  0
LINE
  5
557
330
1F
100
AcDbEntity
  8
D-0
  6
Continuous
 62
     7
370
     9
100
AcDbLine
 10
-671.4826573803086
 20
-785.1495343285637
 30
0.0
 11
-672.982936687674
 21
-785.1495343285637
 31
0.0
  0
LINE
  5
558
330
1F
100
AcDbEntity
  8
D-0
  6
Continuous
 62
     7
370
     9
100
AcDbLine
 10
-671.4826573803086
 20
-783.6492520409661
 30
0.0
 11
-671.4826573803086
 21
-785.1495343285637
 31
0.0
  0
LINE
  5
559
330
1F
100
AcDbEntity
  8
D-0
  6
Continuous
 62
     7
370
     9
100
AcDbLine
 10
-672.982936687674
 20
-783.6492520409661
 30
0.0
 11
-671.4826573803086
 21
-783.6492520409661
 31
0.0
  0
LINE
  5
55A
330
1F
100
AcDbEntity
  8
D-0
  6
Continuous
 62
     7
370
     9
100
AcDbLine
 10
-672.982936687674
 20
-785.1495343285637
 30
0.0
 11
-672.982936687674
 21
-783.6492520409661
 31
0.0
  0
LINE
  5
55B
330
1F
100
AcDbEntity
  8
D-0
  6
Continuous
 62
     7
370
     9
100
AcDbLine
 10
-677.7617329730649
 20
-746.9374829369622
 30
0.0
 11
-679.2615171148439
 21
-746.9374829369622
 31
0.0
  0
LINE
  5
55C
330
1F
100
AcDbEntity
  8
D-0
  6
Continuous
 62
     7
370
     9
100
AcDbLine
 10
-677.7617329730649
 20
-745.4372006493645
 30
0.0
 11
-677.7617329730649
 21
-746.9374829369622
 31
0.0
  0
LINE
  5
55D
330
1F
100
AcDbEntity
  8
D-0
  6
Continuous
 62
     7
370
     9
100
AcDbLine
 10
-679.2615171148439
 20
-745.4372006493645
 30
0.0
 11
-677.7617329730649
 21
-745.4372006493645
 31
0.0
  0
LINE
  5
55E
330
1F
100
AcDbEntity
  8
D-0
  6
Continuous
 62
     7
370
     9
100
AcDbLine
 10
-679.2615171148439
 20
-746.9374829369622
 30
0.0
 11
-679.2615171148439
 21
-745.4372006493645
 31
0.0
  0
LINE
  5
55F
330
1F
100
AcDbEntity
  8
D-0
  6
Continuous
 62
     7
370
     9
100
AcDbLine
 10
-702.1521734072824
 20
-721.0309201317864
 30
0.0
 11
-703.6519574000497
 21
-721.0309201317864
 31
0.0
  0
LINE
  5
560
330
1F
100
AcDbEntity
  8
D-0
  6
Continuous
 62
     7
370
     9
100
AcDbLine
 10
-702.1521734072824
 20
-719.5306378441887
 30
0.0
 11
-702.1521734072824
 21
-721.0309201317864
 31
0.0
  0
LINE
  5
561
330
1F
100
AcDbEntity
  8
D-0
  6
Continuous
 62
     7
370
     9
100
AcDbLine
 10
-703.6519574000497
 20
-719.5306378441887
 30
0.0
 11
-702.1521734072824
 21
-719.5306378441887
 31
0.0
  0
LINE
  5
562
330
1F
100
AcDbEntity
  8
D-0
  6
Continuous
 62
     7
370
     9
100
AcDbLine
 10
-703.6519574000497
 20
-721.0309201317864
 30
0.0
 11
-703.6519574000497
 21
-719.5306378441887
 31
0.0
  0
LINE
  5
563
330
1F
100
AcDbEntity
  8
D-0
  6
Continuous
 62
     7
370
     9
100
AcDbLine
 10
-772.5424336268563
 20
-717.3188763695794
 30
0.0
 11
-774.0422200038095
 21
-717.3188763695794
 31
0.0
  0
LINE
  5
564
330
1F
100
AcDbEntity
  8
D-0
  6
Continuous
 62
     7
370
     9
100
AcDbLine
 10
-772.5424336268563
 20
-715.8185940819817
 30
0.0
 11
-772.5424336268563
 21
-717.3188763695794
 31
0.0
  0
LINE
  5
565
330
1F
100
AcDbEntity
  8
D-0
  6
Continuous
 62
     7
370
     9
100
AcDbLine
 10
-774.0422200038095
 20
-715.8185940819817
 30
0.0
 11
-772.5424336268563
 21
-715.8185940819817
 31
0.0
  0
LINE
  5
566
330
1F
100
AcDbEntity
  8
D-0
  6
Continuous
 62
     7
370
     9
100
AcDbLine
 10
-774.0422200038095
 20
-717.3188763695794
 30
0.0
 11
-774.0422200038095
 21
-715.8185940819817
 31
0.0
  0
LINE
  5
567
330
1F
100
AcDbEntity
  8
D-0
  6
Continuous
 62
     7
370
     9
100
AcDbLine
 10
-695.533206351008
 20
-579.4398099022942
 30
0.0
 11
-697.0329903437753
 21
-579.4398099022942
 31
0.0
  0
LINE
  5
568
330
1F
100
AcDbEntity
  8
D-0
  6
Continuous
 62
     7
370
     9
100
AcDbLine
 10
-695.533206351008
 20
-577.9395276146965
 30
0.0
 11
-695.533206351008
 21
-579.4398099022942
 31
0.0
  0
LINE
  5
569
330
1F
100
AcDbEntity
  8
D-0
  6
Continuous
 62
     7
370
     9
100
AcDbLine
 10
-697.0329903437753
 20
-577.9395276146965
 30
0.0
 11
-695.533206351008
 21
-577.9395276146965
 31
0.0
  0
LINE
  5
56A
330
1F
100
AcDbEntity
  8
D-0
  6
Continuous
 62
     7
370
     9
100
AcDbLine
 10
-697.0329903437753
 20
-579.4398099022942
 30
0.0
 11
-697.0329903437753
 21
-577.9395276146965
 31
0.0
  0
LINE
  5
56B
330
1F
100
AcDbEntity
  8
D-0
  6
Continuous
 62
     7
370
     9
100
AcDbLine
 10
-758.7198399378915
 20
-526.9468670922356
 30
0.0
 11
-760.2201222254891
 21
-526.9468670922356
 31
0.0
  0
LINE
  5
56C
330
1F
100
AcDbEntity
  8
D-0
  6
Continuous
 62
     7
370
     9
100
AcDbLine
 10
-758.7198399378915
 20
-525.4466038781243
 30
0.0
 11
-758.7198399378915
 21
-526.9468670922356
 31
0.0
  0
LINE
  5
56D
330
1F
100
AcDbEntity
  8
D-0
  6
Continuous
 62
     7
370
     9
100
AcDbLine
 10
-760.2201222254891
 20
-525.4466038781243
 30
0.0
 11
-758.7198399378915
 21
-525.4466038781243
 31
0.0
  0
LINE
  5
56E
330
1F
100
AcDbEntity
  8
D-0
  6
Continuous
 62
     7
370
     9
100
AcDbLine
 10
-760.2201222254891
 20
-526.9468670922356
 30
0.0
 11
-760.2201222254891
 21
-525.4466038781243
 31
0.0
  0
LINE
  5
56F
330
1F
100
AcDbEntity
  8
D-0
  6
Continuous
 62
     7
370
     9
100
AcDbLine
 10
-750.8215760066171
 20
-467.7086239892083
 30
0.0
 11
-752.3218582942147
 21
-467.7086239892083
 31
0.0
  0
LINE
  5
570
330
1F
100
AcDbEntity
  8
D-0
  6
Continuous
 62
     7
370
     9
100
AcDbLine
 10
-750.8215760066171
 20
-466.2083417016106
 30
0.0
 11
-750.8215760066171
 21
-467.7086239892083
 31
0.0
  0
LINE
  5
571
330
1F
100
AcDbEntity
  8
D-0
  6
Continuous
 62
     7
370
     9
100
AcDbLine
 10
-752.3218582942147
 20
-466.2083417016106
 30
0.0
 11
-750.8215760066171
 21
-466.2083417016106
 31
0.0
  0
LINE
  5
572
330
1F
100
AcDbEntity
  8
D-0
  6
Continuous
 62
     7
370
     9
100
AcDbLine
 10
-752.3218582942147
 20
-467.7086239892083
 30
0.0
 11
-752.3218582942147
 21
-466.2083417016106
 31
0.0
  0
LINE
  5
573
330
1F
100
AcDbEntity
  8
D-0
  6
Continuous
 62
     7
370
     9
100
AcDbLine
 10
-784.5357464625497
 20
-548.6672383385735
 30
0.0
 11
-786.0355328395028
 21
-548.6672383385735
 31
0.0
  0
LINE
  5
574
330
1F
100
AcDbEntity
  8
D-0
  6
Continuous
 62
     7
370
     9
100
AcDbLine
 10
-784.5357464625497
 20
-547.1669560509758
 30
0.0
 11
-784.5357464625497
 21
-548.6672383385735
 31
0.0
  0
LINE
  5
575
330
1F
100
AcDbEntity
  8
D-0
  6
Continuous
 62
     7
370
     9
100
AcDbLine
 10
-786.0355328395028
 20
-547.1669560509758
 30
0.0
 11
-784.5357464625497
 21
-547.1669560509758
 31
0.0
  0
LINE
  5
576
330
1F
100
AcDbEntity
  8
D-0
  6
Continuous
 62
     7
370
     9
100
AcDbLine
 10
-786.0355328395028
 20
-548.6672383385735
 30
0.0
 11
-786.0355328395028
 21
-547.1669560509758
 31
0.0
  0
LINE
  5
577
330
1F
100
AcDbEntity
  8
D-0
  6
Continuous
 62
     7
370
     9
100
AcDbLine
 10
-761.681761629786
 20
-614.8157864647942
 30
0.0
 11
-763.1820343806405
 21
-614.8157864647942
 31
0.0
  0
LINE
  5
578
330
1F
100
AcDbEntity
  8
D-0
  6
Continuous
 62
     7
370
     9
100
AcDbLine
 10
-761.681761629786
 20
-613.3155041771965
 30
0.0
 11
-761.681761629786
 21
-614.8157864647942
 31
0.0
  0
LINE
  5
579
330
1F
100
AcDbEntity
  8
D-0
  6
Continuous
 62
     7
370
     9
100
AcDbLine
 10
-763.1820343806405
 20
-613.3155041771965
 30
0.0
 11
-761.681761629786
 21
-613.3155041771965
 31
0.0
  0
LINE
  5
57A
330
1F
100
AcDbEntity
  8
D-0
  6
Continuous
 62
     7
370
     9
100
AcDbLine
 10
-763.1820343806405
 20
-614.8157864647942
 30
0.0
 11
-763.1820343806405
 21
-613.3155041771965
 31
0.0
  0
LINE
  5
57B
330
1F
100
AcDbEntity
  8
D-0
  6
Continuous
 62
     7
370
     9
100
AcDbLine
 10
-731.0756586863656
 20
-603.9556103783684
 30
0.0
 11
-732.5759409739633
 21
-603.9556103783684
 31
0.0
  0
LINE
  5
57C
330
1F
100
AcDbEntity
  8
D-0
  6
Continuous
 62
     7
370
     9
100
AcDbLine
 10
-731.0756586863656
 20
-602.4553280907708
 30
0.0
 11
-731.0756586863656
 21
-603.9556103783684
 31
0.0
  0
LINE
  5
57D
330
1F
100
AcDbEntity
  8
D-0
  6
Continuous
 62
     7
370
     9
100
AcDbLine
 10
-732.5759409739633
 20
-602.4553280907708
 30
0.0
 11
-731.0756586863656
 21
-602.4553280907708
 31
0.0
  0
LINE
  5
57E
330
1F
100
AcDbEntity
  8
D-0
  6
Continuous
 62
     7
370
     9
100
AcDbLine
 10
-732.5759409739633
 20
-603.9556103783684
 30
0.0
 11
-732.5759409739633
 21
-602.4553280907708
 31
0.0
  0
LINE
  5
57F
330
1F
100
AcDbEntity
  8
D-0
  6
Continuous
 62
     7
370
     9
100
AcDbLine
 10
-717.2535656764169
 20
-544.7178441124993
 30
0.0
 11
-718.75335205337
 21
-544.7178441124993
 31
0.0
  0
LINE
  5
580
330
1F
100
AcDbEntity
  8
D-0
  6
Continuous
 62
     7
370
     9
100
AcDbLine
 10
-717.2535656764169
 20
-543.217580898388
 30
0.0
 11
-717.2535656764169
 21
-544.7178441124993
 31
0.0
  0
LINE
  5
581
330
1F
100
AcDbEntity
  8
D-0
  6
Continuous
 62
     7
370
     9
100
AcDbLine
 10
-718.75335205337
 20
-543.217580898388
 30
0.0
 11
-717.2535656764169
 21
-543.217580898388
 31
0.0
  0
LINE
  5
582
330
1F
100
AcDbEntity
  8
D-0
  6
Continuous
 62
     7
370
     9
100
AcDbLine
 10
-718.75335205337
 20
-544.7178441124993
 30
0.0
 11
-718.75335205337
 21
-543.217580898388
 31
0.0
  0
LINE
  5
583
330
1F
100
AcDbEntity
  8
D-0
  6
Continuous
 62
     7
370
     9
100
AcDbLine
 10
-687.6349388434548
 20
-483.505666835888
 30
0.0
 11
-689.1347228362222
 21
-483.505666835888
 31
0.0
  0
LINE
  5
584
330
1F
100
AcDbEntity
  8
D-0
  6
Continuous
 62
     7
370
     9
100
AcDbLine
 10
-687.6349388434548
 20
-482.0053845482903
 30
0.0
 11
-687.6349388434548
 21
-483.505666835888
 31
0.0
  0
LINE
  5
585
330
1F
100
AcDbEntity
  8
D-0
  6
Continuous
 62
     7
370
     9
100
AcDbLine
 10
-689.1347228362222
 20
-482.0053845482903
 30
0.0
 11
-687.6349388434548
 21
-482.0053845482903
 31
0.0
  0
LINE
  5
586
330
1F
100
AcDbEntity
  8
D-0
  6
Continuous
 62
     7
370
     9
100
AcDbLine
 10
-689.1347228362222
 20
-483.505666835888
 30
0.0
 11
-689.1347228362222
 21
-482.0053845482903
 31
0.0
  0
LINE
  5
587
330
1F
100
AcDbEntity
  8
D-0
  6
Continuous
 62
     7
370
     9
100
AcDbLine
 10
-701.4560412242074
 20
-454.8735028344231
 30
0.0
 11
-702.9563211276193
 21
-454.8735028344231
 31
0.0
  0
LINE
  5
588
330
1F
100
AcDbEntity
  8
D-0
  6
Continuous
 62
     7
370
     9
100
AcDbLine
 10
-701.4560412242074
 20
-453.3732205468255
 30
0.0
 11
-701.4560412242074
 21
-454.8735028344231
 31
0.0
  0
LINE
  5
589
330
1F
100
AcDbEntity
  8
D-0
  6
Continuous
 62
     7
370
     9
100
AcDbLine
 10
-702.9563211276193
 20
-453.3732205468255
 30
0.0
 11
-701.4560412242074
 21
-453.3732205468255
 31
0.0
  0
LINE
  5
58A
330
1F
100
AcDbEntity
  8
D-0
  6
Continuous
 62
     7
370
     9
100
AcDbLine
 10
-702.9563211276193
 20
-454.8735028344231
 30
0.0
 11
-702.9563211276193
 21
-453.3732205468255
 31
0.0
  0
LINE
  5
58B
330
1F
100
AcDbEntity
  8
D-0
  6
Continuous
 62
     7
370
     9
100
AcDbLine
 10
-776.4913224055429
 20
-440.0644379693108
 30
0.0
 11
-777.9915951563974
 21
-440.0644379693108
 31
0.0
  0
LINE
  5
58C
330
1F
100
AcDbEntity
  8
D-0
  6
Continuous
 62
     7
370
     9
100
AcDbLine
 10
-776.4913224055429
 20
-438.5641652184563
 30
0.0
 11
-776.4913224055429
 21
-440.0644379693108
 31
0.0
  0
LINE
  5
58D
330
1F
100
AcDbEntity
  8
D-0
  6
Continuous
 62
     7
370
     9
100
AcDbLine
 10
-777.9915951563974
 20
-438.5641652184563
 30
0.0
 11
-776.4913224055429
 21
-438.5641652184563
 31
0.0
  0
LINE
  5
58E
330
1F
100
AcDbEntity
  8
D-0
  6
Continuous
 62
     7
370
     9
100
AcDbLine
 10
-777.9915951563974
 20
-440.0644379693108
 30
0.0
 11
-777.9915951563974
 21
-438.5641652184563
 31
0.0
  0
LINE
  5
58F
330
1F
100
AcDbEntity
  8
D-0
  6
Continuous
 62
     7
370
     9
100
AcDbLine
 10
-539.2301510646005
 20
-324.1956001359063
 30
0.0
 11
-540.7304333521981
 21
-324.1956001359063
 31
0.0
  0
LINE
  5
590
330
1F
100
AcDbEntity
  8
D-0
  6
Continuous
 62
     7
370
     9
100
AcDbLine
 10
-539.2301510646005
 20
-322.6953226166802
 30
0.0
 11
-539.2301510646005
 21
-324.1956001359063
 31
0.0
  0
LINE
  5
591
330
1F
100
AcDbEntity
  8
D-0
  6
Continuous
 62
     7
370
     9
100
AcDbLine
 10
-540.7304333521981
 20
-322.6953226166802
 30
0.0
 11
-539.2301510646005
 21
-322.6953226166802
 31
0.0
  0
LINE
  5
592
330
1F
100
AcDbEntity
  8
D-0
  6
Continuous
 62
     7
370
     9
100
AcDbLine
 10
-540.7304333521981
 20
-324.1956001359063
 30
0.0
 11
-540.7304333521981
 21
-322.6953226166802
 31
0.0
  0
LINE
  5
593
330
1F
100
AcDbEntity
  8
D-0
  6
Continuous
 62
     7
370
     9
100
AcDbLine
 10
-471.7696045710701
 20
-399.9379139977532
 30
0.0
 11
-473.2693909480233
 21
-399.9379139977532
 31
0.0
  0
LINE
  5
594
330
1F
100
AcDbEntity
  8
D-0
  6
Continuous
 62
     7
370
     9
100
AcDbLine
 10
-471.7696045710701
 20
-398.4376317101555
 30
0.0
 11
-471.7696045710701
 21
-399.9379139977532
 31
0.0
  0
LINE
  5
595
330
1F
100
AcDbEntity
  8
D-0
  6
Continuous
 62
     7
370
     9
100
AcDbLine
 10
-473.2693909480233
 20
-398.4376317101555
 30
0.0
 11
-471.7696045710701
 21
-398.4376317101555
 31
0.0
  0
LINE
  5
596
330
1F
100
AcDbEntity
  8
D-0
  6
Continuous
 62
     7
370
     9
100
AcDbLine
 10
-473.2693909480233
 20
-399.9379139977532
 30
0.0
 11
-473.2693909480233
 21
-398.4376317101555
 31
0.0
  0
LINE
  5
597
330
1F
100
AcDbEntity
  8
D-0
  6
Continuous
 62
     7
370
     9
100
AcDbLine
 10
-475.6922196223397
 20
-361.3651734429436
 30
0.0
 11
-477.1925019099373
 21
-361.3651734429436
 31
0.0
  0
LINE
  5
598
330
1F
100
AcDbEntity
  8
D-0
  6
Continuous
 62
     7
370
     9
100
AcDbLine
 10
-475.6922196223397
 20
-359.8648959237175
 30
0.0
 11
-475.6922196223397
 21
-361.3651734429436
 31
0.0
  0
LINE
  5
599
330
1F
100
AcDbEntity
  8
D-0
  6
Continuous
 62
     7
370
     9
100
AcDbLine
 10
-477.1925019099373
 20
-359.8648959237175
 30
0.0
 11
-475.6922196223397
 21
-359.8648959237175
 31
0.0
  0
LINE
  5
59A
330
1F
100
AcDbEntity
  8
D-0
  6
Continuous
 62
     7
370
     9
100
AcDbLine
 10
-477.1925019099373
 20
-361.3651734429436
 30
0.0
 11
-477.1925019099373
 21
-359.8648959237175
 31
0.0
  0
LINE
  5
59B
330
1F
100
AcDbEntity
  8
D-0
  6
Continuous
 62
     7
370
     9
100
AcDbLine
 10
-484.2658089472909
 20
-328.3961850243645
 30
0.0
 11
-485.7660912348885
 21
-328.3961850243645
 31
0.0
  0
LINE
  5
59C
330
1F
100
AcDbEntity
  8
D-0
  6
Continuous
 62
     7
370
     9
100
AcDbLine
 10
-484.2658089472909
 20
-326.8959051209526
 30
0.0
 11
-484.2658089472909
 21
-328.3961850243645
 31
0.0
  0
LINE
  5
59D
330
1F
100
AcDbEntity
  8
D-0
  6
Continuous
 62
     7
370
     9
100
AcDbLine
 10
-485.7660912348885
 20
-326.8959051209526
 30
0.0
 11
-484.2658089472909
 21
-326.8959051209526
 31
0.0
  0
LINE
  5
59E
330
1F
100
AcDbEntity
  8
D-0
  6
Continuous
 62
     7
370
     9
100
AcDbLine
 10
-485.7660912348885
 20
-328.3961850243645
 30
0.0
 11
-485.7660912348885
 21
-326.8959051209526
 31
0.0
  0
LINE
  5
59F
330
1F
100
AcDbEntity
  8
D-0
  6
Continuous
 62
     7
370
     9
100
AcDbLine
 10
-480.4368256404061
 20
-303.6643665867882
 30
0.0
 11
-481.9366120173592
 21
-303.6643665867882
 31
0.0
  0
LINE
  5
5A0
330
1F
100
AcDbEntity
  8
D-0
  6
Continuous
 62
     7
370
     9
100
AcDbLine
 10
-480.4368256404061
 20
-302.1640866833764
 30
0.0
 11
-480.4368256404061
 21
-303.6643665867882
 31
0.0
  0
LINE
  5
5A1
330
1F
100
AcDbEntity
  8
D-0
  6
Continuous
 62
     7
370
     9
100
AcDbLine
 10
-481.9366120173592
 20
-302.1640866833764
 30
0.0
 11
-480.4368256404061
 21
-302.1640866833764
 31
0.0
  0
LINE
  5
5A2
330
1F
100
AcDbEntity
  8
D-0
  6
Continuous
 62
     7
370
     9
100
AcDbLine
 10
-481.9366120173592
 20
-303.6643665867882
 30
0.0
 11
-481.9366120173592
 21
-302.1640866833764
 31
0.0
  0
LINE
  5
5A3
330
1F
100
AcDbEntity
  8
D-0
  6
Continuous
 62
     7
370
     9
100
AcDbLine
 10
-515.36787498733
 20
-309.0629941063958
 30
0.0
 11
-516.8676613642831
 21
-309.0629941063958
 31
0.0
  0
LINE
  5
5A4
330
1F
100
AcDbEntity
  8
D-0
  6
Continuous
 62
     7
370
     9
100
AcDbLine
 10
-515.36787498733
 20
-307.5627142029839
 30
0.0
 11
-515.36787498733
 21
-309.0629941063958
 31
0.0
  0
LINE
  5
5A5
330
1F
100
AcDbEntity
  8
D-0
  6
Continuous
 62
     7
370
     9
100
AcDbLine
 10
-516.8676613642831
 20
-307.5627142029839
 30
0.0
 11
-515.36787498733
 21
-307.5627142029839
 31
0.0
  0
LINE
  5
5A6
330
1F
100
AcDbEntity
  8
D-0
  6
Continuous
 62
     7
370
     9
100
AcDbLine
 10
-516.8676613642831
 20
-309.0629941063958
 30
0.0
 11
-516.8676613642831
 21
-307.5627142029839
 31
0.0
  0
LINE
  5
5A7
330
1F
100
AcDbEntity
  8
D-0
  6
Continuous
 62
     7
370
     9
100
AcDbLine
 10
-573.7593697383065
 20
-362.0186978417473
 30
0.0
 11
-575.2591561152597
 21
-362.0186978417473
 31
0.0
  0
LINE
  5
5A8
330
1F
100
AcDbEntity
  8
D-0
  6
Continuous
 62
     7
370
     9
100
AcDbLine
 10
-573.7593697383065
 20
-360.5184155541497
 30
0.0
 11
-573.7593697383065
 21
-362.0186978417473
 31
0.0
  0
LINE
  5
5A9
330
1F
100
AcDbEntity
  8
D-0
  6
Continuous
 62
     7
370
     9
100
AcDbLine
 10
-575.2591561152597
 20
-360.5184155541497
 30
0.0
 11
-573.7593697383065
 21
-360.5184155541497
 31
0.0
  0
LINE
  5
5AA
330
1F
100
AcDbEntity
  8
D-0
  6
Continuous
 62
     7
370
     9
100
AcDbLine
 10
-575.2591561152597
 20
-362.0186978417473
 30
0.0
 11
-575.2591561152597
 21
-360.5184155541497
 31
0.0
  0
LINE
  5
5AB
330
1F
100
AcDbEntity
  8
D-0
  6
Continuous
 62
     7
370
     9
100
AcDbLine
 10
-603.1827830149789
 20
-311.9069844323235
 30
0.0
 11
-604.683060534205
 21
-311.9069844323235
 31
0.0
  0
LINE
  5
5AC
330
1F
100
AcDbEntity
  8
D-0
  6
Continuous
 62
     7
370
     9
100
AcDbLine
 10
-603.1827830149789
 20
-310.4067057210045
 30
0.0
 11
-603.1827830149789
 21
-311.9069844323235
 31
0.0
  0
LINE
  5
5AD
330
1F
100
AcDbEntity
  8
D-0
  6
Continuous
 62
     7
370
     9
100
AcDbLine
 10
-604.683060534205
 20
-310.4067057210045
 30
0.0
 11
-603.1827830149789
 21
-310.4067057210045
 31
0.0
  0
LINE
  5
5AE
330
1F
100
AcDbEntity
  8
D-0
  6
Continuous
 62
     7
370
     9
100
AcDbLine
 10
-604.683060534205
 20
-311.9069844323235
 30
0.0
 11
-604.683060534205
 21
-310.4067057210045
 31
0.0
  0
LINE
  5
5AF
330
1F
100
AcDbEntity
  8
D-0
  6
Continuous
 62
     7
370
     9
100
AcDbLine
 10
-631.374955065455
 20
-303.0554348069268
 30
0.0
 11
-632.875232584681
 21
-303.0554348069268
 31
0.0
  0
LINE
  5
5B0
330
1F
100
AcDbEntity
  8
D-0
  6
Continuous
 62
     7
370
     9
100
AcDbLine
 10
-631.374955065455
 20
-301.5551554995614
 30
0.0
 11
-631.374955065455
 21
-303.0554348069268
 31
0.0
  0
LINE
  5
5B1
330
1F
100
AcDbEntity
  8
D-0
  6
Continuous
 62
     7
370
     9
100
AcDbLine
 10
-632.875232584681
 20
-301.5551554995614
 30
0.0
 11
-631.374955065455
 21
-301.5551554995614
 31
0.0
  0
LINE
  5
5B2
330
1F
100
AcDbEntity
  8
D-0
  6
Continuous
 62
     7
370
     9
100
AcDbLine
 10
-632.875232584681
 20
-303.0554348069268
 30
0.0
 11
-632.875232584681
 21
-301.5551554995614
 31
0.0
  0
LINE
  5
5B3
330
1F
100
AcDbEntity
  8
D-0
  6
Continuous
 62
     7
370
     9
100
AcDbLine
 10
-455.7441567256112
 20
-515.0159817772942
 30
0.0
 11
-457.2444390132088
 21
-515.0159817772942
 31
0.0
  0
LINE
  5
5B4
330
1F
100
AcDbEntity
  8
D-0
  6
Continuous
 62
     7
370
     9
100
AcDbLine
 10
-455.7441567256112
 20
-513.5156994896965
 30
0.0
 11
-455.7441567256112
 21
-515.0159817772942
 31
0.0
  0
LINE
  5
5B5
330
1F
100
AcDbEntity
  8
D-0
  6
Continuous
 62
     7
370
     9
100
AcDbLine
 10
-457.2444390132088
 20
-513.5156994896965
 30
0.0
 11
-455.7441567256112
 21
-513.5156994896965
 31
0.0
  0
LINE
  5
5B6
330
1F
100
AcDbEntity
  8
D-0
  6
Continuous
 62
     7
370
     9
100
AcDbLine
 10
-457.2444390132088
 20
-515.0159817772942
 30
0.0
 11
-457.2444390132088
 21
-513.5156994896965
 31
0.0
  0
LINE
  5
5B7
330
1F
100
AcDbEntity
  8
D-0
  6
Continuous
 62
     7
370
     9
100
AcDbLine
 10
-446.4605568720955
 20
-443.5763245659905
 30
0.0
 11
-447.9608391596932
 21
-443.5763245659905
 31
0.0
  0
LINE
  5
5B8
330
1F
100
AcDbEntity
  8
D-0
  6
Continuous
 62
     7
370
     9
100
AcDbLine
 10
-446.4605568720955
 20
-442.0760422783928
 30
0.0
 11
-446.4605568720955
 21
-443.5763245659905
 31
0.0
  0
LINE
  5
5B9
330
1F
100
AcDbEntity
  8
D-0
  6
Continuous
 62
     7
370
     9
100
AcDbLine
 10
-447.9608391596932
 20
-442.0760422783928
 30
0.0
 11
-446.4605568720955
 21
-442.0760422783928
 31
0.0
  0
LINE
  5
5BA
330
1F
100
AcDbEntity
  8
D-0
  6
Continuous
 62
     7
370
     9
100
AcDbLine
 10
-447.9608391596932
 20
-443.5763245659905
 30
0.0
 11
-447.9608391596932
 21
-442.0760422783928
 31
0.0
  0
LINE
  5
5BB
330
1F
100
AcDbEntity
  8
D-0
  6
Continuous
 62
     7
370
     9
100
AcDbLine
 10
-478.3281182124276
 20
-487.4550419884758
 30
0.0
 11
-479.8279045893807
 21
-487.4550419884758
 31
0.0
  0
LINE
  5
5BC
330
1F
100
AcDbEntity
  8
D-0
  6
Continuous
 62
     7
370
     9
100
AcDbLine
 10
-478.3281182124276
 20
-485.9547597008782
 30
0.0
 11
-478.3281182124276
 21
-487.4550419884758
 31
0.0
  0
LINE
  5
5BD
330
1F
100
AcDbEntity
  8
D-0
  6
Continuous
 62
     7
370
     9
100
AcDbLine
 10
-479.8279045893807
 20
-485.9547597008782
 30
0.0
 11
-478.3281182124276
 21
-485.9547597008782
 31
0.0
  0
LINE
  5
5BE
330
1F
100
AcDbEntity
  8
D-0
  6
Continuous
 62
     7
370
     9
100
AcDbLine
 10
-479.8279045893807
 20
-487.4550419884758
 30
0.0
 11
-479.8279045893807
 21
-485.9547597008782
 31
0.0
  0
LINE
  5
5BF
330
1F
100
AcDbEntity
  8
D-0
  6
Continuous
 62
     7
370
     9
100
AcDbLine
 10
-421.0648011042733
 20
-519.0481167870598
 30
0.0
 11
-422.5650833918709
 21
-519.0481167870598
 31
0.0
  0
LINE
  5
5C0
330
1F
100
AcDbEntity
  8
D-0
  6
Continuous
 62
     7
370
     9
100
AcDbLine
 10
-421.0648011042733
 20
-517.5478344994622
 30
0.0
 11
-421.0648011042733
 21
-519.0481167870598
 31
0.0
  0
LINE
  5
5C1
330
1F
100
AcDbEntity
  8
D-0
  6
Continuous
 62
     7
370
     9
100
AcDbLine
 10
-422.5650833918709
 20
-517.5478344994622
 30
0.0
 11
-421.0648011042733
 21
-517.5478344994622
 31
0.0
  0
LINE
  5
5C2
330
1F
100
AcDbEntity
  8
D-0
  6
Continuous
 62
     7
370
     9
100
AcDbLine
 10
-422.5650833918709
 20
-519.0481167870598
 30
0.0
 11
-422.5650833918709
 21
-517.5478344994622
 31
0.0
  0
LINE
  5
5C3
330
1F
100
AcDbEntity
  8
D-0
  6
Continuous
 62
     7
370
     9
100
AcDbLine
 10
-492.1502159907479
 20
-521.0230427819329
 30
0.0
 11
-493.650002367701
 21
-521.0230427819329
 31
0.0
  0
LINE
  5
5C4
330
1F
100
AcDbEntity
  8
D-0
  6
Continuous
 62
     7
370
     9
100
AcDbLine
 10
-492.1502159907479
 20
-519.5227795678215
 30
0.0
 11
-492.1502159907479
 21
-521.0230427819329
 31
0.0
  0
LINE
  5
5C5
330
1F
100
AcDbEntity
  8
D-0
  6
Continuous
 62
     7
370
     9
100
AcDbLine
 10
-493.650002367701
 20
-519.5227795678215
 30
0.0
 11
-492.1502159907479
 21
-519.5227795678215
 31
0.0
  0
LINE
  5
5C6
330
1F
100
AcDbEntity
  8
D-0
  6
Continuous
 62
     7
370
     9
100
AcDbLine
 10
-493.650002367701
 20
-521.0230427819329
 30
0.0
 11
-493.650002367701
 21
-519.5227795678215
 31
0.0
  0
LINE
  5
5C7
330
1F
100
AcDbEntity
  8
D-0
  6
Continuous
 62
     7
370
     9
100
AcDbLine
 10
-443.8702439143319
 20
-486.3149624901848
 30
0.0
 11
-445.370030291285
 21
-486.3149624901848
 31
0.0
  0
LINE
  5
5C8
330
1F
100
AcDbEntity
  8
D-0
  6
Continuous
 62
     7
370
     9
100
AcDbLine
 10
-443.8702439143319
 20
-484.8146802025872
 30
0.0
 11
-443.8702439143319
 21
-486.3149624901848
 31
0.0
  0
LINE
  5
5C9
330
1F
100
AcDbEntity
  8
D-0
  6
Continuous
 62
     7
370
     9
100
AcDbLine
 10
-445.370030291285
 20
-484.8146802025872
 30
0.0
 11
-443.8702439143319
 21
-484.8146802025872
 31
0.0
  0
LINE
  5
5CA
330
1F
100
AcDbEntity
  8
D-0
  6
Continuous
 62
     7
370
     9
100
AcDbLine
 10
-445.370030291285
 20
-486.3149624901848
 30
0.0
 11
-445.370030291285
 21
-484.8146802025872
 31
0.0
  0
LINE
  5
5CB
330
1F
100
AcDbEntity
  8
D-0
  6
Continuous
 62
     7
370
     9
100
AcDbLine
 10
-426.9886444880623
 20
-465.7341939049797
 30
0.0
 11
-428.4889077021737
 21
-465.7341939049797
 31
0.0
  0
LINE
  5
5CC
330
1F
100
AcDbEntity
  8
D-0
  6
Continuous
 62
     7
370
     9
100
AcDbLine
 10
-426.9886444880623
 20
-464.2339116173821
 30
0.0
 11
-426.9886444880623
 21
-465.7341939049797
 31
0.0
  0
LINE
  5
5CD
330
1F
100
AcDbEntity
  8
D-0
  6
Continuous
 62
     7
370
     9
100
AcDbLine
 10
-428.4889077021737
 20
-464.2339116173821
 30
0.0
 11
-426.9886444880623
 21
-464.2339116173821
 31
0.0
  0
LINE
  5
5CE
330
1F
100
AcDbEntity
  8
D-0
  6
Continuous
 62
     7
370
     9
100
AcDbLine
 10
-428.4889077021737
 20
-465.7341939049797
 30
0.0
 11
-428.4889077021737
 21
-464.2339116173821
 31
0.0
  0
LINE
  5
5CF
330
1F
100
AcDbEntity
  8
D-0
  6
Continuous
 62
     7
370
     9
100
AcDbLine
 10
-476.3531731440682
 20
-457.8359204369622
 30
0.0
 11
-477.8534554316659
 21
-457.8359204369622
 31
0.0
  0
LINE
  5
5D0
330
1F
100
AcDbEntity
  8
D-0
  6
Continuous
 62
     7
370
     9
100
AcDbLine
 10
-476.3531731440682
 20
-456.3356381493645
 30
0.0
 11
-476.3531731440682
 21
-457.8359204369622
 31
0.0
  0
LINE
  5
5D1
330
1F
100
AcDbEntity
  8
D-0
  6
Continuous
 62
     7
370
     9
100
AcDbLine
 10
-477.8534554316659
 20
-456.3356381493645
 30
0.0
 11
-476.3531731440682
 21
-456.3356381493645
 31
0.0
  0
LINE
  5
5D2
330
1F
100
AcDbEntity
  8
D-0
  6
Continuous
 62
     7
370
     9
100
AcDbLine
 10
-477.8534554316659
 20
-457.8359204369622
 30
0.0
 11
-477.8534554316659
 21
-456.3356381493645
 31
0.0
  0
LINE
  5
5D3
330
1F
100
AcDbEntity
  8
D-0
  6
Continuous
 62
     7
370
     9
100
AcDbLine
 10
-393.0034493281502
 20
-334.5855837899285
 30
0.0
 11
-394.5037125422616
 21
-334.5855837899285
 31
0.0
  0
LINE
  5
5D4
330
1F
100
AcDbEntity
  8
D-0
  6
Continuous
 62
     7
370
     9
100
AcDbLine
 10
-393.0034493281502
 20
-333.0853015023308
 30
0.0
 11
-393.0034493281502
 21
-334.5855837899285
 31
0.0
  0
LINE
  5
5D5
330
1F
100
AcDbEntity
  8
D-0
  6
Continuous
 62
     7
370
     9
100
AcDbLine
 10
-394.5037125422616
 20
-333.0853015023308
 30
0.0
 11
-393.0034493281502
 21
-333.0853015023308
 31
0.0
  0
LINE
  5
5D6
330
1F
100
AcDbEntity
  8
D-0
  6
Continuous
 62
     7
370
     9
100
AcDbLine
 10
-394.5037125422616
 20
-334.5855837899285
 30
0.0
 11
-394.5037125422616
 21
-333.0853015023308
 31
0.0
  0
LINE
  5
5D7
330
1F
100
AcDbEntity
  8
D-0
  6
Continuous
 62
     7
370
     9
100
AcDbLine
 10
-239.0023468806405
 20
-345.4784613686638
 30
0.0
 11
-240.5026291682381
 21
-345.4784613686638
 31
0.0
  0
LINE
  5
5D8
330
1F
100
AcDbEntity
  8
D-0
  6
Continuous
 62
     7
370
     9
100
AcDbLine
 10
-239.0023468806405
 20
-343.9781838494378
 30
0.0
 11
-239.0023468806405
 21
-345.4784613686638
 31
0.0
  0
LINE
  5
5D9
330
1F
100
AcDbEntity
  8
D-0
  6
Continuous
 62
     7
370
     9
100
AcDbLine
 10
-240.5026291682381
 20
-343.9781838494378
 30
0.0
 11
-239.0023468806405
 21
-343.9781838494378
 31
0.0
  0
LINE
  5
5DA
330
1F
100
AcDbEntity
  8
D-0
  6
Continuous
 62
     7
370
     9
100
AcDbLine
 10
-240.5026291682381
 20
-345.4784613686638
 30
0.0
 11
-240.5026291682381
 21
-343.9781838494378
 31
0.0
  0
LINE
  5
5DB
330
1F
100
AcDbEntity
  8
D-0
  6
Continuous
 62
     7
370
     9
100
AcDbLine
 10
-299.4881867243905
 20
-384.9668294030266
 30
0.0
 11
-300.9879349543709
 21
-384.9668294030266
 31
0.0
  0
LINE
  5
5DC
330
1F
100
AcDbEntity
  8
D-0
  6
Continuous
 62
     7
370
     9
100
AcDbLine
 10
-299.4881867243905
 20
-383.466547115429
 30
0.0
 11
-299.4881867243905
 21
-384.9668294030266
 31
0.0
  0
LINE
  5
5DD
330
1F
100
AcDbEntity
  8
D-0
  6
Continuous
 62
     7
370
     9
100
AcDbLine
 10
-300.9879349543709
 20
-383.466547115429
 30
0.0
 11
-299.4881867243905
 21
-383.466547115429
 31
0.0
  0
LINE
  5
5DE
330
1F
100
AcDbEntity
  8
D-0
  6
Continuous
 62
     7
370
     9
100
AcDbLine
 10
-300.9879349543709
 20
-384.9668294030266
 30
0.0
 11
-300.9879349543709
 21
-383.466547115429
 31
0.0
  0
LINE
  5
5DF
330
1F
100
AcDbEntity
  8
D-0
  6
Continuous
 62
     7
370
     9
100
AcDbLine
 10
-258.458409197535
 20
-375.8492165642815
 30
0.0
 11
-259.9586914851326
 21
-375.8492165642815
 31
0.0
  0
LINE
  5
5E0
330
1F
100
AcDbEntity
  8
D-0
  6
Continuous
 62
     7
370
     9
100
AcDbLine
 10
-258.458409197535
 20
-374.3489342766838
 30
0.0
 11
-258.458409197535
 21
-375.8492165642815
 31
0.0
  0
LINE
  5
5E1
330
1F
100
AcDbEntity
  8
D-0
  6
Continuous
 62
     7
370
     9
100
AcDbLine
 10
-259.9586914851326
 20
-374.3489342766838
 30
0.0
 11
-258.458409197535
 21
-374.3489342766838
 31
0.0
  0
LINE
  5
5E2
330
1F
100
AcDbEntity
  8
D-0
  6
Continuous
 62
     7
370
     9
100
AcDbLine
 10
-259.9586914851326
 20
-375.8492165642815
 30
0.0
 11
-259.9586914851326
 21
-374.3489342766838
 31
0.0
  0
LINE
  5
5E3
330
1F
100
AcDbEntity
  8
D-0
  6
Continuous
 62
     7
370
     9
100
AcDbLine
 10
-246.2778137995858
 20
-415.7770615655022
 30
0.0
 11
-247.7780579402108
 21
-415.7770615655022
 31
0.0
  0
LINE
  5
5E4
330
1F
100
AcDbEntity
  8
D-0
  6
Continuous
 62
     7
370
     9
100
AcDbLine
 10
-246.2778137995858
 20
-414.2767792779046
 30
0.0
 11
-246.2778137995858
 21
-415.7770615655022
 31
0.0
  0
LINE
  5
5E5
330
1F
100
AcDbEntity
  8
D-0
  6
Continuous
 62
     7
370
     9
100
AcDbLine
 10
-247.7780579402108
 20
-414.2767792779046
 30
0.0
 11
-246.2778137995858
 21
-414.2767792779046
 31
0.0
  0
LINE
  5
5E6
330
1F
100
AcDbEntity
  8
D-0
  6
Continuous
 62
     7
370
     9
100
AcDbLine
 10
-247.7780579402108
 20
-415.7770615655022
 30
0.0
 11
-247.7780579402108
 21
-414.2767792779046
 31
0.0
  0
LINE
  5
5E7
330
1F
100
AcDbEntity
  8
D-0
  6
Continuous
 62
     7
370
     9
100
AcDbLine
 10
-300.9988449885506
 20
-422.5322800713616
 30
0.0
 11
-302.4986313655037
 21
-422.5322800713616
 31
0.0
  0
LINE
  5
5E8
330
1F
100
AcDbEntity
  8
D-0
  6
Continuous
 62
     7
370
     9
100
AcDbLine
 10
-300.9988449885506
 20
-421.0319977837639
 30
0.0
 11
-300.9988449885506
 21
-422.5322800713616
 31
0.0
  0
LINE
  5
5E9
330
1F
100
AcDbEntity
  8
D-0
  6
Continuous
 62
     7
370
     9
100
AcDbLine
 10
-302.4986313655037
 20
-421.0319977837639
 30
0.0
 11
-300.9988449885506
 21
-421.0319977837639
 31
0.0
  0
LINE
  5
5EA
330
1F
100
AcDbEntity
  8
D-0
  6
Continuous
 62
     7
370
     9
100
AcDbLine
 10
-302.4986313655037
 20
-422.5322800713616
 30
0.0
 11
-302.4986313655037
 21
-421.0319977837639
 31
0.0
  0
LINE
  5
5EB
330
1F
100
AcDbEntity
  8
D-0
  6
Continuous
 62
     7
370
     9
100
AcDbLine
 10
-353.2034348323006
 20
-417.8074914055901
 30
0.0
 11
-354.7037171198983
 21
-417.8074914055901
 31
0.0
  0
LINE
  5
5EC
330
1F
100
AcDbEntity
  8
D-0
  6
Continuous
 62
     7
370
     9
100
AcDbLine
 10
-353.2034348323006
 20
-416.3072091179924
 30
0.0
 11
-353.2034348323006
 21
-417.8074914055901
 31
0.0
  0
LINE
  5
5ED
330
1F
100
AcDbEntity
  8
D-0
  6
Continuous
 62
     7
370
     9
100
AcDbLine
 10
-354.7037171198983
 20
-416.3072091179924
 30
0.0
 11
-353.2034348323006
 21
-416.3072091179924
 31
0.0
  0
LINE
  5
5EE
330
1F
100
AcDbEntity
  8
D-0
  6
Continuous
 62
     7
370
     9
100
AcDbLine
 10
-354.7037171198983
 20
-417.8074914055901
 30
0.0
 11
-354.7037171198983
 21
-416.3072091179924
 31
0.0
  0
LINE
  5
5EF
330
1F
100
AcDbEntity
  8
D-0
  6
Continuous
 62
     7
370
     9
100
AcDbLine
 10
-390.5468987300057
 20
-409.2651158410149
 30
0.0
 11
-392.0471810176034
 21
-409.2651158410149
 31
0.0
  0
LINE
  5
5F0
330
1F
100
AcDbEntity
  8
D-0
  6
Continuous
 62
     7
370
     9
100
AcDbLine
 10
-390.5468987300057
 20
-407.7648335534172
 30
0.0
 11
-390.5468987300057
 21
-409.2651158410149
 31
0.0
  0
LINE
  5
5F1
330
1F
100
AcDbEntity
  8
D-0
  6
Continuous
 62
     7
370
     9
100
AcDbLine
 10
-392.0471810176034
 20
-407.7648335534172
 30
0.0
 11
-390.5468987300057
 21
-407.7648335534172
 31
0.0
  0
LINE
  5
5F2
330
1F
100
AcDbEntity
  8
D-0
  6
Continuous
 62
     7
370
     9
100
AcDbLine
 10
-392.0471810176034
 20
-409.2651158410149
 30
0.0
 11
-392.0471810176034
 21
-407.7648335534172
 31
0.0
  0
LINE
  5
5F3
330
1F
100
AcDbEntity
  8
D-0
  6
Continuous
 62
     7
370
     9
100
AcDbLine
 10
-379.822983629908
 20
-368.045085056408
 30
0.0
 11
-381.3227700068612
 21
-368.045085056408
 31
0.0
  0
LINE
  5
5F4
330
1F
100
AcDbEntity
  8
D-0
  6
Continuous
 62
     7
370
     9
100
AcDbLine
 10
-379.822983629908
 20
-366.5448027688103
 30
0.0
 11
-379.822983629908
 21
-368.045085056408
 31
0.0
  0
LINE
  5
5F5
330
1F
100
AcDbEntity
  8
D-0
  6
Continuous
 62
     7
370
     9
100
AcDbLine
 10
-381.3227700068612
 20
-366.5448027688103
 30
0.0
 11
-379.822983629908
 21
-366.5448027688103
 31
0.0
  0
LINE
  5
5F6
330
1F
100
AcDbEntity
  8
D-0
  6
Continuous
 62
     7
370
     9
100
AcDbLine
 10
-381.3227700068612
 20
-368.045085056408
 30
0.0
 11
-381.3227700068612
 21
-366.5448027688103
 31
0.0
  0
LINE
  5
5F7
330
1F
100
AcDbEntity
  8
D-0
  6
Continuous
 62
     7
370
     9
100
AcDbLine
 10
-348.4662293269295
 20
-382.616823299511
 30
0.0
 11
-349.9665116145272
 21
-382.616823299511
 31
0.0
  0
LINE
  5
5F8
330
1F
100
AcDbEntity
  8
D-0
  6
Continuous
 62
     7
370
     9
100
AcDbLine
 10
-348.4662293269295
 20
-381.1165410119133
 30
0.0
 11
-348.4662293269295
 21
-382.616823299511
 31
0.0
  0
LINE
  5
5F9
330
1F
100
AcDbEntity
  8
D-0
  6
Continuous
 62
     7
370
     9
100
AcDbLine
 10
-349.9665116145272
 20
-381.1165410119133
 30
0.0
 11
-348.4662293269295
 21
-381.1165410119133
 31
0.0
  0
LINE
  5
5FA
330
1F
100
AcDbEntity
  8
D-0
  6
Continuous
 62
     7
370
     9
100
AcDbLine
 10
-349.9665116145272
 20
-382.616823299511
 30
0.0
 11
-349.9665116145272
 21
-381.1165410119133
 31
0.0
  0
LINE
  5
5FB
330
1F
100
AcDbEntity
  8
D-0
  6
Continuous
 62
     7
370
     9
100
AcDbLine
 10
-331.3571976496834
 20
-348.6499577599602
 30
0.0
 11
-332.8569840266366
 21
-348.6499577599602
 31
0.0
  0
LINE
  5
5FC
330
1F
100
AcDbEntity
  8
D-0
  6
Continuous
 62
     7
370
     9
100
AcDbLine
 10
-331.3571976496834
 20
-347.1496802407341
 30
0.0
 11
-331.3571976496834
 21
-348.6499577599602
 31
0.0
  0
LINE
  5
5FD
330
1F
100
AcDbEntity
  8
D-0
  6
Continuous
 62
     7
370
     9
100
AcDbLine
 10
-332.8569840266366
 20
-347.1496802407341
 30
0.0
 11
-331.3571976496834
 21
-347.1496802407341
 31
0.0
  0
LINE
  5
5FE
330
1F
100
AcDbEntity
  8
D-0
  6
Continuous
 62
     7
370
     9
100
AcDbLine
 10
-332.8569840266366
 20
-348.6499577599602
 30
0.0
 11
-332.8569840266366
 21
-347.1496802407341
 31
0.0
  0
LINE
  5
5FF
330
1F
100
AcDbEntity
  8
D-0
  6
Continuous
 62
     7
370
     9
100
AcDbLine
 10
-280.7916687800545
 20
-344.7189074593621
 30
0.0
 11
-282.2919510676522
 21
-344.7189074593621
 31
0.0
  0
LINE
  5
600
330
1F
100
AcDbEntity
  8
D-0
  6
Continuous
 62
     7
370
     9
100
AcDbLine
 10
-280.7916687800545
 20
-343.218629940136
 30
0.0
 11
-280.7916687800545
 21
-344.7189074593621
 31
0.0
  0
LINE
  5
601
330
1F
100
AcDbEntity
  8
D-0
  6
Continuous
 62
     7
370
     9
100
AcDbLine
 10
-282.2919510676522
 20
-343.218629940136
 30
0.0
 11
-280.7916687800545
 21
-343.218629940136
 31
0.0
  0
LINE
  5
602
330
1F
100
AcDbEntity
  8
D-0
  6
Continuous
 62
     7
370
     9
100
AcDbLine
 10
-282.2919510676522
 20
-344.7189074593621
 30
0.0
 11
-282.2919510676522
 21
-343.218629940136
 31
0.0
  0
LINE
  5
603
330
1F
100
AcDbEntity
  8
D-0
  6
Continuous
 62
     7
370
     9
100
AcDbLine
 10
-256.4289521052498
 20
-312.2349852162438
 30
0.0
 11
-257.9292343928475
 21
-312.2349852162438
 31
0.0
  0
LINE
  5
604
330
1F
100
AcDbEntity
  8
D-0
  6
Continuous
 62
     7
370
     9
100
AcDbLine
 10
-256.4289521052498
 20
-310.7347053128319
 30
0.0
 11
-256.4289521052498
 21
-312.2349852162438
 31
0.0
  0
LINE
  5
605
330
1F
100
AcDbEntity
  8
D-0
  6
Continuous
 62
     7
370
     9
100
AcDbLine
 10
-257.9292343928475
 20
-310.7347053128319
 30
0.0
 11
-256.4289521052498
 21
-310.7347053128319
 31
0.0
  0
LINE
  5
606
330
1F
100
AcDbEntity
  8
D-0
  6
Continuous
 62
     7
370
     9
100
AcDbLine
 10
-257.9292343928475
 20
-312.2349852162438
 30
0.0
 11
-257.9292343928475
 21
-310.7347053128319
 31
0.0
  0
LINE
  5
607
330
1F
100
AcDbEntity
  8
D-0
  6
Continuous
 62
     7
370
     9
100
AcDbLine
 10
-321.3962982966561
 20
-314.2654162484246
 30
0.0
 11
-322.8965805842537
 21
-314.2654162484246
 31
0.0
  0
LINE
  5
608
330
1F
100
AcDbEntity
  8
D-0
  6
Continuous
 62
     7
370
     9
100
AcDbLine
 10
-321.3962982966561
 20
-312.7651363450127
 30
0.0
 11
-321.3962982966561
 21
-314.2654162484246
 31
0.0
  0
LINE
  5
609
330
1F
100
AcDbEntity
  8
D-0
  6
Continuous
 62
     7
370
     9
100
AcDbLine
 10
-322.8965805842537
 20
-312.7651363450127
 30
0.0
 11
-321.3962982966561
 21
-312.7651363450127
 31
0.0
  0
LINE
  5
60A
330
1F
100
AcDbEntity
  8
D-0
  6
Continuous
 62
     7
370
     9
100
AcDbLine
 10
-322.8965805842537
 20
-314.2654162484246
 30
0.0
 11
-322.8965805842537
 21
-312.7651363450127
 31
0.0
  0
LINE
  5
60B
330
1F
100
AcDbEntity
  8
D-0
  6
Continuous
 62
     7
370
     9
100
AcDbLine
 10
-372.1526192500252
 20
-311.5581744748192
 30
0.0
 11
-373.6524056269784
 21
-311.5581744748192
 31
0.0
  0
LINE
  5
60C
330
1F
100
AcDbEntity
  8
D-0
  6
Continuous
 62
     7
370
     9
100
AcDbLine
 10
-372.1526192500252
 20
-310.0578945714074
 30
0.0
 11
-372.1526192500252
 21
-311.5581744748192
 31
0.0
  0
LINE
  5
60D
330
1F
100
AcDbEntity
  8
D-0
  6
Continuous
 62
     7
370
     9
100
AcDbLine
 10
-373.6524056269784
 20
-310.0578945714074
 30
0.0
 11
-372.1526192500252
 21
-310.0578945714074
 31
0.0
  0
LINE
  5
60E
330
1F
100
AcDbEntity
  8
D-0
  6
Continuous
 62
     7
370
     9
100
AcDbLine
 10
-373.6524056269784
 20
-311.5581744748192
 30
0.0
 11
-373.6524056269784
 21
-310.0578945714074
 31
0.0
  0
TEXT
  5
60F
330
1F
100
AcDbEntity
  8
D-4
  6
Continuous
 62
     2
370
     9
100
AcDbText
 10
-956.6206127976191
 20
-274.3585534997888
 30
0.0
 40
30.48
  1
25
 50
90.0
 41
1.0625
  7
ＭＳ ゴシック
100
AcDbText
  0
LINE
  5
610
330
1F
100
AcDbEntity
  8
D-4
  6
Continuous
 62
     7
370
     9
100
AcDbLine
 10
-945.9803488618082
 20
-290.6082235800253
 30
0.0
 11
-945.9803488618082
 21
-231.8585534997888
 31
0.0
  0
ENDSEC
  0
SECTION
  2
OBJECTS
  0
DICTIONARY
  5
C
330
0
100
AcDbDictionary
281
     1
  3
ACAD_GROUP
350
D
  3
ACAD_LAYOUT
350
1A
  3
ACAD_MLEADERSTYLE
350
612
  3
ACAD_MLINESTYLE
350
17
  3
ACAD_PLOTSETTINGS
350
19
  3
ACAD_PLOTSTYLENAME
350
E
  3
ACAD_TABLESTYLE
350
611
  3
ACAD_VISUALSTYLE
350
2A
  0
DICTIONARY
  5
D
102
{ACAD_REACTORS
330
C
102
}
330
C
100
AcDbDictionary
281
     1
  0
DICTIONARY
  5
1A
102
{ACAD_REACTORS
330
C
102
}
330
C
100
AcDbDictionary
281
     1
  3
Layout1
350
1E
  3
Layout2
350
26
  3
Model
350
22
  0
DICTIONARY
  5
612
102
{ACAD_REACTORS
330
C
102
}
330
C
100
AcDbDictionary
281
     1
  0
DICTIONARY
  5
17
102
{ACAD_REACTORS
330
C
102
}
330
C
100
AcDbDictionary
281
     1
  3
Standard
350
18
  0
DICTIONARY
  5
19
102
{ACAD_REACTORS
330
C
102
}
330
C
100
AcDbDictionary
281
     1
  0
ACDBDICTIONARYWDFLT
  5
E
102
{ACAD_REACTORS
330
C
102
}
330
C
100
AcDbDictionary
281
     1
  3
Normal
350
F
100
AcDbDictionaryWithDefault
340
F
  0
DICTIONARY
  5
611
102
{ACAD_REACTORS
330
C
102
}
330
C
100
AcDbDictionary
281
     1
  0
DICTIONARY
  5
2A
102
{ACAD_REACTORS
330
C
102
}
330
C
100
AcDbDictionary
281
     1
  3
2dWireframe
350
2F
  3
3D Hidden
350
31
  3
3dWireframe
350
30
  3
Basic
350
32
  3
Brighten
350
36
  3
ColorChange
350
3A
  3
Conceptual
350
34
  3
Dim
350
35
  3
Facepattern
350
39
  3
Flat
350
2B
  3
FlatWithEdges
350
2C
  3
Gouraud
350
2D
  3
GouraudWithEdges
350
2E
  3
Linepattern
350
38
  3
Realistic
350
33
  3
Thicken
350
37
  0
LAYOUT
  5
1E
102
{ACAD_REACTORS
330
1A
102
}
330
1A
100
AcDbPlotSettings
  1

  2
none_device
  4

  6

 40
0.0
 41
0.0
 42
0.0
 43
0.0
 44
0.0
 45
0.0
 46
0.0
 47
0.0
 48
0.0
 49
0.0
140
0.0
141
0.0
142
1.0
143
1.0
 70
   688
 72
     0
 73
     0
 74
     5
  7

 75
    16
 76
     0
 77
     5
 78
   300
147
1.0
148
0.0
149
0.0
100
AcDbLayout
  1
Layout1
 70
     1
 71
     1
 10
0.0
 20
0.0
 11
420.0
 21
297.0
 12
0.0
 22
0.0
 32
0.0
 14
1.000000000000000E+20
 24
1.000000000000000E+20
 34
1.000000000000000E+20
 15
-1.000000000000000E+20
 25
-1.000000000000000E+20
 35
-1.000000000000000E+20
146
0.0
 13
0.0
 23
0.0
 33
0.0
 16
1.0
 26
0.0
 36
0.0
 17
0.0
 27
1.0
 37
0.0
 76
     0
330
1B
  0
LAYOUT
  5
26
102
{ACAD_REACTORS
330
1A
102
}
330
1A
100
AcDbPlotSettings
  1

  2
none_device
  4

  6

 40
0.0
 41
0.0
 42
0.0
 43
0.0
 44
0.0
 45
0.0
 46
0.0
 47
0.0
 48
0.0
 49
0.0
140
0.0
141
0.0
142
1.0
143
1.0
 70
   688
 72
     0
 73
     0
 74
     5
  7

 75
    16
 76
     0
 77
     5
 78
   300
147
1.0
148
0.0
149
0.0
100
AcDbLayout
  1
Layout2
 70
     1
 71
     2
 10
0.0
 20
0.0
 11
0.0
 21
0.0
 12
0.0
 22
0.0
 32
0.0
 14
0.0
 24
0.0
 34
0.0
 15
0.0
 25
0.0
 35
0.0
146
0.0
 13
0.0
 23
0.0
 33
0.0
 16
1.0
 26
0.0
 36
0.0
 17
0.0
 27
1.0
 37
0.0
 76
     0
330
23
  0
LAYOUT
  5
22
102
{ACAD_REACTORS
330
1A
102
}
330
1A
100
AcDbPlotSettings
  1

  2
none_device
  4

  6

 40
0.0
 41
0.0
 42
0.0
 43
0.0
 44
0.0
 45
0.0
 46
0.0
 47
0.0
 48
0.0
 49
0.0
140
0.0
141
0.0
142
1.0
143
1.0
 70
  1712
 72
     0
 73
     0
 74
     0
  7

 75
     0
 76
     0
 77
     5
 78
   300
147
1.0
148
0.0
149
0.0
100
AcDbLayout
  1
Model
 70
     1
 71
     0
 10
-2100.0
 20
-1485.0
 11
2100.0
 21
1485.0
 12
0.0
 22
0.0
 32
0.0
 14
-2100.0
 24
-1485.0
 34
0.0
 15
2100.0
 25
1485.0
 35
0.0
146
0.0
 13
0.0
 23
0.0
 33
0.0
 16
1.0
 26
0.0
 36
0.0
 17
0.0
 27
1.0
 37
0.0
 76
     0
330
1F
331
29
  0
MLINESTYLE
  5
18
102
{ACAD_REACTORS
330
17
102
}
330
17
100
AcDbMlineStyle
  2
Standard
 70
     0
  3

 62
   256
 51
90.0
 52
90.0
 71
     2
 49
0.5
 62
   256
  6
BYLAYER
 49
-0.5
 62
   256
  6
BYLAYER
  0
ACDBPLACEHOLDER
  5
F
102
{ACAD_REACTORS
330
E
102
}
330
E
  0
VISUALSTYLE
  5
2F
102
{ACAD_REACTORS
330
2A
102
}
330
2A
100
AcDbVisualStyle
  2
2dWireframe
 70
     4
 71
     0
 72
     2
 73
     0
 90
        0
 40
-0.6
 41
-30.0
 62
     5
 63
     7
421
 16777215
 74
     1
 91
        4
 64
     7
 65
   257
 75
     1
175
     1
 42
1.0
 92
        0
 66
   257
 43
1.0
 76
     1
 77
     6
 78
     2
 67
     7
 79
     5
170
     0
171
     0
290
     0
174
     0
 93
        1
 44
0.0
173
     0
291
     0
 45
0.0
  0
VISUALSTYLE
  5
31
102
{ACAD_REACTORS
330
2A
102
}
330
2A
100
AcDbVisualStyle
  2
3D Hidden
 70
     6
 71
     1
 72
     2
 73
     2
 90
        0
 40
-0.6
 41
-30.0
 62
     5
 63
     7
421
 16777215
 74
     2
 91
        2
 64
     7
 65
   257
 75
     2
175
     1
 42
40.0
 92
        0
 66
   257
 43
1.0
 76
     1
 77
     6
 78
     2
 67
     7
 79
     3
170
     0
171
     0
290
     0
174
     0
 93
        1
 44
0.0
173
     0
291
     0
 45
0.0
  0
VISUALSTYLE
  5
30
102
{ACAD_REACTORS
330
2A
102
}
330
2A
100
AcDbVisualStyle
  2
3dWireframe
 70
     5
 71
     0
 72
     2
 73
     0
 90
        0
 40
-0.6
 41
-30.0
 62
     5
 63
     7
421
 16777215
 74
     1
 91
        4
 64
     7
 65
   257
 75
     1
175
     1
 42
1.0
 92
        0
 66
   257
 43
1.0
 76
     1
 77
     6
 78
     2
 67
     7
 79
     5
170
     0
171
     0
290
     0
174
     0
 93
        1
 44
0.0
173
     0
291
     0
 45
0.0
  0
VISUALSTYLE
  5
32
102
{ACAD_REACTORS
330
2A
102
}
330
2A
100
AcDbVisualStyle
  2
Basic
 70
     7
 71
     1
 72
     0
 73
     1
 90
        0
 40
-0.6
 41
-30.0
 62
     5
 63
     7
421
 16777215
 74
     0
 91
        4
 64
     7
 65
   257
 75
     1
175
     1
 42
1.0
 92
        8
 66
     7
 43
1.0
 76
     1
 77
     6
 78
     2
 67
     7
 79
     5
170
     0
171
     0
290
     0
174
     0
 93
        1
 44
0.0
173
     0
291
     1
 45
0.0
  0
VISUALSTYLE
  5
36
102
{ACAD_REACTORS
330
2A
102
}
330
2A
100
AcDbVisualStyle
  2
Brighten
 70
    12
 71
     2
 72
     2
 73
     0
 90
        0
 40
-0.6
 41
-30.0
 62
     5
 63
     7
421
 16777215
 74
     1
 91
        4
 64
     7
 65
   257
 75
     1
175
     1
 42
1.0
 92
        8
 66
     7
 43
1.0
 76
     1
 77
     6
 78
     2
 67
     7
 79
     5
170
     0
171
     0
290
     0
174
     0
 93
        1
 44
50.0
173
     0
291
     1
 45
0.0
  0
VISUALSTYLE
  5
3A
102
{ACAD_REACTORS
330
2A
102
}
330
2A
100
AcDbVisualStyle
  2
ColorChange
 70
    16
 71
     2
 72
     2
 73
     3
 90
        0
 40
-0.6
 41
-30.0
 62
     5
 63
     8
421
  8421504
 74
     1
 91
        4
 64
     7
 65
   257
 75
     1
175
     1
 42
1.0
 92
        8
 66
     8
424
  8421504
 43
1.0
 76
     1
 77
     6
 78
     2
 67
     7
 79
     5
170
     0
171
     0
290
     0
174
     0
 93
        1
 44
0.0
173
     0
291
     1
 45
0.0
  0
VISUALSTYLE
  5
34
102
{ACAD_REACTORS
330
2A
102
}
330
2A
100
AcDbVisualStyle
  2
Conceptual
 70
     9
 71
     3
 72
     2
 73
     0
 90
        0
 40
-0.6
 41
-30.0
 62
     5
 63
     7
421
 16777215
 74
     2
 91
        2
 64
     7
 65
   257
 75
     1
175
     1
 42
40.0
 92
        8
 66
     7
 43
1.0
 76
     1
 77
     6
 78
     2
 67
     7
 79
     3
170
     0
171
     0
290
     0
174
     0
 93
        1
 44
0.0
173
     0
291
     0
 45
0.0
  0
VISUALSTYLE
  5
35
102
{ACAD_REACTORS
330
2A
102
}
330
2A
100
AcDbVisualStyle
  2
Dim
 70
    11
 71
     2
 72
     2
 73
     0
 90
        0
 40
-0.6
 41
-30.0
 62
     5
 63
     7
421
 16777215
 74
     1
 91
        4
 64
     7
 65
   257
 75
     1
175
     1
 42
1.0
 92
        8
 66
     7
 43
1.0
 76
     1
 77
     6
 78
     2
 67
     7
 79
     5
170
     0
171
     0
290
     0
174
     0
 93
        1
 44
-50.0
173
     0
291
     1
 45
0.0
  0
VISUALSTYLE
  5
39
102
{ACAD_REACTORS
330
2A
102
}
330
2A
100
AcDbVisualStyle
  2
Facepattern
 70
    15
 71
     2
 72
     2
 73
     0
 90
        0
 40
-0.6
 41
-30.0
 62
     5
 63
     7
421
 16777215
 74
     1
 91
        4
 64
     7
 65
   257
 75
     1
175
     1
 42
1.0
 92
        8
 66
     7
 43
1.0
 76
     1
 77
     6
 78
     2
 67
     7
 79
     5
170
     0
171
     0
290
     0
174
     0
 93
        1
 44
0.0
173
     0
291
     1
 45
0.0
  0
VISUALSTYLE
  5
2B
102
{ACAD_REACTORS
330
2A
102
}
330
2A
100
AcDbVisualStyle
  2
Flat
 70
     0
 71
     2
 72
     1
 73
     1
 90
        2
 40
-0.6
 41
30.0
 62
     5
 63
     7
421
 16777215
 74
     0
 91
        4
 64
     7
 65
   257
 75
     1
175
     1
 42
1.0
 92
        8
 66
     7
 43
1.0
 76
     1
 77
     6
 78
     2
 67
     7
 79
     5
170
     0
171
     0
290
     0
174
     0
 93
       13
 44
0.0
173
     0
291
     1
 45
0.0
  0
VISUALSTYLE
  5
2C
102
{ACAD_REACTORS
330
2A
102
}
330
2A
100
AcDbVisualStyle
  2
FlatWithEdges
 70
     1
 71
     2
 72
     1
 73
     1
 90
        2
 40
-0.6
 41
30.0
 62
     5
 63
     7
421
 16777215
 74
     1
 91
        4
 64
     7
 65
   257
 75
     1
175
     1
 42
1.0
 92
        0
 66
   257
 43
1.0
 76
     1
 77
     6
 78
     2
 67
     7
 79
     5
170
     0
171
     0
290
     0
174
     0
 93
       13
 44
0.0
173
     0
291
     1
 45
0.0
  0
VISUALSTYLE
  5
2D
102
{ACAD_REACTORS
330
2A
102
}
330
2A
100
AcDbVisualStyle
  2
Gouraud
 70
     2
 71
     2
 72
     2
 73
     1
 90
        2
 40
-0.6
 41
30.0
 62
     5
 63
     7
421
 16777215
 74
     0
 91
        4
 64
     7
 65
   257
 75
     1
175
     1
 42
1.0
 92
        0
 66
     7
 43
1.0
 76
     1
 77
     6
 78
     2
 67
     7
 79
     5
170
     0
171
     0
290
     0
174
     0
 93
       13
 44
0.0
173
     0
291
     1
 45
0.0
  0
VISUALSTYLE
  5
2E
102
{ACAD_REACTORS
330
2A
102
}
330
2A
100
AcDbVisualStyle
  2
GouraudWithEdges
 70
     3
 71
     2
 72
     2
 73
     1
 90
        2
 40
-0.6
 41
30.0
 62
     5
 63
     7
421
 16777215
 74
     1
 91
        4
 64
     7
 65
   257
 75
     1
175
     1
 42
1.0
 92
        0
 66
   257
 43
1.0
 76
     1
 77
     6
 78
     2
 67
     7
 79
     5
170
     0
171
     0
290
     0
174
     0
 93
       13
 44
0.0
173
     0
291
     1
 45
0.0
  0
VISUALSTYLE
  5
38
102
{ACAD_REACTORS
330
2A
102
}
330
2A
100
AcDbVisualStyle
  2
Linepattern
 70
    14
 71
     2
 72
     2
 73
     0
 90
        0
 40
-0.6
 41
-30.0
 62
     5
 63
     7
421
 16777215
 74
     1
 91
        4
 64
     7
 65
   257
 75
     7
175
     7
 42
1.0
 92
        8
 66
     7
 43
1.0
 76
     1
 77
     6
 78
     2
 67
     7
 79
     5
170
     0
171
     0
290
     0
174
     0
 93
        1
 44
0.0
173
     0
291
     1
 45
0.0
  0
VISUALSTYLE
  5
33
102
{ACAD_REACTORS
330
2A
102
}
330
2A
100
AcDbVisualStyle
  2
Realistic
 70
     8
 71
     2
 72
     2
 73
     0
 90
        0
 40
-0.6
 41
-30.0
 62
     5
 63
     7
421
 16777215
 74
     1
 91
        0
 64
     7
 65
   257
 75
     1
175
     1
 42
1.0
 92
        8
 66
     8
424
  7895160
 43
1.0
 76
     1
 77
     6
 78
     2
 67
     7
 79
     5
170
     0
171
     0
290
     0
174
     0
 93
       13
 44
0.0
173
     0
291
     0
 45
0.0
  0
VISUALSTYLE
  5
37
102
{ACAD_REACTORS
330
2A
102
}
330
2A
100
AcDbVisualStyle
  2
Thicken
 70
    13
 71
     2
 72
     2
 73
     0
 90
        0
 40
-0.6
 41
-30.0
 62
     5
 63
     7
421
 16777215
 74
     1
 91
        4
 64
     7
 65
   257
 75
     1
175
     1
 42
1.0
 92
       12
 66
     7
 43
1.0
 76
     1
 77
     6
 78
     2
 67
     7
 79
     5
170
     0
171
     0
290
     0
174
     0
 93
        1
 44
0.0
173
     0
291
     1
 45
0.0
  0
ENDSEC
  0
EOF
