  0
SECTION
  2
HEADER
  9
$ACADVER
  1
AC1018
  9
$ACADMAINTVER
 70
     0
  9
$DWGCODEPAGE
  3
ANSI_932
  9
$INSBASE
 10
0.0
 20
0.0
 30
0.0
  9
$EXTMIN
 10
-2100.0
 20
-1485.0
 30
0.0
  9
$EXTMAX
 10
2100.0
 20
1485.0
 30
0.0
  9
$LIMMIN
 10
-2100.0
 20
-1485.0
  9
$LIMMAX
 10
2100.0
 20
1485.0
  9
$ORTHOMODE
 70
     0
  9
$REGENMODE
 70
     1
  9
$FILLMODE
 70
     1
  9
$QTEXTMODE
 70
     0
  9
$MIRRTEXT
 70
     1
  9
$LTSCALE
 40
10.0
  9
$ATTMODE
 70
     1
  9
$TEXTSIZE
 40
2.5
  9
$TRACEWID
 40
1.0
  9
$TEXTSTYLE
  7
Standard
  9
$CLAYER
  8
0
  9
$CELTYPE
  6
ByLayer
  9
$CECOLOR
 62
   256
  9
$CELTSCALE
 40
1.0
  9
$DISPSILH
 70
     0
  9
$DIMSCALE
 40
1.0
  9
$DIMASZ
 40
2.5
  9
$DIMEXO
 40
0.625
  9
$DIMDLI
 40
3.75
  9
$DIMRND
 40
0.0
  9
$DIMDLE
 40
0.0
  9
$DIMEXE
 40
1.25
  9
$DIMTP
 40
0.0
  9
$DIMTM
 40
0.0
  9
$DIMTXT
 40
2.5
  9
$DIMCEN
 40
2.5
  9
$DIMTSZ
 40
0.0
  9
$DIMTOL
 70
     0
  9
$DIMLIM
 70
     0
  9
$DIMTIH
 70
     0
  9
$DIMTOH
 70
     0
  9
$DIMSE1
 70
     0
  9
$DIMSE2
 70
     0
  9
$DIMTAD
 70
     1
  9
$DIMZIN
 70
     8
  9
$DIMBLK
  1

  9
$DIMASO
 70
     1
  9
$DIMSHO
 70
     1
  9
$DIMPOST
  1

  9
$DIMAPOST
  1

  9
$DIMALT
 70
     0
  9
$DIMALTD
 70
     3
  9
$DIMALTF
 40
0.03937007874016
  9
$DIMLFAC
 40
1.0
  9
$DIMTOFL
 70
     1
  9
$DIMTVP
 40
0.0
  9
$DIMTIX
 70
     0
  9
$DIMSOXD
 70
     0
  9
$DIMSAH
 70
     0
  9
$DIMBLK1
  1

  9
$DIMBLK2
  1

  9
$DIMSTYLE
  2
ISO-25
  9
$DIMCLRD
 70
     0
  9
$DIMCLRE
 70
     0
  9
$DIMCLRT
 70
     0
  9
$DIMTFAC
 40
1.0
  9
$DIMGAP
 40
0.625
  9
$DIMJUST
 70
     0
  9
$DIMSD1
 70
     0
  9
$DIMSD2
 70
     0
  9
$DIMTOLJ
 70
     0
  9
$DIMTZIN
 70
     8
  9
$DIMALTZ
 70
     0
  9
$DIMALTTZ
 70
     0
  9
$DIMUPT
 70
     0
  9
$DIMDEC
 70
     2
  9
$DIMTDEC
 70
     2
  9
$DIMALTU
 70
     2
  9
$DIMALTTD
 70
     3
  9
$DIMTXSTY
  7
Standard
  9
$DIMAUNIT
 70
     0
  9
$DIMADEC
 70
     0
  9
$DIMALTRND
 40
0.0
  9
$DIMAZIN
 70
     0
  9
$DIMDSEP
 70
    44
  9
$DIMATFIT
 70
     3
  9
$DIMFRAC
 70
     0
  9
$DIMLDRBLK
  1

  9
$DIMLUNIT
 70
     2
  9
$DIMLWD
 70
    -2
  9
$DIMLWE
 70
    -2
  9
$DIMTMOVE
 70
     0
  9
$LUNITS
 70
     2
  9
$LUPREC
 70
     4
  9
$SKETCHINC
 40
1.0
  9
$FILLETRAD
 40
10.0
  9
$AUNITS
 70
     0
  9
$AUPREC
 70
     0
  9
$MENU
  1
.
  9
$ELEVATION
 40
0.0
  9
$PELEVATION
 40
0.0
  9
$THICKNESS
 40
0.0
  9
$LIMCHECK
 70
     0
  9
$CHAMFERA
 40
0.0
  9
$CHAMFERB
 40
0.0
  9
$CHAMFERC
 40
0.0
  9
$CHAMFERD
 40
0.0
  9
$SKPOLY
 70
     0
  9
$TDCREATE
 40
2458289.437158021
  9
$TDUCREATE
 40
2458289.062158021
  9
$TDUPDATE
 40
2458289.437158113
  9
$TDUUPDATE
 40
2458289.062158113
  9
$TDINDWG
 40
0.0000000116
  9
$TDUSRTIMER
 40
0.0000000116
  9
$USRTIMER
 70
     1
  9
$ANGBASE
 50
0.0
  9
$ANGDIR
 70
     0
  9
$PDMODE
 70
     0
  9
$PDSIZE
 40
0.0
  9
$PLINEWID
 40
0.0
  9
$SPLFRAME
 70
     0
  9
$SPLINETYPE
 70
     6
  9
$SPLINESEGS
 70
     8
  9
$HANDSEED
  5
26F
  9
$SURFTAB1
 70
     6
  9
$SURFTAB2
 70
     6
  9
$SURFTYPE
 70
     6
  9
$SURFU
 70
     6
  9
$SURFV
 70
     6
  9
$UCSBASE
  2

  9
$UCSNAME
  2

  9
$UCSORG
 10
0.0
 20
0.0
 30
0.0
  9
$UCSXDIR
 10
1.0
 20
0.0
 30
0.0
  9
$UCSYDIR
 10
0.0
 20
1.0
 30
0.0
  9
$UCSORTHOREF
  2

  9
$UCSORTHOVIEW
 70
     0
  9
$UCSORGTOP
 10
0.0
 20
0.0
 30
0.0
  9
$UCSORGBOTTOM
 10
0.0
 20
0.0
 30
0.0
  9
$UCSORGLEFT
 10
0.0
 20
0.0
 30
0.0
  9
$UCSORGRIGHT
 10
0.0
 20
0.0
 30
0.0
  9
$UCSORGFRONT
 10
0.0
 20
0.0
 30
0.0
  9
$UCSORGBACK
 10
0.0
 20
0.0
 30
0.0
  9
$PUCSBASE
  2

  9
$PUCSNAME
  2

  9
$PUCSORG
 10
0.0
 20
0.0
 30
0.0
  9
$PUCSXDIR
 10
1.0
 20
0.0
 30
0.0
  9
$PUCSYDIR
 10
0.0
 20
1.0
 30
0.0
  9
$PUCSORTHOREF
  2

  9
$PUCSORTHOVIEW
 70
     0
  9
$PUCSORGTOP
 10
0.0
 20
0.0
 30
0.0
  9
$PUCSORGBOTTOM
 10
0.0
 20
0.0
 30
0.0
  9
$PUCSORGLEFT
 10
0.0
 20
0.0
 30
0.0
  9
$PUCSORGRIGHT
 10
0.0
 20
0.0
 30
0.0
  9
$PUCSORGFRONT
 10
0.0
 20
0.0
 30
0.0
  9
$PUCSORGBACK
 10
0.0
 20
0.0
 30
0.0
  9
$USERI1
 70
     0
  9
$USERI2
 70
     0
  9
$USERI3
 70
     0
  9
$USERI4
 70
     0
  9
$USERI5
 70
     0
  9
$USERR1
 40
0.0
  9
$USERR2
 40
0.0
  9
$USERR3
 40
0.0
  9
$USERR4
 40
0.0
  9
$USERR5
 40
0.0
  9
$WORLDVIEW
 70
     1
  9
$SHADEDGE
 70
     3
  9
$SHADEDIF
 70
    70
  9
$TILEMODE
 70
     1
  9
$MAXACTVP
 70
    64
  9
$PINSBASE
 10
0.0
 20
0.0
 30
0.0
  9
$PLIMCHECK
 70
     0
  9
$PEXTMIN
 10
1.000000000000000E+20
 20
1.000000000000000E+20
 30
1.000000000000000E+20
  9
$PEXTMAX
 10
-1.000000000000000E+20
 20
-1.000000000000000E+20
 30
-1.000000000000000E+20
  9
$PLIMMIN
 10
0.0
 20
0.0
  9
$PLIMMAX
 10
420.0
 20
297.0
  9
$UNITMODE
 70
     0
  9
$VISRETAIN
 70
     1
  9
$PLINEGEN
 70
     0
  9
$PSLTSCALE
 70
     1
  9
$TREEDEPTH
 70
  3020
  9
$CMLSTYLE
  2
Standard
  9
$CMLJUST
 70
     0
  9
$CMLSCALE
 40
20.0
  9
$PROXYGRAPHICS
 70
     1
  9
$MEASUREMENT
 70
     1
  9
$CELWEIGHT
370
    -1
  9
$ENDCAPS
280
     0
  9
$JOINSTYLE
280
     0
  9
$LWDISPLAY
290
     0
  9
$INSUNITS
 70
     4
  9
$HYPERLINKBASE
  1

  9
$STYLESHEET
  1

  9
$XEDIT
290
     1
  9
$CEPSNTYPE
380
     0
  9
$PSTYLEMODE
290
     1
  9
$FINGERPRINTGUID
  2
{0F2178A5-22E9-49BE-8EF3-0D8F45760B5E}
  9
$VERSIONGUID
  2
{FAEB1C32-E019-11D5-929B-00C0DF256EC4}
  9
$EXTNAMES
290
     1
  9
$PSVPSCALE
 40
0.0
  9
$OLESTARTUP
290
     0
  9
$SORTENTS
280
   127
  9
$INDEXCTL
280
     0
  9
$HIDETEXT
280
     1
  9
$XCLIPFRAME
290
     0
  9
$HALOGAP
280
     0
  9
$OBSCOLOR
 70
   257
  9
$OBSLTYPE
280
     0
  9
$INTERSECTIONDISPLAY
280
     0
  9
$INTERSECTIONCOLOR
 70
   257
  9
$DIMASSOC
280
     2
  9
$PROJECTNAME
  1

  0
ENDSEC
  0
SECTION
  2
CLASSES
  0
CLASS
  1
ACDBDICTIONARYWDFLT
  2
AcDbDictionaryWithDefault
  3
ObjectDBX Classes
 90
        0
 91
        4
280
     0
281
     0
  0
CLASS
  1
VISUALSTYLE
  2
AcDbVisualStyle
  3
ObjectDBX Classes
 90
     4095
 91
        4
280
     0
281
     0
  0
CLASS
  1
MATERIAL
  2
AcDbMaterial
  3
ObjectDBX Classes
 90
     1153
 91
        4
280
     0
281
     0
  0
CLASS
  1
SCALE
  2
AcDbScale
  3
ObjectDBX Classes
 90
     1153
 91
        4
280
     0
281
     0
  0
CLASS
  1
TABLESTYLE
  2
AcDbTableStyle
  3
ObjectDBX Classes
 90
     4095
 91
        4
280
     0
281
     0
  0
CLASS
  1
MLEADERSTYLE
  2
AcDbMLeaderStyle
  3
ACDB_MLEADERSTYLE_CLASS
 90
     4095
 91
        4
280
     0
281
     0
  0
CLASS
  1
SUN
  2
AcDbSun
  3
SCENEOE
 90
     1153
 91
        4
280
     0
281
     0
  0
CLASS
  1
DICTIONARYVAR
  2
AcDbDictionaryVar
  3
ObjectDBX Classes
 90
        0
 91
        4
280
     0
281
     0
  0
CLASS
  1
CELLSTYLEMAP
  2
AcDbCellStyleMap
  3
ObjectDBX Classes
 90
     1152
 91
        4
280
     0
281
     0
  0
ENDSEC
  0
SECTION
  2
TABLES
  0
TABLE
  2
VPORT
  5
8
102
{ACAD_XDICTIONARY
360
226
102
}
330
0
100
AcDbSymbolTable
 70
     1
  0
VPORT
  5
29
330
8
100
AcDbSymbolTableRecord
100
AcDbViewportTableRecord
  2
*Active
 70
     0
 10
0.0
 20
0.0
 11
1.0
 21
1.0
 12
0.0
 22
0.0
 13
0.0
 23
0.0
 14
10.0
 24
10.0
 15
10.0
 25
10.0
 16
0.0
 26
0.0
 36
1.0
 17
0.0
 27
0.0
 37
0.0
 40
3267.0
 41
1.414141414141414
 42
50.0
 43
0.0
 44
0.0
 50
0.0
 51
0.0
 71
     0
 72
 10000
 73
     1
 74
     3
 75
     0
 76
     0
 77
     0
 78
     0
281
     0
 65
     1
110
0.0
120
0.0
130
0.0
111
1.0
121
0.0
131
0.0
112
0.0
122
1.0
132
0.0
 79
     0
146
0.0
  0
ENDTAB
  0
TABLE
  2
LTYPE
  5
5
330
0
100
AcDbSymbolTable
 70
     6
  0
LTYPE
  5
14
330
5
100
AcDbSymbolTableRecord
100
AcDbLinetypeTableRecord
  2
ByBlock
 70
     0
  3

 72
    65
 73
     0
 40
0.0
  0
LTYPE
  5
15
330
5
100
AcDbSymbolTableRecord
100
AcDbLinetypeTableRecord
  2
ByLayer
 70
     0
  3

 72
    65
 73
     0
 40
0.0
  0
LTYPE
  5
16
330
5
100
AcDbSymbolTableRecord
100
AcDbLinetypeTableRecord
  2
Continuous
 70
     0
  3
Solid line
 72
    65
 73
     0
 40
0.0
  0
LTYPE
  5
6F
330
5
100
AcDbSymbolTableRecord
100
AcDbLinetypeTableRecord
  2
JWW_DASHED1
 70
     0
  3
-  --  --  --  --  --  --  --  -
 72
    65
 73
     2
 40
1.693333333333333
 49
0.8466666666666667
 74
     0
 49
-0.8466666666666667
 74
     0
  0
LTYPE
  5
70
330
5
100
AcDbSymbolTableRecord
100
AcDbLinetypeTableRecord
  2
JWW_HOJO
 70
     0
  3
  -   -   -   -   -   -   -   - 
 72
    65
 73
     2
 40
1.693333333333333
 49
-1.27
 74
     0
 49
0.4233333333333333
 74
     0
  0
LTYPE
  5
71
330
5
100
AcDbSymbolTableRecord
100
AcDbLinetypeTableRecord
  2
JWW_CENTER2
 70
     0
  3
-------------  --  -------------
 72
    65
 73
     4
 40
13.54666666666667
 49
11.00666666666667
 74
     0
 49
-0.8466666666666667
 74
     0
 49
0.8466666666666667
 74
     0
 49
-0.8466666666666667
 74
     0
  0
LTYPE
  5
72
330
5
100
AcDbSymbolTableRecord
100
AcDbLinetypeTableRecord
  2
JWW_PHANTOM1
 70
     0
  3
----  -  -  --------  -  -  ----
 72
    65
 73
     6
 40
6.773333333333333
 49
3.386666666666667
 74
     0
 49
-0.8466666666666667
 74
     0
 49
0.4233333333333333
 74
     0
 49
-0.8466666666666667
 74
     0
 49
0.4233333333333333
 74
     0
 49
-0.8466666666666667
 74
     0
  0
LTYPE
  5
73
330
5
100
AcDbSymbolTableRecord
100
AcDbLinetypeTableRecord
  2
JWW_CENTER1
 70
     0
  3
-----  --  ----------  --  -----
 72
    65
 73
     4
 40
6.773333333333333
 49
4.233333333333333
 74
     0
 49
-0.8466666666666667
 74
     0
 49
0.8466666666666667
 74
     0
 49
-0.8466666666666667
 74
     0
  0
ENDTAB
  0
TABLE
  2
LAYER
  5
2
330
0
100
AcDbSymbolTable
 70
    18
  0
LAYER
  5
10
330
2
100
AcDbSymbolTableRecord
100
AcDbLayerTableRecord
  2
0
 70
     0
 62
     7
  6
Continuous
370
    -3
390
F
  0
LAYER
  5
74
330
2
100
AcDbSymbolTableRecord
100
AcDbLayerTableRecord
  2
C-5
 70
     0
 62
     7
  6
Continuous
370
    -3
390
F
  0
LAYER
  5
75
330
2
100
AcDbSymbolTableRecord
100
AcDbLayerTableRecord
  2
C-1
 70
     0
 62
     7
  6
Continuous
370
    -3
390
F
  0
LAYER
  5
76
330
2
100
AcDbSymbolTableRecord
100
AcDbLayerTableRecord
  2
C-2
 70
     0
 62
     7
  6
Continuous
370
    -3
390
F
  0
LAYER
  5
77
330
2
100
AcDbSymbolTableRecord
100
AcDbLayerTableRecord
  2
C-4
 70
     0
 62
     7
  6
Continuous
370
    -3
390
F
  0
LAYER
  5
78
330
2
100
AcDbSymbolTableRecord
100
AcDbLayerTableRecord
  2
C-6
 70
     0
 62
     7
  6
Continuous
370
    -3
390
F
  0
LAYER
  5
79
330
2
100
AcDbSymbolTableRecord
100
AcDbLayerTableRecord
  2
C-E
 70
     0
 62
     7
  6
Continuous
370
    -3
390
F
  0
LAYER
  5
7A
330
2
100
AcDbSymbolTableRecord
100
AcDbLayerTableRecord
  2
D-2
 70
     0
 62
     7
  6
Continuous
370
    -3
390
F
  0
LAYER
  5
7B
330
2
100
AcDbSymbolTableRecord
100
AcDbLayerTableRecord
  2
D-5
 70
     0
 62
     7
  6
Continuous
370
    -3
390
F
  0
LAYER
  5
7C
330
2
100
AcDbSymbolTableRecord
100
AcDbLayerTableRecord
  2
D-4
 70
     0
 62
     7
  6
Continuous
370
    -3
390
F
  0
LAYER
  5
7D
330
2
100
AcDbSymbolTableRecord
100
AcDbLayerTableRecord
  2
D-1
 70
     0
 62
     7
  6
Continuous
370
    -3
390
F
  0
LAYER
  5
7E
330
2
100
AcDbSymbolTableRecord
100
AcDbLayerTableRecord
  2
D-6
 70
     0
 62
     7
  6
Continuous
370
    -3
390
F
  0
LAYER
  5
7F
330
2
100
AcDbSymbolTableRecord
100
AcDbLayerTableRecord
  2
D-E
 70
     0
 62
     7
  6
Continuous
370
    -3
390
F
  0
LAYER
  5
80
330
2
100
AcDbSymbolTableRecord
100
AcDbLayerTableRecord
  2
C-A
 70
     0
 62
     7
  6
Continuous
370
    -3
390
F
  0
LAYER
  5
81
330
2
100
AcDbSymbolTableRecord
100
AcDbLayerTableRecord
  2
C-0
 70
     0
 62
     7
  6
Continuous
370
    -3
390
F
  0
LAYER
  5
82
330
2
100
AcDbSymbolTableRecord
100
AcDbLayerTableRecord
  2
D-A
 70
     0
 62
     7
  6
Continuous
370
    -3
390
F
  0
LAYER
  5
83
330
2
100
AcDbSymbolTableRecord
100
AcDbLayerTableRecord
  2
D-0
 70
     0
 62
     7
  6
Continuous
370
    -3
390
F
  0
LAYER
  5
84
330
2
100
AcDbSymbolTableRecord
100
AcDbLayerTableRecord
  2
F-5ﾚｲﾔ
 70
     0
 62
     7
  6
Continuous
370
    -3
390
F
  0
ENDTAB
  0
TABLE
  2
STYLE
  5
3
330
0
100
AcDbSymbolTable
 70
     2
  0
STYLE
  5
11
330
3
100
AcDbSymbolTableRecord
100
AcDbTextStyleTableRecord
  2
Standard
 70
     0
 40
0.0
 41
1.0
 50
0.0
 71
     0
 42
2.5
  3
txt
  4

  0
STYLE
  5
6E
330
3
100
AcDbSymbolTableRecord
100
AcDbTextStyleTableRecord
  2
ＭＳ ゴシック
 70
     0
 40
1.0
 41
1.0
 50
0.0
 71
     0
 42
2.5
  3

  4

1001
ACAD
1000
MS Gothic
1071
    32817
  0
ENDTAB
  0
TABLE
  2
VIEW
  5
6
330
0
100
AcDbSymbolTable
 70
     0
  0
ENDTAB
  0
TABLE
  2
UCS
  5
7
330
0
100
AcDbSymbolTable
 70
     0
  0
ENDTAB
  0
TABLE
  2
APPID
  5
9
330
0
100
AcDbSymbolTable
 70
     2
  0
APPID
  5
12
330
9
100
AcDbSymbolTableRecord
100
AcDbRegAppTableRecord
  2
ACAD
 70
     0
  0
APPID
  5
265
330
9
100
AcDbSymbolTableRecord
100
AcDbRegAppTableRecord
  2
ACAD_MLEADERVER
 70
     0
  0
ENDTAB
  0
TABLE
  2
DIMSTYLE
  5
A
330
0
100
AcDbSymbolTable
 70
     1
100
AcDbDimStyleTable
  0
DIMSTYLE
105
27
330
A
100
AcDbSymbolTableRecord
100
AcDbDimStyleTableRecord
  2
ISO-25
 70
     0
 41
2.5
 42
0.625
 43
3.75
 44
1.25
 73
     0
 74
     0
 77
     1
 78
     8
140
2.5
141
2.5
143
0.03937007874016
147
0.625
171
     3
172
     1
178
     0
271
     2
272
     2
274
     3
278
    44
283
     0
284
     8
340
11
  0
ENDTAB
  0
TABLE
  2
BLOCK_RECORD
  5
1
330
0
100
AcDbSymbolTable
 70
     1
  0
BLOCK_RECORD
  5
1F
330
1
100
AcDbSymbolTableRecord
100
AcDbBlockTableRecord
  2
*Model_Space
340
22
  0
BLOCK_RECORD
  5
1B
330
1
100
AcDbSymbolTableRecord
100
AcDbBlockTableRecord
  2
*Paper_Space
340
1E
  0
BLOCK_RECORD
  5
23
330
1
100
AcDbSymbolTableRecord
100
AcDbBlockTableRecord
  2
*Paper_Space0
340
26
  0
ENDTAB
  0
ENDSEC
  0
SECTION
  2
BLOCKS
  0
BLOCK
  5
20
330
1F
100
AcDbEntity
  8
0
100
AcDbBlockBegin
  2
*Model_Space
 70
     0
 10
0.0
 20
0.0
 30
0.0
  3
*Model_Space
  1

  0
ENDBLK
  5
21
330
1F
100
AcDbEntity
  8
0
100
AcDbBlockEnd
  0
BLOCK
  5
1C
330
1B
100
AcDbEntity
 67
     1
  8
0
100
AcDbBlockBegin
  2
*Paper_Space
 70
     0
 10
0.0
 20
0.0
 30
0.0
  3
*Paper_Space
  1

  0
ENDBLK
  5
1D
330
1B
100
AcDbEntity
 67
     1
  8
0
100
AcDbBlockEnd
  0
BLOCK
  5
24
330
23
100
AcDbEntity
  8
0
100
AcDbBlockBegin
  2
*Paper_Space0
 70
     0
 10
0.0
 20
0.0
 30
0.0
  3
*Paper_Space0
  1

  0
ENDBLK
  5
25
330
23
100
AcDbEntity
  8
0
100
AcDbBlockEnd
  0
ENDSEC
  0
SECTION
  2
ENTITIES
  0
TEXT
  5
85
330
1F
100
AcDbEntity
  8
C-5
  6
Continuous
 62
     2
370
     9
100
AcDbText
 10
1397.187943262412
 20
-1121.411418439716
 30
0.0
 40
30.48
  1
支柱質量：2.0kg／本
 41
1.111842105263158
  7
ＭＳ ゴシック
100
AcDbText
  0
LINE
  5
86
330
1F
100
AcDbEntity
  8
C-1
  6
Continuous
 62
     2
370
     9
100
AcDbLine
 10
-1104.378486188605
 20
-470.3971758149708
 30
0.0
 11
-1104.378486188605
 21
-473.5971913212
 31
0.0
  0
LINE
  5
87
330
1F
100
AcDbEntity
  8
C-1
  6
Continuous
 62
     2
370
     9
100
AcDbLine
 10
-1174.378531552573
 20
-470.3971758149708
 30
0.0
 11
-1104.378486188605
 21
-470.3971758149708
 31
0.0
  0
LINE
  5
88
330
1F
100
AcDbEntity
  8
C-1
  6
Continuous
 62
     2
370
     9
100
AcDbLine
 10
-1174.378531552573
 20
-470.3971758149708
 30
0.0
 11
-1174.378531552573
 21
-473.5971913212
 31
0.0
  0
LINE
  5
89
330
1F
100
AcDbEntity
  8
C-1
  6
Continuous
 62
     2
370
     9
100
AcDbLine
 10
-1109.128464743821
 20
-220.3972170549415
 30
0.0
 11
-1109.128464743821
 21
-470.3971758149708
 31
0.0
  0
LINE
  5
8A
330
1F
100
AcDbEntity
  8
C-1
  6
JWW_DASHED1
 62
     2
370
     9
100
AcDbLine
 10
-1113.128515056585
 20
-220.3972170549415
 30
0.0
 11
-1113.128515056585
 21
-470.3971758149708
 31
0.0
  0
LINE
  5
8B
330
1F
100
AcDbEntity
  8
C-2
  6
JWW_DASHED1
 62
     3
370
     9
100
AcDbLine
 10
-1115.078588298772
 20
-220.3972170549415
 30
0.0
 11
-1115.078588298772
 21
-470.3971758149708
 31
0.0
  0
LINE
  5
8C
330
1F
100
AcDbEntity
  8
C-1
  6
JWW_DASHED1
 62
     2
370
     9
100
AcDbLine
 10
-1126.878498560597
 20
-470.3971758149708
 30
0.0
 11
-1126.878498560597
 21
-473.5971913212
 31
0.0
  0
LINE
  5
8D
330
1F
100
AcDbEntity
  8
C-1
  6
Continuous
 62
     2
370
     9
100
AcDbLine
 10
-1151.878519180582
 20
-470.3971758149708
 30
0.0
 11
-1151.878519180582
 21
-473.5971913212
 31
0.0
  0
LINE
  5
8E
330
1F
100
AcDbEntity
  8
C-2
  6
Continuous
 62
     3
370
     9
100
AcDbLine
 10
-1115.078588298772
 20
621.9575935051303
 30
0.0
 11
-1115.078588298772
 21
-220.3972170549415
 31
0.0
  0
LINE
  5
8F
330
1F
100
AcDbEntity
  8
C-2
  6
Continuous
 62
     3
370
     9
100
AcDbLine
 10
-1115.078588298772
 20
621.9575935051303
 30
0.0
 11
-1139.378477940611
 21
621.9575935051303
 31
0.0
  0
LINE
  5
90
330
1F
100
AcDbEntity
  8
C-2
  6
JWW_HOJO
 62
     3
370
     9
100
AcDbLine
 10
-1115.078588298772
 20
-470.3971758149708
 30
0.0
 11
-1163.678553162317
 21
-470.3971758149708
 31
0.0
  0
LINE
  5
91
330
1F
100
AcDbEntity
  8
C-2
  6
Continuous
 62
     3
370
     9
100
AcDbLine
 10
-1087.49282153225
 20
558.7753194341844
 30
0.0
 11
-1115.078402718905
 21
563.6028085138402
 31
0.0
  0
LINE
  5
92
330
1F
100
AcDbEntity
  8
C-2
  6
Continuous
 62
     3
370
     9
100
AcDbLine
 10
-1087.49282153225
 20
500.4304320357995
 30
0.0
 11
-1115.078402718905
 21
495.6028810961881
 31
0.0
  0
LINE
  5
93
330
1F
100
AcDbEntity
  8
C-2
  6
Continuous
 62
     3
370
     9
100
AcDbLine
 10
-1075.078518190822
 20
515.2058061648115
 30
0.0
 11
-1075.078518190822
 21
543.9998834452169
 31
0.0
  0
ARC
  5
94
330
1F
100
AcDbEntity
  8
C-2
  6
Continuous
 62
     3
370
     9
100
AcDbCircle
 10
-1139.378477940611
 20
587.1628530860004
 30
0.0
 40
42.44000847275193
100
AcDbArc
 50
55.07037353515627
 51
124.9299621582031
  0
ARC
  5
95
330
1F
100
AcDbEntity
  8
C-2
  6
Continuous
 62
     3
370
     9
100
AcDbCircle
 10
-1090.078505818831
 20
543.9998834452169
 30
0.0
 40
14.99999826018875
100
AcDbArc
 50
0.0
 51
80.07365417480469
  0
ARC
  5
96
330
1F
100
AcDbEntity
  8
C-2
  6
Continuous
 62
     3
370
     9
100
AcDbCircle
 10
-1090.078505818831
 20
515.2058061648115
 30
0.0
 40
14.99999826018875
100
AcDbArc
 50
279.9263458251953
 51
0.0
  0
LINE
  5
97
330
1F
100
AcDbEntity
  8
C-2
  6
JWW_CENTER2
 62
     7
370
     9
100
AcDbLine
 10
-1139.378477940611
 20
651.4420278906879
 30
0.0
 11
-1139.378477940611
 21
-490.0071529185396
 31
0.0
  0
LINE
  5
98
330
1F
100
AcDbEntity
  8
C-2
  6
Continuous
 62
     3
370
     9
100
AcDbLine
 10
-1163.67836758245
 20
621.9575935051303
 30
0.0
 11
-1163.67836758245
 21
-220.3972170549416
 31
0.0
  0
LINE
  5
99
330
1F
100
AcDbEntity
  8
C-2
  6
Continuous
 62
     3
370
     9
100
AcDbLine
 10
-1191.264134348973
 20
558.7753194341844
 30
0.0
 11
-1163.678553162317
 21
563.6028085138402
 31
0.0
  0
LINE
  5
9A
330
1F
100
AcDbEntity
  8
C-2
  6
Continuous
 62
     3
370
     9
100
AcDbLine
 10
-1191.264134348973
 20
500.4304320357995
 30
0.0
 11
-1163.678553162317
 21
495.6028810961881
 31
0.0
  0
LINE
  5
9B
330
1F
100
AcDbEntity
  8
C-2
  6
Continuous
 62
     3
370
     9
100
AcDbLine
 10
-1203.6784376904
 20
515.2058061648115
 30
0.0
 11
-1203.6784376904
 21
543.9998834452169
 31
0.0
  0
ARC
  5
9C
330
1F
100
AcDbEntity
  8
C-2
  6
Continuous
 62
     3
370
     9
100
AcDbCircle
 10
-1188.678450062391
 20
543.9998834452169
 30
0.0
 40
14.99999826018875
100
AcDbArc
 50
99.92634582519531
 51
180.0
  0
ARC
  5
9D
330
1F
100
AcDbEntity
  8
C-2
  6
Continuous
 62
     3
370
     9
100
AcDbCircle
 10
-1188.678450062391
 20
515.2058061648115
 30
0.0
 40
14.99999826018875
100
AcDbArc
 50
180.0
 51
260.0736541748047
  0
LINE
  5
9E
330
1F
100
AcDbEntity
  8
C-2
  6
Continuous
 62
     3
370
     9
100
AcDbLine
 10
-1163.67836758245
 20
621.9575935051303
 30
0.0
 11
-1139.378477940611
 21
621.9575935051303
 31
0.0
  0
LINE
  5
9F
330
1F
100
AcDbEntity
  8
C-1
  6
Continuous
 62
     2
370
     9
100
AcDbLine
 10
-1169.628491137402
 20
-220.3972170549415
 30
0.0
 11
-1169.628491137402
 21
-470.3971758149708
 31
0.0
  0
LINE
  5
A0
330
1F
100
AcDbEntity
  8
C-1
  6
JWW_DASHED1
 62
     2
370
     9
100
AcDbLine
 10
-1165.628440824638
 20
-220.3972170549415
 30
0.0
 11
-1165.628440824638
 21
-470.3971758149708
 31
0.0
  0
LINE
  5
A1
330
1F
100
AcDbEntity
  8
C-2
  6
JWW_DASHED1
 62
     3
370
     9
100
AcDbLine
 10
-1163.67836758245
 20
-220.3972170549415
 30
0.0
 11
-1163.67836758245
 21
-470.3971758149708
 31
0.0
  0
LINE
  5
A2
330
1F
100
AcDbEntity
  8
C-1
  6
Continuous
 62
     2
370
     9
100
AcDbLine
 10
-1076.599345200694
 20
-239.7972414690042
 30
0.0
 11
-1076.599345200694
 21
-221.39712137821
 31
0.0
  0
LINE
  5
A3
330
1F
100
AcDbEntity
  8
C-1
  6
Continuous
 62
     2
370
     9
100
AcDbLine
 10
-1079.899264535311
 20
-243.0972226635776
 30
0.0
 11
-1109.128464743821
 21
-243.0972226635776
 31
0.0
  0
ARC
  5
A4
330
1F
100
AcDbEntity
  8
C-1
  6
Continuous
 62
     2
370
     9
100
AcDbCircle
 10
-1079.899264535311
 20
-221.39712137821
 30
0.0
 40
3.299999800888269
100
AcDbArc
 50
0.0
 51
90.0
  0
ARC
  5
A5
330
1F
100
AcDbEntity
  8
C-1
  6
Continuous
 62
     2
370
     9
100
AcDbCircle
 10
-1079.899264535311
 20
-239.7972414690042
 30
0.0
 40
3.299999800888269
100
AcDbArc
 50
270.0
 51
0.0
  0
CIRCLE
  5
A6
330
1F
100
AcDbEntity
  8
C-1
  6
Continuous
 62
     4
370
     9
100
AcDbCircle
 10
-1097.599253647959
 20
-225.8971857125641
 30
0.0
 40
2.499999790578275
  0
LINE
  5
A7
330
1F
100
AcDbEntity
  8
C-1
  6
Continuous
 62
     2
370
     9
100
AcDbLine
 10
-1079.899264535311
 20
-218.0972639035482
 30
0.0
 11
-1115.078588298772
 21
-218.0972639035482
 31
0.0
  0
LINE
  5
A8
330
1F
100
AcDbEntity
  8
C-4
  6
Continuous
 62
     7
370
     9
100
AcDbLine
 10
-1163.67836758245
 20
682.0983203455623
 30
0.0
 11
-1115.078588298772
 21
682.0983203455623
 31
0.0
  0
LWPOLYLINE
  5
A9
330
1F
100
AcDbEntity
  8
C-4
  6
Continuous
 62
     7
370
     9
100
AcDbPolyline
 90
        4
 70
     1
 43
2.0
 10
-1162.67836758245
 20
682.0983203455623
 42
0.4142135623731
 10
-1163.67836758245
 20
683.0983203455622
 42
0.4142135623731
 10
-1164.67836758245
 20
682.0983203455623
 42
0.4142135623731
 10
-1163.67836758245
 20
681.0983203455623
 42
0.4142135623731
  0
LWPOLYLINE
  5
AA
330
1F
100
AcDbEntity
  8
C-4
  6
Continuous
 62
     7
370
     9
100
AcDbPolyline
 90
        4
 70
     1
 43
2.0
 10
-1114.078588298772
 20
682.0983203455623
 42
0.4142135623731
 10
-1115.078588298772
 20
683.0983203455622
 42
0.4142135623731
 10
-1116.078588298772
 20
682.0983203455623
 42
0.4142135623731
 10
-1115.078588298772
 20
681.0983203455623
 42
0.4142135623731
  0
TEXT
  5
AB
330
1F
100
AcDbEntity
  8
C-4
  6
Continuous
 62
     2
370
   211
100
AcDbText
 10
-1205.628477940611
 20
693.7383203455622
 30
0.0
 40
30.48
  1
φ48.6
 41
1.104166666666667
  7
ＭＳ ゴシック
100
AcDbText
  0
LINE
  5
AC
330
1F
100
AcDbEntity
  8
C-4
  6
Continuous
 62
     7
370
     9
100
AcDbLine
 10
-1536.567025018188
 20
629.6028615587524
 30
0.0
 11
-1536.567025018188
 21
-470.397171948724
 31
0.0
  0
LWPOLYLINE
  5
AD
330
1F
100
AcDbEntity
  8
C-4
  6
Continuous
 62
     7
370
     9
100
AcDbPolyline
 90
        4
 70
     1
 43
2.0
 10
-1535.567025018188
 20
629.6028615587524
 42
0.4142135623731
 10
-1536.567025018188
 20
630.6028615587524
 42
0.4142135623731
 10
-1537.567025018188
 20
629.6028615587524
 42
0.4142135623731
 10
-1536.567025018188
 20
628.6028615587522
 42
0.4142135623731
  0
LWPOLYLINE
  5
AE
330
1F
100
AcDbEntity
  8
C-4
  6
Continuous
 62
     7
370
     9
100
AcDbPolyline
 90
        4
 70
     1
 43
2.0
 10
-1535.567025018188
 20
-470.397171948724
 42
0.4142135623731
 10
-1536.567025018188
 20
-469.397171948724
 42
0.4142135623731
 10
-1537.567025018188
 20
-470.397171948724
 42
0.4142135623731
 10
-1536.567025018188
 20
-471.397171948724
 42
0.4142135623731
  0
LINE
  5
AF
330
1F
100
AcDbEntity
  8
C-4
  6
Continuous
 62
     7
370
     9
100
AcDbLine
 10
-1539.567025018188
 20
-470.397171948724
 30
0.0
 11
-1229.378523304579
 21
-470.397171948724
 31
0.0
  0
TEXT
  5
B0
330
1F
100
AcDbEntity
  8
C-4
  6
Continuous
 62
     2
370
   211
100
AcDbText
 10
-1548.207025018188
 20
35.85284480501414
 30
0.0
 40
30.48
  1
1100
 50
90.0
 41
1.09375
  7
ＭＳ ゴシック
100
AcDbText
  0
LINE
  5
B1
330
1F
100
AcDbEntity
  8
C-4
  6
Continuous
 62
     7
370
     9
100
AcDbLine
 10
-1391.804723118179
 20
629.6028615587524
 30
0.0
 11
-1391.804723118179
 21
-220.3972131886942
 31
0.0
  0
LWPOLYLINE
  5
B2
330
1F
100
AcDbEntity
  8
C-4
  6
Continuous
 62
     7
370
     9
100
AcDbPolyline
 90
        4
 70
     1
 43
2.0
 10
-1390.804723118179
 20
629.6028615587524
 42
0.4142135623731
 10
-1391.804723118179
 20
630.6028615587524
 42
0.4142135623731
 10
-1392.804723118179
 20
629.6028615587524
 42
0.4142135623731
 10
-1391.804723118179
 20
628.6028615587522
 42
0.4142135623731
  0
LWPOLYLINE
  5
B3
330
1F
100
AcDbEntity
  8
C-4
  6
Continuous
 62
     7
370
     9
100
AcDbPolyline
 90
        4
 70
     1
 43
2.0
 10
-1390.804723118179
 20
-220.3972131886942
 42
0.4142135623731
 10
-1391.804723118179
 20
-219.3972131886942
 42
0.4142135623731
 10
-1392.804723118179
 20
-220.3972131886942
 42
0.4142135623731
 10
-1391.804723118179
 20
-221.3972131886942
 42
0.4142135623731
  0
TEXT
  5
B4
330
1F
100
AcDbEntity
  8
C-4
  6
Continuous
 62
     2
370
   211
100
AcDbText
 10
-1403.444723118179
 20
172.1028241850291
 30
0.0
 40
30.48
  1
850
 50
90.0
 41
1.083333333333333
  7
ＭＳ ゴシック
100
AcDbText
  0
LWPOLYLINE
  5
B5
330
1F
100
AcDbEntity
  8
C-4
  6
Continuous
 62
     7
370
     9
100
AcDbPolyline
 90
        4
 70
     1
 43
2.0
 10
-1390.804723118179
 20
-470.397171948724
 42
0.4142135623731
 10
-1391.804723118179
 20
-469.397171948724
 42
0.4142135623731
 10
-1392.804723118179
 20
-470.397171948724
 42
0.4142135623731
 10
-1391.804723118179
 20
-471.397171948724
 42
0.4142135623731
  0
TEXT
  5
B6
330
1F
100
AcDbEntity
  8
C-4
  6
Continuous
 62
     2
370
   211
100
AcDbText
 10
-1403.444723118179
 20
-377.897192568709
 30
0.0
 40
30.48
  1
250
 50
90.0
 41
1.083333333333333
  7
ＭＳ ゴシック
100
AcDbText
  0
LINE
  5
B7
330
1F
100
AcDbEntity
  8
C-4
  6
Continuous
 62
     7
370
     9
100
AcDbLine
 10
-1391.804723118179
 20
-220.3972131886942
 30
0.0
 11
-1391.804723118179
 21
-550.4922383555945
 31
0.0
  0
LWPOLYLINE
  5
B8
330
1F
100
AcDbEntity
  8
C-4
  6
Continuous
 62
     7
370
     9
100
AcDbPolyline
 90
        4
 70
     1
 43
2.0
 10
-1390.804723118179
 20
-473.5970637350413
 42
0.4142135623731
 10
-1391.804723118179
 20
-472.5970637350413
 42
0.4142135623731
 10
-1392.804723118179
 20
-473.5970637350413
 42
0.4142135623731
 10
-1391.804723118179
 20
-474.5970637350413
 42
0.4142135623731
  0
LINE
  5
B9
330
1F
100
AcDbEntity
  8
C-4
  6
Continuous
 62
     7
370
     9
100
AcDbLine
 10
-1394.804723118179
 20
-473.5970637350413
 30
0.0
 11
-1363.917887251595
 21
-473.5970637350413
 31
0.0
  0
TEXT
  5
BA
330
1F
100
AcDbEntity
  8
C-4
  6
Continuous
 62
     2
370
   211
100
AcDbText
 10
-1403.444723118179
 20
-543.0489759442471
 30
0.0
 40
30.48
  1
3.2
 50
90.0
 41
1.083333333333333
  7
ＭＳ ゴシック
100
AcDbText
  0
LINE
  5
BB
330
1F
100
AcDbEntity
  8
C-4
  6
Continuous
 62
     7
370
     9
100
AcDbLine
 10
-814.4554386919233
 20
-220.3970637350414
 30
0.0
 11
-814.4554386919233
 21
-473.5970637350413
 31
0.0
  0
LWPOLYLINE
  5
BC
330
1F
100
AcDbEntity
  8
C-4
  6
Continuous
 62
     7
370
     9
100
AcDbPolyline
 90
        4
 70
     1
 43
2.0
 10
-813.4554386919234
 20
-220.3970637350414
 42
0.4142135623731
 10
-814.4554386919233
 20
-219.3970637350414
 42
0.4142135623731
 10
-815.4554386919233
 20
-220.3970637350414
 42
0.4142135623731
 10
-814.4554386919233
 20
-221.3970637350414
 42
0.4142135623731
  0
LWPOLYLINE
  5
BD
330
1F
100
AcDbEntity
  8
C-4
  6
Continuous
 62
     7
370
     9
100
AcDbPolyline
 90
        4
 70
     1
 43
2.0
 10
-813.4554386919234
 20
-473.5970637350413
 42
0.4142135623731
 10
-814.4554386919233
 20
-472.5970637350413
 42
0.4142135623731
 10
-815.4554386919233
 20
-473.5970637350413
 42
0.4142135623731
 10
-814.4554386919233
 20
-474.5970637350413
 42
0.4142135623731
  0
LINE
  5
BE
330
1F
100
AcDbEntity
  8
C-4
  6
Continuous
 62
     7
370
     9
100
AcDbLine
 10
-811.4554386919235
 20
-473.5970637350413
 30
0.0
 11
-919.3784779406112
 21
-473.5970637350413
 31
0.0
  0
TEXT
  5
BF
330
1F
100
AcDbEntity
  8
C-4
  6
Continuous
 62
     2
370
   211
100
AcDbText
 10
-826.0954386919234
 20
-401.9970637350414
 30
0.0
 40
30.48
  1
253.2
 50
90.0
 41
1.1
  7
ＭＳ ゴシック
100
AcDbText
  0
LINE
  5
C0
330
1F
100
AcDbEntity
  8
C-4
  6
Continuous
 62
     7
370
     9
100
AcDbLine
 10
-814.4554386919233
 20
-473.5970637350413
 30
0.0
 11
-814.4554386919233
 21
-573.5970637350413
 31
0.0
  0
LWPOLYLINE
  5
C1
330
1F
100
AcDbEntity
  8
C-4
  6
Continuous
 62
     7
370
     9
100
AcDbPolyline
 90
        4
 70
     1
 43
2.0
 10
-813.4554386919234
 20
-573.5970637350413
 42
0.4142135623731
 10
-814.4554386919233
 20
-572.5970637350413
 42
0.4142135623731
 10
-815.4554386919233
 20
-573.5970637350413
 42
0.4142135623731
 10
-814.4554386919233
 20
-574.5970637350413
 42
0.4142135623731
  0
LINE
  5
C2
330
1F
100
AcDbEntity
  8
C-4
  6
Continuous
 62
     7
370
     9
100
AcDbLine
 10
-811.4554386919235
 20
-573.5970637350413
 30
0.0
 11
-919.3784779406112
 21
-573.5970637350413
 31
0.0
  0
TEXT
  5
C3
330
1F
100
AcDbEntity
  8
C-4
  6
Continuous
 62
     2
370
   211
100
AcDbText
 10
-826.0954386919234
 20
-556.0970637350413
 30
0.0
 40
30.48
  1
100
 50
90.0
 41
1.083333333333333
  7
ＭＳ ゴシック
100
AcDbText
  0
LINE
  5
C4
330
1F
100
AcDbEntity
  8
C-4
  6
Continuous
 62
     7
370
     9
100
AcDbLine
 10
-1339.378477940611
 20
-834.49409071677
 30
0.0
 11
-939.3784779406112
 21
-834.49409071677
 31
0.0
  0
LWPOLYLINE
  5
C5
330
1F
100
AcDbEntity
  8
C-4
  6
Continuous
 62
     7
370
     9
100
AcDbPolyline
 90
        4
 70
     1
 43
2.0
 10
-1338.378477940612
 20
-834.49409071677
 42
0.4142135623731
 10
-1339.378477940611
 20
-833.49409071677
 42
0.4142135623731
 10
-1340.378477940611
 20
-834.49409071677
 42
0.4142135623731
 10
-1339.378477940611
 20
-835.49409071677
 42
0.4142135623731
  0
LWPOLYLINE
  5
C6
330
1F
100
AcDbEntity
  8
C-4
  6
Continuous
 62
     7
370
     9
100
AcDbPolyline
 90
        4
 70
     1
 43
2.0
 10
-938.3784779406113
 20
-834.49409071677
 42
0.4142135623731
 10
-939.3784779406112
 20
-833.49409071677
 42
0.4142135623731
 10
-940.3784779406112
 20
-834.49409071677
 42
0.4142135623731
 10
-939.3784779406112
 20
-835.49409071677
 42
0.4142135623731
  0
LINE
  5
C7
330
1F
100
AcDbEntity
  8
C-4
  6
Continuous
 62
     7
370
     9
100
AcDbLine
 10
-1339.378477940611
 20
-837.4940907167701
 30
0.0
 11
-1339.378477940611
 21
-593.5970637350413
 31
0.0
  0
LINE
  5
C8
330
1F
100
AcDbEntity
  8
C-4
  6
Continuous
 62
     7
370
     9
100
AcDbLine
 10
-939.3784779406112
 20
-837.4940907167701
 30
0.0
 11
-939.3784779406112
 21
-593.5970637350413
 31
0.0
  0
LINE
  5
C9
330
1F
100
AcDbEntity
  8
C-4
  6
Continuous
 62
     7
370
     9
100
AcDbLine
 10
-1289.378477940611
 20
-720.9022539820762
 30
0.0
 11
-989.3784779406112
 21
-720.9022539820762
 31
0.0
  0
LWPOLYLINE
  5
CA
330
1F
100
AcDbEntity
  8
C-4
  6
Continuous
 62
     7
370
     9
100
AcDbPolyline
 90
        4
 70
     1
 43
2.0
 10
-1288.378477940612
 20
-720.9022539820762
 42
0.4142135623731
 10
-1289.378477940611
 20
-719.9022539820762
 42
0.4142135623731
 10
-1290.378477940611
 20
-720.9022539820762
 42
0.4142135623731
 10
-1289.378477940611
 20
-721.9022539820762
 42
0.4142135623731
  0
LWPOLYLINE
  5
CB
330
1F
100
AcDbEntity
  8
C-4
  6
Continuous
 62
     7
370
     9
100
AcDbPolyline
 90
        4
 70
     1
 43
2.0
 10
-988.3784779406113
 20
-720.9022539820762
 42
0.4142135623731
 10
-989.3784779406112
 20
-719.9022539820762
 42
0.4142135623731
 10
-990.3784779406112
 20
-720.9022539820762
 42
0.4142135623731
 10
-989.3784779406112
 20
-721.9022539820762
 42
0.4142135623731
  0
LINE
  5
CC
330
1F
100
AcDbEntity
  8
C-4
  6
Continuous
 62
     7
370
     9
100
AcDbLine
 10
-1289.378477940611
 20
-723.9022539820767
 30
0.0
 11
-1289.378477940611
 21
-593.5970637350413
 31
0.0
  0
LINE
  5
CD
330
1F
100
AcDbEntity
  8
C-4
  6
Continuous
 62
     7
370
     9
100
AcDbLine
 10
-989.3784779406112
 20
-723.9022539820767
 30
0.0
 11
-989.3784779406112
 21
-593.5970637350413
 31
0.0
  0
TEXT
  5
CE
330
1F
100
AcDbEntity
  8
C-4
  6
Continuous
 62
     2
370
   211
100
AcDbText
 10
-1194.378477940611
 20
-818.85409071677
 30
0.0
 40
30.48
  1
□400
 41
1.099999999999997
  7
ＭＳ ゴシック
100
AcDbText
  0
TEXT
  5
CF
330
1F
100
AcDbEntity
  8
C-4
  6
Continuous
 62
     2
370
   211
100
AcDbText
 10
-1194.378477940611
 20
-705.2622539820762
 30
0.0
 40
30.48
  1
□300
 41
1.099999999999997
  7
ＭＳ ゴシック
100
AcDbText
  0
LINE
  5
D0
330
1F
100
AcDbEntity
  8
C-4
  6
Continuous
 62
     7
370
     9
100
AcDbLine
 10
-1539.567025018188
 20
629.6028615587524
 30
0.0
 11
-1154.493827971263
 21
629.6028615587524
 31
0.0
  0
TEXT
  5
D1
330
1F
100
AcDbEntity
  8
C-5
  6
Continuous
 62
     2
370
     9
100
AcDbText
 10
-849.8547127903321
 20
-206.294762449804
 30
0.0
 40
30.48
  1
▽G.L.
 41
1.104166666666667
  7
ＭＳ ゴシック
100
AcDbText
  0
LINE
  5
D2
330
1F
100
AcDbEntity
  8
C-5
  6
Continuous
 62
     7
370
     9
100
AcDbLine
 10
-1087.492899824022
 20
558.7752877919283
 30
0.0
 11
-1075.649220158672
 21
580.7918100419248
 31
0.0
  0
LINE
  5
D3
330
1F
100
AcDbEntity
  8
C-5
  6
Continuous
 62
     7
370
     9
100
AcDbLine
 10
-1087.492899824022
 20
558.7752877919283
 30
0.0
 11
-1070.354488491743
 21
576.9762453767819
 31
0.0
  0
LINE
  5
D4
330
1F
100
AcDbEntity
  8
C-5
  6
Continuous
 62
     7
370
     9
100
AcDbLine
 10
-1024.385727514134
 20
648.418917122388
 30
0.0
 11
-1087.492899824022
 21
558.7752877919283
 31
0.0
  0
TEXT
  5
D5
330
1F
100
AcDbEntity
  8
C-5
  6
Continuous
 62
     7
370
     9
100
AcDbText
 10
-1016.124832504616
 20
660.2003824996254
 30
0.0
 40
22.86
  1
フック：t=4.0
 41
1.153846153846154
  7
ＭＳ ゴシック
100
AcDbText
  0
TEXT
  5
D6
330
1F
100
AcDbEntity
  8
C-5
  6
Continuous
 62
     7
370
     9
100
AcDbText
 10
-1045.683115881444
 20
201.6000443930016
 30
0.0
 40
22.86
  1
SUS304　ヘアライン仕上
 41
1.151515151515152
  7
ＭＳ ゴシック
100
AcDbText
  0
LINE
  5
D7
330
1F
100
AcDbEntity
  8
C-5
  6
Continuous
 62
     7
370
     9
100
AcDbLine
 10
-1045.683115881444
 20
238.6715439379205
 30
0.0
 11
-659.5309410444396
 21
238.6715439379205
 31
0.0
  0
TEXT
  5
D8
330
1F
100
AcDbEntity
  8
C-5
  6
Continuous
 62
     7
370
     9
100
AcDbText
 10
-874.6065239664489
 20
-666.260140381118
 30
0.0
 40
22.86
  1
脱着用埋設管
 41
1.138888888888889
  7
ＭＳ ゴシック
100
AcDbText
  0
LINE
  5
D9
330
1F
100
AcDbEntity
  8
C-5
  6
Continuous
 62
     7
370
     9
100
AcDbLine
 10
-333.5350857616956
 20
-679.8949536995491
 30
0.0
 11
-880.318216477354
 21
-679.8949536995491
 31
0.0
  0
LINE
  5
DA
330
1F
100
AcDbEntity
  8
C-5
  6
Continuous
 62
     7
370
     9
100
AcDbLine
 10
-1109.128464743821
 20
-281.3890041521713
 30
0.0
 11
-880.318216477354
 21
-679.8949536995491
 31
0.0
  0
LINE
  5
DB
330
1F
100
AcDbEntity
  8
C-5
  6
Continuous
 62
     7
370
     9
100
AcDbLine
 10
-1109.128464743821
 20
-281.3890041521713
 30
0.0
 11
-1093.9568419586
 21
-301.259129014964
 31
0.0
  0
LINE
  5
DC
330
1F
100
AcDbEntity
  8
C-5
  6
Continuous
 62
     7
370
     9
100
AcDbLine
 10
-1109.128464743821
 20
-281.3890041521713
 30
0.0
 11
-1099.616569211916
 21
-304.5087758506579
 31
0.0
  0
LINE
  5
DD
330
1F
100
AcDbEntity
  8
C-5
  6
Continuous
 62
     7
370
     9
100
AcDbLine
 10
-1045.683115881444
 20
238.6715439379205
 30
0.0
 11
-1115.078588298772
 21
118.474856773346
 31
0.0
  0
LINE
  5
DE
330
1F
100
AcDbEntity
  8
C-5
  6
Continuous
 62
     7
370
     9
100
AcDbLine
 10
-1115.078588298772
 20
118.474856773346
 30
0.0
 11
-1105.511519391011
 21
141.5718520868961
 31
0.0
  0
LINE
  5
DF
330
1F
100
AcDbEntity
  8
C-5
  6
Continuous
 62
     7
370
     9
100
AcDbLine
 10
-1115.078588298772
 20
118.474856773346
 30
0.0
 11
-1099.859567087088
 21
138.3087014172449
 31
0.0
  0
LINE
  5
E0
330
1F
100
AcDbEntity
  8
C-6
  6
Continuous
 62
     6
370
     9
100
AcDbLine
 10
-1076.754515317334
 20
-220.3968458952078
 30
0.0
 11
-718.8302920237696
 21
-220.3968458952078
 31
0.0
  0
LINE
  5
E1
330
1F
100
AcDbEntity
  8
C-E
  6
Continuous
 62
     6
370
     9
100
AcDbLine
 10
-1339.378508870589
 20
-473.5971913212
 30
0.0
 11
-939.3785088705895
 21
-473.5971913212
 31
0.0
  0
LINE
  5
E2
330
1F
100
AcDbEntity
  8
C-E
  6
Continuous
 62
     6
370
     9
100
AcDbLine
 10
-1339.378508870589
 20
-573.5971913212
 30
0.0
 11
-1339.378508870589
 21
-473.5971913212
 31
0.0
  0
LINE
  5
E3
330
1F
100
AcDbEntity
  8
C-E
  6
Continuous
 62
     6
370
     9
100
AcDbLine
 10
-1339.378508870589
 20
-573.5971913212
 30
0.0
 11
-939.3785088705895
 21
-573.5971913212
 31
0.0
  0
LINE
  5
E4
330
1F
100
AcDbEntity
  8
C-E
  6
Continuous
 62
     6
370
     9
100
AcDbLine
 10
-1139.378508870589
 20
-473.5971913212
 30
0.0
 11
-1166.173428113702
 21
-573.5971913212
 31
0.0
  0
LINE
  5
E5
330
1F
100
AcDbEntity
  8
C-E
  6
Continuous
 62
     6
370
     9
100
AcDbLine
 10
-1153.124059300162
 20
-573.5971913212
 30
0.0
 11
-1159.648743706932
 21
-549.2467376117819
 31
0.0
  0
LINE
  5
E6
330
1F
100
AcDbEntity
  8
C-E
  6
Continuous
 62
     6
370
     9
100
AcDbLine
 10
-1152.427877684129
 20
-473.5971913212
 30
0.0
 11
-1145.903193277359
 21
-497.947645030618
 31
0.0
  0
LINE
  5
E7
330
1F
100
AcDbEntity
  8
C-E
  6
Continuous
 62
     6
370
     9
100
AcDbLine
 10
-1189.378508870589
 20
-473.5971913212
 30
0.0
 11
-1216.173428113702
 21
-573.5971913212
 31
0.0
  0
LINE
  5
E8
330
1F
100
AcDbEntity
  8
C-E
  6
Continuous
 62
     6
370
     9
100
AcDbLine
 10
-1203.124059300162
 20
-573.5971913212
 30
0.0
 11
-1209.648743706932
 21
-549.2467376117819
 31
0.0
  0
LINE
  5
E9
330
1F
100
AcDbEntity
  8
C-E
  6
Continuous
 62
     6
370
     9
100
AcDbLine
 10
-1202.427877684129
 20
-473.5971913212
 30
0.0
 11
-1195.903193277359
 21
-497.947645030618
 31
0.0
  0
LINE
  5
EA
330
1F
100
AcDbEntity
  8
C-E
  6
Continuous
 62
     6
370
     9
100
AcDbLine
 10
-1239.378508870589
 20
-473.5971913212
 30
0.0
 11
-1266.173428113702
 21
-573.5971913212
 31
0.0
  0
LINE
  5
EB
330
1F
100
AcDbEntity
  8
C-E
  6
Continuous
 62
     6
370
     9
100
AcDbLine
 10
-1253.124059300162
 20
-573.5971913212
 30
0.0
 11
-1259.648743706932
 21
-549.2467376117819
 31
0.0
  0
LINE
  5
EC
330
1F
100
AcDbEntity
  8
C-E
  6
Continuous
 62
     6
370
     9
100
AcDbLine
 10
-1252.427877684129
 20
-473.5971913212
 30
0.0
 11
-1245.903193277359
 21
-497.947645030618
 31
0.0
  0
LINE
  5
ED
330
1F
100
AcDbEntity
  8
C-E
  6
Continuous
 62
     6
370
     9
100
AcDbLine
 10
-1289.37850887059
 20
-473.5971913212
 30
0.0
 11
-1316.173428113701
 21
-573.5971913212
 31
0.0
  0
LINE
  5
EE
330
1F
100
AcDbEntity
  8
C-E
  6
Continuous
 62
     6
370
     9
100
AcDbLine
 10
-1303.124059300162
 20
-573.5971913212
 30
0.0
 11
-1309.648743706931
 21
-549.2467376117819
 31
0.0
  0
LINE
  5
EF
330
1F
100
AcDbEntity
  8
C-E
  6
Continuous
 62
     6
370
     9
100
AcDbLine
 10
-1302.427877684129
 20
-473.5971913212
 30
0.0
 11
-1295.90319327736
 21
-497.947645030618
 31
0.0
  0
LINE
  5
F0
330
1F
100
AcDbEntity
  8
C-E
  6
Continuous
 62
     6
370
     9
100
AcDbLine
 10
-1089.378508870589
 20
-473.5971913212
 30
0.0
 11
-1116.173428113702
 21
-573.5971913212
 31
0.0
  0
LINE
  5
F1
330
1F
100
AcDbEntity
  8
C-E
  6
Continuous
 62
     6
370
     9
100
AcDbLine
 10
-1103.124059300162
 20
-573.5971913212
 30
0.0
 11
-1109.648743706932
 21
-549.2467376117819
 31
0.0
  0
LINE
  5
F2
330
1F
100
AcDbEntity
  8
C-E
  6
Continuous
 62
     6
370
     9
100
AcDbLine
 10
-1102.427877684129
 20
-473.5971913212
 30
0.0
 11
-1095.903193277359
 21
-497.947645030618
 31
0.0
  0
LINE
  5
F3
330
1F
100
AcDbEntity
  8
C-E
  6
Continuous
 62
     6
370
     9
100
AcDbLine
 10
-1039.378508870589
 20
-473.5971913212
 30
0.0
 11
-1066.173428113702
 21
-573.5971913212
 31
0.0
  0
LINE
  5
F4
330
1F
100
AcDbEntity
  8
C-E
  6
Continuous
 62
     6
370
     9
100
AcDbLine
 10
-1053.124059300162
 20
-573.5971913212
 30
0.0
 11
-1059.648743706932
 21
-549.2467376117819
 31
0.0
  0
LINE
  5
F5
330
1F
100
AcDbEntity
  8
C-E
  6
Continuous
 62
     6
370
     9
100
AcDbLine
 10
-1052.427877684129
 20
-473.5971913212
 30
0.0
 11
-1045.903193277359
 21
-497.947645030618
 31
0.0
  0
LINE
  5
F6
330
1F
100
AcDbEntity
  8
C-E
  6
Continuous
 62
     6
370
     9
100
AcDbLine
 10
-989.3785088705895
 20
-473.5971913212
 30
0.0
 11
-1016.173428113702
 21
-573.5971913212
 31
0.0
  0
LINE
  5
F7
330
1F
100
AcDbEntity
  8
C-E
  6
Continuous
 62
     6
370
     9
100
AcDbLine
 10
-1003.124059300162
 20
-573.5971913212
 30
0.0
 11
-1009.648743706932
 21
-549.2467376117819
 31
0.0
  0
LINE
  5
F8
330
1F
100
AcDbEntity
  8
C-E
  6
Continuous
 62
     6
370
     9
100
AcDbLine
 10
-1002.427877684129
 20
-473.5971913212
 30
0.0
 11
-995.9031932773594
 21
-497.947645030618
 31
0.0
  0
LINE
  5
F9
330
1F
100
AcDbEntity
  8
C-E
  6
Continuous
 62
     6
370
     9
100
AcDbLine
 10
-939.3785088705895
 20
-473.5971913212
 30
0.0
 11
-966.1734281137017
 21
-573.5971913212
 31
0.0
  0
LINE
  5
FA
330
1F
100
AcDbEntity
  8
C-E
  6
Continuous
 62
     6
370
     9
100
AcDbLine
 10
-953.1240593001617
 20
-573.5971913212
 30
0.0
 11
-959.6487437069317
 21
-549.2467376117819
 31
0.0
  0
LINE
  5
FB
330
1F
100
AcDbEntity
  8
C-E
  6
Continuous
 62
     6
370
     9
100
AcDbLine
 10
-952.4278776841294
 20
-473.5971913212
 30
0.0
 11
-945.9031932773594
 21
-497.947645030618
 31
0.0
  0
LINE
  5
FC
330
1F
100
AcDbEntity
  8
C-E
  6
Continuous
 62
     6
370
     9
100
AcDbLine
 10
-939.3785088705895
 20
-573.5971913212
 30
0.0
 11
-939.3785088705895
 21
-476.8065518412198
 31
0.0
  0
LINE
  5
FD
330
1F
100
AcDbEntity
  8
C-E
  6
Continuous
 62
     6
370
     9
100
AcDbLine
 10
-939.3785088705895
 20
-476.8065518412198
 30
0.0
 11
-939.3785088705895
 21
-473.5971913212
 31
0.0
  0
LINE
  5
FE
330
1F
100
AcDbEntity
  8
C-E
  6
Continuous
 62
     6
370
     9
100
AcDbLine
 10
-989.3785088705895
 20
-367.4184907128687
 30
0.0
 11
-1095.557209478921
 21
-473.5971913212
 31
0.0
  0
LINE
  5
FF
330
1F
100
AcDbEntity
  8
C-E
  6
Continuous
 62
     6
370
     9
100
AcDbLine
 10
-1169.628491137402
 20
-320.9293684380524
 30
0.0
 11
-1289.37850887059
 21
-440.6793861712399
 31
0.0
  0
LINE
  5
100
330
1F
100
AcDbEntity
  8
C-E
  6
Continuous
 62
     6
370
     9
100
AcDbLine
 10
-1169.628491137402
 20
-335.0715040617833
 30
0.0
 11
-1289.37850887059
 21
-454.8215217949709
 31
0.0
  0
LINE
  5
101
330
1F
100
AcDbEntity
  8
C-E
  6
Continuous
 62
     6
370
     9
100
AcDbLine
 10
-1169.628491137402
 20
-349.2136396855144
 30
0.0
 11
-1289.37850887059
 21
-468.9636574187018
 31
0.0
  0
LINE
  5
102
330
1F
100
AcDbEntity
  8
C-E
  6
Continuous
 62
     6
370
     9
100
AcDbLine
 10
-989.3785088705895
 20
-339.1342194654069
 30
0.0
 11
-1109.128464743821
 21
-458.8841753386381
 31
0.0
  0
LINE
  5
103
330
1F
100
AcDbEntity
  8
C-E
  6
Continuous
 62
     6
370
     9
100
AcDbLine
 10
-989.3785088705895
 20
-353.2763550891378
 30
0.0
 11
-1106.499329596423
 21
-470.3971758149708
 31
0.0
  0
LINE
  5
104
330
1F
100
AcDbEntity
  8
C-E
  6
Continuous
 62
     6
370
     9
100
AcDbLine
 10
-934.3785129945865
 20
-220.3971925687089
 30
0.0
 11
-715.8048705434818
 21
-220.3971925687089
 31
0.0
  0
LINE
  5
105
330
1F
100
AcDbEntity
  8
C-E
  6
Continuous
 62
     6
370
     9
100
AcDbLine
 10
-1289.37850887059
 20
-473.5971913212
 30
0.0
 11
-1289.37850887059
 21
-220.3972170549415
 31
0.0
  0
LINE
  5
106
330
1F
100
AcDbEntity
  8
C-E
  6
Continuous
 62
     6
370
     9
100
AcDbLine
 10
-1027.029092484704
 20
-220.397192568709
 30
0.0
 11
-1109.128464743821
 21
-298.4537610462763
 31
0.0
  0
LINE
  5
107
330
1F
100
AcDbEntity
  8
C-E
  6
Continuous
 62
     6
370
     9
100
AcDbLine
 10
-1012.797211292186
 20
-220.3971925687089
 30
0.0
 11
-1109.128464743821
 21
-312.8326460552315
 31
0.0
  0
LINE
  5
108
330
1F
100
AcDbEntity
  8
C-E
  6
Continuous
 62
     6
370
     9
100
AcDbLine
 10
-998.5801217117204
 20
-220.3971925687089
 30
0.0
 11
-1109.128464743821
 21
-327.1355765314698
 31
0.0
  0
LINE
  5
109
330
1F
100
AcDbEntity
  8
C-E
  6
Continuous
 62
     6
370
     9
100
AcDbLine
 10
-989.3785088705895
 20
-473.5971913212
 30
0.0
 11
-989.3785088705895
 21
-220.3971925687089
 31
0.0
  0
LINE
  5
10A
330
1F
100
AcDbEntity
  8
C-1
  6
Continuous
 62
     2
370
     9
100
AcDbLine
 10
-1109.128464743821
 20
-220.3972170549415
 30
0.0
 11
-1169.628491137402
 21
-220.3972170549415
 31
0.0
  0
LINE
  5
10B
330
1F
100
AcDbEntity
  8
C-2
  6
Continuous
 62
     3
370
     9
100
AcDbLine
 10
-1084.078528913215
 20
522.18292870361
 30
0.0
 11
-1084.078528913215
 21
537.0227609064183
 31
0.0
  0
LINE
  5
10C
330
1F
100
AcDbEntity
  8
C-2
  6
Continuous
 62
     3
370
     9
100
AcDbLine
 10
-1109.0785495332
 20
522.18292870361
 30
0.0
 11
-1109.0785495332
 21
537.0227609064183
 31
0.0
  0
ARC
  5
10D
330
1F
100
AcDbEntity
  8
C-2
  6
Continuous
 62
     3
370
     9
100
AcDbCircle
 10
-1096.578446433274
 20
537.0227609064183
 30
0.0
 40
12.500008376869
100
AcDbArc
 50
0.0
 51
180.0
  0
ARC
  5
10E
330
1F
100
AcDbEntity
  8
C-2
  6
Continuous
 62
     3
370
     9
100
AcDbCircle
 10
-1096.578446433274
 20
522.18292870361
 30
0.0
 40
12.500008376869
100
AcDbArc
 50
180.0
 51
0.0
  0
LINE
  5
10F
330
1F
100
AcDbEntity
  8
C-2
  6
JWW_CENTER2
 62
     7
370
     9
100
AcDbLine
 10
-1110.935709121988
 20
529.6028448050141
 30
0.0
 11
-1080.965921524332
 21
529.6028448050141
 31
0.0
  0
LINE
  5
110
330
1F
100
AcDbEntity
  8
C-2
  6
JWW_CENTER2
 62
     7
370
     9
100
AcDbLine
 10
-1096.578446433274
 20
551.5643044030401
 30
0.0
 11
-1096.578446433274
 21
506.5786311687706
 31
0.0
  0
LINE
  5
111
330
1F
100
AcDbEntity
  8
C-2
  6
Continuous
 62
     3
370
     9
100
AcDbLine
 10
-1194.678426968008
 20
522.18292870361
 30
0.0
 11
-1194.678426968008
 21
537.0227609064183
 31
0.0
  0
LINE
  5
112
330
1F
100
AcDbEntity
  8
C-2
  6
Continuous
 62
     3
370
     9
100
AcDbLine
 10
-1169.678406348023
 20
522.18292870361
 30
0.0
 11
-1169.678406348023
 21
537.0227609064183
 31
0.0
  0
ARC
  5
113
330
1F
100
AcDbEntity
  8
C-2
  6
Continuous
 62
     3
370
     9
100
AcDbCircle
 10
-1182.178509447949
 20
537.0227609064183
 30
0.0
 40
12.500008376869
100
AcDbArc
 50
0.0
 51
180.0
  0
ARC
  5
114
330
1F
100
AcDbEntity
  8
C-2
  6
Continuous
 62
     3
370
     9
100
AcDbCircle
 10
-1182.178509447949
 20
522.18292870361
 30
0.0
 40
12.500008376869
100
AcDbArc
 50
180.0
 51
0.0
  0
LINE
  5
115
330
1F
100
AcDbEntity
  8
C-2
  6
JWW_CENTER2
 62
     7
370
     9
100
AcDbLine
 10
-1182.178509447949
 20
551.5643044030401
 30
0.0
 11
-1182.178509447949
 21
506.5786311687706
 31
0.0
  0
LINE
  5
116
330
1F
100
AcDbEntity
  8
C-2
  6
JWW_CENTER2
 62
     7
370
     9
100
AcDbLine
 10
-1167.821246759235
 20
529.6028448050141
 30
0.0
 11
-1197.791034356891
 21
529.6028448050141
 31
0.0
  0
TEXT
  5
117
330
1F
100
AcDbEntity
  8
C-5
  6
Continuous
 62
     7
370
     9
100
AcDbText
 10
-874.6065239664492
 20
-753.2679412458145
 30
0.0
 40
22.86
  1
埋設管本体：SGP　溶融亜鉛めっき
 41
1.155913978494625
  7
ＭＳ ゴシック
100
AcDbText
  0
TEXT
  5
118
330
1F
100
AcDbEntity
  8
C-5
  6
Continuous
 62
     7
370
     9
100
AcDbText
 10
-874.6065239664492
 20
-715.5776616045426
 30
0.0
 40
22.86
  1
蓋：SPHC　溶融亜鉛めっき
 41
1.152777777777778
  7
ＭＳ ゴシック
100
AcDbText
  0
LINE
  5
119
330
1F
100
AcDbEntity
  8
C-1
  6
Continuous
 62
     4
370
     9
100
AcDbLine
 10
-1102.689576641867
 20
-152.1101196927141
 30
0.0
 11
-1091.662917360017
 21
-214.6454120089893
 31
0.0
  0
LINE
  5
11A
330
1F
100
AcDbEntity
  8
C-1
  6
Continuous
 62
     4
370
     9
100
AcDbLine
 10
-1103.521568890111
 20
-160.6368292924175
 30
0.0
 11
-1107.837658840178
 21
-164.9529192424847
 31
0.0
  0
LINE
  5
11B
330
1F
100
AcDbEntity
  8
C-1
  6
Continuous
 62
     4
370
     9
100
AcDbLine
 10
-1104.954634473795
 20
-152.5095105013481
 30
0.0
 11
-1102.689576641867
 21
-152.1101196927141
 31
0.0
  0
LINE
  5
11C
330
1F
100
AcDbEntity
  8
C-1
  6
Continuous
 62
     4
370
     9
100
AcDbLine
 10
-1093.927975191945
 20
-215.0448028176233
 30
0.0
 11
-1091.662917360017
 21
-214.6454120089893
 31
0.0
  0
LINE
  5
11D
330
1F
100
AcDbEntity
  8
C-1
  6
Continuous
 62
     4
370
     9
100
AcDbLine
 10
-1104.954634473795
 20
-152.5095105013481
 30
0.0
 11
-1093.927975191945
 21
-215.0448028176233
 31
0.0
  0
LINE
  5
11E
330
1F
100
AcDbEntity
  8
C-1
  6
Continuous
 62
     4
370
     9
100
AcDbLine
 10
-1095.361040775629
 20
-206.9174840265538
 30
0.0
 11
-1100.893028355684
 21
-204.3378758531559
 31
0.0
  0
LINE
  5
11F
330
1F
100
AcDbEntity
  8
C-1
  6
Continuous
 62
     4
370
     9
100
AcDbLine
 10
-1107.837658840178
 20
-164.9529192424847
 30
0.0
 11
-1100.893028355684
 21
-204.3378758531559
 31
0.0
  0
LINE
  5
120
330
1F
100
AcDbEntity
  8
C-1
  6
Continuous
 62
     4
370
     9
100
AcDbLine
 10
-1093.927975191945
 20
-215.0448028176233
 30
0.0
 11
-1093.389743944934
 21
-218.0972639035482
 31
0.0
  0
LINE
  5
121
330
1F
100
AcDbEntity
  8
C-1
  6
Continuous
 62
     4
370
     9
100
AcDbLine
 10
-1091.662917360017
 20
-214.6454120089893
 30
0.0
 11
-1091.054262737596
 21
-218.0972639035482
 31
0.0
  0
LINE
  5
122
330
1F
100
AcDbEntity
  8
C-5
  6
Continuous
 62
     7
370
     9
100
AcDbLine
 10
-1024.385727514134
 20
648.418917122388
 30
0.0
 11
-784.9697791028595
 21
648.418917122388
 31
0.0
  0
LINE
  5
123
330
1F
100
AcDbEntity
  8
C-1
  6
Continuous
 62
     2
370
     9
100
AcDbLine
 10
34.99999175200585
 20
-470.3971758149708
 30
0.0
 11
34.99999175200585
 21
-473.5971913212
 31
0.0
  0
LINE
  5
124
330
1F
100
AcDbEntity
  8
C-1
  6
Continuous
 62
     2
370
     9
100
AcDbLine
 10
-35.00005361196145
 20
-470.3971758149708
 30
0.0
 11
34.99999175200585
 21
-470.3971758149708
 31
0.0
  0
LINE
  5
125
330
1F
100
AcDbEntity
  8
C-1
  6
Continuous
 62
     2
370
     9
100
AcDbLine
 10
-35.00005361196145
 20
-470.3971758149708
 30
0.0
 11
-35.00005361196145
 21
-473.5971913212
 31
0.0
  0
LINE
  5
126
330
1F
100
AcDbEntity
  8
C-1
  6
Continuous
 62
     2
370
     9
100
AcDbLine
 10
30.25001319679063
 20
-220.3972170549415
 30
0.0
 11
30.25001319679063
 21
-470.3971758149708
 31
0.0
  0
LINE
  5
127
330
1F
100
AcDbEntity
  8
C-1
  6
JWW_DASHED1
 62
     2
370
     9
100
AcDbLine
 10
26.24996288402656
 20
-220.3972170549415
 30
0.0
 11
26.24996288402656
 21
-470.3971758149708
 31
0.0
  0
LINE
  5
128
330
1F
100
AcDbEntity
  8
C-2
  6
JWW_DASHED1
 62
     3
370
     9
100
AcDbLine
 10
24.29988964183906
 20
-220.3972170549415
 30
0.0
 11
24.29988964183906
 21
-470.3971758149708
 31
0.0
  0
LINE
  5
129
330
1F
100
AcDbEntity
  8
C-1
  6
JWW_DASHED1
 62
     2
370
     9
100
AcDbLine
 10
12.49997938001471
 20
-470.3971758149708
 30
0.0
 11
12.49997938001471
 21
-473.5971913212
 31
0.0
  0
LINE
  5
12A
330
1F
100
AcDbEntity
  8
C-1
  6
Continuous
 62
     2
370
     9
100
AcDbLine
 10
-12.5000412399703
 20
-470.3971758149708
 30
0.0
 11
-12.5000412399703
 21
-473.5971913212
 31
0.0
  0
LINE
  5
12B
330
1F
100
AcDbEntity
  8
C-2
  6
Continuous
 62
     3
370
     9
100
AcDbLine
 10
24.29988964183906
 20
621.9575935051303
 30
0.0
 11
0.0
 21
621.9575935051303
 31
0.0
  0
LINE
  5
12C
330
1F
100
AcDbEntity
  8
C-2
  6
JWW_HOJO
 62
     3
370
     9
100
AcDbLine
 10
24.29988964183906
 20
-470.3971758149708
 30
0.0
 11
-24.30007522170612
 21
-470.3971758149708
 31
0.0
  0
ARC
  5
12D
330
1F
100
AcDbEntity
  8
C-2
  6
Continuous
 62
     3
370
     9
100
AcDbCircle
 10
0.0
 20
587.1628530860004
 30
0.0
 40
42.44000847275193
100
AcDbArc
 50
55.07037353515627
 51
124.9299621582031
  0
LINE
  5
12E
330
1F
100
AcDbEntity
  8
C-2
  6
JWW_CENTER2
 62
     7
370
     9
100
AcDbLine
 10
0.0
 20
651.4420278906879
 30
0.0
 11
0.0
 21
-490.0071529185396
 31
0.0
  0
LINE
  5
12F
330
1F
100
AcDbEntity
  8
C-2
  6
Continuous
 62
     3
370
     9
100
AcDbLine
 10
-24.29988964183906
 20
621.9575935051303
 30
0.0
 11
0.0
 21
621.9575935051303
 31
0.0
  0
LINE
  5
130
330
1F
100
AcDbEntity
  8
C-1
  6
Continuous
 62
     2
370
     9
100
AcDbLine
 10
-30.25001319679063
 20
-220.3972170549415
 30
0.0
 11
-30.25001319679063
 21
-470.3971758149708
 31
0.0
  0
LINE
  5
131
330
1F
100
AcDbEntity
  8
C-1
  6
JWW_DASHED1
 62
     2
370
     9
100
AcDbLine
 10
-26.24996288402656
 20
-220.3972170549415
 30
0.0
 11
-26.24996288402656
 21
-470.3971758149708
 31
0.0
  0
LINE
  5
132
330
1F
100
AcDbEntity
  8
C-2
  6
JWW_DASHED1
 62
     3
370
     9
100
AcDbLine
 10
-24.29988964183906
 20
-220.3972170549415
 30
0.0
 11
-24.29988964183906
 21
-470.3971758149708
 31
0.0
  0
LINE
  5
133
330
1F
100
AcDbEntity
  8
C-E
  6
Continuous
 62
     6
370
     9
100
AcDbLine
 10
-200.0000309299779
 20
-473.5971913212
 30
0.0
 11
199.9999690700218
 21
-473.5971913212
 31
0.0
  0
LINE
  5
134
330
1F
100
AcDbEntity
  8
C-E
  6
Continuous
 62
     6
370
     9
100
AcDbLine
 10
-200.0000309299779
 20
-573.5971913212
 30
0.0
 11
-200.0000309299779
 21
-473.5971913212
 31
0.0
  0
LINE
  5
135
330
1F
100
AcDbEntity
  8
C-E
  6
Continuous
 62
     6
370
     9
100
AcDbLine
 10
-200.0000309299779
 20
-573.5971913212
 30
0.0
 11
199.9999690700218
 21
-573.5971913212
 31
0.0
  0
LINE
  5
136
330
1F
100
AcDbEntity
  8
C-E
  6
Continuous
 62
     6
370
     9
100
AcDbLine
 10
-0.0000309299780099
 20
-473.5971913212
 30
0.0
 11
-26.79495017309037
 21
-573.5971913212
 31
0.0
  0
LINE
  5
137
330
1F
100
AcDbEntity
  8
C-E
  6
Continuous
 62
     6
370
     9
100
AcDbLine
 10
-13.74558135955041
 20
-573.5971913212
 30
0.0
 11
-20.27026576632053
 21
-549.2467376117819
 31
0.0
  0
LINE
  5
138
330
1F
100
AcDbEntity
  8
C-E
  6
Continuous
 62
     6
370
     9
100
AcDbLine
 10
-13.04939974351825
 20
-473.5971913212
 30
0.0
 11
-6.52471533674813
 21
-497.947645030618
 31
0.0
  0
LINE
  5
139
330
1F
100
AcDbEntity
  8
C-E
  6
Continuous
 62
     6
370
     9
100
AcDbLine
 10
-50.00003092997801
 20
-473.5971913212
 30
0.0
 11
-76.79495017309037
 21
-573.5971913212
 31
0.0
  0
LINE
  5
13A
330
1F
100
AcDbEntity
  8
C-E
  6
Continuous
 62
     6
370
     9
100
AcDbLine
 10
-63.74558135955041
 20
-573.5971913212
 30
0.0
 11
-70.27026576632053
 21
-549.2467376117819
 31
0.0
  0
LINE
  5
13B
330
1F
100
AcDbEntity
  8
C-E
  6
Continuous
 62
     6
370
     9
100
AcDbLine
 10
-63.04939974351825
 20
-473.5971913212
 30
0.0
 11
-56.52471533674813
 21
-497.947645030618
 31
0.0
  0
LINE
  5
13C
330
1F
100
AcDbEntity
  8
C-E
  6
Continuous
 62
     6
370
     9
100
AcDbLine
 10
-100.000030929978
 20
-473.5971913212
 30
0.0
 11
-126.7949501730904
 21
-573.5971913212
 31
0.0
  0
LINE
  5
13D
330
1F
100
AcDbEntity
  8
C-E
  6
Continuous
 62
     6
370
     9
100
AcDbLine
 10
-113.7455813595504
 20
-573.5971913212
 30
0.0
 11
-120.2702657663205
 21
-549.2467376117819
 31
0.0
  0
LINE
  5
13E
330
1F
100
AcDbEntity
  8
C-E
  6
Continuous
 62
     6
370
     9
100
AcDbLine
 10
-113.0493997435183
 20
-473.5971913212
 30
0.0
 11
-106.5247153367481
 21
-497.947645030618
 31
0.0
  0
LINE
  5
13F
330
1F
100
AcDbEntity
  8
C-E
  6
Continuous
 62
     6
370
     9
100
AcDbLine
 10
-150.0000309299784
 20
-473.5971913212
 30
0.0
 11
-176.7949501730899
 21
-573.5971913212
 31
0.0
  0
LINE
  5
140
330
1F
100
AcDbEntity
  8
C-E
  6
Continuous
 62
     6
370
     9
100
AcDbLine
 10
-163.7455813595508
 20
-573.5971913212
 30
0.0
 11
-170.2702657663198
 21
-549.2467376117819
 31
0.0
  0
LINE
  5
141
330
1F
100
AcDbEntity
  8
C-E
  6
Continuous
 62
     6
370
     9
100
AcDbLine
 10
-163.0493997435181
 20
-473.5971913212
 30
0.0
 11
-156.5247153367486
 21
-497.947645030618
 31
0.0
  0
LINE
  5
142
330
1F
100
AcDbEntity
  8
C-E
  6
Continuous
 62
     6
370
     9
100
AcDbLine
 10
49.99996907002185
 20
-473.5971913212
 30
0.0
 11
23.20504982690963
 21
-573.5971913212
 31
0.0
  0
LINE
  5
143
330
1F
100
AcDbEntity
  8
C-E
  6
Continuous
 62
     6
370
     9
100
AcDbLine
 10
36.25441864044959
 20
-573.5971913212
 30
0.0
 11
29.72973423367947
 21
-549.2467376117819
 31
0.0
  0
LINE
  5
144
330
1F
100
AcDbEntity
  8
C-E
  6
Continuous
 62
     6
370
     9
100
AcDbLine
 10
36.95060025648175
 20
-473.5971913212
 30
0.0
 11
43.47528466325187
 21
-497.947645030618
 31
0.0
  0
LINE
  5
145
330
1F
100
AcDbEntity
  8
C-E
  6
Continuous
 62
     6
370
     9
100
AcDbLine
 10
99.99996907002185
 20
-473.5971913212
 30
0.0
 11
73.20504982690963
 21
-573.5971913212
 31
0.0
  0
LINE
  5
146
330
1F
100
AcDbEntity
  8
C-E
  6
Continuous
 62
     6
370
     9
100
AcDbLine
 10
86.25441864044959
 20
-573.5971913212
 30
0.0
 11
79.72973423367961
 21
-549.2467376117819
 31
0.0
  0
LINE
  5
147
330
1F
100
AcDbEntity
  8
C-E
  6
Continuous
 62
     6
370
     9
100
AcDbLine
 10
86.95060025648189
 20
-473.5971913212
 30
0.0
 11
93.47528466325187
 21
-497.947645030618
 31
0.0
  0
LINE
  5
148
330
1F
100
AcDbEntity
  8
C-E
  6
Continuous
 62
     6
370
     9
100
AcDbLine
 10
149.9999690700218
 20
-473.5971913212
 30
0.0
 11
123.2050498269096
 21
-573.5971913212
 31
0.0
  0
LINE
  5
149
330
1F
100
AcDbEntity
  8
C-E
  6
Continuous
 62
     6
370
     9
100
AcDbLine
 10
136.2544186404496
 20
-573.5971913212
 30
0.0
 11
129.7297342336796
 21
-549.2467376117819
 31
0.0
  0
LINE
  5
14A
330
1F
100
AcDbEntity
  8
C-E
  6
Continuous
 62
     6
370
     9
100
AcDbLine
 10
136.9506002564819
 20
-473.5971913212
 30
0.0
 11
143.4752846632519
 21
-497.947645030618
 31
0.0
  0
LINE
  5
14B
330
1F
100
AcDbEntity
  8
C-E
  6
Continuous
 62
     6
370
     9
100
AcDbLine
 10
199.9999690700218
 20
-473.5971913212
 30
0.0
 11
173.2050498269096
 21
-573.5971913212
 31
0.0
  0
LINE
  5
14C
330
1F
100
AcDbEntity
  8
C-E
  6
Continuous
 62
     6
370
     9
100
AcDbLine
 10
186.2544186404496
 20
-573.5971913212
 30
0.0
 11
179.7297342336796
 21
-549.2467376117819
 31
0.0
  0
LINE
  5
14D
330
1F
100
AcDbEntity
  8
C-E
  6
Continuous
 62
     6
370
     9
100
AcDbLine
 10
186.9506002564819
 20
-473.5971913212
 30
0.0
 11
193.4752846632519
 21
-497.947645030618
 31
0.0
  0
LINE
  5
14E
330
1F
100
AcDbEntity
  8
C-E
  6
Continuous
 62
     6
370
     9
100
AcDbLine
 10
199.9999690700218
 20
-573.5971913212
 30
0.0
 11
199.9999690700218
 21
-476.8065518412198
 31
0.0
  0
LINE
  5
14F
330
1F
100
AcDbEntity
  8
C-E
  6
Continuous
 62
     6
370
     9
100
AcDbLine
 10
199.9999690700218
 20
-476.8065518412198
 30
0.0
 11
199.9999690700218
 21
-473.5971913212
 31
0.0
  0
LINE
  5
150
330
1F
100
AcDbEntity
  8
C-E
  6
Continuous
 62
     6
370
     9
100
AcDbLine
 10
149.9999690700218
 20
-367.4184907128687
 30
0.0
 11
43.82126846169058
 21
-473.5971913212
 31
0.0
  0
LINE
  5
151
330
1F
100
AcDbEntity
  8
C-E
  6
Continuous
 62
     6
370
     9
100
AcDbLine
 10
-30.25001319679049
 20
-320.9293684380524
 30
0.0
 11
-150.0000309299784
 21
-440.6793861712399
 31
0.0
  0
LINE
  5
152
330
1F
100
AcDbEntity
  8
C-E
  6
Continuous
 62
     6
370
     9
100
AcDbLine
 10
-30.25001319679049
 20
-335.0715040617833
 30
0.0
 11
-150.0000309299784
 21
-454.8215217949709
 31
0.0
  0
LINE
  5
153
330
1F
100
AcDbEntity
  8
C-E
  6
Continuous
 62
     6
370
     9
100
AcDbLine
 10
-30.25001319679049
 20
-349.2136396855144
 30
0.0
 11
-150.0000309299784
 21
-468.9636574187018
 31
0.0
  0
LINE
  5
154
330
1F
100
AcDbEntity
  8
C-E
  6
Continuous
 62
     6
370
     9
100
AcDbLine
 10
149.9999690700218
 20
-339.1342194654069
 30
0.0
 11
30.25001319679049
 21
-458.8841753386381
 31
0.0
  0
LINE
  5
155
330
1F
100
AcDbEntity
  8
C-E
  6
Continuous
 62
     6
370
     9
100
AcDbLine
 10
149.9999690700218
 20
-353.2763550891378
 30
0.0
 11
32.87914834418871
 21
-470.3971758149708
 31
0.0
  0
LINE
  5
156
330
1F
100
AcDbEntity
  8
C-E
  6
Continuous
 62
     6
370
     9
100
AcDbLine
 10
204.9999649460248
 20
-220.3971925687089
 30
0.0
 11
423.5736073971294
 21
-220.3971925687089
 31
0.0
  0
LINE
  5
157
330
1F
100
AcDbEntity
  8
C-E
  6
Continuous
 62
     6
370
     9
100
AcDbLine
 10
-150.0000309299784
 20
-473.5971913212
 30
0.0
 11
-150.0000309299784
 21
-220.3972170549415
 31
0.0
  0
LINE
  5
158
330
1F
100
AcDbEntity
  8
C-E
  6
Continuous
 62
     6
370
     9
100
AcDbLine
 10
112.3493854559074
 20
-220.397192568709
 30
0.0
 11
30.25001319679049
 21
-298.4537610462763
 31
0.0
  0
LINE
  5
159
330
1F
100
AcDbEntity
  8
C-E
  6
Continuous
 62
     6
370
     9
100
AcDbLine
 10
126.5812666484253
 20
-220.3971925687089
 30
0.0
 11
30.25001319679049
 21
-312.8326460552315
 31
0.0
  0
LINE
  5
15A
330
1F
100
AcDbEntity
  8
C-E
  6
Continuous
 62
     6
370
     9
100
AcDbLine
 10
140.7983562288909
 20
-220.3971925687089
 30
0.0
 11
30.25001319679049
 21
-327.1355765314698
 31
0.0
  0
LINE
  5
15B
330
1F
100
AcDbEntity
  8
C-E
  6
Continuous
 62
     6
370
     9
100
AcDbLine
 10
149.9999690700218
 20
-473.5971913212
 30
0.0
 11
149.9999690700218
 21
-220.3971925687089
 31
0.0
  0
LINE
  5
15C
330
1F
100
AcDbEntity
  8
C-E
  6
Continuous
 62
     6
370
     9
100
AcDbLine
 10
-30.25001319679063
 20
-220.3972131886944
 30
0.0
 11
-418.5106696169512
 21
-220.3972131886944
 31
0.0
  0
TEXT
  5
15D
330
1F
100
AcDbEntity
  8
C-5
  6
Continuous
 62
     2
370
     9
100
AcDbText
 10
289.6638683017351
 20
-206.294762449804
 30
0.0
 40
30.48
  1
▽G.L.
 41
1.104166666666667
  7
ＭＳ ゴシック
100
AcDbText
  0
CIRCLE
  5
15E
330
1F
100
AcDbEntity
  8
C-1
  6
Continuous
 62
     4
370
     9
100
AcDbCircle
 10
-0.0000000000001421
 20
-184.0971857125641
 30
0.0
 40
22.3
  0
CIRCLE
  5
15F
330
1F
100
AcDbEntity
  8
C-1
  6
Continuous
 62
     4
370
     9
100
AcDbCircle
 10
-0.0000000000001421
 20
-184.0971857125641
 30
0.0
 40
19.99626652522046
  0
ARC
  5
160
330
1F
100
AcDbEntity
  8
C-1
  6
Continuous
 62
     4
370
     9
100
AcDbCircle
 10
-0.0000000000001421
 20
-184.0971857125641
 30
0.0
 40
31.75
100
AcDbArc
 50
288.3584370753301
 51
251.64156292467
  0
LINE
  5
161
330
1F
100
AcDbEntity
  8
C-2
  6
Continuous
 62
     3
370
     9
100
AcDbLine
 10
-0.9999999999999987
 20
563.6028085138402
 30
0.0
 11
1.000000000000001
 21
563.6028085138402
 31
0.0
  0
LINE
  5
162
330
1F
100
AcDbEntity
  8
C-2
  6
Continuous
 62
     3
370
     9
100
AcDbLine
 10
-0.9999999999999987
 20
563.6028085138402
 30
0.0
 11
-0.9999999999999987
 21
495.6028810961881
 31
0.0
  0
LINE
  5
163
330
1F
100
AcDbEntity
  8
C-2
  6
Continuous
 62
     3
370
     9
100
AcDbLine
 10
-0.9999999999999987
 20
495.6028810961881
 30
0.0
 11
1.000000000000001
 21
495.6028810961881
 31
0.0
  0
LINE
  5
164
330
1F
100
AcDbEntity
  8
C-2
  6
Continuous
 62
     3
370
     9
100
AcDbLine
 10
1.000000000000001
 20
563.6028085138402
 30
0.0
 11
1.000000000000001
 21
495.6028810961881
 31
0.0
  0
LINE
  5
165
330
1F
100
AcDbEntity
  8
C-6
  6
Continuous
 62
     6
370
     9
100
AcDbLine
 10
30.25001319679063
 20
-220.3968458952078
 30
0.0
 11
420.5481859168417
 21
-220.3968458952078
 31
0.0
  0
LINE
  5
166
330
1F
100
AcDbEntity
  8
C-4
  6
Continuous
 62
     7
370
     9
100
AcDbLine
 10
-1163.67836758245
 20
685.0983203455622
 30
0.0
 11
-1163.67836758245
 21
626.7916402484805
 31
0.0
  0
LINE
  5
167
330
1F
100
AcDbEntity
  8
C-4
  6
Continuous
 62
     7
370
     9
100
AcDbLine
 10
-1115.078588298772
 20
685.0983203455622
 30
0.0
 11
-1115.078588298772
 21
626.7916402484805
 31
0.0
  0
LINE
  5
168
330
1F
100
AcDbEntity
  8
C-1
  6
Continuous
 62
     2
370
     9
100
AcDbLine
 10
-13.3
 20
-243.0972226635776
 30
0.0
 11
13.3
 21
-243.0972226635776
 31
0.0
  0
LINE
  5
169
330
1F
100
AcDbEntity
  8
C-1
  6
Continuous
 62
     2
370
     9
100
AcDbLine
 10
-13.3
 20
-218.0971215773218
 30
0.0
 11
-13.3
 21
-243.0972226635776
 31
0.0
  0
LINE
  5
16A
330
1F
100
AcDbEntity
  8
C-1
  6
Continuous
 62
     2
370
     9
100
AcDbLine
 10
-13.3
 20
-218.0971215773218
 30
0.0
 11
13.3
 21
-218.0971215773218
 31
0.0
  0
LINE
  5
16B
330
1F
100
AcDbEntity
  8
C-1
  6
Continuous
 62
     2
370
     9
100
AcDbLine
 10
13.3
 20
-218.0971215773218
 30
0.0
 11
13.3
 21
-243.0972226635776
 31
0.0
  0
LINE
  5
16C
330
1F
100
AcDbEntity
  8
C-1
  6
Continuous
 62
     2
370
     9
100
AcDbLine
 10
-13.3
 20
-220.3972170549415
 30
0.0
 11
-30.25001319679063
 21
-220.3972170549415
 31
0.0
  0
LINE
  5
16D
330
1F
100
AcDbEntity
  8
C-1
  6
Continuous
 62
     2
370
     9
100
AcDbLine
 10
30.25001319679063
 20
-220.3972170549415
 30
0.0
 11
13.3
 21
-220.3972170549415
 31
0.0
  0
LINE
  5
16E
330
1F
100
AcDbEntity
  8
C-1
  6
Continuous
 62
     4
370
     9
100
AcDbLine
 10
-10.00000000000014
 20
-214.2312611090318
 30
0.0
 11
-10.00000000000014
 21
-218.0971215773218
 31
0.0
  0
LINE
  5
16F
330
1F
100
AcDbEntity
  8
C-1
  6
Continuous
 62
     4
370
     9
100
AcDbLine
 10
9.999999999999858
 20
-214.2312611090318
 30
0.0
 11
9.999999999999858
 21
-218.0971215773218
 31
0.0
  0
LINE
  5
170
330
1F
100
AcDbEntity
  8
D-2
  6
Continuous
 62
     3
370
     9
100
AcDbLine
 10
1200.338049968099
 20
899.0365390067205
 30
0.0
 11
1119.338417828636
 21
899.0365390067205
 31
0.0
  0
LINE
  5
171
330
1F
100
AcDbEntity
  8
D-2
  6
Continuous
 62
     3
370
     9
100
AcDbLine
 10
1292.290605856507
 20
688.4291649700865
 30
0.0
 11
1200.338668567656
 21
704.520795235606
 31
0.0
  0
LINE
  5
172
330
1F
100
AcDbEntity
  8
D-2
  6
Continuous
 62
     3
370
     9
100
AcDbLine
 10
1292.290605856507
 20
493.9462069754705
 30
0.0
 11
1200.338668567656
 21
477.8543705100991
 31
0.0
  0
LINE
  5
173
330
1F
100
AcDbEntity
  8
D-2
  6
Continuous
 62
     3
370
     9
100
AcDbLine
 10
1333.671616994598
 20
543.1974540721767
 30
0.0
 11
1333.671616994598
 21
639.1777116735283
 31
0.0
  0
ARC
  5
174
330
1F
100
AcDbEntity
  8
D-2
  6
Continuous
 62
     3
370
     9
100
AcDbCircle
 10
1119.338417828636
 20
783.054277142806
 30
0.0
 40
141.4666949091731
100
AcDbArc
 50
55.07037353515627
 51
124.9299621582031
  0
ARC
  5
175
330
1F
100
AcDbEntity
  8
D-2
  6
Continuous
 62
     3
370
     9
100
AcDbCircle
 10
1283.671658234568
 20
639.1777116735283
 30
0.0
 40
49.99999420062915
100
AcDbArc
 50
0.0
 51
80.07365417480469
  0
ARC
  5
176
330
1F
100
AcDbEntity
  8
D-2
  6
Continuous
 62
     3
370
     9
100
AcDbCircle
 10
1283.671658234568
 20
543.1974540721767
 30
0.0
 40
49.99999420062915
100
AcDbArc
 50
279.9263458251953
 51
0.0
  0
LINE
  5
177
330
1F
100
AcDbEntity
  8
D-2
  6
Continuous
 62
     3
370
     9
100
AcDbLine
 10
946.3862298007643
 20
688.4291649700865
 30
0.0
 11
1038.338167089615
 21
704.520795235606
 31
0.0
  0
LINE
  5
178
330
1F
100
AcDbEntity
  8
D-2
  6
Continuous
 62
     3
370
     9
100
AcDbLine
 10
946.3862298007643
 20
493.9462069754705
 30
0.0
 11
1038.338167089615
 21
477.8543705100991
 31
0.0
  0
LINE
  5
179
330
1F
100
AcDbEntity
  8
D-2
  6
Continuous
 62
     3
370
     9
100
AcDbLine
 10
905.0052186626729
 20
543.1974540721767
 30
0.0
 11
905.0052186626729
 21
639.1777116735283
 31
0.0
  0
ARC
  5
17A
330
1F
100
AcDbEntity
  8
D-2
  6
Continuous
 62
     3
370
     9
100
AcDbCircle
 10
955.0051774227023
 20
639.1777116735283
 30
0.0
 40
49.99999420062915
100
AcDbArc
 50
99.92634582519531
 51
180.0
  0
ARC
  5
17B
330
1F
100
AcDbEntity
  8
D-2
  6
Continuous
 62
     3
370
     9
100
AcDbCircle
 10
955.0051774227023
 20
543.1974540721767
 30
0.0
 40
49.99999420062915
100
AcDbArc
 50
180.0
 51
260.0736541748047
  0
LINE
  5
17C
330
1F
100
AcDbEntity
  8
D-2
  6
Continuous
 62
     3
370
     9
100
AcDbLine
 10
1038.338785689172
 20
899.0365390067205
 30
0.0
 11
1119.338417828636
 21
899.0365390067205
 31
0.0
  0
LINE
  5
17D
330
1F
100
AcDbEntity
  8
D-2
  6
Continuous
 62
     3
370
     9
100
AcDbLine
 10
1038.338785689172
 20
899.0365390067205
 30
0.0
 11
1038.338785689172
 21
381.5610352303983
 31
0.0
  0
LINE
  5
17E
330
1F
100
AcDbEntity
  8
D-2
  6
Continuous
 62
     3
370
     9
100
AcDbLine
 10
1200.338049968099
 20
899.0365390067205
 30
0.0
 11
1200.338049968099
 21
381.5610352303983
 31
0.0
  0
ARC
  5
17F
330
1F
100
AcDbEntity
  8
D-2
  6
Continuous
 62
     3
370
     9
100
AcDbCircle
 10
1159.838233898367
 20
412.5669127724509
 30
0.0
 40
51.00587754205258
100
AcDbArc
 50
217.4369713460802
 51
322.5630286539197
  0
ARC
  5
180
330
1F
100
AcDbEntity
  8
D-2
  6
Continuous
 62
     3
370
     9
100
AcDbCircle
 10
1159.838233898367
 20
350.5551576883458
 30
0.0
 40
51.00587754205258
100
AcDbArc
 50
37.43697134608021
 51
142.5630286539198
  0
ARC
  5
181
330
1F
100
AcDbEntity
  8
D-2
  6
Continuous
 62
     3
370
     9
100
AcDbCircle
 10
1078.838601758904
 20
412.5669127724509
 30
0.0
 40
51.00587754205258
100
AcDbArc
 50
217.4369713460802
 51
322.5630286539198
  0
TEXT
  5
182
330
1F
100
AcDbEntity
  8
D-5
  6
Continuous
 62
     2
370
     9
100
AcDbText
 10
806.2200504816968
 20
165.3325519088582
 30
0.0
 40
30.47999999999989
  1
フック部　詳細図　Ｓ＝１：３
 41
1.116071428571432
  7
ＭＳ ゴシック
100
AcDbText
  0
LINE
  5
183
330
1F
100
AcDbEntity
  8
D-4
  6
Continuous
 62
     7
370
     9
100
AcDbLine
 10
1604.303043677361
 20
924.5202374650048
 30
0.0
 11
1604.303043677361
 21
591.1867580734435
 31
0.0
  0
LWPOLYLINE
  5
184
330
1F
100
AcDbEntity
  8
D-4
  6
Continuous
 62
     7
370
     9
100
AcDbPolyline
 90
        4
 70
     1
 43
2.0
 10
1605.303043677361
 20
924.5202374650048
 42
0.4142135623731
 10
1604.303043677361
 20
925.5202374650048
 42
0.4142135623731
 10
1603.303043677361
 20
924.5202374650048
 42
0.4142135623731
 10
1604.303043677361
 20
923.5202374650049
 42
0.4142135623731
  0
LWPOLYLINE
  5
185
330
1F
100
AcDbEntity
  8
D-4
  6
Continuous
 62
     7
370
     9
100
AcDbPolyline
 90
        4
 70
     1
 43
2.0
 10
1605.303043677361
 20
591.1867580734435
 42
0.4142135623731
 10
1604.303043677361
 20
592.1867580734435
 42
0.4142135623731
 10
1603.303043677361
 20
591.1867580734435
 42
0.4142135623731
 10
1604.303043677361
 20
590.1867580734435
 42
0.4142135623731
  0
TEXT
  5
186
330
1F
100
AcDbEntity
  8
D-4
  6
Continuous
 62
     2
370
   211
100
AcDbText
 10
1245.755142781128
 20
835.4040927324478
 30
0.0
 40
30.48000000000005
  1
40
 41
1.062499999999998
  7
ＭＳ ゴシック
100
AcDbText
  0
LINE
  5
187
330
1F
100
AcDbEntity
  8
D-4
  6
Continuous
 62
     7
370
     9
100
AcDbLine
 10
1200.338668567656
 20
823.7640927324483
 30
0.0
 11
1333.671616994599
 21
823.7640927324483
 31
0.0
  0
LWPOLYLINE
  5
188
330
1F
100
AcDbEntity
  8
D-4
  6
Continuous
 62
     7
370
     9
100
AcDbPolyline
 90
        4
 70
     1
 43
2.0
 10
1201.338668567656
 20
823.7640927324483
 42
0.4142135623731
 10
1200.338668567656
 20
824.7640927324483
 42
0.4142135623731
 10
1199.338668567657
 20
823.7640927324483
 42
0.4142135623731
 10
1200.338668567656
 20
822.7640927324484
 42
0.4142135623731
  0
LWPOLYLINE
  5
189
330
1F
100
AcDbEntity
  8
D-4
  6
Continuous
 62
     7
370
     9
100
AcDbPolyline
 90
        4
 70
     1
 43
2.0
 10
1334.671616994599
 20
823.7640927324483
 42
0.4142135623731
 10
1333.671616994599
 20
824.7640927324483
 42
0.4142135623731
 10
1332.671616994599
 20
823.7640927324483
 42
0.4142135623731
 10
1333.671616994599
 20
822.7640927324484
 42
0.4142135623731
  0
LINE
  5
18A
330
1F
100
AcDbEntity
  8
D-4
  6
Continuous
 62
     7
370
     9
100
AcDbLine
 10
1333.671616994599
 20
826.7640927324481
 30
0.0
 11
1333.671616994599
 21
658.763249970614
 31
0.0
  0
TEXT
  5
18B
330
1F
100
AcDbEntity
  8
D-4
  6
Continuous
 62
     2
370
   211
100
AcDbText
 10
1240.754519284324
 20
776.4253693281927
 30
0.0
 40
30.48000000000001
  1
25
 41
1.0625
  7
ＭＳ ゴシック
100
AcDbText
  0
LINE
  5
18C
330
1F
100
AcDbEntity
  8
D-4
  6
Continuous
 62
     7
370
     9
100
AcDbLine
 10
1220.337579832436
 20
764.7853693281928
 30
0.0
 11
1303.671458736212
 21
764.7853693281928
 31
0.0
  0
LWPOLYLINE
  5
18D
330
1F
100
AcDbEntity
  8
D-4
  6
Continuous
 62
     7
370
     9
100
AcDbPolyline
 90
        4
 70
     1
 43
2.0
 10
1221.337579832436
 20
764.7853693281928
 42
0.4142135623731
 10
1220.337579832436
 20
765.7853693281927
 42
0.4142135623731
 10
1219.337579832436
 20
764.7853693281928
 42
0.4142135623731
 10
1220.337579832436
 20
763.7853693281929
 42
0.4142135623731
  0
LWPOLYLINE
  5
18E
330
1F
100
AcDbEntity
  8
D-4
  6
Continuous
 62
     7
370
     9
100
AcDbPolyline
 90
        4
 70
     1
 43
2.0
 10
1304.671458736211
 20
764.7853693281928
 42
0.4142135623731
 10
1303.671458736212
 20
765.7853693281927
 42
0.4142135623731
 10
1302.671458736212
 20
764.7853693281928
 42
0.4142135623731
 10
1303.671458736212
 20
763.7853693281929
 42
0.4142135623731
  0
LINE
  5
18F
330
1F
100
AcDbEntity
  8
D-4
  6
Continuous
 62
     7
370
     9
100
AcDbLine
 10
1220.337579832436
 20
767.7853693281929
 30
0.0
 11
1220.337579832436
 21
636.1868405533844
 31
0.0
  0
LINE
  5
190
330
1F
100
AcDbEntity
  8
D-4
  6
Continuous
 62
     7
370
     9
100
AcDbLine
 10
1303.671458736212
 20
767.7853693281929
 30
0.0
 11
1303.671458736212
 21
636.1868405533844
 31
0.0
  0
TEXT
  5
191
330
1F
100
AcDbEntity
  8
D-4
  6
Continuous
 62
     2
370
   211
100
AcDbText
 10
1592.66304367736
 20
725.3534977692243
 30
0.0
 40
30.48000000000005
  1
100
 50
90.0
 41
1.083333333333331
  7
ＭＳ ゴシック
100
AcDbText
  0
LINE
  5
192
330
1F
100
AcDbEntity
  8
D-4
  6
Continuous
 62
     7
370
     9
100
AcDbLine
 10
1448.781767081616
 20
657.8535029242208
 30
0.0
 11
1448.781767081616
 21
524.5196008229617
 31
0.0
  0
LWPOLYLINE
  5
193
330
1F
100
AcDbEntity
  8
D-4
  6
Continuous
 62
     7
370
     9
100
AcDbPolyline
 90
        4
 70
     1
 43
2.0
 10
1449.781767081616
 20
657.8535029242208
 42
0.4142135623731
 10
1448.781767081616
 20
658.8535029242207
 42
0.4142135623731
 10
1447.781767081616
 20
657.8535029242208
 42
0.4142135623731
 10
1448.781767081616
 20
656.8535029242208
 42
0.4142135623731
  0
LWPOLYLINE
  5
194
330
1F
100
AcDbEntity
  8
D-4
  6
Continuous
 62
     7
370
     9
100
AcDbPolyline
 90
        4
 70
     1
 43
2.0
 10
1449.781767081616
 20
524.5196008229617
 42
0.4142135623731
 10
1448.781767081616
 20
525.5196008229617
 42
0.4142135623731
 10
1447.781767081616
 20
524.5196008229617
 42
0.4142135623731
 10
1448.781767081616
 20
523.5196008229617
 42
0.4142135623731
  0
LINE
  5
195
330
1F
100
AcDbEntity
  8
D-4
  6
Continuous
 62
     7
370
     9
100
AcDbLine
 10
1451.781767081616
 20
657.8535029242208
 30
0.0
 11
1282.004796365375
 21
657.8535029242208
 31
0.0
  0
LINE
  5
196
330
1F
100
AcDbEntity
  8
D-4
  6
Continuous
 62
     7
370
     9
100
AcDbLine
 10
1451.781767081616
 20
524.5196008229617
 30
0.0
 11
1282.004796365375
 21
524.5196008229617
 31
0.0
  0
TEXT
  5
197
330
1F
100
AcDbEntity
  8
D-4
  6
Continuous
 62
     2
370
   211
100
AcDbText
 10
1437.141767081616
 20
569.9365518735913
 30
0.0
 40
30.48000000000005
  1
40
 50
90.0
 41
1.062499999999998
  7
ＭＳ ゴシック
100
AcDbText
  0
LINE
  5
198
330
1F
100
AcDbEntity
  8
D-4
  6
Continuous
 62
     7
370
     9
100
AcDbLine
 10
1607.303043677361
 20
591.1867580734435
 30
0.0
 11
1474.682476301473
 21
591.1867580734435
 31
0.0
  0
LINE
  5
199
330
1F
100
AcDbEntity
  8
D-2
  6
Continuous
 62
     3
370
     9
100
AcDbLine
 10
1303.671581253291
 20
566.4545292015054
 30
0.0
 11
1303.671581253291
 21
615.9206365441997
 31
0.0
  0
LINE
  5
19A
330
1F
100
AcDbEntity
  8
D-2
  6
Continuous
 62
     3
370
     9
100
AcDbLine
 10
1220.338179186673
 20
566.4545292015054
 30
0.0
 11
1220.338179186673
 21
615.9206365441997
 31
0.0
  0
ARC
  5
19B
330
1F
100
AcDbEntity
  8
D-2
  6
Continuous
 62
     3
370
     9
100
AcDbCircle
 10
1262.005189519761
 20
615.9206365441997
 30
0.0
 40
41.66669458956331
100
AcDbArc
 50
0.0
 51
180.0
  0
ARC
  5
19C
330
1F
100
AcDbEntity
  8
D-2
  6
Continuous
 62
     3
370
     9
100
AcDbCircle
 10
1262.005189519761
 20
566.4545292015054
 30
0.0
 40
41.66669458956331
100
AcDbArc
 50
180.0
 51
0.0
  0
LINE
  5
19D
330
1F
100
AcDbEntity
  8
D-2
  6
JWW_CENTER2
 62
     7
370
     9
100
AcDbLine
 10
1214.147647224047
 20
591.1875828728524
 30
0.0
 11
1314.046939216235
 21
591.1875828728524
 31
0.0
  0
LINE
  5
19E
330
1F
100
AcDbEntity
  8
D-2
  6
JWW_CENTER2
 62
     7
370
     9
100
AcDbLine
 10
1262.005189519761
 20
664.392448199605
 30
0.0
 11
1262.005189519761
 21
514.4402040853734
 31
0.0
  0
LINE
  5
19F
330
1F
100
AcDbEntity
  8
D-2
  6
Continuous
 62
     3
370
     9
100
AcDbLine
 10
935.0052544039802
 20
566.4545292015054
 30
0.0
 11
935.0052544039802
 21
615.9206365441997
 31
0.0
  0
LINE
  5
1A0
330
1F
100
AcDbEntity
  8
D-2
  6
Continuous
 62
     3
370
     9
100
AcDbLine
 10
1018.338656470598
 20
566.4545292015054
 30
0.0
 11
1018.338656470598
 21
615.9206365441997
 31
0.0
  0
ARC
  5
1A1
330
1F
100
AcDbEntity
  8
D-2
  6
Continuous
 62
     3
370
     9
100
AcDbCircle
 10
976.6716461375107
 20
615.9206365441997
 30
0.0
 40
41.66669458956331
100
AcDbArc
 50
0.0
 51
180.0
  0
ARC
  5
1A2
330
1F
100
AcDbEntity
  8
D-2
  6
Continuous
 62
     3
370
     9
100
AcDbCircle
 10
976.6716461375107
 20
566.4545292015054
 30
0.0
 40
41.66669458956331
100
AcDbArc
 50
180.0
 51
0.0
  0
LINE
  5
1A3
330
1F
100
AcDbEntity
  8
D-2
  6
JWW_CENTER2
 62
     7
370
     9
100
AcDbLine
 10
1024.529188433224
 20
591.1875828728524
 30
0.0
 11
924.6298964410367
 21
591.1875828728524
 31
0.0
  0
LINE
  5
1A4
330
1F
100
AcDbEntity
  8
D-2
  6
JWW_CENTER2
 62
     7
370
     9
100
AcDbLine
 10
976.6716461375107
 20
664.392448199605
 30
0.0
 11
976.6716461375107
 21
514.4402040853734
 31
0.0
  0
LINE
  5
1A5
330
1F
100
AcDbEntity
  8
D-4
  6
Continuous
 62
     7
370
     9
100
AcDbLine
 10
1607.303043677361
 20
924.5202374650048
 30
0.0
 11
1172.685836848794
 21
924.5202374650048
 31
0.0
  0
LINE
  5
1A6
330
1F
100
AcDbEntity
  8
D-5
  6
Continuous
 62
     7
370
     9
100
AcDbLine
 10
807.2078055837376
 20
146.3578580313073
 30
0.0
 11
1431.469030073534
 21
146.3578580313073
 31
0.0
  0
LINE
  5
1A7
330
1F
100
AcDbEntity
  8
D-2
  6
JWW_CENTER2
 62
     7
370
     9
100
AcDbLine
 10
1119.338417828636
 20
970.2532253585998
 30
0.0
 11
1119.338417828636
 21
334.159107782655
 31
0.0
  0
LINE
  5
1A8
330
1F
100
AcDbEntity
  8
D-1
  6
Continuous
 62
     2
370
     9
100
AcDbLine
 10
1328.602193628361
 20
-539.2375241025072
 30
0.0
 11
1328.602193628361
 21
-477.9037904665267
 31
0.0
  0
LINE
  5
1A9
330
1F
100
AcDbEntity
  8
D-1
  6
Continuous
 62
     2
370
     9
100
AcDbLine
 10
1317.602462512968
 20
-550.237461417752
 30
0.0
 11
1220.171795151271
 21
-550.237461417752
 31
0.0
  0
ARC
  5
1AA
330
1F
100
AcDbEntity
  8
D-1
  6
Continuous
 62
     2
370
     9
100
AcDbCircle
 10
1317.602462512968
 20
-477.9037904665267
 30
0.0
 40
10.99999933629423
100
AcDbArc
 50
0.0
 51
90.0
  0
ARC
  5
1AB
330
1F
100
AcDbEntity
  8
D-1
  6
Continuous
 62
     2
370
     9
100
AcDbCircle
 10
1317.602462512968
 20
-539.2375241025072
 30
0.0
 40
10.99999933629423
100
AcDbArc
 50
270.0
 51
0.0
  0
CIRCLE
  5
1AC
330
1F
100
AcDbEntity
  8
D-1
  6
Continuous
 62
     4
370
     9
100
AcDbCircle
 10
1258.602498804142
 20
-492.9040049143734
 30
0.0
 40
8.333332635260916
  0
LINE
  5
1AD
330
1F
100
AcDbEntity
  8
D-1
  6
Continuous
 62
     2
370
     9
100
AcDbLine
 10
1317.602462512968
 20
-466.9042655509872
 30
0.0
 11
1200.338049968099
 21
-466.9042655509872
 31
0.0
  0
LINE
  5
1AE
330
1F
100
AcDbEntity
  8
D-1
  6
Continuous
 62
     2
370
     9
100
AcDbLine
 10
1220.171795151271
 20
-474.5707760556317
 30
0.0
 11
1018.505040506
 21
-474.5707760556317
 31
0.0
  0
LINE
  5
1AF
330
1F
100
AcDbEntity
  8
D-1
  6
Continuous
 62
     4
370
     9
100
AcDbLine
 10
1241.634755491118
 20
-246.9471181815404
 30
0.0
 11
1278.390286430617
 21
-455.3980925691243
 31
0.0
  0
LINE
  5
1B0
330
1F
100
AcDbEntity
  8
D-1
  6
Continuous
 62
     4
370
     9
100
AcDbLine
 10
1238.861447996971
 20
-275.369483513885
 30
0.0
 11
1224.474481496748
 21
-289.7564500141091
 31
0.0
  0
LINE
  5
1B1
330
1F
100
AcDbEntity
  8
D-1
  6
Continuous
 62
     4
370
     9
100
AcDbLine
 10
1234.084562718023
 20
-248.2784208769869
 30
0.0
 11
1241.634755491118
 21
-246.9471181815404
 31
0.0
  0
LINE
  5
1B2
330
1F
100
AcDbEntity
  8
D-1
  6
Continuous
 62
     4
370
     9
100
AcDbLine
 10
1270.840093657524
 20
-456.7293952645709
 30
0.0
 11
1278.390286430617
 21
-455.3980925691243
 31
0.0
  0
LINE
  5
1B3
330
1F
100
AcDbEntity
  8
D-1
  6
Continuous
 62
     4
370
     9
100
AcDbLine
 10
1234.084562718023
 20
-248.2784208769869
 30
0.0
 11
1270.840093657524
 21
-456.7293952645709
 31
0.0
  0
LINE
  5
1B4
330
1F
100
AcDbEntity
  8
D-1
  6
Continuous
 62
     4
370
     9
100
AcDbLine
 10
1266.063208378575
 20
-429.6383326276728
 30
0.0
 11
1247.623249778392
 21
-421.0396387163463
 31
0.0
  0
LINE
  5
1B5
330
1F
100
AcDbEntity
  8
D-1
  6
Continuous
 62
     4
370
     9
100
AcDbLine
 10
1224.474481496748
 20
-289.7564500141091
 30
0.0
 11
1247.623249778392
 21
-421.0396387163463
 31
0.0
  0
LINE
  5
1B6
330
1F
100
AcDbEntity
  8
D-1
  6
Continuous
 62
     4
370
     9
100
AcDbLine
 10
1270.840093657524
 20
-456.7293952645709
 30
0.0
 11
1272.634197814228
 21
-466.9042655509872
 31
0.0
  0
LINE
  5
1B7
330
1F
100
AcDbEntity
  8
D-1
  6
Continuous
 62
     4
370
     9
100
AcDbLine
 10
1278.390286430617
 20
-455.3980925691243
 30
0.0
 11
1280.419135172019
 21
-466.9042655509872
 31
0.0
  0
LINE
  5
1B8
330
1F
100
AcDbEntity
  8
D-2
  6
Continuous
 62
     3
370
     9
100
AcDbLine
 10
1200.338049968099
 20
-216.7728738614711
 30
0.0
 11
1200.338049968099
 21
-474.5707760556317
 31
0.0
  0
LINE
  5
1B9
330
1F
100
AcDbEntity
  8
D-2
  6
Continuous
 62
     3
370
     9
100
AcDbLine
 10
1038.338785689172
 20
-216.7728738614711
 30
0.0
 11
1038.338785689172
 21
-474.5707760556319
 31
0.0
  0
LINE
  5
1BA
330
1F
100
AcDbEntity
  8
D-1
  6
Continuous
 62
     2
370
     9
100
AcDbLine
 10
1220.171795151271
 20
-474.5707760556317
 30
0.0
 11
1220.171795151271
 21
-613.7870582586343
 31
0.0
  0
LINE
  5
1BB
330
1F
100
AcDbEntity
  8
D-1
  6
Continuous
 62
     2
370
     9
100
AcDbLine
 10
1018.505040506
 20
-474.5707760556317
 30
0.0
 11
1018.505040506
 21
-613.7870582586343
 31
0.0
  0
LINE
  5
1BC
330
1F
100
AcDbEntity
  8
D-2
  6
JWW_CENTER2
 62
     7
370
     9
100
AcDbLine
 10
1119.338417828636
 20
-181.1984057763648
 30
0.0
 11
1119.338417828636
 21
-685.4040795352302
 31
0.0
  0
ARC
  5
1BD
330
1F
100
AcDbEntity
  8
D-1
  6
Continuous
 62
     2
370
     9
100
AcDbCircle
 10
1068.921729167318
 20
-560.2409958693286
 30
0.0
 40
73.54606238930589
100
AcDbArc
 50
226.7241346759974
 51
313.2758653240026
  0
ARC
  5
1BE
330
1F
100
AcDbEntity
  8
D-1
  6
Continuous
 62
     2
370
     9
100
AcDbCircle
 10
1169.755106489954
 20
-560.2409958693286
 30
0.0
 40
73.54606238930589
100
AcDbArc
 50
226.7241346759974
 51
313.2758653240026
  0
ARC
  5
1BF
330
1F
100
AcDbEntity
  8
D-2
  6
Continuous
 62
     3
370
     9
100
AcDbCircle
 10
1078.838601758904
 20
-185.7669963194186
 30
0.0
 40
51.00587754205258
100
AcDbArc
 50
217.4369713460802
 51
322.5630286539197
  0
ARC
  5
1C0
330
1F
100
AcDbEntity
  8
D-2
  6
Continuous
 62
     3
370
     9
100
AcDbCircle
 10
1078.838601758904
 20
-247.7787514035237
 30
0.0
 40
51.00587754205258
100
AcDbArc
 50
37.43697134608021
 51
142.5630286539198
  0
ARC
  5
1C1
330
1F
100
AcDbEntity
  8
D-2
  6
Continuous
 62
     3
370
     9
100
AcDbCircle
 10
1159.838233898367
 20
-247.7787514035237
 30
0.0
 40
51.00587754205258
100
AcDbArc
 50
37.43697134608021
 51
142.5630286539198
  0
ARC
  5
1C2
330
1F
100
AcDbEntity
  8
D-1
  6
Continuous
 62
     2
370
     9
100
AcDbCircle
 10
1169.755106489954
 20
-667.3331206479401
 30
0.0
 40
73.54606238930589
100
AcDbArc
 50
46.72413467599742
 51
133.2758653240026
  0
ARC
  5
1C3
330
1F
100
AcDbEntity
  8
D-1
  6
JWW_PHANTOM1
 62
     4
370
     9
100
AcDbCircle
 10
1258.602498804142
 20
-492.9040049143734
 30
0.0
 40
245.8511857924535
100
AcDbArc
 50
95.72343489361963
 51
175.6335136269543
  0
LINE
  5
1C4
330
1F
100
AcDbEntity
  8
D-1
  6
JWW_PHANTOM1
 62
     4
370
     9
100
AcDbLine
 10
1013.435832137476
 20
-474.5706715810408
 30
0.0
 11
1225.102498804143
 21
-474.5706715810408
 31
0.0
  0
LINE
  5
1C5
330
1F
100
AcDbEntity
  8
D-1
  6
JWW_PHANTOM1
 62
     4
370
     9
100
AcDbLine
 10
1013.435832137476
 20
-466.9040049143737
 30
0.0
 11
1225.102498804142
 21
-466.9040049143737
 31
0.0
  0
LINE
  5
1C6
330
1F
100
AcDbEntity
  8
D-1
  6
JWW_PHANTOM1
 62
     4
370
     9
100
AcDbLine
 10
1013.435832137476
 20
-474.5706715810408
 30
0.0
 11
1013.435832137476
 21
-466.9040049143734
 31
0.0
  0
LINE
  5
1C7
330
1F
100
AcDbEntity
  8
D-1
  6
JWW_PHANTOM1
 62
     4
370
     9
100
AcDbLine
 10
1225.102498804143
 20
-474.5706715810406
 30
0.0
 11
1225.102498804143
 21
-466.9040049143738
 31
0.0
  0
LINE
  5
1C8
330
1F
100
AcDbEntity
  8
D-1
  6
JWW_PHANTOM1
 62
     4
370
     9
100
AcDbLine
 10
1225.102498804142
 20
-466.9040049143737
 30
0.0
 11
1236.786173050887
 21
-466.9040049143737
 31
0.0
  0
LINE
  5
1C9
330
1F
100
AcDbEntity
  8
D-1
  6
JWW_PHANTOM1
 62
     4
370
     9
100
AcDbLine
 10
1225.102498804143
 20
-474.5706715810405
 30
0.0
 11
1235.434332865455
 21
-474.5706715810405
 31
0.0
  0
LINE
  5
1CA
330
1F
100
AcDbEntity
  8
D-6
  6
Continuous
 62
     6
370
     9
100
AcDbLine
 10
1328.084959906225
 20
-474.5695388565193
 30
0.0
 11
1564.994642186337
 21
-474.5695388565193
 31
0.0
  0
TEXT
  5
1CB
330
1F
100
AcDbEntity
  8
C-5
  6
Continuous
 62
     2
370
     9
100
AcDbText
 10
1426.84691116358
 20
-464.0955606982952
 30
0.0
 40
30.48
  1
▽G.L.
 41
1.104166666666667
  7
ＭＳ ゴシック
100
AcDbText
  0
LINE
  5
1CC
330
1F
100
AcDbEntity
  8
D-E
  6
Continuous
 62
     6
370
     9
100
AcDbLine
 10
1018.505040506
 20
-474.5707631681412
 30
0.0
 11
748.1510363336082
 21
-474.5707631681412
 31
0.0
  0
LINE
  5
1CD
330
1F
100
AcDbEntity
  8
D-5
  6
Continuous
 62
     7
370
     9
100
AcDbLine
 10
1283.688947014355
 20
-206.5094816151662
 30
0.0
 11
1342.49125846525
 21
-206.5094816151662
 31
0.0
  0
TEXT
  5
1CE
330
1F
100
AcDbEntity
  8
D-5
  6
Continuous
 62
     7
370
     9
100
AcDbText
 10
1312.49125846525
 20
-195.6128149484996
 30
0.0
 40
22.86
  1
蓋
  7
ＭＳ ゴシック
100
AcDbText
  0
LINE
  5
1CF
330
1F
100
AcDbEntity
  8
D-5
  6
Continuous
 62
     7
370
     9
100
AcDbLine
 10
1246.011481683875
 20
-271.7687658679718
 30
0.0
 11
1283.688947014355
 21
-206.5094816151662
 31
0.0
  0
LINE
  5
1D0
330
1F
100
AcDbEntity
  8
D-5
  6
Continuous
 62
     7
370
     9
100
AcDbLine
 10
1246.011481683875
 20
-271.7687658679718
 30
0.0
 11
1255.578567493003
 21
-248.6717775551895
 31
0.0
  0
LINE
  5
1D1
330
1F
100
AcDbEntity
  8
D-5
  6
Continuous
 62
     7
370
     9
100
AcDbLine
 10
1246.011481683875
 20
-271.7687658679718
 30
0.0
 11
1261.230517409093
 21
-251.9349323606909
 31
0.0
  0
LINE
  5
1D2
330
1F
100
AcDbEntity
  8
C-A
  6
Continuous
 62
     2
370
     9
100
AcDbLine
 10
-1191.312563213932
 20
-177.9109928627105
 30
0.0
 11
-1191.312563213932
 21
-195.6611132834242
 31
0.0
  0
LINE
  5
1D3
330
1F
100
AcDbEntity
  8
C-A
  6
Continuous
 62
     2
370
     9
100
AcDbLine
 10
-1186.812474135595
 20
-177.9109928627105
 30
0.0
 11
-1186.812474135595
 21
-195.6611132834242
 31
0.0
  0
LINE
  5
1D4
330
1F
100
AcDbEntity
  8
C-A
  6
Continuous
 62
     2
370
     9
100
AcDbLine
 10
-1186.312744669802
 20
-195.6611132834242
 30
0.0
 11
-1186.312744669802
 21
-219.1610176066928
 31
0.0
  0
LINE
  5
1D5
330
1F
100
AcDbEntity
  8
C-A
  6
Continuous
 62
     2
370
     9
100
AcDbLine
 10
-1184.062625898687
 20
-195.6611132834242
 30
0.0
 11
-1194.062559914734
 21
-195.6611132834242
 31
0.0
  0
LINE
  5
1D6
330
1F
100
AcDbEntity
  8
C-A
  6
Continuous
 62
     2
370
     9
100
AcDbLine
 10
-1191.812589607513
 20
-195.6611132834242
 30
0.0
 11
-1191.812589607513
 21
-219.1610176066928
 31
0.0
  0
LINE
  5
1D7
330
1F
100
AcDbEntity
  8
C-A
  6
Continuous
 62
     2
370
     9
100
AcDbLine
 10
-1194.062559914734
 20
-195.6611132834242
 30
0.0
 11
-1194.062559914734
 21
-219.1610176066928
 31
0.0
  0
LINE
  5
1D8
330
1F
100
AcDbEntity
  8
C-A
  6
Continuous
 62
     2
370
     9
100
AcDbLine
 10
-1184.062625898687
 20
-195.6611132834242
 30
0.0
 11
-1184.062625898687
 21
-219.1610176066928
 31
0.0
  0
LINE
  5
1D9
330
1F
100
AcDbEntity
  8
C-A
  6
Continuous
 62
     2
370
     9
100
AcDbLine
 10
-1184.062625898687
 20
-219.1610176066928
 30
0.0
 11
-1194.062559914734
 21
-219.1610176066928
 31
0.0
  0
ARC
  5
1DA
330
1F
100
AcDbEntity
  8
C-A
  6
Continuous
 62
     2
370
     9
100
AcDbCircle
 10
-1189.062592906711
 20
-177.9109928627105
 30
0.0
 40
2.250000318965396
100
AcDbArc
 50
0.0
 51
180.0
  0
LINE
  5
1DB
330
1F
100
AcDbEntity
  8
C-6
  6
JWW_CENTER1
 62
     7
370
     9
100
AcDbLine
 10
-1189.062592906711
 20
-172.1448036999149
 30
0.0
 11
-1189.062592906711
 21
-181.2071139960509
 31
0.0
  0
LINE
  5
1DC
330
1F
100
AcDbEntity
  8
C-6
  6
Continuous
 62
     7
370
     9
100
AcDbLine
 10
-1197.062421348433
 20
-171.6610341026809
 30
0.0
 11
-1197.062421348433
 21
-181.6610423506751
 31
0.0
  0
ARC
  5
1DD
330
1F
100
AcDbEntity
  8
C-6
  6
Continuous
 62
     7
370
     9
100
AcDbCircle
 10
-1196.062517025165
 20
-171.6610341026809
 30
0.0
 40
1.000000012887491
100
AcDbArc
 50
90.0
 51
180.0
  0
ARC
  5
1DE
330
1F
100
AcDbEntity
  8
C-6
  6
Continuous
 62
     7
370
     9
100
AcDbCircle
 10
-1196.062517025165
 20
-181.6610423506751
 30
0.0
 40
1.000000012887491
100
AcDbArc
 50
180.0
 51
270.0
  0
ARC
  5
1DF
330
1F
100
AcDbEntity
  8
C-6
  6
Continuous
 62
     7
370
     9
100
AcDbCircle
 10
-1189.062592906711
 20
-176.6610753426514
 30
0.0
 40
3.500000045106217
100
AcDbArc
 50
310.0077667236328
 51
229.9952697753906
  0
LINE
  5
1E0
330
1F
100
AcDbEntity
  8
C-6
  6
Continuous
 62
     7
370
     9
100
AcDbLine
 10
-1179.06251042677
 20
-170.6610555474655
 30
0.0
 11
-1179.06251042677
 21
-182.6610209058904
 31
0.0
  0
LINE
  5
1E1
330
1F
100
AcDbEntity
  8
C-6
  6
Continuous
 62
     7
370
     9
100
AcDbLine
 10
-1096.062500529177
 20
-166.6609928627105
 30
0.0
 11
-1100.123865109129
 21
-166.6609928627105
 31
0.0
  0
ARC
  5
1E2
330
1F
100
AcDbEntity
  8
C-6
  6
Continuous
 62
     7
370
     9
100
AcDbCircle
 10
-1096.062500529177
 20
-167.6610456498727
 30
0.0
 40
1.000000012887491
100
AcDbArc
 50
0.0
 51
90.0
  0
LINE
  5
1E3
330
1F
100
AcDbEntity
  8
C-6
  6
Continuous
 62
     7
370
     9
100
AcDbLine
 10
-1095.062447742015
 20
-185.6610308034833
 30
0.0
 11
-1095.062447742015
 21
-167.6610456498727
 31
0.0
  0
ARC
  5
1E4
330
1F
100
AcDbEntity
  8
C-6
  6
Continuous
 62
     7
370
     9
100
AcDbCircle
 10
-1096.062500529177
 20
-185.6610308034833
 30
0.0
 40
1.000000012887491
100
AcDbArc
 50
270.0
 51
0.0
  0
LINE
  5
1E5
330
1F
100
AcDbEntity
  8
C-6
  6
Continuous
 62
     7
370
     9
100
AcDbLine
 10
-1096.59737637015
 20
-186.6610093586986
 30
0.0
 11
-1096.062500529177
 21
-186.6610093586986
 31
0.0
  0
LINE
  5
1E6
330
1F
100
AcDbEntity
  8
C-6
  6
JWW_DASHED1
 62
     7
370
     9
100
AcDbLine
 10
-1163.67836758245
 20
-170.6610555474655
 30
0.0
 11
-1115.078588298772
 21
-170.6610555474655
 31
0.0
  0
LINE
  5
1E7
330
1F
100
AcDbEntity
  8
C-6
  6
JWW_DASHED1
 62
     7
370
     9
100
AcDbLine
 10
-1163.67836758245
 20
-182.6610209058904
 30
0.0
 11
-1115.078588298772
 21
-182.6610209058904
 31
0.0
  0
LINE
  5
1E8
330
1F
100
AcDbEntity
  8
C-6
  6
Continuous
 62
     7
370
     9
100
AcDbLine
 10
-1196.062517025165
 20
-170.6610555474655
 30
0.0
 11
-1163.67836758245
 21
-170.6610555474655
 31
0.0
  0
LINE
  5
1E9
330
1F
100
AcDbEntity
  8
C-6
  6
Continuous
 62
     7
370
     9
100
AcDbLine
 10
-1115.078588298772
 20
-170.6610555474655
 30
0.0
 11
-1106.831160400048
 21
-170.6610555474655
 31
0.0
  0
LINE
  5
1EA
330
1F
100
AcDbEntity
  8
C-6
  6
Continuous
 62
     7
370
     9
100
AcDbLine
 10
-1115.078588298772
 20
-182.6610209058904
 30
0.0
 11
-1104.715242739791
 21
-182.6610209058904
 31
0.0
  0
LINE
  5
1EB
330
1F
100
AcDbEntity
  8
C-0
  6
JWW_CENTER2
 62
     7
370
     9
100
AcDbLine
 10
-1086.388716260983
 20
-176.6610753426514
 30
0.0
 11
-1198.852598977234
 21
-176.6610753426514
 31
0.0
  0
LINE
  5
1EC
330
1F
100
AcDbEntity
  8
C-2
  6
JWW_CENTER2
 62
     7
370
     9
100
AcDbLine
 10
-14.65617678691541
 20
-176.8971857125641
 30
0.0
 11
13.72600418575677
 21
-176.8971857125641
 31
0.0
  0
CIRCLE
  5
1ED
330
1F
100
AcDbEntity
  8
C-6
  6
Continuous
 62
     7
370
     9
100
AcDbCircle
 10
0.0
 20
-176.8971857125641
 30
0.0
 40
10.0
  0
LINE
  5
1EE
330
1F
100
AcDbEntity
  8
D-A
  6
Continuous
 62
     2
370
     9
100
AcDbLine
 10
946.2248002508998
 20
-332.9499242736042
 30
0.0
 11
946.2248002508998
 21
-392.1169923426496
 31
0.0
  0
LINE
  5
1EF
330
1F
100
AcDbEntity
  8
D-A
  6
Continuous
 62
     2
370
     9
100
AcDbLine
 10
961.225097178688
 20
-332.9499242736042
 30
0.0
 11
961.225097178688
 21
-392.1169923426496
 31
0.0
  0
LINE
  5
1F0
330
1F
100
AcDbEntity
  8
D-A
  6
Continuous
 62
     2
370
     9
100
AcDbLine
 10
962.8908620646675
 20
-392.1169923426496
 30
0.0
 11
962.8908620646675
 21
-470.4500067535452
 31
0.0
  0
LINE
  5
1F1
330
1F
100
AcDbEntity
  8
D-A
  6
Continuous
 62
     2
370
     9
100
AcDbLine
 10
970.3912579683836
 20
-392.1169923426496
 30
0.0
 11
937.0581445815585
 21
-392.1169923426496
 31
0.0
  0
LINE
  5
1F2
330
1F
100
AcDbEntity
  8
D-A
  6
Continuous
 62
     2
370
     9
100
AcDbLine
 10
944.5580456056302
 20
-392.1169923426496
 30
0.0
 11
944.5580456056302
 21
-470.4500067535452
 31
0.0
  0
LINE
  5
1F3
330
1F
100
AcDbEntity
  8
D-A
  6
Continuous
 62
     2
370
     9
100
AcDbLine
 10
937.0581445815585
 20
-392.1169923426496
 30
0.0
 11
937.0581445815585
 21
-470.4500067535452
 31
0.0
  0
LINE
  5
1F4
330
1F
100
AcDbEntity
  8
D-A
  6
Continuous
 62
     2
370
     9
100
AcDbLine
 10
970.3912579683836
 20
-392.1169923426496
 30
0.0
 11
970.3912579683836
 21
-470.4500067535452
 31
0.0
  0
LINE
  5
1F5
330
1F
100
AcDbEntity
  8
D-A
  6
Continuous
 62
     2
370
     9
100
AcDbLine
 10
970.3912579683836
 20
-470.4500067535452
 30
0.0
 11
937.0581445815585
 21
-470.4500067535452
 31
0.0
  0
ARC
  5
1F6
330
1F
100
AcDbEntity
  8
D-A
  6
Continuous
 62
     2
370
     9
100
AcDbCircle
 10
953.7247012749718
 20
-332.9499242736042
 30
0.0
 40
7.500001063217987
100
AcDbArc
 50
0.0
 51
180.0
  0
LINE
  5
1F7
330
1F
100
AcDbEntity
  8
D-6
  6
JWW_CENTER1
 62
     7
370
     9
100
AcDbLine
 10
953.7247012749718
 20
-313.7292937309521
 30
0.0
 11
953.7247012749718
 21
-343.9369947180718
 31
0.0
  0
LINE
  5
1F8
330
1F
100
AcDbEntity
  8
D-6
  6
Continuous
 62
     7
370
     9
100
AcDbLine
 10
927.0586064692283
 20
-312.1167284068388
 30
0.0
 11
927.0586064692283
 21
-345.4500892334859
 31
0.0
  0
ARC
  5
1F9
330
1F
100
AcDbEntity
  8
D-6
  6
Continuous
 62
     7
370
     9
100
AcDbCircle
 10
930.3916208801231
 20
-312.1167284068388
 30
0.0
 40
3.333333376291636
100
AcDbArc
 50
90.0
 51
180.0
  0
ARC
  5
1FA
330
1F
100
AcDbEntity
  8
D-6
  6
Continuous
 62
     7
370
     9
100
AcDbCircle
 10
930.3916208801231
 20
-345.4500892334859
 30
0.0
 40
3.333333376291636
100
AcDbArc
 50
180.0
 51
270.0
  0
ARC
  5
1FB
330
1F
100
AcDbEntity
  8
D-6
  6
Continuous
 62
     7
370
     9
100
AcDbCircle
 10
953.7247012749718
 20
-328.7835325400738
 30
0.0
 40
11.66666681702072
100
AcDbArc
 50
310.0077667236328
 51
229.9952697753906
  0
LINE
  5
1FC
330
1F
100
AcDbEntity
  8
D-6
  6
Continuous
 62
     7
370
     9
100
AcDbLine
 10
987.0583095414405
 20
-308.7834665561207
 30
0.0
 11
987.0583095414405
 21
-348.7833510842036
 31
0.0
  0
LINE
  5
1FD
330
1F
100
AcDbEntity
  8
D-6
  6
Continuous
 62
     7
370
     9
100
AcDbLine
 10
1263.725009200084
 20
-295.4499242736042
 30
0.0
 11
1250.187127266908
 21
-295.4499242736042
 31
0.0
  0
ARC
  5
1FE
330
1F
100
AcDbEntity
  8
D-6
  6
Continuous
 62
     7
370
     9
100
AcDbCircle
 10
1263.725009200084
 20
-298.7834335641446
 30
0.0
 40
3.333333376291636
100
AcDbArc
 50
0.0
 51
90.0
  0
LINE
  5
1FF
330
1F
100
AcDbEntity
  8
D-6
  6
Continuous
 62
     7
370
     9
100
AcDbLine
 10
1267.058518490624
 20
-358.7833840761799
 30
0.0
 11
1267.058518490624
 21
-298.7834335641446
 31
0.0
  0
ARC
  5
200
330
1F
100
AcDbEntity
  8
D-6
  6
Continuous
 62
     7
370
     9
100
AcDbCircle
 10
1263.725009200084
 20
-358.7833840761799
 30
0.0
 40
3.333333376291636
100
AcDbArc
 50
270.0
 51
0.0
  0
LINE
  5
201
330
1F
100
AcDbEntity
  8
D-6
  6
Continuous
 62
     7
370
     9
100
AcDbLine
 10
1261.942089730174
 20
-362.1166459268978
 30
0.0
 11
1263.725009200084
 21
-362.1166459268978
 31
0.0
  0
LINE
  5
202
330
1F
100
AcDbEntity
  8
D-6
  6
JWW_DASHED1
 62
     7
370
     9
100
AcDbLine
 10
1038.338785689172
 20
-308.7834665561207
 30
0.0
 11
1200.338049968099
 21
-308.7834665561207
 31
0.0
  0
LINE
  5
203
330
1F
100
AcDbEntity
  8
D-6
  6
JWW_DASHED1
 62
     7
370
     9
100
AcDbLine
 10
1038.338785689172
 20
-348.7833510842036
 30
0.0
 11
1200.338049968099
 21
-348.7833510842036
 31
0.0
  0
LINE
  5
204
330
1F
100
AcDbEntity
  8
D-6
  6
Continuous
 62
     7
370
     9
100
AcDbLine
 10
930.3916208801231
 20
-308.7834665561207
 30
0.0
 11
1038.338785689172
 21
-308.7834665561207
 31
0.0
  0
LINE
  5
205
330
1F
100
AcDbEntity
  8
D-6
  6
Continuous
 62
     7
370
     9
100
AcDbLine
 10
1200.338049968099
 20
-308.7834665561207
 30
0.0
 11
1227.82947629718
 21
-308.7834665561207
 31
0.0
  0
LINE
  5
206
330
1F
100
AcDbEntity
  8
D-6
  6
Continuous
 62
     7
370
     9
100
AcDbLine
 10
1200.338049968099
 20
-348.7833510842036
 30
0.0
 11
1234.882535164704
 21
-348.7833510842036
 31
0.0
  0
LINE
  5
207
330
1F
100
AcDbEntity
  8
D-0
  6
JWW_CENTER2
 62
     7
370
     9
100
AcDbLine
 10
1295.970956760729
 20
-328.7835325400736
 30
0.0
 11
921.0913477065585
 21
-328.7835325400736
 31
0.0
  0
TEXT
  5
208
330
1F
100
AcDbEntity
  8
D-5
  6
Continuous
 62
     2
370
     9
100
AcDbText
 10
806.7751292428143
 20
-829.7436516615485
 30
0.0
 40
30.47999999999999
  1
南京錠部　詳細図　Ｓ＝１：３
 41
1.116071428571429
  7
ＭＳ ゴシック
100
AcDbText
  0
LINE
  5
209
330
1F
100
AcDbEntity
  8
D-5
  6
Continuous
 62
     7
370
     9
100
AcDbLine
 10
799.7181470256555
 20
-848.7183455390995
 30
0.0
 11
1440.05857255757
 21
-848.7183455390995
 31
0.0
  0
LWPOLYLINE
  5
20A
330
1F
100
AcDbEntity
  8
D-4
  6
Continuous
 62
     7
370
     9
100
AcDbPolyline
 90
        4
 70
     1
 43
2.0
 10
869.4408934889564
 20
-466.9040049143734
 42
0.4142135623731
 10
868.4408934889564
 20
-465.9040049143733
 42
0.4142135623731
 10
867.4408934889564
 20
-466.9040049143734
 42
0.4142135623731
 10
868.4408934889564
 20
-467.9040049143734
 42
0.4142135623731
  0
LWPOLYLINE
  5
20B
330
1F
100
AcDbEntity
  8
D-4
  6
Continuous
 62
     7
370
     9
100
AcDbPolyline
 90
        4
 70
     1
 43
2.0
 10
869.4408934889564
 20
-474.5706715810408
 42
0.4142135623731
 10
868.4408934889564
 20
-473.5706715810408
 42
0.4142135623731
 10
867.4408934889564
 20
-474.5706715810408
 42
0.4142135623731
 10
868.4408934889564
 20
-475.5706715810408
 42
0.4142135623731
  0
LINE
  5
20C
330
1F
100
AcDbEntity
  8
D-4
  6
Continuous
 62
     7
370
     9
100
AcDbLine
 10
868.4408934889564
 20
-466.9040049143734
 30
0.0
 11
868.4408934889564
 21
-549.6715081389716
 31
0.0
  0
LINE
  5
20D
330
1F
100
AcDbEntity
  8
D-4
  6
Continuous
 62
     7
370
     9
100
AcDbLine
 10
865.4408934889562
 20
-466.9040049143734
 30
0.0
 11
1006.758170853252
 21
-466.9040049143734
 31
0.0
  0
LINE
  5
20E
330
1F
100
AcDbEntity
  8
D-4
  6
Continuous
 62
     7
370
     9
100
AcDbLine
 10
865.4408934889562
 20
-474.5706715810408
 30
0.0
 11
1006.758170853252
 21
-474.5706715810408
 31
0.0
  0
TEXT
  5
20F
330
1F
100
AcDbEntity
  8
D-4
  6
Continuous
 62
     2
370
   211
100
AcDbText
 10
856.9826185445949
 20
-544.4473158615878
 30
0.0
 40
30.48
  1
2.3
 50
90.0
 41
1.083333333333333
  7
ＭＳ ゴシック
100
AcDbText
  0
LINE
  5
210
330
1F
100
AcDbEntity
  8
D-5
  6
Continuous
 62
     7
370
     9
100
AcDbLine
 10
863.2839996674187
 20
-201.6564216576499
 30
0.0
 11
548.9098057954857
 21
-201.6564216576499
 31
0.0
  0
LINE
  5
211
330
1F
100
AcDbEntity
  8
D-5
  6
Continuous
 62
     7
370
     9
100
AcDbLine
 10
927.0582875038315
 20
-312.1167284068388
 30
0.0
 11
863.2839996674187
 21
-201.6564216576499
 31
0.0
  0
LINE
  5
212
330
1F
100
AcDbEntity
  8
D-5
  6
Continuous
 62
     7
370
     9
100
AcDbLine
 10
927.0582875038315
 20
-312.1167284068388
 30
0.0
 11
911.8392517786134
 21
-292.2828948995578
 31
0.0
  0
LINE
  5
213
330
1F
100
AcDbEntity
  8
D-5
  6
Continuous
 62
     7
370
     9
100
AcDbLine
 10
927.0582875038315
 20
-312.1167284068388
 30
0.0
 11
917.4912016947042
 21
-289.0197400940566
 31
0.0
  0
TEXT
  5
214
330
1F
100
AcDbEntity
  8
D-5
  6
Continuous
 62
     7
370
     9
100
AcDbText
 10
550.7839977110591
 20
-190.7598995235819
 30
0.0
 40
22.86
  1
ロックピン：SCS13A
 50
0.0000264995452045
 41
1.157407407407406
  7
ＭＳ ゴシック
100
AcDbText
  0
LINE
  5
215
330
1F
100
AcDbEntity
  8
D-5
  6
Continuous
 62
     7
370
     9
100
AcDbLine
 10
937.0585679356302
 20
-435.0112213032034
 30
0.0
 11
927.4914821265029
 21
-411.9142329904213
 31
0.0
  0
LINE
  5
216
330
1F
100
AcDbEntity
  8
D-5
  6
Continuous
 62
     7
370
     9
100
AcDbLine
 10
937.0585679356302
 20
-435.0112213032034
 30
0.0
 11
921.839532210412
 21
-415.1773877959226
 31
0.0
  0
LINE
  5
217
330
1F
100
AcDbEntity
  8
D-5
  6
Continuous
 62
     7
370
     9
100
AcDbLine
 10
937.0585679356302
 20
-435.0112213032034
 30
0.0
 11
888.4729730938295
 21
-350.9596179532755
 31
0.0
  0
TEXT
  5
218
330
1F
100
AcDbEntity
  8
D-5
  6
Continuous
 62
     7
370
     9
100
AcDbText
 10
645.9729730938295
 20
-340.0629512866088
 30
0.0
 40
22.86
  1
南京錠：CAC202
 41
1.154761904761905
  7
ＭＳ ゴシック
100
AcDbText
  0
LINE
  5
219
330
1F
100
AcDbEntity
  8
D-5
  6
Continuous
 62
     7
370
     9
100
AcDbLine
 10
888.4729730938295
 20
-350.9596179532755
 30
0.0
 11
644.8747698649544
 21
-350.9596179532755
 31
0.0
  0
TEXT
  5
21A
330
1F
100
AcDbEntity
  8
F-5ﾚｲﾔ
  6
Continuous
 62
     2
370
     0
100
AcDbText
 10
-806.2340425531914
 20
-1324.599361702128
 30
0.0
 40
30.48
  1
脱着式　スチール製蓋　鍵付
 41
0.8980769230769229
  7
ＭＳ ゴシック
100
AcDbText
  0
TEXT
  5
21B
330
1F
100
AcDbEntity
  8
F-5ﾚｲﾔ
  6
Continuous
 62
     2
370
     0
100
AcDbText
 10
-806.2340425531914
 20
-1369.535531914893
 30
0.0
 40
30.48
  1
ステンレス製車止め　両フック付　ＥＡ０４８５Ｃ－ＤＬ
 41
0.8990384615384615
  7
ＭＳ ゴシック
100
AcDbText
  0
LINE
  5
21C
330
1F
100
AcDbEntity
  8
C-2
  6
Continuous
 62
     3
370
     9
100
AcDbLine
 10
-24.29988964183906
 20
621.9575935051303
 30
0.0
 11
-24.29988964183906
 21
-163.6624637082291
 31
0.0
  0
LINE
  5
21D
330
1F
100
AcDbEntity
  8
C-2
  6
Continuous
 62
     3
370
     9
100
AcDbLine
 10
-24.29988964183906
 20
-204.531907716899
 30
0.0
 11
-24.29988964183906
 21
-220.3972170549416
 31
0.0
  0
LINE
  5
21E
330
1F
100
AcDbEntity
  8
C-2
  6
Continuous
 62
     3
370
     9
100
AcDbLine
 10
24.29988964183906
 20
621.9575935051303
 30
0.0
 11
24.29988964183906
 21
-163.6624637082295
 31
0.0
  0
LINE
  5
21F
330
1F
100
AcDbEntity
  8
C-2
  6
Continuous
 62
     3
370
     9
100
AcDbLine
 10
24.29988964183906
 20
-204.5319077168986
 30
0.0
 11
24.29988964183906
 21
-220.3972170549415
 31
0.0
  0
TEXT
  5
220
330
1F
100
AcDbEntity
  8
C-5
  6
Continuous
 62
     7
370
     9
100
AcDbText
 10
-1041.200037445806
 20
254.1257426681085
 30
0.0
 40
22.86
  1
本体：φ48.6×1.5
 41
1.156862745098039
  7
ＭＳ ゴシック
100
AcDbText
  0
LINE
  5
221
330
1F
100
AcDbEntity
  8
C-6
  6
Continuous
 62
     7
370
     9
100
AcDbLine
 10
-1196.062517025165
 20
-182.6610209058904
 30
0.0
 11
-1191.312563213932
 21
-182.6610209058904
 31
0.0
  0
LINE
  5
222
330
1F
100
AcDbEntity
  8
C-6
  6
Continuous
 62
     7
370
     9
100
AcDbLine
 10
-1186.812474135595
 20
-182.6610209058904
 30
0.0
 11
-1163.67836758245
 21
-182.6610209058904
 31
0.0
  0
LINE
  5
223
330
1F
100
AcDbEntity
  8
D-6
  6
Continuous
 62
     7
370
     9
100
AcDbLine
 10
930.3916208801231
 20
-348.7833510842036
 30
0.0
 11
946.2248002508998
 21
-348.7833510842036
 31
0.0
  0
LINE
  5
224
330
1F
100
AcDbEntity
  8
D-6
  6
Continuous
 62
     7
370
     9
100
AcDbLine
 10
961.225097178688
 20
-348.7833510842036
 30
0.0
 11
1038.338785689172
 21
-348.7833510842036
 31
0.0
  0
LINE
  5
225
330
1F
100
AcDbEntity
  8
C-E
  6
Continuous
 62
     6
370
     9
100
AcDbLine
 10
-1169.628491137402
 20
-220.3972131886944
 30
0.0
 11
-1439.560961286534
 21
-220.3972131886944
 31
0.0
  0
ENDSEC
  0
SECTION
  2
OBJECTS
  0
DICTIONARY
  5
C
330
0
100
AcDbDictionary
281
     1
  3
ACAD_DETAILVIEWSTYLE
350
26B
  3
ACAD_GROUP
350
D
  3
ACAD_LAYOUT
350
1A
  3
ACAD_MATERIAL
350
43
  3
ACAD_MLEADERSTYLE
350
6B
  3
ACAD_MLINESTYLE
350
17
  3
ACAD_PLOTSETTINGS
350
19
  3
ACAD_PLOTSTYLENAME
350
E
  3
ACAD_SCALELIST
350
47
  3
ACAD_SECTIONVIEWSTYLE
350
26C
  3
ACAD_TABLESTYLE
350
69
  3
ACAD_VISUALSTYLE
350
2A
  3
ACDB_RECOMPOSE_DATA
350
268
  3
AcDbVariableDictionary
350
228
  0
DICTIONARY
  5
226
330
8
100
AcDbDictionary
280
     1
281
     1
  3
ACAD_XREC_ROUNDTRIP
360
227
  0
DICTIONARY
  5
26B
102
{ACAD_REACTORS
330
C
102
}
330
C
100
AcDbDictionary
281
     1
  0
DICTIONARY
  5
D
102
{ACAD_REACTORS
330
C
102
}
330
C
100
AcDbDictionary
281
     1
  0
DICTIONARY
  5
1A
102
{ACAD_REACTORS
330
C
102
}
330
C
100
AcDbDictionary
281
     1
  3
Layout1
350
1E
  3
Layout2
350
26
  3
Model
350
22
  0
DICTIONARY
  5
43
102
{ACAD_REACTORS
330
C
102
}
330
C
100
AcDbDictionary
281
     1
  3
ByBlock
350
45
  3
ByLayer
350
44
  3
Global
350
46
  0
DICTIONARY
  5
6B
102
{ACAD_REACTORS
330
C
102
}
330
C
100
AcDbDictionary
281
     1
  3
Standard
350
6C
  0
DICTIONARY
  5
17
102
{ACAD_REACTORS
330
C
102
}
330
C
100
AcDbDictionary
281
     1
  3
Standard
350
18
  0
DICTIONARY
  5
19
102
{ACAD_REACTORS
330
C
102
}
330
C
100
AcDbDictionary
281
     1
  0
ACDBDICTIONARYWDFLT
  5
E
102
{ACAD_REACTORS
330
C
102
}
330
C
100
AcDbDictionary
281
     1
  3
Normal
350
F
100
AcDbDictionaryWithDefault
340
F
  0
DICTIONARY
  5
47
102
{ACAD_REACTORS
330
C
102
}
330
C
100
AcDbDictionary
281
     1
  3
A0
350
48
  3
A1
350
49
  3
A2
350
4A
  3
A3
350
4B
  3
A4
350
4C
  3
A5
350
4D
  3
A6
350
4E
  3
A7
350
4F
  3
A8
350
50
  3
A9
350
51
  3
B0
350
52
  3
B1
350
53
  3
B2
350
54
  3
B3
350
55
  3
B4
350
56
  3
B5
350
57
  3
B6
350
58
  3
B7
350
59
  3
B8
350
5A
  3
B9
350
5B
  3
C0
350
5C
  3
C1
350
5D
  3
C2
350
5E
  3
C3
350
5F
  3
C4
350
60
  3
C5
350
61
  3
C6
350
62
  3
C7
350
63
  3
C8
350
64
  3
C9
350
65
  3
D0
350
66
  3
D1
350
67
  3
D2
350
68
  0
DICTIONARY
  5
26C
102
{ACAD_REACTORS
330
C
102
}
330
C
100
AcDbDictionary
281
     1
  0
DICTIONARY
  5
69
102
{ACAD_REACTORS
330
C
102
}
330
C
100
AcDbDictionary
281
     1
  3
Standard
350
6A
  0
DICTIONARY
  5
2A
102
{ACAD_REACTORS
330
C
102
}
330
C
100
AcDbDictionary
281
     1
  3
2dWireframe
350
2F
  3
Basic
350
32
  3
Brighten
350
36
  3
ColorChange
350
3A
  3
Conceptual
350
34
  3
Dim
350
35
  3
EdgeColorOff
350
3D
  3
Facepattern
350
39
  3
Flat
350
2B
  3
FlatWithEdges
350
2C
  3
Gouraud
350
2D
  3
GouraudWithEdges
350
2E
  3
Hidden
350
31
  3
JitterOff
350
3B
  3
Linepattern
350
38
  3
OverhangOff
350
3C
  3
Realistic
350
33
  3
Shaded
350
42
  3
Shaded with edges
350
41
  3
Shades of Gray
350
3E
  3
Sketchy
350
3F
  3
Thicken
350
37
  3
Wireframe
350
30
  3
X-Ray
350
40
  0
XRECORD
  5
268
102
{ACAD_REACTORS
330
C
102
}
330
C
100
AcDbXrecord
280
     1
 90
        1
330
6A
  0
DICTIONARY
  5
228
102
{ACAD_REACTORS
330
C
102
}
330
C
100
AcDbDictionary
281
     1
  3
CANNOSCALE
350
229
  3
CENTEREXE
350
26D
  3
CENTERLTYPEFILE
350
26E
  3
CMLEADERSTYLE
350
26A
  3
CTABLESTYLE
350
269
  3
MSLTSCALE
350
22A
  3
XCLIPFRAME
350
22B
  0
XRECORD
  5
227
102
{ACAD_REACTORS
330
226
102
}
330
226
100
AcDbXrecord
280
     1
102
VTR_0.000_0.000_1.000_1.000_VISUALSTYLE
340
2F
102
VTR_0.000_0.000_1.000_1.000_GRIDDISPLAY
 70
     3
102
VTR_0.000_0.000_1.000_1.000_GRIDMAJOR
 70
     5
102
VTR_0.000_0.000_1.000_1.000_DEFAULTLIGHTING
280
     1
102
VTR_0.000_0.000_1.000_1.000_DEFAULTLIGHTINGTYPE
 70
     1
102
VTR_0.000_0.000_1.000_1.000_BRIGHTNESS
141
0.0
102
VTR_0.000_0.000_1.000_1.000_CONTRAST
142
0.0
  0
LAYOUT
  5
1E
102
{ACAD_REACTORS
330
1A
102
}
330
1A
100
AcDbPlotSettings
  1

  2
none_device
  4

  6

 40
0.0
 41
0.0
 42
0.0
 43
0.0
 44
0.0
 45
0.0
 46
0.0
 47
0.0
 48
0.0
 49
0.0
140
0.0
141
0.0
142
1.0
143
1.0
 70
   688
 72
     1
 73
     0
 74
     5
  7

 75
    16
 76
     0
 77
     5
 78
   300
147
1.0
148
0.0
149
0.0
100
AcDbLayout
  1
Layout1
 70
     1
 71
     1
 10
0.0
 20
0.0
 11
420.0
 21
297.0
 12
0.0
 22
0.0
 32
0.0
 14
1.000000000000000E+20
 24
1.000000000000000E+20
 34
1.000000000000000E+20
 15
-1.000000000000000E+20
 25
-1.000000000000000E+20
 35
-1.000000000000000E+20
146
0.0
 13
0.0
 23
0.0
 33
0.0
 16
1.0
 26
0.0
 36
0.0
 17
0.0
 27
1.0
 37
0.0
 76
     0
330
1B
  0
LAYOUT
  5
26
102
{ACAD_REACTORS
330
1A
102
}
330
1A
100
AcDbPlotSettings
  1

  2
none_device
  4

  6

 40
0.0
 41
0.0
 42
0.0
 43
0.0
 44
0.0
 45
0.0
 46
0.0
 47
0.0
 48
0.0
 49
0.0
140
0.0
141
0.0
142
1.0
143
1.0
 70
   688
 72
     1
 73
     0
 74
     5
  7

 75
    16
 76
     0
 77
     5
 78
   300
147
1.0
148
0.0
149
0.0
100
AcDbLayout
  1
Layout2
 70
     1
 71
     2
 10
0.0
 20
0.0
 11
0.0
 21
0.0
 12
0.0
 22
0.0
 32
0.0
 14
0.0
 24
0.0
 34
0.0
 15
0.0
 25
0.0
 35
0.0
146
0.0
 13
0.0
 23
0.0
 33
0.0
 16
1.0
 26
0.0
 36
0.0
 17
0.0
 27
1.0
 37
0.0
 76
     0
330
23
  0
LAYOUT
  5
22
102
{ACAD_REACTORS
330
1A
102
}
330
1A
100
AcDbPlotSettings
  1

  2
none_device
  4
Letter_(8.50_x_11.00_Inches)
  6

 40
6.35
 41
6.35
 42
6.35000508
 43
6.35000508
 44
215.9
 45
279.4
 46
0.0
 47
0.0
 48
0.0
 49
0.0
140
0.0
141
0.0
142
1.0
143
1.0
 70
  1712
 72
     1
 73
     0
 74
     0
  7

 75
     0
 76
     0
 77
     5
 78
   300
147
1.0
148
0.0
149
0.0
100
AcDbLayout
  1
Model
 70
     1
 71
     0
 10
-2100.0
 20
-1485.0
 11
2100.0
 21
1485.0
 12
0.0
 22
0.0
 32
0.0
 14
-2100.0
 24
-1485.0
 34
0.0
 15
2100.0
 25
1485.0
 35
0.0
146
0.0
 13
0.0
 23
0.0
 33
0.0
 16
1.0
 26
0.0
 36
0.0
 17
0.0
 27
1.0
 37
0.0
 76
     0
330
1F
331
29
  0
MATERIAL
  5
45
102
{ACAD_REACTORS
330
43
102
}
102
{ACAD_XDICTIONARY
360
25E
102
}
330
43
100
AcDbMaterial
  1
ByBlock
  0
MATERIAL
  5
44
102
{ACAD_REACTORS
330
43
102
}
102
{ACAD_XDICTIONARY
360
25C
102
}
330
43
100
AcDbMaterial
  1
ByLayer
  0
MATERIAL
  5
46
102
{ACAD_REACTORS
330
43
102
}
102
{ACAD_XDICTIONARY
360
260
102
}
330
43
100
AcDbMaterial
  1
Global
  0
MLEADERSTYLE
  5
6C
102
{ACAD_REACTORS
330
6B
102
}
102
{ACAD_XDICTIONARY
360
266
102
}
330
6B
100
AcDbMLeaderStyle
170
     2
171
     1
172
     0
 90
        2
 40
0.0
 41
0.0
173
     1
 91
-1056964608
340
14
 92
       -2
290
     1
 42
2.0
291
     1
 43
8.0
  3
Standard
341
0
 44
4.0
300

342
11
174
     1
178
     6
175
     1
176
     0
 93
-1056964608
 45
4.0
292
     0
297
     0
 46
4.0
343
0
 94
-1056964608
 47
1.0
 49
1.0
140
1.0
293
     1
141
0.0
294
     1
177
     0
142
1.0
295
     0
296
     0
143
3.75
1001
ACAD_MLEADERVER
1070
     2
  0
MLINESTYLE
  5
18
102
{ACAD_REACTORS
330
17
102
}
330
17
100
AcDbMlineStyle
  2
Standard
 70
     0
  3

 62
   256
 51
90.0
 52
90.0
 71
     2
 49
0.5
 62
   256
  6
BYLAYER
 49
-0.5
 62
   256
  6
BYLAYER
  0
ACDBPLACEHOLDER
  5
F
102
{ACAD_REACTORS
330
E
102
}
330
E
  0
SCALE
  5
48
102
{ACAD_REACTORS
330
47
102
}
330
47
100
AcDbScale
 70
     0
300
1:1
140
1.0
141
1.0
290
     1
  0
SCALE
  5
49
102
{ACAD_REACTORS
330
47
102
}
330
47
100
AcDbScale
 70
     0
300
1:2
140
1.0
141
2.0
290
     0
  0
SCALE
  5
4A
102
{ACAD_REACTORS
330
47
102
}
330
47
100
AcDbScale
 70
     0
300
1:4
140
1.0
141
4.0
290
     0
  0
SCALE
  5
4B
102
{ACAD_REACTORS
330
47
102
}
330
47
100
AcDbScale
 70
     0
300
1:5
140
1.0
141
5.0
290
     0
  0
SCALE
  5
4C
102
{ACAD_REACTORS
330
47
102
}
330
47
100
AcDbScale
 70
     0
300
1:8
140
1.0
141
8.0
290
     0
  0
SCALE
  5
4D
102
{ACAD_REACTORS
330
47
102
}
330
47
100
AcDbScale
 70
     0
300
1:10
140
1.0
141
10.0
290
     0
  0
SCALE
  5
4E
102
{ACAD_REACTORS
330
47
102
}
330
47
100
AcDbScale
 70
     0
300
1:16
140
1.0
141
16.0
290
     0
  0
SCALE
  5
4F
102
{ACAD_REACTORS
330
47
102
}
330
47
100
AcDbScale
 70
     0
300
1:20
140
1.0
141
20.0
290
     0
  0
SCALE
  5
50
102
{ACAD_REACTORS
330
47
102
}
330
47
100
AcDbScale
 70
     0
300
1:30
140
1.0
141
30.0
290
     0
  0
SCALE
  5
51
102
{ACAD_REACTORS
330
47
102
}
330
47
100
AcDbScale
 70
     0
300
1:40
140
1.0
141
40.0
290
     0
  0
SCALE
  5
52
102
{ACAD_REACTORS
330
47
102
}
330
47
100
AcDbScale
 70
     0
300
1:50
140
1.0
141
50.0
290
     0
  0
SCALE
  5
53
102
{ACAD_REACTORS
330
47
102
}
330
47
100
AcDbScale
 70
     0
300
1:100
140
1.0
141
100.0
290
     0
  0
SCALE
  5
54
102
{ACAD_REACTORS
330
47
102
}
330
47
100
AcDbScale
 70
     0
300
2:1
140
2.0
141
1.0
290
     0
  0
SCALE
  5
55
102
{ACAD_REACTORS
330
47
102
}
330
47
100
AcDbScale
 70
     0
300
4:1
140
4.0
141
1.0
290
     0
  0
SCALE
  5
56
102
{ACAD_REACTORS
330
47
102
}
330
47
100
AcDbScale
 70
     0
300
8:1
140
8.0
141
1.0
290
     0
  0
SCALE
  5
57
102
{ACAD_REACTORS
330
47
102
}
330
47
100
AcDbScale
 70
     0
300
10:1
140
10.0
141
1.0
290
     0
  0
SCALE
  5
58
102
{ACAD_REACTORS
330
47
102
}
330
47
100
AcDbScale
 70
     0
300
100:1
140
100.0
141
1.0
290
     0
  0
SCALE
  5
59
102
{ACAD_REACTORS
330
47
102
}
330
47
100
AcDbScale
 70
     0
300
1/128" = 1'-0"
140
0.0078125
141
12.0
290
     0
  0
SCALE
  5
5A
102
{ACAD_REACTORS
330
47
102
}
330
47
100
AcDbScale
 70
     0
300
1/64" = 1'-0"
140
0.015625
141
12.0
290
     0
  0
SCALE
  5
5B
102
{ACAD_REACTORS
330
47
102
}
330
47
100
AcDbScale
 70
     0
300
1/32" = 1'-0"
140
0.03125
141
12.0
290
     0
  0
SCALE
  5
5C
102
{ACAD_REACTORS
330
47
102
}
330
47
100
AcDbScale
 70
     0
300
1/16" = 1'-0"
140
0.0625
141
12.0
290
     0
  0
SCALE
  5
5D
102
{ACAD_REACTORS
330
47
102
}
330
47
100
AcDbScale
 70
     0
300
3/32" = 1'-0"
140
0.09375
141
12.0
290
     0
  0
SCALE
  5
5E
102
{ACAD_REACTORS
330
47
102
}
330
47
100
AcDbScale
 70
     0
300
1/8" = 1'-0"
140
0.125
141
12.0
290
     0
  0
SCALE
  5
5F
102
{ACAD_REACTORS
330
47
102
}
330
47
100
AcDbScale
 70
     0
300
3/16" = 1'-0"
140
0.1875
141
12.0
290
     0
  0
SCALE
  5
60
102
{ACAD_REACTORS
330
47
102
}
330
47
100
AcDbScale
 70
     0
300
1/4" = 1'-0"
140
0.25
141
12.0
290
     0
  0
SCALE
  5
61
102
{ACAD_REACTORS
330
47
102
}
330
47
100
AcDbScale
 70
     0
300
3/8" = 1'-0"
140
0.375
141
12.0
290
     0
  0
SCALE
  5
62
102
{ACAD_REACTORS
330
47
102
}
330
47
100
AcDbScale
 70
     0
300
1/2" = 1'-0"
140
0.5
141
12.0
290
     0
  0
SCALE
  5
63
102
{ACAD_REACTORS
330
47
102
}
330
47
100
AcDbScale
 70
     0
300
3/4" = 1'-0"
140
0.75
141
12.0
290
     0
  0
SCALE
  5
64
102
{ACAD_REACTORS
330
47
102
}
330
47
100
AcDbScale
 70
     0
300
1" = 1'-0"
140
1.0
141
12.0
290
     0
  0
SCALE
  5
65
102
{ACAD_REACTORS
330
47
102
}
330
47
100
AcDbScale
 70
     0
300
1-1/2" = 1'-0"
140
1.5
141
12.0
290
     0
  0
SCALE
  5
66
102
{ACAD_REACTORS
330
47
102
}
330
47
100
AcDbScale
 70
     0
300
3" = 1'-0"
140
3.0
141
12.0
290
     0
  0
SCALE
  5
67
102
{ACAD_REACTORS
330
47
102
}
330
47
100
AcDbScale
 70
     0
300
6" = 1'-0"
140
6.0
141
12.0
290
     0
  0
SCALE
  5
68
102
{ACAD_REACTORS
330
47
102
}
330
47
100
AcDbScale
 70
     0
300
1'-0" = 1'-0"
140
12.0
141
12.0
290
     0
  0
TABLESTYLE
  5
6A
102
{ACAD_REACTORS
330
69
102
}
102
{ACAD_XDICTIONARY
360
262
102
}
330
69
100
AcDbTableStyle
  3
Standard
 70
     0
 71
     0
 40
0.06
 41
0.06
280
     0
281
     0
  7
Standard
140
4.5
170
     2
 62
     0
 63
   257
283
     0
274
    -2
284
     1
 64
     0
275
    -2
285
     1
 65
     0
276
    -2
286
     1
 66
     0
277
    -2
287
     1
 67
     0
278
    -2
288
     1
 68
     0
279
    -2
289
     1
 69
     0
  7
Standard
140
6.0
170
     5
 62
     0
 63
   257
283
     0
274
    -2
284
     1
 64
     0
275
    -2
285
     1
 65
     0
276
    -2
286
     1
 66
     0
277
    -2
287
     1
 67
     0
278
    -2
288
     1
 68
     0
279
    -2
289
     1
 69
     0
  7
Standard
140
4.5
170
     5
 62
     0
 63
   257
283
     0
274
    -2
284
     1
 64
     0
275
    -2
285
     1
 65
     0
276
    -2
286
     1
 66
     0
277
    -2
287
     1
 67
     0
278
    -2
288
     1
 68
     0
279
    -2
289
     1
 69
     0
  0
VISUALSTYLE
  5
2F
102
{ACAD_REACTORS
330
2A
102
}
102
{ACAD_XDICTIONARY
360
234
102
}
330
2A
100
AcDbVisualStyle
  2
2dWireframe
 70
     4
 71
     0
 72
     2
 73
     0
 90
        0
 40
0.6
 41
30.0
 62
     5
 63
     7
421
 16777215
 74
     1
 91
        4
 64
     7
 65
   257
 75
     1
175
     1
 42
1.0
 92
        0
 66
   257
 43
1.0
 76
     1
 77
     6
 78
     2
 67
     7
 79
     5
170
     0
171
     0
290
     0
174
     0
 93
        1
 44
0.0
173
     0
291
     0
 45
0.0
1001
ACAD
1000
AcDbSavedByObjectVersion
1070
     0
  0
VISUALSTYLE
  5
32
102
{ACAD_REACTORS
330
2A
102
}
102
{ACAD_XDICTIONARY
360
23A
102
}
330
2A
100
AcDbVisualStyle
  2
Basic
 70
     7
 71
     1
 72
     0
 73
     1
 90
        0
 40
0.6
 41
30.0
 62
     5
 63
     7
421
 16777215
 74
     0
 91
        4
 64
     7
 65
   257
 75
     1
175
     1
 42
1.0
 92
        8
 66
     7
 43
1.0
 76
     1
 77
     6
 78
     2
 67
     7
 79
     5
170
     0
171
     0
290
     0
174
     0
 93
        1
 44
0.0
173
     0
291
     1
 45
0.0
1001
ACAD
1000
AcDbSavedByObjectVersion
1070
     0
  0
VISUALSTYLE
  5
36
102
{ACAD_REACTORS
330
2A
102
}
102
{ACAD_XDICTIONARY
360
242
102
}
330
2A
100
AcDbVisualStyle
  2
Brighten
 70
    12
 71
     2
 72
     2
 73
     0
 90
        0
 40
0.6
 41
30.0
 62
     5
 63
     7
421
 16777215
 74
     1
 91
        4
 64
     7
 65
   257
 75
     1
175
     1
 42
1.0
 92
        8
 66
     7
 43
1.0
 76
     1
 77
     6
 78
     2
 67
     7
 79
     5
170
     0
171
     0
290
     0
174
     0
 93
        1
 44
50.0
173
     0
291
     1
 45
0.0
1001
ACAD
1000
AcDbSavedByObjectVersion
1070
     0
  0
VISUALSTYLE
  5
3A
102
{ACAD_REACTORS
330
2A
102
}
102
{ACAD_XDICTIONARY
360
24A
102
}
330
2A
100
AcDbVisualStyle
  2
ColorChange
 70
    16
 71
     2
 72
     2
 73
     3
 90
        0
 40
0.6
 41
30.0
 62
     5
 63
     8
421
  8421504
 74
     1
 91
        4
 64
     7
 65
   257
 75
     1
175
     1
 42
1.0
 92
        8
 66
     8
424
  8421504
 43
1.0
 76
     1
 77
     6
 78
     2
 67
     7
 79
     5
170
     0
171
     0
290
     0
174
     0
 93
        1
 44
0.0
173
     0
291
     1
 45
0.0
1001
ACAD
1000
AcDbSavedByObjectVersion
1070
     0
  0
VISUALSTYLE
  5
34
102
{ACAD_REACTORS
330
2A
102
}
102
{ACAD_XDICTIONARY
360
23E
102
}
330
2A
100
AcDbVisualStyle
  2
Conceptual
 70
     9
 71
     3
 72
     2
 73
     0
 90
        0
 40
0.6
 41
30.0
 62
     5
 63
     7
421
 16777215
 74
     2
 91
        2
 64
     7
 65
   257
 75
     1
175
     1
 42
179.0
 92
        8
 66
     7
 43
1.0
 76
     1
 77
     6
 78
     2
 67
     7
 79
     3
170
     0
171
     0
290
     0
174
     0
 93
        1
 44
0.0
173
     0
291
     0
 45
0.0
1001
ACAD
1000
AcDbSavedByObjectVersion
1070
     0
  0
VISUALSTYLE
  5
35
102
{ACAD_REACTORS
330
2A
102
}
102
{ACAD_XDICTIONARY
360
240
102
}
330
2A
100
AcDbVisualStyle
  2
Dim
 70
    11
 71
     2
 72
     2
 73
     0
 90
        0
 40
0.6
 41
30.0
 62
     5
 63
     7
421
 16777215
 74
     1
 91
        4
 64
     7
 65
   257
 75
     1
175
     1
 42
1.0
 92
        8
 66
     7
 43
1.0
 76
     1
 77
     6
 78
     2
 67
     7
 79
     5
170
     0
171
     0
290
     0
174
     0
 93
        1
 44
-50.0
173
     0
291
     1
 45
0.0
1001
ACAD
1000
AcDbSavedByObjectVersion
1070
     0
  0
VISUALSTYLE
  5
3D
102
{ACAD_REACTORS
330
2A
102
}
102
{ACAD_XDICTIONARY
360
250
102
}
330
2A
100
AcDbVisualStyle
  2
EdgeColorOff
 70
    22
 71
     2
 72
     2
 73
     0
 90
        0
 40
0.6
 41
30.0
 62
     5
 63
     7
421
 16777215
 74
     1
 91
        4
 64
     7
 65
   257
 75
     1
175
     1
 42
1.0
 92
        8
 66
     7
 43
1.0
 76
     1
 77
     6
 78
     2
 67
     7
 79
     5
170
     0
171
     0
290
     0
174
     0
 93
        1
 44
0.0
173
     0
291
     1
 45
0.0
1001
ACAD
1000
AcDbSavedByObjectVersion
1070
     0
  0
VISUALSTYLE
  5
39
102
{ACAD_REACTORS
330
2A
102
}
102
{ACAD_XDICTIONARY
360
248
102
}
330
2A
100
AcDbVisualStyle
  2
Facepattern
 70
    15
 71
     2
 72
     2
 73
     0
 90
        0
 40
0.6
 41
30.0
 62
     5
 63
     7
421
 16777215
 74
     1
 91
        4
 64
     7
 65
   257
 75
     1
175
     1
 42
1.0
 92
        8
 66
     7
 43
1.0
 76
     1
 77
     6
 78
     2
 67
     7
 79
     5
170
     0
171
     0
290
     0
174
     0
 93
        1
 44
0.0
173
     0
291
     1
 45
0.0
1001
ACAD
1000
AcDbSavedByObjectVersion
1070
     0
  0
VISUALSTYLE
  5
2B
102
{ACAD_REACTORS
330
2A
102
}
102
{ACAD_XDICTIONARY
360
22C
102
}
330
2A
100
AcDbVisualStyle
  2
Flat
 70
     0
 71
     2
 72
     1
 73
     1
 90
        2
 40
0.6
 41
30.0
 62
     5
 63
     7
421
 16777215
 74
     0
 91
        0
 64
     7
 65
   257
 75
     1
175
     1
 42
1.0
 92
        8
 66
     7
 43
1.0
 76
     1
 77
     6
 78
     2
 67
     7
 79
     5
170
     0
171
     0
290
     0
174
     0
 93
       13
 44
0.0
173
     0
291
     1
 45
0.0
1001
ACAD
1000
AcDbSavedByObjectVersion
1070
     0
  0
VISUALSTYLE
  5
2C
102
{ACAD_REACTORS
330
2A
102
}
102
{ACAD_XDICTIONARY
360
22E
102
}
330
2A
100
AcDbVisualStyle
  2
FlatWithEdges
 70
     1
 71
     2
 72
     1
 73
     1
 90
        2
 40
0.6
 41
30.0
 62
     5
 63
     7
421
 16777215
 74
     1
 91
        0
 64
     7
 65
   257
 75
     1
175
     1
 42
1.0
 92
        0
 66
   257
 43
1.0
 76
     1
 77
     6
 78
     2
 67
     7
 79
     5
170
     0
171
     0
290
     0
174
     0
 93
       13
 44
0.0
173
     0
291
     1
 45
0.0
1001
ACAD
1000
AcDbSavedByObjectVersion
1070
     0
  0
VISUALSTYLE
  5
2D
102
{ACAD_REACTORS
330
2A
102
}
102
{ACAD_XDICTIONARY
360
230
102
}
330
2A
100
AcDbVisualStyle
  2
Gouraud
 70
     2
 71
     2
 72
     2
 73
     1
 90
        2
 40
0.6
 41
30.0
 62
     5
 63
     7
421
 16777215
 74
     0
 91
        0
 64
     7
 65
   257
 75
     1
175
     1
 42
1.0
 92
        0
 66
     7
 43
1.0
 76
     1
 77
     6
 78
     2
 67
     7
 79
     5
170
     0
171
     0
290
     0
174
     0
 93
       13
 44
0.0
173
     0
291
     1
 45
0.0
1001
ACAD
1000
AcDbSavedByObjectVersion
1070
     0
  0
VISUALSTYLE
  5
2E
102
{ACAD_REACTORS
330
2A
102
}
102
{ACAD_XDICTIONARY
360
232
102
}
330
2A
100
AcDbVisualStyle
  2
GouraudWithEdges
 70
     3
 71
     2
 72
     2
 73
     1
 90
        2
 40
0.6
 41
30.0
 62
     5
 63
     7
421
 16777215
 74
     1
 91
        0
 64
     7
 65
   257
 75
     1
175
     1
 42
1.0
 92
        0
 66
   257
 43
1.0
 76
     1
 77
     6
 78
     2
 67
     7
 79
     5
170
     0
171
     0
290
     0
174
     0
 93
       13
 44
0.0
173
     0
291
     1
 45
0.0
1001
ACAD
1000
AcDbSavedByObjectVersion
1070
     0
  0
VISUALSTYLE
  5
31
102
{ACAD_REACTORS
330
2A
102
}
102
{ACAD_XDICTIONARY
360
238
102
}
330
2A
100
AcDbVisualStyle
  2
Hidden
 70
     6
 71
     1
 72
     2
 73
     2
 90
        0
 40
0.6
 41
30.0
 62
     5
 63
     7
421
 16777215
 74
     2
 91
        2
 64
     7
 65
   257
 75
     2
175
     1
 42
40.0
 92
        0
 66
   257
 43
1.0
 76
     1
 77
     6
 78
     2
 67
     7
 79
     3
170
     0
171
     0
290
     0
174
     0
 93
        1
 44
0.0
173
     0
291
     0
 45
0.0
1001
ACAD
1000
AcDbSavedByObjectVersion
1070
     0
  0
VISUALSTYLE
  5
3B
102
{ACAD_REACTORS
330
2A
102
}
102
{ACAD_XDICTIONARY
360
24C
102
}
330
2A
100
AcDbVisualStyle
  2
JitterOff
 70
    20
 71
     2
 72
     2
 73
     0
 90
        0
 40
0.6
 41
30.0
 62
     5
 63
     7
421
 16777215
 74
     1
 91
        4
 64
     7
 65
   257
 75
     1
175
     1
 42
1.0
 92
       10
 66
     7
 43
1.0
 76
     1
 77
     6
 78
     2
 67
     7
 79
     5
170
     0
171
     0
290
     0
174
     0
 93
        1
 44
0.0
173
     0
291
     1
 45
0.0
1001
ACAD
1000
AcDbSavedByObjectVersion
1070
     0
  0
VISUALSTYLE
  5
38
102
{ACAD_REACTORS
330
2A
102
}
102
{ACAD_XDICTIONARY
360
246
102
}
330
2A
100
AcDbVisualStyle
  2
Linepattern
 70
    14
 71
     2
 72
     2
 73
     0
 90
        0
 40
0.6
 41
30.0
 62
     5
 63
     7
421
 16777215
 74
     1
 91
        4
 64
     7
 65
   257
 75
     7
175
     7
 42
1.0
 92
        8
 66
     7
 43
1.0
 76
     1
 77
     6
 78
     2
 67
     7
 79
     5
170
     0
171
     0
290
     0
174
     0
 93
        1
 44
0.0
173
     0
291
     1
 45
0.0
1001
ACAD
1000
AcDbSavedByObjectVersion
1070
     0
  0
VISUALSTYLE
  5
3C
102
{ACAD_REACTORS
330
2A
102
}
102
{ACAD_XDICTIONARY
360
24E
102
}
330
2A
100
AcDbVisualStyle
  2
OverhangOff
 70
    21
 71
     2
 72
     2
 73
     0
 90
        0
 40
0.6
 41
30.0
 62
     5
 63
     7
421
 16777215
 74
     1
 91
        4
 64
     7
 65
   257
 75
     1
175
     1
 42
1.0
 92
        9
 66
     7
 43
1.0
 76
     1
 77
     6
 78
     2
 67
     7
 79
     5
170
     0
171
     0
290
     0
174
     0
 93
        1
 44
0.0
173
     0
291
     1
 45
0.0
1001
ACAD
1000
AcDbSavedByObjectVersion
1070
     0
  0
VISUALSTYLE
  5
33
102
{ACAD_REACTORS
330
2A
102
}
102
{ACAD_XDICTIONARY
360
23C
102
}
330
2A
100
AcDbVisualStyle
  2
Realistic
 70
     8
 71
     2
 72
     3
 73
     0
 90
        2
 40
0.6
 41
30.0
 62
     5
 63
     7
421
 16777215
 74
     0
 91
        0
 64
     7
 65
   257
 75
     1
175
     1
 42
1.0
 92
        8
 66
   257
 43
1.0
 76
     1
 77
     6
 78
     2
 67
     7
 79
     3
170
     0
171
     0
290
     0
174
     0
 93
       13
 44
0.0
173
     0
291
     0
 45
0.0
1001
ACAD
1000
AcDbSavedByObjectVersion
1070
     0
  0
VISUALSTYLE
  5
42
102
{ACAD_REACTORS
330
2A
102
}
102
{ACAD_XDICTIONARY
360
25A
102
}
330
2A
100
AcDbVisualStyle
  2
Shaded
 70
    27
 71
     2
 72
     2
 73
     1
 90
        2
 40
0.6
 41
30.0
 62
     5
 63
     7
421
 16777215
 74
     0
 91
        4
 64
     7
 65
   257
 75
     1
175
     1
 42
1.0
 92
        8
 66
   257
 43
1.0
 76
     1
 77
     6
 78
     2
 67
     8
425
  7895160
 79
     3
170
     0
171
     0
290
     0
174
     0
 93
        5
 44
0.0
173
     0
291
     0
 45
0.0
1001
ACAD
1000
AcDbSavedByObjectVersion
1070
     0
  0
VISUALSTYLE
  5
41
102
{ACAD_REACTORS
330
2A
102
}
102
{ACAD_XDICTIONARY
360
258
102
}
330
2A
100
AcDbVisualStyle
  2
Shaded with edges
 70
    26
 71
     2
 72
     2
 73
     1
 90
        2
 40
0.6
 41
30.0
 62
     5
 63
     7
421
 16777215
 74
     1
 91
       10
 64
     7
 65
   257
 75
     2
175
     1
 42
1.0
 92
        8
 66
   257
 43
1.0
 76
     1
 77
     6
 78
     2
 67
     7
 79
     3
170
     0
171
     0
290
     0
174
     0
 93
        5
 44
0.0
173
     0
291
     0
 45
0.0
1001
ACAD
1000
AcDbSavedByObjectVersion
1070
     0
  0
VISUALSTYLE
  5
3E
102
{ACAD_REACTORS
330
2A
102
}
102
{ACAD_XDICTIONARY
360
252
102
}
330
2A
100
AcDbVisualStyle
  2
Shades of Gray
 70
    23
 71
     2
 72
     2
 73
     3
 90
        0
 40
0.6
 41
30.0
 62
     5
 63
     7
421
 16777215
 74
     2
 91
        2
 64
     7
 65
     7
 75
     1
175
     1
 42
40.0
 92
        8
 66
     7
 43
1.0
 76
     1
 77
     6
 78
     2
 67
     7
 79
     3
170
     0
171
     0
290
     0
174
     0
 93
        1
 44
0.0
173
     0
291
     0
 45
0.0
1001
ACAD
1000
AcDbSavedByObjectVersion
1070
     0
  0
VISUALSTYLE
  5
3F
102
{ACAD_REACTORS
330
2A
102
}
102
{ACAD_XDICTIONARY
360
254
102
}
330
2A
100
AcDbVisualStyle
  2
Sketchy
 70
    24
 71
     1
 72
     2
 73
     2
 90
        0
 40
0.6
 41
30.0
 62
     5
 63
     7
421
 16777215
 74
     2
 91
        2
 64
     7
 65
     7
 75
     1
175
     1
 42
40.0
 92
       11
 66
     7
 43
1.0
 76
     1
 77
     6
 78
     2
 67
     7
 79
     6
170
     0
171
     0
290
     0
174
     0
 93
        1
 44
0.0
173
     0
291
     0
 45
0.0
1001
ACAD
1000
AcDbSavedByObjectVersion
1070
     0
  0
VISUALSTYLE
  5
37
102
{ACAD_REACTORS
330
2A
102
}
102
{ACAD_XDICTIONARY
360
244
102
}
330
2A
100
AcDbVisualStyle
  2
Thicken
 70
    13
 71
     2
 72
     2
 73
     0
 90
        0
 40
0.6
 41
30.0
 62
     5
 63
     7
421
 16777215
 74
     1
 91
        4
 64
     7
 65
   257
 75
     1
175
     1
 42
1.0
 92
       12
 66
     7
 43
1.0
 76
     1
 77
     6
 78
     2
 67
     7
 79
     5
170
     0
171
     0
290
     0
174
     0
 93
        1
 44
0.0
173
     0
291
     1
 45
0.0
1001
ACAD
1000
AcDbSavedByObjectVersion
1070
     0
  0
VISUALSTYLE
  5
30
102
{ACAD_REACTORS
330
2A
102
}
102
{ACAD_XDICTIONARY
360
236
102
}
330
2A
100
AcDbVisualStyle
  2
Wireframe
 70
     5
 71
     0
 72
     2
 73
     0
 90
        0
 40
0.6
 41
30.0
 62
     5
 63
     7
421
 16777215
 74
     1
 91
        4
 64
     7
 65
   257
 75
     1
175
     1
 42
1.0
 92
        0
 66
   257
 43
1.0
 76
     1
 77
     6
 78
     2
 67
     7
 79
     3
170
     0
171
     0
290
     0
174
     0
 93
        1
 44
0.0
173
     0
291
     0
 45
0.0
1001
ACAD
1000
AcDbSavedByObjectVersion
1070
     0
  0
VISUALSTYLE
  5
40
102
{ACAD_REACTORS
330
2A
102
}
102
{ACAD_XDICTIONARY
360
256
102
}
330
2A
100
AcDbVisualStyle
  2
X-Ray
 70
    25
 71
     2
 72
     2
 73
     1
 90
        1
 40
0.5
 41
30.0
 62
     5
 63
     7
421
 16777215
 74
     1
 91
        0
 64
     7
 65
   257
 75
     1
175
     1
 42
1.0
 92
        8
 66
     7
 43
1.0
 76
     1
 77
     6
 78
     2
 67
     7
 79
     3
170
     0
171
     0
290
     0
174
     0
 93
       13
 44
0.0
173
     0
291
     0
 45
0.0
1001
ACAD
1000
AcDbSavedByObjectVersion
1070
     0
  0
DICTIONARYVAR
  5
229
102
{ACAD_REACTORS
330
228
102
}
330
228
100
DictionaryVariables
280
     0
  1
1:1
  0
DICTIONARYVAR
  5
26D
102
{ACAD_REACTORS
330
228
102
}
330
228
100
DictionaryVariables
280
     0
  1
3.500000
  0
DICTIONARYVAR
  5
26E
102
{ACAD_REACTORS
330
228
102
}
330
228
100
DictionaryVariables
280
     0
  1
acadiso.lin
  0
DICTIONARYVAR
  5
26A
102
{ACAD_REACTORS
330
228
102
}
330
228
100
DictionaryVariables
280
     0
  1
Standard
  0
DICTIONARYVAR
  5
269
102
{ACAD_REACTORS
330
228
102
}
330
228
100
DictionaryVariables
280
     0
  1
Standard
  0
DICTIONARYVAR
  5
22A
102
{ACAD_REACTORS
330
228
102
}
330
228
100
DictionaryVariables
280
     0
  1
1
  0
DICTIONARYVAR
  5
22B
102
{ACAD_REACTORS
330
228
102
}
330
228
100
DictionaryVariables
280
     0
  1
2
  0
DICTIONARY
  5
25E
330
45
100
AcDbDictionary
280
     1
281
     1
  3
ACAD_XREC_ROUNDTRIP
360
25F
  0
DICTIONARY
  5
25C
330
44
100
AcDbDictionary
280
     1
281
     1
  3
ACAD_XREC_ROUNDTRIP
360
25D
  0
DICTIONARY
  5
260
330
46
100
AcDbDictionary
280
     1
281
     1
  3
ACAD_XREC_ROUNDTRIP
360
261
  0
DICTIONARY
  5
266
330
6C
100
AcDbDictionary
280
     1
281
     1
  3
ACAD_XREC_ROUNDTRIP
360
267
  0
DICTIONARY
  5
262
330
6A
100
AcDbDictionary
280
     1
281
     1
  3
ACAD_ROUNDTRIP_2008_TABLESTYLE_CELLSTYLEMAP
360
264
  3
ACAD_XREC_ROUNDTRIP
360
263
  0
DICTIONARY
  5
234
330
2F
100
AcDbDictionary
280
     1
281
     1
  3
ACAD_XREC_ROUNDTRIP
360
235
  0
DICTIONARY
  5
23A
330
32
100
AcDbDictionary
280
     1
281
     1
  3
ACAD_XREC_ROUNDTRIP
360
23B
  0
DICTIONARY
  5
242
330
36
100
AcDbDictionary
280
     1
281
     1
  3
ACAD_XREC_ROUNDTRIP
360
243
  0
DICTIONARY
  5
24A
330
3A
100
AcDbDictionary
280
     1
281
     1
  3
ACAD_XREC_ROUNDTRIP
360
24B
  0
DICTIONARY
  5
23E
330
34
100
AcDbDictionary
280
     1
281
     1
  3
ACAD_XREC_ROUNDTRIP
360
23F
  0
DICTIONARY
  5
240
330
35
100
AcDbDictionary
280
     1
281
     1
  3
ACAD_XREC_ROUNDTRIP
360
241
  0
DICTIONARY
  5
250
330
3D
100
AcDbDictionary
280
     1
281
     1
  3
ACAD_XREC_ROUNDTRIP
360
251
  0
DICTIONARY
  5
248
330
39
100
AcDbDictionary
280
     1
281
     1
  3
ACAD_XREC_ROUNDTRIP
360
249
  0
DICTIONARY
  5
22C
330
2B
100
AcDbDictionary
280
     1
281
     1
  3
ACAD_XREC_ROUNDTRIP
360
22D
  0
DICTIONARY
  5
22E
330
2C
100
AcDbDictionary
280
     1
281
     1
  3
ACAD_XREC_ROUNDTRIP
360
22F
  0
DICTIONARY
  5
230
330
2D
100
AcDbDictionary
280
     1
281
     1
  3
ACAD_XREC_ROUNDTRIP
360
231
  0
DICTIONARY
  5
232
330
2E
100
AcDbDictionary
280
     1
281
     1
  3
ACAD_XREC_ROUNDTRIP
360
233
  0
DICTIONARY
  5
238
330
31
100
AcDbDictionary
280
     1
281
     1
  3
ACAD_XREC_ROUNDTRIP
360
239
  0
DICTIONARY
  5
24C
330
3B
100
AcDbDictionary
280
     1
281
     1
  3
ACAD_XREC_ROUNDTRIP
360
24D
  0
DICTIONARY
  5
246
330
38
100
AcDbDictionary
280
     1
281
     1
  3
ACAD_XREC_ROUNDTRIP
360
247
  0
DICTIONARY
  5
24E
330
3C
100
AcDbDictionary
280
     1
281
     1
  3
ACAD_XREC_ROUNDTRIP
360
24F
  0
DICTIONARY
  5
23C
330
33
100
AcDbDictionary
280
     1
281
     1
  3
ACAD_XREC_ROUNDTRIP
360
23D
  0
DICTIONARY
  5
25A
330
42
100
AcDbDictionary
280
     1
281
     1
  3
ACAD_XREC_ROUNDTRIP
360
25B
  0
DICTIONARY
  5
258
330
41
100
AcDbDictionary
280
     1
281
     1
  3
ACAD_XREC_ROUNDTRIP
360
259
  0
DICTIONARY
  5
252
330
3E
100
AcDbDictionary
280
     1
281
     1
  3
ACAD_XREC_ROUNDTRIP
360
253
  0
DICTIONARY
  5
254
330
3F
100
AcDbDictionary
280
     1
281
     1
  3
ACAD_XREC_ROUNDTRIP
360
255
  0
DICTIONARY
  5
244
330
37
100
AcDbDictionary
280
     1
281
     1
  3
ACAD_XREC_ROUNDTRIP
360
245
  0
DICTIONARY
  5
236
330
30
100
AcDbDictionary
280
     1
281
     1
  3
ACAD_XREC_ROUNDTRIP
360
237
  0
DICTIONARY
  5
256
330
40
100
AcDbDictionary
280
     1
281
     1
  3
ACAD_XREC_ROUNDTRIP
360
257
  0
XRECORD
  5
25F
102
{ACAD_REACTORS
330
25E
102
}
330
25E
100
AcDbXrecord
280
     1
102
MATERIAL
148
0.0
149
0.0
149
0.0
 93
        0
 94
      127
282
     0
 72
     1
 77
     1
171
     1
175
     1
179
     1
273
     0
  0
XRECORD
  5
25D
102
{ACAD_REACTORS
330
25C
102
}
330
25C
100
AcDbXrecord
280
     1
102
MATERIAL
148
0.0
149
0.0
149
0.0
 93
        0
 94
      127
282
     0
 72
     1
 77
     1
171
     1
175
     1
179
     1
273
     0
  0
XRECORD
  5
261
102
{ACAD_REACTORS
330
260
102
}
330
260
100
AcDbXrecord
280
     1
102
MATERIAL
148
0.0
149
0.0
149
0.0
 93
        0
 94
      127
282
     0
 72
     1
 77
     1
171
     1
175
     1
179
     1
273
     0
  0
XRECORD
  5
267
102
{ACAD_REACTORS
330
266
102
}
330
266
100
AcDbXrecord
280
     1
102
ACAD_ROUNDTRIP_2010_MLEADER_STYLE
  0
CELLSTYLEMAP
  5
264
102
{ACAD_REACTORS
330
262
102
}
330
262
100
AcDbCellStyleMap
 90
        3
300
CELLSTYLE
  1
TABLEFORMAT_BEGIN
 90
        5
170
     1
 91
        0
 92
    32768
 62
   257
 93
        1
300
CONTENTFORMAT
  1
CONTENTFORMAT_BEGIN
 90
        0
 91
        0
 92
        4
 93
        0
300

 40
0.0
140
1.0
 94
        5
 62
     0
340
11
144
6.0
309
CONTENTFORMAT_END
171
     1
301
MARGIN
  1
CELLMARGIN_BEGIN
 40
1.5
 40
1.5
 40
1.5
 40
1.5
 40
1.5
 40
1.5
309
CELLMARGIN_END
 94
        6
 95
        1
302
GRIDFORMAT
  1
GRIDFORMAT_BEGIN
 90
        0
 91
        1
 62
     0
 92
       -2
340
14
 93
        0
 40
0.045
309
GRIDFORMAT_END
 95
        2
302
GRIDFORMAT
  1
GRIDFORMAT_BEGIN
 90
        0
 91
        1
 62
     0
 92
       -2
340
14
 93
        0
 40
0.045
309
GRIDFORMAT_END
 95
        4
302
GRIDFORMAT
  1
GRIDFORMAT_BEGIN
 90
        0
 91
        1
 62
     0
 92
       -2
340
14
 93
        0
 40
0.045
309
GRIDFORMAT_END
 95
        8
302
GRIDFORMAT
  1
GRIDFORMAT_BEGIN
 90
        0
 91
        1
 62
     0
 92
       -2
340
14
 93
        0
 40
0.045
309
GRIDFORMAT_END
 95
       16
302
GRIDFORMAT
  1
GRIDFORMAT_BEGIN
 90
        0
 91
        1
 62
     0
 92
       -2
340
14
 93
        0
 40
0.045
309
GRIDFORMAT_END
 95
       32
302
GRIDFORMAT
  1
GRIDFORMAT_BEGIN
 90
        0
 91
        1
 62
     0
 92
       -2
340
14
 93
        0
 40
0.045
309
GRIDFORMAT_END
309
TABLEFORMAT_END
  1
CELLSTYLE_BEGIN
 90
        1
 91
        1
300
_TITLE
309
CELLSTYLE_END
300
CELLSTYLE
  1
TABLEFORMAT_BEGIN
 90
        5
170
     1
 91
        0
 92
        0
 62
   257
 93
        1
300
CONTENTFORMAT
  1
CONTENTFORMAT_BEGIN
 90
        0
 91
        0
 92
        4
 93
        0
300

 40
0.0
140
1.0
 94
        5
 62
     0
340
11
144
4.5
309
CONTENTFORMAT_END
171
     1
301
MARGIN
  1
CELLMARGIN_BEGIN
 40
1.5
 40
1.5
 40
1.5
 40
1.5
 40
1.5
 40
1.5
309
CELLMARGIN_END
 94
        6
 95
        1
302
GRIDFORMAT
  1
GRIDFORMAT_BEGIN
 90
        0
 91
        1
 62
     0
 92
       -2
340
14
 93
        0
 40
0.045
309
GRIDFORMAT_END
 95
        2
302
GRIDFORMAT
  1
GRIDFORMAT_BEGIN
 90
        0
 91
        1
 62
     0
 92
       -2
340
14
 93
        0
 40
0.045
309
GRIDFORMAT_END
 95
        4
302
GRIDFORMAT
  1
GRIDFORMAT_BEGIN
 90
        0
 91
        1
 62
     0
 92
       -2
340
14
 93
        0
 40
0.045
309
GRIDFORMAT_END
 95
        8
302
GRIDFORMAT
  1
GRIDFORMAT_BEGIN
 90
        0
 91
        1
 62
     0
 92
       -2
340
14
 93
        0
 40
0.045
309
GRIDFORMAT_END
 95
       16
302
GRIDFORMAT
  1
GRIDFORMAT_BEGIN
 90
        0
 91
        1
 62
     0
 92
       -2
340
14
 93
        0
 40
0.045
309
GRIDFORMAT_END
 95
       32
302
GRIDFORMAT
  1
GRIDFORMAT_BEGIN
 90
        0
 91
        1
 62
     0
 92
       -2
340
14
 93
        0
 40
0.045
309
GRIDFORMAT_END
309
TABLEFORMAT_END
  1
CELLSTYLE_BEGIN
 90
        2
 91
        1
300
_HEADER
309
CELLSTYLE_END
300
CELLSTYLE
  1
TABLEFORMAT_BEGIN
 90
        5
170
     1
 91
        0
 92
        0
 62
   257
 93
        1
300
CONTENTFORMAT
  1
CONTENTFORMAT_BEGIN
 90
        0
 91
        0
 92
        4
 93
        0
300

 40
0.0
140
1.0
 94
        2
 62
     0
340
11
144
4.5
309
CONTENTFORMAT_END
171
     1
301
MARGIN
  1
CELLMARGIN_BEGIN
 40
1.5
 40
1.5
 40
1.5
 40
1.5
 40
1.5
 40
1.5
309
CELLMARGIN_END
 94
        6
 95
        1
302
GRIDFORMAT
  1
GRIDFORMAT_BEGIN
 90
        0
 91
        1
 62
     0
 92
       -2
340
14
 93
        0
 40
0.045
309
GRIDFORMAT_END
 95
        2
302
GRIDFORMAT
  1
GRIDFORMAT_BEGIN
 90
        0
 91
        1
 62
     0
 92
       -2
340
14
 93
        0
 40
0.045
309
GRIDFORMAT_END
 95
        4
302
GRIDFORMAT
  1
GRIDFORMAT_BEGIN
 90
        0
 91
        1
 62
     0
 92
       -2
340
14
 93
        0
 40
0.045
309
GRIDFORMAT_END
 95
        8
302
GRIDFORMAT
  1
GRIDFORMAT_BEGIN
 90
        0
 91
        1
 62
     0
 92
       -2
340
14
 93
        0
 40
0.045
309
GRIDFORMAT_END
 95
       16
302
GRIDFORMAT
  1
GRIDFORMAT_BEGIN
 90
        0
 91
        1
 62
     0
 92
       -2
340
14
 93
        0
 40
0.045
309
GRIDFORMAT_END
 95
       32
302
GRIDFORMAT
  1
GRIDFORMAT_BEGIN
 90
        0
 91
        1
 62
     0
 92
       -2
340
14
 93
        0
 40
0.045
309
GRIDFORMAT_END
309
TABLEFORMAT_END
  1
CELLSTYLE_BEGIN
 90
        3
 91
        2
300
_DATA
309
CELLSTYLE_END
  0
XRECORD
  5
263
102
{ACAD_REACTORS
330
262
102
}
330
262
100
AcDbXrecord
280
     1
102
ACAD_ROUNDTRIP_PRE2007_TABLESTYLE
 90
        4
 91
        0
  1

 92
        4
 93
        0
  2

 94
        4
 95
        0
  3

  0
XRECORD
  5
235
102
{ACAD_REACTORS
330
234
102
}
330
234
100
AcDbXrecord
280
     1
102
RTVSPropertyOp0
 70
     1
102
RTVSPropertyOp1
 70
     1
102
RTVSPropertyOp2
 70
     1
102
RTVSPropertyOp3
 70
     1
102
RTVSPropertyOp4
 70
     1
102
RTVSPropertyOp5
 70
     1
102
RTVSPropertyOp6
 70
     1
102
RTVSPropertyOp7
 70
     1
102
RTVSPropertyOp8
 70
     1
102
RTVSPropertyOp9
 70
     1
102
RTVSPropertyOp10
 70
     1
102
RTVSPropertyOp11
 70
     1
102
RTVSPropertyOp12
 70
     1
102
RTVSPropertyOp13
 70
     1
102
RTVSPropertyOp14
 70
     1
102
RTVSPropertyOp15
 70
     1
102
RTVSPropertyOp16
 70
     1
102
RTVSPropertyOp17
 70
     1
102
RTVSPropertyOp18
 70
     1
102
RTVSPropertyOp19
 70
     1
102
RTVSPropertyOp20
 70
     1
102
RTVSPropertyOp21
 70
     1
102
RTVSPropertyOp22
 70
     1
102
RTVSPropertyOp23
 70
     1
102
RTVSPropertyOp24
 70
     1
102
RTVSPropertyOp25
 70
     1
102
RTVSPropertyOp26
 70
     1
102
RTVSPropertyOp27
 70
     1
102
RTVSPropertyOp28
 70
     1
102
RTVSPropertyOp29
 70
     1
102
RTVSPropertyOp30
 70
     1
102
RTVSPropertyOp31
 70
     1
102
RTVSPropertyOp32
 70
     1
102
RTVSPropertyOp33
 70
     1
102
RTVSPropertyOp34
 70
     1
102
RTVSPropertyOp35
 70
     1
102
RTVSPropertyOp36
 70
     1
102
RTVSPropertyOp37
 70
     1
102
RTVSPropertyOp38
 70
     1
102
RTVSPropertyOp39
 70
     1
102
RTVSPropertyOp40
 70
     1
102
RTVSPropertyOp41
 70
     1
102
RTVSPropertyOp42
 70
     1
102
RTVSPropertyOp43
 70
     1
102
RTVSPropertyOp44
 70
     1
102
RTVSPropertyOp45
 70
     1
102
RTVSPropertyOp46
 70
     1
102
RTVSPropertyOp47
 70
     1
102
RTVSPropertyOp48
 70
     1
102
RTVSPropertyOp49
 70
     1
102
RTVSPropertyOp50
 70
     1
102
RTVSPropertyOp51
 70
     0
102
RTVSPropertyOp52
 70
     0
102
RTVSPropertyOp53
 70
     1
102
RTVSPropertyOp54
 70
     1
102
RTVSPropertyOp55
 70
     1
102
RTVSPropertyOp56
 70
     1
102
RTVSPropertyOp57
 70
     1
102
RTVSPost2010Prop28
280
     1
102
RTVSPost2010PropOp28
 70
     1
102
RTVSPost2010Prop29
280
     1
102
RTVSPost2010PropOp29
 70
     1
102
RTVSPost2010Prop30
280
     0
102
RTVSPost2010PropOp30
 70
     1
102
RTVSPost2010Prop31
280
     0
102
RTVSPost2010PropOp31
 70
     1
102
RTVSPost2010Prop32
280
     0
102
RTVSPost2010PropOp32
 70
     1
102
RTVSPost2010Prop33
280
     0
102
RTVSPost2010PropOp33
 70
     1
102
RTVSPost2010Prop34
280
     0
102
RTVSPost2010PropOp34
 70
     1
102
RTVSPost2010Prop35
280
     0
102
RTVSPost2010PropOp35
 70
     1
102
RTVSPost2010Prop36
280
     0
102
RTVSPost2010PropOp36
 70
     1
102
RTVSPost2010Prop37
 90
       50
102
RTVSPost2010PropOp37
 70
     1
102
RTVSPost2010Prop38
140
0.0
102
RTVSPost2010PropOp38
 70
     1
102
RTVSPost2010Prop39
140
1.0
102
RTVSPost2010PropOp39
 70
     1
102
RTVSPost2010Prop40
 90
        0
102
RTVSPost2010PropOp40
 70
     1
102
RTVSPost2010Prop41ColorIndex
 90
       18
102
RTVSPost2010Prop41ColorRGB
 90
        0
102
RTVSPost2010PropOp41
 70
     1
102
RTVSPost2010Prop42
 90
       50
102
RTVSPost2010PropOp42
 70
     1
102
RTVSPost2010Prop43
 90
        3
102
RTVSPost2010PropOp43
 70
     1
102
RTVSPost2010Prop44ColorIndex
 90
        5
102
RTVSPost2010Prop44ColorRGB
 90
      255
102
RTVSPost2010PropOp44
 70
     1
102
RTVSPost2010Prop45
280
     0
102
RTVSPost2010PropOp45
 70
     1
102
RTVSPost2010Prop46
 90
       50
102
RTVSPost2010PropOp46
 70
     1
102
RTVSPost2010Prop47
 90
       50
102
RTVSPost2010PropOp47
 70
     1
102
RTVSPost2010Prop48
 90
       50
102
RTVSPost2010PropOp48
 70
     1
102
RTVSPost2010Prop49
280
     0
102
RTVSPost2010PropOp49
 70
     1
102
RTVSPost2010Prop50
 90
       50
102
RTVSPost2010PropOp50
 70
     1
102
RTVSPost2010Prop51ColorIndex
 90
      256
102
RTVSPost2010Prop51ColorRGB
 90
-16777216
102
RTVSPost2010PropOp51
 70
     0
102
RTVSPost2010Prop52
140
1.0
102
RTVSPost2010PropOp52
 70
     0
102
RTVSPost2010Prop53
 90
        2
102
RTVSPost2010PropOp53
 70
     1
102
RTVSPost2010Prop54
  1
strokes_ogs.tif
102
RTVSPost2010PropOp54
 70
     1
102
RTVSPost2010Prop55
280
     0
102
RTVSPost2010PropOp55
 70
     1
102
RTVSPost2010Prop56
140
1.0
102
RTVSPost2010PropOp56
 70
     1
102
RTVSPost2010Prop57
140
1.0
102
RTVSPost2010PropOp57
 70
     1
  0
XRECORD
  5
23B
102
{ACAD_REACTORS
330
23A
102
}
330
23A
100
AcDbXrecord
280
     1
102
RTVSPropertyOp0
 70
     1
102
RTVSPropertyOp1
 70
     1
102
RTVSPropertyOp2
 70
     1
102
RTVSPropertyOp3
 70
     1
102
RTVSPropertyOp4
 70
     1
102
RTVSPropertyOp5
 70
     1
102
RTVSPropertyOp6
 70
     1
102
RTVSPropertyOp7
 70
     1
102
RTVSPropertyOp8
 70
     1
102
RTVSPropertyOp9
 70
     1
102
RTVSPropertyOp10
 70
     1
102
RTVSPropertyOp11
 70
     1
102
RTVSPropertyOp12
 70
     1
102
RTVSPropertyOp13
 70
     1
102
RTVSPropertyOp14
 70
     1
102
RTVSPropertyOp15
 70
     1
102
RTVSPropertyOp16
 70
     1
102
RTVSPropertyOp17
 70
     1
102
RTVSPropertyOp18
 70
     1
102
RTVSPropertyOp19
 70
     1
102
RTVSPropertyOp20
 70
     1
102
RTVSPropertyOp21
 70
     1
102
RTVSPropertyOp22
 70
     1
102
RTVSPropertyOp23
 70
     1
102
RTVSPropertyOp24
 70
     1
102
RTVSPropertyOp25
 70
     1
102
RTVSPropertyOp26
 70
     1
102
RTVSPropertyOp27
 70
     1
102
RTVSPropertyOp28
 70
     1
102
RTVSPropertyOp29
 70
     1
102
RTVSPropertyOp30
 70
     1
102
RTVSPropertyOp31
 70
     1
102
RTVSPropertyOp32
 70
     1
102
RTVSPropertyOp33
 70
     1
102
RTVSPropertyOp34
 70
     1
102
RTVSPropertyOp35
 70
     1
102
RTVSPropertyOp36
 70
     1
102
RTVSPropertyOp37
 70
     1
102
RTVSPropertyOp38
 70
     1
102
RTVSPropertyOp39
 70
     1
102
RTVSPropertyOp40
 70
     1
102
RTVSPropertyOp41
 70
     1
102
RTVSPropertyOp42
 70
     1
102
RTVSPropertyOp43
 70
     1
102
RTVSPropertyOp44
 70
     1
102
RTVSPropertyOp45
 70
     1
102
RTVSPropertyOp46
 70
     1
102
RTVSPropertyOp47
 70
     1
102
RTVSPropertyOp48
 70
     1
102
RTVSPropertyOp49
 70
     1
102
RTVSPropertyOp50
 70
     1
102
RTVSPropertyOp51
 70
     0
102
RTVSPropertyOp52
 70
     0
102
RTVSPropertyOp53
 70
     1
102
RTVSPropertyOp54
 70
     1
102
RTVSPropertyOp55
 70
     1
102
RTVSPropertyOp56
 70
     1
102
RTVSPropertyOp57
 70
     1
102
RTVSPost2010Prop28
280
     0
102
RTVSPost2010PropOp28
 70
     1
102
RTVSPost2010Prop29
280
     1
102
RTVSPost2010PropOp29
 70
     1
102
RTVSPost2010Prop30
280
     1
102
RTVSPost2010PropOp30
 70
     1
102
RTVSPost2010Prop31
280
     0
102
RTVSPost2010PropOp31
 70
     1
102
RTVSPost2010Prop32
280
     0
102
RTVSPost2010PropOp32
 70
     1
102
RTVSPost2010Prop33
280
     0
102
RTVSPost2010PropOp33
 70
     1
102
RTVSPost2010Prop34
280
     0
102
RTVSPost2010PropOp34
 70
     1
102
RTVSPost2010Prop35
280
     0
102
RTVSPost2010PropOp35
 70
     1
102
RTVSPost2010Prop36
280
     0
102
RTVSPost2010PropOp36
 70
     1
102
RTVSPost2010Prop37
 90
       50
102
RTVSPost2010PropOp37
 70
     1
102
RTVSPost2010Prop38
140
0.0
102
RTVSPost2010PropOp38
 70
     1
102
RTVSPost2010Prop39
140
1.0
102
RTVSPost2010PropOp39
 70
     1
102
RTVSPost2010Prop40
 90
        0
102
RTVSPost2010PropOp40
 70
     1
102
RTVSPost2010Prop41ColorIndex
 90
       18
102
RTVSPost2010Prop41ColorRGB
 90
        0
102
RTVSPost2010PropOp41
 70
     1
102
RTVSPost2010Prop42
 90
       50
102
RTVSPost2010PropOp42
 70
     1
102
RTVSPost2010Prop43
 90
        3
102
RTVSPost2010PropOp43
 70
     1
102
RTVSPost2010Prop44ColorIndex
 90
        5
102
RTVSPost2010Prop44ColorRGB
 90
      255
102
RTVSPost2010PropOp44
 70
     1
102
RTVSPost2010Prop45
280
     0
102
RTVSPost2010PropOp45
 70
     1
102
RTVSPost2010Prop46
 90
       50
102
RTVSPost2010PropOp46
 70
     1
102
RTVSPost2010Prop47
 90
       50
102
RTVSPost2010PropOp47
 70
     1
102
RTVSPost2010Prop48
 90
       50
102
RTVSPost2010PropOp48
 70
     1
102
RTVSPost2010Prop49
280
     0
102
RTVSPost2010PropOp49
 70
     1
102
RTVSPost2010Prop50
 90
       50
102
RTVSPost2010PropOp50
 70
     1
102
RTVSPost2010Prop51ColorIndex
 90
      256
102
RTVSPost2010Prop51ColorRGB
 90
-16777216
102
RTVSPost2010PropOp51
 70
     0
102
RTVSPost2010Prop52
140
1.0
102
RTVSPost2010PropOp52
 70
     0
102
RTVSPost2010Prop53
 90
        2
102
RTVSPost2010PropOp53
 70
     1
102
RTVSPost2010Prop54
  1
strokes_ogs.tif
102
RTVSPost2010PropOp54
 70
     1
102
RTVSPost2010Prop55
280
     0
102
RTVSPost2010PropOp55
 70
     1
102
RTVSPost2010Prop56
140
1.0
102
RTVSPost2010PropOp56
 70
     1
102
RTVSPost2010Prop57
140
1.0
102
RTVSPost2010PropOp57
 70
     1
  0
XRECORD
  5
243
102
{ACAD_REACTORS
330
242
102
}
330
242
100
AcDbXrecord
280
     1
102
RTVSPropertyOp0
 70
     1
102
RTVSPropertyOp1
 70
     1
102
RTVSPropertyOp2
 70
     1
102
RTVSPropertyOp3
 70
     1
102
RTVSPropertyOp4
 70
     1
102
RTVSPropertyOp5
 70
     1
102
RTVSPropertyOp6
 70
     1
102
RTVSPropertyOp7
 70
     1
102
RTVSPropertyOp8
 70
     1
102
RTVSPropertyOp9
 70
     1
102
RTVSPropertyOp10
 70
     1
102
RTVSPropertyOp11
 70
     1
102
RTVSPropertyOp12
 70
     1
102
RTVSPropertyOp13
 70
     1
102
RTVSPropertyOp14
 70
     1
102
RTVSPropertyOp15
 70
     1
102
RTVSPropertyOp16
 70
     1
102
RTVSPropertyOp17
 70
     1
102
RTVSPropertyOp18
 70
     1
102
RTVSPropertyOp19
 70
     1
102
RTVSPropertyOp20
 70
     1
102
RTVSPropertyOp21
 70
     1
102
RTVSPropertyOp22
 70
     1
102
RTVSPropertyOp23
 70
     1
102
RTVSPropertyOp24
 70
     1
102
RTVSPropertyOp25
 70
     1
102
RTVSPropertyOp26
 70
     1
102
RTVSPropertyOp27
 70
     1
102
RTVSPropertyOp28
 70
     1
102
RTVSPropertyOp29
 70
     1
102
RTVSPropertyOp30
 70
     1
102
RTVSPropertyOp31
 70
     1
102
RTVSPropertyOp32
 70
     1
102
RTVSPropertyOp33
 70
     1
102
RTVSPropertyOp34
 70
     1
102
RTVSPropertyOp35
 70
     1
102
RTVSPropertyOp36
 70
     1
102
RTVSPropertyOp37
 70
     1
102
RTVSPropertyOp38
 70
     1
102
RTVSPropertyOp39
 70
     1
102
RTVSPropertyOp40
 70
     1
102
RTVSPropertyOp41
 70
     1
102
RTVSPropertyOp42
 70
     1
102
RTVSPropertyOp43
 70
     1
102
RTVSPropertyOp44
 70
     1
102
RTVSPropertyOp45
 70
     1
102
RTVSPropertyOp46
 70
     1
102
RTVSPropertyOp47
 70
     1
102
RTVSPropertyOp48
 70
     1
102
RTVSPropertyOp49
 70
     1
102
RTVSPropertyOp50
 70
     1
102
RTVSPropertyOp51
 70
     0
102
RTVSPropertyOp52
 70
     0
102
RTVSPropertyOp53
 70
     1
102
RTVSPropertyOp54
 70
     1
102
RTVSPropertyOp55
 70
     1
102
RTVSPropertyOp56
 70
     1
102
RTVSPropertyOp57
 70
     1
102
RTVSPost2010Prop28
280
     0
102
RTVSPost2010PropOp28
 70
     1
102
RTVSPost2010Prop29
280
     1
102
RTVSPost2010PropOp29
 70
     1
102
RTVSPost2010Prop30
280
     1
102
RTVSPost2010PropOp30
 70
     1
102
RTVSPost2010Prop31
280
     0
102
RTVSPost2010PropOp31
 70
     1
102
RTVSPost2010Prop32
280
     0
102
RTVSPost2010PropOp32
 70
     1
102
RTVSPost2010Prop33
280
     0
102
RTVSPost2010PropOp33
 70
     1
102
RTVSPost2010Prop34
280
     0
102
RTVSPost2010PropOp34
 70
     1
102
RTVSPost2010Prop35
280
     0
102
RTVSPost2010PropOp35
 70
     1
102
RTVSPost2010Prop36
280
     0
102
RTVSPost2010PropOp36
 70
     1
102
RTVSPost2010Prop37
 90
       50
102
RTVSPost2010PropOp37
 70
     1
102
RTVSPost2010Prop38
140
0.0
102
RTVSPost2010PropOp38
 70
     1
102
RTVSPost2010Prop39
140
1.0
102
RTVSPost2010PropOp39
 70
     1
102
RTVSPost2010Prop40
 90
        0
102
RTVSPost2010PropOp40
 70
     1
102
RTVSPost2010Prop41ColorIndex
 90
       18
102
RTVSPost2010Prop41ColorRGB
 90
        0
102
RTVSPost2010PropOp41
 70
     1
102
RTVSPost2010Prop42
 90
       50
102
RTVSPost2010PropOp42
 70
     1
102
RTVSPost2010Prop43
 90
        3
102
RTVSPost2010PropOp43
 70
     1
102
RTVSPost2010Prop44ColorIndex
 90
        5
102
RTVSPost2010Prop44ColorRGB
 90
      255
102
RTVSPost2010PropOp44
 70
     1
102
RTVSPost2010Prop45
280
     0
102
RTVSPost2010PropOp45
 70
     1
102
RTVSPost2010Prop46
 90
       50
102
RTVSPost2010PropOp46
 70
     1
102
RTVSPost2010Prop47
 90
       50
102
RTVSPost2010PropOp47
 70
     1
102
RTVSPost2010Prop48
 90
       50
102
RTVSPost2010PropOp48
 70
     1
102
RTVSPost2010Prop49
280
     0
102
RTVSPost2010PropOp49
 70
     1
102
RTVSPost2010Prop50
 90
       50
102
RTVSPost2010PropOp50
 70
     1
102
RTVSPost2010Prop51ColorIndex
 90
      256
102
RTVSPost2010Prop51ColorRGB
 90
-16777216
102
RTVSPost2010PropOp51
 70
     0
102
RTVSPost2010Prop52
140
1.0
102
RTVSPost2010PropOp52
 70
     0
102
RTVSPost2010Prop53
 90
        2
102
RTVSPost2010PropOp53
 70
     1
102
RTVSPost2010Prop54
  1
strokes_ogs.tif
102
RTVSPost2010PropOp54
 70
     1
102
RTVSPost2010Prop55
280
     0
102
RTVSPost2010PropOp55
 70
     1
102
RTVSPost2010Prop56
140
1.0
102
RTVSPost2010PropOp56
 70
     1
102
RTVSPost2010Prop57
140
1.0
102
RTVSPost2010PropOp57
 70
     1
  0
XRECORD
  5
24B
102
{ACAD_REACTORS
330
24A
102
}
330
24A
100
AcDbXrecord
280
     1
102
RTVSPropertyOp0
 70
     1
102
RTVSPropertyOp1
 70
     1
102
RTVSPropertyOp2
 70
     1
102
RTVSPropertyOp3
 70
     1
102
RTVSPropertyOp4
 70
     1
102
RTVSPropertyOp5
 70
     1
102
RTVSPropertyOp6
 70
     1
102
RTVSPropertyOp7
 70
     1
102
RTVSPropertyOp8
 70
     1
102
RTVSPropertyOp9
 70
     1
102
RTVSPropertyOp10
 70
     1
102
RTVSPropertyOp11
 70
     1
102
RTVSPropertyOp12
 70
     1
102
RTVSPropertyOp13
 70
     1
102
RTVSPropertyOp14
 70
     1
102
RTVSPropertyOp15
 70
     1
102
RTVSPropertyOp16
 70
     1
102
RTVSPropertyOp17
 70
     1
102
RTVSPropertyOp18
 70
     1
102
RTVSPropertyOp19
 70
     1
102
RTVSPropertyOp20
 70
     1
102
RTVSPropertyOp21
 70
     1
102
RTVSPropertyOp22
 70
     1
102
RTVSPropertyOp23
 70
     1
102
RTVSPropertyOp24
 70
     1
102
RTVSPropertyOp25
 70
     1
102
RTVSPropertyOp26
 70
     1
102
RTVSPropertyOp27
 70
     1
102
RTVSPropertyOp28
 70
     1
102
RTVSPropertyOp29
 70
     1
102
RTVSPropertyOp30
 70
     1
102
RTVSPropertyOp31
 70
     1
102
RTVSPropertyOp32
 70
     1
102
RTVSPropertyOp33
 70
     1
102
RTVSPropertyOp34
 70
     1
102
RTVSPropertyOp35
 70
     1
102
RTVSPropertyOp36
 70
     1
102
RTVSPropertyOp37
 70
     1
102
RTVSPropertyOp38
 70
     1
102
RTVSPropertyOp39
 70
     1
102
RTVSPropertyOp40
 70
     1
102
RTVSPropertyOp41
 70
     1
102
RTVSPropertyOp42
 70
     1
102
RTVSPropertyOp43
 70
     1
102
RTVSPropertyOp44
 70
     1
102
RTVSPropertyOp45
 70
     1
102
RTVSPropertyOp46
 70
     1
102
RTVSPropertyOp47
 70
     1
102
RTVSPropertyOp48
 70
     1
102
RTVSPropertyOp49
 70
     1
102
RTVSPropertyOp50
 70
     1
102
RTVSPropertyOp51
 70
     0
102
RTVSPropertyOp52
 70
     0
102
RTVSPropertyOp53
 70
     1
102
RTVSPropertyOp54
 70
     1
102
RTVSPropertyOp55
 70
     1
102
RTVSPropertyOp56
 70
     1
102
RTVSPropertyOp57
 70
     1
102
RTVSPost2010Prop28
280
     0
102
RTVSPost2010PropOp28
 70
     1
102
RTVSPost2010Prop29
280
     1
102
RTVSPost2010PropOp29
 70
     1
102
RTVSPost2010Prop30
280
     1
102
RTVSPost2010PropOp30
 70
     1
102
RTVSPost2010Prop31
280
     0
102
RTVSPost2010PropOp31
 70
     1
102
RTVSPost2010Prop32
280
     0
102
RTVSPost2010PropOp32
 70
     1
102
RTVSPost2010Prop33
280
     0
102
RTVSPost2010PropOp33
 70
     1
102
RTVSPost2010Prop34
280
     0
102
RTVSPost2010PropOp34
 70
     1
102
RTVSPost2010Prop35
280
     0
102
RTVSPost2010PropOp35
 70
     1
102
RTVSPost2010Prop36
280
     0
102
RTVSPost2010PropOp36
 70
     1
102
RTVSPost2010Prop37
 90
       50
102
RTVSPost2010PropOp37
 70
     1
102
RTVSPost2010Prop38
140
0.0
102
RTVSPost2010PropOp38
 70
     1
102
RTVSPost2010Prop39
140
1.0
102
RTVSPost2010PropOp39
 70
     1
102
RTVSPost2010Prop40
 90
        0
102
RTVSPost2010PropOp40
 70
     1
102
RTVSPost2010Prop41ColorIndex
 90
       18
102
RTVSPost2010Prop41ColorRGB
 90
        0
102
RTVSPost2010PropOp41
 70
     1
102
RTVSPost2010Prop42
 90
       50
102
RTVSPost2010PropOp42
 70
     1
102
RTVSPost2010Prop43
 90
        3
102
RTVSPost2010PropOp43
 70
     1
102
RTVSPost2010Prop44ColorIndex
 90
        5
102
RTVSPost2010Prop44ColorRGB
 90
      255
102
RTVSPost2010PropOp44
 70
     1
102
RTVSPost2010Prop45
280
     0
102
RTVSPost2010PropOp45
 70
     1
102
RTVSPost2010Prop46
 90
       50
102
RTVSPost2010PropOp46
 70
     1
102
RTVSPost2010Prop47
 90
       50
102
RTVSPost2010PropOp47
 70
     1
102
RTVSPost2010Prop48
 90
       50
102
RTVSPost2010PropOp48
 70
     1
102
RTVSPost2010Prop49
280
     0
102
RTVSPost2010PropOp49
 70
     1
102
RTVSPost2010Prop50
 90
       50
102
RTVSPost2010PropOp50
 70
     1
102
RTVSPost2010Prop51ColorIndex
 90
      256
102
RTVSPost2010Prop51ColorRGB
 90
-16777216
102
RTVSPost2010PropOp51
 70
     0
102
RTVSPost2010Prop52
140
1.0
102
RTVSPost2010PropOp52
 70
     0
102
RTVSPost2010Prop53
 90
        2
102
RTVSPost2010PropOp53
 70
     1
102
RTVSPost2010Prop54
  1
strokes_ogs.tif
102
RTVSPost2010PropOp54
 70
     1
102
RTVSPost2010Prop55
280
     0
102
RTVSPost2010PropOp55
 70
     1
102
RTVSPost2010Prop56
140
1.0
102
RTVSPost2010PropOp56
 70
     1
102
RTVSPost2010Prop57
140
1.0
102
RTVSPost2010PropOp57
 70
     1
  0
XRECORD
  5
23F
102
{ACAD_REACTORS
330
23E
102
}
330
23E
100
AcDbXrecord
280
     1
102
RTVSPropertyOp0
 70
     1
102
RTVSPropertyOp1
 70
     1
102
RTVSPropertyOp2
 70
     1
102
RTVSPropertyOp3
 70
     1
102
RTVSPropertyOp4
 70
     1
102
RTVSPropertyOp5
 70
     1
102
RTVSPropertyOp6
 70
     1
102
RTVSPropertyOp7
 70
     1
102
RTVSPropertyOp8
 70
     1
102
RTVSPropertyOp9
 70
     1
102
RTVSPropertyOp10
 70
     1
102
RTVSPropertyOp11
 70
     1
102
RTVSPropertyOp12
 70
     1
102
RTVSPropertyOp13
 70
     1
102
RTVSPropertyOp14
 70
     1
102
RTVSPropertyOp15
 70
     1
102
RTVSPropertyOp16
 70
     1
102
RTVSPropertyOp17
 70
     1
102
RTVSPropertyOp18
 70
     1
102
RTVSPropertyOp19
 70
     1
102
RTVSPropertyOp20
 70
     1
102
RTVSPropertyOp21
 70
     1
102
RTVSPropertyOp22
 70
     1
102
RTVSPropertyOp23
 70
     1
102
RTVSPropertyOp24
 70
     1
102
RTVSPropertyOp25
 70
     1
102
RTVSPropertyOp26
 70
     1
102
RTVSPropertyOp27
 70
     1
102
RTVSPropertyOp28
 70
     1
102
RTVSPropertyOp29
 70
     1
102
RTVSPropertyOp30
 70
     1
102
RTVSPropertyOp31
 70
     1
102
RTVSPropertyOp32
 70
     1
102
RTVSPropertyOp33
 70
     1
102
RTVSPropertyOp34
 70
     1
102
RTVSPropertyOp35
 70
     1
102
RTVSPropertyOp36
 70
     1
102
RTVSPropertyOp37
 70
     1
102
RTVSPropertyOp38
 70
     1
102
RTVSPropertyOp39
 70
     1
102
RTVSPropertyOp40
 70
     1
102
RTVSPropertyOp41
 70
     1
102
RTVSPropertyOp42
 70
     1
102
RTVSPropertyOp43
 70
     1
102
RTVSPropertyOp44
 70
     1
102
RTVSPropertyOp45
 70
     1
102
RTVSPropertyOp46
 70
     1
102
RTVSPropertyOp47
 70
     1
102
RTVSPropertyOp48
 70
     1
102
RTVSPropertyOp49
 70
     1
102
RTVSPropertyOp50
 70
     1
102
RTVSPropertyOp51
 70
     0
102
RTVSPropertyOp52
 70
     0
102
RTVSPropertyOp53
 70
     1
102
RTVSPropertyOp54
 70
     1
102
RTVSPropertyOp55
 70
     1
102
RTVSPropertyOp56
 70
     1
102
RTVSPropertyOp57
 70
     1
102
RTVSPost2010Prop28
280
     0
102
RTVSPost2010PropOp28
 70
     1
102
RTVSPost2010Prop29
280
     1
102
RTVSPost2010PropOp29
 70
     1
102
RTVSPost2010Prop30
280
     1
102
RTVSPost2010PropOp30
 70
     1
102
RTVSPost2010Prop31
280
     0
102
RTVSPost2010PropOp31
 70
     1
102
RTVSPost2010Prop32
280
     0
102
RTVSPost2010PropOp32
 70
     1
102
RTVSPost2010Prop33
280
     0
102
RTVSPost2010PropOp33
 70
     1
102
RTVSPost2010Prop34
280
     0
102
RTVSPost2010PropOp34
 70
     1
102
RTVSPost2010Prop35
280
     0
102
RTVSPost2010PropOp35
 70
     1
102
RTVSPost2010Prop36
280
     0
102
RTVSPost2010PropOp36
 70
     1
102
RTVSPost2010Prop37
 90
       50
102
RTVSPost2010PropOp37
 70
     1
102
RTVSPost2010Prop38
140
0.0
102
RTVSPost2010PropOp38
 70
     1
102
RTVSPost2010Prop39
140
1.0
102
RTVSPost2010PropOp39
 70
     1
102
RTVSPost2010Prop40
 90
        0
102
RTVSPost2010PropOp40
 70
     1
102
RTVSPost2010Prop41ColorIndex
 90
       18
102
RTVSPost2010Prop41ColorRGB
 90
        0
102
RTVSPost2010PropOp41
 70
     1
102
RTVSPost2010Prop42
 90
       50
102
RTVSPost2010PropOp42
 70
     1
102
RTVSPost2010Prop43
 90
        3
102
RTVSPost2010PropOp43
 70
     1
102
RTVSPost2010Prop44ColorIndex
 90
        5
102
RTVSPost2010Prop44ColorRGB
 90
      255
102
RTVSPost2010PropOp44
 70
     1
102
RTVSPost2010Prop45
280
     0
102
RTVSPost2010PropOp45
 70
     1
102
RTVSPost2010Prop46
 90
       50
102
RTVSPost2010PropOp46
 70
     1
102
RTVSPost2010Prop47
 90
       50
102
RTVSPost2010PropOp47
 70
     1
102
RTVSPost2010Prop48
 90
       50
102
RTVSPost2010PropOp48
 70
     1
102
RTVSPost2010Prop49
280
     0
102
RTVSPost2010PropOp49
 70
     1
102
RTVSPost2010Prop50
 90
       50
102
RTVSPost2010PropOp50
 70
     1
102
RTVSPost2010Prop51ColorIndex
 90
      256
102
RTVSPost2010Prop51ColorRGB
 90
-16777216
102
RTVSPost2010PropOp51
 70
     0
102
RTVSPost2010Prop52
140
1.0
102
RTVSPost2010PropOp52
 70
     0
102
RTVSPost2010Prop53
 90
        2
102
RTVSPost2010PropOp53
 70
     1
102
RTVSPost2010Prop54
  1
strokes_ogs.tif
102
RTVSPost2010PropOp54
 70
     1
102
RTVSPost2010Prop55
280
     0
102
RTVSPost2010PropOp55
 70
     1
102
RTVSPost2010Prop56
140
1.0
102
RTVSPost2010PropOp56
 70
     1
102
RTVSPost2010Prop57
140
1.0
102
RTVSPost2010PropOp57
 70
     1
  0
XRECORD
  5
241
102
{ACAD_REACTORS
330
240
102
}
330
240
100
AcDbXrecord
280
     1
102
RTVSPropertyOp0
 70
     1
102
RTVSPropertyOp1
 70
     1
102
RTVSPropertyOp2
 70
     1
102
RTVSPropertyOp3
 70
     1
102
RTVSPropertyOp4
 70
     1
102
RTVSPropertyOp5
 70
     1
102
RTVSPropertyOp6
 70
     1
102
RTVSPropertyOp7
 70
     1
102
RTVSPropertyOp8
 70
     1
102
RTVSPropertyOp9
 70
     1
102
RTVSPropertyOp10
 70
     1
102
RTVSPropertyOp11
 70
     1
102
RTVSPropertyOp12
 70
     1
102
RTVSPropertyOp13
 70
     1
102
RTVSPropertyOp14
 70
     1
102
RTVSPropertyOp15
 70
     1
102
RTVSPropertyOp16
 70
     1
102
RTVSPropertyOp17
 70
     1
102
RTVSPropertyOp18
 70
     1
102
RTVSPropertyOp19
 70
     1
102
RTVSPropertyOp20
 70
     1
102
RTVSPropertyOp21
 70
     1
102
RTVSPropertyOp22
 70
     1
102
RTVSPropertyOp23
 70
     1
102
RTVSPropertyOp24
 70
     1
102
RTVSPropertyOp25
 70
     1
102
RTVSPropertyOp26
 70
     1
102
RTVSPropertyOp27
 70
     1
102
RTVSPropertyOp28
 70
     1
102
RTVSPropertyOp29
 70
     1
102
RTVSPropertyOp30
 70
     1
102
RTVSPropertyOp31
 70
     1
102
RTVSPropertyOp32
 70
     1
102
RTVSPropertyOp33
 70
     1
102
RTVSPropertyOp34
 70
     1
102
RTVSPropertyOp35
 70
     1
102
RTVSPropertyOp36
 70
     1
102
RTVSPropertyOp37
 70
     1
102
RTVSPropertyOp38
 70
     1
102
RTVSPropertyOp39
 70
     1
102
RTVSPropertyOp40
 70
     1
102
RTVSPropertyOp41
 70
     1
102
RTVSPropertyOp42
 70
     1
102
RTVSPropertyOp43
 70
     1
102
RTVSPropertyOp44
 70
     1
102
RTVSPropertyOp45
 70
     1
102
RTVSPropertyOp46
 70
     1
102
RTVSPropertyOp47
 70
     1
102
RTVSPropertyOp48
 70
     1
102
RTVSPropertyOp49
 70
     1
102
RTVSPropertyOp50
 70
     1
102
RTVSPropertyOp51
 70
     0
102
RTVSPropertyOp52
 70
     0
102
RTVSPropertyOp53
 70
     1
102
RTVSPropertyOp54
 70
     1
102
RTVSPropertyOp55
 70
     1
102
RTVSPropertyOp56
 70
     1
102
RTVSPropertyOp57
 70
     1
102
RTVSPost2010Prop28
280
     0
102
RTVSPost2010PropOp28
 70
     1
102
RTVSPost2010Prop29
280
     1
102
RTVSPost2010PropOp29
 70
     1
102
RTVSPost2010Prop30
280
     1
102
RTVSPost2010PropOp30
 70
     1
102
RTVSPost2010Prop31
280
     0
102
RTVSPost2010PropOp31
 70
     1
102
RTVSPost2010Prop32
280
     0
102
RTVSPost2010PropOp32
 70
     1
102
RTVSPost2010Prop33
280
     0
102
RTVSPost2010PropOp33
 70
     1
102
RTVSPost2010Prop34
280
     0
102
RTVSPost2010PropOp34
 70
     1
102
RTVSPost2010Prop35
280
     0
102
RTVSPost2010PropOp35
 70
     1
102
RTVSPost2010Prop36
280
     0
102
RTVSPost2010PropOp36
 70
     1
102
RTVSPost2010Prop37
 90
       50
102
RTVSPost2010PropOp37
 70
     1
102
RTVSPost2010Prop38
140
0.0
102
RTVSPost2010PropOp38
 70
     1
102
RTVSPost2010Prop39
140
1.0
102
RTVSPost2010PropOp39
 70
     1
102
RTVSPost2010Prop40
 90
        0
102
RTVSPost2010PropOp40
 70
     1
102
RTVSPost2010Prop41ColorIndex
 90
       18
102
RTVSPost2010Prop41ColorRGB
 90
        0
102
RTVSPost2010PropOp41
 70
     1
102
RTVSPost2010Prop42
 90
       50
102
RTVSPost2010PropOp42
 70
     1
102
RTVSPost2010Prop43
 90
        3
102
RTVSPost2010PropOp43
 70
     1
102
RTVSPost2010Prop44ColorIndex
 90
        5
102
RTVSPost2010Prop44ColorRGB
 90
      255
102
RTVSPost2010PropOp44
 70
     1
102
RTVSPost2010Prop45
280
     0
102
RTVSPost2010PropOp45
 70
     1
102
RTVSPost2010Prop46
 90
       50
102
RTVSPost2010PropOp46
 70
     1
102
RTVSPost2010Prop47
 90
       50
102
RTVSPost2010PropOp47
 70
     1
102
RTVSPost2010Prop48
 90
       50
102
RTVSPost2010PropOp48
 70
     1
102
RTVSPost2010Prop49
280
     0
102
RTVSPost2010PropOp49
 70
     1
102
RTVSPost2010Prop50
 90
       50
102
RTVSPost2010PropOp50
 70
     1
102
RTVSPost2010Prop51ColorIndex
 90
      256
102
RTVSPost2010Prop51ColorRGB
 90
-16777216
102
RTVSPost2010PropOp51
 70
     0
102
RTVSPost2010Prop52
140
1.0
102
RTVSPost2010PropOp52
 70
     0
102
RTVSPost2010Prop53
 90
        2
102
RTVSPost2010PropOp53
 70
     1
102
RTVSPost2010Prop54
  1
strokes_ogs.tif
102
RTVSPost2010PropOp54
 70
     1
102
RTVSPost2010Prop55
280
     0
102
RTVSPost2010PropOp55
 70
     1
102
RTVSPost2010Prop56
140
1.0
102
RTVSPost2010PropOp56
 70
     1
102
RTVSPost2010Prop57
140
1.0
102
RTVSPost2010PropOp57
 70
     1
  0
XRECORD
  5
251
102
{ACAD_REACTORS
330
250
102
}
330
250
100
AcDbXrecord
280
     1
102
RTVSPropertyOp0
 70
     0
102
RTVSPropertyOp1
 70
     0
102
RTVSPropertyOp2
 70
     0
102
RTVSPropertyOp3
 70
     0
102
RTVSPropertyOp4
 70
     0
102
RTVSPropertyOp5
 70
     0
102
RTVSPropertyOp6
 70
     0
102
RTVSPropertyOp7
 70
     0
102
RTVSPropertyOp8
 70
     0
102
RTVSPropertyOp9
 70
     0
102
RTVSPropertyOp10
 70
     0
102
RTVSPropertyOp11
 70
     0
102
RTVSPropertyOp12
 70
     0
102
RTVSPropertyOp13
 70
     0
102
RTVSPropertyOp14
 70
     2
102
RTVSPropertyOp15
 70
     0
102
RTVSPropertyOp16
 70
     0
102
RTVSPropertyOp17
 70
     0
102
RTVSPropertyOp18
 70
     0
102
RTVSPropertyOp19
 70
     0
102
RTVSPropertyOp20
 70
     0
102
RTVSPropertyOp21
 70
     0
102
RTVSPropertyOp22
 70
     0
102
RTVSPropertyOp23
 70
     0
102
RTVSPropertyOp24
 70
     0
102
RTVSPropertyOp25
 70
     0
102
RTVSPropertyOp26
 70
     0
102
RTVSPropertyOp27
 70
     0
102
RTVSPropertyOp28
 70
     0
102
RTVSPropertyOp29
 70
     0
102
RTVSPropertyOp30
 70
     0
102
RTVSPropertyOp31
 70
     0
102
RTVSPropertyOp32
 70
     0
102
RTVSPropertyOp33
 70
     0
102
RTVSPropertyOp34
 70
     0
102
RTVSPropertyOp35
 70
     0
102
RTVSPropertyOp36
 70
     0
102
RTVSPropertyOp37
 70
     0
102
RTVSPropertyOp38
 70
     0
102
RTVSPropertyOp39
 70
     0
102
RTVSPropertyOp40
 70
     0
102
RTVSPropertyOp41
 70
     0
102
RTVSPropertyOp42
 70
     0
102
RTVSPropertyOp43
 70
     0
102
RTVSPropertyOp44
 70
     0
102
RTVSPropertyOp45
 70
     0
102
RTVSPropertyOp46
 70
     0
102
RTVSPropertyOp47
 70
     0
102
RTVSPropertyOp48
 70
     0
102
RTVSPropertyOp49
 70
     0
102
RTVSPropertyOp50
 70
     0
102
RTVSPropertyOp51
 70
     0
102
RTVSPropertyOp52
 70
     0
102
RTVSPropertyOp53
 70
     0
102
RTVSPropertyOp54
 70
     0
102
RTVSPropertyOp55
 70
     0
102
RTVSPropertyOp56
 70
     0
102
RTVSPropertyOp57
 70
     0
102
RTVSPost2010Prop28
280
     0
102
RTVSPost2010PropOp28
 70
     0
102
RTVSPost2010Prop29
280
     1
102
RTVSPost2010PropOp29
 70
     0
102
RTVSPost2010Prop30
280
     1
102
RTVSPost2010PropOp30
 70
     0
102
RTVSPost2010Prop31
280
     0
102
RTVSPost2010PropOp31
 70
     0
102
RTVSPost2010Prop32
280
     0
102
RTVSPost2010PropOp32
 70
     0
102
RTVSPost2010Prop33
280
     0
102
RTVSPost2010PropOp33
 70
     0
102
RTVSPost2010Prop34
280
     0
102
RTVSPost2010PropOp34
 70
     0
102
RTVSPost2010Prop35
280
     0
102
RTVSPost2010PropOp35
 70
     0
102
RTVSPost2010Prop36
280
     0
102
RTVSPost2010PropOp36
 70
     0
102
RTVSPost2010Prop37
 90
       50
102
RTVSPost2010PropOp37
 70
     0
102
RTVSPost2010Prop38
140
0.0
102
RTVSPost2010PropOp38
 70
     0
102
RTVSPost2010Prop39
140
1.0
102
RTVSPost2010PropOp39
 70
     0
102
RTVSPost2010Prop40
 90
        0
102
RTVSPost2010PropOp40
 70
     0
102
RTVSPost2010Prop41ColorIndex
 90
       18
102
RTVSPost2010Prop41ColorRGB
 90
        0
102
RTVSPost2010PropOp41
 70
     0
102
RTVSPost2010Prop42
 90
       50
102
RTVSPost2010PropOp42
 70
     0
102
RTVSPost2010Prop43
 90
        3
102
RTVSPost2010PropOp43
 70
     0
102
RTVSPost2010Prop44ColorIndex
 90
        5
102
RTVSPost2010Prop44ColorRGB
 90
      255
102
RTVSPost2010PropOp44
 70
     0
102
RTVSPost2010Prop45
280
     0
102
RTVSPost2010PropOp45
 70
     0
102
RTVSPost2010Prop46
 90
       50
102
RTVSPost2010PropOp46
 70
     0
102
RTVSPost2010Prop47
 90
       50
102
RTVSPost2010PropOp47
 70
     0
102
RTVSPost2010Prop48
 90
       50
102
RTVSPost2010PropOp48
 70
     0
102
RTVSPost2010Prop49
280
     0
102
RTVSPost2010PropOp49
 70
     0
102
RTVSPost2010Prop50
 90
       50
102
RTVSPost2010PropOp50
 70
     0
102
RTVSPost2010Prop51ColorIndex
 90
      256
102
RTVSPost2010Prop51ColorRGB
 90
-16777216
102
RTVSPost2010PropOp51
 70
     0
102
RTVSPost2010Prop52
140
1.0
102
RTVSPost2010PropOp52
 70
     0
102
RTVSPost2010Prop53
 90
        2
102
RTVSPost2010PropOp53
 70
     0
102
RTVSPost2010Prop54
  1
strokes_ogs.tif
102
RTVSPost2010PropOp54
 70
     0
102
RTVSPost2010Prop55
280
     0
102
RTVSPost2010PropOp55
 70
     0
102
RTVSPost2010Prop56
140
1.0
102
RTVSPost2010PropOp56
 70
     0
102
RTVSPost2010Prop57
140
1.0
102
RTVSPost2010PropOp57
 70
     0
  0
XRECORD
  5
249
102
{ACAD_REACTORS
330
248
102
}
330
248
100
AcDbXrecord
280
     1
102
RTVSPropertyOp0
 70
     1
102
RTVSPropertyOp1
 70
     1
102
RTVSPropertyOp2
 70
     1
102
RTVSPropertyOp3
 70
     1
102
RTVSPropertyOp4
 70
     1
102
RTVSPropertyOp5
 70
     1
102
RTVSPropertyOp6
 70
     1
102
RTVSPropertyOp7
 70
     1
102
RTVSPropertyOp8
 70
     1
102
RTVSPropertyOp9
 70
     1
102
RTVSPropertyOp10
 70
     1
102
RTVSPropertyOp11
 70
     1
102
RTVSPropertyOp12
 70
     1
102
RTVSPropertyOp13
 70
     1
102
RTVSPropertyOp14
 70
     1
102
RTVSPropertyOp15
 70
     1
102
RTVSPropertyOp16
 70
     1
102
RTVSPropertyOp17
 70
     1
102
RTVSPropertyOp18
 70
     1
102
RTVSPropertyOp19
 70
     1
102
RTVSPropertyOp20
 70
     1
102
RTVSPropertyOp21
 70
     1
102
RTVSPropertyOp22
 70
     1
102
RTVSPropertyOp23
 70
     1
102
RTVSPropertyOp24
 70
     1
102
RTVSPropertyOp25
 70
     1
102
RTVSPropertyOp26
 70
     1
102
RTVSPropertyOp27
 70
     1
102
RTVSPropertyOp28
 70
     1
102
RTVSPropertyOp29
 70
     1
102
RTVSPropertyOp30
 70
     1
102
RTVSPropertyOp31
 70
     1
102
RTVSPropertyOp32
 70
     1
102
RTVSPropertyOp33
 70
     1
102
RTVSPropertyOp34
 70
     1
102
RTVSPropertyOp35
 70
     1
102
RTVSPropertyOp36
 70
     1
102
RTVSPropertyOp37
 70
     1
102
RTVSPropertyOp38
 70
     1
102
RTVSPropertyOp39
 70
     1
102
RTVSPropertyOp40
 70
     1
102
RTVSPropertyOp41
 70
     1
102
RTVSPropertyOp42
 70
     1
102
RTVSPropertyOp43
 70
     1
102
RTVSPropertyOp44
 70
     1
102
RTVSPropertyOp45
 70
     1
102
RTVSPropertyOp46
 70
     1
102
RTVSPropertyOp47
 70
     1
102
RTVSPropertyOp48
 70
     1
102
RTVSPropertyOp49
 70
     1
102
RTVSPropertyOp50
 70
     1
102
RTVSPropertyOp51
 70
     0
102
RTVSPropertyOp52
 70
     0
102
RTVSPropertyOp53
 70
     1
102
RTVSPropertyOp54
 70
     1
102
RTVSPropertyOp55
 70
     1
102
RTVSPropertyOp56
 70
     1
102
RTVSPropertyOp57
 70
     1
102
RTVSPost2010Prop28
280
     0
102
RTVSPost2010PropOp28
 70
     1
102
RTVSPost2010Prop29
280
     1
102
RTVSPost2010PropOp29
 70
     1
102
RTVSPost2010Prop30
280
     1
102
RTVSPost2010PropOp30
 70
     1
102
RTVSPost2010Prop31
280
     0
102
RTVSPost2010PropOp31
 70
     1
102
RTVSPost2010Prop32
280
     0
102
RTVSPost2010PropOp32
 70
     1
102
RTVSPost2010Prop33
280
     0
102
RTVSPost2010PropOp33
 70
     1
102
RTVSPost2010Prop34
280
     0
102
RTVSPost2010PropOp34
 70
     1
102
RTVSPost2010Prop35
280
     0
102
RTVSPost2010PropOp35
 70
     1
102
RTVSPost2010Prop36
280
     0
102
RTVSPost2010PropOp36
 70
     1
102
RTVSPost2010Prop37
 90
       50
102
RTVSPost2010PropOp37
 70
     1
102
RTVSPost2010Prop38
140
0.0
102
RTVSPost2010PropOp38
 70
     1
102
RTVSPost2010Prop39
140
1.0
102
RTVSPost2010PropOp39
 70
     1
102
RTVSPost2010Prop40
 90
        0
102
RTVSPost2010PropOp40
 70
     1
102
RTVSPost2010Prop41ColorIndex
 90
       18
102
RTVSPost2010Prop41ColorRGB
 90
        0
102
RTVSPost2010PropOp41
 70
     1
102
RTVSPost2010Prop42
 90
       50
102
RTVSPost2010PropOp42
 70
     1
102
RTVSPost2010Prop43
 90
        3
102
RTVSPost2010PropOp43
 70
     1
102
RTVSPost2010Prop44ColorIndex
 90
        5
102
RTVSPost2010Prop44ColorRGB
 90
      255
102
RTVSPost2010PropOp44
 70
     1
102
RTVSPost2010Prop45
280
     0
102
RTVSPost2010PropOp45
 70
     1
102
RTVSPost2010Prop46
 90
       50
102
RTVSPost2010PropOp46
 70
     1
102
RTVSPost2010Prop47
 90
       50
102
RTVSPost2010PropOp47
 70
     1
102
RTVSPost2010Prop48
 90
       50
102
RTVSPost2010PropOp48
 70
     1
102
RTVSPost2010Prop49
280
     0
102
RTVSPost2010PropOp49
 70
     1
102
RTVSPost2010Prop50
 90
       50
102
RTVSPost2010PropOp50
 70
     1
102
RTVSPost2010Prop51ColorIndex
 90
      256
102
RTVSPost2010Prop51ColorRGB
 90
-16777216
102
RTVSPost2010PropOp51
 70
     0
102
RTVSPost2010Prop52
140
1.0
102
RTVSPost2010PropOp52
 70
     0
102
RTVSPost2010Prop53
 90
        2
102
RTVSPost2010PropOp53
 70
     1
102
RTVSPost2010Prop54
  1
strokes_ogs.tif
102
RTVSPost2010PropOp54
 70
     1
102
RTVSPost2010Prop55
280
     0
102
RTVSPost2010PropOp55
 70
     1
102
RTVSPost2010Prop56
140
1.0
102
RTVSPost2010PropOp56
 70
     1
102
RTVSPost2010Prop57
140
1.0
102
RTVSPost2010PropOp57
 70
     1
  0
XRECORD
  5
22D
102
{ACAD_REACTORS
330
22C
102
}
330
22C
100
AcDbXrecord
280
     1
102
RTVSPropertyOp0
 70
     1
102
RTVSPropertyOp1
 70
     1
102
RTVSPropertyOp2
 70
     1
102
RTVSPropertyOp3
 70
     1
102
RTVSPropertyOp4
 70
     1
102
RTVSPropertyOp5
 70
     1
102
RTVSPropertyOp6
 70
     1
102
RTVSPropertyOp7
 70
     1
102
RTVSPropertyOp8
 70
     1
102
RTVSPropertyOp9
 70
     1
102
RTVSPropertyOp10
 70
     1
102
RTVSPropertyOp11
 70
     1
102
RTVSPropertyOp12
 70
     1
102
RTVSPropertyOp13
 70
     1
102
RTVSPropertyOp14
 70
     1
102
RTVSPropertyOp15
 70
     1
102
RTVSPropertyOp16
 70
     1
102
RTVSPropertyOp17
 70
     1
102
RTVSPropertyOp18
 70
     1
102
RTVSPropertyOp19
 70
     1
102
RTVSPropertyOp20
 70
     1
102
RTVSPropertyOp21
 70
     1
102
RTVSPropertyOp22
 70
     1
102
RTVSPropertyOp23
 70
     1
102
RTVSPropertyOp24
 70
     1
102
RTVSPropertyOp25
 70
     1
102
RTVSPropertyOp26
 70
     1
102
RTVSPropertyOp27
 70
     1
102
RTVSPropertyOp28
 70
     1
102
RTVSPropertyOp29
 70
     1
102
RTVSPropertyOp30
 70
     1
102
RTVSPropertyOp31
 70
     1
102
RTVSPropertyOp32
 70
     1
102
RTVSPropertyOp33
 70
     1
102
RTVSPropertyOp34
 70
     1
102
RTVSPropertyOp35
 70
     1
102
RTVSPropertyOp36
 70
     1
102
RTVSPropertyOp37
 70
     1
102
RTVSPropertyOp38
 70
     1
102
RTVSPropertyOp39
 70
     1
102
RTVSPropertyOp40
 70
     1
102
RTVSPropertyOp41
 70
     1
102
RTVSPropertyOp42
 70
     1
102
RTVSPropertyOp43
 70
     1
102
RTVSPropertyOp44
 70
     1
102
RTVSPropertyOp45
 70
     1
102
RTVSPropertyOp46
 70
     1
102
RTVSPropertyOp47
 70
     1
102
RTVSPropertyOp48
 70
     1
102
RTVSPropertyOp49
 70
     1
102
RTVSPropertyOp50
 70
     1
102
RTVSPropertyOp51
 70
     0
102
RTVSPropertyOp52
 70
     0
102
RTVSPropertyOp53
 70
     1
102
RTVSPropertyOp54
 70
     1
102
RTVSPropertyOp55
 70
     1
102
RTVSPropertyOp56
 70
     1
102
RTVSPropertyOp57
 70
     1
102
RTVSPost2010Prop28
280
     0
102
RTVSPost2010PropOp28
 70
     1
102
RTVSPost2010Prop29
280
     1
102
RTVSPost2010PropOp29
 70
     1
102
RTVSPost2010Prop30
280
     1
102
RTVSPost2010PropOp30
 70
     1
102
RTVSPost2010Prop31
280
     0
102
RTVSPost2010PropOp31
 70
     1
102
RTVSPost2010Prop32
280
     0
102
RTVSPost2010PropOp32
 70
     1
102
RTVSPost2010Prop33
280
     0
102
RTVSPost2010PropOp33
 70
     1
102
RTVSPost2010Prop34
280
     0
102
RTVSPost2010PropOp34
 70
     1
102
RTVSPost2010Prop35
280
     0
102
RTVSPost2010PropOp35
 70
     1
102
RTVSPost2010Prop36
280
     0
102
RTVSPost2010PropOp36
 70
     1
102
RTVSPost2010Prop37
 90
       50
102
RTVSPost2010PropOp37
 70
     1
102
RTVSPost2010Prop38
140
0.0
102
RTVSPost2010PropOp38
 70
     1
102
RTVSPost2010Prop39
140
1.0
102
RTVSPost2010PropOp39
 70
     1
102
RTVSPost2010Prop40
 90
        0
102
RTVSPost2010PropOp40
 70
     1
102
RTVSPost2010Prop41ColorIndex
 90
       18
102
RTVSPost2010Prop41ColorRGB
 90
        0
102
RTVSPost2010PropOp41
 70
     1
102
RTVSPost2010Prop42
 90
       50
102
RTVSPost2010PropOp42
 70
     1
102
RTVSPost2010Prop43
 90
        3
102
RTVSPost2010PropOp43
 70
     1
102
RTVSPost2010Prop44ColorIndex
 90
        5
102
RTVSPost2010Prop44ColorRGB
 90
      255
102
RTVSPost2010PropOp44
 70
     1
102
RTVSPost2010Prop45
280
     0
102
RTVSPost2010PropOp45
 70
     1
102
RTVSPost2010Prop46
 90
       50
102
RTVSPost2010PropOp46
 70
     1
102
RTVSPost2010Prop47
 90
       50
102
RTVSPost2010PropOp47
 70
     1
102
RTVSPost2010Prop48
 90
       50
102
RTVSPost2010PropOp48
 70
     1
102
RTVSPost2010Prop49
280
     0
102
RTVSPost2010PropOp49
 70
     1
102
RTVSPost2010Prop50
 90
       50
102
RTVSPost2010PropOp50
 70
     1
102
RTVSPost2010Prop51ColorIndex
 90
      256
102
RTVSPost2010Prop51ColorRGB
 90
-16777216
102
RTVSPost2010PropOp51
 70
     0
102
RTVSPost2010Prop52
140
1.0
102
RTVSPost2010PropOp52
 70
     0
102
RTVSPost2010Prop53
 90
        2
102
RTVSPost2010PropOp53
 70
     1
102
RTVSPost2010Prop54
  1
strokes_ogs.tif
102
RTVSPost2010PropOp54
 70
     1
102
RTVSPost2010Prop55
280
     0
102
RTVSPost2010PropOp55
 70
     1
102
RTVSPost2010Prop56
140
1.0
102
RTVSPost2010PropOp56
 70
     1
102
RTVSPost2010Prop57
140
1.0
102
RTVSPost2010PropOp57
 70
     1
  0
XRECORD
  5
22F
102
{ACAD_REACTORS
330
22E
102
}
330
22E
100
AcDbXrecord
280
     1
102
RTVSPropertyOp0
 70
     1
102
RTVSPropertyOp1
 70
     1
102
RTVSPropertyOp2
 70
     1
102
RTVSPropertyOp3
 70
     1
102
RTVSPropertyOp4
 70
     1
102
RTVSPropertyOp5
 70
     1
102
RTVSPropertyOp6
 70
     1
102
RTVSPropertyOp7
 70
     1
102
RTVSPropertyOp8
 70
     1
102
RTVSPropertyOp9
 70
     1
102
RTVSPropertyOp10
 70
     1
102
RTVSPropertyOp11
 70
     1
102
RTVSPropertyOp12
 70
     1
102
RTVSPropertyOp13
 70
     1
102
RTVSPropertyOp14
 70
     1
102
RTVSPropertyOp15
 70
     1
102
RTVSPropertyOp16
 70
     1
102
RTVSPropertyOp17
 70
     1
102
RTVSPropertyOp18
 70
     1
102
RTVSPropertyOp19
 70
     1
102
RTVSPropertyOp20
 70
     1
102
RTVSPropertyOp21
 70
     1
102
RTVSPropertyOp22
 70
     1
102
RTVSPropertyOp23
 70
     1
102
RTVSPropertyOp24
 70
     1
102
RTVSPropertyOp25
 70
     1
102
RTVSPropertyOp26
 70
     1
102
RTVSPropertyOp27
 70
     1
102
RTVSPropertyOp28
 70
     1
102
RTVSPropertyOp29
 70
     1
102
RTVSPropertyOp30
 70
     1
102
RTVSPropertyOp31
 70
     1
102
RTVSPropertyOp32
 70
     1
102
RTVSPropertyOp33
 70
     1
102
RTVSPropertyOp34
 70
     1
102
RTVSPropertyOp35
 70
     1
102
RTVSPropertyOp36
 70
     1
102
RTVSPropertyOp37
 70
     1
102
RTVSPropertyOp38
 70
     1
102
RTVSPropertyOp39
 70
     1
102
RTVSPropertyOp40
 70
     1
102
RTVSPropertyOp41
 70
     1
102
RTVSPropertyOp42
 70
     1
102
RTVSPropertyOp43
 70
     1
102
RTVSPropertyOp44
 70
     1
102
RTVSPropertyOp45
 70
     1
102
RTVSPropertyOp46
 70
     1
102
RTVSPropertyOp47
 70
     1
102
RTVSPropertyOp48
 70
     1
102
RTVSPropertyOp49
 70
     1
102
RTVSPropertyOp50
 70
     1
102
RTVSPropertyOp51
 70
     0
102
RTVSPropertyOp52
 70
     0
102
RTVSPropertyOp53
 70
     1
102
RTVSPropertyOp54
 70
     1
102
RTVSPropertyOp55
 70
     1
102
RTVSPropertyOp56
 70
     1
102
RTVSPropertyOp57
 70
     1
102
RTVSPost2010Prop28
280
     0
102
RTVSPost2010PropOp28
 70
     1
102
RTVSPost2010Prop29
280
     1
102
RTVSPost2010PropOp29
 70
     1
102
RTVSPost2010Prop30
280
     1
102
RTVSPost2010PropOp30
 70
     1
102
RTVSPost2010Prop31
280
     0
102
RTVSPost2010PropOp31
 70
     1
102
RTVSPost2010Prop32
280
     0
102
RTVSPost2010PropOp32
 70
     1
102
RTVSPost2010Prop33
280
     0
102
RTVSPost2010PropOp33
 70
     1
102
RTVSPost2010Prop34
280
     0
102
RTVSPost2010PropOp34
 70
     1
102
RTVSPost2010Prop35
280
     0
102
RTVSPost2010PropOp35
 70
     1
102
RTVSPost2010Prop36
280
     0
102
RTVSPost2010PropOp36
 70
     1
102
RTVSPost2010Prop37
 90
       50
102
RTVSPost2010PropOp37
 70
     1
102
RTVSPost2010Prop38
140
0.0
102
RTVSPost2010PropOp38
 70
     1
102
RTVSPost2010Prop39
140
1.0
102
RTVSPost2010PropOp39
 70
     1
102
RTVSPost2010Prop40
 90
        0
102
RTVSPost2010PropOp40
 70
     1
102
RTVSPost2010Prop41ColorIndex
 90
       18
102
RTVSPost2010Prop41ColorRGB
 90
        0
102
RTVSPost2010PropOp41
 70
     1
102
RTVSPost2010Prop42
 90
       50
102
RTVSPost2010PropOp42
 70
     1
102
RTVSPost2010Prop43
 90
        3
102
RTVSPost2010PropOp43
 70
     1
102
RTVSPost2010Prop44ColorIndex
 90
        5
102
RTVSPost2010Prop44ColorRGB
 90
      255
102
RTVSPost2010PropOp44
 70
     1
102
RTVSPost2010Prop45
280
     0
102
RTVSPost2010PropOp45
 70
     1
102
RTVSPost2010Prop46
 90
       50
102
RTVSPost2010PropOp46
 70
     1
102
RTVSPost2010Prop47
 90
       50
102
RTVSPost2010PropOp47
 70
     1
102
RTVSPost2010Prop48
 90
       50
102
RTVSPost2010PropOp48
 70
     1
102
RTVSPost2010Prop49
280
     0
102
RTVSPost2010PropOp49
 70
     1
102
RTVSPost2010Prop50
 90
       50
102
RTVSPost2010PropOp50
 70
     1
102
RTVSPost2010Prop51ColorIndex
 90
      256
102
RTVSPost2010Prop51ColorRGB
 90
-16777216
102
RTVSPost2010PropOp51
 70
     0
102
RTVSPost2010Prop52
140
1.0
102
RTVSPost2010PropOp52
 70
     0
102
RTVSPost2010Prop53
 90
        2
102
RTVSPost2010PropOp53
 70
     1
102
RTVSPost2010Prop54
  1
strokes_ogs.tif
102
RTVSPost2010PropOp54
 70
     1
102
RTVSPost2010Prop55
280
     0
102
RTVSPost2010PropOp55
 70
     1
102
RTVSPost2010Prop56
140
1.0
102
RTVSPost2010PropOp56
 70
     1
102
RTVSPost2010Prop57
140
1.0
102
RTVSPost2010PropOp57
 70
     1
  0
XRECORD
  5
231
102
{ACAD_REACTORS
330
230
102
}
330
230
100
AcDbXrecord
280
     1
102
RTVSPropertyOp0
 70
     1
102
RTVSPropertyOp1
 70
     1
102
RTVSPropertyOp2
 70
     1
102
RTVSPropertyOp3
 70
     1
102
RTVSPropertyOp4
 70
     1
102
RTVSPropertyOp5
 70
     1
102
RTVSPropertyOp6
 70
     1
102
RTVSPropertyOp7
 70
     1
102
RTVSPropertyOp8
 70
     1
102
RTVSPropertyOp9
 70
     1
102
RTVSPropertyOp10
 70
     1
102
RTVSPropertyOp11
 70
     1
102
RTVSPropertyOp12
 70
     1
102
RTVSPropertyOp13
 70
     1
102
RTVSPropertyOp14
 70
     1
102
RTVSPropertyOp15
 70
     1
102
RTVSPropertyOp16
 70
     1
102
RTVSPropertyOp17
 70
     1
102
RTVSPropertyOp18
 70
     1
102
RTVSPropertyOp19
 70
     1
102
RTVSPropertyOp20
 70
     1
102
RTVSPropertyOp21
 70
     1
102
RTVSPropertyOp22
 70
     1
102
RTVSPropertyOp23
 70
     1
102
RTVSPropertyOp24
 70
     1
102
RTVSPropertyOp25
 70
     1
102
RTVSPropertyOp26
 70
     1
102
RTVSPropertyOp27
 70
     1
102
RTVSPropertyOp28
 70
     1
102
RTVSPropertyOp29
 70
     1
102
RTVSPropertyOp30
 70
     1
102
RTVSPropertyOp31
 70
     1
102
RTVSPropertyOp32
 70
     1
102
RTVSPropertyOp33
 70
     1
102
RTVSPropertyOp34
 70
     1
102
RTVSPropertyOp35
 70
     1
102
RTVSPropertyOp36
 70
     1
102
RTVSPropertyOp37
 70
     1
102
RTVSPropertyOp38
 70
     1
102
RTVSPropertyOp39
 70
     1
102
RTVSPropertyOp40
 70
     1
102
RTVSPropertyOp41
 70
     1
102
RTVSPropertyOp42
 70
     1
102
RTVSPropertyOp43
 70
     1
102
RTVSPropertyOp44
 70
     1
102
RTVSPropertyOp45
 70
     1
102
RTVSPropertyOp46
 70
     1
102
RTVSPropertyOp47
 70
     1
102
RTVSPropertyOp48
 70
     1
102
RTVSPropertyOp49
 70
     1
102
RTVSPropertyOp50
 70
     1
102
RTVSPropertyOp51
 70
     0
102
RTVSPropertyOp52
 70
     0
102
RTVSPropertyOp53
 70
     1
102
RTVSPropertyOp54
 70
     1
102
RTVSPropertyOp55
 70
     1
102
RTVSPropertyOp56
 70
     1
102
RTVSPropertyOp57
 70
     1
102
RTVSPost2010Prop28
280
     0
102
RTVSPost2010PropOp28
 70
     1
102
RTVSPost2010Prop29
280
     1
102
RTVSPost2010PropOp29
 70
     1
102
RTVSPost2010Prop30
280
     1
102
RTVSPost2010PropOp30
 70
     1
102
RTVSPost2010Prop31
280
     0
102
RTVSPost2010PropOp31
 70
     1
102
RTVSPost2010Prop32
280
     0
102
RTVSPost2010PropOp32
 70
     1
102
RTVSPost2010Prop33
280
     0
102
RTVSPost2010PropOp33
 70
     1
102
RTVSPost2010Prop34
280
     0
102
RTVSPost2010PropOp34
 70
     1
102
RTVSPost2010Prop35
280
     0
102
RTVSPost2010PropOp35
 70
     1
102
RTVSPost2010Prop36
280
     0
102
RTVSPost2010PropOp36
 70
     1
102
RTVSPost2010Prop37
 90
       50
102
RTVSPost2010PropOp37
 70
     1
102
RTVSPost2010Prop38
140
0.0
102
RTVSPost2010PropOp38
 70
     1
102
RTVSPost2010Prop39
140
1.0
102
RTVSPost2010PropOp39
 70
     1
102
RTVSPost2010Prop40
 90
        0
102
RTVSPost2010PropOp40
 70
     1
102
RTVSPost2010Prop41ColorIndex
 90
       18
102
RTVSPost2010Prop41ColorRGB
 90
        0
102
RTVSPost2010PropOp41
 70
     1
102
RTVSPost2010Prop42
 90
       50
102
RTVSPost2010PropOp42
 70
     1
102
RTVSPost2010Prop43
 90
        3
102
RTVSPost2010PropOp43
 70
     1
102
RTVSPost2010Prop44ColorIndex
 90
        5
102
RTVSPost2010Prop44ColorRGB
 90
      255
102
RTVSPost2010PropOp44
 70
     1
102
RTVSPost2010Prop45
280
     0
102
RTVSPost2010PropOp45
 70
     1
102
RTVSPost2010Prop46
 90
       50
102
RTVSPost2010PropOp46
 70
     1
102
RTVSPost2010Prop47
 90
       50
102
RTVSPost2010PropOp47
 70
     1
102
RTVSPost2010Prop48
 90
       50
102
RTVSPost2010PropOp48
 70
     1
102
RTVSPost2010Prop49
280
     0
102
RTVSPost2010PropOp49
 70
     1
102
RTVSPost2010Prop50
 90
       50
102
RTVSPost2010PropOp50
 70
     1
102
RTVSPost2010Prop51ColorIndex
 90
      256
102
RTVSPost2010Prop51ColorRGB
 90
-16777216
102
RTVSPost2010PropOp51
 70
     0
102
RTVSPost2010Prop52
140
1.0
102
RTVSPost2010PropOp52
 70
     0
102
RTVSPost2010Prop53
 90
        2
102
RTVSPost2010PropOp53
 70
     1
102
RTVSPost2010Prop54
  1
strokes_ogs.tif
102
RTVSPost2010PropOp54
 70
     1
102
RTVSPost2010Prop55
280
     0
102
RTVSPost2010PropOp55
 70
     1
102
RTVSPost2010Prop56
140
1.0
102
RTVSPost2010PropOp56
 70
     1
102
RTVSPost2010Prop57
140
1.0
102
RTVSPost2010PropOp57
 70
     1
  0
XRECORD
  5
233
102
{ACAD_REACTORS
330
232
102
}
330
232
100
AcDbXrecord
280
     1
102
RTVSPropertyOp0
 70
     1
102
RTVSPropertyOp1
 70
     1
102
RTVSPropertyOp2
 70
     1
102
RTVSPropertyOp3
 70
     1
102
RTVSPropertyOp4
 70
     1
102
RTVSPropertyOp5
 70
     1
102
RTVSPropertyOp6
 70
     1
102
RTVSPropertyOp7
 70
     1
102
RTVSPropertyOp8
 70
     1
102
RTVSPropertyOp9
 70
     1
102
RTVSPropertyOp10
 70
     1
102
RTVSPropertyOp11
 70
     1
102
RTVSPropertyOp12
 70
     1
102
RTVSPropertyOp13
 70
     1
102
RTVSPropertyOp14
 70
     1
102
RTVSPropertyOp15
 70
     1
102
RTVSPropertyOp16
 70
     1
102
RTVSPropertyOp17
 70
     1
102
RTVSPropertyOp18
 70
     1
102
RTVSPropertyOp19
 70
     1
102
RTVSPropertyOp20
 70
     1
102
RTVSPropertyOp21
 70
     1
102
RTVSPropertyOp22
 70
     1
102
RTVSPropertyOp23
 70
     1
102
RTVSPropertyOp24
 70
     1
102
RTVSPropertyOp25
 70
     1
102
RTVSPropertyOp26
 70
     1
102
RTVSPropertyOp27
 70
     1
102
RTVSPropertyOp28
 70
     1
102
RTVSPropertyOp29
 70
     1
102
RTVSPropertyOp30
 70
     1
102
RTVSPropertyOp31
 70
     1
102
RTVSPropertyOp32
 70
     1
102
RTVSPropertyOp33
 70
     1
102
RTVSPropertyOp34
 70
     1
102
RTVSPropertyOp35
 70
     1
102
RTVSPropertyOp36
 70
     1
102
RTVSPropertyOp37
 70
     1
102
RTVSPropertyOp38
 70
     1
102
RTVSPropertyOp39
 70
     1
102
RTVSPropertyOp40
 70
     1
102
RTVSPropertyOp41
 70
     1
102
RTVSPropertyOp42
 70
     1
102
RTVSPropertyOp43
 70
     1
102
RTVSPropertyOp44
 70
     1
102
RTVSPropertyOp45
 70
     1
102
RTVSPropertyOp46
 70
     1
102
RTVSPropertyOp47
 70
     1
102
RTVSPropertyOp48
 70
     1
102
RTVSPropertyOp49
 70
     1
102
RTVSPropertyOp50
 70
     1
102
RTVSPropertyOp51
 70
     0
102
RTVSPropertyOp52
 70
     0
102
RTVSPropertyOp53
 70
     1
102
RTVSPropertyOp54
 70
     1
102
RTVSPropertyOp55
 70
     1
102
RTVSPropertyOp56
 70
     1
102
RTVSPropertyOp57
 70
     1
102
RTVSPost2010Prop28
280
     0
102
RTVSPost2010PropOp28
 70
     1
102
RTVSPost2010Prop29
280
     1
102
RTVSPost2010PropOp29
 70
     1
102
RTVSPost2010Prop30
280
     1
102
RTVSPost2010PropOp30
 70
     1
102
RTVSPost2010Prop31
280
     0
102
RTVSPost2010PropOp31
 70
     1
102
RTVSPost2010Prop32
280
     0
102
RTVSPost2010PropOp32
 70
     1
102
RTVSPost2010Prop33
280
     0
102
RTVSPost2010PropOp33
 70
     1
102
RTVSPost2010Prop34
280
     0
102
RTVSPost2010PropOp34
 70
     1
102
RTVSPost2010Prop35
280
     0
102
RTVSPost2010PropOp35
 70
     1
102
RTVSPost2010Prop36
280
     0
102
RTVSPost2010PropOp36
 70
     1
102
RTVSPost2010Prop37
 90
       50
102
RTVSPost2010PropOp37
 70
     1
102
RTVSPost2010Prop38
140
0.0
102
RTVSPost2010PropOp38
 70
     1
102
RTVSPost2010Prop39
140
1.0
102
RTVSPost2010PropOp39
 70
     1
102
RTVSPost2010Prop40
 90
        0
102
RTVSPost2010PropOp40
 70
     1
102
RTVSPost2010Prop41ColorIndex
 90
       18
102
RTVSPost2010Prop41ColorRGB
 90
        0
102
RTVSPost2010PropOp41
 70
     1
102
RTVSPost2010Prop42
 90
       50
102
RTVSPost2010PropOp42
 70
     1
102
RTVSPost2010Prop43
 90
        3
102
RTVSPost2010PropOp43
 70
     1
102
RTVSPost2010Prop44ColorIndex
 90
        5
102
RTVSPost2010Prop44ColorRGB
 90
      255
102
RTVSPost2010PropOp44
 70
     1
102
RTVSPost2010Prop45
280
     0
102
RTVSPost2010PropOp45
 70
     1
102
RTVSPost2010Prop46
 90
       50
102
RTVSPost2010PropOp46
 70
     1
102
RTVSPost2010Prop47
 90
       50
102
RTVSPost2010PropOp47
 70
     1
102
RTVSPost2010Prop48
 90
       50
102
RTVSPost2010PropOp48
 70
     1
102
RTVSPost2010Prop49
280
     0
102
RTVSPost2010PropOp49
 70
     1
102
RTVSPost2010Prop50
 90
       50
102
RTVSPost2010PropOp50
 70
     1
102
RTVSPost2010Prop51ColorIndex
 90
      256
102
RTVSPost2010Prop51ColorRGB
 90
-16777216
102
RTVSPost2010PropOp51
 70
     0
102
RTVSPost2010Prop52
140
1.0
102
RTVSPost2010PropOp52
 70
     0
102
RTVSPost2010Prop53
 90
        2
102
RTVSPost2010PropOp53
 70
     1
102
RTVSPost2010Prop54
  1
strokes_ogs.tif
102
RTVSPost2010PropOp54
 70
     1
102
RTVSPost2010Prop55
280
     0
102
RTVSPost2010PropOp55
 70
     1
102
RTVSPost2010Prop56
140
1.0
102
RTVSPost2010PropOp56
 70
     1
102
RTVSPost2010Prop57
140
1.0
102
RTVSPost2010PropOp57
 70
     1
  0
XRECORD
  5
239
102
{ACAD_REACTORS
330
238
102
}
330
238
100
AcDbXrecord
280
     1
102
RTVSPropertyOp0
 70
     1
102
RTVSPropertyOp1
 70
     1
102
RTVSPropertyOp2
 70
     1
102
RTVSPropertyOp3
 70
     1
102
RTVSPropertyOp4
 70
     1
102
RTVSPropertyOp5
 70
     1
102
RTVSPropertyOp6
 70
     1
102
RTVSPropertyOp7
 70
     1
102
RTVSPropertyOp8
 70
     1
102
RTVSPropertyOp9
 70
     1
102
RTVSPropertyOp10
 70
     1
102
RTVSPropertyOp11
 70
     1
102
RTVSPropertyOp12
 70
     1
102
RTVSPropertyOp13
 70
     1
102
RTVSPropertyOp14
 70
     1
102
RTVSPropertyOp15
 70
     1
102
RTVSPropertyOp16
 70
     1
102
RTVSPropertyOp17
 70
     1
102
RTVSPropertyOp18
 70
     1
102
RTVSPropertyOp19
 70
     1
102
RTVSPropertyOp20
 70
     1
102
RTVSPropertyOp21
 70
     1
102
RTVSPropertyOp22
 70
     1
102
RTVSPropertyOp23
 70
     1
102
RTVSPropertyOp24
 70
     1
102
RTVSPropertyOp25
 70
     1
102
RTVSPropertyOp26
 70
     1
102
RTVSPropertyOp27
 70
     1
102
RTVSPropertyOp28
 70
     1
102
RTVSPropertyOp29
 70
     1
102
RTVSPropertyOp30
 70
     1
102
RTVSPropertyOp31
 70
     1
102
RTVSPropertyOp32
 70
     1
102
RTVSPropertyOp33
 70
     1
102
RTVSPropertyOp34
 70
     1
102
RTVSPropertyOp35
 70
     1
102
RTVSPropertyOp36
 70
     1
102
RTVSPropertyOp37
 70
     1
102
RTVSPropertyOp38
 70
     1
102
RTVSPropertyOp39
 70
     1
102
RTVSPropertyOp40
 70
     1
102
RTVSPropertyOp41
 70
     1
102
RTVSPropertyOp42
 70
     1
102
RTVSPropertyOp43
 70
     1
102
RTVSPropertyOp44
 70
     1
102
RTVSPropertyOp45
 70
     1
102
RTVSPropertyOp46
 70
     1
102
RTVSPropertyOp47
 70
     1
102
RTVSPropertyOp48
 70
     1
102
RTVSPropertyOp49
 70
     1
102
RTVSPropertyOp50
 70
     1
102
RTVSPropertyOp51
 70
     0
102
RTVSPropertyOp52
 70
     0
102
RTVSPropertyOp53
 70
     1
102
RTVSPropertyOp54
 70
     1
102
RTVSPropertyOp55
 70
     1
102
RTVSPropertyOp56
 70
     1
102
RTVSPropertyOp57
 70
     1
102
RTVSPost2010Prop28
280
     0
102
RTVSPost2010PropOp28
 70
     1
102
RTVSPost2010Prop29
280
     1
102
RTVSPost2010PropOp29
 70
     1
102
RTVSPost2010Prop30
280
     1
102
RTVSPost2010PropOp30
 70
     1
102
RTVSPost2010Prop31
280
     0
102
RTVSPost2010PropOp31
 70
     1
102
RTVSPost2010Prop32
280
     0
102
RTVSPost2010PropOp32
 70
     1
102
RTVSPost2010Prop33
280
     0
102
RTVSPost2010PropOp33
 70
     1
102
RTVSPost2010Prop34
280
     0
102
RTVSPost2010PropOp34
 70
     1
102
RTVSPost2010Prop35
280
     0
102
RTVSPost2010PropOp35
 70
     1
102
RTVSPost2010Prop36
280
     0
102
RTVSPost2010PropOp36
 70
     1
102
RTVSPost2010Prop37
 90
       50
102
RTVSPost2010PropOp37
 70
     1
102
RTVSPost2010Prop38
140
0.0
102
RTVSPost2010PropOp38
 70
     1
102
RTVSPost2010Prop39
140
1.0
102
RTVSPost2010PropOp39
 70
     1
102
RTVSPost2010Prop40
 90
        0
102
RTVSPost2010PropOp40
 70
     1
102
RTVSPost2010Prop41ColorIndex
 90
       18
102
RTVSPost2010Prop41ColorRGB
 90
        0
102
RTVSPost2010PropOp41
 70
     1
102
RTVSPost2010Prop42
 90
       50
102
RTVSPost2010PropOp42
 70
     1
102
RTVSPost2010Prop43
 90
        3
102
RTVSPost2010PropOp43
 70
     1
102
RTVSPost2010Prop44ColorIndex
 90
        5
102
RTVSPost2010Prop44ColorRGB
 90
      255
102
RTVSPost2010PropOp44
 70
     1
102
RTVSPost2010Prop45
280
     0
102
RTVSPost2010PropOp45
 70
     1
102
RTVSPost2010Prop46
 90
       50
102
RTVSPost2010PropOp46
 70
     1
102
RTVSPost2010Prop47
 90
       50
102
RTVSPost2010PropOp47
 70
     1
102
RTVSPost2010Prop48
 90
       50
102
RTVSPost2010PropOp48
 70
     1
102
RTVSPost2010Prop49
280
     0
102
RTVSPost2010PropOp49
 70
     1
102
RTVSPost2010Prop50
 90
       50
102
RTVSPost2010PropOp50
 70
     1
102
RTVSPost2010Prop51ColorIndex
 90
      256
102
RTVSPost2010Prop51ColorRGB
 90
-16777216
102
RTVSPost2010PropOp51
 70
     0
102
RTVSPost2010Prop52
140
1.0
102
RTVSPost2010PropOp52
 70
     0
102
RTVSPost2010Prop53
 90
        2
102
RTVSPost2010PropOp53
 70
     1
102
RTVSPost2010Prop54
  1
strokes_ogs.tif
102
RTVSPost2010PropOp54
 70
     1
102
RTVSPost2010Prop55
280
     0
102
RTVSPost2010PropOp55
 70
     1
102
RTVSPost2010Prop56
140
1.0
102
RTVSPost2010PropOp56
 70
     1
102
RTVSPost2010Prop57
140
1.0
102
RTVSPost2010PropOp57
 70
     1
  0
XRECORD
  5
24D
102
{ACAD_REACTORS
330
24C
102
}
330
24C
100
AcDbXrecord
280
     1
102
RTVSPropertyOp0
 70
     0
102
RTVSPropertyOp1
 70
     0
102
RTVSPropertyOp2
 70
     0
102
RTVSPropertyOp3
 70
     0
102
RTVSPropertyOp4
 70
     0
102
RTVSPropertyOp5
 70
     0
102
RTVSPropertyOp6
 70
     0
102
RTVSPropertyOp7
 70
     0
102
RTVSPropertyOp8
 70
     0
102
RTVSPropertyOp9
 70
     0
102
RTVSPropertyOp10
 70
     0
102
RTVSPropertyOp11
 70
     0
102
RTVSPropertyOp12
 70
     0
102
RTVSPropertyOp13
 70
     0
102
RTVSPropertyOp14
 70
     2
102
RTVSPropertyOp15
 70
     0
102
RTVSPropertyOp16
 70
     0
102
RTVSPropertyOp17
 70
     0
102
RTVSPropertyOp18
 70
     0
102
RTVSPropertyOp19
 70
     0
102
RTVSPropertyOp20
 70
     0
102
RTVSPropertyOp21
 70
     0
102
RTVSPropertyOp22
 70
     0
102
RTVSPropertyOp23
 70
     0
102
RTVSPropertyOp24
 70
     0
102
RTVSPropertyOp25
 70
     0
102
RTVSPropertyOp26
 70
     0
102
RTVSPropertyOp27
 70
     0
102
RTVSPropertyOp28
 70
     0
102
RTVSPropertyOp29
 70
     0
102
RTVSPropertyOp30
 70
     0
102
RTVSPropertyOp31
 70
     0
102
RTVSPropertyOp32
 70
     0
102
RTVSPropertyOp33
 70
     0
102
RTVSPropertyOp34
 70
     0
102
RTVSPropertyOp35
 70
     0
102
RTVSPropertyOp36
 70
     0
102
RTVSPropertyOp37
 70
     0
102
RTVSPropertyOp38
 70
     0
102
RTVSPropertyOp39
 70
     0
102
RTVSPropertyOp40
 70
     0
102
RTVSPropertyOp41
 70
     0
102
RTVSPropertyOp42
 70
     0
102
RTVSPropertyOp43
 70
     0
102
RTVSPropertyOp44
 70
     0
102
RTVSPropertyOp45
 70
     0
102
RTVSPropertyOp46
 70
     0
102
RTVSPropertyOp47
 70
     0
102
RTVSPropertyOp48
 70
     0
102
RTVSPropertyOp49
 70
     0
102
RTVSPropertyOp50
 70
     0
102
RTVSPropertyOp51
 70
     0
102
RTVSPropertyOp52
 70
     0
102
RTVSPropertyOp53
 70
     0
102
RTVSPropertyOp54
 70
     0
102
RTVSPropertyOp55
 70
     0
102
RTVSPropertyOp56
 70
     0
102
RTVSPropertyOp57
 70
     0
102
RTVSPost2010Prop28
280
     0
102
RTVSPost2010PropOp28
 70
     0
102
RTVSPost2010Prop29
280
     1
102
RTVSPost2010PropOp29
 70
     0
102
RTVSPost2010Prop30
280
     1
102
RTVSPost2010PropOp30
 70
     0
102
RTVSPost2010Prop31
280
     0
102
RTVSPost2010PropOp31
 70
     0
102
RTVSPost2010Prop32
280
     0
102
RTVSPost2010PropOp32
 70
     0
102
RTVSPost2010Prop33
280
     0
102
RTVSPost2010PropOp33
 70
     0
102
RTVSPost2010Prop34
280
     0
102
RTVSPost2010PropOp34
 70
     0
102
RTVSPost2010Prop35
280
     0
102
RTVSPost2010PropOp35
 70
     0
102
RTVSPost2010Prop36
280
     0
102
RTVSPost2010PropOp36
 70
     0
102
RTVSPost2010Prop37
 90
       50
102
RTVSPost2010PropOp37
 70
     0
102
RTVSPost2010Prop38
140
0.0
102
RTVSPost2010PropOp38
 70
     0
102
RTVSPost2010Prop39
140
1.0
102
RTVSPost2010PropOp39
 70
     0
102
RTVSPost2010Prop40
 90
        0
102
RTVSPost2010PropOp40
 70
     0
102
RTVSPost2010Prop41ColorIndex
 90
       18
102
RTVSPost2010Prop41ColorRGB
 90
        0
102
RTVSPost2010PropOp41
 70
     0
102
RTVSPost2010Prop42
 90
       50
102
RTVSPost2010PropOp42
 70
     0
102
RTVSPost2010Prop43
 90
        3
102
RTVSPost2010PropOp43
 70
     0
102
RTVSPost2010Prop44ColorIndex
 90
        5
102
RTVSPost2010Prop44ColorRGB
 90
      255
102
RTVSPost2010PropOp44
 70
     0
102
RTVSPost2010Prop45
280
     0
102
RTVSPost2010PropOp45
 70
     0
102
RTVSPost2010Prop46
 90
       50
102
RTVSPost2010PropOp46
 70
     0
102
RTVSPost2010Prop47
 90
       50
102
RTVSPost2010PropOp47
 70
     0
102
RTVSPost2010Prop48
 90
       50
102
RTVSPost2010PropOp48
 70
     0
102
RTVSPost2010Prop49
280
     0
102
RTVSPost2010PropOp49
 70
     0
102
RTVSPost2010Prop50
 90
       50
102
RTVSPost2010PropOp50
 70
     0
102
RTVSPost2010Prop51ColorIndex
 90
      256
102
RTVSPost2010Prop51ColorRGB
 90
-16777216
102
RTVSPost2010PropOp51
 70
     0
102
RTVSPost2010Prop52
140
1.0
102
RTVSPost2010PropOp52
 70
     0
102
RTVSPost2010Prop53
 90
        2
102
RTVSPost2010PropOp53
 70
     0
102
RTVSPost2010Prop54
  1
strokes_ogs.tif
102
RTVSPost2010PropOp54
 70
     0
102
RTVSPost2010Prop55
280
     0
102
RTVSPost2010PropOp55
 70
     0
102
RTVSPost2010Prop56
140
1.0
102
RTVSPost2010PropOp56
 70
     0
102
RTVSPost2010Prop57
140
1.0
102
RTVSPost2010PropOp57
 70
     0
  0
XRECORD
  5
247
102
{ACAD_REACTORS
330
246
102
}
330
246
100
AcDbXrecord
280
     1
102
RTVSPropertyOp0
 70
     1
102
RTVSPropertyOp1
 70
     1
102
RTVSPropertyOp2
 70
     1
102
RTVSPropertyOp3
 70
     1
102
RTVSPropertyOp4
 70
     1
102
RTVSPropertyOp5
 70
     1
102
RTVSPropertyOp6
 70
     1
102
RTVSPropertyOp7
 70
     1
102
RTVSPropertyOp8
 70
     1
102
RTVSPropertyOp9
 70
     1
102
RTVSPropertyOp10
 70
     1
102
RTVSPropertyOp11
 70
     1
102
RTVSPropertyOp12
 70
     1
102
RTVSPropertyOp13
 70
     1
102
RTVSPropertyOp14
 70
     1
102
RTVSPropertyOp15
 70
     1
102
RTVSPropertyOp16
 70
     1
102
RTVSPropertyOp17
 70
     1
102
RTVSPropertyOp18
 70
     1
102
RTVSPropertyOp19
 70
     1
102
RTVSPropertyOp20
 70
     1
102
RTVSPropertyOp21
 70
     1
102
RTVSPropertyOp22
 70
     1
102
RTVSPropertyOp23
 70
     1
102
RTVSPropertyOp24
 70
     1
102
RTVSPropertyOp25
 70
     1
102
RTVSPropertyOp26
 70
     1
102
RTVSPropertyOp27
 70
     1
102
RTVSPropertyOp28
 70
     1
102
RTVSPropertyOp29
 70
     1
102
RTVSPropertyOp30
 70
     1
102
RTVSPropertyOp31
 70
     1
102
RTVSPropertyOp32
 70
     1
102
RTVSPropertyOp33
 70
     1
102
RTVSPropertyOp34
 70
     1
102
RTVSPropertyOp35
 70
     1
102
RTVSPropertyOp36
 70
     1
102
RTVSPropertyOp37
 70
     1
102
RTVSPropertyOp38
 70
     1
102
RTVSPropertyOp39
 70
     1
102
RTVSPropertyOp40
 70
     1
102
RTVSPropertyOp41
 70
     1
102
RTVSPropertyOp42
 70
     1
102
RTVSPropertyOp43
 70
     1
102
RTVSPropertyOp44
 70
     1
102
RTVSPropertyOp45
 70
     1
102
RTVSPropertyOp46
 70
     1
102
RTVSPropertyOp47
 70
     1
102
RTVSPropertyOp48
 70
     1
102
RTVSPropertyOp49
 70
     1
102
RTVSPropertyOp50
 70
     1
102
RTVSPropertyOp51
 70
     0
102
RTVSPropertyOp52
 70
     0
102
RTVSPropertyOp53
 70
     1
102
RTVSPropertyOp54
 70
     1
102
RTVSPropertyOp55
 70
     1
102
RTVSPropertyOp56
 70
     1
102
RTVSPropertyOp57
 70
     1
102
RTVSPost2010Prop28
280
     0
102
RTVSPost2010PropOp28
 70
     1
102
RTVSPost2010Prop29
280
     1
102
RTVSPost2010PropOp29
 70
     1
102
RTVSPost2010Prop30
280
     1
102
RTVSPost2010PropOp30
 70
     1
102
RTVSPost2010Prop31
280
     0
102
RTVSPost2010PropOp31
 70
     1
102
RTVSPost2010Prop32
280
     0
102
RTVSPost2010PropOp32
 70
     1
102
RTVSPost2010Prop33
280
     0
102
RTVSPost2010PropOp33
 70
     1
102
RTVSPost2010Prop34
280
     0
102
RTVSPost2010PropOp34
 70
     1
102
RTVSPost2010Prop35
280
     0
102
RTVSPost2010PropOp35
 70
     1
102
RTVSPost2010Prop36
280
     0
102
RTVSPost2010PropOp36
 70
     1
102
RTVSPost2010Prop37
 90
       50
102
RTVSPost2010PropOp37
 70
     1
102
RTVSPost2010Prop38
140
0.0
102
RTVSPost2010PropOp38
 70
     1
102
RTVSPost2010Prop39
140
1.0
102
RTVSPost2010PropOp39
 70
     1
102
RTVSPost2010Prop40
 90
        0
102
RTVSPost2010PropOp40
 70
     1
102
RTVSPost2010Prop41ColorIndex
 90
       18
102
RTVSPost2010Prop41ColorRGB
 90
        0
102
RTVSPost2010PropOp41
 70
     1
102
RTVSPost2010Prop42
 90
       50
102
RTVSPost2010PropOp42
 70
     1
102
RTVSPost2010Prop43
 90
        3
102
RTVSPost2010PropOp43
 70
     1
102
RTVSPost2010Prop44ColorIndex
 90
        5
102
RTVSPost2010Prop44ColorRGB
 90
      255
102
RTVSPost2010PropOp44
 70
     1
102
RTVSPost2010Prop45
280
     0
102
RTVSPost2010PropOp45
 70
     1
102
RTVSPost2010Prop46
 90
       50
102
RTVSPost2010PropOp46
 70
     1
102
RTVSPost2010Prop47
 90
       50
102
RTVSPost2010PropOp47
 70
     1
102
RTVSPost2010Prop48
 90
       50
102
RTVSPost2010PropOp48
 70
     1
102
RTVSPost2010Prop49
280
     0
102
RTVSPost2010PropOp49
 70
     1
102
RTVSPost2010Prop50
 90
       50
102
RTVSPost2010PropOp50
 70
     1
102
RTVSPost2010Prop51ColorIndex
 90
      256
102
RTVSPost2010Prop51ColorRGB
 90
-16777216
102
RTVSPost2010PropOp51
 70
     0
102
RTVSPost2010Prop52
140
1.0
102
RTVSPost2010PropOp52
 70
     0
102
RTVSPost2010Prop53
 90
        2
102
RTVSPost2010PropOp53
 70
     1
102
RTVSPost2010Prop54
  1
strokes_ogs.tif
102
RTVSPost2010PropOp54
 70
     1
102
RTVSPost2010Prop55
280
     0
102
RTVSPost2010PropOp55
 70
     1
102
RTVSPost2010Prop56
140
1.0
102
RTVSPost2010PropOp56
 70
     1
102
RTVSPost2010Prop57
140
1.0
102
RTVSPost2010PropOp57
 70
     1
  0
XRECORD
  5
24F
102
{ACAD_REACTORS
330
24E
102
}
330
24E
100
AcDbXrecord
280
     1
102
RTVSPropertyOp0
 70
     0
102
RTVSPropertyOp1
 70
     0
102
RTVSPropertyOp2
 70
     0
102
RTVSPropertyOp3
 70
     0
102
RTVSPropertyOp4
 70
     0
102
RTVSPropertyOp5
 70
     0
102
RTVSPropertyOp6
 70
     0
102
RTVSPropertyOp7
 70
     0
102
RTVSPropertyOp8
 70
     0
102
RTVSPropertyOp9
 70
     0
102
RTVSPropertyOp10
 70
     0
102
RTVSPropertyOp11
 70
     0
102
RTVSPropertyOp12
 70
     0
102
RTVSPropertyOp13
 70
     0
102
RTVSPropertyOp14
 70
     2
102
RTVSPropertyOp15
 70
     0
102
RTVSPropertyOp16
 70
     0
102
RTVSPropertyOp17
 70
     0
102
RTVSPropertyOp18
 70
     0
102
RTVSPropertyOp19
 70
     0
102
RTVSPropertyOp20
 70
     0
102
RTVSPropertyOp21
 70
     0
102
RTVSPropertyOp22
 70
     0
102
RTVSPropertyOp23
 70
     0
102
RTVSPropertyOp24
 70
     0
102
RTVSPropertyOp25
 70
     0
102
RTVSPropertyOp26
 70
     0
102
RTVSPropertyOp27
 70
     0
102
RTVSPropertyOp28
 70
     0
102
RTVSPropertyOp29
 70
     0
102
RTVSPropertyOp30
 70
     0
102
RTVSPropertyOp31
 70
     0
102
RTVSPropertyOp32
 70
     0
102
RTVSPropertyOp33
 70
     0
102
RTVSPropertyOp34
 70
     0
102
RTVSPropertyOp35
 70
     0
102
RTVSPropertyOp36
 70
     0
102
RTVSPropertyOp37
 70
     0
102
RTVSPropertyOp38
 70
     0
102
RTVSPropertyOp39
 70
     0
102
RTVSPropertyOp40
 70
     0
102
RTVSPropertyOp41
 70
     0
102
RTVSPropertyOp42
 70
     0
102
RTVSPropertyOp43
 70
     0
102
RTVSPropertyOp44
 70
     0
102
RTVSPropertyOp45
 70
     0
102
RTVSPropertyOp46
 70
     0
102
RTVSPropertyOp47
 70
     0
102
RTVSPropertyOp48
 70
     0
102
RTVSPropertyOp49
 70
     0
102
RTVSPropertyOp50
 70
     0
102
RTVSPropertyOp51
 70
     0
102
RTVSPropertyOp52
 70
     0
102
RTVSPropertyOp53
 70
     0
102
RTVSPropertyOp54
 70
     0
102
RTVSPropertyOp55
 70
     0
102
RTVSPropertyOp56
 70
     0
102
RTVSPropertyOp57
 70
     0
102
RTVSPost2010Prop28
280
     0
102
RTVSPost2010PropOp28
 70
     0
102
RTVSPost2010Prop29
280
     1
102
RTVSPost2010PropOp29
 70
     0
102
RTVSPost2010Prop30
280
     1
102
RTVSPost2010PropOp30
 70
     0
102
RTVSPost2010Prop31
280
     0
102
RTVSPost2010PropOp31
 70
     0
102
RTVSPost2010Prop32
280
     0
102
RTVSPost2010PropOp32
 70
     0
102
RTVSPost2010Prop33
280
     0
102
RTVSPost2010PropOp33
 70
     0
102
RTVSPost2010Prop34
280
     0
102
RTVSPost2010PropOp34
 70
     0
102
RTVSPost2010Prop35
280
     0
102
RTVSPost2010PropOp35
 70
     0
102
RTVSPost2010Prop36
280
     0
102
RTVSPost2010PropOp36
 70
     0
102
RTVSPost2010Prop37
 90
       50
102
RTVSPost2010PropOp37
 70
     0
102
RTVSPost2010Prop38
140
0.0
102
RTVSPost2010PropOp38
 70
     0
102
RTVSPost2010Prop39
140
1.0
102
RTVSPost2010PropOp39
 70
     0
102
RTVSPost2010Prop40
 90
        0
102
RTVSPost2010PropOp40
 70
     0
102
RTVSPost2010Prop41ColorIndex
 90
       18
102
RTVSPost2010Prop41ColorRGB
 90
        0
102
RTVSPost2010PropOp41
 70
     0
102
RTVSPost2010Prop42
 90
       50
102
RTVSPost2010PropOp42
 70
     0
102
RTVSPost2010Prop43
 90
        3
102
RTVSPost2010PropOp43
 70
     0
102
RTVSPost2010Prop44ColorIndex
 90
        5
102
RTVSPost2010Prop44ColorRGB
 90
      255
102
RTVSPost2010PropOp44
 70
     0
102
RTVSPost2010Prop45
280
     0
102
RTVSPost2010PropOp45
 70
     0
102
RTVSPost2010Prop46
 90
       50
102
RTVSPost2010PropOp46
 70
     0
102
RTVSPost2010Prop47
 90
       50
102
RTVSPost2010PropOp47
 70
     0
102
RTVSPost2010Prop48
 90
       50
102
RTVSPost2010PropOp48
 70
     0
102
RTVSPost2010Prop49
280
     0
102
RTVSPost2010PropOp49
 70
     0
102
RTVSPost2010Prop50
 90
       50
102
RTVSPost2010PropOp50
 70
     0
102
RTVSPost2010Prop51ColorIndex
 90
      256
102
RTVSPost2010Prop51ColorRGB
 90
-16777216
102
RTVSPost2010PropOp51
 70
     0
102
RTVSPost2010Prop52
140
1.0
102
RTVSPost2010PropOp52
 70
     0
102
RTVSPost2010Prop53
 90
        2
102
RTVSPost2010PropOp53
 70
     0
102
RTVSPost2010Prop54
  1
strokes_ogs.tif
102
RTVSPost2010PropOp54
 70
     0
102
RTVSPost2010Prop55
280
     0
102
RTVSPost2010PropOp55
 70
     0
102
RTVSPost2010Prop56
140
1.0
102
RTVSPost2010PropOp56
 70
     0
102
RTVSPost2010Prop57
140
1.0
102
RTVSPost2010PropOp57
 70
     0
  0
XRECORD
  5
23D
102
{ACAD_REACTORS
330
23C
102
}
330
23C
100
AcDbXrecord
280
     1
102
RTVSPropertyOp0
 70
     1
102
RTVSPropertyOp1
 70
     1
102
RTVSPropertyOp2
 70
     1
102
RTVSPropertyOp3
 70
     1
102
RTVSPropertyOp4
 70
     1
102
RTVSPropertyOp5
 70
     1
102
RTVSPropertyOp6
 70
     1
102
RTVSPropertyOp7
 70
     1
102
RTVSPropertyOp8
 70
     1
102
RTVSPropertyOp9
 70
     1
102
RTVSPropertyOp10
 70
     1
102
RTVSPropertyOp11
 70
     1
102
RTVSPropertyOp12
 70
     1
102
RTVSPropertyOp13
 70
     1
102
RTVSPropertyOp14
 70
     1
102
RTVSPropertyOp15
 70
     1
102
RTVSPropertyOp16
 70
     1
102
RTVSPropertyOp17
 70
     1
102
RTVSPropertyOp18
 70
     1
102
RTVSPropertyOp19
 70
     1
102
RTVSPropertyOp20
 70
     1
102
RTVSPropertyOp21
 70
     1
102
RTVSPropertyOp22
 70
     1
102
RTVSPropertyOp23
 70
     1
102
RTVSPropertyOp24
 70
     1
102
RTVSPropertyOp25
 70
     1
102
RTVSPropertyOp26
 70
     1
102
RTVSPropertyOp27
 70
     1
102
RTVSPropertyOp28
 70
     1
102
RTVSPropertyOp29
 70
     1
102
RTVSPropertyOp30
 70
     1
102
RTVSPropertyOp31
 70
     1
102
RTVSPropertyOp32
 70
     1
102
RTVSPropertyOp33
 70
     1
102
RTVSPropertyOp34
 70
     1
102
RTVSPropertyOp35
 70
     1
102
RTVSPropertyOp36
 70
     1
102
RTVSPropertyOp37
 70
     1
102
RTVSPropertyOp38
 70
     1
102
RTVSPropertyOp39
 70
     1
102
RTVSPropertyOp40
 70
     1
102
RTVSPropertyOp41
 70
     1
102
RTVSPropertyOp42
 70
     1
102
RTVSPropertyOp43
 70
     1
102
RTVSPropertyOp44
 70
     1
102
RTVSPropertyOp45
 70
     1
102
RTVSPropertyOp46
 70
     1
102
RTVSPropertyOp47
 70
     1
102
RTVSPropertyOp48
 70
     1
102
RTVSPropertyOp49
 70
     1
102
RTVSPropertyOp50
 70
     1
102
RTVSPropertyOp51
 70
     0
102
RTVSPropertyOp52
 70
     0
102
RTVSPropertyOp53
 70
     1
102
RTVSPropertyOp54
 70
     1
102
RTVSPropertyOp55
 70
     1
102
RTVSPropertyOp56
 70
     1
102
RTVSPropertyOp57
 70
     1
102
RTVSPost2010Prop28
280
     0
102
RTVSPost2010PropOp28
 70
     1
102
RTVSPost2010Prop29
280
     1
102
RTVSPost2010PropOp29
 70
     1
102
RTVSPost2010Prop30
280
     1
102
RTVSPost2010PropOp30
 70
     1
102
RTVSPost2010Prop31
280
     0
102
RTVSPost2010PropOp31
 70
     1
102
RTVSPost2010Prop32
280
     0
102
RTVSPost2010PropOp32
 70
     1
102
RTVSPost2010Prop33
280
     0
102
RTVSPost2010PropOp33
 70
     1
102
RTVSPost2010Prop34
280
     0
102
RTVSPost2010PropOp34
 70
     1
102
RTVSPost2010Prop35
280
     0
102
RTVSPost2010PropOp35
 70
     1
102
RTVSPost2010Prop36
280
     0
102
RTVSPost2010PropOp36
 70
     1
102
RTVSPost2010Prop37
 90
       50
102
RTVSPost2010PropOp37
 70
     1
102
RTVSPost2010Prop38
140
0.0
102
RTVSPost2010PropOp38
 70
     1
102
RTVSPost2010Prop39
140
1.0
102
RTVSPost2010PropOp39
 70
     1
102
RTVSPost2010Prop40
 90
        0
102
RTVSPost2010PropOp40
 70
     1
102
RTVSPost2010Prop41ColorIndex
 90
       18
102
RTVSPost2010Prop41ColorRGB
 90
        0
102
RTVSPost2010PropOp41
 70
     1
102
RTVSPost2010Prop42
 90
       50
102
RTVSPost2010PropOp42
 70
     1
102
RTVSPost2010Prop43
 90
        3
102
RTVSPost2010PropOp43
 70
     1
102
RTVSPost2010Prop44ColorIndex
 90
        5
102
RTVSPost2010Prop44ColorRGB
 90
      255
102
RTVSPost2010PropOp44
 70
     1
102
RTVSPost2010Prop45
280
     0
102
RTVSPost2010PropOp45
 70
     1
102
RTVSPost2010Prop46
 90
       50
102
RTVSPost2010PropOp46
 70
     1
102
RTVSPost2010Prop47
 90
       50
102
RTVSPost2010PropOp47
 70
     1
102
RTVSPost2010Prop48
 90
       50
102
RTVSPost2010PropOp48
 70
     1
102
RTVSPost2010Prop49
280
     0
102
RTVSPost2010PropOp49
 70
     1
102
RTVSPost2010Prop50
 90
       50
102
RTVSPost2010PropOp50
 70
     1
102
RTVSPost2010Prop51ColorIndex
 90
      256
102
RTVSPost2010Prop51ColorRGB
 90
-16777216
102
RTVSPost2010PropOp51
 70
     0
102
RTVSPost2010Prop52
140
1.0
102
RTVSPost2010PropOp52
 70
     0
102
RTVSPost2010Prop53
 90
        2
102
RTVSPost2010PropOp53
 70
     1
102
RTVSPost2010Prop54
  1
strokes_ogs.tif
102
RTVSPost2010PropOp54
 70
     1
102
RTVSPost2010Prop55
280
     0
102
RTVSPost2010PropOp55
 70
     1
102
RTVSPost2010Prop56
140
1.0
102
RTVSPost2010PropOp56
 70
     1
102
RTVSPost2010Prop57
140
1.0
102
RTVSPost2010PropOp57
 70
     1
  0
XRECORD
  5
25B
102
{ACAD_REACTORS
330
25A
102
}
330
25A
100
AcDbXrecord
280
     1
102
RTVSPropertyOp0
 70
     1
102
RTVSPropertyOp1
 70
     1
102
RTVSPropertyOp2
 70
     1
102
RTVSPropertyOp3
 70
     1
102
RTVSPropertyOp4
 70
     1
102
RTVSPropertyOp5
 70
     1
102
RTVSPropertyOp6
 70
     1
102
RTVSPropertyOp7
 70
     1
102
RTVSPropertyOp8
 70
     1
102
RTVSPropertyOp9
 70
     1
102
RTVSPropertyOp10
 70
     1
102
RTVSPropertyOp11
 70
     1
102
RTVSPropertyOp12
 70
     1
102
RTVSPropertyOp13
 70
     1
102
RTVSPropertyOp14
 70
     1
102
RTVSPropertyOp15
 70
     1
102
RTVSPropertyOp16
 70
     1
102
RTVSPropertyOp17
 70
     1
102
RTVSPropertyOp18
 70
     1
102
RTVSPropertyOp19
 70
     1
102
RTVSPropertyOp20
 70
     1
102
RTVSPropertyOp21
 70
     1
102
RTVSPropertyOp22
 70
     1
102
RTVSPropertyOp23
 70
     1
102
RTVSPropertyOp24
 70
     1
102
RTVSPropertyOp25
 70
     1
102
RTVSPropertyOp26
 70
     1
102
RTVSPropertyOp27
 70
     1
102
RTVSPropertyOp28
 70
     1
102
RTVSPropertyOp29
 70
     1
102
RTVSPropertyOp30
 70
     1
102
RTVSPropertyOp31
 70
     1
102
RTVSPropertyOp32
 70
     1
102
RTVSPropertyOp33
 70
     1
102
RTVSPropertyOp34
 70
     1
102
RTVSPropertyOp35
 70
     1
102
RTVSPropertyOp36
 70
     1
102
RTVSPropertyOp37
 70
     1
102
RTVSPropertyOp38
 70
     1
102
RTVSPropertyOp39
 70
     1
102
RTVSPropertyOp40
 70
     1
102
RTVSPropertyOp41
 70
     1
102
RTVSPropertyOp42
 70
     1
102
RTVSPropertyOp43
 70
     1
102
RTVSPropertyOp44
 70
     1
102
RTVSPropertyOp45
 70
     1
102
RTVSPropertyOp46
 70
     1
102
RTVSPropertyOp47
 70
     1
102
RTVSPropertyOp48
 70
     1
102
RTVSPropertyOp49
 70
     1
102
RTVSPropertyOp50
 70
     1
102
RTVSPropertyOp51
 70
     0
102
RTVSPropertyOp52
 70
     0
102
RTVSPropertyOp53
 70
     1
102
RTVSPropertyOp54
 70
     1
102
RTVSPropertyOp55
 70
     1
102
RTVSPropertyOp56
 70
     1
102
RTVSPropertyOp57
 70
     1
102
RTVSPost2010Prop28
280
     0
102
RTVSPost2010PropOp28
 70
     1
102
RTVSPost2010Prop29
280
     1
102
RTVSPost2010PropOp29
 70
     1
102
RTVSPost2010Prop30
280
     1
102
RTVSPost2010PropOp30
 70
     1
102
RTVSPost2010Prop31
280
     0
102
RTVSPost2010PropOp31
 70
     1
102
RTVSPost2010Prop32
280
     0
102
RTVSPost2010PropOp32
 70
     1
102
RTVSPost2010Prop33
280
     0
102
RTVSPost2010PropOp33
 70
     1
102
RTVSPost2010Prop34
280
     0
102
RTVSPost2010PropOp34
 70
     1
102
RTVSPost2010Prop35
280
     0
102
RTVSPost2010PropOp35
 70
     1
102
RTVSPost2010Prop36
280
     0
102
RTVSPost2010PropOp36
 70
     1
102
RTVSPost2010Prop37
 90
       50
102
RTVSPost2010PropOp37
 70
     1
102
RTVSPost2010Prop38
140
0.0
102
RTVSPost2010PropOp38
 70
     1
102
RTVSPost2010Prop39
140
1.0
102
RTVSPost2010PropOp39
 70
     1
102
RTVSPost2010Prop40
 90
        0
102
RTVSPost2010PropOp40
 70
     1
102
RTVSPost2010Prop41ColorIndex
 90
       18
102
RTVSPost2010Prop41ColorRGB
 90
        0
102
RTVSPost2010PropOp41
 70
     1
102
RTVSPost2010Prop42
 90
       50
102
RTVSPost2010PropOp42
 70
     1
102
RTVSPost2010Prop43
 90
        3
102
RTVSPost2010PropOp43
 70
     1
102
RTVSPost2010Prop44ColorIndex
 90
        5
102
RTVSPost2010Prop44ColorRGB
 90
      255
102
RTVSPost2010PropOp44
 70
     1
102
RTVSPost2010Prop45
280
     0
102
RTVSPost2010PropOp45
 70
     1
102
RTVSPost2010Prop46
 90
       50
102
RTVSPost2010PropOp46
 70
     1
102
RTVSPost2010Prop47
 90
       50
102
RTVSPost2010PropOp47
 70
     1
102
RTVSPost2010Prop48
 90
       50
102
RTVSPost2010PropOp48
 70
     1
102
RTVSPost2010Prop49
280
     0
102
RTVSPost2010PropOp49
 70
     1
102
RTVSPost2010Prop50
 90
       50
102
RTVSPost2010PropOp50
 70
     1
102
RTVSPost2010Prop51ColorIndex
 90
      256
102
RTVSPost2010Prop51ColorRGB
 90
-16777216
102
RTVSPost2010PropOp51
 70
     0
102
RTVSPost2010Prop52
140
1.0
102
RTVSPost2010PropOp52
 70
     0
102
RTVSPost2010Prop53
 90
        2
102
RTVSPost2010PropOp53
 70
     1
102
RTVSPost2010Prop54
  1
strokes_ogs.tif
102
RTVSPost2010PropOp54
 70
     1
102
RTVSPost2010Prop55
280
     0
102
RTVSPost2010PropOp55
 70
     1
102
RTVSPost2010Prop56
140
1.0
102
RTVSPost2010PropOp56
 70
     1
102
RTVSPost2010Prop57
140
1.0
102
RTVSPost2010PropOp57
 70
     1
  0
XRECORD
  5
259
102
{ACAD_REACTORS
330
258
102
}
330
258
100
AcDbXrecord
280
     1
102
RTVSPropertyOp0
 70
     1
102
RTVSPropertyOp1
 70
     1
102
RTVSPropertyOp2
 70
     1
102
RTVSPropertyOp3
 70
     1
102
RTVSPropertyOp4
 70
     1
102
RTVSPropertyOp5
 70
     1
102
RTVSPropertyOp6
 70
     1
102
RTVSPropertyOp7
 70
     1
102
RTVSPropertyOp8
 70
     1
102
RTVSPropertyOp9
 70
     1
102
RTVSPropertyOp10
 70
     1
102
RTVSPropertyOp11
 70
     1
102
RTVSPropertyOp12
 70
     1
102
RTVSPropertyOp13
 70
     1
102
RTVSPropertyOp14
 70
     1
102
RTVSPropertyOp15
 70
     1
102
RTVSPropertyOp16
 70
     1
102
RTVSPropertyOp17
 70
     1
102
RTVSPropertyOp18
 70
     1
102
RTVSPropertyOp19
 70
     1
102
RTVSPropertyOp20
 70
     1
102
RTVSPropertyOp21
 70
     1
102
RTVSPropertyOp22
 70
     1
102
RTVSPropertyOp23
 70
     1
102
RTVSPropertyOp24
 70
     1
102
RTVSPropertyOp25
 70
     1
102
RTVSPropertyOp26
 70
     1
102
RTVSPropertyOp27
 70
     1
102
RTVSPropertyOp28
 70
     1
102
RTVSPropertyOp29
 70
     1
102
RTVSPropertyOp30
 70
     1
102
RTVSPropertyOp31
 70
     1
102
RTVSPropertyOp32
 70
     1
102
RTVSPropertyOp33
 70
     1
102
RTVSPropertyOp34
 70
     1
102
RTVSPropertyOp35
 70
     1
102
RTVSPropertyOp36
 70
     1
102
RTVSPropertyOp37
 70
     1
102
RTVSPropertyOp38
 70
     1
102
RTVSPropertyOp39
 70
     1
102
RTVSPropertyOp40
 70
     1
102
RTVSPropertyOp41
 70
     1
102
RTVSPropertyOp42
 70
     1
102
RTVSPropertyOp43
 70
     1
102
RTVSPropertyOp44
 70
     1
102
RTVSPropertyOp45
 70
     1
102
RTVSPropertyOp46
 70
     1
102
RTVSPropertyOp47
 70
     1
102
RTVSPropertyOp48
 70
     1
102
RTVSPropertyOp49
 70
     1
102
RTVSPropertyOp50
 70
     1
102
RTVSPropertyOp51
 70
     0
102
RTVSPropertyOp52
 70
     0
102
RTVSPropertyOp53
 70
     1
102
RTVSPropertyOp54
 70
     1
102
RTVSPropertyOp55
 70
     1
102
RTVSPropertyOp56
 70
     1
102
RTVSPropertyOp57
 70
     1
102
RTVSPost2010Prop28
280
     0
102
RTVSPost2010PropOp28
 70
     1
102
RTVSPost2010Prop29
280
     1
102
RTVSPost2010PropOp29
 70
     1
102
RTVSPost2010Prop30
280
     1
102
RTVSPost2010PropOp30
 70
     1
102
RTVSPost2010Prop31
280
     0
102
RTVSPost2010PropOp31
 70
     1
102
RTVSPost2010Prop32
280
     0
102
RTVSPost2010PropOp32
 70
     1
102
RTVSPost2010Prop33
280
     0
102
RTVSPost2010PropOp33
 70
     1
102
RTVSPost2010Prop34
280
     0
102
RTVSPost2010PropOp34
 70
     1
102
RTVSPost2010Prop35
280
     0
102
RTVSPost2010PropOp35
 70
     1
102
RTVSPost2010Prop36
280
     0
102
RTVSPost2010PropOp36
 70
     1
102
RTVSPost2010Prop37
 90
       50
102
RTVSPost2010PropOp37
 70
     1
102
RTVSPost2010Prop38
140
0.0
102
RTVSPost2010PropOp38
 70
     1
102
RTVSPost2010Prop39
140
1.0
102
RTVSPost2010PropOp39
 70
     1
102
RTVSPost2010Prop40
 90
        0
102
RTVSPost2010PropOp40
 70
     1
102
RTVSPost2010Prop41ColorIndex
 90
       18
102
RTVSPost2010Prop41ColorRGB
 90
        0
102
RTVSPost2010PropOp41
 70
     1
102
RTVSPost2010Prop42
 90
       50
102
RTVSPost2010PropOp42
 70
     1
102
RTVSPost2010Prop43
 90
        3
102
RTVSPost2010PropOp43
 70
     1
102
RTVSPost2010Prop44ColorIndex
 90
        5
102
RTVSPost2010Prop44ColorRGB
 90
      255
102
RTVSPost2010PropOp44
 70
     1
102
RTVSPost2010Prop45
280
     0
102
RTVSPost2010PropOp45
 70
     1
102
RTVSPost2010Prop46
 90
       50
102
RTVSPost2010PropOp46
 70
     1
102
RTVSPost2010Prop47
 90
       50
102
RTVSPost2010PropOp47
 70
     1
102
RTVSPost2010Prop48
 90
       50
102
RTVSPost2010PropOp48
 70
     1
102
RTVSPost2010Prop49
280
     0
102
RTVSPost2010PropOp49
 70
     1
102
RTVSPost2010Prop50
 90
       50
102
RTVSPost2010PropOp50
 70
     1
102
RTVSPost2010Prop51ColorIndex
 90
      256
102
RTVSPost2010Prop51ColorRGB
 90
-16777216
102
RTVSPost2010PropOp51
 70
     0
102
RTVSPost2010Prop52
140
1.0
102
RTVSPost2010PropOp52
 70
     0
102
RTVSPost2010Prop53
 90
        2
102
RTVSPost2010PropOp53
 70
     1
102
RTVSPost2010Prop54
  1
strokes_ogs.tif
102
RTVSPost2010PropOp54
 70
     1
102
RTVSPost2010Prop55
280
     0
102
RTVSPost2010PropOp55
 70
     1
102
RTVSPost2010Prop56
140
1.0
102
RTVSPost2010PropOp56
 70
     1
102
RTVSPost2010Prop57
140
1.0
102
RTVSPost2010PropOp57
 70
     1
  0
XRECORD
  5
253
102
{ACAD_REACTORS
330
252
102
}
330
252
100
AcDbXrecord
280
     1
102
RTVSPropertyOp0
 70
     1
102
RTVSPropertyOp1
 70
     1
102
RTVSPropertyOp2
 70
     1
102
RTVSPropertyOp3
 70
     1
102
RTVSPropertyOp4
 70
     1
102
RTVSPropertyOp5
 70
     1
102
RTVSPropertyOp6
 70
     1
102
RTVSPropertyOp7
 70
     1
102
RTVSPropertyOp8
 70
     1
102
RTVSPropertyOp9
 70
     1
102
RTVSPropertyOp10
 70
     1
102
RTVSPropertyOp11
 70
     1
102
RTVSPropertyOp12
 70
     1
102
RTVSPropertyOp13
 70
     1
102
RTVSPropertyOp14
 70
     1
102
RTVSPropertyOp15
 70
     1
102
RTVSPropertyOp16
 70
     1
102
RTVSPropertyOp17
 70
     1
102
RTVSPropertyOp18
 70
     1
102
RTVSPropertyOp19
 70
     1
102
RTVSPropertyOp20
 70
     1
102
RTVSPropertyOp21
 70
     1
102
RTVSPropertyOp22
 70
     1
102
RTVSPropertyOp23
 70
     1
102
RTVSPropertyOp24
 70
     1
102
RTVSPropertyOp25
 70
     1
102
RTVSPropertyOp26
 70
     1
102
RTVSPropertyOp27
 70
     1
102
RTVSPropertyOp28
 70
     1
102
RTVSPropertyOp29
 70
     1
102
RTVSPropertyOp30
 70
     1
102
RTVSPropertyOp31
 70
     1
102
RTVSPropertyOp32
 70
     1
102
RTVSPropertyOp33
 70
     1
102
RTVSPropertyOp34
 70
     1
102
RTVSPropertyOp35
 70
     1
102
RTVSPropertyOp36
 70
     1
102
RTVSPropertyOp37
 70
     1
102
RTVSPropertyOp38
 70
     1
102
RTVSPropertyOp39
 70
     1
102
RTVSPropertyOp40
 70
     1
102
RTVSPropertyOp41
 70
     1
102
RTVSPropertyOp42
 70
     1
102
RTVSPropertyOp43
 70
     1
102
RTVSPropertyOp44
 70
     1
102
RTVSPropertyOp45
 70
     1
102
RTVSPropertyOp46
 70
     1
102
RTVSPropertyOp47
 70
     1
102
RTVSPropertyOp48
 70
     1
102
RTVSPropertyOp49
 70
     1
102
RTVSPropertyOp50
 70
     1
102
RTVSPropertyOp51
 70
     0
102
RTVSPropertyOp52
 70
     0
102
RTVSPropertyOp53
 70
     1
102
RTVSPropertyOp54
 70
     1
102
RTVSPropertyOp55
 70
     1
102
RTVSPropertyOp56
 70
     1
102
RTVSPropertyOp57
 70
     1
102
RTVSPost2010Prop28
280
     0
102
RTVSPost2010PropOp28
 70
     1
102
RTVSPost2010Prop29
280
     1
102
RTVSPost2010PropOp29
 70
     1
102
RTVSPost2010Prop30
280
     1
102
RTVSPost2010PropOp30
 70
     1
102
RTVSPost2010Prop31
280
     0
102
RTVSPost2010PropOp31
 70
     1
102
RTVSPost2010Prop32
280
     0
102
RTVSPost2010PropOp32
 70
     1
102
RTVSPost2010Prop33
280
     0
102
RTVSPost2010PropOp33
 70
     1
102
RTVSPost2010Prop34
280
     0
102
RTVSPost2010PropOp34
 70
     1
102
RTVSPost2010Prop35
280
     0
102
RTVSPost2010PropOp35
 70
     1
102
RTVSPost2010Prop36
280
     0
102
RTVSPost2010PropOp36
 70
     1
102
RTVSPost2010Prop37
 90
       50
102
RTVSPost2010PropOp37
 70
     1
102
RTVSPost2010Prop38
140
0.0
102
RTVSPost2010PropOp38
 70
     1
102
RTVSPost2010Prop39
140
1.0
102
RTVSPost2010PropOp39
 70
     1
102
RTVSPost2010Prop40
 90
        0
102
RTVSPost2010PropOp40
 70
     1
102
RTVSPost2010Prop41ColorIndex
 90
       18
102
RTVSPost2010Prop41ColorRGB
 90
        0
102
RTVSPost2010PropOp41
 70
     1
102
RTVSPost2010Prop42
 90
       50
102
RTVSPost2010PropOp42
 70
     1
102
RTVSPost2010Prop43
 90
        3
102
RTVSPost2010PropOp43
 70
     1
102
RTVSPost2010Prop44ColorIndex
 90
        5
102
RTVSPost2010Prop44ColorRGB
 90
      255
102
RTVSPost2010PropOp44
 70
     1
102
RTVSPost2010Prop45
280
     0
102
RTVSPost2010PropOp45
 70
     1
102
RTVSPost2010Prop46
 90
       50
102
RTVSPost2010PropOp46
 70
     1
102
RTVSPost2010Prop47
 90
       50
102
RTVSPost2010PropOp47
 70
     1
102
RTVSPost2010Prop48
 90
       50
102
RTVSPost2010PropOp48
 70
     1
102
RTVSPost2010Prop49
280
     0
102
RTVSPost2010PropOp49
 70
     1
102
RTVSPost2010Prop50
 90
       50
102
RTVSPost2010PropOp50
 70
     1
102
RTVSPost2010Prop51ColorIndex
 90
      256
102
RTVSPost2010Prop51ColorRGB
 90
-16777216
102
RTVSPost2010PropOp51
 70
     0
102
RTVSPost2010Prop52
140
1.0
102
RTVSPost2010PropOp52
 70
     0
102
RTVSPost2010Prop53
 90
        2
102
RTVSPost2010PropOp53
 70
     1
102
RTVSPost2010Prop54
  1
strokes_ogs.tif
102
RTVSPost2010PropOp54
 70
     1
102
RTVSPost2010Prop55
280
     0
102
RTVSPost2010PropOp55
 70
     1
102
RTVSPost2010Prop56
140
1.0
102
RTVSPost2010PropOp56
 70
     1
102
RTVSPost2010Prop57
140
1.0
102
RTVSPost2010PropOp57
 70
     1
  0
XRECORD
  5
255
102
{ACAD_REACTORS
330
254
102
}
330
254
100
AcDbXrecord
280
     1
102
RTVSPropertyOp0
 70
     1
102
RTVSPropertyOp1
 70
     1
102
RTVSPropertyOp2
 70
     1
102
RTVSPropertyOp3
 70
     1
102
RTVSPropertyOp4
 70
     1
102
RTVSPropertyOp5
 70
     1
102
RTVSPropertyOp6
 70
     1
102
RTVSPropertyOp7
 70
     1
102
RTVSPropertyOp8
 70
     1
102
RTVSPropertyOp9
 70
     1
102
RTVSPropertyOp10
 70
     1
102
RTVSPropertyOp11
 70
     1
102
RTVSPropertyOp12
 70
     1
102
RTVSPropertyOp13
 70
     1
102
RTVSPropertyOp14
 70
     1
102
RTVSPropertyOp15
 70
     1
102
RTVSPropertyOp16
 70
     1
102
RTVSPropertyOp17
 70
     1
102
RTVSPropertyOp18
 70
     1
102
RTVSPropertyOp19
 70
     1
102
RTVSPropertyOp20
 70
     1
102
RTVSPropertyOp21
 70
     1
102
RTVSPropertyOp22
 70
     1
102
RTVSPropertyOp23
 70
     1
102
RTVSPropertyOp24
 70
     1
102
RTVSPropertyOp25
 70
     1
102
RTVSPropertyOp26
 70
     1
102
RTVSPropertyOp27
 70
     1
102
RTVSPropertyOp28
 70
     1
102
RTVSPropertyOp29
 70
     1
102
RTVSPropertyOp30
 70
     1
102
RTVSPropertyOp31
 70
     1
102
RTVSPropertyOp32
 70
     1
102
RTVSPropertyOp33
 70
     1
102
RTVSPropertyOp34
 70
     1
102
RTVSPropertyOp35
 70
     1
102
RTVSPropertyOp36
 70
     1
102
RTVSPropertyOp37
 70
     1
102
RTVSPropertyOp38
 70
     1
102
RTVSPropertyOp39
 70
     1
102
RTVSPropertyOp40
 70
     1
102
RTVSPropertyOp41
 70
     1
102
RTVSPropertyOp42
 70
     1
102
RTVSPropertyOp43
 70
     1
102
RTVSPropertyOp44
 70
     1
102
RTVSPropertyOp45
 70
     1
102
RTVSPropertyOp46
 70
     1
102
RTVSPropertyOp47
 70
     1
102
RTVSPropertyOp48
 70
     1
102
RTVSPropertyOp49
 70
     1
102
RTVSPropertyOp50
 70
     1
102
RTVSPropertyOp51
 70
     0
102
RTVSPropertyOp52
 70
     0
102
RTVSPropertyOp53
 70
     1
102
RTVSPropertyOp54
 70
     1
102
RTVSPropertyOp55
 70
     1
102
RTVSPropertyOp56
 70
     1
102
RTVSPropertyOp57
 70
     1
102
RTVSPost2010Prop28
280
     0
102
RTVSPost2010PropOp28
 70
     1
102
RTVSPost2010Prop29
280
     1
102
RTVSPost2010PropOp29
 70
     1
102
RTVSPost2010Prop30
280
     1
102
RTVSPost2010PropOp30
 70
     1
102
RTVSPost2010Prop31
280
     0
102
RTVSPost2010PropOp31
 70
     1
102
RTVSPost2010Prop32
280
     0
102
RTVSPost2010PropOp32
 70
     1
102
RTVSPost2010Prop33
280
     0
102
RTVSPost2010PropOp33
 70
     1
102
RTVSPost2010Prop34
280
     0
102
RTVSPost2010PropOp34
 70
     1
102
RTVSPost2010Prop35
280
     0
102
RTVSPost2010PropOp35
 70
     1
102
RTVSPost2010Prop36
280
     0
102
RTVSPost2010PropOp36
 70
     1
102
RTVSPost2010Prop37
 90
       50
102
RTVSPost2010PropOp37
 70
     1
102
RTVSPost2010Prop38
140
0.0
102
RTVSPost2010PropOp38
 70
     1
102
RTVSPost2010Prop39
140
1.0
102
RTVSPost2010PropOp39
 70
     1
102
RTVSPost2010Prop40
 90
        0
102
RTVSPost2010PropOp40
 70
     1
102
RTVSPost2010Prop41ColorIndex
 90
       18
102
RTVSPost2010Prop41ColorRGB
 90
        0
102
RTVSPost2010PropOp41
 70
     1
102
RTVSPost2010Prop42
 90
       50
102
RTVSPost2010PropOp42
 70
     1
102
RTVSPost2010Prop43
 90
        3
102
RTVSPost2010PropOp43
 70
     1
102
RTVSPost2010Prop44ColorIndex
 90
        5
102
RTVSPost2010Prop44ColorRGB
 90
      255
102
RTVSPost2010PropOp44
 70
     1
102
RTVSPost2010Prop45
280
     0
102
RTVSPost2010PropOp45
 70
     1
102
RTVSPost2010Prop46
 90
       50
102
RTVSPost2010PropOp46
 70
     1
102
RTVSPost2010Prop47
 90
       50
102
RTVSPost2010PropOp47
 70
     1
102
RTVSPost2010Prop48
 90
       50
102
RTVSPost2010PropOp48
 70
     1
102
RTVSPost2010Prop49
280
     0
102
RTVSPost2010PropOp49
 70
     1
102
RTVSPost2010Prop50
 90
       50
102
RTVSPost2010PropOp50
 70
     1
102
RTVSPost2010Prop51ColorIndex
 90
      256
102
RTVSPost2010Prop51ColorRGB
 90
-16777216
102
RTVSPost2010PropOp51
 70
     0
102
RTVSPost2010Prop52
140
1.0
102
RTVSPost2010PropOp52
 70
     0
102
RTVSPost2010Prop53
 90
        2
102
RTVSPost2010PropOp53
 70
     1
102
RTVSPost2010Prop54
  1
strokes_ogs.tif
102
RTVSPost2010PropOp54
 70
     1
102
RTVSPost2010Prop55
280
     0
102
RTVSPost2010PropOp55
 70
     1
102
RTVSPost2010Prop56
140
1.0
102
RTVSPost2010PropOp56
 70
     1
102
RTVSPost2010Prop57
140
1.0
102
RTVSPost2010PropOp57
 70
     1
  0
XRECORD
  5
245
102
{ACAD_REACTORS
330
244
102
}
330
244
100
AcDbXrecord
280
     1
102
RTVSPropertyOp0
 70
     1
102
RTVSPropertyOp1
 70
     1
102
RTVSPropertyOp2
 70
     1
102
RTVSPropertyOp3
 70
     1
102
RTVSPropertyOp4
 70
     1
102
RTVSPropertyOp5
 70
     1
102
RTVSPropertyOp6
 70
     1
102
RTVSPropertyOp7
 70
     1
102
RTVSPropertyOp8
 70
     1
102
RTVSPropertyOp9
 70
     1
102
RTVSPropertyOp10
 70
     1
102
RTVSPropertyOp11
 70
     1
102
RTVSPropertyOp12
 70
     1
102
RTVSPropertyOp13
 70
     1
102
RTVSPropertyOp14
 70
     1
102
RTVSPropertyOp15
 70
     1
102
RTVSPropertyOp16
 70
     1
102
RTVSPropertyOp17
 70
     1
102
RTVSPropertyOp18
 70
     1
102
RTVSPropertyOp19
 70
     1
102
RTVSPropertyOp20
 70
     1
102
RTVSPropertyOp21
 70
     1
102
RTVSPropertyOp22
 70
     1
102
RTVSPropertyOp23
 70
     1
102
RTVSPropertyOp24
 70
     1
102
RTVSPropertyOp25
 70
     1
102
RTVSPropertyOp26
 70
     1
102
RTVSPropertyOp27
 70
     1
102
RTVSPropertyOp28
 70
     1
102
RTVSPropertyOp29
 70
     1
102
RTVSPropertyOp30
 70
     1
102
RTVSPropertyOp31
 70
     1
102
RTVSPropertyOp32
 70
     1
102
RTVSPropertyOp33
 70
     1
102
RTVSPropertyOp34
 70
     1
102
RTVSPropertyOp35
 70
     1
102
RTVSPropertyOp36
 70
     1
102
RTVSPropertyOp37
 70
     1
102
RTVSPropertyOp38
 70
     1
102
RTVSPropertyOp39
 70
     1
102
RTVSPropertyOp40
 70
     1
102
RTVSPropertyOp41
 70
     1
102
RTVSPropertyOp42
 70
     1
102
RTVSPropertyOp43
 70
     1
102
RTVSPropertyOp44
 70
     1
102
RTVSPropertyOp45
 70
     1
102
RTVSPropertyOp46
 70
     1
102
RTVSPropertyOp47
 70
     1
102
RTVSPropertyOp48
 70
     1
102
RTVSPropertyOp49
 70
     1
102
RTVSPropertyOp50
 70
     1
102
RTVSPropertyOp51
 70
     0
102
RTVSPropertyOp52
 70
     0
102
RTVSPropertyOp53
 70
     1
102
RTVSPropertyOp54
 70
     1
102
RTVSPropertyOp55
 70
     1
102
RTVSPropertyOp56
 70
     1
102
RTVSPropertyOp57
 70
     1
102
RTVSPost2010Prop28
280
     0
102
RTVSPost2010PropOp28
 70
     1
102
RTVSPost2010Prop29
280
     1
102
RTVSPost2010PropOp29
 70
     1
102
RTVSPost2010Prop30
280
     1
102
RTVSPost2010PropOp30
 70
     1
102
RTVSPost2010Prop31
280
     0
102
RTVSPost2010PropOp31
 70
     1
102
RTVSPost2010Prop32
280
     0
102
RTVSPost2010PropOp32
 70
     1
102
RTVSPost2010Prop33
280
     0
102
RTVSPost2010PropOp33
 70
     1
102
RTVSPost2010Prop34
280
     0
102
RTVSPost2010PropOp34
 70
     1
102
RTVSPost2010Prop35
280
     0
102
RTVSPost2010PropOp35
 70
     1
102
RTVSPost2010Prop36
280
     0
102
RTVSPost2010PropOp36
 70
     1
102
RTVSPost2010Prop37
 90
       50
102
RTVSPost2010PropOp37
 70
     1
102
RTVSPost2010Prop38
140
0.0
102
RTVSPost2010PropOp38
 70
     1
102
RTVSPost2010Prop39
140
1.0
102
RTVSPost2010PropOp39
 70
     1
102
RTVSPost2010Prop40
 90
        0
102
RTVSPost2010PropOp40
 70
     1
102
RTVSPost2010Prop41ColorIndex
 90
       18
102
RTVSPost2010Prop41ColorRGB
 90
        0
102
RTVSPost2010PropOp41
 70
     1
102
RTVSPost2010Prop42
 90
       50
102
RTVSPost2010PropOp42
 70
     1
102
RTVSPost2010Prop43
 90
        3
102
RTVSPost2010PropOp43
 70
     1
102
RTVSPost2010Prop44ColorIndex
 90
        5
102
RTVSPost2010Prop44ColorRGB
 90
      255
102
RTVSPost2010PropOp44
 70
     1
102
RTVSPost2010Prop45
280
     0
102
RTVSPost2010PropOp45
 70
     1
102
RTVSPost2010Prop46
 90
       50
102
RTVSPost2010PropOp46
 70
     1
102
RTVSPost2010Prop47
 90
       50
102
RTVSPost2010PropOp47
 70
     1
102
RTVSPost2010Prop48
 90
       50
102
RTVSPost2010PropOp48
 70
     1
102
RTVSPost2010Prop49
280
     0
102
RTVSPost2010PropOp49
 70
     1
102
RTVSPost2010Prop50
 90
       50
102
RTVSPost2010PropOp50
 70
     1
102
RTVSPost2010Prop51ColorIndex
 90
      256
102
RTVSPost2010Prop51ColorRGB
 90
-16777216
102
RTVSPost2010PropOp51
 70
     0
102
RTVSPost2010Prop52
140
1.0
102
RTVSPost2010PropOp52
 70
     0
102
RTVSPost2010Prop53
 90
        2
102
RTVSPost2010PropOp53
 70
     1
102
RTVSPost2010Prop54
  1
strokes_ogs.tif
102
RTVSPost2010PropOp54
 70
     1
102
RTVSPost2010Prop55
280
     0
102
RTVSPost2010PropOp55
 70
     1
102
RTVSPost2010Prop56
140
1.0
102
RTVSPost2010PropOp56
 70
     1
102
RTVSPost2010Prop57
140
1.0
102
RTVSPost2010PropOp57
 70
     1
  0
XRECORD
  5
237
102
{ACAD_REACTORS
330
236
102
}
330
236
100
AcDbXrecord
280
     1
102
RTVSPropertyOp0
 70
     1
102
RTVSPropertyOp1
 70
     1
102
RTVSPropertyOp2
 70
     1
102
RTVSPropertyOp3
 70
     1
102
RTVSPropertyOp4
 70
     1
102
RTVSPropertyOp5
 70
     1
102
RTVSPropertyOp6
 70
     1
102
RTVSPropertyOp7
 70
     1
102
RTVSPropertyOp8
 70
     1
102
RTVSPropertyOp9
 70
     1
102
RTVSPropertyOp10
 70
     1
102
RTVSPropertyOp11
 70
     1
102
RTVSPropertyOp12
 70
     1
102
RTVSPropertyOp13
 70
     1
102
RTVSPropertyOp14
 70
     1
102
RTVSPropertyOp15
 70
     1
102
RTVSPropertyOp16
 70
     1
102
RTVSPropertyOp17
 70
     1
102
RTVSPropertyOp18
 70
     1
102
RTVSPropertyOp19
 70
     1
102
RTVSPropertyOp20
 70
     1
102
RTVSPropertyOp21
 70
     1
102
RTVSPropertyOp22
 70
     1
102
RTVSPropertyOp23
 70
     1
102
RTVSPropertyOp24
 70
     1
102
RTVSPropertyOp25
 70
     1
102
RTVSPropertyOp26
 70
     1
102
RTVSPropertyOp27
 70
     1
102
RTVSPropertyOp28
 70
     1
102
RTVSPropertyOp29
 70
     1
102
RTVSPropertyOp30
 70
     1
102
RTVSPropertyOp31
 70
     1
102
RTVSPropertyOp32
 70
     1
102
RTVSPropertyOp33
 70
     1
102
RTVSPropertyOp34
 70
     1
102
RTVSPropertyOp35
 70
     1
102
RTVSPropertyOp36
 70
     1
102
RTVSPropertyOp37
 70
     1
102
RTVSPropertyOp38
 70
     1
102
RTVSPropertyOp39
 70
     1
102
RTVSPropertyOp40
 70
     1
102
RTVSPropertyOp41
 70
     1
102
RTVSPropertyOp42
 70
     1
102
RTVSPropertyOp43
 70
     1
102
RTVSPropertyOp44
 70
     1
102
RTVSPropertyOp45
 70
     1
102
RTVSPropertyOp46
 70
     1
102
RTVSPropertyOp47
 70
     1
102
RTVSPropertyOp48
 70
     1
102
RTVSPropertyOp49
 70
     1
102
RTVSPropertyOp50
 70
     1
102
RTVSPropertyOp51
 70
     0
102
RTVSPropertyOp52
 70
     0
102
RTVSPropertyOp53
 70
     1
102
RTVSPropertyOp54
 70
     1
102
RTVSPropertyOp55
 70
     1
102
RTVSPropertyOp56
 70
     1
102
RTVSPropertyOp57
 70
     1
102
RTVSPost2010Prop28
280
     0
102
RTVSPost2010PropOp28
 70
     1
102
RTVSPost2010Prop29
280
     1
102
RTVSPost2010PropOp29
 70
     1
102
RTVSPost2010Prop30
280
     1
102
RTVSPost2010PropOp30
 70
     1
102
RTVSPost2010Prop31
280
     0
102
RTVSPost2010PropOp31
 70
     1
102
RTVSPost2010Prop32
280
     0
102
RTVSPost2010PropOp32
 70
     1
102
RTVSPost2010Prop33
280
     0
102
RTVSPost2010PropOp33
 70
     1
102
RTVSPost2010Prop34
280
     0
102
RTVSPost2010PropOp34
 70
     1
102
RTVSPost2010Prop35
280
     0
102
RTVSPost2010PropOp35
 70
     1
102
RTVSPost2010Prop36
280
     0
102
RTVSPost2010PropOp36
 70
     1
102
RTVSPost2010Prop37
 90
       50
102
RTVSPost2010PropOp37
 70
     1
102
RTVSPost2010Prop38
140
0.0
102
RTVSPost2010PropOp38
 70
     1
102
RTVSPost2010Prop39
140
1.0
102
RTVSPost2010PropOp39
 70
     1
102
RTVSPost2010Prop40
 90
        0
102
RTVSPost2010PropOp40
 70
     1
102
RTVSPost2010Prop41ColorIndex
 90
       18
102
RTVSPost2010Prop41ColorRGB
 90
        0
102
RTVSPost2010PropOp41
 70
     1
102
RTVSPost2010Prop42
 90
       50
102
RTVSPost2010PropOp42
 70
     1
102
RTVSPost2010Prop43
 90
        3
102
RTVSPost2010PropOp43
 70
     1
102
RTVSPost2010Prop44ColorIndex
 90
        5
102
RTVSPost2010Prop44ColorRGB
 90
      255
102
RTVSPost2010PropOp44
 70
     1
102
RTVSPost2010Prop45
280
     0
102
RTVSPost2010PropOp45
 70
     1
102
RTVSPost2010Prop46
 90
       50
102
RTVSPost2010PropOp46
 70
     1
102
RTVSPost2010Prop47
 90
       50
102
RTVSPost2010PropOp47
 70
     1
102
RTVSPost2010Prop48
 90
       50
102
RTVSPost2010PropOp48
 70
     1
102
RTVSPost2010Prop49
280
     0
102
RTVSPost2010PropOp49
 70
     1
102
RTVSPost2010Prop50
 90
       50
102
RTVSPost2010PropOp50
 70
     1
102
RTVSPost2010Prop51ColorIndex
 90
      256
102
RTVSPost2010Prop51ColorRGB
 90
-16777216
102
RTVSPost2010PropOp51
 70
     0
102
RTVSPost2010Prop52
140
1.0
102
RTVSPost2010PropOp52
 70
     0
102
RTVSPost2010Prop53
 90
        2
102
RTVSPost2010PropOp53
 70
     1
102
RTVSPost2010Prop54
  1
strokes_ogs.tif
102
RTVSPost2010PropOp54
 70
     1
102
RTVSPost2010Prop55
280
     0
102
RTVSPost2010PropOp55
 70
     1
102
RTVSPost2010Prop56
140
1.0
102
RTVSPost2010PropOp56
 70
     1
102
RTVSPost2010Prop57
140
1.0
102
RTVSPost2010PropOp57
 70
     1
  0
XRECORD
  5
257
102
{ACAD_REACTORS
330
256
102
}
330
256
100
AcDbXrecord
280
     1
102
RTVSPropertyOp0
 70
     1
102
RTVSPropertyOp1
 70
     1
102
RTVSPropertyOp2
 70
     1
102
RTVSPropertyOp3
 70
     1
102
RTVSPropertyOp4
 70
     1
102
RTVSPropertyOp5
 70
     1
102
RTVSPropertyOp6
 70
     1
102
RTVSPropertyOp7
 70
     1
102
RTVSPropertyOp8
 70
     1
102
RTVSPropertyOp9
 70
     1
102
RTVSPropertyOp10
 70
     1
102
RTVSPropertyOp11
 70
     1
102
RTVSPropertyOp12
 70
     1
102
RTVSPropertyOp13
 70
     1
102
RTVSPropertyOp14
 70
     1
102
RTVSPropertyOp15
 70
     1
102
RTVSPropertyOp16
 70
     1
102
RTVSPropertyOp17
 70
     1
102
RTVSPropertyOp18
 70
     1
102
RTVSPropertyOp19
 70
     1
102
RTVSPropertyOp20
 70
     1
102
RTVSPropertyOp21
 70
     1
102
RTVSPropertyOp22
 70
     1
102
RTVSPropertyOp23
 70
     1
102
RTVSPropertyOp24
 70
     1
102
RTVSPropertyOp25
 70
     1
102
RTVSPropertyOp26
 70
     1
102
RTVSPropertyOp27
 70
     1
102
RTVSPropertyOp28
 70
     1
102
RTVSPropertyOp29
 70
     1
102
RTVSPropertyOp30
 70
     1
102
RTVSPropertyOp31
 70
     1
102
RTVSPropertyOp32
 70
     1
102
RTVSPropertyOp33
 70
     1
102
RTVSPropertyOp34
 70
     1
102
RTVSPropertyOp35
 70
     1
102
RTVSPropertyOp36
 70
     1
102
RTVSPropertyOp37
 70
     1
102
RTVSPropertyOp38
 70
     1
102
RTVSPropertyOp39
 70
     1
102
RTVSPropertyOp40
 70
     1
102
RTVSPropertyOp41
 70
     1
102
RTVSPropertyOp42
 70
     1
102
RTVSPropertyOp43
 70
     1
102
RTVSPropertyOp44
 70
     1
102
RTVSPropertyOp45
 70
     1
102
RTVSPropertyOp46
 70
     1
102
RTVSPropertyOp47
 70
     1
102
RTVSPropertyOp48
 70
     1
102
RTVSPropertyOp49
 70
     1
102
RTVSPropertyOp50
 70
     1
102
RTVSPropertyOp51
 70
     0
102
RTVSPropertyOp52
 70
     0
102
RTVSPropertyOp53
 70
     1
102
RTVSPropertyOp54
 70
     1
102
RTVSPropertyOp55
 70
     1
102
RTVSPropertyOp56
 70
     1
102
RTVSPropertyOp57
 70
     1
102
RTVSPost2010Prop28
280
     0
102
RTVSPost2010PropOp28
 70
     1
102
RTVSPost2010Prop29
280
     1
102
RTVSPost2010PropOp29
 70
     1
102
RTVSPost2010Prop30
280
     1
102
RTVSPost2010PropOp30
 70
     1
102
RTVSPost2010Prop31
280
     0
102
RTVSPost2010PropOp31
 70
     1
102
RTVSPost2010Prop32
280
     0
102
RTVSPost2010PropOp32
 70
     1
102
RTVSPost2010Prop33
280
     0
102
RTVSPost2010PropOp33
 70
     1
102
RTVSPost2010Prop34
280
     0
102
RTVSPost2010PropOp34
 70
     1
102
RTVSPost2010Prop35
280
     0
102
RTVSPost2010PropOp35
 70
     1
102
RTVSPost2010Prop36
280
     0
102
RTVSPost2010PropOp36
 70
     1
102
RTVSPost2010Prop37
 90
       50
102
RTVSPost2010PropOp37
 70
     1
102
RTVSPost2010Prop38
140
0.0
102
RTVSPost2010PropOp38
 70
     1
102
RTVSPost2010Prop39
140
1.0
102
RTVSPost2010PropOp39
 70
     1
102
RTVSPost2010Prop40
 90
        0
102
RTVSPost2010PropOp40
 70
     1
102
RTVSPost2010Prop41ColorIndex
 90
       18
102
RTVSPost2010Prop41ColorRGB
 90
        0
102
RTVSPost2010PropOp41
 70
     1
102
RTVSPost2010Prop42
 90
       50
102
RTVSPost2010PropOp42
 70
     1
102
RTVSPost2010Prop43
 90
        3
102
RTVSPost2010PropOp43
 70
     1
102
RTVSPost2010Prop44ColorIndex
 90
        5
102
RTVSPost2010Prop44ColorRGB
 90
      255
102
RTVSPost2010PropOp44
 70
     1
102
RTVSPost2010Prop45
280
     0
102
RTVSPost2010PropOp45
 70
     1
102
RTVSPost2010Prop46
 90
       50
102
RTVSPost2010PropOp46
 70
     1
102
RTVSPost2010Prop47
 90
       50
102
RTVSPost2010PropOp47
 70
     1
102
RTVSPost2010Prop48
 90
       50
102
RTVSPost2010PropOp48
 70
     1
102
RTVSPost2010Prop49
280
     0
102
RTVSPost2010PropOp49
 70
     1
102
RTVSPost2010Prop50
 90
       50
102
RTVSPost2010PropOp50
 70
     1
102
RTVSPost2010Prop51ColorIndex
 90
      256
102
RTVSPost2010Prop51ColorRGB
 90
-16777216
102
RTVSPost2010PropOp51
 70
     0
102
RTVSPost2010Prop52
140
1.0
102
RTVSPost2010PropOp52
 70
     0
102
RTVSPost2010Prop53
 90
        2
102
RTVSPost2010PropOp53
 70
     1
102
RTVSPost2010Prop54
  1
strokes_ogs.tif
102
RTVSPost2010PropOp54
 70
     1
102
RTVSPost2010Prop55
280
     0
102
RTVSPost2010PropOp55
 70
     1
102
RTVSPost2010Prop56
140
1.0
102
RTVSPost2010PropOp56
 70
     1
102
RTVSPost2010Prop57
140
1.0
102
RTVSPost2010PropOp57
 70
     1
  0
ENDSEC
  0
EOF
