  0
SECTION
  2
HEADER
  9
$ACADVER
  1
AC1027
  9
$ACADMAINTVER
 70
   105
  9
$DWGCODEPAGE
  3
ANSI_932
  9
$REQUIREDVERSIONS
160
                 0
  9
$INSBASE
 10
0.0
 20
0.0
 30
0.0
  9
$EXTMIN
 10
-2100.0
 20
-1485.0
 30
0.0
  9
$EXTMAX
 10
2100.0
 20
1485.0
 30
0.0
  9
$LIMMIN
 10
-2100.0
 20
-1485.0
  9
$LIMMAX
 10
2100.0
 20
1485.0
  9
$ORTHOMODE
 70
     0
  9
$REGENMODE
 70
     1
  9
$FILLMODE
 70
     1
  9
$QTEXTMODE
 70
     0
  9
$MIRRTEXT
 70
     1
  9
$LTSCALE
 40
10.0
  9
$ATTMODE
 70
     1
  9
$TEXTSIZE
 40
2.5
  9
$TRACEWID
 40
1.0
  9
$TEXTSTYLE
  7
Standard
  9
$CLAYER
  8
0
  9
$CELTYPE
  6
ByLayer
  9
$CECOLOR
 62
   256
  9
$CELTSCALE
 40
1.0
  9
$DISPSILH
 70
     0
  9
$DIMSCALE
 40
1.0
  9
$DIMASZ
 40
2.5
  9
$DIMEXO
 40
0.625
  9
$DIMDLI
 40
3.75
  9
$DIMRND
 40
0.0
  9
$DIMDLE
 40
0.0
  9
$DIMEXE
 40
1.25
  9
$DIMTP
 40
0.0
  9
$DIMTM
 40
0.0
  9
$DIMTXT
 40
2.5
  9
$DIMCEN
 40
2.5
  9
$DIMTSZ
 40
0.0
  9
$DIMTOL
 70
     0
  9
$DIMLIM
 70
     0
  9
$DIMTIH
 70
     0
  9
$DIMTOH
 70
     0
  9
$DIMSE1
 70
     0
  9
$DIMSE2
 70
     0
  9
$DIMTAD
 70
     1
  9
$DIMZIN
 70
     8
  9
$DIMBLK
  1

  9
$DIMASO
 70
     1
  9
$DIMSHO
 70
     1
  9
$DIMPOST
  1

  9
$DIMAPOST
  1

  9
$DIMALT
 70
     0
  9
$DIMALTD
 70
     3
  9
$DIMALTF
 40
0.03937007874016
  9
$DIMLFAC
 40
1.0
  9
$DIMTOFL
 70
     1
  9
$DIMTVP
 40
0.0
  9
$DIMTIX
 70
     0
  9
$DIMSOXD
 70
     0
  9
$DIMSAH
 70
     0
  9
$DIMBLK1
  1

  9
$DIMBLK2
  1

  9
$DIMSTYLE
  2
ISO-25
  9
$DIMCLRD
 70
     0
  9
$DIMCLRE
 70
     0
  9
$DIMCLRT
 70
     0
  9
$DIMTFAC
 40
1.0
  9
$DIMGAP
 40
0.625
  9
$DIMJUST
 70
     0
  9
$DIMSD1
 70
     0
  9
$DIMSD2
 70
     0
  9
$DIMTOLJ
 70
     0
  9
$DIMTZIN
 70
     8
  9
$DIMALTZ
 70
     0
  9
$DIMALTTZ
 70
     0
  9
$DIMUPT
 70
     0
  9
$DIMDEC
 70
     2
  9
$DIMTDEC
 70
     2
  9
$DIMALTU
 70
     2
  9
$DIMALTTD
 70
     3
  9
$DIMTXSTY
  7
Standard
  9
$DIMAUNIT
 70
     0
  9
$DIMADEC
 70
     0
  9
$DIMALTRND
 40
0.0
  9
$DIMAZIN
 70
     0
  9
$DIMDSEP
 70
    44
  9
$DIMATFIT
 70
     3
  9
$DIMFRAC
 70
     0
  9
$DIMLDRBLK
  1

  9
$DIMLUNIT
 70
     2
  9
$DIMLWD
 70
    -2
  9
$DIMLWE
 70
    -2
  9
$DIMTMOVE
 70
     0
  9
$DIMFXL
 40
1.0
  9
$DIMFXLON
 70
     0
  9
$DIMJOGANG
 40
0.7853981633974483
  9
$DIMTFILL
 70
     0
  9
$DIMTFILLCLR
 70
     0
  9
$DIMARCSYM
 70
     0
  9
$DIMLTYPE
  6

  9
$DIMLTEX1
  6

  9
$DIMLTEX2
  6

  9
$DIMTXTDIRECTION
 70
     0
  9
$LUNITS
 70
     2
  9
$LUPREC
 70
     4
  9
$SKETCHINC
 40
1.0
  9
$FILLETRAD
 40
10.0
  9
$AUNITS
 70
     0
  9
$AUPREC
 70
     0
  9
$MENU
  1
.
  9
$ELEVATION
 40
0.0
  9
$PELEVATION
 40
0.0
  9
$THICKNESS
 40
0.0
  9
$LIMCHECK
 70
     0
  9
$CHAMFERA
 40
0.0
  9
$CHAMFERB
 40
0.0
  9
$CHAMFERC
 40
0.0
  9
$CHAMFERD
 40
0.0
  9
$SKPOLY
 70
     0
  9
$TDCREATE
 40
2458890.494559444
  9
$TDUCREATE
 40
2458890.119559444
  9
$TDUPDATE
 40
2458890.494559537
  9
$TDUUPDATE
 40
2458890.119559537
  9
$TDINDWG
 40
0.0000000116
  9
$TDUSRTIMER
 40
0.0000000116
  9
$USRTIMER
 70
     1
  9
$ANGBASE
 50
0.0
  9
$ANGDIR
 70
     0
  9
$PDMODE
 70
     0
  9
$PDSIZE
 40
0.0
  9
$PLINEWID
 40
0.0
  9
$SPLFRAME
 70
     0
  9
$SPLINETYPE
 70
     6
  9
$SPLINESEGS
 70
     8
  9
$HANDSEED
  5
238
  9
$SURFTAB1
 70
     6
  9
$SURFTAB2
 70
     6
  9
$SURFTYPE
 70
     6
  9
$SURFU
 70
     6
  9
$SURFV
 70
     6
  9
$UCSBASE
  2

  9
$UCSNAME
  2

  9
$UCSORG
 10
0.0
 20
0.0
 30
0.0
  9
$UCSXDIR
 10
1.0
 20
0.0
 30
0.0
  9
$UCSYDIR
 10
0.0
 20
1.0
 30
0.0
  9
$UCSORTHOREF
  2

  9
$UCSORTHOVIEW
 70
     0
  9
$UCSORGTOP
 10
0.0
 20
0.0
 30
0.0
  9
$UCSORGBOTTOM
 10
0.0
 20
0.0
 30
0.0
  9
$UCSORGLEFT
 10
0.0
 20
0.0
 30
0.0
  9
$UCSORGRIGHT
 10
0.0
 20
0.0
 30
0.0
  9
$UCSORGFRONT
 10
0.0
 20
0.0
 30
0.0
  9
$UCSORGBACK
 10
0.0
 20
0.0
 30
0.0
  9
$PUCSBASE
  2

  9
$PUCSNAME
  2

  9
$PUCSORG
 10
0.0
 20
0.0
 30
0.0
  9
$PUCSXDIR
 10
1.0
 20
0.0
 30
0.0
  9
$PUCSYDIR
 10
0.0
 20
1.0
 30
0.0
  9
$PUCSORTHOREF
  2

  9
$PUCSORTHOVIEW
 70
     0
  9
$PUCSORGTOP
 10
0.0
 20
0.0
 30
0.0
  9
$PUCSORGBOTTOM
 10
0.0
 20
0.0
 30
0.0
  9
$PUCSORGLEFT
 10
0.0
 20
0.0
 30
0.0
  9
$PUCSORGRIGHT
 10
0.0
 20
0.0
 30
0.0
  9
$PUCSORGFRONT
 10
0.0
 20
0.0
 30
0.0
  9
$PUCSORGBACK
 10
0.0
 20
0.0
 30
0.0
  9
$USERI1
 70
     0
  9
$USERI2
 70
     0
  9
$USERI3
 70
     0
  9
$USERI4
 70
     0
  9
$USERI5
 70
     0
  9
$USERR1
 40
0.0
  9
$USERR2
 40
0.0
  9
$USERR3
 40
0.0
  9
$USERR4
 40
0.0
  9
$USERR5
 40
0.0
  9
$WORLDVIEW
 70
     1
  9
$SHADEDGE
 70
     3
  9
$SHADEDIF
 70
    70
  9
$TILEMODE
 70
     1
  9
$MAXACTVP
 70
    64
  9
$PINSBASE
 10
0.0
 20
0.0
 30
0.0
  9
$PLIMCHECK
 70
     0
  9
$PEXTMIN
 10
1.000000000000000E+20
 20
1.000000000000000E+20
 30
1.000000000000000E+20
  9
$PEXTMAX
 10
-1.000000000000000E+20
 20
-1.000000000000000E+20
 30
-1.000000000000000E+20
  9
$PLIMMIN
 10
0.0
 20
0.0
  9
$PLIMMAX
 10
420.0
 20
297.0
  9
$UNITMODE
 70
     0
  9
$VISRETAIN
 70
     1
  9
$PLINEGEN
 70
     0
  9
$PSLTSCALE
 70
     1
  9
$TREEDEPTH
 70
  3020
  9
$CMLSTYLE
  2
Standard
  9
$CMLJUST
 70
     0
  9
$CMLSCALE
 40
20.0
  9
$PROXYGRAPHICS
 70
     1
  9
$MEASUREMENT
 70
     1
  9
$CELWEIGHT
370
    -1
  9
$ENDCAPS
280
     0
  9
$JOINSTYLE
280
     0
  9
$LWDISPLAY
290
     0
  9
$INSUNITS
 70
     4
  9
$HYPERLINKBASE
  1

  9
$STYLESHEET
  1

  9
$XEDIT
290
     1
  9
$CEPSNTYPE
380
     0
  9
$PSTYLEMODE
290
     1
  9
$FINGERPRINTGUID
  2
{F278E55D-FA80-4B68-9239-329D5908D3B6}
  9
$VERSIONGUID
  2
{FAEB1C32-E019-11D5-929B-00C0DF256EC4}
  9
$EXTNAMES
290
     1
  9
$PSVPSCALE
 40
0.0
  9
$OLESTARTUP
290
     0
  9
$SORTENTS
280
   127
  9
$INDEXCTL
280
     0
  9
$HIDETEXT
280
     1
  9
$XCLIPFRAME
280
     2
  9
$HALOGAP
280
     0
  9
$OBSCOLOR
 70
   257
  9
$OBSLTYPE
280
     0
  9
$INTERSECTIONDISPLAY
280
     0
  9
$INTERSECTIONCOLOR
 70
   257
  9
$DIMASSOC
280
     2
  9
$PROJECTNAME
  1

  9
$CAMERADISPLAY
290
     0
  9
$LENSLENGTH
 40
50.0
  9
$CAMERAHEIGHT
 40
0.0
  9
$STEPSPERSEC
 40
2.0
  9
$STEPSIZE
 40
6.0
  9
$3DDWFPREC
 40
2.0
  9
$PSOLWIDTH
 40
5.0
  9
$PSOLHEIGHT
 40
80.0
  9
$LOFTANG1
 40
1.570796326794897
  9
$LOFTANG2
 40
1.570796326794897
  9
$LOFTMAG1
 40
0.0
  9
$LOFTMAG2
 40
0.0
  9
$LOFTPARAM
 70
     7
  9
$LOFTNORMALS
280
     1
  9
$LATITUDE
 40
37.795
  9
$LONGITUDE
 40
-122.394
  9
$NORTHDIRECTION
 40
0.0
  9
$TIMEZONE
 70
 -8000
  9
$LIGHTGLYPHDISPLAY
280
     1
  9
$TILEMODELIGHTSYNCH
280
     1
  9
$CMATERIAL
347
44
  9
$SOLIDHIST
280
     0
  9
$SHOWHIST
280
     1
  9
$DWFFRAME
280
     2
  9
$DGNFRAME
280
     2
  9
$REALWORLDSCALE
290
     1
  9
$INTERFERECOLOR
 62
   256
  9
$CSHADOW
280
     0
  9
$SHADOWPLANELOCATION
 40
0.0
  0
ENDSEC
  0
SECTION
  2
CLASSES
  0
CLASS
  1
ACDBDICTIONARYWDFLT
  2
AcDbDictionaryWithDefault
  3
ObjectDBX Classes
 90
        0
 91
        4
280
     0
281
     0
  0
CLASS
  1
VISUALSTYLE
  2
AcDbVisualStyle
  3
ObjectDBX Classes
 90
     4095
 91
        4
280
     0
281
     0
  0
CLASS
  1
MATERIAL
  2
AcDbMaterial
  3
ObjectDBX Classes
 90
     1153
 91
        4
280
     0
281
     0
  0
CLASS
  1
SCALE
  2
AcDbScale
  3
ObjectDBX Classes
 90
     1153
 91
        4
280
     0
281
     0
  0
CLASS
  1
TABLESTYLE
  2
AcDbTableStyle
  3
ObjectDBX Classes
 90
     4095
 91
        4
280
     0
281
     0
  0
CLASS
  1
MLEADERSTYLE
  2
AcDbMLeaderStyle
  3
ACDB_MLEADERSTYLE_CLASS
 90
     4095
 91
        4
280
     0
281
     0
  0
CLASS
  1
SUN
  2
AcDbSun
  3
SCENEOE
 90
     1153
 91
        4
280
     0
281
     0
  0
CLASS
  1
DICTIONARYVAR
  2
AcDbDictionaryVar
  3
ObjectDBX Classes
 90
        0
 91
        4
280
     0
281
     0
  0
CLASS
  1
CELLSTYLEMAP
  2
AcDbCellStyleMap
  3
ObjectDBX Classes
 90
     1152
 91
        4
280
     0
281
     0
  0
ENDSEC
  0
SECTION
  2
TABLES
  0
TABLE
  2
VPORT
  5
8
330
0
100
AcDbSymbolTable
 70
     1
  0
VPORT
  5
29
330
8
100
AcDbSymbolTableRecord
100
AcDbViewportTableRecord
  2
*Active
 70
     0
 10
0.0
 20
0.0
 11
1.0
 21
1.0
 12
0.0
 22
0.0
 13
0.0
 23
0.0
 14
10.0
 24
10.0
 15
10.0
 25
10.0
 16
0.0
 26
0.0
 36
1.0
 17
0.0
 27
0.0
 37
0.0
 40
3267.0
 41
1.414141414141414
 42
50.0
 43
0.0
 44
0.0
 50
0.0
 51
0.0
 71
     0
 72
 10000
 73
     1
 74
     3
 75
     0
 76
     0
 77
     0
 78
     0
281
     0
 65
     1
110
0.0
120
0.0
130
0.0
111
1.0
121
0.0
131
0.0
112
0.0
122
1.0
132
0.0
 79
     0
146
0.0
348
2F
 60
     3
 61
     5
292
     1
282
     1
141
0.0
142
0.0
 63
   250
361
6D
  0
ENDTAB
  0
TABLE
  2
LTYPE
  5
5
330
0
100
AcDbSymbolTable
 70
     6
  0
LTYPE
  5
14
330
5
100
AcDbSymbolTableRecord
100
AcDbLinetypeTableRecord
  2
ByBlock
 70
     0
  3

 72
    65
 73
     0
 40
0.0
  0
LTYPE
  5
15
330
5
100
AcDbSymbolTableRecord
100
AcDbLinetypeTableRecord
  2
ByLayer
 70
     0
  3

 72
    65
 73
     0
 40
0.0
  0
LTYPE
  5
16
330
5
100
AcDbSymbolTableRecord
100
AcDbLinetypeTableRecord
  2
Continuous
 70
     0
  3
Solid line
 72
    65
 73
     0
 40
0.0
  0
LTYPE
  5
6F
330
5
100
AcDbSymbolTableRecord
100
AcDbLinetypeTableRecord
  2
JWW_CENTER2
 70
     0
  3
-------------  --  -------------
 72
    65
 73
     4
 40
13.54666666666667
 49
11.00666666666667
 74
     0
 49
-0.8466666666666667
 74
     0
 49
0.8466666666666667
 74
     0
 49
-0.8466666666666667
 74
     0
  0
LTYPE
  5
70
330
5
100
AcDbSymbolTableRecord
100
AcDbLinetypeTableRecord
  2
JWW_CENTER1
 70
     0
  3
-----  --  ----------  --  -----
 72
    65
 73
     4
 40
6.773333333333333
 49
4.233333333333333
 74
     0
 49
-0.8466666666666667
 74
     0
 49
0.8466666666666667
 74
     0
 49
-0.8466666666666667
 74
     0
  0
LTYPE
  5
71
330
5
100
AcDbSymbolTableRecord
100
AcDbLinetypeTableRecord
  2
JWW_DASHED1
 70
     0
  3
-  --  --  --  --  --  --  --  -
 72
    65
 73
     2
 40
1.693333333333333
 49
0.8466666666666667
 74
     0
 49
-0.8466666666666667
 74
     0
  0
LTYPE
  5
72
330
5
100
AcDbSymbolTableRecord
100
AcDbLinetypeTableRecord
  2
JWW_PHANTOM1
 70
     0
  3
----  -  -  --------  -  -  ----
 72
    65
 73
     6
 40
6.773333333333333
 49
3.386666666666667
 74
     0
 49
-0.8466666666666667
 74
     0
 49
0.4233333333333333
 74
     0
 49
-0.8466666666666667
 74
     0
 49
0.4233333333333333
 74
     0
 49
-0.8466666666666667
 74
     0
  0
LTYPE
  5
73
330
5
100
AcDbSymbolTableRecord
100
AcDbLinetypeTableRecord
  2
JWW_PHANTOM2
 70
     0
  3
------------  -  -  ------------
 72
    65
 73
     6
 40
13.54666666666667
 49
10.16
 74
     0
 49
-0.8466666666666667
 74
     0
 49
0.4233333333333333
 74
     0
 49
-0.8466666666666667
 74
     0
 49
0.4233333333333333
 74
     0
 49
-0.8466666666666667
 74
     0
  0
ENDTAB
  0
TABLE
  2
LAYER
  5
2
330
0
100
AcDbSymbolTable
 70
    18
  0
LAYER
  5
10
330
2
100
AcDbSymbolTableRecord
100
AcDbLayerTableRecord
  2
0
 70
     0
 62
     7
  6
Continuous
370
    -3
390
F
347
46
348
0
  0
LAYER
  5
74
330
2
100
AcDbSymbolTableRecord
100
AcDbLayerTableRecord
  2
C-1
 70
     0
 62
     7
  6
Continuous
370
    -3
390
F
347
46
348
0
  0
LAYER
  5
75
330
2
100
AcDbSymbolTableRecord
100
AcDbLayerTableRecord
  2
C-6
 70
     0
 62
     7
  6
Continuous
370
    -3
390
F
347
46
348
0
  0
LAYER
  5
76
330
2
100
AcDbSymbolTableRecord
100
AcDbLayerTableRecord
  2
C-0
 70
     0
 62
     7
  6
Continuous
370
    -3
390
F
347
46
348
0
  0
LAYER
  5
77
330
2
100
AcDbSymbolTableRecord
100
AcDbLayerTableRecord
  2
C-4
 70
     0
 62
     7
  6
Continuous
370
    -3
390
F
347
46
348
0
  0
LAYER
  5
78
330
2
100
AcDbSymbolTableRecord
100
AcDbLayerTableRecord
  2
C-5
 70
     0
 62
     7
  6
Continuous
370
    -3
390
F
347
46
348
0
  0
LAYER
  5
79
330
2
100
AcDbSymbolTableRecord
100
AcDbLayerTableRecord
  2
F-5ﾚｲﾔ
 70
     0
 62
     7
  6
Continuous
370
    -3
390
F
347
46
348
0
  0
LAYER
  5
7A
330
2
100
AcDbSymbolTableRecord
100
AcDbLayerTableRecord
  2
3-5
 70
     0
 62
     7
  6
Continuous
370
    -3
390
F
347
46
348
0
  0
LAYER
  5
7B
330
2
100
AcDbSymbolTableRecord
100
AcDbLayerTableRecord
  2
C-2
 70
     0
 62
     7
  6
Continuous
370
    -3
390
F
347
46
348
0
  0
LAYER
  5
7C
330
2
100
AcDbSymbolTableRecord
100
AcDbLayerTableRecord
  2
C-A
 70
     0
 62
     7
  6
Continuous
370
    -3
390
F
347
46
348
0
  0
LAYER
  5
7D
330
2
100
AcDbSymbolTableRecord
100
AcDbLayerTableRecord
  2
C-3
 70
     0
 62
     7
  6
Continuous
370
    -3
390
F
347
46
348
0
  0
LAYER
  5
7E
330
2
100
AcDbSymbolTableRecord
100
AcDbLayerTableRecord
  2
3-1
 70
     0
 62
     7
  6
Continuous
370
    -3
390
F
347
46
348
0
  0
LAYER
  5
7F
330
2
100
AcDbSymbolTableRecord
100
AcDbLayerTableRecord
  2
3-3
 70
     0
 62
     7
  6
Continuous
370
    -3
390
F
347
46
348
0
  0
LAYER
  5
80
330
2
100
AcDbSymbolTableRecord
100
AcDbLayerTableRecord
  2
3-0
 70
     0
 62
     7
  6
Continuous
370
    -3
390
F
347
46
348
0
  0
LAYER
  5
81
330
2
100
AcDbSymbolTableRecord
100
AcDbLayerTableRecord
  2
3-2
 70
     0
 62
     7
  6
Continuous
370
    -3
390
F
347
46
348
0
  0
LAYER
  5
82
330
2
100
AcDbSymbolTableRecord
100
AcDbLayerTableRecord
  2
3-4
 70
     0
 62
     7
  6
Continuous
370
    -3
390
F
347
46
348
0
  0
LAYER
  5
83
330
2
100
AcDbSymbolTableRecord
100
AcDbLayerTableRecord
  2
3-6
 70
     0
 62
     7
  6
Continuous
370
    -3
390
F
347
46
348
0
  0
LAYER
  5
84
330
2
100
AcDbSymbolTableRecord
100
AcDbLayerTableRecord
  2
3-A
 70
     0
 62
     7
  6
Continuous
370
    -3
390
F
347
46
348
0
  0
ENDTAB
  0
TABLE
  2
STYLE
  5
3
330
0
100
AcDbSymbolTable
 70
     2
  0
STYLE
  5
11
330
3
100
AcDbSymbolTableRecord
100
AcDbTextStyleTableRecord
  2
Standard
 70
     0
 40
0.0
 41
1.0
 50
0.0
 71
     0
 42
2.5
  3
txt
  4

  0
STYLE
  5
6E
330
3
100
AcDbSymbolTableRecord
100
AcDbTextStyleTableRecord
  2
ＭＳ ゴシック
 70
     0
 40
1.0
 41
1.0
 50
0.0
 71
     0
 42
2.5
  3

  4

1001
ACAD
1000
MS Gothic
1071
    32817
  0
ENDTAB
  0
TABLE
  2
VIEW
  5
6
330
0
100
AcDbSymbolTable
 70
     0
  0
ENDTAB
  0
TABLE
  2
UCS
  5
7
330
0
100
AcDbSymbolTable
 70
     0
  0
ENDTAB
  0
TABLE
  2
APPID
  5
9
330
0
100
AcDbSymbolTable
 70
     1
  0
APPID
  5
12
330
9
100
AcDbSymbolTableRecord
100
AcDbRegAppTableRecord
  2
ACAD
 70
     0
  0
ENDTAB
  0
TABLE
  2
DIMSTYLE
  5
A
330
0
100
AcDbSymbolTable
 70
     1
100
AcDbDimStyleTable
  0
DIMSTYLE
105
27
330
A
100
AcDbSymbolTableRecord
100
AcDbDimStyleTableRecord
  2
ISO-25
 70
     0
 41
2.5
 42
0.625
 43
3.75
 44
1.25
 73
     0
 74
     0
 77
     1
 78
     8
140
2.5
141
2.5
143
0.03937007874016
147
0.625
171
     3
172
     1
178
     0
271
     2
272
     2
274
     3
278
    44
283
     0
284
     8
340
11
  0
ENDTAB
  0
TABLE
  2
BLOCK_RECORD
  5
1
330
0
100
AcDbSymbolTable
 70
     1
  0
BLOCK_RECORD
  5
1F
330
1
100
AcDbSymbolTableRecord
100
AcDbBlockTableRecord
  2
*Model_Space
340
22
 70
     0
280
     1
281
     0
  0
BLOCK_RECORD
  5
1B
330
1
100
AcDbSymbolTableRecord
100
AcDbBlockTableRecord
  2
*Paper_Space
340
1E
 70
     0
280
     1
281
     0
  0
BLOCK_RECORD
  5
23
330
1
100
AcDbSymbolTableRecord
100
AcDbBlockTableRecord
  2
*Paper_Space0
340
26
 70
     0
280
     1
281
     0
  0
ENDTAB
  0
ENDSEC
  0
SECTION
  2
BLOCKS
  0
BLOCK
  5
20
330
1F
100
AcDbEntity
  8
0
100
AcDbBlockBegin
  2
*Model_Space
 70
     0
 10
0.0
 20
0.0
 30
0.0
  3
*Model_Space
  1

  0
ENDBLK
  5
21
330
1F
100
AcDbEntity
  8
0
100
AcDbBlockEnd
  0
BLOCK
  5
1C
330
1B
100
AcDbEntity
 67
     1
  8
0
100
AcDbBlockBegin
  2
*Paper_Space
 70
     0
 10
0.0
 20
0.0
 30
0.0
  3
*Paper_Space
  1

  0
ENDBLK
  5
1D
330
1B
100
AcDbEntity
 67
     1
  8
0
100
AcDbBlockEnd
  0
BLOCK
  5
24
330
23
100
AcDbEntity
  8
0
100
AcDbBlockBegin
  2
*Paper_Space0
 70
     0
 10
0.0
 20
0.0
 30
0.0
  3
*Paper_Space0
  1

  0
ENDBLK
  5
25
330
23
100
AcDbEntity
  8
0
100
AcDbBlockEnd
  0
ENDSEC
  0
SECTION
  2
ENTITIES
  0
LINE
  5
85
330
1F
100
AcDbEntity
  8
C-1
  6
Continuous
 62
     4
370
     9
100
AcDbLine
 10
-1271.889228124727
 20
-8.685709969675809
 30
0.0
 11
-1260.33303379193
 21
-74.22414479324131
 31
0.0
  0
LINE
  5
86
330
1F
100
AcDbEntity
  8
C-1
  6
Continuous
 62
     4
370
     9
100
AcDbLine
 10
-1269.624170292799
 20
-8.286319161041863
 30
0.0
 11
-1257.997552584592
 21
-74.22414479324131
 31
0.0
  0
LINE
  5
87
330
1F
100
AcDbEntity
  8
C-6
  6
Continuous
 62
     6
370
     5
100
AcDbLine
 10
-1243.619930344246
 20
-76.52400358742973
 30
0.0
 11
-955.3223871953485
 21
-76.52400358742973
 31
0.0
  0
LINE
  5
88
330
1F
100
AcDbEntity
  8
C-0
  6
JWW_CENTER2
 62
     7
370
     9
100
AcDbLine
 10
0.0
 20
798.4760119186461
 30
0.0
 11
0.0
 21
-354.723838627701
 31
0.0
  0
LINE
  5
89
330
1F
100
AcDbEntity
  8
C-0
  6
JWW_CENTER2
 62
     7
370
     9
100
AcDbLine
 10
-1306.342529707775
 20
798.4760119186461
 30
0.0
 11
-1306.342529707775
 21
-354.723838627701
 31
0.0
  0
LINE
  5
8A
330
1F
100
AcDbEntity
  8
C-4
  6
Continuous
 62
     7
370
     9
100
AcDbLine
 10
-1558.768774885342
 20
773.4759990311557
 30
0.0
 11
-1558.768774885342
 21
-76.52407571629084
 31
0.0
  0
LWPOLYLINE
  5
8B
330
1F
100
AcDbEntity
  8
C-4
  6
Continuous
 62
     7
370
     9
100
AcDbPolyline
 90
        4
 70
     1
 43
2.0
 10
-1557.768774885342
 20
773.4759990311557
 42
0.4142135623731
 10
-1558.768774885342
 20
774.4759990311557
 42
0.4142135623731
 10
-1559.768774885342
 20
773.4759990311557
 42
0.4142135623731
 10
-1558.768774885342
 20
772.4759990311557
 42
0.4142135623731
  0
LWPOLYLINE
  5
8C
330
1F
100
AcDbEntity
  8
C-4
  6
Continuous
 62
     7
370
     9
100
AcDbPolyline
 90
        4
 70
     1
 43
2.0
 10
-1557.768774885342
 20
-76.52407571629084
 42
0.4142135623731
 10
-1558.768774885342
 20
-75.52407571629084
 42
0.4142135623731
 10
-1559.768774885342
 20
-76.52407571629084
 42
0.4142135623731
 10
-1558.768774885342
 20
-77.52407571629084
 42
0.4142135623731
  0
TEXT
  5
8D
330
1F
100
AcDbEntity
  8
C-4
  6
Continuous
 62
     2
370
   211
100
AcDbText
 10
-1570.408774885342
 20
315.9759616574324
 30
0.0
 40
30.48
  1
850
 50
90.0
 41
1.083333333333333
  7
ＭＳ ゴシック
100
AcDbText
  0
LWPOLYLINE
  5
8E
330
1F
100
AcDbEntity
  8
C-4
  6
Continuous
 62
     7
370
     9
100
AcDbPolyline
 90
        4
 70
     1
 43
2.0
 10
-1557.768774885342
 20
-326.5240344763207
 42
0.4142135623731
 10
-1558.768774885342
 20
-325.5240344763207
 42
0.4142135623731
 10
-1559.768774885342
 20
-326.5240344763207
 42
0.4142135623731
 10
-1558.768774885342
 20
-327.5240344763207
 42
0.4142135623731
  0
TEXT
  5
8F
330
1F
100
AcDbEntity
  8
C-4
  6
Continuous
 62
     2
370
   211
100
AcDbText
 10
-1570.408774885342
 20
-234.0240550963057
 30
0.0
 40
30.48
  1
250
 50
90.0
 41
1.083333333333333
  7
ＭＳ ゴシック
100
AcDbText
  0
LINE
  5
90
330
1F
100
AcDbEntity
  8
C-4
  6
Continuous
 62
     7
370
     9
100
AcDbLine
 10
-1558.768774885342
 20
-76.52407571629084
 30
0.0
 11
-1558.768774885342
 21
-406.6191008831912
 31
0.0
  0
LWPOLYLINE
  5
91
330
1F
100
AcDbEntity
  8
C-4
  6
Continuous
 62
     7
370
     9
100
AcDbPolyline
 90
        4
 70
     1
 43
2.0
 10
-1557.768774885342
 20
-329.723926262638
 42
0.4142135623731
 10
-1558.768774885342
 20
-328.723926262638
 42
0.4142135623731
 10
-1559.768774885342
 20
-329.723926262638
 42
0.4142135623731
 10
-1558.768774885342
 20
-330.723926262638
 42
0.4142135623731
  0
LINE
  5
92
330
1F
100
AcDbEntity
  8
C-4
  6
Continuous
 62
     7
370
     9
100
AcDbLine
 10
-1561.768774885342
 20
-329.723926262638
 30
0.0
 11
-1530.881939018759
 21
-329.723926262638
 31
0.0
  0
TEXT
  5
93
330
1F
100
AcDbEntity
  8
C-4
  6
Continuous
 62
     2
370
   211
100
AcDbText
 10
-1570.408774885342
 20
-399.1758384718437
 30
0.0
 40
30.48
  1
3.2
 50
90.0
 41
1.083333333333333
  7
ＭＳ ゴシック
100
AcDbText
  0
TEXT
  5
94
330
1F
100
AcDbEntity
  8
C-5
  6
Continuous
 62
     2
370
     9
100
AcDbText
 10
-1110.474334605835
 20
-60.5056966278719
 30
0.0
 40
30.48
  1
▽G.L.
 41
1.104166666666667
  7
ＭＳ ゴシック
100
AcDbText
  0
LINE
  5
95
330
1F
100
AcDbEntity
  8
C-4
  6
Continuous
 62
     7
370
     9
100
AcDbLine
 10
-981.4194904590869
 20
-76.52392626263804
 30
0.0
 11
-981.4194904590869
 21
-329.723926262638
 31
0.0
  0
LWPOLYLINE
  5
96
330
1F
100
AcDbEntity
  8
C-4
  6
Continuous
 62
     7
370
     9
100
AcDbPolyline
 90
        4
 70
     1
 43
2.0
 10
-980.419490459087
 20
-76.52392626263804
 42
0.4142135623731
 10
-981.4194904590869
 20
-75.52392626263804
 42
0.4142135623731
 10
-982.4194904590868
 20
-76.52392626263804
 42
0.4142135623731
 10
-981.4194904590869
 20
-77.52392626263804
 42
0.4142135623731
  0
LWPOLYLINE
  5
97
330
1F
100
AcDbEntity
  8
C-4
  6
Continuous
 62
     7
370
     9
100
AcDbPolyline
 90
        4
 70
     1
 43
2.0
 10
-980.419490459087
 20
-329.723926262638
 42
0.4142135623731
 10
-981.4194904590869
 20
-328.723926262638
 42
0.4142135623731
 10
-982.4194904590868
 20
-329.723926262638
 42
0.4142135623731
 10
-981.4194904590869
 20
-330.723926262638
 42
0.4142135623731
  0
LINE
  5
98
330
1F
100
AcDbEntity
  8
C-4
  6
Continuous
 62
     7
370
     9
100
AcDbLine
 10
-978.419490459087
 20
-329.723926262638
 30
0.0
 11
-1086.342529707775
 21
-329.723926262638
 31
0.0
  0
TEXT
  5
99
330
1F
100
AcDbEntity
  8
C-4
  6
Continuous
 62
     2
370
   211
100
AcDbText
 10
-993.059490459087
 20
-258.123926262638
 30
0.0
 40
30.48
  1
253.2
 50
90.0
 41
1.1
  7
ＭＳ ゴシック
100
AcDbText
  0
LINE
  5
9A
330
1F
100
AcDbEntity
  8
C-4
  6
Continuous
 62
     7
370
     9
100
AcDbLine
 10
-981.4194904590869
 20
-329.723926262638
 30
0.0
 11
-981.4194904590869
 21
-429.723926262638
 31
0.0
  0
LWPOLYLINE
  5
9B
330
1F
100
AcDbEntity
  8
C-4
  6
Continuous
 62
     7
370
     9
100
AcDbPolyline
 90
        4
 70
     1
 43
2.0
 10
-980.419490459087
 20
-429.723926262638
 42
0.4142135623731
 10
-981.4194904590869
 20
-428.723926262638
 42
0.4142135623731
 10
-982.4194904590868
 20
-429.723926262638
 42
0.4142135623731
 10
-981.4194904590869
 20
-430.723926262638
 42
0.4142135623731
  0
LINE
  5
9C
330
1F
100
AcDbEntity
  8
C-4
  6
Continuous
 62
     7
370
     9
100
AcDbLine
 10
-978.419490459087
 20
-429.723926262638
 30
0.0
 11
-1086.342529707775
 21
-429.723926262638
 31
0.0
  0
TEXT
  5
9D
330
1F
100
AcDbEntity
  8
C-4
  6
Continuous
 62
     2
370
   211
100
AcDbText
 10
-993.059490459087
 20
-412.223926262638
 30
0.0
 40
30.48
  1
100
 50
90.0
 41
1.083333333333333
  7
ＭＳ ゴシック
100
AcDbText
  0
LINE
  5
9E
330
1F
100
AcDbEntity
  8
C-4
  6
Continuous
 62
     7
370
     9
100
AcDbLine
 10
-1506.342529707774
 20
-690.6209532443665
 30
0.0
 11
-1106.342529707775
 21
-690.6209532443665
 31
0.0
  0
LWPOLYLINE
  5
9F
330
1F
100
AcDbEntity
  8
C-4
  6
Continuous
 62
     7
370
     9
100
AcDbPolyline
 90
        4
 70
     1
 43
2.0
 10
-1505.342529707775
 20
-690.6209532443665
 42
0.4142135623731
 10
-1506.342529707774
 20
-689.6209532443665
 42
0.4142135623731
 10
-1507.342529707774
 20
-690.6209532443665
 42
0.4142135623731
 10
-1506.342529707774
 20
-691.6209532443665
 42
0.4142135623731
  0
LWPOLYLINE
  5
A0
330
1F
100
AcDbEntity
  8
C-4
  6
Continuous
 62
     7
370
     9
100
AcDbPolyline
 90
        4
 70
     1
 43
2.0
 10
-1105.342529707775
 20
-690.6209532443665
 42
0.4142135623731
 10
-1106.342529707775
 20
-689.6209532443665
 42
0.4142135623731
 10
-1107.342529707775
 20
-690.6209532443665
 42
0.4142135623731
 10
-1106.342529707775
 20
-691.6209532443665
 42
0.4142135623731
  0
LINE
  5
A1
330
1F
100
AcDbEntity
  8
C-4
  6
Continuous
 62
     7
370
     9
100
AcDbLine
 10
-1506.342529707774
 20
-693.6209532443667
 30
0.0
 11
-1506.342529707774
 21
-449.723926262638
 31
0.0
  0
LINE
  5
A2
330
1F
100
AcDbEntity
  8
C-4
  6
Continuous
 62
     7
370
     9
100
AcDbLine
 10
-1106.342529707775
 20
-693.6209532443667
 30
0.0
 11
-1106.342529707775
 21
-449.723926262638
 31
0.0
  0
LINE
  5
A3
330
1F
100
AcDbEntity
  8
C-4
  6
Continuous
 62
     7
370
     9
100
AcDbLine
 10
-1456.342529707775
 20
-577.0291165096728
 30
0.0
 11
-1156.342529707775
 21
-577.0291165096728
 31
0.0
  0
LWPOLYLINE
  5
A4
330
1F
100
AcDbEntity
  8
C-4
  6
Continuous
 62
     7
370
     9
100
AcDbPolyline
 90
        4
 70
     1
 43
2.0
 10
-1455.342529707775
 20
-577.0291165096728
 42
0.4142135623731
 10
-1456.342529707775
 20
-576.0291165096728
 42
0.4142135623731
 10
-1457.342529707775
 20
-577.0291165096728
 42
0.4142135623731
 10
-1456.342529707775
 20
-578.0291165096728
 42
0.4142135623731
  0
LWPOLYLINE
  5
A5
330
1F
100
AcDbEntity
  8
C-4
  6
Continuous
 62
     7
370
     9
100
AcDbPolyline
 90
        4
 70
     1
 43
2.0
 10
-1155.342529707775
 20
-577.0291165096728
 42
0.4142135623731
 10
-1156.342529707775
 20
-576.0291165096728
 42
0.4142135623731
 10
-1157.342529707775
 20
-577.0291165096728
 42
0.4142135623731
 10
-1156.342529707775
 20
-578.0291165096728
 42
0.4142135623731
  0
LINE
  5
A6
330
1F
100
AcDbEntity
  8
C-4
  6
Continuous
 62
     7
370
     9
100
AcDbLine
 10
-1456.342529707775
 20
-580.0291165096733
 30
0.0
 11
-1456.342529707775
 21
-449.723926262638
 31
0.0
  0
LINE
  5
A7
330
1F
100
AcDbEntity
  8
C-4
  6
Continuous
 62
     7
370
     9
100
AcDbLine
 10
-1156.342529707775
 20
-580.0291165096733
 30
0.0
 11
-1156.342529707775
 21
-449.723926262638
 31
0.0
  0
TEXT
  5
A8
330
1F
100
AcDbEntity
  8
C-4
  6
Continuous
 62
     2
370
   211
100
AcDbText
 10
-1361.342529707774
 20
-674.9809532443666
 30
0.0
 40
30.48
  1
□400
 41
1.099999999999997
  7
ＭＳ ゴシック
100
AcDbText
  0
TEXT
  5
A9
330
1F
100
AcDbEntity
  8
C-4
  6
Continuous
 62
     2
370
   211
100
AcDbText
 10
-1361.342529707774
 20
-561.3891165096728
 30
0.0
 40
30.48
  1
□300
 41
1.099999999999997
  7
ＭＳ ゴシック
100
AcDbText
  0
TEXT
  5
AA
330
1F
100
AcDbEntity
  8
C-5
  6
Continuous
 62
     2
370
     9
100
AcDbText
 10
199.6311390273669
 20
-60.5056966278719
 30
0.0
 40
30.48
  1
▽G.L.
 41
1.104166666666667
  7
ＭＳ ゴシック
100
AcDbText
  0
LINE
  5
AB
330
1F
100
AcDbEntity
  8
C-4
  6
Continuous
 62
     7
370
     9
100
AcDbLine
 10
-1659.958673794584
 20
773.4759990311557
 30
0.0
 11
-1659.958673794584
 21
-326.5240344763207
 31
0.0
  0
LWPOLYLINE
  5
AC
330
1F
100
AcDbEntity
  8
C-4
  6
Continuous
 62
     7
370
     9
100
AcDbPolyline
 90
        4
 70
     1
 43
2.0
 10
-1658.958673794584
 20
773.4759990311557
 42
0.4142135623731
 10
-1659.958673794584
 20
774.4759990311557
 42
0.4142135623731
 10
-1660.958673794584
 20
773.4759990311557
 42
0.4142135623731
 10
-1659.958673794584
 20
772.4759990311557
 42
0.4142135623731
  0
LWPOLYLINE
  5
AD
330
1F
100
AcDbEntity
  8
C-4
  6
Continuous
 62
     7
370
     9
100
AcDbPolyline
 90
        4
 70
     1
 43
2.0
 10
-1658.958673794584
 20
-326.5240344763207
 42
0.4142135623731
 10
-1659.958673794584
 20
-325.5240344763207
 42
0.4142135623731
 10
-1660.958673794584
 20
-326.5240344763207
 42
0.4142135623731
 10
-1659.958673794584
 20
-327.5240344763207
 42
0.4142135623731
  0
LINE
  5
AE
330
1F
100
AcDbEntity
  8
C-4
  6
Continuous
 62
     7
370
     9
100
AcDbLine
 10
-1662.958673794584
 20
773.4759990311557
 30
0.0
 11
-1326.342529707775
 21
773.4759990311557
 31
0.0
  0
TEXT
  5
AF
330
1F
100
AcDbEntity
  8
C-4
  6
Continuous
 62
     2
370
   211
100
AcDbText
 10
-1671.598673794584
 20
179.7259822774175
 30
0.0
 40
30.48
  1
1100
 50
90.0
 41
1.09375
  7
ＭＳ ゴシック
100
AcDbText
  0
TEXT
  5
B0
330
1F
100
AcDbEntity
  8
F-5ﾚｲﾔ
  6
Continuous
 62
     2
370
     0
100
AcDbText
 10
-778.5003505397486
 20
-1326.363350089075
 30
0.0
 40
30.48
  1
車止め　ステンレス製　先付タイプ
 41
0.8984374999999999
  7
ＭＳ ゴシック
100
AcDbText
  0
TEXT
  5
B1
330
1F
100
AcDbEntity
  8
3-5
  6
Continuous
 62
     2
370
     9
100
AcDbText
 10
1555.500299513717
 20
-426.6219839715034
 30
0.0
 40
30.48
  1
▽G.L.
 41
1.104166666666667
  7
ＭＳ ゴシック
100
AcDbText
  0
LINE
  5
B2
330
1F
100
AcDbEntity
  8
3-5
  6
Continuous
 62
     7
370
     9
100
AcDbLine
 10
830.3510250141136
 20
-716.8378649189186
 30
0.0
 11
1446.351025014113
 21
-716.8378649189186
 31
0.0
  0
LINE
  5
B3
330
1F
100
AcDbEntity
  8
3-5
  6
Continuous
 62
     7
370
     9
100
AcDbLine
 10
830.3510250141136
 20
-786.8378649189186
 30
0.0
 11
1446.351025014113
 21
-786.8378649189186
 31
0.0
  0
LINE
  5
B4
330
1F
100
AcDbEntity
  8
3-5
  6
Continuous
 62
     7
370
     9
100
AcDbLine
 10
830.3510250141136
 20
-716.8378649189186
 30
0.0
 11
830.3510250141136
 21
-786.8378649189186
 31
0.0
  0
LINE
  5
B5
330
1F
100
AcDbEntity
  8
3-5
  6
Continuous
 62
     7
370
     9
100
AcDbLine
 10
1446.351025014113
 20
-716.8378649189186
 30
0.0
 11
1446.351025014113
 21
-786.8378649189186
 31
0.0
  0
TEXT
  5
B6
330
1F
100
AcDbEntity
  8
3-5
  6
Continuous
 62
     2
370
     9
100
AcDbText
 10
848.3510250141137
 20
-766.1978649189188
 30
0.0
 40
30.48
  1
南京錠部詳細図　Ｓ＝１：３
 41
1.115384615384615
  7
ＭＳ ゴシック
100
AcDbText
  0
LINE
  5
B7
330
1F
100
AcDbEntity
  8
3-5
  6
Continuous
 62
     7
370
     9
100
AcDbLine
 10
830.3510250141136
 20
357.554929047609
 30
0.0
 11
1446.351025014113
 21
357.554929047609
 31
0.0
  0
LINE
  5
B8
330
1F
100
AcDbEntity
  8
3-5
  6
Continuous
 62
     7
370
     9
100
AcDbLine
 10
830.3510250141136
 20
287.554929047609
 30
0.0
 11
1446.351025014113
 21
287.554929047609
 31
0.0
  0
LINE
  5
B9
330
1F
100
AcDbEntity
  8
3-5
  6
Continuous
 62
     7
370
     9
100
AcDbLine
 10
830.3510250141136
 20
357.554929047609
 30
0.0
 11
830.3510250141136
 21
287.554929047609
 31
0.0
  0
LINE
  5
BA
330
1F
100
AcDbEntity
  8
3-5
  6
Continuous
 62
     7
370
     9
100
AcDbLine
 10
1446.351025014113
 20
357.554929047609
 30
0.0
 11
1446.351025014113
 21
287.554929047609
 31
0.0
  0
TEXT
  5
BB
330
1F
100
AcDbEntity
  8
3-5
  6
Continuous
 62
     2
370
     9
100
AcDbText
 10
848.3510250141137
 20
308.194929047609
 30
0.0
 40
30.48
  1
フック部詳細図　Ｓ＝１：３
 41
1.115384615384615
  7
ＭＳ ゴシック
100
AcDbText
  0
LINE
  5
BC
330
1F
100
AcDbEntity
  8
C-6
  6
Continuous
 62
     6
370
     5
100
AcDbLine
 10
-1456.342529707775
 20
-329.7240035874296
 30
0.0
 11
-1456.342529707775
 21
-76.52400358742973
 31
0.0
  0
LINE
  5
BD
330
1F
100
AcDbEntity
  8
C-6
  6
Continuous
 62
     6
370
     5
100
AcDbLine
 10
-1156.342529707775
 20
-329.7240035874296
 30
0.0
 11
-1156.342529707775
 21
-76.52400358742973
 31
0.0
  0
LINE
  5
BE
330
1F
100
AcDbEntity
  8
C-6
  6
Continuous
 62
     6
370
     5
100
AcDbLine
 10
-1106.342529707775
 20
-429.7240035874296
 30
0.0
 11
-1106.342529707775
 21
-329.7240035874296
 31
0.0
  0
LINE
  5
BF
330
1F
100
AcDbEntity
  8
C-6
  6
Continuous
 62
     6
370
     5
100
AcDbLine
 10
-1506.342529707775
 20
-329.7240035874296
 30
0.0
 11
-1106.342529707775
 21
-329.7240035874296
 31
0.0
  0
LINE
  5
C0
330
1F
100
AcDbEntity
  8
C-6
  6
Continuous
 62
     6
370
     5
100
AcDbLine
 10
-1506.342529707775
 20
-429.7240035874296
 30
0.0
 11
-1506.342529707775
 21
-329.7240035874296
 31
0.0
  0
LINE
  5
C1
330
1F
100
AcDbEntity
  8
C-6
  6
Continuous
 62
     6
370
     5
100
AcDbLine
 10
-1506.342529707775
 20
-429.7240035874296
 30
0.0
 11
-1106.342529707775
 21
-429.7240035874296
 31
0.0
  0
LINE
  5
C2
330
1F
100
AcDbEntity
  8
C-6
  6
Continuous
 62
     6
370
     5
100
AcDbLine
 10
-1306.342529707775
 20
-329.7240035874296
 30
0.0
 11
-1333.137448950887
 21
-429.7240035874296
 31
0.0
  0
LINE
  5
C3
330
1F
100
AcDbEntity
  8
C-6
  6
Continuous
 62
     6
370
     5
100
AcDbLine
 10
-1320.088080137347
 20
-429.7240035874296
 30
0.0
 11
-1326.612764544117
 21
-405.3735498780117
 31
0.0
  0
LINE
  5
C4
330
1F
100
AcDbEntity
  8
C-6
  6
Continuous
 62
     6
370
     5
100
AcDbLine
 10
-1319.391898521315
 20
-329.7240035874296
 30
0.0
 11
-1312.867214114545
 21
-354.0744572968478
 31
0.0
  0
LINE
  5
C5
330
1F
100
AcDbEntity
  8
C-6
  6
Continuous
 62
     6
370
     5
100
AcDbLine
 10
-1356.342529707775
 20
-329.7240035874296
 30
0.0
 11
-1383.137448950887
 21
-429.7240035874296
 31
0.0
  0
LINE
  5
C6
330
1F
100
AcDbEntity
  8
C-6
  6
Continuous
 62
     6
370
     5
100
AcDbLine
 10
-1370.088080137347
 20
-429.7240035874296
 30
0.0
 11
-1376.612764544117
 21
-405.3735498780117
 31
0.0
  0
LINE
  5
C7
330
1F
100
AcDbEntity
  8
C-6
  6
Continuous
 62
     6
370
     5
100
AcDbLine
 10
-1369.391898521315
 20
-329.7240035874296
 30
0.0
 11
-1362.867214114545
 21
-354.0744572968478
 31
0.0
  0
LINE
  5
C8
330
1F
100
AcDbEntity
  8
C-6
  6
Continuous
 62
     6
370
     5
100
AcDbLine
 10
-1406.342529707775
 20
-329.7240035874296
 30
0.0
 11
-1433.137448950887
 21
-429.7240035874296
 31
0.0
  0
LINE
  5
C9
330
1F
100
AcDbEntity
  8
C-6
  6
Continuous
 62
     6
370
     5
100
AcDbLine
 10
-1420.088080137347
 20
-429.7240035874296
 30
0.0
 11
-1426.612764544117
 21
-405.3735498780117
 31
0.0
  0
LINE
  5
CA
330
1F
100
AcDbEntity
  8
C-6
  6
Continuous
 62
     6
370
     5
100
AcDbLine
 10
-1419.391898521315
 20
-329.7240035874296
 30
0.0
 11
-1412.867214114545
 21
-354.0744572968478
 31
0.0
  0
LINE
  5
CB
330
1F
100
AcDbEntity
  8
C-6
  6
Continuous
 62
     6
370
     5
100
AcDbLine
 10
-1456.342529707775
 20
-329.7240035874296
 30
0.0
 11
-1483.137448950887
 21
-429.7240035874296
 31
0.0
  0
LINE
  5
CC
330
1F
100
AcDbEntity
  8
C-6
  6
Continuous
 62
     6
370
     5
100
AcDbLine
 10
-1470.088080137347
 20
-429.7240035874296
 30
0.0
 11
-1476.612764544117
 21
-405.3735498780117
 31
0.0
  0
LINE
  5
CD
330
1F
100
AcDbEntity
  8
C-6
  6
Continuous
 62
     6
370
     5
100
AcDbLine
 10
-1469.391898521314
 20
-329.7240035874296
 30
0.0
 11
-1462.867214114545
 21
-354.0744572968478
 31
0.0
  0
LINE
  5
CE
330
1F
100
AcDbEntity
  8
C-6
  6
Continuous
 62
     6
370
     5
100
AcDbLine
 10
-1256.342529707775
 20
-329.7240035874296
 30
0.0
 11
-1283.137448950887
 21
-429.7240035874296
 31
0.0
  0
LINE
  5
CF
330
1F
100
AcDbEntity
  8
C-6
  6
Continuous
 62
     6
370
     5
100
AcDbLine
 10
-1270.088080137347
 20
-429.7240035874296
 30
0.0
 11
-1276.612764544117
 21
-405.3735498780117
 31
0.0
  0
LINE
  5
D0
330
1F
100
AcDbEntity
  8
C-6
  6
Continuous
 62
     6
370
     5
100
AcDbLine
 10
-1269.391898521315
 20
-329.7240035874296
 30
0.0
 11
-1262.867214114545
 21
-354.0744572968478
 31
0.0
  0
LINE
  5
D1
330
1F
100
AcDbEntity
  8
C-6
  6
Continuous
 62
     6
370
     5
100
AcDbLine
 10
-1206.342529707775
 20
-329.7240035874296
 30
0.0
 11
-1233.137448950887
 21
-429.7240035874296
 31
0.0
  0
LINE
  5
D2
330
1F
100
AcDbEntity
  8
C-6
  6
Continuous
 62
     6
370
     5
100
AcDbLine
 10
-1220.088080137347
 20
-429.7240035874296
 30
0.0
 11
-1226.612764544117
 21
-405.3735498780117
 31
0.0
  0
LINE
  5
D3
330
1F
100
AcDbEntity
  8
C-6
  6
Continuous
 62
     6
370
     5
100
AcDbLine
 10
-1219.391898521315
 20
-329.7240035874296
 30
0.0
 11
-1212.867214114545
 21
-354.0744572968478
 31
0.0
  0
LINE
  5
D4
330
1F
100
AcDbEntity
  8
C-6
  6
Continuous
 62
     6
370
     5
100
AcDbLine
 10
-1156.342529707775
 20
-329.7240035874296
 30
0.0
 11
-1183.137448950887
 21
-429.7240035874296
 31
0.0
  0
LINE
  5
D5
330
1F
100
AcDbEntity
  8
C-6
  6
Continuous
 62
     6
370
     5
100
AcDbLine
 10
-1170.088080137347
 20
-429.7240035874296
 30
0.0
 11
-1176.612764544117
 21
-405.3735498780117
 31
0.0
  0
LINE
  5
D6
330
1F
100
AcDbEntity
  8
C-6
  6
Continuous
 62
     6
370
     5
100
AcDbLine
 10
-1169.391898521315
 20
-329.7240035874296
 30
0.0
 11
-1162.867214114545
 21
-354.0744572968478
 31
0.0
  0
LINE
  5
D7
330
1F
100
AcDbEntity
  8
C-6
  6
Continuous
 62
     6
370
     5
100
AcDbLine
 10
-1106.342529707775
 20
-329.7240035874296
 30
0.0
 11
-1133.137448950887
 21
-429.7240035874296
 31
0.0
  0
LINE
  5
D8
330
1F
100
AcDbEntity
  8
C-6
  6
Continuous
 62
     6
370
     5
100
AcDbLine
 10
-1120.088080137347
 20
-429.7240035874296
 30
0.0
 11
-1126.612764544117
 21
-405.3735498780117
 31
0.0
  0
LINE
  5
D9
330
1F
100
AcDbEntity
  8
C-6
  6
Continuous
 62
     6
370
     5
100
AcDbLine
 10
-1119.391898521315
 20
-329.7240035874296
 30
0.0
 11
-1112.867214114545
 21
-354.0744572968478
 31
0.0
  0
LINE
  5
DA
330
1F
100
AcDbEntity
  8
C-6
  6
Continuous
 62
     6
370
     5
100
AcDbLine
 10
-150.0
 20
-329.7240035874296
 30
0.0
 11
-150.0
 21
-76.52400358742973
 31
0.0
  0
LINE
  5
DB
330
1F
100
AcDbEntity
  8
C-6
  6
Continuous
 62
     6
370
     5
100
AcDbLine
 10
149.9999999999999
 20
-329.7240035874296
 30
0.0
 11
149.9999999999999
 21
-76.52400358742973
 31
0.0
  0
LINE
  5
DC
330
1F
100
AcDbEntity
  8
C-6
  6
Continuous
 62
     6
370
     5
100
AcDbLine
 10
199.9999999999999
 20
-429.7240035874296
 30
0.0
 11
199.9999999999999
 21
-329.7240035874296
 31
0.0
  0
LINE
  5
DD
330
1F
100
AcDbEntity
  8
C-6
  6
Continuous
 62
     6
370
     5
100
AcDbLine
 10
-200.0
 20
-329.7240035874296
 30
0.0
 11
200.0
 21
-329.7240035874296
 31
0.0
  0
LINE
  5
DE
330
1F
100
AcDbEntity
  8
C-6
  6
Continuous
 62
     6
370
     5
100
AcDbLine
 10
-200.0
 20
-429.7240035874296
 30
0.0
 11
-200.0
 21
-329.7240035874296
 31
0.0
  0
LINE
  5
DF
330
1F
100
AcDbEntity
  8
C-6
  6
Continuous
 62
     6
370
     5
100
AcDbLine
 10
-200.0
 20
-429.7240035874296
 30
0.0
 11
200.0
 21
-429.7240035874296
 31
0.0
  0
LINE
  5
E0
330
1F
100
AcDbEntity
  8
C-6
  6
Continuous
 62
     6
370
     5
100
AcDbLine
 10
0.0
 20
-329.7240035874296
 30
0.0
 11
-26.79491924311236
 21
-429.7240035874296
 31
0.0
  0
LINE
  5
E1
330
1F
100
AcDbEntity
  8
C-6
  6
Continuous
 62
     6
370
     5
100
AcDbLine
 10
-13.7455504295724
 20
-429.7240035874296
 30
0.0
 11
-20.27023483634252
 21
-405.3735498780117
 31
0.0
  0
LINE
  5
E2
330
1F
100
AcDbEntity
  8
C-6
  6
Continuous
 62
     6
370
     5
100
AcDbLine
 10
-13.04936881354024
 20
-329.7240035874296
 30
0.0
 11
-6.52468440677012
 21
-354.0744572968478
 31
0.0
  0
LINE
  5
E3
330
1F
100
AcDbEntity
  8
C-6
  6
Continuous
 62
     6
370
     5
100
AcDbLine
 10
-50.0
 20
-329.7240035874296
 30
0.0
 11
-76.79491924311236
 21
-429.7240035874296
 31
0.0
  0
LINE
  5
E4
330
1F
100
AcDbEntity
  8
C-6
  6
Continuous
 62
     6
370
     5
100
AcDbLine
 10
-63.7455504295724
 20
-429.7240035874296
 30
0.0
 11
-70.27023483634252
 21
-405.3735498780117
 31
0.0
  0
LINE
  5
E5
330
1F
100
AcDbEntity
  8
C-6
  6
Continuous
 62
     6
370
     5
100
AcDbLine
 10
-63.04936881354024
 20
-329.7240035874296
 30
0.0
 11
-56.52468440677012
 21
-354.0744572968478
 31
0.0
  0
LINE
  5
E6
330
1F
100
AcDbEntity
  8
C-6
  6
Continuous
 62
     6
370
     5
100
AcDbLine
 10
-100.0
 20
-329.7240035874296
 30
0.0
 11
-126.7949192431124
 21
-429.7240035874296
 31
0.0
  0
LINE
  5
E7
330
1F
100
AcDbEntity
  8
C-6
  6
Continuous
 62
     6
370
     5
100
AcDbLine
 10
-113.7455504295724
 20
-429.7240035874296
 30
0.0
 11
-120.2702348363425
 21
-405.3735498780117
 31
0.0
  0
LINE
  5
E8
330
1F
100
AcDbEntity
  8
C-6
  6
Continuous
 62
     6
370
     5
100
AcDbLine
 10
-113.0493688135402
 20
-329.7240035874296
 30
0.0
 11
-106.5246844067701
 21
-354.0744572968478
 31
0.0
  0
LINE
  5
E9
330
1F
100
AcDbEntity
  8
C-6
  6
Continuous
 62
     6
370
     5
100
AcDbLine
 10
-150.0
 20
-329.7240035874296
 30
0.0
 11
-176.7949192431121
 21
-429.7240035874296
 31
0.0
  0
LINE
  5
EA
330
1F
100
AcDbEntity
  8
C-6
  6
Continuous
 62
     6
370
     5
100
AcDbLine
 10
-163.7455504295724
 20
-429.7240035874296
 30
0.0
 11
-170.270234836342
 21
-405.3735498780117
 31
0.0
  0
LINE
  5
EB
330
1F
100
AcDbEntity
  8
C-6
  6
Continuous
 62
     6
370
     5
100
AcDbLine
 10
-163.0493688135397
 20
-329.7240035874296
 30
0.0
 11
-156.5246844067701
 21
-354.0744572968478
 31
0.0
  0
LINE
  5
EC
330
1F
100
AcDbEntity
  8
C-6
  6
Continuous
 62
     6
370
     5
100
AcDbLine
 10
49.99999999999986
 20
-329.7240035874296
 30
0.0
 11
23.20508075688764
 21
-429.7240035874296
 31
0.0
  0
LINE
  5
ED
330
1F
100
AcDbEntity
  8
C-6
  6
Continuous
 62
     6
370
     5
100
AcDbLine
 10
36.2544495704276
 20
-429.7240035874296
 30
0.0
 11
29.72976516365748
 21
-405.3735498780117
 31
0.0
  0
LINE
  5
EE
330
1F
100
AcDbEntity
  8
C-6
  6
Continuous
 62
     6
370
     5
100
AcDbLine
 10
36.95063118645976
 20
-329.7240035874296
 30
0.0
 11
43.47531559322988
 21
-354.0744572968478
 31
0.0
  0
LINE
  5
EF
330
1F
100
AcDbEntity
  8
C-6
  6
Continuous
 62
     6
370
     5
100
AcDbLine
 10
99.99999999999986
 20
-329.7240035874296
 30
0.0
 11
73.20508075688764
 21
-429.7240035874296
 31
0.0
  0
LINE
  5
F0
330
1F
100
AcDbEntity
  8
C-6
  6
Continuous
 62
     6
370
     5
100
AcDbLine
 10
86.2544495704276
 20
-429.7240035874296
 30
0.0
 11
79.72976516365748
 21
-405.3735498780117
 31
0.0
  0
LINE
  5
F1
330
1F
100
AcDbEntity
  8
C-6
  6
Continuous
 62
     6
370
     5
100
AcDbLine
 10
86.9506311864599
 20
-329.7240035874296
 30
0.0
 11
93.47531559323002
 21
-354.0744572968478
 31
0.0
  0
LINE
  5
F2
330
1F
100
AcDbEntity
  8
C-6
  6
Continuous
 62
     6
370
     5
100
AcDbLine
 10
149.9999999999999
 20
-329.7240035874296
 30
0.0
 11
123.2050807568876
 21
-429.7240035874296
 31
0.0
  0
LINE
  5
F3
330
1F
100
AcDbEntity
  8
C-6
  6
Continuous
 62
     6
370
     5
100
AcDbLine
 10
136.2544495704276
 20
-429.7240035874296
 30
0.0
 11
129.7297651636575
 21
-405.3735498780117
 31
0.0
  0
LINE
  5
F4
330
1F
100
AcDbEntity
  8
C-6
  6
Continuous
 62
     6
370
     5
100
AcDbLine
 10
136.9506311864599
 20
-329.7240035874296
 30
0.0
 11
143.47531559323
 21
-354.0744572968478
 31
0.0
  0
LINE
  5
F5
330
1F
100
AcDbEntity
  8
C-6
  6
Continuous
 62
     6
370
     5
100
AcDbLine
 10
199.9999999999999
 20
-329.7240035874296
 30
0.0
 11
173.2050807568876
 21
-429.7240035874296
 31
0.0
  0
LINE
  5
F6
330
1F
100
AcDbEntity
  8
C-6
  6
Continuous
 62
     6
370
     5
100
AcDbLine
 10
186.2544495704276
 20
-429.7240035874296
 30
0.0
 11
179.7297651636575
 21
-405.3735498780117
 31
0.0
  0
LINE
  5
F7
330
1F
100
AcDbEntity
  8
C-6
  6
Continuous
 62
     6
370
     5
100
AcDbLine
 10
186.9506311864599
 20
-329.7240035874296
 30
0.0
 11
193.47531559323
 21
-354.0744572968478
 31
0.0
  0
ARC
  5
F8
330
1F
100
AcDbEntity
  8
C-2
  6
Continuous
 62
     3
370
     9
100
AcDbCircle
 10
-1306.342529707775
 20
731.0353782647715
 30
0.0
 40
42.43999961521084
100
AcDbArc
 50
55.07015243537034
 51
124.9298475646297
  0
LINE
  5
F9
330
1F
100
AcDbEntity
  8
C-2
  6
Continuous
 62
     3
370
     9
100
AcDbLine
 10
-1282.042529928092
 20
764.475377961578
 30
0.0
 11
-1330.642529487458
 21
764.475377961578
 31
0.0
  0
LINE
  5
FA
330
1F
100
AcDbEntity
  8
C-2
  6
Continuous
 62
     3
370
     9
100
AcDbLine
 10
-1263.725529873861
 20
653.4759992124918
 30
0.0
 11
-1263.725529873861
 21
653.4859992124012
 31
0.0
  0
ARC
  5
FB
330
1F
100
AcDbEntity
  8
C-2
  6
Continuous
 62
     3
370
     9
100
AcDbCircle
 10
-1263.725529873861
 20
666.1589990975006
 30
0.0
 40
12.68299988500862
100
AcDbArc
 50
270.0
 51
0.0
  0
ARC
  5
FC
330
1F
100
AcDbEntity
  8
C-2
  6
Continuous
 62
     3
370
     9
100
AcDbCircle
 10
-1263.725529873861
 20
666.1589990975006
 30
0.0
 40
18.68299983060874
100
AcDbArc
 50
270.0
 51
0.0
  0
LINE
  5
FD
330
1F
100
AcDbEntity
  8
C-2
  6
Continuous
 62
     3
370
     9
100
AcDbLine
 10
-1251.042529988856
 20
666.1589990975006
 30
0.0
 11
-1251.042529988856
 21
673.4759990311588
 31
0.0
  0
LINE
  5
FE
330
1F
100
AcDbEntity
  8
C-2
  6
Continuous
 62
     3
370
     9
100
AcDbLine
 10
-1245.042530043255
 20
666.1589990975006
 30
0.0
 11
-1245.042530043255
 21
673.4759990311588
 31
0.0
  0
LINE
  5
FF
330
1F
100
AcDbEntity
  8
C-2
  6
Continuous
 62
     3
370
     9
100
AcDbLine
 10
-1276.042529762182
 20
672.9759990356922
 30
0.0
 11
-1276.042529762182
 21
663.1341024324672
 31
0.0
  0
LINE
  5
100
330
1F
100
AcDbEntity
  8
C-2
  6
Continuous
 62
     3
370
     9
100
AcDbLine
 10
-1282.04252970779
 20
672.9759990356922
 30
0.0
 11
-1276.04252976219
 21
672.9759990356922
 31
0.0
  0
ARC
  5
101
330
1F
100
AcDbEntity
  8
C-2
  6
Continuous
 62
     3
370
     9
100
AcDbCircle
 10
-1263.725529873861
 20
666.1589990975006
 30
0.0
 40
12.68299988500862
100
AcDbArc
 50
193.7980315976056
 51
270.0
  0
ARC
  5
102
330
1F
100
AcDbEntity
  8
C-2
  6
Continuous
 62
     3
370
     9
100
AcDbCircle
 10
-1263.725529873861
 20
666.1589990975006
 30
0.0
 40
18.68299983060874
100
AcDbArc
 50
191.3596882805108
 51
270.0
  0
ARC
  5
103
330
1F
100
AcDbEntity
  8
C-2
  6
Continuous
 62
     3
370
     9
100
AcDbCircle
 10
-1263.725529873861
 20
680.792998964817
 30
0.0
 40
12.68299988500862
100
AcDbArc
 50
0.0
 51
90.0
  0
ARC
  5
104
330
1F
100
AcDbEntity
  8
C-2
  6
Continuous
 62
     3
370
     9
100
AcDbCircle
 10
-1263.725529873861
 20
680.792998964817
 30
0.0
 40
18.68299983060874
100
AcDbArc
 50
0.0
 51
90.0
  0
LINE
  5
105
330
1F
100
AcDbEntity
  8
C-2
  6
Continuous
 62
     3
370
     9
100
AcDbLine
 10
-1251.042529988856
 20
680.792998964817
 30
0.0
 11
-1251.042529988856
 21
673.4759990311588
 31
0.0
  0
LINE
  5
106
330
1F
100
AcDbEntity
  8
C-2
  6
Continuous
 62
     3
370
     9
100
AcDbLine
 10
-1245.042530043255
 20
680.792998964817
 30
0.0
 11
-1245.042530043255
 21
673.4759990311588
 31
0.0
  0
LINE
  5
107
330
1F
100
AcDbEntity
  8
C-2
  6
Continuous
 62
     3
370
     9
100
AcDbLine
 10
-1276.042529762182
 20
673.9759990266253
 30
0.0
 11
-1276.042529762182
 21
683.8178956298507
 31
0.0
  0
ARC
  5
108
330
1F
100
AcDbEntity
  8
C-2
  6
Continuous
 62
     3
370
     9
100
AcDbCircle
 10
-1263.725529873861
 20
680.792998964817
 30
0.0
 40
12.68299988500862
100
AcDbArc
 50
90.0
 51
166.2019684023945
  0
ARC
  5
109
330
1F
100
AcDbEntity
  8
C-2
  6
Continuous
 62
     3
370
     9
100
AcDbCircle
 10
-1263.725529873861
 20
680.792998964817
 30
0.0
 40
18.68299983060874
100
AcDbArc
 50
90.0
 51
168.6403117194892
  0
LINE
  5
10A
330
1F
100
AcDbEntity
  8
C-2
  6
Continuous
 62
     3
370
     9
100
AcDbLine
 10
-1282.042529707775
 20
673.9759990266253
 30
0.0
 11
-1276.042529762182
 21
673.9759990266219
 31
0.0
  0
LINE
  5
10B
330
1F
100
AcDbEntity
  8
C-A
  6
JWW_CENTER1
 62
     7
370
     9
100
AcDbLine
 10
-1289.913936963073
 20
673.4759990311611
 30
0.0
 11
-1238.600022427445
 21
673.4759990311454
 31
0.0
  0
LINE
  5
10C
330
1F
100
AcDbEntity
  8
C-A
  6
JWW_CENTER1
 62
     7
370
     9
100
AcDbLine
 10
-1263.725529873861
 20
638.9558704678777
 30
0.0
 11
-1263.725529873861
 21
707.9961275944286
 31
0.0
  0
LINE
  5
10D
330
1F
100
AcDbEntity
  8
C-2
  6
Continuous
 62
     3
370
     9
100
AcDbLine
 10
-1348.959529541689
 20
653.4759992124918
 30
0.0
 11
-1348.959529541689
 21
653.4859992124012
 31
0.0
  0
ARC
  5
10E
330
1F
100
AcDbEntity
  8
C-2
  6
Continuous
 62
     3
370
     9
100
AcDbCircle
 10
-1348.959529541689
 20
666.1589990975006
 30
0.0
 40
12.68299988500862
100
AcDbArc
 50
180.0
 51
270.0
  0
ARC
  5
10F
330
1F
100
AcDbEntity
  8
C-2
  6
Continuous
 62
     3
370
     9
100
AcDbCircle
 10
-1348.959529541689
 20
666.1589990975006
 30
0.0
 40
18.68299983060874
100
AcDbArc
 50
180.0
 51
270.0
  0
LINE
  5
110
330
1F
100
AcDbEntity
  8
C-2
  6
Continuous
 62
     3
370
     9
100
AcDbLine
 10
-1361.642529426694
 20
666.1589990975006
 30
0.0
 11
-1361.642529426694
 21
673.4759990311588
 31
0.0
  0
LINE
  5
111
330
1F
100
AcDbEntity
  8
C-2
  6
Continuous
 62
     3
370
     9
100
AcDbLine
 10
-1367.642529372295
 20
666.1589990975006
 30
0.0
 11
-1367.642529372295
 21
673.4759990311588
 31
0.0
  0
LINE
  5
112
330
1F
100
AcDbEntity
  8
C-2
  6
Continuous
 62
     3
370
     9
100
AcDbLine
 10
-1336.642529653368
 20
672.9759990356922
 30
0.0
 11
-1336.642529653368
 21
663.1341024324672
 31
0.0
  0
LINE
  5
113
330
1F
100
AcDbEntity
  8
C-2
  6
Continuous
 62
     3
370
     9
100
AcDbLine
 10
-1330.64252970776
 20
672.9759990356922
 30
0.0
 11
-1336.642529653361
 21
672.9759990356922
 31
0.0
  0
ARC
  5
114
330
1F
100
AcDbEntity
  8
C-2
  6
Continuous
 62
     3
370
     9
100
AcDbCircle
 10
-1348.959529541689
 20
666.1589990975006
 30
0.0
 40
12.68299988500862
100
AcDbArc
 50
270.0
 51
346.2019684023944
  0
ARC
  5
115
330
1F
100
AcDbEntity
  8
C-2
  6
Continuous
 62
     3
370
     9
100
AcDbCircle
 10
-1348.959529541689
 20
666.1589990975006
 30
0.0
 40
18.68299983060874
100
AcDbArc
 50
270.0
 51
348.6403117194892
  0
ARC
  5
116
330
1F
100
AcDbEntity
  8
C-2
  6
Continuous
 62
     3
370
     9
100
AcDbCircle
 10
-1348.959529541689
 20
680.792998964817
 30
0.0
 40
12.68299988500862
100
AcDbArc
 50
90.0
 51
180.0
  0
ARC
  5
117
330
1F
100
AcDbEntity
  8
C-2
  6
Continuous
 62
     3
370
     9
100
AcDbCircle
 10
-1348.959529541689
 20
680.792998964817
 30
0.0
 40
18.68299983060874
100
AcDbArc
 50
90.0
 51
180.0
  0
LINE
  5
118
330
1F
100
AcDbEntity
  8
C-2
  6
Continuous
 62
     3
370
     9
100
AcDbLine
 10
-1361.642529426694
 20
680.792998964817
 30
0.0
 11
-1361.642529426694
 21
673.4759990311588
 31
0.0
  0
LINE
  5
119
330
1F
100
AcDbEntity
  8
C-2
  6
Continuous
 62
     3
370
     9
100
AcDbLine
 10
-1367.642529372295
 20
680.792998964817
 30
0.0
 11
-1367.642529372295
 21
673.4759990311588
 31
0.0
  0
LINE
  5
11A
330
1F
100
AcDbEntity
  8
C-2
  6
Continuous
 62
     3
370
     9
100
AcDbLine
 10
-1336.642529653368
 20
673.9759990266253
 30
0.0
 11
-1336.642529653368
 21
683.8178956298507
 31
0.0
  0
ARC
  5
11B
330
1F
100
AcDbEntity
  8
C-2
  6
Continuous
 62
     3
370
     9
100
AcDbCircle
 10
-1348.959529541689
 20
680.792998964817
 30
0.0
 40
12.68299988500862
100
AcDbArc
 50
13.79803159760555
 51
90.0
  0
ARC
  5
11C
330
1F
100
AcDbEntity
  8
C-2
  6
Continuous
 62
     3
370
     9
100
AcDbCircle
 10
-1348.959529541689
 20
680.792998964817
 30
0.0
 40
18.68299983060874
100
AcDbArc
 50
11.35968828051082
 51
90.0
  0
LINE
  5
11D
330
1F
100
AcDbEntity
  8
C-2
  6
Continuous
 62
     3
370
     9
100
AcDbLine
 10
-1330.642529707775
 20
673.9759990266253
 30
0.0
 11
-1336.642529653368
 21
673.9759990266219
 31
0.0
  0
LINE
  5
11E
330
1F
100
AcDbEntity
  8
C-A
  6
JWW_CENTER1
 62
     7
370
     9
100
AcDbLine
 10
-1322.771122452476
 20
673.4759990311611
 30
0.0
 11
-1374.085036988105
 21
673.4759990311454
 31
0.0
  0
LINE
  5
11F
330
1F
100
AcDbEntity
  8
C-A
  6
JWW_CENTER1
 62
     7
370
     9
100
AcDbLine
 10
-1348.959529541689
 20
638.9558704678777
 30
0.0
 11
-1348.959529541689
 21
707.9961275944286
 31
0.0
  0
LINE
  5
120
330
1F
100
AcDbEntity
  8
C-2
  6
Continuous
 62
     3
370
     9
100
AcDbLine
 10
-1330.642529707775
 20
765.8299694830578
 30
0.0
 11
-1330.642529707775
 21
-76.52402932132406
 31
0.0
  0
LINE
  5
121
330
1F
100
AcDbEntity
  8
C-2
  6
JWW_DASHED1
 62
     3
370
     9
100
AcDbLine
 10
-1282.042529707775
 20
-76.52402932132406
 30
0.0
 11
-1282.042529707775
 21
-326.5242355211768
 31
0.0
  0
LINE
  5
122
330
1F
100
AcDbEntity
  8
C-6
  6
Continuous
 62
     6
370
     5
100
AcDbLine
 10
-1156.342529707775
 20
-125.5966031207506
 30
0.0
 11
-1275.628407401857
 21
-244.8824808148322
 31
0.0
  0
LINE
  5
123
330
1F
100
AcDbEntity
  8
C-6
  6
Continuous
 62
     6
370
     5
100
AcDbLine
 10
-1156.342529707775
 20
-153.8808743682125
 30
0.0
 11
-1275.628407401857
 21
-273.1667520622941
 31
0.0
  0
LINE
  5
124
330
1F
100
AcDbEntity
  8
C-6
  6
Continuous
 62
     6
370
     5
100
AcDbLine
 10
-1156.342529707775
 20
-139.7387387444816
 30
0.0
 11
-1275.628407401857
 21
-259.024616438563
 31
0.0
  0
LINE
  5
125
330
1F
100
AcDbEntity
  8
C-2
  6
Continuous
 62
     3
370
     9
100
AcDbLine
 10
-1282.042529707775
 20
765.8299694830578
 30
0.0
 11
-1282.042529707775
 21
-76.52402932132406
 31
0.0
  0
LINE
  5
126
330
1F
100
AcDbEntity
  8
C-1
  6
Continuous
 62
     2
370
     9
100
AcDbLine
 10
-1271.342529707775
 20
-329.7241273074939
 30
0.0
 11
-1271.342529707775
 21
-326.5237406415312
 31
0.0
  0
LINE
  5
127
330
1F
100
AcDbEntity
  8
C-1
  6
Continuous
 62
     2
370
     9
100
AcDbLine
 10
-1341.342529707775
 20
-329.7238798676715
 30
0.0
 11
-1341.342529707775
 21
-326.5237406415312
 31
0.0
  0
LINE
  5
128
330
1F
100
AcDbEntity
  8
C-1
  6
Continuous
 62
     2
370
     9
100
AcDbLine
 10
-1271.342529707775
 20
-326.5237406415312
 30
0.0
 11
-1341.342529707775
 21
-326.5237406415312
 31
0.0
  0
LINE
  5
129
330
1F
100
AcDbEntity
  8
C-1
  6
Continuous
 62
     2
370
     9
100
AcDbLine
 10
-1293.842529707775
 20
-326.5239880813539
 30
0.0
 11
-1293.842529707775
 21
-329.7238798676716
 31
0.0
  0
LINE
  5
12A
330
1F
100
AcDbEntity
  8
C-1
  6
Continuous
 62
     2
370
     9
100
AcDbLine
 10
-1318.842529707775
 20
-326.5239880813538
 30
0.0
 11
-1318.842529707775
 21
-329.7238798676715
 31
0.0
  0
LINE
  5
12B
330
1F
100
AcDbEntity
  8
C-1
  6
Continuous
 62
     2
370
     9
100
AcDbLine
 10
-1336.592529707775
 20
-76.52402932132406
 30
0.0
 11
-1336.592529707775
 21
-326.5242355211768
 31
0.0
  0
LINE
  5
12C
330
1F
100
AcDbEntity
  8
C-6
  6
Continuous
 62
     6
370
     5
100
AcDbLine
 10
-1336.592529707775
 20
-135.249712785822
 30
0.0
 11
-1456.342529707775
 21
-254.9997127858222
 31
0.0
  0
LINE
  5
12D
330
1F
100
AcDbEntity
  8
C-6
  6
Continuous
 62
     6
370
     5
100
AcDbLine
 10
-1336.592529707775
 20
-106.9654415383602
 30
0.0
 11
-1456.342529707775
 21
-226.7154415383603
 31
0.0
  0
LINE
  5
12E
330
1F
100
AcDbEntity
  8
C-6
  6
Continuous
 62
     6
370
     5
100
AcDbLine
 10
-1336.592529707775
 20
-121.1075771620912
 30
0.0
 11
-1456.342529707775
 21
-240.8575771620912
 31
0.0
  0
LINE
  5
12F
330
1F
100
AcDbEntity
  8
C-4
  6
Continuous
 62
     7
370
     9
100
AcDbLine
 10
-1662.958673794584
 20
-326.5240344763207
 30
0.0
 11
-1354.292639950739
 21
-326.5240344763207
 31
0.0
  0
LINE
  5
130
330
1F
100
AcDbEntity
  8
C-1
  6
JWW_DASHED1
 62
     2
370
     9
100
AcDbLine
 10
-1280.092529707775
 20
-76.52402932132406
 30
0.0
 11
-1280.092529707775
 21
-326.5242355211768
 31
0.0
  0
LINE
  5
131
330
1F
100
AcDbEntity
  8
C-1
  6
JWW_DASHED1
 62
     2
370
     9
100
AcDbLine
 10
-1332.592529707775
 20
-76.52402932132404
 30
0.0
 11
-1332.592529707775
 21
-326.5242355211767
 31
0.0
  0
LINE
  5
132
330
1F
100
AcDbEntity
  8
C-6
  6
Continuous
 62
     6
370
     5
100
AcDbLine
 10
-1336.592529707775
 20
-76.52400358742973
 30
0.0
 11
-1596.171143116474
 21
-76.52400358742973
 31
0.0
  0
LINE
  5
133
330
1F
100
AcDbEntity
  8
C-2
  6
JWW_DASHED1
 62
     3
370
     9
100
AcDbLine
 10
-1330.642529707775
 20
-76.52402932132404
 30
0.0
 11
-1330.642529707775
 21
-326.5242355211767
 31
0.0
  0
LINE
  5
134
330
1F
100
AcDbEntity
  8
C-5
  6
Continuous
 62
     7
370
     9
100
AcDbLine
 10
-1212.582954776398
 20
371.8785772159634
 30
0.0
 11
-1282.042529707775
 21
251.5708610525343
 31
0.0
  0
LINE
  5
135
330
1F
100
AcDbEntity
  8
C-5
  6
Continuous
 62
     7
370
     9
100
AcDbLine
 10
-1282.042529707775
 20
251.5708610525343
 30
0.0
 11
-1272.475460800014
 21
274.6678563660845
 31
0.0
  0
LINE
  5
136
330
1F
100
AcDbEntity
  8
C-5
  6
Continuous
 62
     7
370
     9
100
AcDbLine
 10
-1282.042529707775
 20
251.5708610525343
 30
0.0
 11
-1266.823508496091
 21
271.4047056964333
 31
0.0
  0
TEXT
  5
137
330
1F
100
AcDbEntity
  8
C-5
  6
Continuous
 62
     7
370
     9
100
AcDbText
 10
-1212.582954776398
 20
334.8070776710446
 30
0.0
 40
22.86
  1
SUS304　ヘアライン仕上
 41
1.151515151515152
  7
ＭＳ ゴシック
100
AcDbText
  0
LINE
  5
138
330
1F
100
AcDbEntity
  8
C-5
  6
Continuous
 62
     7
370
     9
100
AcDbLine
 10
-1212.582954776398
 20
371.8785772159634
 30
0.0
 11
-826.4307799393939
 21
371.8785772159634
 31
0.0
  0
TEXT
  5
139
330
1F
100
AcDbEntity
  8
C-5
  6
Continuous
 62
     7
370
     9
100
AcDbText
 10
-1208.09987634076
 20
387.3327759461515
 30
0.0
 40
22.86
  1
本体：φ48.6×1.5
 41
1.156862745098039
  7
ＭＳ ゴシック
100
AcDbText
  0
ARC
  5
13A
330
1F
100
AcDbEntity
  8
C-2
  6
Continuous
 62
     3
370
     9
100
AcDbCircle
 10
0.1613586288615246
 20
696.4803413729403
 30
0.0
 40
3.0
100
AcDbArc
 50
90.0
 51
180.0
  0
ARC
  5
13B
330
1F
100
AcDbEntity
  8
C-2
  6
Continuous
 62
     3
370
     9
100
AcDbCircle
 10
0.161358628861354
 20
696.4803413729403
 30
0.0
 40
3.0
100
AcDbArc
 50
0.0
 51
90.0
  0
LINE
  5
13C
330
1F
100
AcDbEntity
  8
C-2
  6
Continuous
 62
     3
370
     9
100
AcDbLine
 10
-2.838641371138475
 20
650.4803418444062
 30
0.0
 11
-2.838641371138475
 21
696.4803413729403
 31
0.0
  0
ARC
  5
13D
330
1F
100
AcDbEntity
  8
C-2
  6
Continuous
 62
     3
370
     9
100
AcDbCircle
 10
0.1613586288615246
 20
650.4803418444062
 30
0.0
 40
3.0
100
AcDbArc
 50
180.0
 51
270.0
  0
LINE
  5
13E
330
1F
100
AcDbEntity
  8
C-2
  6
Continuous
 62
     3
370
     9
100
AcDbLine
 10
3.161358628861354
 20
650.4803418444062
 30
0.0
 11
3.161358628861354
 21
696.4803413729403
 31
0.0
  0
ARC
  5
13F
330
1F
100
AcDbEntity
  8
C-2
  6
Continuous
 62
     3
370
     9
100
AcDbCircle
 10
0.161358628861354
 20
650.4803418444062
 30
0.0
 40
3.0
100
AcDbArc
 50
270.0
 51
0.0
  0
ARC
  5
140
330
1F
100
AcDbEntity
  8
C-2
  6
Continuous
 62
     3
370
     9
100
AcDbCircle
 10
0.1613586288613789
 20
731.0397208422994
 30
0.0
 40
42.43999961521084
100
AcDbArc
 50
55.07015243537034
 51
124.9298475646297
  0
LINE
  5
141
330
1F
100
AcDbEntity
  8
C-2
  6
Continuous
 62
     3
370
     9
100
AcDbLine
 10
24.46135840854488
 20
764.4797205391059
 30
0.0
 11
-24.13864115082184
 21
764.4797205391059
 31
0.0
  0
LINE
  5
142
330
1F
100
AcDbEntity
  8
C-2
  6
JWW_DASHED1
 62
     3
370
     9
100
AcDbLine
 10
24.30000000000007
 20
-76.52402932132406
 30
0.0
 11
24.30000000000007
 21
-326.5242355211768
 31
0.0
  0
LINE
  5
143
330
1F
100
AcDbEntity
  8
C-1
  6
Continuous
 62
     2
370
     9
100
AcDbLine
 10
35.0
 20
-329.7241273074939
 30
0.0
 11
35.0
 21
-326.5237406415312
 31
0.0
  0
LINE
  5
144
330
1F
100
AcDbEntity
  8
C-1
  6
Continuous
 62
     2
370
     9
100
AcDbLine
 10
-35.0
 20
-329.7238798676715
 30
0.0
 11
-35.0
 21
-326.5237406415312
 31
0.0
  0
LINE
  5
145
330
1F
100
AcDbEntity
  8
C-1
  6
Continuous
 62
     2
370
     9
100
AcDbLine
 10
35.0
 20
-326.5237406415312
 30
0.0
 11
-35.0
 21
-326.5237406415312
 31
0.0
  0
LINE
  5
146
330
1F
100
AcDbEntity
  8
C-1
  6
Continuous
 62
     2
370
     9
100
AcDbLine
 10
12.5
 20
-326.5239880813539
 30
0.0
 11
12.5
 21
-329.7238798676716
 31
0.0
  0
LINE
  5
147
330
1F
100
AcDbEntity
  8
C-1
  6
Continuous
 62
     2
370
     9
100
AcDbLine
 10
-12.5
 20
-326.5239880813538
 30
0.0
 11
-12.5
 21
-329.7238798676715
 31
0.0
  0
LINE
  5
148
330
1F
100
AcDbEntity
  8
C-1
  6
JWW_DASHED1
 62
     2
370
     9
100
AcDbLine
 10
26.25
 20
-76.52402932132406
 30
0.0
 11
26.25
 21
-326.5242355211768
 31
0.0
  0
LINE
  5
149
330
1F
100
AcDbEntity
  8
C-1
  6
JWW_DASHED1
 62
     2
370
     9
100
AcDbLine
 10
-26.25
 20
-76.52402932132404
 30
0.0
 11
-26.25
 21
-326.5242355211767
 31
0.0
  0
LINE
  5
14A
330
1F
100
AcDbEntity
  8
C-2
  6
JWW_DASHED1
 62
     3
370
     9
100
AcDbLine
 10
-24.30000000000007
 20
-76.52402932132404
 30
0.0
 11
-24.30000000000007
 21
-326.5242355211767
 31
0.0
  0
LINE
  5
14B
330
1F
100
AcDbEntity
  8
C-1
  6
Continuous
 62
     2
370
     9
100
AcDbLine
 10
16.3
 20
-76.52402932132406
 30
0.0
 11
30.25000000000006
 21
-76.52402932132406
 31
0.0
  0
LINE
  5
14C
330
1F
100
AcDbEntity
  8
C-1
  6
Continuous
 62
     2
370
     9
100
AcDbLine
 10
30.25000000000006
 20
-326.5242355211768
 30
0.0
 11
30.25000000000006
 21
-76.52402932132406
 31
0.0
  0
LINE
  5
14D
330
1F
100
AcDbEntity
  8
C-1
  6
Continuous
 62
     2
370
     9
100
AcDbLine
 10
-16.3
 20
-76.52402932132406
 30
0.0
 11
-30.25000000000006
 21
-76.52402932132406
 31
0.0
  0
LINE
  5
14E
330
1F
100
AcDbEntity
  8
C-1
  6
Continuous
 62
     2
370
     9
100
AcDbLine
 10
-30.25000000000006
 20
-326.5242355211768
 30
0.0
 11
-30.25000000000006
 21
-76.52402932132406
 31
0.0
  0
LINE
  5
14F
330
1F
100
AcDbEntity
  8
C-6
  6
Continuous
 62
     6
370
     5
100
AcDbLine
 10
-289.8286134086987
 20
-76.52400358742973
 30
0.0
 11
-30.25000000000006
 21
-76.52400358742973
 31
0.0
  0
LINE
  5
150
330
1F
100
AcDbEntity
  8
C-6
  6
Continuous
 62
     6
370
     5
100
AcDbLine
 10
-30.25000000000006
 20
-135.249712785822
 30
0.0
 11
-150.0
 21
-254.9997127858222
 31
0.0
  0
LINE
  5
151
330
1F
100
AcDbEntity
  8
C-6
  6
Continuous
 62
     6
370
     5
100
AcDbLine
 10
-30.25000000000006
 20
-121.1075771620912
 30
0.0
 11
-150.0
 21
-240.8575771620912
 31
0.0
  0
LINE
  5
152
330
1F
100
AcDbEntity
  8
C-6
  6
Continuous
 62
     6
370
     5
100
AcDbLine
 10
-30.25000000000006
 20
-106.9654415383602
 30
0.0
 11
-150.0
 21
-226.7154415383603
 31
0.0
  0
LINE
  5
153
330
1F
100
AcDbEntity
  8
C-6
  6
Continuous
 62
     6
370
     5
100
AcDbLine
 10
351.0201425124262
 20
-76.52400358742973
 30
0.0
 11
30.25000000000006
 21
-76.52400358742973
 31
0.0
  0
LINE
  5
154
330
1F
100
AcDbEntity
  8
C-6
  6
Continuous
 62
     6
370
     5
100
AcDbLine
 10
149.9999999999999
 20
-153.8808743682125
 30
0.0
 11
30.25000000000006
 21
-273.6308743682124
 31
0.0
  0
LINE
  5
155
330
1F
100
AcDbEntity
  8
C-6
  6
Continuous
 62
     6
370
     5
100
AcDbLine
 10
149.9999999999999
 20
-125.5966031207506
 30
0.0
 11
30.25000000000006
 21
-245.3466031207505
 31
0.0
  0
LINE
  5
156
330
1F
100
AcDbEntity
  8
C-6
  6
Continuous
 62
     6
370
     5
100
AcDbLine
 10
149.9999999999999
 20
-139.7387387444816
 30
0.0
 11
30.25000000000006
 21
-259.4887387444812
 31
0.0
  0
ARC
  5
157
330
1F
100
AcDbEntity
  8
C-3
  6
Continuous
 62
     4
370
     9
100
AcDbCircle
 10
-1263.899968623906
 20
-41.52103078404313
 30
0.0
 40
1.500000019331236
100
AcDbArc
 50
285.121762597587
 51
0.0
  0
LINE
  5
158
330
1F
100
AcDbEntity
  8
C-3
  6
Continuous
 62
     4
370
     9
100
AcDbLine
 10
-1262.399740979269
 20
-24.52071076187255
 30
0.0
 11
-1262.399740979269
 21
-41.52103078404313
 31
0.0
  0
ARC
  5
159
330
1F
100
AcDbEntity
  8
C-3
  6
Continuous
 62
     4
370
     9
100
AcDbCircle
 10
-1263.899968623906
 20
-24.52071076187255
 30
0.0
 40
1.500000019331236
100
AcDbArc
 50
0.0
 51
90.0
  0
LINE
  5
15A
330
1F
100
AcDbEntity
  8
C-3
  6
Continuous
 62
     4
370
     9
100
AcDbLine
 10
-1263.899968623906
 20
-23.02085427696969
 30
0.0
 11
-1267.026074203665
 21
-23.02085427696969
 31
0.0
  0
LINE
  5
15B
330
1F
100
AcDbEntity
  8
C-3
  6
JWW_DASHED1
 62
     4
370
     9
100
AcDbLine
 10
-1281.289974184645
 20
-27.02080973780145
 30
0.0
 11
-1330.642529707775
 21
-27.02080973780145
 31
0.0
  0
LINE
  5
15C
330
1F
100
AcDbEntity
  8
C-3
  6
JWW_DASHED1
 62
     4
370
     9
100
AcDbLine
 10
-1281.289974184645
 20
-39.02089881613765
 30
0.0
 11
-1330.642529707775
 21
-39.02089881613765
 31
0.0
  0
ARC
  5
15D
330
1F
100
AcDbEntity
  8
C-3
  6
Continuous
 62
     4
370
     9
100
AcDbCircle
 10
-1361.899354973146
 20
-33.02085427696969
 30
0.0
 40
3.500000045106218
100
AcDbArc
 50
310.0048065185547
 51
229.9951934814453
  0
LINE
  5
15E
330
1F
100
AcDbEntity
  8
C-3
  6
Continuous
 62
     6
370
     5
100
AcDbLine
 10
-1366.899618908957
 20
-52.02089221774234
 30
0.0
 11
-1366.899618908957
 21
-75.5207470530465
 31
0.0
  0
LINE
  5
15F
330
1F
100
AcDbEntity
  8
C-3
  6
Continuous
 62
     6
370
     5
100
AcDbLine
 10
-1359.149556224201
 20
-52.02089221774234
 30
0.0
 11
-1359.149556224201
 21
-75.5207470530465
 31
0.0
  0
LINE
  5
160
330
1F
100
AcDbEntity
  8
C-3
  6
Continuous
 62
     6
370
     5
100
AcDbLine
 10
-1364.649401161913
 20
-52.02089221774234
 30
0.0
 11
-1364.649401161913
 21
-75.5207470530465
 31
0.0
  0
LINE
  5
161
330
1F
100
AcDbEntity
  8
C-3
  6
Continuous
 62
     6
370
     5
100
AcDbLine
 10
-1359.649632105747
 20
-34.27104398083347
 30
0.0
 11
-1359.649632105747
 21
-52.02089221774234
 31
0.0
  0
LINE
  5
162
330
1F
100
AcDbEntity
  8
C-3
  6
Continuous
 62
     6
370
     5
100
AcDbLine
 10
-1364.14957272019
 20
-34.27104398083347
 30
0.0
 11
-1364.14957272019
 21
-52.02089221774234
 31
0.0
  0
LINE
  5
163
330
1F
100
AcDbEntity
  8
C-3
  6
JWW_CENTER1
 62
     6
370
     5
100
AcDbLine
 10
-1361.899354973146
 20
-25.93355915714287
 30
0.0
 11
-1361.899354973146
 21
-40.55032435984547
 31
0.0
  0
LINE
  5
164
330
1F
100
AcDbEntity
  8
C-3
  6
JWW_CENTER1
 62
     6
370
     5
100
AcDbLine
 10
-1359.020392636786
 20
-34.27104398083347
 30
0.0
 11
-1364.866158446541
 21
-34.27104398083347
 31
0.0
  0
ARC
  5
165
330
1F
100
AcDbEntity
  8
C-3
  6
JWW_DASHED1
 62
     6
370
     5
100
AcDbCircle
 10
-1361.899354973146
 20
-34.27104398083347
 30
0.0
 40
2.250000028996854
100
AcDbArc
 50
180.0
 51
0.0
  0
ARC
  5
166
330
1F
100
AcDbEntity
  8
C-3
  6
Continuous
 62
     6
370
     5
100
AcDbCircle
 10
-1361.899354973146
 20
-34.27104398083347
 30
0.0
 40
2.250000028996854
100
AcDbArc
 50
0.0
 51
180.0
  0
LINE
  5
167
330
1F
100
AcDbEntity
  8
C-3
  6
Continuous
 62
     6
370
     5
100
AcDbLine
 10
-1356.899585916981
 20
-75.5207470530465
 30
0.0
 11
-1366.899618908957
 21
-75.5207470530465
 31
0.0
  0
LINE
  5
168
330
1F
100
AcDbEntity
  8
C-3
  6
Continuous
 62
     6
370
     5
100
AcDbLine
 10
-1356.899585916981
 20
-52.02089221774234
 30
0.0
 11
-1356.899585916981
 21
-75.5207470530465
 31
0.0
  0
LINE
  5
169
330
1F
100
AcDbEntity
  8
C-3
  6
Continuous
 62
     6
370
     5
100
AcDbLine
 10
-1356.899585916981
 20
-52.02089221774234
 30
0.0
 11
-1366.899618908957
 21
-52.02089221774234
 31
0.0
  0
LINE
  5
16A
330
1F
100
AcDbEntity
  8
C-3
  6
Continuous
 62
     4
370
     9
100
AcDbLine
 10
-1330.642529707775
 20
-39.02089881613765
 30
0.0
 11
-1359.649632105747
 21
-39.02089881613765
 31
0.0
  0
LINE
  5
16B
330
1F
100
AcDbEntity
  8
C-3
  6
Continuous
 62
     4
370
     9
100
AcDbLine
 10
-1351.399740979269
 20
-27.02080973780145
 30
0.0
 11
-1351.399740979269
 21
-39.02089881613765
 31
0.0
  0
LINE
  5
16C
330
1F
100
AcDbEntity
  8
C-3
  6
Continuous
 62
     4
370
     9
100
AcDbLine
 10
-1368.399750876863
 20
-27.02080973780145
 30
0.0
 11
-1330.642529707775
 21
-27.02080973780145
 31
0.0
  0
ARC
  5
16D
330
1F
100
AcDbEntity
  8
C-3
  6
Continuous
 62
     4
370
     9
100
AcDbCircle
 10
-1368.399750876863
 20
-28.02080973780145
 30
0.0
 40
1.0
100
AcDbArc
 50
90.0
 51
180.0
  0
LINE
  5
16E
330
1F
100
AcDbEntity
  8
C-3
  6
Continuous
 62
     4
370
     9
100
AcDbLine
 10
-1368.399750876863
 20
-39.02089881613765
 30
0.0
 11
-1364.14957272019
 21
-39.02089881613765
 31
0.0
  0
LINE
  5
16F
330
1F
100
AcDbEntity
  8
C-3
  6
Continuous
 62
     4
370
     9
100
AcDbLine
 10
-1369.399750876862
 20
-38.02089881613765
 30
0.0
 11
-1369.399750876862
 21
-28.02080973780145
 31
0.0
  0
ARC
  5
170
330
1F
100
AcDbEntity
  8
C-3
  6
Continuous
 62
     4
370
     9
100
AcDbCircle
 10
-1368.399750876863
 20
-38.02089881613765
 30
0.0
 40
1.0
100
AcDbArc
 50
180.0
 51
270.0
  0
LINE
  5
171
330
1F
100
AcDbEntity
  8
C-0
  6
JWW_CENTER2
 62
     7
370
     9
100
AcDbLine
 10
-1257.399724483281
 20
-33.02085427696969
 30
0.0
 11
-1374.39976737285
 21
-33.02085427696969
 31
0.0
  0
LINE
  5
172
330
1F
100
AcDbEntity
  8
C-3
  6
Continuous
 62
     4
370
     9
100
AcDbLine
 10
-1282.042529707775
 20
-27.02080973780145
 30
0.0
 11
-1273.733388401054
 21
-27.02080973780145
 31
0.0
  0
LINE
  5
173
330
1F
100
AcDbEntity
  8
C-3
  6
Continuous
 62
     4
370
     9
100
AcDbLine
 10
-1282.042529707775
 20
-39.02089881613765
 30
0.0
 11
-1271.617448925638
 21
-39.02089881613765
 31
0.0
  0
LINE
  5
174
330
1F
100
AcDbEntity
  8
C-1
  6
Continuous
 62
     4
370
     9
100
AcDbLine
 10
-1267.827622006616
 20
-60.51407532148357
 30
0.0
 11
-1274.77225249111
 21
-21.12911871081252
 31
0.0
  0
LINE
  5
175
330
1F
100
AcDbEntity
  8
C-1
  6
Continuous
 62
     4
370
     9
100
AcDbLine
 10
-1267.827622006616
 20
-60.51407532148357
 30
0.0
 11
-1262.295634426561
 21
-63.09368349488157
 31
0.0
  0
LINE
  5
176
330
1F
100
AcDbEntity
  8
C-1
  6
Continuous
 62
     4
370
     9
100
AcDbLine
 10
-1274.77225249111
 20
-21.12911871081252
 30
0.0
 11
-1270.456162541043
 21
-16.81302876074522
 31
0.0
  0
LINE
  5
177
330
1F
100
AcDbEntity
  8
C-1
  6
Continuous
 62
     4
370
     9
100
AcDbLine
 10
-1269.624170292799
 20
-8.286319161041863
 30
0.0
 11
-1271.889228124727
 21
-8.685709969675809
 31
0.0
  0
LINE
  5
178
330
1F
100
AcDbEntity
  8
C-1
  6
Continuous
 62
     4
370
     9
100
AcDbLine
 10
-1258.597511010949
 20
-70.82161147731703
 30
0.0
 11
-1260.862568842877
 21
-71.22100228595099
 31
0.0
  0
ARC
  5
179
330
1F
100
AcDbEntity
  8
C-1
  6
Continuous
 62
     2
370
     9
100
AcDbCircle
 10
-1246.742421494092
 20
-77.42392110764179
 30
0.0
 40
3.199999557959067
100
AcDbArc
 50
0.0
 51
90.0
  0
LINE
  5
17A
330
1F
100
AcDbEntity
  8
C-1
  6
Continuous
 62
     2
370
     9
100
AcDbLine
 10
-1246.742421494092
 20
-74.22402932132407
 30
0.0
 11
-1275.742832244198
 21
-74.22402932132407
 31
0.0
  0
LINE
  5
17B
330
1F
100
AcDbEntity
  8
C-1
  6
Continuous
 62
     2
370
     9
100
AcDbLine
 10
-1275.742832244198
 20
-74.22402932132407
 30
0.0
 11
-1275.742832244198
 21
-76.52402932132406
 31
0.0
  0
LINE
  5
17C
330
1F
100
AcDbEntity
  8
C-1
  6
Continuous
 62
     2
370
     9
100
AcDbLine
 10
-1276.092529707775
 20
-326.5242355211768
 30
0.0
 11
-1276.092529707775
 21
-76.52402932132406
 31
0.0
  0
LINE
  5
17D
330
1F
100
AcDbEntity
  8
C-1
  6
Continuous
 62
     2
370
     9
100
AcDbLine
 10
-1336.592529707775
 20
-76.52402932132406
 30
0.0
 11
-1275.742832244198
 21
-76.52402932132406
 31
0.0
  0
ARC
  5
17E
330
1F
100
AcDbEntity
  8
C-1
  6
Continuous
 62
     2
370
     9
100
AcDbCircle
 10
-1246.742421494092
 20
-96.02413753500635
 30
0.0
 40
3.199999557959066
100
AcDbArc
 50
270.4702362859036
 51
359.5297637134759
  0
LINE
  5
17F
330
1F
100
AcDbEntity
  8
C-1
  6
Continuous
 62
     2
370
     9
100
AcDbLine
 10
-1246.71615884391
 20
-99.22402932132407
 30
0.0
 11
-1276.092529707775
 21
-99.22402932132407
 31
0.0
  0
LINE
  5
180
330
1F
100
AcDbEntity
  8
C-1
  6
Continuous
 62
     2
370
     9
100
AcDbLine
 10
-1243.542529707775
 20
-96.05040018522337
 30
0.0
 11
-1243.542529707775
 21
-77.42392110764179
 31
0.0
  0
CIRCLE
  5
181
330
1F
100
AcDbEntity
  8
C-1
  6
Continuous
 62
     4
370
     9
100
AcDbCircle
 10
-1264.542529707775
 20
-82.0241447932413
 30
0.0
 40
2.65
  0
ELLIPSE
  5
182
330
1F
100
AcDbEntity
  8
C-1
  6
Continuous
 62
     4
370
     9
100
AcDbEllipse
 10
0.0
 20
-39.55396531917945
 30
0.0
 11
22.29999999999997
 21
-1.584510300745021E-13
 31
0.0
210
0.0
220
0.0
230
1.0
 40
0.9848077530122115
 41
0.0
 42
6.283185307179586
  0
CIRCLE
  5
183
330
1F
100
AcDbEntity
  8
C-1
  6
Continuous
 62
     4
370
     9
100
AcDbCircle
 10
0.0
 20
-33.02085427696969
 30
0.0
 40
10.0
  0
ELLIPSE
  5
184
330
1F
100
AcDbEntity
  8
C-1
  6
Continuous
 62
     4
370
     9
100
AcDbEllipse
 10
0.0
 20
-39.55396531917948
 30
0.0
 11
31.74999999999996
 21
-2.819966482547895E-13
 31
0.0
210
0.0
220
0.0
230
1.0
 40
0.9848077530122092
 41
0.0
 42
6.283185307179586
  0
ELLIPSE
  5
185
330
1F
100
AcDbEntity
  8
C-1
  6
Continuous
 62
     4
370
     9
100
AcDbEllipse
 10
0.0
 20
-40.42220620751412
 30
0.0
 11
9.877238304030183E-13
 21
18.51336383043961
 31
0.0
210
0.0
220
0.0
230
1.0
 40
0.9830736416509899
 41
0.0
 42
6.283185307179586
  0
LINE
  5
186
330
1F
100
AcDbEntity
  8
3-1
  6
Continuous
 62
     4
370
     9
100
AcDbLine
 10
1253.195361894632
 20
-210.2145750690518
 30
0.0
 11
1291.716009670623
 21
-428.6760244809367
 31
0.0
  0
LINE
  5
187
330
1F
100
AcDbEntity
  8
3-1
  6
Continuous
 62
     4
370
     9
100
AcDbLine
 10
1260.745554667726
 20
-208.8832723736053
 30
0.0
 11
1299.500947028416
 21
-428.6760244809367
 31
0.0
  0
ARC
  5
188
330
1F
100
AcDbEntity
  8
3-3
  6
Continuous
 62
     4
370
     9
100
AcDbCircle
 10
1279.82622689737
 20
-319.6656444502761
 30
0.0
 40
5.000000064437453
100
AcDbArc
 50
285.121762597587
 51
0.0
  0
LINE
  5
189
330
1F
100
AcDbEntity
  8
3-3
  6
Continuous
 62
     4
370
     9
100
AcDbLine
 10
1284.826985712825
 20
-262.9979110430409
 30
0.0
 11
1284.826985712825
 21
-319.6656444502761
 31
0.0
  0
ARC
  5
18A
330
1F
100
AcDbEntity
  8
3-3
  6
Continuous
 62
     4
370
     9
100
AcDbCircle
 10
1279.82622689737
 20
-262.9979110430409
 30
0.0
 40
5.000000064437453
100
AcDbArc
 50
0.0
 51
90.0
  0
LINE
  5
18B
330
1F
100
AcDbEntity
  8
3-3
  6
Continuous
 62
     4
370
     9
100
AcDbLine
 10
1279.82622689737
 20
-257.998389426698
 30
0.0
 11
1269.405874964841
 21
-257.998389426698
 31
0.0
  0
LINE
  5
18C
330
1F
100
AcDbEntity
  8
3-3
  6
JWW_DASHED1
 62
     4
370
     9
100
AcDbLine
 10
1221.859541694906
 20
-271.3315742961372
 30
0.0
 11
1057.351023284473
 21
-271.3315742961372
 31
0.0
  0
LINE
  5
18D
330
1F
100
AcDbEntity
  8
3-3
  6
JWW_DASHED1
 62
     4
370
     9
100
AcDbLine
 10
1221.859541694906
 20
-311.3318712239246
 30
0.0
 11
1057.351023284473
 21
-311.3318712239246
 31
0.0
  0
ARC
  5
18E
330
1F
100
AcDbEntity
  8
3-3
  6
Continuous
 62
     4
370
     9
100
AcDbCircle
 10
953.1616057332371
 20
-291.3317227600314
 30
0.0
 40
11.66666681702073
100
AcDbArc
 50
310.0048065185547
 51
229.9951934814453
  0
LINE
  5
18F
330
1F
100
AcDbEntity
  8
3-3
  6
Continuous
 62
     6
370
     5
100
AcDbLine
 10
936.494059280534
 20
-354.6651825626068
 30
0.0
 11
936.494059280534
 21
-432.9980320136207
 31
0.0
  0
LINE
  5
190
330
1F
100
AcDbEntity
  8
3-3
  6
Continuous
 62
     6
370
     5
100
AcDbLine
 10
962.3276015630512
 20
-354.6651825626068
 30
0.0
 11
962.3276015630512
 21
-432.9980320136207
 31
0.0
  0
LINE
  5
191
330
1F
100
AcDbEntity
  8
3-3
  6
Continuous
 62
     6
370
     5
100
AcDbLine
 10
943.9947851040131
 20
-354.6651825626068
 30
0.0
 11
943.9947851040131
 21
-432.9980320136207
 31
0.0
  0
LINE
  5
192
330
1F
100
AcDbEntity
  8
3-3
  6
Continuous
 62
     6
370
     5
100
AcDbLine
 10
960.6606819578985
 20
-295.4990217729106
 30
0.0
 11
960.6606819578985
 21
-354.6651825626068
 31
0.0
  0
LINE
  5
193
330
1F
100
AcDbEntity
  8
3-3
  6
Continuous
 62
     6
370
     5
100
AcDbLine
 10
945.6608799097557
 20
-295.4990217729106
 30
0.0
 11
945.6608799097557
 21
-354.6651825626068
 31
0.0
  0
LINE
  5
194
330
1F
100
AcDbEntity
  8
3-3
  6
JWW_CENTER1
 62
     6
370
     5
100
AcDbLine
 10
953.1616057332371
 20
-267.707405693942
 30
0.0
 11
953.1616057332371
 21
-316.4299563696173
 31
0.0
  0
LINE
  5
195
330
1F
100
AcDbEntity
  8
3-3
  6
JWW_CENTER1
 62
     6
370
     5
100
AcDbLine
 10
962.7581468544349
 20
-295.4990217729106
 30
0.0
 11
943.2722608219194
 21
-295.4990217729106
 31
0.0
  0
ARC
  5
196
330
1F
100
AcDbEntity
  8
3-3
  6
JWW_DASHED1
 62
     6
370
     5
100
AcDbCircle
 10
953.1616057332371
 20
-295.4990217729106
 30
0.0
 40
7.500000096656181
100
AcDbArc
 50
180.0
 51
0.0
  0
ARC
  5
197
330
1F
100
AcDbEntity
  8
3-3
  6
Continuous
 62
     6
370
     5
100
AcDbCircle
 10
953.1616057332371
 20
-295.4990217729106
 30
0.0
 40
7.500000096656181
100
AcDbArc
 50
0.0
 51
180.0
  0
LINE
  5
198
330
1F
100
AcDbEntity
  8
3-3
  6
Continuous
 62
     6
370
     5
100
AcDbLine
 10
969.8275025871203
 20
-432.9980320136207
 30
0.0
 11
936.494059280534
 21
-432.9980320136207
 31
0.0
  0
LINE
  5
199
330
1F
100
AcDbEntity
  8
3-3
  6
Continuous
 62
     6
370
     5
100
AcDbLine
 10
969.8275025871203
 20
-354.6651825626068
 30
0.0
 11
969.8275025871203
 21
-432.9980320136207
 31
0.0
  0
LINE
  5
19A
330
1F
100
AcDbEntity
  8
3-3
  6
Continuous
 62
     6
370
     5
100
AcDbLine
 10
969.8275025871203
 20
-354.6651825626068
 30
0.0
 11
936.494059280534
 21
-354.6651825626068
 31
0.0
  0
LINE
  5
19B
330
1F
100
AcDbEntity
  8
3-3
  6
Continuous
 62
     4
370
     9
100
AcDbLine
 10
1057.351023284473
 20
-311.3318712239246
 30
0.0
 11
960.6606819578985
 21
-311.3318712239246
 31
0.0
  0
LINE
  5
19C
330
1F
100
AcDbEntity
  8
3-3
  6
Continuous
 62
     4
370
     9
100
AcDbLine
 10
988.160319046159
 20
-271.3315742961372
 30
0.0
 11
988.160319046159
 21
-311.3318712239246
 31
0.0
  0
LINE
  5
19D
330
1F
100
AcDbEntity
  8
3-3
  6
Continuous
 62
     4
370
     9
100
AcDbLine
 10
931.4936193875144
 20
-271.3315742961372
 30
0.0
 11
1057.351023284473
 21
-271.3315742961372
 31
0.0
  0
ARC
  5
19E
330
1F
100
AcDbEntity
  8
3-3
  6
Continuous
 62
     4
370
     9
100
AcDbCircle
 10
931.4936193875144
 20
-274.6649076294705
 30
0.0
 40
3.333333333333333
100
AcDbArc
 50
90.0
 51
180.0
  0
LINE
  5
19F
330
1F
100
AcDbEntity
  8
3-3
  6
Continuous
 62
     4
370
     9
100
AcDbLine
 10
931.4936193875144
 20
-311.3318712239246
 30
0.0
 11
945.6608799097557
 21
-311.3318712239246
 31
0.0
  0
LINE
  5
1A0
330
1F
100
AcDbEntity
  8
3-3
  6
Continuous
 62
     4
370
     9
100
AcDbLine
 10
928.1602860541813
 20
-307.9985378905912
 30
0.0
 11
928.1602860541813
 21
-274.6649076294705
 31
0.0
  0
ARC
  5
1A1
330
1F
100
AcDbEntity
  8
3-3
  6
Continuous
 62
     4
370
     9
100
AcDbCircle
 10
931.4936193875144
 20
-307.9985378905912
 30
0.0
 40
3.333333333333333
100
AcDbArc
 50
180.0
 51
270.0
  0
LINE
  5
1A2
330
1F
100
AcDbEntity
  8
3-0
  6
JWW_CENTER2
 62
     7
370
     9
100
AcDbLine
 10
1301.49370736612
 20
-291.3317227600314
 30
0.0
 11
911.4935644008881
 21
-291.3317227600314
 31
0.0
  0
LINE
  5
1A3
330
1F
100
AcDbEntity
  8
3-3
  6
Continuous
 62
     4
370
     9
100
AcDbLine
 10
1219.351023284473
 20
-271.3315742961372
 30
0.0
 11
1247.048160973543
 21
-271.3315742961372
 31
0.0
  0
LINE
  5
1A4
330
1F
100
AcDbEntity
  8
3-3
  6
Continuous
 62
     4
370
     9
100
AcDbLine
 10
1219.351023284473
 20
-311.3318712239246
 30
0.0
 11
1254.101292558262
 21
-311.3318712239246
 31
0.0
  0
LINE
  5
1A5
330
1F
100
AcDbEntity
  8
3-1
  6
Continuous
 62
     4
370
     9
100
AcDbLine
 10
1266.734048955002
 20
-382.9757929084109
 30
0.0
 11
1243.585280673357
 21
-251.6926042061741
 31
0.0
  0
LINE
  5
1A6
330
1F
100
AcDbEntity
  8
3-1
  6
Continuous
 62
     4
370
     9
100
AcDbLine
 10
1266.734048955002
 20
-382.9757929084109
 30
0.0
 11
1285.174007555185
 21
-391.5744868197376
 31
0.0
  0
LINE
  5
1A7
330
1F
100
AcDbEntity
  8
3-1
  6
Continuous
 62
     4
370
     9
100
AcDbLine
 10
1243.585280673356
 20
-251.6926042061741
 30
0.0
 11
1257.972247173581
 21
-237.3056377059498
 31
0.0
  0
LINE
  5
1A8
330
1F
100
AcDbEntity
  8
3-1
  6
Continuous
 62
     4
370
     9
100
AcDbLine
 10
1260.745554667726
 20
-208.8832723736053
 30
0.0
 11
1253.195361894632
 21
-210.2145750690518
 31
0.0
  0
LINE
  5
1A9
330
1F
100
AcDbEntity
  8
3-1
  6
Continuous
 62
     4
370
     9
100
AcDbLine
 10
1297.501085607227
 20
-417.3342467611891
 30
0.0
 11
1289.950892834133
 21
-418.6655494566356
 31
0.0
  0
ARC
  5
1AA
330
1F
100
AcDbEntity
  8
3-1
  6
Continuous
 62
     2
370
     9
100
AcDbCircle
 10
1337.018050663415
 20
-439.3419455289384
 30
0.0
 40
10.66666519319689
100
AcDbArc
 50
0.0
 51
90.0
  0
LINE
  5
1AB
330
1F
100
AcDbEntity
  8
3-1
  6
Continuous
 62
     2
370
     9
100
AcDbLine
 10
1337.018050663415
 20
-428.6756395745459
 30
0.0
 11
1240.35001482973
 21
-428.6756395745459
 31
0.0
  0
LINE
  5
1AC
330
1F
100
AcDbEntity
  8
3-1
  6
Continuous
 62
     2
370
     9
100
AcDbLine
 10
1240.35001482973
 20
-428.6756395745459
 30
0.0
 11
1240.35001482973
 21
-436.3423062412126
 31
0.0
  0
LINE
  5
1AD
330
1F
100
AcDbEntity
  8
3-1
  6
Continuous
 62
     2
370
     9
100
AcDbLine
 10
1037.517689951139
 20
-436.3423062412126
 30
0.0
 11
1240.35001482973
 21
-436.3423062412126
 31
0.0
  0
ARC
  5
1AE
330
1F
100
AcDbEntity
  8
3-1
  6
Continuous
 62
     2
370
     9
100
AcDbCircle
 10
1337.018050663415
 20
-501.3426669534869
 30
0.0
 40
10.66666519319688
100
AcDbArc
 50
270.4702362859036
 51
359.5297637134759
  0
LINE
  5
1AF
330
1F
100
AcDbEntity
  8
3-1
  6
Continuous
 62
     2
370
     9
100
AcDbLine
 10
1337.10559283069
 20
-512.0089729078793
 30
0.0
 11
1239.184356617807
 21
-512.0089729078793
 31
0.0
  0
LINE
  5
1B0
330
1F
100
AcDbEntity
  8
3-1
  6
Continuous
 62
     2
370
     9
100
AcDbLine
 10
1347.684356617806
 20
-501.430209120877
 30
0.0
 11
1347.684356617806
 21
-439.3419455289384
 31
0.0
  0
CIRCLE
  5
1B1
330
1F
100
AcDbEntity
  8
3-1
  6
Continuous
 62
     4
370
     9
100
AcDbCircle
 10
1277.684356617806
 20
-454.6760244809367
 30
0.0
 40
8.833333333333334
  0
LINE
  5
1B2
330
1F
100
AcDbEntity
  8
3-2
  6
Continuous
 62
     3
370
     9
100
AcDbLine
 10
1057.351023284473
 20
-46.65422712611658
 30
0.0
 11
1057.351023284473
 21
-436.3423062412126
 31
0.0
  0
LINE
  5
1B3
330
1F
100
AcDbEntity
  8
3-2
  6
Continuous
 62
     3
370
     9
100
AcDbLine
 10
1219.351023284473
 20
-46.65422712611658
 30
0.0
 11
1219.351023284473
 21
-436.3423062412126
 31
0.0
  0
LINE
  5
1B4
330
1F
100
AcDbEntity
  8
3-0
  6
JWW_CENTER2
 62
     7
370
     9
100
AcDbLine
 10
1138.351023284473
 20
13.18846753179741
 30
0.0
 11
1138.351023284473
 21
-666.4845747440572
 31
0.0
  0
LINE
  5
1B5
330
1F
100
AcDbEntity
  8
3-1
  6
Continuous
 62
     2
370
     9
100
AcDbLine
 10
1037.517689951139
 20
-436.3423062412126
 30
0.0
 11
1037.517689951139
 21
-608.9169700436037
 31
0.0
  0
LINE
  5
1B6
330
1F
100
AcDbEntity
  8
3-1
  6
Continuous
 62
     2
370
     9
100
AcDbLine
 10
1239.184356617807
 20
-608.9169700436037
 30
0.0
 11
1239.184356617807
 21
-436.3423062412126
 31
0.0
  0
LINE
  5
1B7
330
1F
100
AcDbEntity
  8
3-5
  6
Continuous
 62
     7
370
     9
100
AcDbLine
 10
936.4940592805328
 20
-371.0506394735414
 30
0.0
 11
921.2750235553142
 21
-390.8844729808222
 31
0.0
  0
LINE
  5
1B8
330
1F
100
AcDbEntity
  8
3-5
  6
Continuous
 62
     7
370
     9
100
AcDbLine
 10
936.4940592805328
 20
-371.0506394735414
 30
0.0
 11
926.9269734714055
 21
-394.1476277863235
 31
0.0
  0
LINE
  5
1B9
330
1F
100
AcDbEntity
  8
3-5
  6
Continuous
 62
     7
370
     9
100
AcDbLine
 10
936.4940592805328
 20
-371.0506394735414
 30
0.0
 11
906.7729836511194
 21
-422.4671975721039
 31
0.0
  0
TEXT
  5
1BA
330
1F
100
AcDbEntity
  8
3-5
  6
Continuous
 62
     7
370
     9
100
AcDbText
 10
664.2729836511194
 20
-411.5705309054373
 30
0.0
 40
22.86
  1
南京錠：CAC202
 41
1.154761904761905
  7
ＭＳ ゴシック
100
AcDbText
  0
LINE
  5
1BB
330
1F
100
AcDbEntity
  8
3-5
  6
Continuous
 62
     7
370
     9
100
AcDbLine
 10
906.7729836511194
 20
-422.4671975721039
 30
0.0
 11
663.1747804222437
 21
-422.4671975721039
 31
0.0
  0
LWPOLYLINE
  5
1BC
330
1F
100
AcDbEntity
  8
3-4
  6
Continuous
 62
     7
370
     9
100
AcDbPolyline
 90
        4
 70
     1
 43
2.0
 10
982.2475215580132
 20
-428.675553794898
 42
0.4142135623731
 10
981.2475215580133
 20
-427.675553794898
 42
0.4142135623731
 10
980.2475215580134
 20
-428.675553794898
 42
0.4142135623731
 10
981.2475215580133
 20
-429.675553794898
 42
0.4142135623731
  0
LWPOLYLINE
  5
1BD
330
1F
100
AcDbEntity
  8
3-4
  6
Continuous
 62
     7
370
     9
100
AcDbPolyline
 90
        4
 70
     1
 43
2.0
 10
982.2475215580132
 20
-436.3447296762082
 42
0.4142135623731
 10
981.2475215580133
 20
-435.3447296762082
 42
0.4142135623731
 10
980.2475215580134
 20
-436.3447296762082
 42
0.4142135623731
 10
981.2475215580133
 20
-437.3447296762083
 42
0.4142135623731
  0
LINE
  5
1BE
330
1F
100
AcDbEntity
  8
3-4
  6
Continuous
 62
     7
370
     9
100
AcDbLine
 10
978.2475215580132
 20
-428.675553794898
 30
0.0
 11
1017.470559564965
 21
-428.675553794898
 31
0.0
  0
LINE
  5
1BF
330
1F
100
AcDbEntity
  8
3-4
  6
Continuous
 62
     7
370
     9
100
AcDbLine
 10
978.2475215580132
 20
-436.3447296762082
 30
0.0
 11
1017.517555970888
 21
-436.3447296762082
 31
0.0
  0
TEXT
  5
1C0
330
1F
100
AcDbEntity
  8
3-4
  6
Continuous
 62
     2
370
   211
100
AcDbText
 10
965.6075215580133
 20
-506.4453467901015
 30
0.0
 40
30.48
  1
2.3
 50
90.0
 41
1.083333333333333
  7
ＭＳ ゴシック
100
AcDbText
  0
LINE
  5
1C1
330
1F
100
AcDbEntity
  8
3-4
  6
Continuous
 62
     7
370
     9
100
AcDbLine
 10
981.2475215580133
 20
-428.675553794898
 30
0.0
 11
981.2475215580133
 21
-508.4130512094967
 31
0.0
  0
LINE
  5
1C2
330
1F
100
AcDbEntity
  8
3-5
  6
Continuous
 62
     7
370
     9
100
AcDbLine
 10
931.4936193875144
 20
-271.3315742961372
 30
0.0
 11
867.719331551101
 21
-160.8712675469484
 31
0.0
  0
LINE
  5
1C3
330
1F
100
AcDbEntity
  8
3-5
  6
Continuous
 62
     7
370
     9
100
AcDbLine
 10
931.4936193875144
 20
-271.3315742961372
 30
0.0
 11
921.9265335783871
 21
-248.234585983355
 31
0.0
  0
LINE
  5
1C4
330
1F
100
AcDbEntity
  8
3-5
  6
Continuous
 62
     7
370
     9
100
AcDbLine
 10
931.4936193875144
 20
-271.3315742961372
 30
0.0
 11
916.2745836622958
 21
-251.4977407888563
 31
0.0
  0
TEXT
  5
1C5
330
1F
100
AcDbEntity
  8
3-5
  6
Continuous
 62
     7
370
     9
100
AcDbText
 10
555.2193295947419
 20
-149.9747454128803
 30
0.0
 40
22.86
  1
ロックピン：SCS13A
 50
0.0000264995451948
 41
1.157407407407405
  7
ＭＳ ゴシック
100
AcDbText
  0
LINE
  5
1C6
330
1F
100
AcDbEntity
  8
3-5
  6
Continuous
 62
     7
370
     9
100
AcDbLine
 10
867.719331551101
 20
-160.8712675469484
 30
0.0
 11
553.3451376791686
 21
-160.8712675469484
 31
0.0
  0
LINE
  5
1C7
330
1F
100
AcDbEntity
  8
3-5
  6
Continuous
 62
     7
370
     9
100
AcDbLine
 10
1306.282419997821
 20
-182.8262211856627
 30
0.0
 11
1364.647410196524
 21
-182.8262211856627
 31
0.0
  0
TEXT
  5
1C8
330
1F
100
AcDbEntity
  8
3-5
  6
Continuous
 62
     7
370
     9
100
AcDbText
 10
1334.647410196524
 20
-171.9295545189962
 30
0.0
 40
22.86
  1
蓋
  7
ＭＳ ゴシック
100
AcDbText
  0
LINE
  5
1C9
330
1F
100
AcDbEntity
  8
3-5
  6
Continuous
 62
     7
370
     9
100
AcDbLine
 10
1267.87951930782
 20
-249.341996338766
 30
0.0
 11
1306.282419997821
 21
-182.8262211856627
 31
0.0
  0
LINE
  5
1CA
330
1F
100
AcDbEntity
  8
3-5
  6
Continuous
 62
     7
370
     9
100
AcDbLine
 10
1267.87951930782
 20
-249.341996338766
 30
0.0
 11
1277.446605116947
 21
-226.2450080259839
 31
0.0
  0
LINE
  5
1CB
330
1F
100
AcDbEntity
  8
3-5
  6
Continuous
 62
     7
370
     9
100
AcDbLine
 10
1267.87951930782
 20
-249.341996338766
 30
0.0
 11
1283.098555033038
 21
-229.508162831485
 31
0.0
  0
ARC
  5
1CC
330
1F
100
AcDbEntity
  8
3-1
  6
JWW_PHANTOM1
 62
     4
370
     9
100
AcDbCircle
 10
1277.684356617806
 20
-454.6760244809367
 30
0.0
 40
246.3757293241364
100
AcDbArc
 50
93.94230420547895
 51
175.7324469948653
  0
LINE
  5
1CD
330
1F
100
AcDbEntity
  8
3-1
  6
JWW_PHANTOM1
 62
     4
370
     9
100
AcDbLine
 10
1032.684461729205
 20
-436.3422204615648
 30
0.0
 11
1032.684461729205
 21
-428.675553794898
 31
0.0
  0
LINE
  5
1CE
330
1F
100
AcDbEntity
  8
3-1
  6
JWW_PHANTOM1
 62
     4
370
     9
100
AcDbLine
 10
1032.684461729205
 20
-428.675553794898
 30
0.0
 11
1240.35001482973
 21
-428.675553794898
 31
0.0
  0
LINE
  5
1CF
330
1F
100
AcDbEntity
  8
3-1
  6
JWW_PHANTOM1
 62
     4
370
     9
100
AcDbLine
 10
1032.684461729205
 20
-436.3422204615647
 30
0.0
 11
1240.35001482973
 21
-436.3422204615647
 31
0.0
  0
LINE
  5
1D0
330
1F
100
AcDbEntity
  8
3-6
  6
JWW_PHANTOM2
 62
     6
370
     5
100
AcDbLine
 10
1037.517689951139
 20
-436.3422204615645
 30
0.0
 11
685.1120016413762
 21
-436.3422204615645
 31
0.0
  0
LINE
  5
1D1
330
1F
100
AcDbEntity
  8
3-6
  6
JWW_PHANTOM2
 62
     6
370
     5
100
AcDbLine
 10
1347.254231389835
 20
-436.3422204615648
 30
0.0
 11
1696.865424522173
 21
-436.3422204615648
 31
0.0
  0
ARC
  5
1D2
330
1F
100
AcDbEntity
  8
3-2
  6
Continuous
 62
     3
370
     9
100
AcDbCircle
 10
1138.351023284472
 20
846.8952467906804
 30
0.0
 40
141.4666653840362
100
AcDbArc
 50
55.07015243537034
 51
124.9298475646297
  0
LINE
  5
1D3
330
1F
100
AcDbEntity
  8
3-2
  6
Continuous
 62
     3
370
     9
100
AcDbLine
 10
1219.351022550083
 20
958.3619124467021
 30
0.0
 11
1057.351024018862
 21
958.3619124467021
 31
0.0
  0
LINE
  5
1D4
330
1F
100
AcDbEntity
  8
3-2
  6
Continuous
 62
     3
370
     9
100
AcDbLine
 10
1280.407689397521
 20
588.3639832830816
 30
0.0
 11
1280.407689397521
 21
588.3973166161128
 31
0.0
  0
ARC
  5
1D5
330
1F
100
AcDbEntity
  8
3-2
  6
Continuous
 62
     3
370
     9
100
AcDbCircle
 10
1280.407689397521
 20
630.6406495664439
 30
0.0
 40
42.27666628336208
100
AcDbArc
 50
270.0
 51
0.0
  0
ARC
  5
1D6
330
1F
100
AcDbEntity
  8
3-2
  6
Continuous
 62
     3
370
     9
100
AcDbCircle
 10
1280.407689397521
 20
630.6406495664439
 30
0.0
 40
62.27666610202914
100
AcDbArc
 50
270.0
 51
0.0
  0
LINE
  5
1D7
330
1F
100
AcDbEntity
  8
3-2
  6
Continuous
 62
     3
370
     9
100
AcDbLine
 10
1322.684355680869
 20
630.6406495664439
 30
0.0
 11
1322.684355680869
 21
655.0306493453047
 31
0.0
  0
LINE
  5
1D8
330
1F
100
AcDbEntity
  8
3-2
  6
Continuous
 62
     3
370
     9
100
AcDbLine
 10
1342.684355499539
 20
630.6406495664439
 30
0.0
 11
1342.684355499539
 21
655.0306493453047
 31
0.0
  0
LINE
  5
1D9
330
1F
100
AcDbEntity
  8
3-2
  6
Continuous
 62
     3
370
     9
100
AcDbLine
 10
1239.351023103115
 20
653.3639826937494
 30
0.0
 11
1239.351023103115
 21
620.5576606829994
 31
0.0
  0
LINE
  5
1DA
330
1F
100
AcDbEntity
  8
3-2
  6
Continuous
 62
     3
370
     9
100
AcDbLine
 10
1219.351023284423
 20
653.3639826937494
 30
0.0
 11
1239.35102310309
 21
653.3639826937494
 31
0.0
  0
ARC
  5
1DB
330
1F
100
AcDbEntity
  8
3-2
  6
Continuous
 62
     3
370
     9
100
AcDbCircle
 10
1280.407689397521
 20
630.6406495664439
 30
0.0
 40
42.27666628336208
100
AcDbArc
 50
193.7980315976056
 51
270.0
  0
ARC
  5
1DC
330
1F
100
AcDbEntity
  8
3-2
  6
Continuous
 62
     3
370
     9
100
AcDbCircle
 10
1280.407689397521
 20
630.6406495664439
 30
0.0
 40
62.27666610202914
100
AcDbArc
 50
191.3596882805108
 51
270.0
  0
ARC
  5
1DD
330
1F
100
AcDbEntity
  8
3-2
  6
Continuous
 62
     3
370
     9
100
AcDbCircle
 10
1280.407689397521
 20
679.4206491241654
 30
0.0
 40
42.27666628336208
100
AcDbArc
 50
0.0
 51
90.0
  0
ARC
  5
1DE
330
1F
100
AcDbEntity
  8
3-2
  6
Continuous
 62
     3
370
     9
100
AcDbCircle
 10
1280.407689397521
 20
679.4206491241654
 30
0.0
 40
62.27666610202914
100
AcDbArc
 50
0.0
 51
90.0
  0
LINE
  5
1DF
330
1F
100
AcDbEntity
  8
3-2
  6
Continuous
 62
     3
370
     9
100
AcDbLine
 10
1322.684355680869
 20
679.4206491241654
 30
0.0
 11
1322.684355680869
 21
655.0306493453047
 31
0.0
  0
LINE
  5
1E0
330
1F
100
AcDbEntity
  8
3-2
  6
Continuous
 62
     3
370
     9
100
AcDbLine
 10
1342.684355499539
 20
679.4206491241654
 30
0.0
 11
1342.684355499539
 21
655.0306493453047
 31
0.0
  0
LINE
  5
1E1
330
1F
100
AcDbEntity
  8
3-2
  6
Continuous
 62
     3
370
     9
100
AcDbLine
 10
1239.351023103115
 20
656.6973159968599
 30
0.0
 11
1239.351023103115
 21
689.5036380076108
 31
0.0
  0
ARC
  5
1E2
330
1F
100
AcDbEntity
  8
3-2
  6
Continuous
 62
     3
370
     9
100
AcDbCircle
 10
1280.407689397521
 20
679.4206491241654
 30
0.0
 40
42.27666628336208
100
AcDbArc
 50
90.0
 51
166.2019684023945
  0
ARC
  5
1E3
330
1F
100
AcDbEntity
  8
3-2
  6
Continuous
 62
     3
370
     9
100
AcDbCircle
 10
1280.407689397521
 20
679.4206491241654
 30
0.0
 40
62.27666610202914
100
AcDbArc
 50
90.0
 51
168.6403117194892
  0
LINE
  5
1E4
330
1F
100
AcDbEntity
  8
3-2
  6
Continuous
 62
     3
370
     9
100
AcDbLine
 10
1219.351023284473
 20
656.6973159968599
 30
0.0
 11
1239.351023103115
 21
656.6973159968485
 31
0.0
  0
LINE
  5
1E5
330
1F
100
AcDbEntity
  8
3-A
  6
JWW_CENTER1
 62
     7
370
     9
100
AcDbLine
 10
1193.112999100144
 20
655.0306493453122
 30
0.0
 11
1364.159380885573
 21
655.0306493452601
 31
0.0
  0
LINE
  5
1E6
330
1F
100
AcDbEntity
  8
3-A
  6
JWW_CENTER1
 62
     7
370
     9
100
AcDbLine
 10
1280.407689397521
 20
539.9635541343677
 30
0.0
 11
1280.407689397521
 21
770.0977445562037
 31
0.0
  0
LINE
  5
1E7
330
1F
100
AcDbEntity
  8
3-2
  6
Continuous
 62
     3
370
     9
100
AcDbLine
 10
996.2943571714256
 20
588.3639832830816
 30
0.0
 11
996.2943571714256
 21
588.3973166161128
 31
0.0
  0
ARC
  5
1E8
330
1F
100
AcDbEntity
  8
3-2
  6
Continuous
 62
     3
370
     9
100
AcDbCircle
 10
996.2943571714256
 20
630.6406495664439
 30
0.0
 40
42.27666628336208
100
AcDbArc
 50
180.0
 51
270.0
  0
ARC
  5
1E9
330
1F
100
AcDbEntity
  8
3-2
  6
Continuous
 62
     3
370
     9
100
AcDbCircle
 10
996.2943571714256
 20
630.6406495664439
 30
0.0
 40
62.27666610202914
100
AcDbArc
 50
180.0
 51
270.0
  0
LINE
  5
1EA
330
1F
100
AcDbEntity
  8
3-2
  6
Continuous
 62
     3
370
     9
100
AcDbLine
 10
954.0176908880766
 20
630.6406495664439
 30
0.0
 11
954.0176908880766
 21
655.0306493453047
 31
0.0
  0
LINE
  5
1EB
330
1F
100
AcDbEntity
  8
3-2
  6
Continuous
 62
     3
370
     9
100
AcDbLine
 10
934.0176910694072
 20
630.6406495664439
 30
0.0
 11
934.0176910694072
 21
655.0306493453047
 31
0.0
  0
LINE
  5
1EC
330
1F
100
AcDbEntity
  8
3-2
  6
Continuous
 62
     3
370
     9
100
AcDbLine
 10
1037.351023465828
 20
653.3639826937494
 30
0.0
 11
1037.351023465828
 21
620.5576606829994
 31
0.0
  0
LINE
  5
1ED
330
1F
100
AcDbEntity
  8
3-2
  6
Continuous
 62
     3
370
     9
100
AcDbLine
 10
1057.351023284523
 20
653.3639826937494
 30
0.0
 11
1037.351023465854
 21
653.3639826937494
 31
0.0
  0
ARC
  5
1EE
330
1F
100
AcDbEntity
  8
3-2
  6
Continuous
 62
     3
370
     9
100
AcDbCircle
 10
996.2943571714256
 20
630.6406495664439
 30
0.0
 40
42.27666628336208
100
AcDbArc
 50
270.0
 51
346.2019684023944
  0
ARC
  5
1EF
330
1F
100
AcDbEntity
  8
3-2
  6
Continuous
 62
     3
370
     9
100
AcDbCircle
 10
996.2943571714256
 20
630.6406495664439
 30
0.0
 40
62.27666610202914
100
AcDbArc
 50
270.0
 51
348.6403117194892
  0
ARC
  5
1F0
330
1F
100
AcDbEntity
  8
3-2
  6
Continuous
 62
     3
370
     9
100
AcDbCircle
 10
996.2943571714256
 20
679.4206491241654
 30
0.0
 40
42.27666628336208
100
AcDbArc
 50
90.0
 51
180.0
  0
ARC
  5
1F1
330
1F
100
AcDbEntity
  8
3-2
  6
Continuous
 62
     3
370
     9
100
AcDbCircle
 10
996.2943571714256
 20
679.4206491241654
 30
0.0
 40
62.27666610202914
100
AcDbArc
 50
90.0
 51
180.0
  0
LINE
  5
1F2
330
1F
100
AcDbEntity
  8
3-2
  6
Continuous
 62
     3
370
     9
100
AcDbLine
 10
954.0176908880766
 20
679.4206491241654
 30
0.0
 11
954.0176908880766
 21
655.0306493453047
 31
0.0
  0
LINE
  5
1F3
330
1F
100
AcDbEntity
  8
3-2
  6
Continuous
 62
     3
370
     9
100
AcDbLine
 10
934.0176910694072
 20
679.4206491241654
 30
0.0
 11
934.0176910694072
 21
655.0306493453047
 31
0.0
  0
LINE
  5
1F4
330
1F
100
AcDbEntity
  8
3-2
  6
Continuous
 62
     3
370
     9
100
AcDbLine
 10
1037.351023465828
 20
656.6973159968599
 30
0.0
 11
1037.351023465828
 21
689.5036380076108
 31
0.0
  0
ARC
  5
1F5
330
1F
100
AcDbEntity
  8
3-2
  6
Continuous
 62
     3
370
     9
100
AcDbCircle
 10
996.2943571714256
 20
679.4206491241654
 30
0.0
 40
42.27666628336208
100
AcDbArc
 50
13.79803159760555
 51
90.0
  0
ARC
  5
1F6
330
1F
100
AcDbEntity
  8
3-2
  6
Continuous
 62
     3
370
     9
100
AcDbCircle
 10
996.2943571714256
 20
679.4206491241654
 30
0.0
 40
62.27666610202914
100
AcDbArc
 50
11.35968828051082
 51
90.0
  0
LINE
  5
1F7
330
1F
100
AcDbEntity
  8
3-2
  6
Continuous
 62
     3
370
     9
100
AcDbLine
 10
1057.351023284473
 20
656.6973159968599
 30
0.0
 11
1037.351023465828
 21
656.6973159968485
 31
0.0
  0
LINE
  5
1F8
330
1F
100
AcDbEntity
  8
3-A
  6
JWW_CENTER1
 62
     7
370
     9
100
AcDbLine
 10
1083.589047468802
 20
655.0306493453122
 30
0.0
 11
912.5426656833723
 21
655.0306493452601
 31
0.0
  0
LINE
  5
1F9
330
1F
100
AcDbEntity
  8
3-A
  6
JWW_CENTER1
 62
     7
370
     9
100
AcDbLine
 10
996.2943571714256
 20
539.9635541343677
 30
0.0
 11
996.2943571714256
 21
770.0977445562037
 31
0.0
  0
LINE
  5
1FA
330
1F
100
AcDbEntity
  8
3-2
  6
Continuous
 62
     3
370
     9
100
AcDbLine
 10
1219.351023284473
 20
962.8772175183013
 30
0.0
 11
1219.351023284473
 21
468.3612602730979
 31
0.0
  0
LINE
  5
1FB
330
1F
100
AcDbEntity
  8
3-2
  6
Continuous
 62
     3
370
     9
100
AcDbLine
 10
1057.351023284473
 20
962.8772175183013
 30
0.0
 11
1057.351023284473
 21
468.3612602730979
 31
0.0
  0
LINE
  5
1FC
330
1F
100
AcDbEntity
  8
3-0
  6
JWW_CENTER2
 62
     7
370
     9
100
AcDbLine
 10
1138.351023284473
 20
1049.222827084097
 30
0.0
 11
1138.351023284473
 21
407.9082192224705
 31
0.0
  0
LINE
  5
1FD
330
1F
100
AcDbEntity
  8
3-4
  6
Continuous
 62
     7
370
     9
100
AcDbLine
 10
1506.727103599646
 20
988.3619121747165
 30
0.0
 11
1506.727103599646
 21
655.0306493452601
 31
0.0
  0
LWPOLYLINE
  5
1FE
330
1F
100
AcDbEntity
  8
3-4
  6
Continuous
 62
     7
370
     9
100
AcDbPolyline
 90
        4
 70
     1
 43
2.0
 10
1507.727103599646
 20
988.3619121747165
 42
0.4142135623731
 10
1506.727103599646
 20
989.3619121747165
 42
0.4142135623731
 10
1505.727103599646
 20
988.3619121747165
 42
0.4142135623731
 10
1506.727103599646
 20
987.3619121747165
 42
0.4142135623731
  0
LWPOLYLINE
  5
1FF
330
1F
100
AcDbEntity
  8
3-4
  6
Continuous
 62
     7
370
     9
100
AcDbPolyline
 90
        4
 70
     1
 43
2.0
 10
1507.727103599646
 20
655.0306493452601
 42
0.4142135623731
 10
1506.727103599646
 20
656.03064934526
 42
0.4142135623731
 10
1505.727103599646
 20
655.0306493452601
 42
0.4142135623731
 10
1506.727103599646
 20
654.0306493452601
 42
0.4142135623731
  0
LINE
  5
200
330
1F
100
AcDbEntity
  8
3-4
  6
Continuous
 62
     7
370
     9
100
AcDbLine
 10
1509.727103599646
 20
988.3619121747165
 30
0.0
 11
1158.351023284473
 21
988.3619121747165
 31
0.0
  0
TEXT
  5
201
330
1F
100
AcDbEntity
  8
3-4
  6
Continuous
 62
     2
370
   211
100
AcDbText
 10
1495.087103599646
 20
789.1962807599883
 30
0.0
 40
30.48
  1
100
 50
90.0
 41
1.083333333333333
  7
ＭＳ ゴシック
100
AcDbText
  0
LINE
  5
202
330
1F
100
AcDbEntity
  8
3-4
  6
Continuous
 62
     7
370
     9
100
AcDbLine
 10
1439.479709646707
 20
741.6973152261946
 30
0.0
 11
1439.479709646707
 21
568.3639834644147
 31
0.0
  0
LWPOLYLINE
  5
203
330
1F
100
AcDbEntity
  8
3-4
  6
Continuous
 62
     7
370
     9
100
AcDbPolyline
 90
        4
 70
     1
 43
2.0
 10
1440.479709646707
 20
741.6973152261946
 42
0.4142135623731
 10
1439.479709646707
 20
742.6973152261945
 42
0.4142135623731
 10
1438.479709646707
 20
741.6973152261946
 42
0.4142135623731
 10
1439.479709646707
 20
740.6973152261946
 42
0.4142135623731
  0
LWPOLYLINE
  5
204
330
1F
100
AcDbEntity
  8
3-4
  6
Continuous
 62
     7
370
     9
100
AcDbPolyline
 90
        4
 70
     1
 43
2.0
 10
1440.479709646707
 20
568.3639834644147
 42
0.4142135623731
 10
1439.479709646707
 20
569.3639834644147
 42
0.4142135623731
 10
1438.479709646707
 20
568.3639834644147
 42
0.4142135623731
 10
1439.479709646707
 20
567.3639834644147
 42
0.4142135623731
  0
LINE
  5
205
330
1F
100
AcDbEntity
  8
3-4
  6
Continuous
 62
     7
370
     9
100
AcDbLine
 10
1442.479709646707
 20
741.6973152261946
 30
0.0
 11
1300.407689397521
 21
741.6973152261946
 31
0.0
  0
LINE
  5
206
330
1F
100
AcDbEntity
  8
3-4
  6
Continuous
 62
     7
370
     9
100
AcDbLine
 10
1442.479709646707
 20
568.3639834644147
 30
0.0
 11
1300.407689397521
 21
568.3639834644147
 31
0.0
  0
TEXT
  5
207
330
1F
100
AcDbEntity
  8
3-4
  6
Continuous
 62
     2
370
   211
100
AcDbText
 10
1427.839709646707
 20
633.7806493453047
 30
0.0
 40
30.48
  1
52
 50
90.0
 41
1.0625
  7
ＭＳ ゴシック
100
AcDbText
  0
LINE
  5
208
330
1F
100
AcDbEntity
  8
3-4
  6
Continuous
 62
     7
370
     9
100
AcDbLine
 10
1509.727103599646
 20
655.0306493452601
 30
0.0
 11
1456.727103599646
 21
655.0306493452601
 31
0.0
  0
LINE
  5
209
330
1F
100
AcDbEntity
  8
3-4
  6
Continuous
 62
     7
370
     9
100
AcDbLine
 10
1219.351022550004
 20
1046.165797119047
 30
0.0
 11
1342.68435549955
 21
1046.165797119047
 31
0.0
  0
LWPOLYLINE
  5
20A
330
1F
100
AcDbEntity
  8
3-4
  6
Continuous
 62
     7
370
     9
100
AcDbPolyline
 90
        4
 70
     1
 43
2.0
 10
1220.351022550003
 20
1046.165797119047
 42
0.4142135623731
 10
1219.351022550004
 20
1047.165797119046
 42
0.4142135623731
 10
1218.351022550004
 20
1046.165797119047
 42
0.4142135623731
 10
1219.351022550004
 20
1045.165797119047
 42
0.4142135623731
  0
LWPOLYLINE
  5
20B
330
1F
100
AcDbEntity
  8
3-4
  6
Continuous
 62
     7
370
     9
100
AcDbPolyline
 90
        4
 70
     1
 43
2.0
 10
1343.68435549955
 20
1046.165797119047
 42
0.4142135623731
 10
1342.68435549955
 20
1047.165797119046
 42
0.4142135623731
 10
1341.68435549955
 20
1046.165797119047
 42
0.4142135623731
 10
1342.68435549955
 20
1045.165797119047
 42
0.4142135623731
  0
LINE
  5
20C
330
1F
100
AcDbEntity
  8
3-4
  6
Continuous
 62
     7
370
     9
100
AcDbLine
 10
1219.351022550004
 20
1049.165797119046
 30
0.0
 11
1219.351022550004
 21
982.8772175183017
 31
0.0
  0
LINE
  5
20D
330
1F
100
AcDbEntity
  8
3-4
  6
Continuous
 62
     7
370
     9
100
AcDbLine
 10
1342.68435549955
 20
1049.165797119046
 30
0.0
 11
1342.68435549955
 21
699.4206491241654
 31
0.0
  0
TEXT
  5
20E
330
1F
100
AcDbEntity
  8
3-4
  6
Continuous
 62
     2
370
   211
100
AcDbText
 10
1259.767689024777
 20
1057.805797119046
 30
0.0
 40
30.48
  1
37
 41
1.0625
  7
ＭＳ ゴシック
100
AcDbText
  0
LINE
  5
20F
330
1F
100
AcDbEntity
  8
3-4
  6
Continuous
 62
     7
370
     9
100
AcDbLine
 10
1239.351023103115
 20
673.0187071488666
 30
0.0
 11
1219.351023284596
 21
673.0187071488666
 31
0.0
  0
LWPOLYLINE
  5
210
330
1F
100
AcDbEntity
  8
3-4
  6
Continuous
 62
     7
370
     9
100
AcDbPolyline
 90
        4
 70
     1
 43
2.0
 10
1240.351023103115
 20
673.0187071488666
 42
0.4142135623731
 10
1239.351023103115
 20
674.0187071488665
 42
0.4142135623731
 10
1238.351023103115
 20
673.0187071488666
 42
0.4142135623731
 10
1239.351023103115
 20
672.0187071488667
 42
0.4142135623731
  0
LWPOLYLINE
  5
211
330
1F
100
AcDbEntity
  8
3-4
  6
Continuous
 62
     7
370
     9
100
AcDbPolyline
 90
        4
 70
     1
 43
2.0
 10
1220.351023284595
 20
673.0187071488666
 42
0.4142135623731
 10
1219.351023284596
 20
674.0187071488665
 42
0.4142135623731
 10
1218.351023284596
 20
673.0187071488666
 42
0.4142135623731
 10
1219.351023284596
 20
672.0187071488667
 42
0.4142135623731
  0
TEXT
  5
212
330
1F
100
AcDbEntity
  8
3-4
  6
Continuous
 62
     2
370
   211
100
AcDbText
 10
1141.63077872138
 20
688.6587071488666
 30
0.0
 40
30.48
  1
φ6
 41
1.083333333333333
  7
ＭＳ ゴシック
100
AcDbText
  0
LINE
  5
213
330
1F
100
AcDbEntity
  8
3-4
  6
Continuous
 62
     7
370
     9
100
AcDbLine
 10
1219.351023284596
 20
673.0187071488666
 30
0.0
 11
1142.641186939818
 21
673.0187071488666
 31
0.0
  0
TEXT
  5
214
330
1F
100
AcDbEntity
  8
F-5ﾚｲﾔ
  6
Continuous
 62
     2
370
     0
100
AcDbText
 10
-778.5003505397486
 20
-1370.637217473965
 30
0.0
 40
30.48
  1
脱着式　スチール製蓋　鍵付　両フック付　ＥＡ０４８５ＲＣ－ＤＬ
 41
0.8991935483870968
  7
ＭＳ ゴシック
100
AcDbText
  0
TEXT
  5
215
330
1F
100
AcDbEntity
  8
C-5
  6
Continuous
 62
     2
370
     0
100
AcDbText
 10
1360.989361702128
 20
-1105.125957446808
 30
0.0
 40
30.48
  1
支柱質量：2.0kg／本
 41
1.111842105263158
  7
ＭＳ ゴシック
100
AcDbText
  0
LINE
  5
216
330
1F
100
AcDbEntity
  8
C-2
  6
Continuous
 62
     3
370
     9
100
AcDbLine
 10
24.46135862886145
 20
-59.48761359780241
 30
0.0
 11
24.46135862886145
 21
-76.52402932132406
 31
0.0
  0
LINE
  5
217
330
1F
100
AcDbEntity
  8
C-2
  6
Continuous
 62
     3
370
     9
100
AcDbLine
 10
-24.13864137113841
 20
-59.86557431951727
 30
0.0
 11
-24.13864137113841
 21
-76.52402932132406
 31
0.0
  0
LINE
  5
218
330
1F
100
AcDbEntity
  8
C-2
  6
Continuous
 62
     3
370
     9
100
AcDbLine
 10
-24.13864137113841
 20
765.8343120605856
 30
0.0
 11
-24.13864137113841
 21
-19.24235631884159
 31
0.0
  0
LINE
  5
219
330
1F
100
AcDbEntity
  8
C-2
  6
Continuous
 62
     3
370
     9
100
AcDbLine
 10
24.46135862886145
 20
765.8343120605856
 30
0.0
 11
24.46135862886145
 21
-19.62031704055647
 31
0.0
  0
LINE
  5
21A
330
1F
100
AcDbEntity
  8
C-1
  6
Continuous
 62
     2
370
     9
100
AcDbLine
 10
16.3
 20
-99.22402932132407
 30
0.0
 11
-16.3
 21
-99.22402932132407
 31
0.0
  0
LINE
  5
21B
330
1F
100
AcDbEntity
  8
C-1
  6
Continuous
 62
     2
370
     9
100
AcDbLine
 10
-16.3
 20
-74.22419428120585
 30
0.0
 11
-16.3
 21
-99.22402932132407
 31
0.0
  0
LINE
  5
21C
330
1F
100
AcDbEntity
  8
C-1
  6
Continuous
 62
     2
370
     9
100
AcDbLine
 10
-16.3
 20
-74.22419428120585
 30
0.0
 11
16.3
 21
-74.22419428120585
 31
0.0
  0
LINE
  5
21D
330
1F
100
AcDbEntity
  8
C-1
  6
Continuous
 62
     2
370
     9
100
AcDbLine
 10
16.3
 20
-74.22419428120585
 30
0.0
 11
16.3
 21
-99.22402932132414
 31
0.0
  0
LINE
  5
21E
330
1F
100
AcDbEntity
  8
C-1
  6
Continuous
 62
     4
370
     9
100
AcDbLine
 10
-10.0
 20
-74.22419428120585
 30
0.0
 11
-10.0
 21
-69.23023639947529
 31
0.0
  0
LINE
  5
21F
330
1F
100
AcDbEntity
  8
C-1
  6
Continuous
 62
     4
370
     9
100
AcDbLine
 10
10.0
 20
-74.22419428120585
 30
0.0
 11
10.0
 21
-69.23023639947529
 31
0.0
  0
LINE
  5
220
330
1F
100
AcDbEntity
  8
C-4
  6
Continuous
 62
     7
370
     9
100
AcDbLine
 10
-1330.642529487434
 20
851.7406810809229
 30
0.0
 11
-1282.042529707775
 21
851.7406810809229
 31
0.0
  0
LWPOLYLINE
  5
221
330
1F
100
AcDbEntity
  8
C-4
  6
Continuous
 62
     7
370
     9
100
AcDbPolyline
 90
        4
 70
     1
 43
2.0
 10
-1329.642529487435
 20
851.7406810809229
 42
0.4142135623731
 10
-1330.642529487434
 20
852.7406810809227
 42
0.4142135623731
 10
-1331.642529487434
 20
851.7406810809229
 42
0.4142135623731
 10
-1330.642529487434
 20
850.740681080923
 42
0.4142135623731
  0
LWPOLYLINE
  5
222
330
1F
100
AcDbEntity
  8
C-4
  6
Continuous
 62
     7
370
     9
100
AcDbPolyline
 90
        4
 70
     1
 43
2.0
 10
-1281.042529707775
 20
851.7406810809229
 42
0.4142135623731
 10
-1282.042529707775
 20
852.7406810809227
 42
0.4142135623731
 10
-1283.042529707775
 20
851.7406810809229
 42
0.4142135623731
 10
-1282.042529707775
 20
850.740681080923
 42
0.4142135623731
  0
LINE
  5
223
330
1F
100
AcDbEntity
  8
C-4
  6
Continuous
 62
     7
370
     9
100
AcDbLine
 10
-1330.642529487434
 20
854.7406810809229
 30
0.0
 11
-1330.642529487434
 21
785.8299694830579
 31
0.0
  0
LINE
  5
224
330
1F
100
AcDbEntity
  8
C-4
  6
Continuous
 62
     7
370
     9
100
AcDbLine
 10
-1282.042529707775
 20
854.7406810809229
 30
0.0
 11
-1282.042529707775
 21
785.8299693291752
 31
0.0
  0
TEXT
  5
225
330
1F
100
AcDbEntity
  8
C-4
  6
Continuous
 62
     2
370
   211
100
AcDbText
 10
-1372.592529597605
 20
863.3806810809227
 30
0.0
 40
30.48
  1
φ48.6
 41
1.104166666666667
  7
ＭＳ ゴシック
100
AcDbText
  0
LINE
  5
226
330
1F
100
AcDbEntity
  8
C-5
  6
Continuous
 62
     7
370
     9
100
AcDbLine
 10
-1276.093947199716
 20
-180.6734911839101
 30
0.0
 11
-1260.922173133083
 21
-160.8034818313443
 31
0.0
  0
LINE
  5
227
330
1F
100
AcDbEntity
  8
C-5
  6
Continuous
 62
     7
370
     9
100
AcDbLine
 10
-1276.093947199716
 20
-180.6734911839101
 30
0.0
 11
-1266.581875644942
 21
-157.5537919052242
 31
0.0
  0
LINE
  5
228
330
1F
100
AcDbEntity
  8
C-5
  6
Continuous
 62
     7
370
     9
100
AcDbLine
 10
-1276.093947199716
 20
-180.6734911839101
 30
0.0
 11
-1109.799143367211
 21
108.9477158718843
 31
0.0
  0
TEXT
  5
229
330
1F
100
AcDbEntity
  8
C-5
  6
Continuous
 62
     7
370
     9
100
AcDbText
 10
-1104.087450856306
 20
122.5825291903154
 30
0.0
 40
22.86
  1
脱着用埋設管
 41
1.138888888888889
  7
ＭＳ ゴシック
100
AcDbText
  0
TEXT
  5
22A
330
1F
100
AcDbEntity
  8
C-5
  6
Continuous
 62
     7
370
     9
100
AcDbText
 10
-1104.087450856306
 20
73.27756465130838
 30
0.0
 40
22.86
  1
蓋：SPHC　溶融亜鉛めっき
 41
1.152777777777778
  7
ＭＳ ゴシック
100
AcDbText
  0
TEXT
  5
22B
330
1F
100
AcDbEntity
  8
C-5
  6
Continuous
 62
     7
370
     9
100
AcDbText
 10
-1104.087450856306
 20
36.96196181442835
 30
0.0
 40
22.86
  1
埋設管本体：SGP　溶融亜鉛めっき
 41
1.155913978494624
  7
ＭＳ ゴシック
100
AcDbText
  0
LINE
  5
22C
330
1F
100
AcDbEntity
  8
C-5
  6
Continuous
 62
     7
370
     9
100
AcDbLine
 10
-563.0160126515523
 20
108.9477158718844
 30
0.0
 11
-1109.799143367211
 21
108.9477158718844
 31
0.0
  0
ENDSEC
  0
SECTION
  2
OBJECTS
  0
DICTIONARY
  5
C
330
0
100
AcDbDictionary
281
     1
  3
ACAD_DETAILVIEWSTYLE
350
234
  3
ACAD_GROUP
350
D
  3
ACAD_LAYOUT
350
1A
  3
ACAD_MATERIAL
350
43
  3
ACAD_MLEADERSTYLE
350
6B
  3
ACAD_MLINESTYLE
350
17
  3
ACAD_PLOTSETTINGS
350
19
  3
ACAD_PLOTSTYLENAME
350
E
  3
ACAD_SCALELIST
350
47
  3
ACAD_SECTIONVIEWSTYLE
350
235
  3
ACAD_TABLESTYLE
350
69
  3
ACAD_VISUALSTYLE
350
2A
  3
ACDB_RECOMPOSE_DATA
350
231
  3
AcDbVariableDictionary
350
22D
  0
SUN
  5
6D
330
29
100
AcDbSun
 90
        1
290
     0
 63
     7
421
 16777215
 40
1.0
291
     1
 91
  2455826
 92
 54000000
292
     0
 70
     2
 71
   256
280
     1
  0
DICTIONARY
  5
234
102
{ACAD_REACTORS
330
C
102
}
330
C
100
AcDbDictionary
281
     1
  0
DICTIONARY
  5
D
102
{ACAD_REACTORS
330
C
102
}
330
C
100
AcDbDictionary
281
     1
  0
DICTIONARY
  5
1A
102
{ACAD_REACTORS
330
C
102
}
330
C
100
AcDbDictionary
281
     1
  3
Layout1
350
1E
  3
Layout2
350
26
  3
Model
350
22
  0
DICTIONARY
  5
43
102
{ACAD_REACTORS
330
C
102
}
330
C
100
AcDbDictionary
281
     1
  3
ByBlock
350
45
  3
ByLayer
350
44
  3
Global
350
46
  0
DICTIONARY
  5
6B
102
{ACAD_REACTORS
330
C
102
}
330
C
100
AcDbDictionary
281
     1
  3
Standard
350
6C
  0
DICTIONARY
  5
17
102
{ACAD_REACTORS
330
C
102
}
330
C
100
AcDbDictionary
281
     1
  3
Standard
350
18
  0
DICTIONARY
  5
19
102
{ACAD_REACTORS
330
C
102
}
330
C
100
AcDbDictionary
281
     1
  0
ACDBDICTIONARYWDFLT
  5
E
102
{ACAD_REACTORS
330
C
102
}
330
C
100
AcDbDictionary
281
     1
  3
Normal
350
F
100
AcDbDictionaryWithDefault
340
F
  0
DICTIONARY
  5
47
102
{ACAD_REACTORS
330
C
102
}
330
C
100
AcDbDictionary
281
     1
  3
A0
350
48
  3
A1
350
49
  3
A2
350
4A
  3
A3
350
4B
  3
A4
350
4C
  3
A5
350
4D
  3
A6
350
4E
  3
A7
350
4F
  3
A8
350
50
  3
A9
350
51
  3
B0
350
52
  3
B1
350
53
  3
B2
350
54
  3
B3
350
55
  3
B4
350
56
  3
B5
350
57
  3
B6
350
58
  3
B7
350
59
  3
B8
350
5A
  3
B9
350
5B
  3
C0
350
5C
  3
C1
350
5D
  3
C2
350
5E
  3
C3
350
5F
  3
C4
350
60
  3
C5
350
61
  3
C6
350
62
  3
C7
350
63
  3
C8
350
64
  3
C9
350
65
  3
D0
350
66
  3
D1
350
67
  3
D2
350
68
  0
DICTIONARY
  5
235
102
{ACAD_REACTORS
330
C
102
}
330
C
100
AcDbDictionary
281
     1
  0
DICTIONARY
  5
69
102
{ACAD_REACTORS
330
C
102
}
330
C
100
AcDbDictionary
281
     1
  3
Standard
350
6A
  0
DICTIONARY
  5
2A
102
{ACAD_REACTORS
330
C
102
}
330
C
100
AcDbDictionary
281
     1
  3
2dWireframe
350
2F
  3
Basic
350
32
  3
Brighten
350
36
  3
ColorChange
350
3A
  3
Conceptual
350
34
  3
Dim
350
35
  3
EdgeColorOff
350
3D
  3
Facepattern
350
39
  3
Flat
350
2B
  3
FlatWithEdges
350
2C
  3
Gouraud
350
2D
  3
GouraudWithEdges
350
2E
  3
Hidden
350
31
  3
JitterOff
350
3B
  3
Linepattern
350
38
  3
OverhangOff
350
3C
  3
Realistic
350
33
  3
Shaded
350
42
  3
Shaded with edges
350
41
  3
Shades of Gray
350
3E
  3
Sketchy
350
3F
  3
Thicken
350
37
  3
Wireframe
350
30
  3
X-Ray
350
40
  0
XRECORD
  5
231
102
{ACAD_REACTORS
330
C
102
}
330
C
100
AcDbXrecord
280
     1
 90
        1
330
6A
  0
DICTIONARY
  5
22D
102
{ACAD_REACTORS
330
C
102
}
330
C
100
AcDbDictionary
281
     1
  3
CANNOSCALE
350
22E
  3
CENTEREXE
350
236
  3
CENTERLTYPEFILE
350
237
  3
CMLEADERSTYLE
350
233
  3
CTABLESTYLE
350
232
  0
LAYOUT
  5
1E
102
{ACAD_REACTORS
330
1A
102
}
330
1A
100
AcDbPlotSettings
  1

  2
none_device
  4

  6

 40
0.0
 41
0.0
 42
0.0
 43
0.0
 44
0.0
 45
0.0
 46
0.0
 47
0.0
 48
0.0
 49
0.0
140
0.0
141
0.0
142
1.0
143
1.0
 70
   688
 72
     1
 73
     0
 74
     5
  7

 75
    16
 76
     0
 77
     5
 78
   300
147
1.0
148
0.0
149
0.0
100
AcDbLayout
  1
Layout1
 70
     1
 71
     1
 10
0.0
 20
0.0
 11
420.0
 21
297.0
 12
0.0
 22
0.0
 32
0.0
 14
1.000000000000000E+20
 24
1.000000000000000E+20
 34
1.000000000000000E+20
 15
-1.000000000000000E+20
 25
-1.000000000000000E+20
 35
-1.000000000000000E+20
146
0.0
 13
0.0
 23
0.0
 33
0.0
 16
1.0
 26
0.0
 36
0.0
 17
0.0
 27
1.0
 37
0.0
 76
     0
330
1B
  0
LAYOUT
  5
26
102
{ACAD_REACTORS
330
1A
102
}
330
1A
100
AcDbPlotSettings
  1

  2
none_device
  4

  6

 40
0.0
 41
0.0
 42
0.0
 43
0.0
 44
0.0
 45
0.0
 46
0.0
 47
0.0
 48
0.0
 49
0.0
140
0.0
141
0.0
142
1.0
143
1.0
 70
   688
 72
     1
 73
     0
 74
     5
  7

 75
    16
 76
     0
 77
     5
 78
   300
147
1.0
148
0.0
149
0.0
100
AcDbLayout
  1
Layout2
 70
     1
 71
     2
 10
0.0
 20
0.0
 11
0.0
 21
0.0
 12
0.0
 22
0.0
 32
0.0
 14
0.0
 24
0.0
 34
0.0
 15
0.0
 25
0.0
 35
0.0
146
0.0
 13
0.0
 23
0.0
 33
0.0
 16
1.0
 26
0.0
 36
0.0
 17
0.0
 27
1.0
 37
0.0
 76
     0
330
23
  0
LAYOUT
  5
22
102
{ACAD_REACTORS
330
1A
102
}
330
1A
100
AcDbPlotSettings
  1

  2
none_device
  4
Letter_(8.50_x_11.00_Inches)
  6

 40
6.35
 41
6.35
 42
6.35000508
 43
6.35000508
 44
215.9
 45
279.4
 46
0.0
 47
0.0
 48
0.0
 49
0.0
140
0.0
141
0.0
142
1.0
143
1.0
 70
  1712
 72
     1
 73
     0
 74
     0
  7

 75
     0
 76
     0
 77
     5
 78
   300
147
1.0
148
0.0
149
0.0
100
AcDbLayout
  1
Model
 70
     1
 71
     0
 10
-2100.0
 20
-1485.0
 11
2100.0
 21
1485.0
 12
0.0
 22
0.0
 32
0.0
 14
-2100.0
 24
-1485.0
 34
0.0
 15
2100.0
 25
1485.0
 35
0.0
146
0.0
 13
0.0
 23
0.0
 33
0.0
 16
1.0
 26
0.0
 36
0.0
 17
0.0
 27
1.0
 37
0.0
 76
     0
330
1F
331
29
  0
MATERIAL
  5
45
102
{ACAD_REACTORS
330
43
102
}
330
43
100
AcDbMaterial
  1
ByBlock
 72
     1
 94
      127
  0
MATERIAL
  5
44
102
{ACAD_REACTORS
330
43
102
}
330
43
100
AcDbMaterial
  1
ByLayer
 72
     1
 94
      127
  0
MATERIAL
  5
46
102
{ACAD_REACTORS
330
43
102
}
330
43
100
AcDbMaterial
  1
Global
 72
     1
 94
      127
  0
MLEADERSTYLE
  5
6C
102
{ACAD_REACTORS
330
6B
102
}
330
6B
100
AcDbMLeaderStyle
179
     2
170
     2
171
     1
172
     0
 90
        2
 40
0.0
 41
0.0
173
     1
 91
-1056964608
340
14
 92
       -2
290
     1
 42
2.0
291
     1
 43
8.0
  3
Standard
341
0
 44
4.0
300

342
11
174
     1
178
     6
175
     1
176
     0
 93
-1056964608
 45
4.0
292
     0
297
     0
 46
4.0
343
0
 94
-1056964608
 47
1.0
 49
1.0
140
1.0
293
     1
141
0.0
294
     1
177
     0
142
1.0
295
     0
296
     0
143
3.75
271
     0
272
     9
273
     9
298
     0
  0
MLINESTYLE
  5
18
102
{ACAD_REACTORS
330
17
102
}
330
17
100
AcDbMlineStyle
  2
Standard
 70
     0
  3

 62
   256
 51
90.0
 52
90.0
 71
     2
 49
0.5
 62
   256
  6
BYLAYER
 49
-0.5
 62
   256
  6
BYLAYER
  0
ACDBPLACEHOLDER
  5
F
102
{ACAD_REACTORS
330
E
102
}
330
E
  0
SCALE
  5
48
102
{ACAD_REACTORS
330
47
102
}
330
47
100
AcDbScale
 70
     0
300
1:1
140
1.0
141
1.0
290
     1
  0
SCALE
  5
49
102
{ACAD_REACTORS
330
47
102
}
330
47
100
AcDbScale
 70
     0
300
1:2
140
1.0
141
2.0
290
     0
  0
SCALE
  5
4A
102
{ACAD_REACTORS
330
47
102
}
330
47
100
AcDbScale
 70
     0
300
1:4
140
1.0
141
4.0
290
     0
  0
SCALE
  5
4B
102
{ACAD_REACTORS
330
47
102
}
330
47
100
AcDbScale
 70
     0
300
1:5
140
1.0
141
5.0
290
     0
  0
SCALE
  5
4C
102
{ACAD_REACTORS
330
47
102
}
330
47
100
AcDbScale
 70
     0
300
1:8
140
1.0
141
8.0
290
     0
  0
SCALE
  5
4D
102
{ACAD_REACTORS
330
47
102
}
330
47
100
AcDbScale
 70
     0
300
1:10
140
1.0
141
10.0
290
     0
  0
SCALE
  5
4E
102
{ACAD_REACTORS
330
47
102
}
330
47
100
AcDbScale
 70
     0
300
1:16
140
1.0
141
16.0
290
     0
  0
SCALE
  5
4F
102
{ACAD_REACTORS
330
47
102
}
330
47
100
AcDbScale
 70
     0
300
1:20
140
1.0
141
20.0
290
     0
  0
SCALE
  5
50
102
{ACAD_REACTORS
330
47
102
}
330
47
100
AcDbScale
 70
     0
300
1:30
140
1.0
141
30.0
290
     0
  0
SCALE
  5
51
102
{ACAD_REACTORS
330
47
102
}
330
47
100
AcDbScale
 70
     0
300
1:40
140
1.0
141
40.0
290
     0
  0
SCALE
  5
52
102
{ACAD_REACTORS
330
47
102
}
330
47
100
AcDbScale
 70
     0
300
1:50
140
1.0
141
50.0
290
     0
  0
SCALE
  5
53
102
{ACAD_REACTORS
330
47
102
}
330
47
100
AcDbScale
 70
     0
300
1:100
140
1.0
141
100.0
290
     0
  0
SCALE
  5
54
102
{ACAD_REACTORS
330
47
102
}
330
47
100
AcDbScale
 70
     0
300
2:1
140
2.0
141
1.0
290
     0
  0
SCALE
  5
55
102
{ACAD_REACTORS
330
47
102
}
330
47
100
AcDbScale
 70
     0
300
4:1
140
4.0
141
1.0
290
     0
  0
SCALE
  5
56
102
{ACAD_REACTORS
330
47
102
}
330
47
100
AcDbScale
 70
     0
300
8:1
140
8.0
141
1.0
290
     0
  0
SCALE
  5
57
102
{ACAD_REACTORS
330
47
102
}
330
47
100
AcDbScale
 70
     0
300
10:1
140
10.0
141
1.0
290
     0
  0
SCALE
  5
58
102
{ACAD_REACTORS
330
47
102
}
330
47
100
AcDbScale
 70
     0
300
100:1
140
100.0
141
1.0
290
     0
  0
SCALE
  5
59
102
{ACAD_REACTORS
330
47
102
}
330
47
100
AcDbScale
 70
     0
300
1/128" = 1'-0"
140
0.0078125
141
12.0
290
     0
  0
SCALE
  5
5A
102
{ACAD_REACTORS
330
47
102
}
330
47
100
AcDbScale
 70
     0
300
1/64" = 1'-0"
140
0.015625
141
12.0
290
     0
  0
SCALE
  5
5B
102
{ACAD_REACTORS
330
47
102
}
330
47
100
AcDbScale
 70
     0
300
1/32" = 1'-0"
140
0.03125
141
12.0
290
     0
  0
SCALE
  5
5C
102
{ACAD_REACTORS
330
47
102
}
330
47
100
AcDbScale
 70
     0
300
1/16" = 1'-0"
140
0.0625
141
12.0
290
     0
  0
SCALE
  5
5D
102
{ACAD_REACTORS
330
47
102
}
330
47
100
AcDbScale
 70
     0
300
3/32" = 1'-0"
140
0.09375
141
12.0
290
     0
  0
SCALE
  5
5E
102
{ACAD_REACTORS
330
47
102
}
330
47
100
AcDbScale
 70
     0
300
1/8" = 1'-0"
140
0.125
141
12.0
290
     0
  0
SCALE
  5
5F
102
{ACAD_REACTORS
330
47
102
}
330
47
100
AcDbScale
 70
     0
300
3/16" = 1'-0"
140
0.1875
141
12.0
290
     0
  0
SCALE
  5
60
102
{ACAD_REACTORS
330
47
102
}
330
47
100
AcDbScale
 70
     0
300
1/4" = 1'-0"
140
0.25
141
12.0
290
     0
  0
SCALE
  5
61
102
{ACAD_REACTORS
330
47
102
}
330
47
100
AcDbScale
 70
     0
300
3/8" = 1'-0"
140
0.375
141
12.0
290
     0
  0
SCALE
  5
62
102
{ACAD_REACTORS
330
47
102
}
330
47
100
AcDbScale
 70
     0
300
1/2" = 1'-0"
140
0.5
141
12.0
290
     0
  0
SCALE
  5
63
102
{ACAD_REACTORS
330
47
102
}
330
47
100
AcDbScale
 70
     0
300
3/4" = 1'-0"
140
0.75
141
12.0
290
     0
  0
SCALE
  5
64
102
{ACAD_REACTORS
330
47
102
}
330
47
100
AcDbScale
 70
     0
300
1" = 1'-0"
140
1.0
141
12.0
290
     0
  0
SCALE
  5
65
102
{ACAD_REACTORS
330
47
102
}
330
47
100
AcDbScale
 70
     0
300
1-1/2" = 1'-0"
140
1.5
141
12.0
290
     0
  0
SCALE
  5
66
102
{ACAD_REACTORS
330
47
102
}
330
47
100
AcDbScale
 70
     0
300
3" = 1'-0"
140
3.0
141
12.0
290
     0
  0
SCALE
  5
67
102
{ACAD_REACTORS
330
47
102
}
330
47
100
AcDbScale
 70
     0
300
6" = 1'-0"
140
6.0
141
12.0
290
     0
  0
SCALE
  5
68
102
{ACAD_REACTORS
330
47
102
}
330
47
100
AcDbScale
 70
     0
300
1'-0" = 1'-0"
140
12.0
141
12.0
290
     0
  0
TABLESTYLE
  5
6A
102
{ACAD_REACTORS
330
69
102
}
102
{ACAD_XDICTIONARY
360
22F
102
}
330
69
100
AcDbTableStyle
  3
Standard
 70
     0
 71
     0
 40
0.06
 41
0.06
280
     0
281
     0
  7
Standard
140
4.5
170
     2
 62
     0
 63
   257
283
     0
 90
        4
 91
        0
  1

274
    -2
284
     1
 64
     0
275
    -2
285
     1
 65
     0
276
    -2
286
     1
 66
     0
277
    -2
287
     1
 67
     0
278
    -2
288
     1
 68
     0
279
    -2
289
     1
 69
     0
  7
Standard
140
6.0
170
     5
 62
     0
 63
   257
283
     0
 90
        4
 91
        0
  1

274
    -2
284
     1
 64
     0
275
    -2
285
     1
 65
     0
276
    -2
286
     1
 66
     0
277
    -2
287
     1
 67
     0
278
    -2
288
     1
 68
     0
279
    -2
289
     1
 69
     0
  7
Standard
140
4.5
170
     5
 62
     0
 63
   257
283
     0
 90
        4
 91
        0
  1

274
    -2
284
     1
 64
     0
275
    -2
285
     1
 65
     0
276
    -2
286
     1
 66
     0
277
    -2
287
     1
 67
     0
278
    -2
288
     1
 68
     0
279
    -2
289
     1
 69
     0
  0
VISUALSTYLE
  5
2F
102
{ACAD_REACTORS
330
2A
102
}
330
2A
100
AcDbVisualStyle
  2
2dWireframe
 70
     4
177
     3
291
     0
 70
    58
 90
        0
176
     1
 90
        2
176
     1
 90
        0
176
     1
 90
        0
176
     1
 40
0.6
176
     1
 40
30.0
176
     1
 62
     7
420
 16777215
176
     1
 90
        1
176
     1
 90
        4
176
     1
 62
     7
176
     1
 62
   257
176
     1
 90
        1
176
     1
 90
        1
176
     1
 40
1.0
176
     1
 90
        0
176
     1
 62
   257
176
     1
 40
1.0
176
     1
 90
        1
176
     1
 90
        6
176
     1
 90
        2
176
     1
 62
     7
176
     1
 90
        5
176
     1
 90
        0
176
     1
 90
        0
176
     1
290
     0
176
     1
 90
        1
176
     1
 40
0.0
176
     1
 90
        0
176
     1
290
     1
176
     1
290
     1
176
     1
290
     0
176
     1
290
     0
176
     1
290
     0
176
     1
290
     0
176
     1
290
     0
176
     1
290
     0
176
     1
290
     0
176
     1
 90
       50
176
     1
 40
0.0
176
     1
 40
1.0
176
     1
 90
        0
176
     1
 62
    18
420
        0
176
     1
 90
       50
176
     1
 90
        3
176
     1
 62
     5
420
      255
176
     1
290
     0
176
     1
 90
       50
176
     1
 90
       50
176
     1
 90
       50
176
     1
290
     0
176
     1
 90
       50
176
     1
 62
   256
176
     0
 40
1.0
176
     0
 90
        2
176
     1
  1
strokes_ogs.tif
176
     1
290
     0
176
     1
 40
1.0
176
     1
 40
1.0
176
     1
  0
VISUALSTYLE
  5
32
102
{ACAD_REACTORS
330
2A
102
}
330
2A
100
AcDbVisualStyle
  2
Basic
 70
     7
177
     3
291
     1
 70
    58
 90
        1
176
     1
 90
        0
176
     1
 90
        1
176
     1
 90
        0
176
     1
 40
0.6
176
     1
 40
30.0
176
     1
 62
     7
420
 16777215
176
     1
 90
        0
176
     1
 90
        4
176
     1
 62
     7
176
     1
 62
   257
176
     1
 90
        1
176
     1
 90
        1
176
     1
 40
1.0
176
     1
 90
        8
176
     1
 62
     7
176
     1
 40
1.0
176
     1
 90
        1
176
     1
 90
        6
176
     1
 90
        2
176
     1
 62
     7
176
     1
 90
        5
176
     1
 90
        0
176
     1
 90
        0
176
     1
290
     0
176
     1
 90
        1
176
     1
 40
0.0
176
     1
 90
        0
176
     1
290
     0
176
     1
290
     1
176
     1
290
     1
176
     1
290
     0
176
     1
290
     0
176
     1
290
     0
176
     1
290
     0
176
     1
290
     0
176
     1
290
     0
176
     1
 90
       50
176
     1
 40
0.0
176
     1
 40
1.0
176
     1
 90
        0
176
     1
 62
    18
420
        0
176
     1
 90
       50
176
     1
 90
        3
176
     1
 62
     5
420
      255
176
     1
290
     0
176
     1
 90
       50
176
     1
 90
       50
176
     1
 90
       50
176
     1
290
     0
176
     1
 90
       50
176
     1
 62
   256
176
     0
 40
1.0
176
     0
 90
        2
176
     1
  1
strokes_ogs.tif
176
     1
290
     0
176
     1
 40
1.0
176
     1
 40
1.0
176
     1
  0
VISUALSTYLE
  5
36
102
{ACAD_REACTORS
330
2A
102
}
330
2A
100
AcDbVisualStyle
  2
Brighten
 70
    12
177
     3
291
     1
 70
    58
 90
        2
176
     1
 90
        2
176
     1
 90
        0
176
     1
 90
        0
176
     1
 40
0.6
176
     1
 40
30.0
176
     1
 62
     7
420
 16777215
176
     1
 90
        1
176
     1
 90
        4
176
     1
 62
     7
176
     1
 62
   257
176
     1
 90
        1
176
     1
 90
        1
176
     1
 40
1.0
176
     1
 90
        8
176
     1
 62
     7
176
     1
 40
1.0
176
     1
 90
        1
176
     1
 90
        6
176
     1
 90
        2
176
     1
 62
     7
176
     1
 90
        5
176
     1
 90
        0
176
     1
 90
        0
176
     1
290
     0
176
     1
 90
        1
176
     1
 40
50.0
176
     1
 90
        0
176
     1
290
     0
176
     1
290
     1
176
     1
290
     1
176
     1
290
     0
176
     1
290
     0
176
     1
290
     0
176
     1
290
     0
176
     1
290
     0
176
     1
290
     0
176
     1
 90
       50
176
     1
 40
0.0
176
     1
 40
1.0
176
     1
 90
        0
176
     1
 62
    18
420
        0
176
     1
 90
       50
176
     1
 90
        3
176
     1
 62
     5
420
      255
176
     1
290
     0
176
     1
 90
       50
176
     1
 90
       50
176
     1
 90
       50
176
     1
290
     0
176
     1
 90
       50
176
     1
 62
   256
176
     0
 40
1.0
176
     0
 90
        2
176
     1
  1
strokes_ogs.tif
176
     1
290
     0
176
     1
 40
1.0
176
     1
 40
1.0
176
     1
  0
VISUALSTYLE
  5
3A
102
{ACAD_REACTORS
330
2A
102
}
330
2A
100
AcDbVisualStyle
  2
ColorChange
 70
    16
177
     3
291
     1
 70
    58
 90
        2
176
     1
 90
        2
176
     1
 90
        3
176
     1
 90
        0
176
     1
 40
0.6
176
     1
 40
30.0
176
     1
 62
     8
420
  8421504
176
     1
 90
        1
176
     1
 90
        4
176
     1
 62
     7
176
     1
 62
   257
176
     1
 90
        1
176
     1
 90
        1
176
     1
 40
1.0
176
     1
 90
        8
176
     1
 62
     8
420
  8421504
176
     1
 40
1.0
176
     1
 90
        1
176
     1
 90
        6
176
     1
 90
        2
176
     1
 62
     7
176
     1
 90
        5
176
     1
 90
        0
176
     1
 90
        0
176
     1
290
     0
176
     1
 90
        1
176
     1
 40
0.0
176
     1
 90
        0
176
     1
290
     0
176
     1
290
     1
176
     1
290
     1
176
     1
290
     0
176
     1
290
     0
176
     1
290
     0
176
     1
290
     0
176
     1
290
     0
176
     1
290
     0
176
     1
 90
       50
176
     1
 40
0.0
176
     1
 40
1.0
176
     1
 90
        0
176
     1
 62
    18
420
        0
176
     1
 90
       50
176
     1
 90
        3
176
     1
 62
     5
420
      255
176
     1
290
     0
176
     1
 90
       50
176
     1
 90
       50
176
     1
 90
       50
176
     1
290
     0
176
     1
 90
       50
176
     1
 62
   256
176
     0
 40
1.0
176
     0
 90
        2
176
     1
  1
strokes_ogs.tif
176
     1
290
     0
176
     1
 40
1.0
176
     1
 40
1.0
176
     1
  0
VISUALSTYLE
  5
34
102
{ACAD_REACTORS
330
2A
102
}
330
2A
100
AcDbVisualStyle
  2
Conceptual
 70
     9
177
     3
291
     0
 70
    58
 90
        3
176
     1
 90
        2
176
     1
 90
        0
176
     1
 90
        0
176
     1
 40
0.6
176
     1
 40
30.0
176
     1
 62
     7
420
 16777215
176
     1
 90
        2
176
     1
 90
        2
176
     1
 62
     7
176
     1
 62
   257
176
     1
 90
        1
176
     1
 90
        1
176
     1
 40
179.0
176
     1
 90
        8
176
     1
 62
     7
176
     1
 40
1.0
176
     1
 90
        1
176
     1
 90
        6
176
     1
 90
        2
176
     1
 62
     7
176
     1
 90
        3
176
     1
 90
        0
176
     1
 90
        0
176
     1
290
     0
176
     1
 90
        1
176
     1
 40
0.0
176
     1
 90
        0
176
     1
290
     0
176
     1
290
     1
176
     1
290
     1
176
     1
290
     0
176
     1
290
     0
176
     1
290
     0
176
     1
290
     0
176
     1
290
     0
176
     1
290
     0
176
     1
 90
       50
176
     1
 40
0.0
176
     1
 40
1.0
176
     1
 90
        0
176
     1
 62
    18
420
        0
176
     1
 90
       50
176
     1
 90
        3
176
     1
 62
     5
420
      255
176
     1
290
     0
176
     1
 90
       50
176
     1
 90
       50
176
     1
 90
       50
176
     1
290
     0
176
     1
 90
       50
176
     1
 62
   256
176
     0
 40
1.0
176
     0
 90
        2
176
     1
  1
strokes_ogs.tif
176
     1
290
     0
176
     1
 40
1.0
176
     1
 40
1.0
176
     1
  0
VISUALSTYLE
  5
35
102
{ACAD_REACTORS
330
2A
102
}
330
2A
100
AcDbVisualStyle
  2
Dim
 70
    11
177
     3
291
     1
 70
    58
 90
        2
176
     1
 90
        2
176
     1
 90
        0
176
     1
 90
        0
176
     1
 40
0.6
176
     1
 40
30.0
176
     1
 62
     7
420
 16777215
176
     1
 90
        1
176
     1
 90
        4
176
     1
 62
     7
176
     1
 62
   257
176
     1
 90
        1
176
     1
 90
        1
176
     1
 40
1.0
176
     1
 90
        8
176
     1
 62
     7
176
     1
 40
1.0
176
     1
 90
        1
176
     1
 90
        6
176
     1
 90
        2
176
     1
 62
     7
176
     1
 90
        5
176
     1
 90
        0
176
     1
 90
        0
176
     1
290
     0
176
     1
 90
        1
176
     1
 40
-50.0
176
     1
 90
        0
176
     1
290
     0
176
     1
290
     1
176
     1
290
     1
176
     1
290
     0
176
     1
290
     0
176
     1
290
     0
176
     1
290
     0
176
     1
290
     0
176
     1
290
     0
176
     1
 90
       50
176
     1
 40
0.0
176
     1
 40
1.0
176
     1
 90
        0
176
     1
 62
    18
420
        0
176
     1
 90
       50
176
     1
 90
        3
176
     1
 62
     5
420
      255
176
     1
290
     0
176
     1
 90
       50
176
     1
 90
       50
176
     1
 90
       50
176
     1
290
     0
176
     1
 90
       50
176
     1
 62
   256
176
     0
 40
1.0
176
     0
 90
        2
176
     1
  1
strokes_ogs.tif
176
     1
290
     0
176
     1
 40
1.0
176
     1
 40
1.0
176
     1
  0
VISUALSTYLE
  5
3D
102
{ACAD_REACTORS
330
2A
102
}
330
2A
100
AcDbVisualStyle
  2
EdgeColorOff
 70
    22
177
     3
291
     1
 70
    58
 90
        2
176
     0
 90
        2
176
     0
 90
        0
176
     0
 90
        0
176
     0
 40
0.6
176
     0
 40
30.0
176
     0
 62
     7
420
 16777215
176
     0
 90
        1
176
     0
 90
        4
176
     0
 62
     7
176
     0
 62
   257
176
     0
 90
        1
176
     0
 90
        1
176
     0
 40
1.0
176
     0
 90
        8
176
     2
 62
     7
176
     0
 40
1.0
176
     0
 90
        1
176
     0
 90
        6
176
     0
 90
        2
176
     0
 62
     7
176
     0
 90
        5
176
     0
 90
        0
176
     0
 90
        0
176
     0
290
     0
176
     0
 90
        1
176
     0
 40
0.0
176
     0
 90
        0
176
     0
290
     0
176
     0
290
     1
176
     0
290
     1
176
     0
290
     0
176
     0
290
     0
176
     0
290
     0
176
     0
290
     0
176
     0
290
     0
176
     0
290
     0
176
     0
 90
       50
176
     0
 40
0.0
176
     0
 40
1.0
176
     0
 90
        0
176
     0
 62
    18
420
        0
176
     0
 90
       50
176
     0
 90
        3
176
     0
 62
     5
420
      255
176
     0
290
     0
176
     0
 90
       50
176
     0
 90
       50
176
     0
 90
       50
176
     0
290
     0
176
     0
 90
       50
176
     0
 62
   256
176
     0
 40
1.0
176
     0
 90
        2
176
     0
  1
strokes_ogs.tif
176
     0
290
     0
176
     0
 40
1.0
176
     0
 40
1.0
176
     0
  0
VISUALSTYLE
  5
39
102
{ACAD_REACTORS
330
2A
102
}
330
2A
100
AcDbVisualStyle
  2
Facepattern
 70
    15
177
     3
291
     1
 70
    58
 90
        2
176
     1
 90
        2
176
     1
 90
        0
176
     1
 90
        0
176
     1
 40
0.6
176
     1
 40
30.0
176
     1
 62
     7
420
 16777215
176
     1
 90
        1
176
     1
 90
        4
176
     1
 62
     7
176
     1
 62
   257
176
     1
 90
        1
176
     1
 90
        1
176
     1
 40
1.0
176
     1
 90
        8
176
     1
 62
     7
176
     1
 40
1.0
176
     1
 90
        1
176
     1
 90
        6
176
     1
 90
        2
176
     1
 62
     7
176
     1
 90
        5
176
     1
 90
        0
176
     1
 90
        0
176
     1
290
     0
176
     1
 90
        1
176
     1
 40
0.0
176
     1
 90
        0
176
     1
290
     0
176
     1
290
     1
176
     1
290
     1
176
     1
290
     0
176
     1
290
     0
176
     1
290
     0
176
     1
290
     0
176
     1
290
     0
176
     1
290
     0
176
     1
 90
       50
176
     1
 40
0.0
176
     1
 40
1.0
176
     1
 90
        0
176
     1
 62
    18
420
        0
176
     1
 90
       50
176
     1
 90
        3
176
     1
 62
     5
420
      255
176
     1
290
     0
176
     1
 90
       50
176
     1
 90
       50
176
     1
 90
       50
176
     1
290
     0
176
     1
 90
       50
176
     1
 62
   256
176
     0
 40
1.0
176
     0
 90
        2
176
     1
  1
strokes_ogs.tif
176
     1
290
     0
176
     1
 40
1.0
176
     1
 40
1.0
176
     1
  0
VISUALSTYLE
  5
2B
102
{ACAD_REACTORS
330
2A
102
}
330
2A
100
AcDbVisualStyle
  2
Flat
 70
     0
177
     3
291
     1
 70
    58
 90
        2
176
     1
 90
        1
176
     1
 90
        1
176
     1
 90
        2
176
     1
 40
0.6
176
     1
 40
30.0
176
     1
 62
     7
420
 16777215
176
     1
 90
        0
176
     1
 90
        0
176
     1
 62
     7
176
     1
 62
   257
176
     1
 90
        1
176
     1
 90
        1
176
     1
 40
1.0
176
     1
 90
        8
176
     1
 62
     7
176
     1
 40
1.0
176
     1
 90
        1
176
     1
 90
        6
176
     1
 90
        2
176
     1
 62
     7
176
     1
 90
        5
176
     1
 90
        0
176
     1
 90
        0
176
     1
290
     0
176
     1
 90
       13
176
     1
 40
0.0
176
     1
 90
        0
176
     1
290
     0
176
     1
290
     1
176
     1
290
     1
176
     1
290
     0
176
     1
290
     0
176
     1
290
     0
176
     1
290
     0
176
     1
290
     0
176
     1
290
     0
176
     1
 90
       50
176
     1
 40
0.0
176
     1
 40
1.0
176
     1
 90
        0
176
     1
 62
    18
420
        0
176
     1
 90
       50
176
     1
 90
        3
176
     1
 62
     5
420
      255
176
     1
290
     0
176
     1
 90
       50
176
     1
 90
       50
176
     1
 90
       50
176
     1
290
     0
176
     1
 90
       50
176
     1
 62
   256
176
     0
 40
1.0
176
     0
 90
        2
176
     1
  1
strokes_ogs.tif
176
     1
290
     0
176
     1
 40
1.0
176
     1
 40
1.0
176
     1
  0
VISUALSTYLE
  5
2C
102
{ACAD_REACTORS
330
2A
102
}
330
2A
100
AcDbVisualStyle
  2
FlatWithEdges
 70
     1
177
     3
291
     1
 70
    58
 90
        2
176
     1
 90
        1
176
     1
 90
        1
176
     1
 90
        2
176
     1
 40
0.6
176
     1
 40
30.0
176
     1
 62
     7
420
 16777215
176
     1
 90
        1
176
     1
 90
        0
176
     1
 62
     7
176
     1
 62
   257
176
     1
 90
        1
176
     1
 90
        1
176
     1
 40
1.0
176
     1
 90
        0
176
     1
 62
   257
176
     1
 40
1.0
176
     1
 90
        1
176
     1
 90
        6
176
     1
 90
        2
176
     1
 62
     7
176
     1
 90
        5
176
     1
 90
        0
176
     1
 90
        0
176
     1
290
     0
176
     1
 90
       13
176
     1
 40
0.0
176
     1
 90
        0
176
     1
290
     0
176
     1
290
     1
176
     1
290
     1
176
     1
290
     0
176
     1
290
     0
176
     1
290
     0
176
     1
290
     0
176
     1
290
     0
176
     1
290
     0
176
     1
 90
       50
176
     1
 40
0.0
176
     1
 40
1.0
176
     1
 90
        0
176
     1
 62
    18
420
        0
176
     1
 90
       50
176
     1
 90
        3
176
     1
 62
     5
420
      255
176
     1
290
     0
176
     1
 90
       50
176
     1
 90
       50
176
     1
 90
       50
176
     1
290
     0
176
     1
 90
       50
176
     1
 62
   256
176
     0
 40
1.0
176
     0
 90
        2
176
     1
  1
strokes_ogs.tif
176
     1
290
     0
176
     1
 40
1.0
176
     1
 40
1.0
176
     1
  0
VISUALSTYLE
  5
2D
102
{ACAD_REACTORS
330
2A
102
}
330
2A
100
AcDbVisualStyle
  2
Gouraud
 70
     2
177
     3
291
     1
 70
    58
 90
        2
176
     1
 90
        2
176
     1
 90
        1
176
     1
 90
        2
176
     1
 40
0.6
176
     1
 40
30.0
176
     1
 62
     7
420
 16777215
176
     1
 90
        0
176
     1
 90
        0
176
     1
 62
     7
176
     1
 62
   257
176
     1
 90
        1
176
     1
 90
        1
176
     1
 40
1.0
176
     1
 90
        0
176
     1
 62
     7
176
     1
 40
1.0
176
     1
 90
        1
176
     1
 90
        6
176
     1
 90
        2
176
     1
 62
     7
176
     1
 90
        5
176
     1
 90
        0
176
     1
 90
        0
176
     1
290
     0
176
     1
 90
       13
176
     1
 40
0.0
176
     1
 90
        0
176
     1
290
     0
176
     1
290
     1
176
     1
290
     1
176
     1
290
     0
176
     1
290
     0
176
     1
290
     0
176
     1
290
     0
176
     1
290
     0
176
     1
290
     0
176
     1
 90
       50
176
     1
 40
0.0
176
     1
 40
1.0
176
     1
 90
        0
176
     1
 62
    18
420
        0
176
     1
 90
       50
176
     1
 90
        3
176
     1
 62
     5
420
      255
176
     1
290
     0
176
     1
 90
       50
176
     1
 90
       50
176
     1
 90
       50
176
     1
290
     0
176
     1
 90
       50
176
     1
 62
   256
176
     0
 40
1.0
176
     0
 90
        2
176
     1
  1
strokes_ogs.tif
176
     1
290
     0
176
     1
 40
1.0
176
     1
 40
1.0
176
     1
  0
VISUALSTYLE
  5
2E
102
{ACAD_REACTORS
330
2A
102
}
330
2A
100
AcDbVisualStyle
  2
GouraudWithEdges
 70
     3
177
     3
291
     1
 70
    58
 90
        2
176
     1
 90
        2
176
     1
 90
        1
176
     1
 90
        2
176
     1
 40
0.6
176
     1
 40
30.0
176
     1
 62
     7
420
 16777215
176
     1
 90
        1
176
     1
 90
        0
176
     1
 62
     7
176
     1
 62
   257
176
     1
 90
        1
176
     1
 90
        1
176
     1
 40
1.0
176
     1
 90
        0
176
     1
 62
   257
176
     1
 40
1.0
176
     1
 90
        1
176
     1
 90
        6
176
     1
 90
        2
176
     1
 62
     7
176
     1
 90
        5
176
     1
 90
        0
176
     1
 90
        0
176
     1
290
     0
176
     1
 90
       13
176
     1
 40
0.0
176
     1
 90
        0
176
     1
290
     0
176
     1
290
     1
176
     1
290
     1
176
     1
290
     0
176
     1
290
     0
176
     1
290
     0
176
     1
290
     0
176
     1
290
     0
176
     1
290
     0
176
     1
 90
       50
176
     1
 40
0.0
176
     1
 40
1.0
176
     1
 90
        0
176
     1
 62
    18
420
        0
176
     1
 90
       50
176
     1
 90
        3
176
     1
 62
     5
420
      255
176
     1
290
     0
176
     1
 90
       50
176
     1
 90
       50
176
     1
 90
       50
176
     1
290
     0
176
     1
 90
       50
176
     1
 62
   256
176
     0
 40
1.0
176
     0
 90
        2
176
     1
  1
strokes_ogs.tif
176
     1
290
     0
176
     1
 40
1.0
176
     1
 40
1.0
176
     1
  0
VISUALSTYLE
  5
31
102
{ACAD_REACTORS
330
2A
102
}
330
2A
100
AcDbVisualStyle
  2
Hidden
 70
     6
177
     3
291
     0
 70
    58
 90
        1
176
     1
 90
        2
176
     1
 90
        2
176
     1
 90
        0
176
     1
 40
0.6
176
     1
 40
30.0
176
     1
 62
     7
420
 16777215
176
     1
 90
        2
176
     1
 90
        2
176
     1
 62
     7
176
     1
 62
   257
176
     1
 90
        2
176
     1
 90
        1
176
     1
 40
40.0
176
     1
 90
        0
176
     1
 62
   257
176
     1
 40
1.0
176
     1
 90
        1
176
     1
 90
        6
176
     1
 90
        2
176
     1
 62
     7
176
     1
 90
        3
176
     1
 90
        0
176
     1
 90
        0
176
     1
290
     0
176
     1
 90
        1
176
     1
 40
0.0
176
     1
 90
        0
176
     1
290
     0
176
     1
290
     1
176
     1
290
     1
176
     1
290
     0
176
     1
290
     0
176
     1
290
     0
176
     1
290
     0
176
     1
290
     0
176
     1
290
     0
176
     1
 90
       50
176
     1
 40
0.0
176
     1
 40
1.0
176
     1
 90
        0
176
     1
 62
    18
420
        0
176
     1
 90
       50
176
     1
 90
        3
176
     1
 62
     5
420
      255
176
     1
290
     0
176
     1
 90
       50
176
     1
 90
       50
176
     1
 90
       50
176
     1
290
     0
176
     1
 90
       50
176
     1
 62
   256
176
     0
 40
1.0
176
     0
 90
        2
176
     1
  1
strokes_ogs.tif
176
     1
290
     0
176
     1
 40
1.0
176
     1
 40
1.0
176
     1
  0
VISUALSTYLE
  5
3B
102
{ACAD_REACTORS
330
2A
102
}
330
2A
100
AcDbVisualStyle
  2
JitterOff
 70
    20
177
     3
291
     1
 70
    58
 90
        2
176
     0
 90
        2
176
     0
 90
        0
176
     0
 90
        0
176
     0
 40
0.6
176
     0
 40
30.0
176
     0
 62
     7
420
 16777215
176
     0
 90
        1
176
     0
 90
        4
176
     0
 62
     7
176
     0
 62
   257
176
     0
 90
        1
176
     0
 90
        1
176
     0
 40
1.0
176
     0
 90
       10
176
     2
 62
     7
176
     0
 40
1.0
176
     0
 90
        1
176
     0
 90
        6
176
     0
 90
        2
176
     0
 62
     7
176
     0
 90
        5
176
     0
 90
        0
176
     0
 90
        0
176
     0
290
     0
176
     0
 90
        1
176
     0
 40
0.0
176
     0
 90
        0
176
     0
290
     0
176
     0
290
     1
176
     0
290
     1
176
     0
290
     0
176
     0
290
     0
176
     0
290
     0
176
     0
290
     0
176
     0
290
     0
176
     0
290
     0
176
     0
 90
       50
176
     0
 40
0.0
176
     0
 40
1.0
176
     0
 90
        0
176
     0
 62
    18
420
        0
176
     0
 90
       50
176
     0
 90
        3
176
     0
 62
     5
420
      255
176
     0
290
     0
176
     0
 90
       50
176
     0
 90
       50
176
     0
 90
       50
176
     0
290
     0
176
     0
 90
       50
176
     0
 62
   256
176
     0
 40
1.0
176
     0
 90
        2
176
     0
  1
strokes_ogs.tif
176
     0
290
     0
176
     0
 40
1.0
176
     0
 40
1.0
176
     0
  0
VISUALSTYLE
  5
38
102
{ACAD_REACTORS
330
2A
102
}
330
2A
100
AcDbVisualStyle
  2
Linepattern
 70
    14
177
     3
291
     1
 70
    58
 90
        2
176
     1
 90
        2
176
     1
 90
        0
176
     1
 90
        0
176
     1
 40
0.6
176
     1
 40
30.0
176
     1
 62
     7
420
 16777215
176
     1
 90
        1
176
     1
 90
        4
176
     1
 62
     7
176
     1
 62
   257
176
     1
 90
        7
176
     1
 90
        7
176
     1
 40
1.0
176
     1
 90
        8
176
     1
 62
     7
176
     1
 40
1.0
176
     1
 90
        1
176
     1
 90
        6
176
     1
 90
        2
176
     1
 62
     7
176
     1
 90
        5
176
     1
 90
        0
176
     1
 90
        0
176
     1
290
     0
176
     1
 90
        1
176
     1
 40
0.0
176
     1
 90
        0
176
     1
290
     0
176
     1
290
     1
176
     1
290
     1
176
     1
290
     0
176
     1
290
     0
176
     1
290
     0
176
     1
290
     0
176
     1
290
     0
176
     1
290
     0
176
     1
 90
       50
176
     1
 40
0.0
176
     1
 40
1.0
176
     1
 90
        0
176
     1
 62
    18
420
        0
176
     1
 90
       50
176
     1
 90
        3
176
     1
 62
     5
420
      255
176
     1
290
     0
176
     1
 90
       50
176
     1
 90
       50
176
     1
 90
       50
176
     1
290
     0
176
     1
 90
       50
176
     1
 62
   256
176
     0
 40
1.0
176
     0
 90
        2
176
     1
  1
strokes_ogs.tif
176
     1
290
     0
176
     1
 40
1.0
176
     1
 40
1.0
176
     1
  0
VISUALSTYLE
  5
3C
102
{ACAD_REACTORS
330
2A
102
}
330
2A
100
AcDbVisualStyle
  2
OverhangOff
 70
    21
177
     3
291
     1
 70
    58
 90
        2
176
     0
 90
        2
176
     0
 90
        0
176
     0
 90
        0
176
     0
 40
0.6
176
     0
 40
30.0
176
     0
 62
     7
420
 16777215
176
     0
 90
        1
176
     0
 90
        4
176
     0
 62
     7
176
     0
 62
   257
176
     0
 90
        1
176
     0
 90
        1
176
     0
 40
1.0
176
     0
 90
        9
176
     2
 62
     7
176
     0
 40
1.0
176
     0
 90
        1
176
     0
 90
        6
176
     0
 90
        2
176
     0
 62
     7
176
     0
 90
        5
176
     0
 90
        0
176
     0
 90
        0
176
     0
290
     0
176
     0
 90
        1
176
     0
 40
0.0
176
     0
 90
        0
176
     0
290
     0
176
     0
290
     1
176
     0
290
     1
176
     0
290
     0
176
     0
290
     0
176
     0
290
     0
176
     0
290
     0
176
     0
290
     0
176
     0
290
     0
176
     0
 90
       50
176
     0
 40
0.0
176
     0
 40
1.0
176
     0
 90
        0
176
     0
 62
    18
420
        0
176
     0
 90
       50
176
     0
 90
        3
176
     0
 62
     5
420
      255
176
     0
290
     0
176
     0
 90
       50
176
     0
 90
       50
176
     0
 90
       50
176
     0
290
     0
176
     0
 90
       50
176
     0
 62
   256
176
     0
 40
1.0
176
     0
 90
        2
176
     0
  1
strokes_ogs.tif
176
     0
290
     0
176
     0
 40
1.0
176
     0
 40
1.0
176
     0
  0
VISUALSTYLE
  5
33
102
{ACAD_REACTORS
330
2A
102
}
330
2A
100
AcDbVisualStyle
  2
Realistic
 70
     8
177
     3
291
     0
 70
    58
 90
        2
176
     1
 90
        3
176
     1
 90
        0
176
     1
 90
        2
176
     1
 40
0.6
176
     1
 40
30.0
176
     1
 62
     7
420
 16777215
176
     1
 90
        0
176
     1
 90
        0
176
     1
 62
     7
176
     1
 62
   257
176
     1
 90
        1
176
     1
 90
        1
176
     1
 40
1.0
176
     1
 90
        8
176
     1
 62
   257
176
     1
 40
1.0
176
     1
 90
        1
176
     1
 90
        6
176
     1
 90
        2
176
     1
 62
     7
176
     1
 90
        3
176
     1
 90
        0
176
     1
 90
        0
176
     1
290
     0
176
     1
 90
       13
176
     1
 40
0.0
176
     1
 90
        0
176
     1
290
     0
176
     1
290
     1
176
     1
290
     1
176
     1
290
     0
176
     1
290
     0
176
     1
290
     0
176
     1
290
     0
176
     1
290
     0
176
     1
290
     0
176
     1
 90
       50
176
     1
 40
0.0
176
     1
 40
1.0
176
     1
 90
        0
176
     1
 62
    18
420
        0
176
     1
 90
       50
176
     1
 90
        3
176
     1
 62
     5
420
      255
176
     1
290
     0
176
     1
 90
       50
176
     1
 90
       50
176
     1
 90
       50
176
     1
290
     0
176
     1
 90
       50
176
     1
 62
   256
176
     0
 40
1.0
176
     0
 90
        2
176
     1
  1
strokes_ogs.tif
176
     1
290
     0
176
     1
 40
1.0
176
     1
 40
1.0
176
     1
  0
VISUALSTYLE
  5
42
102
{ACAD_REACTORS
330
2A
102
}
330
2A
100
AcDbVisualStyle
  2
Shaded
 70
    27
177
     3
291
     0
 70
    58
 90
        2
176
     1
 90
        2
176
     1
 90
        1
176
     1
 90
        2
176
     1
 40
0.6
176
     1
 40
30.0
176
     1
 62
     7
420
 16777215
176
     1
 90
        0
176
     1
 90
        4
176
     1
 62
     7
176
     1
 62
   257
176
     1
 90
        1
176
     1
 90
        1
176
     1
 40
1.0
176
     1
 90
        8
176
     1
 62
   257
176
     1
 40
1.0
176
     1
 90
        1
176
     1
 90
        6
176
     1
 90
        2
176
     1
 62
     8
420
  7895160
176
     1
 90
        3
176
     1
 90
        0
176
     1
 90
        0
176
     1
290
     0
176
     1
 90
        5
176
     1
 40
0.0
176
     1
 90
        0
176
     1
290
     0
176
     1
290
     1
176
     1
290
     1
176
     1
290
     0
176
     1
290
     0
176
     1
290
     0
176
     1
290
     0
176
     1
290
     0
176
     1
290
     0
176
     1
 90
       50
176
     1
 40
0.0
176
     1
 40
1.0
176
     1
 90
        0
176
     1
 62
    18
420
        0
176
     1
 90
       50
176
     1
 90
        3
176
     1
 62
     5
420
      255
176
     1
290
     0
176
     1
 90
       50
176
     1
 90
       50
176
     1
 90
       50
176
     1
290
     0
176
     1
 90
       50
176
     1
 62
   256
176
     0
 40
1.0
176
     0
 90
        2
176
     1
  1
strokes_ogs.tif
176
     1
290
     0
176
     1
 40
1.0
176
     1
 40
1.0
176
     1
  0
VISUALSTYLE
  5
41
102
{ACAD_REACTORS
330
2A
102
}
330
2A
100
AcDbVisualStyle
  2
Shaded with edges
 70
    26
177
     3
291
     0
 70
    58
 90
        2
176
     1
 90
        2
176
     1
 90
        1
176
     1
 90
        2
176
     1
 40
0.6
176
     1
 40
30.0
176
     1
 62
     7
420
 16777215
176
     1
 90
        1
176
     1
 90
       10
176
     1
 62
     7
176
     1
 62
   257
176
     1
 90
        2
176
     1
 90
        1
176
     1
 40
1.0
176
     1
 90
        8
176
     1
 62
   257
176
     1
 40
1.0
176
     1
 90
        1
176
     1
 90
        6
176
     1
 90
        2
176
     1
 62
     7
176
     1
 90
        3
176
     1
 90
        0
176
     1
 90
        0
176
     1
290
     0
176
     1
 90
        5
176
     1
 40
0.0
176
     1
 90
        0
176
     1
290
     0
176
     1
290
     1
176
     1
290
     1
176
     1
290
     0
176
     1
290
     0
176
     1
290
     0
176
     1
290
     0
176
     1
290
     0
176
     1
290
     0
176
     1
 90
       50
176
     1
 40
0.0
176
     1
 40
1.0
176
     1
 90
        0
176
     1
 62
    18
420
        0
176
     1
 90
       50
176
     1
 90
        3
176
     1
 62
     5
420
      255
176
     1
290
     0
176
     1
 90
       50
176
     1
 90
       50
176
     1
 90
       50
176
     1
290
     0
176
     1
 90
       50
176
     1
 62
   256
176
     0
 40
1.0
176
     0
 90
        2
176
     1
  1
strokes_ogs.tif
176
     1
290
     0
176
     1
 40
1.0
176
     1
 40
1.0
176
     1
  0
VISUALSTYLE
  5
3E
102
{ACAD_REACTORS
330
2A
102
}
330
2A
100
AcDbVisualStyle
  2
Shades of Gray
 70
    23
177
     3
291
     0
 70
    58
 90
        2
176
     1
 90
        2
176
     1
 90
        3
176
     1
 90
        0
176
     1
 40
0.6
176
     1
 40
30.0
176
     1
 62
     7
420
 16777215
176
     1
 90
        2
176
     1
 90
        2
176
     1
 62
     7
176
     1
 62
     7
176
     1
 90
        1
176
     1
 90
        1
176
     1
 40
40.0
176
     1
 90
        8
176
     1
 62
     7
176
     1
 40
1.0
176
     1
 90
        1
176
     1
 90
        6
176
     1
 90
        2
176
     1
 62
     7
176
     1
 90
        3
176
     1
 90
        0
176
     1
 90
        0
176
     1
290
     0
176
     1
 90
        1
176
     1
 40
0.0
176
     1
 90
        0
176
     1
290
     0
176
     1
290
     1
176
     1
290
     1
176
     1
290
     0
176
     1
290
     0
176
     1
290
     0
176
     1
290
     0
176
     1
290
     0
176
     1
290
     0
176
     1
 90
       50
176
     1
 40
0.0
176
     1
 40
1.0
176
     1
 90
        0
176
     1
 62
    18
420
        0
176
     1
 90
       50
176
     1
 90
        3
176
     1
 62
     5
420
      255
176
     1
290
     0
176
     1
 90
       50
176
     1
 90
       50
176
     1
 90
       50
176
     1
290
     0
176
     1
 90
       50
176
     1
 62
   256
176
     0
 40
1.0
176
     0
 90
        2
176
     1
  1
strokes_ogs.tif
176
     1
290
     0
176
     1
 40
1.0
176
     1
 40
1.0
176
     1
  0
VISUALSTYLE
  5
3F
102
{ACAD_REACTORS
330
2A
102
}
330
2A
100
AcDbVisualStyle
  2
Sketchy
 70
    24
177
     3
291
     0
 70
    58
 90
        1
176
     1
 90
        2
176
     1
 90
        2
176
     1
 90
        0
176
     1
 40
0.6
176
     1
 40
30.0
176
     1
 62
     7
420
 16777215
176
     1
 90
        2
176
     1
 90
        2
176
     1
 62
     7
176
     1
 62
     7
176
     1
 90
        1
176
     1
 90
        1
176
     1
 40
40.0
176
     1
 90
       11
176
     1
 62
     7
176
     1
 40
1.0
176
     1
 90
        1
176
     1
 90
        6
176
     1
 90
        2
176
     1
 62
     7
176
     1
 90
        6
176
     1
 90
        0
176
     1
 90
        0
176
     1
290
     0
176
     1
 90
        1
176
     1
 40
0.0
176
     1
 90
        0
176
     1
290
     0
176
     1
290
     1
176
     1
290
     1
176
     1
290
     0
176
     1
290
     0
176
     1
290
     0
176
     1
290
     0
176
     1
290
     0
176
     1
290
     0
176
     1
 90
       50
176
     1
 40
0.0
176
     1
 40
1.0
176
     1
 90
        0
176
     1
 62
    18
420
        0
176
     1
 90
       50
176
     1
 90
        3
176
     1
 62
     5
420
      255
176
     1
290
     0
176
     1
 90
       50
176
     1
 90
       50
176
     1
 90
       50
176
     1
290
     0
176
     1
 90
       50
176
     1
 62
   256
176
     0
 40
1.0
176
     0
 90
        2
176
     1
  1
strokes_ogs.tif
176
     1
290
     0
176
     1
 40
1.0
176
     1
 40
1.0
176
     1
  0
VISUALSTYLE
  5
37
102
{ACAD_REACTORS
330
2A
102
}
330
2A
100
AcDbVisualStyle
  2
Thicken
 70
    13
177
     3
291
     1
 70
    58
 90
        2
176
     1
 90
        2
176
     1
 90
        0
176
     1
 90
        0
176
     1
 40
0.6
176
     1
 40
30.0
176
     1
 62
     7
420
 16777215
176
     1
 90
        1
176
     1
 90
        4
176
     1
 62
     7
176
     1
 62
   257
176
     1
 90
        1
176
     1
 90
        1
176
     1
 40
1.0
176
     1
 90
       12
176
     1
 62
     7
176
     1
 40
1.0
176
     1
 90
        1
176
     1
 90
        6
176
     1
 90
        2
176
     1
 62
     7
176
     1
 90
        5
176
     1
 90
        0
176
     1
 90
        0
176
     1
290
     0
176
     1
 90
        1
176
     1
 40
0.0
176
     1
 90
        0
176
     1
290
     0
176
     1
290
     1
176
     1
290
     1
176
     1
290
     0
176
     1
290
     0
176
     1
290
     0
176
     1
290
     0
176
     1
290
     0
176
     1
290
     0
176
     1
 90
       50
176
     1
 40
0.0
176
     1
 40
1.0
176
     1
 90
        0
176
     1
 62
    18
420
        0
176
     1
 90
       50
176
     1
 90
        3
176
     1
 62
     5
420
      255
176
     1
290
     0
176
     1
 90
       50
176
     1
 90
       50
176
     1
 90
       50
176
     1
290
     0
176
     1
 90
       50
176
     1
 62
   256
176
     0
 40
1.0
176
     0
 90
        2
176
     1
  1
strokes_ogs.tif
176
     1
290
     0
176
     1
 40
1.0
176
     1
 40
1.0
176
     1
  0
VISUALSTYLE
  5
30
102
{ACAD_REACTORS
330
2A
102
}
330
2A
100
AcDbVisualStyle
  2
Wireframe
 70
     5
177
     3
291
     0
 70
    58
 90
        0
176
     1
 90
        2
176
     1
 90
        0
176
     1
 90
        0
176
     1
 40
0.6
176
     1
 40
30.0
176
     1
 62
     7
420
 16777215
176
     1
 90
        1
176
     1
 90
        4
176
     1
 62
     7
176
     1
 62
   257
176
     1
 90
        1
176
     1
 90
        1
176
     1
 40
1.0
176
     1
 90
        0
176
     1
 62
   257
176
     1
 40
1.0
176
     1
 90
        1
176
     1
 90
        6
176
     1
 90
        2
176
     1
 62
     7
176
     1
 90
        3
176
     1
 90
        0
176
     1
 90
        0
176
     1
290
     0
176
     1
 90
        1
176
     1
 40
0.0
176
     1
 90
        0
176
     1
290
     0
176
     1
290
     1
176
     1
290
     1
176
     1
290
     0
176
     1
290
     0
176
     1
290
     0
176
     1
290
     0
176
     1
290
     0
176
     1
290
     0
176
     1
 90
       50
176
     1
 40
0.0
176
     1
 40
1.0
176
     1
 90
        0
176
     1
 62
    18
420
        0
176
     1
 90
       50
176
     1
 90
        3
176
     1
 62
     5
420
      255
176
     1
290
     0
176
     1
 90
       50
176
     1
 90
       50
176
     1
 90
       50
176
     1
290
     0
176
     1
 90
       50
176
     1
 62
   256
176
     0
 40
1.0
176
     0
 90
        2
176
     1
  1
strokes_ogs.tif
176
     1
290
     0
176
     1
 40
1.0
176
     1
 40
1.0
176
     1
  0
VISUALSTYLE
  5
40
102
{ACAD_REACTORS
330
2A
102
}
330
2A
100
AcDbVisualStyle
  2
X-Ray
 70
    25
177
     3
291
     0
 70
    58
 90
        2
176
     1
 90
        2
176
     1
 90
        1
176
     1
 90
        1
176
     1
 40
0.5
176
     1
 40
30.0
176
     1
 62
     7
420
 16777215
176
     1
 90
        1
176
     1
 90
        0
176
     1
 62
     7
176
     1
 62
   257
176
     1
 90
        1
176
     1
 90
        1
176
     1
 40
1.0
176
     1
 90
        8
176
     1
 62
     7
176
     1
 40
1.0
176
     1
 90
        1
176
     1
 90
        6
176
     1
 90
        2
176
     1
 62
     7
176
     1
 90
        3
176
     1
 90
        0
176
     1
 90
        0
176
     1
290
     0
176
     1
 90
       13
176
     1
 40
0.0
176
     1
 90
        0
176
     1
290
     0
176
     1
290
     1
176
     1
290
     1
176
     1
290
     0
176
     1
290
     0
176
     1
290
     0
176
     1
290
     0
176
     1
290
     0
176
     1
290
     0
176
     1
 90
       50
176
     1
 40
0.0
176
     1
 40
1.0
176
     1
 90
        0
176
     1
 62
    18
420
        0
176
     1
 90
       50
176
     1
 90
        3
176
     1
 62
     5
420
      255
176
     1
290
     0
176
     1
 90
       50
176
     1
 90
       50
176
     1
 90
       50
176
     1
290
     0
176
     1
 90
       50
176
     1
 62
   256
176
     0
 40
1.0
176
     0
 90
        2
176
     1
  1
strokes_ogs.tif
176
     1
290
     0
176
     1
 40
1.0
176
     1
 40
1.0
176
     1
  0
DICTIONARYVAR
  5
22E
102
{ACAD_REACTORS
330
22D
102
}
330
22D
100
DictionaryVariables
280
     0
  1
1:1
  0
DICTIONARYVAR
  5
236
102
{ACAD_REACTORS
330
22D
102
}
330
22D
100
DictionaryVariables
280
     0
  1
3.500000
  0
DICTIONARYVAR
  5
237
102
{ACAD_REACTORS
330
22D
102
}
330
22D
100
DictionaryVariables
280
     0
  1
acadiso.lin
  0
DICTIONARYVAR
  5
233
102
{ACAD_REACTORS
330
22D
102
}
330
22D
100
DictionaryVariables
280
     0
  1
Standard
  0
DICTIONARYVAR
  5
232
102
{ACAD_REACTORS
330
22D
102
}
330
22D
100
DictionaryVariables
280
     0
  1
Standard
  0
DICTIONARY
  5
22F
330
6A
100
AcDbDictionary
280
     1
281
     1
  3
ACAD_ROUNDTRIP_2008_TABLESTYLE_CELLSTYLEMAP
360
230
  0
CELLSTYLEMAP
  5
230
102
{ACAD_REACTORS
330
22F
102
}
330
22F
100
AcDbCellStyleMap
 90
        3
300
CELLSTYLE
  1
TABLEFORMAT_BEGIN
 90
        5
170
     1
 91
        0
 92
    32768
 62
   257
 93
        1
300
CONTENTFORMAT
  1
CONTENTFORMAT_BEGIN
 90
        0
 91
        0
 92
        4
 93
        0
300

 40
0.0
140
1.0
 94
        5
 62
     0
340
11
144
6.0
309
CONTENTFORMAT_END
171
     1
301
MARGIN
  1
CELLMARGIN_BEGIN
 40
1.5
 40
1.5
 40
1.5
 40
1.5
 40
1.5
 40
1.5
309
CELLMARGIN_END
 94
        6
 95
        1
302
GRIDFORMAT
  1
GRIDFORMAT_BEGIN
 90
        0
 91
        1
 62
     0
 92
       -2
340
14
 93
        0
 40
0.045
309
GRIDFORMAT_END
 95
        2
302
GRIDFORMAT
  1
GRIDFORMAT_BEGIN
 90
        0
 91
        1
 62
     0
 92
       -2
340
14
 93
        0
 40
0.045
309
GRIDFORMAT_END
 95
        4
302
GRIDFORMAT
  1
GRIDFORMAT_BEGIN
 90
        0
 91
        1
 62
     0
 92
       -2
340
14
 93
        0
 40
0.045
309
GRIDFORMAT_END
 95
        8
302
GRIDFORMAT
  1
GRIDFORMAT_BEGIN
 90
        0
 91
        1
 62
     0
 92
       -2
340
14
 93
        0
 40
0.045
309
GRIDFORMAT_END
 95
       16
302
GRIDFORMAT
  1
GRIDFORMAT_BEGIN
 90
        0
 91
        1
 62
     0
 92
       -2
340
14
 93
        0
 40
0.045
309
GRIDFORMAT_END
 95
       32
302
GRIDFORMAT
  1
GRIDFORMAT_BEGIN
 90
        0
 91
        1
 62
     0
 92
       -2
340
14
 93
        0
 40
0.045
309
GRIDFORMAT_END
309
TABLEFORMAT_END
  1
CELLSTYLE_BEGIN
 90
        1
 91
        1
300
_TITLE
309
CELLSTYLE_END
300
CELLSTYLE
  1
TABLEFORMAT_BEGIN
 90
        5
170
     1
 91
        0
 92
        0
 62
   257
 93
        1
300
CONTENTFORMAT
  1
CONTENTFORMAT_BEGIN
 90
        0
 91
        0
 92
        4
 93
        0
300

 40
0.0
140
1.0
 94
        5
 62
     0
340
11
144
4.5
309
CONTENTFORMAT_END
171
     1
301
MARGIN
  1
CELLMARGIN_BEGIN
 40
1.5
 40
1.5
 40
1.5
 40
1.5
 40
1.5
 40
1.5
309
CELLMARGIN_END
 94
        6
 95
        1
302
GRIDFORMAT
  1
GRIDFORMAT_BEGIN
 90
        0
 91
        1
 62
     0
 92
       -2
340
14
 93
        0
 40
0.045
309
GRIDFORMAT_END
 95
        2
302
GRIDFORMAT
  1
GRIDFORMAT_BEGIN
 90
        0
 91
        1
 62
     0
 92
       -2
340
14
 93
        0
 40
0.045
309
GRIDFORMAT_END
 95
        4
302
GRIDFORMAT
  1
GRIDFORMAT_BEGIN
 90
        0
 91
        1
 62
     0
 92
       -2
340
14
 93
        0
 40
0.045
309
GRIDFORMAT_END
 95
        8
302
GRIDFORMAT
  1
GRIDFORMAT_BEGIN
 90
        0
 91
        1
 62
     0
 92
       -2
340
14
 93
        0
 40
0.045
309
GRIDFORMAT_END
 95
       16
302
GRIDFORMAT
  1
GRIDFORMAT_BEGIN
 90
        0
 91
        1
 62
     0
 92
       -2
340
14
 93
        0
 40
0.045
309
GRIDFORMAT_END
 95
       32
302
GRIDFORMAT
  1
GRIDFORMAT_BEGIN
 90
        0
 91
        1
 62
     0
 92
       -2
340
14
 93
        0
 40
0.045
309
GRIDFORMAT_END
309
TABLEFORMAT_END
  1
CELLSTYLE_BEGIN
 90
        2
 91
        1
300
_HEADER
309
CELLSTYLE_END
300
CELLSTYLE
  1
TABLEFORMAT_BEGIN
 90
        5
170
     1
 91
        0
 92
        0
 62
   257
 93
        1
300
CONTENTFORMAT
  1
CONTENTFORMAT_BEGIN
 90
        0
 91
        0
 92
        4
 93
        0
300

 40
0.0
140
1.0
 94
        2
 62
     0
340
11
144
4.5
309
CONTENTFORMAT_END
171
     1
301
MARGIN
  1
CELLMARGIN_BEGIN
 40
1.5
 40
1.5
 40
1.5
 40
1.5
 40
1.5
 40
1.5
309
CELLMARGIN_END
 94
        6
 95
        1
302
GRIDFORMAT
  1
GRIDFORMAT_BEGIN
 90
        0
 91
        1
 62
     0
 92
       -2
340
14
 93
        0
 40
0.045
309
GRIDFORMAT_END
 95
        2
302
GRIDFORMAT
  1
GRIDFORMAT_BEGIN
 90
        0
 91
        1
 62
     0
 92
       -2
340
14
 93
        0
 40
0.045
309
GRIDFORMAT_END
 95
        4
302
GRIDFORMAT
  1
GRIDFORMAT_BEGIN
 90
        0
 91
        1
 62
     0
 92
       -2
340
14
 93
        0
 40
0.045
309
GRIDFORMAT_END
 95
        8
302
GRIDFORMAT
  1
GRIDFORMAT_BEGIN
 90
        0
 91
        1
 62
     0
 92
       -2
340
14
 93
        0
 40
0.045
309
GRIDFORMAT_END
 95
       16
302
GRIDFORMAT
  1
GRIDFORMAT_BEGIN
 90
        0
 91
        1
 62
     0
 92
       -2
340
14
 93
        0
 40
0.045
309
GRIDFORMAT_END
 95
       32
302
GRIDFORMAT
  1
GRIDFORMAT_BEGIN
 90
        0
 91
        1
 62
     0
 92
       -2
340
14
 93
        0
 40
0.045
309
GRIDFORMAT_END
309
TABLEFORMAT_END
  1
CELLSTYLE_BEGIN
 90
        3
 91
        2
300
_DATA
309
CELLSTYLE_END
  0
ENDSEC
  0
EOF
