  0
SECTION
  2
HEADER
  9
$ACADVER
  1
AC1027
  9
$ACADMAINTVER
 70
   105
  9
$DWGCODEPAGE
  3
ANSI_932
  9
$REQUIREDVERSIONS
160
                 0
  9
$INSBASE
 10
0.0
 20
0.0
 30
0.0
  9
$EXTMIN
 10
-2100.0
 20
-1485.0
 30
0.0
  9
$EXTMAX
 10
2100.0
 20
1485.0
 30
0.0
  9
$LIMMIN
 10
-2100.0
 20
-1485.0
  9
$LIMMAX
 10
2100.0
 20
1485.0
  9
$ORTHOMODE
 70
     0
  9
$REGENMODE
 70
     1
  9
$FILLMODE
 70
     1
  9
$QTEXTMODE
 70
     0
  9
$MIRRTEXT
 70
     1
  9
$LTSCALE
 40
10.0
  9
$ATTMODE
 70
     1
  9
$TEXTSIZE
 40
2.5
  9
$TRACEWID
 40
1.0
  9
$TEXTSTYLE
  7
Standard
  9
$CLAYER
  8
0
  9
$CELTYPE
  6
ByLayer
  9
$CECOLOR
 62
   256
  9
$CELTSCALE
 40
1.0
  9
$DISPSILH
 70
     0
  9
$DIMSCALE
 40
1.0
  9
$DIMASZ
 40
2.5
  9
$DIMEXO
 40
0.625
  9
$DIMDLI
 40
3.75
  9
$DIMRND
 40
0.0
  9
$DIMDLE
 40
0.0
  9
$DIMEXE
 40
1.25
  9
$DIMTP
 40
0.0
  9
$DIMTM
 40
0.0
  9
$DIMTXT
 40
2.5
  9
$DIMCEN
 40
2.5
  9
$DIMTSZ
 40
0.0
  9
$DIMTOL
 70
     0
  9
$DIMLIM
 70
     0
  9
$DIMTIH
 70
     0
  9
$DIMTOH
 70
     0
  9
$DIMSE1
 70
     0
  9
$DIMSE2
 70
     0
  9
$DIMTAD
 70
     1
  9
$DIMZIN
 70
     8
  9
$DIMBLK
  1

  9
$DIMASO
 70
     1
  9
$DIMSHO
 70
     1
  9
$DIMPOST
  1

  9
$DIMAPOST
  1

  9
$DIMALT
 70
     0
  9
$DIMALTD
 70
     3
  9
$DIMALTF
 40
0.03937007874016
  9
$DIMLFAC
 40
1.0
  9
$DIMTOFL
 70
     1
  9
$DIMTVP
 40
0.0
  9
$DIMTIX
 70
     0
  9
$DIMSOXD
 70
     0
  9
$DIMSAH
 70
     0
  9
$DIMBLK1
  1

  9
$DIMBLK2
  1

  9
$DIMSTYLE
  2
ISO-25
  9
$DIMCLRD
 70
     0
  9
$DIMCLRE
 70
     0
  9
$DIMCLRT
 70
     0
  9
$DIMTFAC
 40
1.0
  9
$DIMGAP
 40
0.625
  9
$DIMJUST
 70
     0
  9
$DIMSD1
 70
     0
  9
$DIMSD2
 70
     0
  9
$DIMTOLJ
 70
     0
  9
$DIMTZIN
 70
     8
  9
$DIMALTZ
 70
     0
  9
$DIMALTTZ
 70
     0
  9
$DIMUPT
 70
     0
  9
$DIMDEC
 70
     2
  9
$DIMTDEC
 70
     2
  9
$DIMALTU
 70
     2
  9
$DIMALTTD
 70
     3
  9
$DIMTXSTY
  7
Standard
  9
$DIMAUNIT
 70
     0
  9
$DIMADEC
 70
     0
  9
$DIMALTRND
 40
0.0
  9
$DIMAZIN
 70
     0
  9
$DIMDSEP
 70
    44
  9
$DIMATFIT
 70
     3
  9
$DIMFRAC
 70
     0
  9
$DIMLDRBLK
  1

  9
$DIMLUNIT
 70
     2
  9
$DIMLWD
 70
    -2
  9
$DIMLWE
 70
    -2
  9
$DIMTMOVE
 70
     0
  9
$DIMFXL
 40
1.0
  9
$DIMFXLON
 70
     0
  9
$DIMJOGANG
 40
0.7853981633974483
  9
$DIMTFILL
 70
     0
  9
$DIMTFILLCLR
 70
     0
  9
$DIMARCSYM
 70
     0
  9
$DIMLTYPE
  6

  9
$DIMLTEX1
  6

  9
$DIMLTEX2
  6

  9
$DIMTXTDIRECTION
 70
     0
  9
$LUNITS
 70
     2
  9
$LUPREC
 70
     4
  9
$SKETCHINC
 40
1.0
  9
$FILLETRAD
 40
10.0
  9
$AUNITS
 70
     0
  9
$AUPREC
 70
     0
  9
$MENU
  1
.
  9
$ELEVATION
 40
0.0
  9
$PELEVATION
 40
0.0
  9
$THICKNESS
 40
0.0
  9
$LIMCHECK
 70
     0
  9
$CHAMFERA
 40
0.0
  9
$CHAMFERB
 40
0.0
  9
$CHAMFERC
 40
0.0
  9
$CHAMFERD
 40
0.0
  9
$SKPOLY
 70
     0
  9
$TDCREATE
 40
2458892.482818518
  9
$TDUCREATE
 40
2458892.107818518
  9
$TDUPDATE
 40
2458892.482818588
  9
$TDUUPDATE
 40
2458892.107818588
  9
$TDINDWG
 40
0.0000000116
  9
$TDUSRTIMER
 40
0.0000000116
  9
$USRTIMER
 70
     1
  9
$ANGBASE
 50
0.0
  9
$ANGDIR
 70
     0
  9
$PDMODE
 70
     0
  9
$PDSIZE
 40
0.0
  9
$PLINEWID
 40
0.0
  9
$SPLFRAME
 70
     0
  9
$SPLINETYPE
 70
     6
  9
$SPLINESEGS
 70
     8
  9
$HANDSEED
  5
1BE
  9
$SURFTAB1
 70
     6
  9
$SURFTAB2
 70
     6
  9
$SURFTYPE
 70
     6
  9
$SURFU
 70
     6
  9
$SURFV
 70
     6
  9
$UCSBASE
  2

  9
$UCSNAME
  2

  9
$UCSORG
 10
0.0
 20
0.0
 30
0.0
  9
$UCSXDIR
 10
1.0
 20
0.0
 30
0.0
  9
$UCSYDIR
 10
0.0
 20
1.0
 30
0.0
  9
$UCSORTHOREF
  2

  9
$UCSORTHOVIEW
 70
     0
  9
$UCSORGTOP
 10
0.0
 20
0.0
 30
0.0
  9
$UCSORGBOTTOM
 10
0.0
 20
0.0
 30
0.0
  9
$UCSORGLEFT
 10
0.0
 20
0.0
 30
0.0
  9
$UCSORGRIGHT
 10
0.0
 20
0.0
 30
0.0
  9
$UCSORGFRONT
 10
0.0
 20
0.0
 30
0.0
  9
$UCSORGBACK
 10
0.0
 20
0.0
 30
0.0
  9
$PUCSBASE
  2

  9
$PUCSNAME
  2

  9
$PUCSORG
 10
0.0
 20
0.0
 30
0.0
  9
$PUCSXDIR
 10
1.0
 20
0.0
 30
0.0
  9
$PUCSYDIR
 10
0.0
 20
1.0
 30
0.0
  9
$PUCSORTHOREF
  2

  9
$PUCSORTHOVIEW
 70
     0
  9
$PUCSORGTOP
 10
0.0
 20
0.0
 30
0.0
  9
$PUCSORGBOTTOM
 10
0.0
 20
0.0
 30
0.0
  9
$PUCSORGLEFT
 10
0.0
 20
0.0
 30
0.0
  9
$PUCSORGRIGHT
 10
0.0
 20
0.0
 30
0.0
  9
$PUCSORGFRONT
 10
0.0
 20
0.0
 30
0.0
  9
$PUCSORGBACK
 10
0.0
 20
0.0
 30
0.0
  9
$USERI1
 70
     0
  9
$USERI2
 70
     0
  9
$USERI3
 70
     0
  9
$USERI4
 70
     0
  9
$USERI5
 70
     0
  9
$USERR1
 40
0.0
  9
$USERR2
 40
0.0
  9
$USERR3
 40
0.0
  9
$USERR4
 40
0.0
  9
$USERR5
 40
0.0
  9
$WORLDVIEW
 70
     1
  9
$SHADEDGE
 70
     3
  9
$SHADEDIF
 70
    70
  9
$TILEMODE
 70
     1
  9
$MAXACTVP
 70
    64
  9
$PINSBASE
 10
0.0
 20
0.0
 30
0.0
  9
$PLIMCHECK
 70
     0
  9
$PEXTMIN
 10
1.000000000000000E+20
 20
1.000000000000000E+20
 30
1.000000000000000E+20
  9
$PEXTMAX
 10
-1.000000000000000E+20
 20
-1.000000000000000E+20
 30
-1.000000000000000E+20
  9
$PLIMMIN
 10
0.0
 20
0.0
  9
$PLIMMAX
 10
420.0
 20
297.0
  9
$UNITMODE
 70
     0
  9
$VISRETAIN
 70
     1
  9
$PLINEGEN
 70
     0
  9
$PSLTSCALE
 70
     1
  9
$TREEDEPTH
 70
  3020
  9
$CMLSTYLE
  2
Standard
  9
$CMLJUST
 70
     0
  9
$CMLSCALE
 40
20.0
  9
$PROXYGRAPHICS
 70
     1
  9
$MEASUREMENT
 70
     1
  9
$CELWEIGHT
370
    -1
  9
$ENDCAPS
280
     0
  9
$JOINSTYLE
280
     0
  9
$LWDISPLAY
290
     0
  9
$INSUNITS
 70
     4
  9
$HYPERLINKBASE
  1

  9
$STYLESHEET
  1

  9
$XEDIT
290
     1
  9
$CEPSNTYPE
380
     0
  9
$PSTYLEMODE
290
     1
  9
$FINGERPRINTGUID
  2
{D5656110-94C0-45E6-90B8-037026865DFF}
  9
$VERSIONGUID
  2
{FAEB1C32-E019-11D5-929B-00C0DF256EC4}
  9
$EXTNAMES
290
     1
  9
$PSVPSCALE
 40
0.0
  9
$OLESTARTUP
290
     0
  9
$SORTENTS
280
   127
  9
$INDEXCTL
280
     0
  9
$HIDETEXT
280
     1
  9
$XCLIPFRAME
280
     2
  9
$HALOGAP
280
     0
  9
$OBSCOLOR
 70
   257
  9
$OBSLTYPE
280
     0
  9
$INTERSECTIONDISPLAY
280
     0
  9
$INTERSECTIONCOLOR
 70
   257
  9
$DIMASSOC
280
     2
  9
$PROJECTNAME
  1

  9
$CAMERADISPLAY
290
     0
  9
$LENSLENGTH
 40
50.0
  9
$CAMERAHEIGHT
 40
0.0
  9
$STEPSPERSEC
 40
2.0
  9
$STEPSIZE
 40
6.0
  9
$3DDWFPREC
 40
2.0
  9
$PSOLWIDTH
 40
5.0
  9
$PSOLHEIGHT
 40
80.0
  9
$LOFTANG1
 40
1.570796326794897
  9
$LOFTANG2
 40
1.570796326794897
  9
$LOFTMAG1
 40
0.0
  9
$LOFTMAG2
 40
0.0
  9
$LOFTPARAM
 70
     7
  9
$LOFTNORMALS
280
     1
  9
$LATITUDE
 40
37.795
  9
$LONGITUDE
 40
-122.394
  9
$NORTHDIRECTION
 40
0.0
  9
$TIMEZONE
 70
 -8000
  9
$LIGHTGLYPHDISPLAY
280
     1
  9
$TILEMODELIGHTSYNCH
280
     1
  9
$CMATERIAL
347
44
  9
$SOLIDHIST
280
     0
  9
$SHOWHIST
280
     1
  9
$DWFFRAME
280
     2
  9
$DGNFRAME
280
     2
  9
$REALWORLDSCALE
290
     1
  9
$INTERFERECOLOR
 62
   256
  9
$CSHADOW
280
     0
  9
$SHADOWPLANELOCATION
 40
0.0
  0
ENDSEC
  0
SECTION
  2
CLASSES
  0
CLASS
  1
ACDBDICTIONARYWDFLT
  2
AcDbDictionaryWithDefault
  3
ObjectDBX Classes
 90
        0
 91
        4
280
     0
281
     0
  0
CLASS
  1
VISUALSTYLE
  2
AcDbVisualStyle
  3
ObjectDBX Classes
 90
     4095
 91
        4
280
     0
281
     0
  0
CLASS
  1
MATERIAL
  2
AcDbMaterial
  3
ObjectDBX Classes
 90
     1153
 91
        4
280
     0
281
     0
  0
CLASS
  1
SCALE
  2
AcDbScale
  3
ObjectDBX Classes
 90
     1153
 91
        4
280
     0
281
     0
  0
CLASS
  1
TABLESTYLE
  2
AcDbTableStyle
  3
ObjectDBX Classes
 90
     4095
 91
        4
280
     0
281
     0
  0
CLASS
  1
MLEADERSTYLE
  2
AcDbMLeaderStyle
  3
ACDB_MLEADERSTYLE_CLASS
 90
     4095
 91
        4
280
     0
281
     0
  0
CLASS
  1
SUN
  2
AcDbSun
  3
SCENEOE
 90
     1153
 91
        4
280
     0
281
     0
  0
CLASS
  1
DICTIONARYVAR
  2
AcDbDictionaryVar
  3
ObjectDBX Classes
 90
        0
 91
        4
280
     0
281
     0
  0
CLASS
  1
CELLSTYLEMAP
  2
AcDbCellStyleMap
  3
ObjectDBX Classes
 90
     1152
 91
        4
280
     0
281
     0
  0
ENDSEC
  0
SECTION
  2
TABLES
  0
TABLE
  2
VPORT
  5
8
330
0
100
AcDbSymbolTable
 70
     1
  0
VPORT
  5
29
330
8
100
AcDbSymbolTableRecord
100
AcDbViewportTableRecord
  2
*Active
 70
     0
 10
0.0
 20
0.0
 11
1.0
 21
1.0
 12
0.0
 22
0.0
 13
0.0
 23
0.0
 14
10.0
 24
10.0
 15
10.0
 25
10.0
 16
0.0
 26
0.0
 36
1.0
 17
0.0
 27
0.0
 37
0.0
 40
3267.0
 41
1.414141414141414
 42
50.0
 43
0.0
 44
0.0
 50
0.0
 51
0.0
 71
     0
 72
 10000
 73
     1
 74
     3
 75
     0
 76
     0
 77
     0
 78
     0
281
     0
 65
     1
110
0.0
120
0.0
130
0.0
111
1.0
121
0.0
131
0.0
112
0.0
122
1.0
132
0.0
 79
     0
146
0.0
348
2F
 60
     3
 61
     5
292
     1
282
     1
141
0.0
142
0.0
 63
   250
361
6D
  0
ENDTAB
  0
TABLE
  2
LTYPE
  5
5
330
0
100
AcDbSymbolTable
 70
     4
  0
LTYPE
  5
14
330
5
100
AcDbSymbolTableRecord
100
AcDbLinetypeTableRecord
  2
ByBlock
 70
     0
  3

 72
    65
 73
     0
 40
0.0
  0
LTYPE
  5
15
330
5
100
AcDbSymbolTableRecord
100
AcDbLinetypeTableRecord
  2
ByLayer
 70
     0
  3

 72
    65
 73
     0
 40
0.0
  0
LTYPE
  5
16
330
5
100
AcDbSymbolTableRecord
100
AcDbLinetypeTableRecord
  2
Continuous
 70
     0
  3
Solid line
 72
    65
 73
     0
 40
0.0
  0
LTYPE
  5
6F
330
5
100
AcDbSymbolTableRecord
100
AcDbLinetypeTableRecord
  2
JWW_DASHED1
 70
     0
  3
-  --  --  --  --  --  --  --  -
 72
    65
 73
     2
 40
1.693333333333333
 49
0.8466666666666667
 74
     0
 49
-0.8466666666666667
 74
     0
  0
LTYPE
  5
70
330
5
100
AcDbSymbolTableRecord
100
AcDbLinetypeTableRecord
  2
JWW_CENTER2
 70
     0
  3
-------------  --  -------------
 72
    65
 73
     4
 40
13.54666666666667
 49
11.00666666666667
 74
     0
 49
-0.8466666666666667
 74
     0
 49
0.8466666666666667
 74
     0
 49
-0.8466666666666667
 74
     0
  0
LTYPE
  5
71
330
5
100
AcDbSymbolTableRecord
100
AcDbLinetypeTableRecord
  2
JWW_CENTER1
 70
     0
  3
-----  --  ----------  --  -----
 72
    65
 73
     4
 40
6.773333333333333
 49
4.233333333333333
 74
     0
 49
-0.8466666666666667
 74
     0
 49
0.8466666666666667
 74
     0
 49
-0.8466666666666667
 74
     0
  0
ENDTAB
  0
TABLE
  2
LAYER
  5
2
330
0
100
AcDbSymbolTable
 70
    15
  0
LAYER
  5
10
330
2
100
AcDbSymbolTableRecord
100
AcDbLayerTableRecord
  2
0
 70
     0
 62
     7
  6
Continuous
370
    -3
390
F
347
46
348
0
  0
LAYER
  5
72
330
2
100
AcDbSymbolTableRecord
100
AcDbLayerTableRecord
  2
C-1
 70
     0
 62
     7
  6
Continuous
370
    -3
390
F
347
46
348
0
  0
LAYER
  5
73
330
2
100
AcDbSymbolTableRecord
100
AcDbLayerTableRecord
  2
C-0
 70
     0
 62
     7
  6
Continuous
370
    -3
390
F
347
46
348
0
  0
LAYER
  5
74
330
2
100
AcDbSymbolTableRecord
100
AcDbLayerTableRecord
  2
C-E
 70
     0
 62
     7
  6
Continuous
370
    -3
390
F
347
46
348
0
  0
LAYER
  5
75
330
2
100
AcDbSymbolTableRecord
100
AcDbLayerTableRecord
  2
C-4
 70
     0
 62
     7
  6
Continuous
370
    -3
390
F
347
46
348
0
  0
LAYER
  5
76
330
2
100
AcDbSymbolTableRecord
100
AcDbLayerTableRecord
  2
C-5
 70
     0
 62
     7
  6
Continuous
370
    -3
390
F
347
46
348
0
  0
LAYER
  5
77
330
2
100
AcDbSymbolTableRecord
100
AcDbLayerTableRecord
  2
C-F
 70
     0
 62
     7
  6
Continuous
370
    -3
390
F
347
46
348
0
  0
LAYER
  5
78
330
2
100
AcDbSymbolTableRecord
100
AcDbLayerTableRecord
  2
C-2
 70
     0
 62
     7
  6
Continuous
370
    -3
390
F
347
46
348
0
  0
LAYER
  5
79
330
2
100
AcDbSymbolTableRecord
100
AcDbLayerTableRecord
  2
C-A
 70
     0
 62
     7
  6
Continuous
370
    -3
390
F
347
46
348
0
  0
LAYER
  5
7A
330
2
100
AcDbSymbolTableRecord
100
AcDbLayerTableRecord
  2
3-5
 70
     0
 62
     7
  6
Continuous
370
    -3
390
F
347
46
348
0
  0
LAYER
  5
7B
330
2
100
AcDbSymbolTableRecord
100
AcDbLayerTableRecord
  2
3-2
 70
     0
 62
     7
  6
Continuous
370
    -3
390
F
347
46
348
0
  0
LAYER
  5
7C
330
2
100
AcDbSymbolTableRecord
100
AcDbLayerTableRecord
  2
3-A
 70
     0
 62
     7
  6
Continuous
370
    -3
390
F
347
46
348
0
  0
LAYER
  5
7D
330
2
100
AcDbSymbolTableRecord
100
AcDbLayerTableRecord
  2
3-0
 70
     0
 62
     7
  6
Continuous
370
    -3
390
F
347
46
348
0
  0
LAYER
  5
7E
330
2
100
AcDbSymbolTableRecord
100
AcDbLayerTableRecord
  2
3-4
 70
     0
 62
     7
  6
Continuous
370
    -3
390
F
347
46
348
0
  0
LAYER
  5
7F
330
2
100
AcDbSymbolTableRecord
100
AcDbLayerTableRecord
  2
F-5ﾚｲﾔ
 70
     0
 62
     7
  6
Continuous
370
    -3
390
F
347
46
348
0
  0
ENDTAB
  0
TABLE
  2
STYLE
  5
3
330
0
100
AcDbSymbolTable
 70
     2
  0
STYLE
  5
11
330
3
100
AcDbSymbolTableRecord
100
AcDbTextStyleTableRecord
  2
Standard
 70
     0
 40
0.0
 41
1.0
 50
0.0
 71
     0
 42
2.5
  3
txt
  4

  0
STYLE
  5
6E
330
3
100
AcDbSymbolTableRecord
100
AcDbTextStyleTableRecord
  2
ＭＳ ゴシック
 70
     0
 40
1.0
 41
1.0
 50
0.0
 71
     0
 42
2.5
  3

  4

1001
ACAD
1000
MS Gothic
1071
    32817
  0
ENDTAB
  0
TABLE
  2
VIEW
  5
6
330
0
100
AcDbSymbolTable
 70
     0
  0
ENDTAB
  0
TABLE
  2
UCS
  5
7
330
0
100
AcDbSymbolTable
 70
     0
  0
ENDTAB
  0
TABLE
  2
APPID
  5
9
330
0
100
AcDbSymbolTable
 70
     1
  0
APPID
  5
12
330
9
100
AcDbSymbolTableRecord
100
AcDbRegAppTableRecord
  2
ACAD
 70
     0
  0
ENDTAB
  0
TABLE
  2
DIMSTYLE
  5
A
330
0
100
AcDbSymbolTable
 70
     1
100
AcDbDimStyleTable
  0
DIMSTYLE
105
27
330
A
100
AcDbSymbolTableRecord
100
AcDbDimStyleTableRecord
  2
ISO-25
 70
     0
 41
2.5
 42
0.625
 43
3.75
 44
1.25
 73
     0
 74
     0
 77
     1
 78
     8
140
2.5
141
2.5
143
0.03937007874016
147
0.625
171
     3
172
     1
178
     0
271
     2
272
     2
274
     3
278
    44
283
     0
284
     8
340
11
  0
ENDTAB
  0
TABLE
  2
BLOCK_RECORD
  5
1
330
0
100
AcDbSymbolTable
 70
     1
  0
BLOCK_RECORD
  5
1F
330
1
100
AcDbSymbolTableRecord
100
AcDbBlockTableRecord
  2
*Model_Space
340
22
 70
     0
280
     1
281
     0
  0
BLOCK_RECORD
  5
1B
330
1
100
AcDbSymbolTableRecord
100
AcDbBlockTableRecord
  2
*Paper_Space
340
1E
 70
     0
280
     1
281
     0
  0
BLOCK_RECORD
  5
23
330
1
100
AcDbSymbolTableRecord
100
AcDbBlockTableRecord
  2
*Paper_Space0
340
26
 70
     0
280
     1
281
     0
  0
ENDTAB
  0
ENDSEC
  0
SECTION
  2
BLOCKS
  0
BLOCK
  5
20
330
1F
100
AcDbEntity
  8
0
100
AcDbBlockBegin
  2
*Model_Space
 70
     0
 10
0.0
 20
0.0
 30
0.0
  3
*Model_Space
  1

  0
ENDBLK
  5
21
330
1F
100
AcDbEntity
  8
0
100
AcDbBlockEnd
  0
BLOCK
  5
1C
330
1B
100
AcDbEntity
 67
     1
  8
0
100
AcDbBlockBegin
  2
*Paper_Space
 70
     0
 10
0.0
 20
0.0
 30
0.0
  3
*Paper_Space
  1

  0
ENDBLK
  5
1D
330
1B
100
AcDbEntity
 67
     1
  8
0
100
AcDbBlockEnd
  0
BLOCK
  5
24
330
23
100
AcDbEntity
  8
0
100
AcDbBlockBegin
  2
*Paper_Space0
 70
     0
 10
0.0
 20
0.0
 30
0.0
  3
*Paper_Space0
  1

  0
ENDBLK
  5
25
330
23
100
AcDbEntity
  8
0
100
AcDbBlockEnd
  0
ENDSEC
  0
SECTION
  2
ENTITIES
  0
LINE
  5
80
330
1F
100
AcDbEntity
  8
C-1
  6
Continuous
 62
     3
370
     9
100
AcDbLine
 10
-1067.993813340957
 20
-296.6604357197462
 30
0.0
 11
-1072.503094808704
 21
-296.6604357197462
 31
0.0
  0
LINE
  5
81
330
1F
100
AcDbEntity
  8
C-1
  6
Continuous
 62
     3
370
     9
100
AcDbLine
 10
-1067.993813340957
 20
-308.1604489165366
 30
0.0
 11
-1072.503094808704
 21
-308.1604489165366
 31
0.0
  0
LINE
  5
82
330
1F
100
AcDbEntity
  8
C-1
  6
Continuous
 62
     3
370
     9
100
AcDbLine
 10
-1067.503078312716
 20
-298.1037522051766
 30
0.0
 11
-1067.503078312716
 21
-306.7170087111944
 31
0.0
  0
LINE
  5
83
330
1F
100
AcDbEntity
  8
C-1
  6
Continuous
 62
     3
370
     9
100
AcDbLine
 10
-1067.993813340957
 20
-305.2736922257636
 30
0.0
 11
-1072.503094808704
 21
-305.2736922257636
 31
0.0
  0
LINE
  5
84
330
1F
100
AcDbEntity
  8
C-1
  6
Continuous
 62
     3
370
     9
100
AcDbLine
 10
-1067.993813340957
 20
-299.5471924105191
 30
0.0
 11
-1072.503094808704
 21
-299.5471924105191
 31
0.0
  0
LINE
  5
85
330
1F
100
AcDbEntity
  8
C-1
  6
Continuous
 62
     3
370
     9
100
AcDbLine
 10
-1067.503078312716
 20
-299.9520039603495
 30
0.0
 11
-1002.753211105421
 21
-299.9520039603495
 31
0.0
  0
LINE
  5
86
330
1F
100
AcDbEntity
  8
C-1
  6
Continuous
 62
     3
370
     9
100
AcDbLine
 10
-1002.753211105421
 20
-299.9520039603495
 30
0.0
 11
-1002.753211105421
 21
-304.8688806759324
 31
0.0
  0
LINE
  5
87
330
1F
100
AcDbEntity
  8
C-1
  6
Continuous
 62
     3
370
     9
100
AcDbLine
 10
-1067.503078312716
 20
-304.8688806759324
 30
0.0
 11
-1002.753211105421
 21
-304.8688806759324
 31
0.0
  0
LINE
  5
88
330
1F
100
AcDbEntity
  8
C-1
  6
Continuous
 62
     3
370
     9
100
AcDbLine
 10
-1002.753211105421
 20
-299.9520039603495
 30
0.0
 11
-1003.294733157258
 21
-299.4104819085128
 31
0.0
  0
LINE
  5
89
330
1F
100
AcDbEntity
  8
C-1
  6
Continuous
 62
     3
370
     9
100
AcDbLine
 10
-1067.503078312716
 20
-299.4104819085128
 30
0.0
 11
-1003.294733157258
 21
-299.4104819085128
 31
0.0
  0
LINE
  5
8A
330
1F
100
AcDbEntity
  8
C-1
  6
Continuous
 62
     3
370
     9
100
AcDbLine
 10
-1067.503078312716
 20
-305.4104027277693
 30
0.0
 11
-1003.294795017213
 21
-305.4104027277693
 31
0.0
  0
LINE
  5
8B
330
1F
100
AcDbEntity
  8
C-1
  6
Continuous
 62
     3
370
     9
100
AcDbLine
 10
-1002.753211105421
 20
-304.8688806759324
 30
0.0
 11
-1003.294795017213
 21
-305.4104027277693
 31
0.0
  0
LINE
  5
8C
330
1F
100
AcDbEntity
  8
C-1
  6
Continuous
 62
     3
370
     9
100
AcDbLine
 10
-1003.294733157258
 20
-299.4104819085128
 30
0.0
 11
-1003.294733157258
 21
-305.4104027277693
 31
0.0
  0
LINE
  5
8D
330
1F
100
AcDbEntity
  8
C-1
  6
Continuous
 62
     3
370
     9
100
AcDbLine
 10
-1137.512402670032
 20
-296.6604357197462
 30
0.0
 11
-1133.003121202285
 21
-296.6604357197462
 31
0.0
  0
LINE
  5
8E
330
1F
100
AcDbEntity
  8
C-1
  6
Continuous
 62
     3
370
     9
100
AcDbLine
 10
-1137.512402670032
 20
-308.1604489165366
 30
0.0
 11
-1133.003121202285
 21
-308.1604489165366
 31
0.0
  0
LINE
  5
8F
330
1F
100
AcDbEntity
  8
C-1
  6
Continuous
 62
     3
370
     9
100
AcDbLine
 10
-1138.003137698273
 20
-298.1037522051766
 30
0.0
 11
-1138.003137698273
 21
-306.7170087111944
 31
0.0
  0
LINE
  5
90
330
1F
100
AcDbEntity
  8
C-1
  6
Continuous
 62
     3
370
     9
100
AcDbLine
 10
-1137.512402670032
 20
-305.2736922257636
 30
0.0
 11
-1133.003121202285
 21
-305.2736922257636
 31
0.0
  0
LINE
  5
91
330
1F
100
AcDbEntity
  8
C-1
  6
Continuous
 62
     3
370
     9
100
AcDbLine
 10
-1137.512402670032
 20
-299.5471924105191
 30
0.0
 11
-1133.003121202285
 21
-299.5471924105191
 31
0.0
  0
LINE
  5
92
330
1F
100
AcDbEntity
  8
C-1
  6
Continuous
 62
     3
370
     9
100
AcDbLine
 10
-1138.003137698273
 20
-299.9520039603495
 30
0.0
 11
-1202.753004905569
 21
-299.9520039603495
 31
0.0
  0
LINE
  5
93
330
1F
100
AcDbEntity
  8
C-1
  6
Continuous
 62
     3
370
     9
100
AcDbLine
 10
-1202.753004905569
 20
-299.9520039603495
 30
0.0
 11
-1202.753004905569
 21
-304.8688806759324
 31
0.0
  0
LINE
  5
94
330
1F
100
AcDbEntity
  8
C-1
  6
Continuous
 62
     3
370
     9
100
AcDbLine
 10
-1138.003137698273
 20
-304.8688806759324
 30
0.0
 11
-1202.753004905569
 21
-304.8688806759324
 31
0.0
  0
LINE
  5
95
330
1F
100
AcDbEntity
  8
C-1
  6
Continuous
 62
     3
370
     9
100
AcDbLine
 10
-1202.753004905569
 20
-299.9520039603495
 30
0.0
 11
-1202.211482853731
 21
-299.4104819085128
 31
0.0
  0
LINE
  5
96
330
1F
100
AcDbEntity
  8
C-1
  6
Continuous
 62
     3
370
     9
100
AcDbLine
 10
-1138.003137698273
 20
-299.4104819085128
 30
0.0
 11
-1202.211482853731
 21
-299.4104819085128
 31
0.0
  0
LINE
  5
97
330
1F
100
AcDbEntity
  8
C-1
  6
Continuous
 62
     3
370
     9
100
AcDbLine
 10
-1138.003137698273
 20
-305.4104027277693
 30
0.0
 11
-1202.211420993776
 21
-305.4104027277693
 31
0.0
  0
LINE
  5
98
330
1F
100
AcDbEntity
  8
C-1
  6
Continuous
 62
     3
370
     9
100
AcDbLine
 10
-1202.753004905569
 20
-304.8688806759324
 30
0.0
 11
-1202.211420993776
 21
-305.4104027277693
 31
0.0
  0
LINE
  5
99
330
1F
100
AcDbEntity
  8
C-1
  6
Continuous
 62
     3
370
     9
100
AcDbLine
 10
-1202.211482853731
 20
-299.4104819085128
 30
0.0
 11
-1202.211482853731
 21
-305.4104027277693
 31
0.0
  0
ARC
  5
9A
330
1F
100
AcDbEntity
  8
C-1
  6
Continuous
 62
     3
370
     9
100
AcDbCircle
 10
-1069.871015555378
 20
-298.1037522051766
 30
0.0
 40
2.367928785246772
100
AcDbArc
 50
322.4427795410156
 51
37.55722045898439
  0
ARC
  5
9B
330
1F
100
AcDbEntity
  8
C-1
  6
Continuous
 62
     3
370
     9
100
AcDbCircle
 10
-1076.10099354973
 20
-302.4104423181412
 30
0.0
 40
8.59791813669978
100
AcDbArc
 50
340.5480041503906
 51
19.45199584960938
  0
ARC
  5
9C
330
1F
100
AcDbEntity
  8
C-1
  6
Continuous
 62
     3
370
     9
100
AcDbCircle
 10
-1069.871015555378
 20
-306.7170087111944
 30
0.0
 40
2.367928785246772
100
AcDbArc
 50
322.4427795410156
 51
37.55722045898439
  0
ARC
  5
9D
330
1F
100
AcDbEntity
  8
C-1
  6
Continuous
 62
     3
370
     9
100
AcDbCircle
 10
-1135.63520045561
 20
-298.1037522051766
 30
0.0
 40
2.367928785246772
100
AcDbArc
 50
142.4427795410156
 51
217.5572204589844
  0
ARC
  5
9E
330
1F
100
AcDbEntity
  8
C-1
  6
Continuous
 62
     3
370
     9
100
AcDbCircle
 10
-1129.405222461259
 20
-302.4104423181412
 30
0.0
 40
8.59791813669978
100
AcDbArc
 50
160.5480041503906
 51
199.4519958496094
  0
ARC
  5
9F
330
1F
100
AcDbEntity
  8
C-1
  6
Continuous
 62
     3
370
     9
100
AcDbCircle
 10
-1135.63520045561
 20
-306.7170087111944
 30
0.0
 40
2.367928785246772
100
AcDbArc
 50
142.4427795410156
 51
217.5572204589844
  0
LINE
  5
A0
330
1F
100
AcDbEntity
  8
C-1
  6
JWW_DASHED1
 62
     3
370
     9
100
AcDbLine
 10
-1133.003121202285
 20
-299.4104819085128
 30
0.0
 11
-1072.503094808704
 21
-299.4104819085128
 31
0.0
  0
LINE
  5
A1
330
1F
100
AcDbEntity
  8
C-1
  6
JWW_DASHED1
 62
     3
370
     9
100
AcDbLine
 10
-1133.003121202285
 20
-305.4104027277693
 30
0.0
 11
-1072.503094808704
 21
-305.4104027277693
 31
0.0
  0
LINE
  5
A2
330
1F
100
AcDbEntity
  8
C-0
  6
JWW_CENTER2
 62
     7
370
     9
100
AcDbLine
 10
-1102.753108005494
 20
672.5894339619475
 30
0.0
 11
-1102.753108005494
 21
-477.4106485179934
 31
0.0
  0
LINE
  5
A3
330
1F
100
AcDbEntity
  8
C-0
  6
JWW_CENTER2
 62
     7
370
     9
100
AcDbLine
 10
-1207.753268841379
 20
-302.4104423181412
 30
0.0
 11
-997.7531946094324
 21
-302.4104423181412
 31
0.0
  0
LINE
  5
A4
330
1F
100
AcDbEntity
  8
C-E
  6
Continuous
 62
     6
370
     5
100
AcDbLine
 10
-1302.753108005494
 20
-452.4105660380528
 30
0.0
 11
-902.7531080054945
 21
-452.4105660380528
 31
0.0
  0
LINE
  5
A5
330
1F
100
AcDbEntity
  8
C-E
  6
Continuous
 62
     6
370
     5
100
AcDbLine
 10
-1302.753108005494
 20
-552.4105660380528
 30
0.0
 11
-1302.753108005494
 21
-452.4105660380528
 31
0.0
  0
LINE
  5
A6
330
1F
100
AcDbEntity
  8
C-E
  6
Continuous
 62
     6
370
     5
100
AcDbLine
 10
-1302.753108005494
 20
-552.4105660380528
 30
0.0
 11
-902.7531080054945
 21
-552.4105660380528
 31
0.0
  0
LINE
  5
A7
330
1F
100
AcDbEntity
  8
C-E
  6
Continuous
 62
     6
370
     5
100
AcDbLine
 10
-1102.753108005494
 20
-452.4105660380528
 30
0.0
 11
-1129.548027248607
 21
-552.4105660380528
 31
0.0
  0
LINE
  5
A8
330
1F
100
AcDbEntity
  8
C-E
  6
Continuous
 62
     6
370
     5
100
AcDbLine
 10
-1116.498658435067
 20
-552.4105660380528
 30
0.0
 11
-1123.023342841837
 21
-528.0601123286347
 31
0.0
  0
LINE
  5
A9
330
1F
100
AcDbEntity
  8
C-E
  6
Continuous
 62
     6
370
     5
100
AcDbLine
 10
-1115.802476819035
 20
-452.4105660380528
 30
0.0
 11
-1109.277792412264
 21
-476.7610197474709
 31
0.0
  0
LINE
  5
AA
330
1F
100
AcDbEntity
  8
C-E
  6
Continuous
 62
     6
370
     5
100
AcDbLine
 10
-1152.753108005494
 20
-452.4105660380528
 30
0.0
 11
-1179.548027248607
 21
-552.4105660380528
 31
0.0
  0
LINE
  5
AB
330
1F
100
AcDbEntity
  8
C-E
  6
Continuous
 62
     6
370
     5
100
AcDbLine
 10
-1166.498658435067
 20
-552.4105660380528
 30
0.0
 11
-1173.023342841837
 21
-528.0601123286347
 31
0.0
  0
LINE
  5
AC
330
1F
100
AcDbEntity
  8
C-E
  6
Continuous
 62
     6
370
     5
100
AcDbLine
 10
-1165.802476819035
 20
-452.4105660380528
 30
0.0
 11
-1159.277792412264
 21
-476.7610197474709
 31
0.0
  0
LINE
  5
AD
330
1F
100
AcDbEntity
  8
C-E
  6
Continuous
 62
     6
370
     5
100
AcDbLine
 10
-1202.753108005494
 20
-452.4105660380528
 30
0.0
 11
-1229.548027248607
 21
-552.4105660380528
 31
0.0
  0
LINE
  5
AE
330
1F
100
AcDbEntity
  8
C-E
  6
Continuous
 62
     6
370
     5
100
AcDbLine
 10
-1216.498658435067
 20
-552.4105660380528
 30
0.0
 11
-1223.023342841837
 21
-528.0601123286347
 31
0.0
  0
LINE
  5
AF
330
1F
100
AcDbEntity
  8
C-E
  6
Continuous
 62
     6
370
     5
100
AcDbLine
 10
-1215.802476819035
 20
-452.4105660380528
 30
0.0
 11
-1209.277792412264
 21
-476.7610197474709
 31
0.0
  0
LINE
  5
B0
330
1F
100
AcDbEntity
  8
C-E
  6
Continuous
 62
     6
370
     5
100
AcDbLine
 10
-1252.753108005495
 20
-452.4105660380528
 30
0.0
 11
-1279.548027248606
 21
-552.4105660380528
 31
0.0
  0
LINE
  5
B1
330
1F
100
AcDbEntity
  8
C-E
  6
Continuous
 62
     6
370
     5
100
AcDbLine
 10
-1266.498658435067
 20
-552.4105660380528
 30
0.0
 11
-1273.023342841836
 21
-528.0601123286347
 31
0.0
  0
LINE
  5
B2
330
1F
100
AcDbEntity
  8
C-E
  6
Continuous
 62
     6
370
     5
100
AcDbLine
 10
-1265.802476819034
 20
-452.4105660380528
 30
0.0
 11
-1259.277792412265
 21
-476.7610197474709
 31
0.0
  0
LINE
  5
B3
330
1F
100
AcDbEntity
  8
C-E
  6
Continuous
 62
     6
370
     5
100
AcDbLine
 10
-1052.753108005495
 20
-452.4105660380528
 30
0.0
 11
-1079.548027248607
 21
-552.4105660380528
 31
0.0
  0
LINE
  5
B4
330
1F
100
AcDbEntity
  8
C-E
  6
Continuous
 62
     6
370
     5
100
AcDbLine
 10
-1066.498658435067
 20
-552.4105660380528
 30
0.0
 11
-1073.023342841837
 21
-528.0601123286347
 31
0.0
  0
LINE
  5
B5
330
1F
100
AcDbEntity
  8
C-E
  6
Continuous
 62
     6
370
     5
100
AcDbLine
 10
-1065.802476819035
 20
-452.4105660380528
 30
0.0
 11
-1059.277792412264
 21
-476.7610197474709
 31
0.0
  0
LINE
  5
B6
330
1F
100
AcDbEntity
  8
C-E
  6
Continuous
 62
     6
370
     5
100
AcDbLine
 10
-1002.753108005494
 20
-452.4105660380528
 30
0.0
 11
-1029.548027248607
 21
-552.4105660380528
 31
0.0
  0
LINE
  5
B7
330
1F
100
AcDbEntity
  8
C-E
  6
Continuous
 62
     6
370
     5
100
AcDbLine
 10
-1016.498658435067
 20
-552.4105660380528
 30
0.0
 11
-1023.023342841837
 21
-528.0601123286347
 31
0.0
  0
LINE
  5
B8
330
1F
100
AcDbEntity
  8
C-E
  6
Continuous
 62
     6
370
     5
100
AcDbLine
 10
-1015.802476819034
 20
-452.4105660380528
 30
0.0
 11
-1009.277792412264
 21
-476.7610197474709
 31
0.0
  0
LINE
  5
B9
330
1F
100
AcDbEntity
  8
C-E
  6
Continuous
 62
     6
370
     5
100
AcDbLine
 10
-952.7531080054945
 20
-452.4105660380528
 30
0.0
 11
-979.5480272486067
 21
-552.4105660380528
 31
0.0
  0
LINE
  5
BA
330
1F
100
AcDbEntity
  8
C-E
  6
Continuous
 62
     6
370
     5
100
AcDbLine
 10
-966.4986584350668
 20
-552.4105660380528
 30
0.0
 11
-973.0233428418367
 21
-528.0601123286347
 31
0.0
  0
LINE
  5
BB
330
1F
100
AcDbEntity
  8
C-E
  6
Continuous
 62
     6
370
     5
100
AcDbLine
 10
-965.8024768190344
 20
-452.4105660380528
 30
0.0
 11
-959.2777924122645
 21
-476.7610197474709
 31
0.0
  0
LINE
  5
BC
330
1F
100
AcDbEntity
  8
C-E
  6
Continuous
 62
     6
370
     5
100
AcDbLine
 10
-902.7531080054945
 20
-452.4105660380528
 30
0.0
 11
-929.5480272486067
 21
-552.4105660380528
 31
0.0
  0
LINE
  5
BD
330
1F
100
AcDbEntity
  8
C-E
  6
Continuous
 62
     6
370
     5
100
AcDbLine
 10
-916.4986584350668
 20
-552.4105660380528
 30
0.0
 11
-923.0233428418367
 21
-528.0601123286347
 31
0.0
  0
LINE
  5
BE
330
1F
100
AcDbEntity
  8
C-E
  6
Continuous
 62
     6
370
     5
100
AcDbLine
 10
-915.8024768190344
 20
-452.4105660380528
 30
0.0
 11
-909.2777924122645
 21
-476.7610197474709
 31
0.0
  0
LINE
  5
BF
330
1F
100
AcDbEntity
  8
C-E
  6
Continuous
 62
     6
370
     5
100
AcDbLine
 10
-1252.753108005495
 20
-452.4105660380528
 30
0.0
 11
-1252.753108005495
 21
-202.4105660380527
 31
0.0
  0
LINE
  5
C0
330
1F
100
AcDbEntity
  8
C-E
  6
Continuous
 62
     6
370
     5
100
AcDbLine
 10
-952.7531080054945
 20
-452.4105660380528
 30
0.0
 11
-952.7531080054945
 21
-202.4105660380527
 31
0.0
  0
LINE
  5
C1
330
1F
100
AcDbEntity
  8
C-E
  6
Continuous
 62
     6
370
     5
100
AcDbLine
 10
-902.7531080054945
 20
-552.4105660380528
 30
0.0
 11
-902.7531080054945
 21
-455.6199265580726
 31
0.0
  0
LINE
  5
C2
330
1F
100
AcDbEntity
  8
C-E
  6
Continuous
 62
     6
370
     5
100
AcDbLine
 10
-902.7531080054945
 20
-455.6199265580726
 30
0.0
 11
-902.7531080054945
 21
-452.4105660380528
 31
0.0
  0
LINE
  5
C3
330
1F
100
AcDbEntity
  8
C-E
  6
Continuous
 62
     6
370
     5
100
AcDbLine
 10
-952.7531080054945
 20
-346.2318654297215
 30
0.0
 11
-1058.931808613826
 21
-452.4105660380528
 31
0.0
  0
LINE
  5
C4
330
1F
100
AcDbEntity
  8
C-E
  6
Continuous
 62
     6
370
     5
100
AcDbLine
 10
-1133.003121202285
 20
-202.4105660380527
 30
0.0
 11
-1521.263746692467
 21
-202.4105660380527
 31
0.0
  0
LINE
  5
C5
330
1F
100
AcDbEntity
  8
C-E
  6
Continuous
 62
     6
370
     5
100
AcDbLine
 10
-1072.503094808704
 20
-202.4105660380527
 30
0.0
 11
-679.1794696783869
 21
-202.4105660380527
 31
0.0
  0
LINE
  5
C6
330
1F
100
AcDbEntity
  8
C-E
  6
Continuous
 62
     6
370
     5
100
AcDbLine
 10
-1138.670749845171
 20
-305.4104027277693
 30
0.0
 11
-1252.753108005495
 21
-419.4927608880927
 31
0.0
  0
LINE
  5
C7
330
1F
100
AcDbEntity
  8
C-E
  6
Continuous
 62
     6
370
     5
100
AcDbLine
 10
-1133.003121202285
 20
-313.884909708614
 30
0.0
 11
-1252.753108005495
 21
-433.6348965118236
 31
0.0
  0
LINE
  5
C8
330
1F
100
AcDbEntity
  8
C-E
  6
Continuous
 62
     6
370
     5
100
AcDbLine
 10
-1133.003121202285
 20
-328.027045332345
 30
0.0
 11
-1252.753108005495
 21
-447.7770321355546
 31
0.0
  0
LINE
  5
C9
330
1F
100
AcDbEntity
  8
C-E
  6
Continuous
 62
     6
370
     5
100
AcDbLine
 10
-993.7694287245519
 20
-202.4105660380527
 30
0.0
 11
-1072.503094808704
 21
-277.2671651700282
 31
0.0
  0
LINE
  5
CA
330
1F
100
AcDbEntity
  8
C-E
  6
Continuous
 62
     6
370
     5
100
AcDbLine
 10
-979.5066768581415
 20
-202.4105660380527
 30
0.0
 11
-1072.503094808704
 21
-291.6460504512016
 31
0.0
  0
LINE
  5
CB
330
1F
100
AcDbEntity
  8
C-E
  6
Continuous
 62
     6
370
     5
100
AcDbLine
 10
-965.2689415295627
 20
-202.4105660380527
 30
0.0
 11
-1065.731208013508
 21
-299.4104819085128
 31
0.0
  0
LINE
  5
CC
330
1F
100
AcDbEntity
  8
C-E
  6
Continuous
 62
     6
370
     5
100
AcDbLine
 10
-952.7531080054945
 20
-317.9475941822596
 30
0.0
 11
-1072.503094808704
 21
-437.697580985469
 31
0.0
  0
LINE
  5
CD
330
1F
100
AcDbEntity
  8
C-E
  6
Continuous
 62
     6
370
     5
100
AcDbLine
 10
-952.7531080054945
 20
-332.0897298059906
 30
0.0
 11
-1072.503094808704
 21
-451.8397166092
 31
0.0
  0
LINE
  5
CE
330
1F
100
AcDbEntity
  8
C-4
  6
Continuous
 62
     7
370
     9
100
AcDbLine
 10
-1133.003121202285
 20
705.0916883144894
 30
0.0
 11
-1072.503094808704
 21
705.0916883144894
 31
0.0
  0
LWPOLYLINE
  5
CF
330
1F
100
AcDbEntity
  8
C-4
  6
Continuous
 62
     7
370
     9
100
AcDbPolyline
 90
        4
 70
     1
 43
2.0
 10
-1132.003121202285
 20
705.0916883144894
 42
0.4142135623731
 10
-1133.003121202285
 20
706.0916883144893
 42
0.4142135623731
 10
-1134.003121202285
 20
705.0916883144894
 42
0.4142135623731
 10
-1133.003121202285
 20
704.0916883144894
 42
0.4142135623731
  0
LWPOLYLINE
  5
D0
330
1F
100
AcDbEntity
  8
C-4
  6
Continuous
 62
     7
370
     9
100
AcDbPolyline
 90
        4
 70
     1
 43
2.0
 10
-1071.503094808704
 20
705.0916883144894
 42
0.4142135623731
 10
-1072.503094808704
 20
706.0916883144893
 42
0.4142135623731
 10
-1073.503094808704
 20
705.0916883144894
 42
0.4142135623731
 10
-1072.503094808704
 20
704.0916883144894
 42
0.4142135623731
  0
TEXT
  5
D1
330
1F
100
AcDbEntity
  8
C-4
  6
Continuous
 62
     2
370
   211
100
AcDbText
 10
-1169.003108005495
 20
716.7316883144892
 30
0.0
 40
30.48
  1
φ60.5
 41
1.104166666666667
  7
ＭＳ ゴシック
100
AcDbText
  0
LINE
  5
D2
330
1F
100
AcDbEntity
  8
C-4
  6
Continuous
 62
     7
370
     9
100
AcDbLine
 10
-1617.407602566248
 20
647.5893050865895
 30
0.0
 11
-1617.407602566248
 21
-452.4107284208867
 31
0.0
  0
LWPOLYLINE
  5
D3
330
1F
100
AcDbEntity
  8
C-4
  6
Continuous
 62
     7
370
     9
100
AcDbPolyline
 90
        4
 70
     1
 43
2.0
 10
-1616.407602566248
 20
647.5893050865895
 42
0.4142135623731
 10
-1617.407602566248
 20
648.5893050865894
 42
0.4142135623731
 10
-1618.407602566248
 20
647.5893050865895
 42
0.4142135623731
 10
-1617.407602566248
 20
646.5893050865895
 42
0.4142135623731
  0
LWPOLYLINE
  5
D4
330
1F
100
AcDbEntity
  8
C-4
  6
Continuous
 62
     7
370
     9
100
AcDbPolyline
 90
        4
 70
     1
 43
2.0
 10
-1616.407602566248
 20
-452.4107284208867
 42
0.4142135623731
 10
-1617.407602566248
 20
-451.4107284208867
 42
0.4142135623731
 10
-1618.407602566248
 20
-452.4107284208867
 42
0.4142135623731
 10
-1617.407602566248
 20
-453.4107284208867
 42
0.4142135623731
  0
TEXT
  5
D5
330
1F
100
AcDbEntity
  8
C-4
  6
Continuous
 62
     2
370
   211
100
AcDbText
 10
-1629.047602566249
 20
53.83928833285122
 30
0.0
 40
30.48
  1
1100
 50
90.0
 41
1.09375
  7
ＭＳ ゴシック
100
AcDbText
  0
LWPOLYLINE
  5
D6
330
1F
100
AcDbEntity
  8
C-4
  6
Continuous
 62
     7
370
     9
100
AcDbPolyline
 90
        4
 70
     1
 43
2.0
 10
-1475.120456442023
 20
647.5893050865895
 42
0.4142135623731
 10
-1476.120456442023
 20
648.5893050865894
 42
0.4142135623731
 10
-1477.120456442023
 20
647.5893050865895
 42
0.4142135623731
 10
-1476.120456442023
 20
646.5893050865895
 42
0.4142135623731
  0
LINE
  5
D7
330
1F
100
AcDbEntity
  8
C-4
  6
Continuous
 62
     7
370
     9
100
AcDbLine
 10
-1476.120456442023
 20
-202.410728420887
 30
0.0
 11
-1476.120456442023
 21
647.5893050865895
 31
0.0
  0
LWPOLYLINE
  5
D8
330
1F
100
AcDbEntity
  8
C-4
  6
Continuous
 62
     7
370
     9
100
AcDbPolyline
 90
        4
 70
     1
 43
2.0
 10
-1475.120456442023
 20
-202.410728420887
 42
0.4142135623731
 10
-1476.120456442023
 20
-201.410728420887
 42
0.4142135623731
 10
-1477.120456442023
 20
-202.410728420887
 42
0.4142135623731
 10
-1476.120456442023
 20
-203.410728420887
 42
0.4142135623731
  0
TEXT
  5
D9
330
1F
100
AcDbEntity
  8
C-4
  6
Continuous
 62
     2
370
   211
100
AcDbText
 10
-1487.760456442023
 20
190.0892883328514
 30
0.0
 40
30.48
  1
850
 50
90.0
 41
1.083333333333333
  7
ＭＳ ゴシック
100
AcDbText
  0
LINE
  5
DA
330
1F
100
AcDbEntity
  8
C-4
  6
Continuous
 62
     7
370
     9
100
AcDbLine
 10
-1476.120456442023
 20
-202.410728420887
 30
0.0
 11
-1476.120456442023
 21
-452.4107284208867
 31
0.0
  0
LWPOLYLINE
  5
DB
330
1F
100
AcDbEntity
  8
C-4
  6
Continuous
 62
     7
370
     9
100
AcDbPolyline
 90
        4
 70
     1
 43
2.0
 10
-1475.120456442023
 20
-452.4107284208867
 42
0.4142135623731
 10
-1476.120456442023
 20
-451.4107284208867
 42
0.4142135623731
 10
-1477.120456442023
 20
-452.4107284208867
 42
0.4142135623731
 10
-1476.120456442023
 20
-453.4107284208867
 42
0.4142135623731
  0
TEXT
  5
DC
330
1F
100
AcDbEntity
  8
C-4
  6
Continuous
 62
     2
370
   211
100
AcDbText
 10
-1487.760456442023
 20
-359.9107284208867
 30
0.0
 40
30.48
  1
250
 50
90.0
 41
1.083333333333333
  7
ＭＳ ゴシック
100
AcDbText
  0
LINE
  5
DD
330
1F
100
AcDbEntity
  8
C-4
  6
Continuous
 62
     7
370
     9
100
AcDbLine
 10
-1476.120456442023
 20
-452.4107284208867
 30
0.0
 11
-1476.120456442023
 21
-552.4107284208867
 31
0.0
  0
LWPOLYLINE
  5
DE
330
1F
100
AcDbEntity
  8
C-4
  6
Continuous
 62
     7
370
     9
100
AcDbPolyline
 90
        4
 70
     1
 43
2.0
 10
-1475.120456442023
 20
-552.4107284208867
 42
0.4142135623731
 10
-1476.120456442023
 20
-551.4107284208867
 42
0.4142135623731
 10
-1477.120456442023
 20
-552.4107284208867
 42
0.4142135623731
 10
-1476.120456442023
 20
-553.4107284208867
 42
0.4142135623731
  0
LINE
  5
DF
330
1F
100
AcDbEntity
  8
C-4
  6
Continuous
 62
     7
370
     9
100
AcDbLine
 10
-1479.120456442023
 20
-552.4107284208867
 30
0.0
 11
-1314.853096788222
 21
-552.4107284208867
 31
0.0
  0
TEXT
  5
E0
330
1F
100
AcDbEntity
  8
C-4
  6
Continuous
 62
     2
370
   211
100
AcDbText
 10
-1487.760456442023
 20
-534.9107284208867
 30
0.0
 40
30.48
  1
100
 50
90.0
 41
1.083333333333333
  7
ＭＳ ゴシック
100
AcDbText
  0
LINE
  5
E1
330
1F
100
AcDbEntity
  8
C-4
  6
Continuous
 62
     7
370
     9
100
AcDbLine
 10
-1620.407602566248
 20
-452.4107284208867
 30
0.0
 11
-1314.853096788222
 21
-452.4107284208867
 31
0.0
  0
LINE
  5
E2
330
1F
100
AcDbEntity
  8
C-4
  6
Continuous
 62
     7
370
     9
100
AcDbLine
 10
-1359.757886357095
 20
-452.4107284208867
 30
0.0
 11
-1359.757886357095
 21
-302.4107284208868
 31
0.0
  0
LWPOLYLINE
  5
E3
330
1F
100
AcDbEntity
  8
C-4
  6
Continuous
 62
     7
370
     9
100
AcDbPolyline
 90
        4
 70
     1
 43
2.0
 10
-1358.757886357095
 20
-452.4107284208867
 42
0.4142135623731
 10
-1359.757886357095
 20
-451.4107284208867
 42
0.4142135623731
 10
-1360.757886357095
 20
-452.4107284208867
 42
0.4142135623731
 10
-1359.757886357095
 20
-453.4107284208867
 42
0.4142135623731
  0
LWPOLYLINE
  5
E4
330
1F
100
AcDbEntity
  8
C-4
  6
Continuous
 62
     7
370
     9
100
AcDbPolyline
 90
        4
 70
     1
 43
2.0
 10
-1358.757886357095
 20
-302.4107284208868
 42
0.4142135623731
 10
-1359.757886357095
 20
-301.4107284208867
 42
0.4142135623731
 10
-1360.757886357095
 20
-302.4107284208868
 42
0.4142135623731
 10
-1359.757886357095
 20
-303.4107284208868
 42
0.4142135623731
  0
LINE
  5
E5
330
1F
100
AcDbEntity
  8
C-4
  6
Continuous
 62
     7
370
     9
100
AcDbLine
 10
-1362.757886357095
 20
-302.4107284208868
 30
0.0
 11
-1216.628250695792
 21
-302.4107284208868
 31
0.0
  0
TEXT
  5
E6
330
1F
100
AcDbEntity
  8
C-4
  6
Continuous
 62
     2
370
   211
100
AcDbText
 10
-1371.397886357096
 20
-409.9107284208867
 30
0.0
 40
30.48
  1
150
 50
90.0
 41
1.083333333333333
  7
ＭＳ ゴシック
100
AcDbText
  0
TEXT
  5
E7
330
1F
100
AcDbEntity
  8
C-5
  6
Continuous
 62
     2
370
     9
100
AcDbText
 10
-829.567357213674
 20
-189.8294267982038
 30
0.0
 40
30.48
  1
▽G.L.
 41
1.104166666666667
  7
ＭＳ ゴシック
100
AcDbText
  0
LINE
  5
E8
330
1F
100
AcDbEntity
  8
C-5
  6
Continuous
 62
     7
370
     9
100
AcDbLine
 10
-1009.331565228083
 20
-305.4104645877256
 30
0.0
 11
-818.7429352659544
 21
-635.4429846016388
 31
0.0
  0
LINE
  5
E9
330
1F
100
AcDbEntity
  8
C-5
  6
Continuous
 62
     7
370
     9
100
AcDbLine
 10
-436.8613607003343
 20
-635.4429846016388
 30
0.0
 11
-818.7429352659544
 21
-635.4429846016388
 31
0.0
  0
LINE
  5
EA
330
1F
100
AcDbEntity
  8
C-5
  6
Continuous
 62
     7
370
     9
100
AcDbLine
 10
-1009.331565228083
 20
-305.4104645877256
 30
0.0
 11
-999.7621561854828
 21
-328.5064904487997
 31
0.0
  0
LINE
  5
EB
330
1F
100
AcDbEntity
  8
C-5
  6
Continuous
 62
     7
370
     9
100
AcDbLine
 10
-1009.331565228083
 20
-305.4104645877256
 30
0.0
 11
-994.110534532485
 21
-325.2427671409761
 31
0.0
  0
TEXT
  5
EC
330
1F
100
AcDbEntity
  8
C-5
  6
Continuous
 62
     7
370
     9
100
AcDbText
 10
-808.8820968040984
 20
-671.0657682390992
 30
0.0
 40
22.86
  1
SS400　電気亜鉛めっき
 41
1.150793650793651
  7
ＭＳ ゴシック
100
AcDbText
  0
TEXT
  5
ED
330
1F
100
AcDbEntity
  8
C-5
  6
Continuous
 62
     7
370
     9
100
AcDbText
 10
-808.8820968040984
 20
-622.462931359667
 30
0.0
 40
22.86
  1
長ネジボルト：M6×200
 41
1.158730158730159
  7
ＭＳ ゴシック
100
AcDbText
  0
LINE
  5
EE
330
1F
100
AcDbEntity
  8
C-5
  6
Continuous
 62
     7
370
     9
100
AcDbLine
 10
-1003.043519877327
 20
201.8180889812047
 30
0.0
 11
-616.8913450403229
 21
201.8180889812047
 31
0.0
  0
LINE
  5
EF
330
1F
100
AcDbEntity
  8
C-5
  6
Continuous
 62
     7
370
     9
100
AcDbLine
 10
-1003.043519877327
 20
201.8180889812047
 30
0.0
 11
-1072.503094808704
 21
81.51037281777565
 31
0.0
  0
LINE
  5
F0
330
1F
100
AcDbEntity
  8
C-5
  6
Continuous
 62
     7
370
     9
100
AcDbLine
 10
-1072.503094808704
 20
81.51037281777565
 30
0.0
 11
-1062.936025900943
 21
104.6073681313257
 31
0.0
  0
LINE
  5
F1
330
1F
100
AcDbEntity
  8
C-5
  6
Continuous
 62
     7
370
     9
100
AcDbLine
 10
-1072.503094808704
 20
81.51037281777565
 30
0.0
 11
-1057.28407359702
 21
101.3442174616744
 31
0.0
  0
TEXT
  5
F2
330
1F
100
AcDbEntity
  8
C-5
  6
Continuous
 62
     7
370
     9
100
AcDbText
 10
-999.0943580587971
 20
164.7465894362857
 30
0.0
 40
22.86
  1
SUS304　ヘアライン仕上
 41
1.151515151515152
  7
ＭＳ ゴシック
100
AcDbText
  0
LINE
  5
F3
330
1F
100
AcDbEntity
  8
C-0
  6
JWW_CENTER2
 62
     7
370
     9
100
AcDbLine
 10
0.0
 20
672.5894339619475
 30
0.0
 11
0.0
 21
-477.4106485179934
 31
0.0
  0
LINE
  5
F4
330
1F
100
AcDbEntity
  8
C-E
  6
Continuous
 62
     6
370
     5
100
AcDbLine
 10
-199.9999999999996
 20
-452.4105660380528
 30
0.0
 11
199.9999999999999
 21
-452.4105660380528
 31
0.0
  0
LINE
  5
F5
330
1F
100
AcDbEntity
  8
C-E
  6
Continuous
 62
     6
370
     5
100
AcDbLine
 10
-199.9999999999996
 20
-552.4105660380528
 30
0.0
 11
-199.9999999999996
 21
-452.4105660380528
 31
0.0
  0
LINE
  5
F6
330
1F
100
AcDbEntity
  8
C-E
  6
Continuous
 62
     6
370
     5
100
AcDbLine
 10
-199.9999999999996
 20
-552.4105660380528
 30
0.0
 11
199.9999999999999
 21
-552.4105660380528
 31
0.0
  0
LINE
  5
F7
330
1F
100
AcDbEntity
  8
C-E
  6
Continuous
 62
     6
370
     5
100
AcDbLine
 10
0.0
 20
-452.4105660380528
 30
0.0
 11
-26.79491924311236
 21
-552.4105660380528
 31
0.0
  0
LINE
  5
F8
330
1F
100
AcDbEntity
  8
C-E
  6
Continuous
 62
     6
370
     5
100
AcDbLine
 10
-13.7455504295724
 20
-552.4105660380528
 30
0.0
 11
-20.27023483634252
 21
-528.0601123286347
 31
0.0
  0
LINE
  5
F9
330
1F
100
AcDbEntity
  8
C-E
  6
Continuous
 62
     6
370
     5
100
AcDbLine
 10
-13.04936881354024
 20
-452.4105660380528
 30
0.0
 11
-6.52468440677012
 21
-476.7610197474709
 31
0.0
  0
LINE
  5
FA
330
1F
100
AcDbEntity
  8
C-E
  6
Continuous
 62
     6
370
     5
100
AcDbLine
 10
-50.0
 20
-452.4105660380528
 30
0.0
 11
-76.79491924311236
 21
-552.4105660380528
 31
0.0
  0
LINE
  5
FB
330
1F
100
AcDbEntity
  8
C-E
  6
Continuous
 62
     6
370
     5
100
AcDbLine
 10
-63.7455504295724
 20
-552.4105660380528
 30
0.0
 11
-70.27023483634252
 21
-528.0601123286347
 31
0.0
  0
LINE
  5
FC
330
1F
100
AcDbEntity
  8
C-E
  6
Continuous
 62
     6
370
     5
100
AcDbLine
 10
-63.04936881354024
 20
-452.4105660380528
 30
0.0
 11
-56.52468440677012
 21
-476.7610197474709
 31
0.0
  0
LINE
  5
FD
330
1F
100
AcDbEntity
  8
C-E
  6
Continuous
 62
     6
370
     5
100
AcDbLine
 10
-100.0
 20
-452.4105660380528
 30
0.0
 11
-126.7949192431124
 21
-552.4105660380528
 31
0.0
  0
LINE
  5
FE
330
1F
100
AcDbEntity
  8
C-E
  6
Continuous
 62
     6
370
     5
100
AcDbLine
 10
-113.7455504295724
 20
-552.4105660380528
 30
0.0
 11
-120.2702348363425
 21
-528.0601123286347
 31
0.0
  0
LINE
  5
FF
330
1F
100
AcDbEntity
  8
C-E
  6
Continuous
 62
     6
370
     5
100
AcDbLine
 10
-113.0493688135402
 20
-452.4105660380528
 30
0.0
 11
-106.5246844067701
 21
-476.7610197474709
 31
0.0
  0
LINE
  5
100
330
1F
100
AcDbEntity
  8
C-E
  6
Continuous
 62
     6
370
     5
100
AcDbLine
 10
-150.0000000000001
 20
-452.4105660380528
 30
0.0
 11
-176.7949192431117
 21
-552.4105660380528
 31
0.0
  0
LINE
  5
101
330
1F
100
AcDbEntity
  8
C-E
  6
Continuous
 62
     6
370
     5
100
AcDbLine
 10
-163.7455504295725
 20
-552.4105660380528
 30
0.0
 11
-170.2702348363415
 21
-528.0601123286347
 31
0.0
  0
LINE
  5
102
330
1F
100
AcDbEntity
  8
C-E
  6
Continuous
 62
     6
370
     5
100
AcDbLine
 10
-163.0493688135398
 20
-452.4105660380528
 30
0.0
 11
-156.5246844067703
 21
-476.7610197474709
 31
0.0
  0
LINE
  5
103
330
1F
100
AcDbEntity
  8
C-E
  6
Continuous
 62
     6
370
     5
100
AcDbLine
 10
49.99999999999986
 20
-452.4105660380528
 30
0.0
 11
23.20508075688764
 21
-552.4105660380528
 31
0.0
  0
LINE
  5
104
330
1F
100
AcDbEntity
  8
C-E
  6
Continuous
 62
     6
370
     5
100
AcDbLine
 10
36.2544495704276
 20
-552.4105660380528
 30
0.0
 11
29.72976516365748
 21
-528.0601123286347
 31
0.0
  0
LINE
  5
105
330
1F
100
AcDbEntity
  8
C-E
  6
Continuous
 62
     6
370
     5
100
AcDbLine
 10
36.95063118645976
 20
-452.4105660380528
 30
0.0
 11
43.47531559322988
 21
-476.7610197474709
 31
0.0
  0
LINE
  5
106
330
1F
100
AcDbEntity
  8
C-E
  6
Continuous
 62
     6
370
     5
100
AcDbLine
 10
99.99999999999986
 20
-452.4105660380528
 30
0.0
 11
73.20508075688764
 21
-552.4105660380528
 31
0.0
  0
LINE
  5
107
330
1F
100
AcDbEntity
  8
C-E
  6
Continuous
 62
     6
370
     5
100
AcDbLine
 10
86.2544495704276
 20
-552.4105660380528
 30
0.0
 11
79.72976516365762
 21
-528.0601123286347
 31
0.0
  0
LINE
  5
108
330
1F
100
AcDbEntity
  8
C-E
  6
Continuous
 62
     6
370
     5
100
AcDbLine
 10
86.9506311864599
 20
-452.4105660380528
 30
0.0
 11
93.47531559322988
 21
-476.7610197474709
 31
0.0
  0
LINE
  5
109
330
1F
100
AcDbEntity
  8
C-E
  6
Continuous
 62
     6
370
     5
100
AcDbLine
 10
149.9999999999999
 20
-452.4105660380528
 30
0.0
 11
123.2050807568876
 21
-552.4105660380528
 31
0.0
  0
LINE
  5
10A
330
1F
100
AcDbEntity
  8
C-E
  6
Continuous
 62
     6
370
     5
100
AcDbLine
 10
136.2544495704276
 20
-552.4105660380528
 30
0.0
 11
129.7297651636576
 21
-528.0601123286347
 31
0.0
  0
LINE
  5
10B
330
1F
100
AcDbEntity
  8
C-E
  6
Continuous
 62
     6
370
     5
100
AcDbLine
 10
136.9506311864599
 20
-452.4105660380528
 30
0.0
 11
143.4753155932299
 21
-476.7610197474709
 31
0.0
  0
LINE
  5
10C
330
1F
100
AcDbEntity
  8
C-E
  6
Continuous
 62
     6
370
     5
100
AcDbLine
 10
199.9999999999999
 20
-452.4105660380528
 30
0.0
 11
173.2050807568876
 21
-552.4105660380528
 31
0.0
  0
LINE
  5
10D
330
1F
100
AcDbEntity
  8
C-E
  6
Continuous
 62
     6
370
     5
100
AcDbLine
 10
186.2544495704276
 20
-552.4105660380528
 30
0.0
 11
179.7297651636576
 21
-528.0601123286347
 31
0.0
  0
LINE
  5
10E
330
1F
100
AcDbEntity
  8
C-E
  6
Continuous
 62
     6
370
     5
100
AcDbLine
 10
186.9506311864599
 20
-452.4105660380528
 30
0.0
 11
193.4753155932299
 21
-476.7610197474709
 31
0.0
  0
LINE
  5
10F
330
1F
100
AcDbEntity
  8
C-E
  6
Continuous
 62
     6
370
     5
100
AcDbLine
 10
-150.0000000000001
 20
-452.4105660380528
 30
0.0
 11
-150.0000000000001
 21
-202.4105660380527
 31
0.0
  0
LINE
  5
110
330
1F
100
AcDbEntity
  8
C-E
  6
Continuous
 62
     6
370
     5
100
AcDbLine
 10
149.9999999999999
 20
-452.4105660380528
 30
0.0
 11
149.9999999999999
 21
-202.4105660380527
 31
0.0
  0
LINE
  5
111
330
1F
100
AcDbEntity
  8
C-E
  6
Continuous
 62
     6
370
     5
100
AcDbLine
 10
199.9999999999999
 20
-552.4105660380528
 30
0.0
 11
199.9999999999999
 21
-455.6199265580726
 31
0.0
  0
LINE
  5
112
330
1F
100
AcDbEntity
  8
C-E
  6
Continuous
 62
     6
370
     5
100
AcDbLine
 10
199.9999999999999
 20
-455.6199265580726
 30
0.0
 11
199.9999999999999
 21
-452.4105660380528
 31
0.0
  0
LINE
  5
113
330
1F
100
AcDbEntity
  8
C-E
  6
Continuous
 62
     6
370
     5
100
AcDbLine
 10
149.9999999999999
 20
-346.2318654297215
 30
0.0
 11
43.82129939166859
 21
-452.4105660380528
 31
0.0
  0
LINE
  5
114
330
1F
100
AcDbEntity
  8
C-E
  6
Continuous
 62
     6
370
     5
100
AcDbLine
 10
-30.25001319679035
 20
-202.4105660380527
 30
0.0
 11
-418.5106386869729
 21
-202.4105660380527
 31
0.0
  0
LINE
  5
115
330
1F
100
AcDbEntity
  8
C-E
  6
Continuous
 62
     6
370
     5
100
AcDbLine
 10
30.25001319679035
 20
-202.4105660380527
 30
0.0
 11
423.5736383271075
 21
-202.4105660380527
 31
0.0
  0
LINE
  5
116
330
1F
100
AcDbEntity
  8
C-E
  6
Continuous
 62
     6
370
     5
100
AcDbLine
 10
-30.25001319679035
 20
-313.884909708614
 30
0.0
 11
-150.0000000000001
 21
-433.6348965118236
 31
0.0
  0
LINE
  5
117
330
1F
100
AcDbEntity
  8
C-E
  6
Continuous
 62
     6
370
     5
100
AcDbLine
 10
-30.25001319679035
 20
-328.027045332345
 30
0.0
 11
-150.0000000000001
 21
-447.7770321355546
 31
0.0
  0
LINE
  5
118
330
1F
100
AcDbEntity
  8
C-E
  6
Continuous
 62
     6
370
     5
100
AcDbLine
 10
108.9836792809425
 20
-202.4105660380527
 30
0.0
 11
30.25001319679035
 21
-277.2671651700282
 31
0.0
  0
LINE
  5
119
330
1F
100
AcDbEntity
  8
C-E
  6
Continuous
 62
     6
370
     5
100
AcDbLine
 10
123.2464311473528
 20
-202.4105660380527
 30
0.0
 11
30.25001319679035
 21
-291.6460504512016
 31
0.0
  0
LINE
  5
11A
330
1F
100
AcDbEntity
  8
C-E
  6
Continuous
 62
     6
370
     5
100
AcDbLine
 10
149.9999999999999
 20
-317.9475941822596
 30
0.0
 11
30.25001319679035
 21
-437.697580985469
 31
0.0
  0
LINE
  5
11B
330
1F
100
AcDbEntity
  8
C-E
  6
Continuous
 62
     6
370
     5
100
AcDbLine
 10
149.9999999999999
 20
-332.0897298059906
 30
0.0
 11
30.25001319679035
 21
-451.8397166092
 31
0.0
  0
CIRCLE
  5
11C
330
1F
100
AcDbEntity
  8
C-1
  6
Continuous
 62
     3
370
     9
100
AcDbCircle
 10
-0.0088416903275342
 20
-302.4103807185709
 30
0.0
 40
3.0
  0
CIRCLE
  5
11D
330
1F
100
AcDbEntity
  8
C-1
  6
Continuous
 62
     3
370
     9
100
AcDbCircle
 10
-0.0088416903275342
 20
-302.4103807185709
 30
0.0
 40
4.999898746488498
  0
LINE
  5
11E
330
1F
100
AcDbEntity
  8
C-1
  6
Continuous
 62
     3
370
     9
100
AcDbLine
 10
-0.0088416903275342
 20
-308.1604491769219
 30
0.0
 11
4.991057056160935
 21
-305.2737562897159
 31
0.0
  0
LINE
  5
11F
330
1F
100
AcDbEntity
  8
C-1
  6
Continuous
 62
     3
370
     9
100
AcDbLine
 10
4.991057056160935
 20
-299.547189946137
 30
0.0
 11
4.991057056160935
 21
-305.2737562897159
 31
0.0
  0
LINE
  5
120
330
1F
100
AcDbEntity
  8
C-1
  6
Continuous
 62
     3
370
     9
100
AcDbLine
 10
-0.0088416903275342
 20
-296.660497058931
 30
0.0
 11
4.991057056160935
 21
-299.547189946137
 31
0.0
  0
LINE
  5
121
330
1F
100
AcDbEntity
  8
C-1
  6
Continuous
 62
     3
370
     9
100
AcDbLine
 10
-0.0088416903275342
 20
-296.660497058931
 30
0.0
 11
-5.008740436816003
 21
-299.547189946137
 31
0.0
  0
LINE
  5
122
330
1F
100
AcDbEntity
  8
C-1
  6
Continuous
 62
     3
370
     9
100
AcDbLine
 10
-5.008740436816003
 20
-299.547189946137
 30
0.0
 11
-5.008740436816003
 21
-305.2737562897159
 31
0.0
  0
LINE
  5
123
330
1F
100
AcDbEntity
  8
C-1
  6
Continuous
 62
     3
370
     9
100
AcDbLine
 10
-0.0088416903275342
 20
-308.1604491769219
 30
0.0
 11
-5.008740436816003
 21
-305.2737562897159
 31
0.0
  0
LINE
  5
124
330
1F
100
AcDbEntity
  8
C-E
  6
Continuous
 62
     6
370
     5
100
AcDbLine
 10
-30.2500131967903
 20
-299.742774084883
 30
0.0
 11
-150.0000000000001
 21
-419.4927608880927
 31
0.0
  0
LINE
  5
125
330
1F
100
AcDbEntity
  8
C-E
  6
Continuous
 62
     6
370
     5
100
AcDbLine
 10
137.4841664759317
 20
-202.4105660380527
 30
0.0
 11
30.25001319679033
 21
-305.948981112324
 31
0.0
  0
LINE
  5
126
330
1F
100
AcDbEntity
  8
C-0
  6
JWW_CENTER2
 62
     7
370
     9
100
AcDbLine
 10
-9.030158300708262
 20
-302.4104423181412
 30
0.0
 11
8.640106703963628
 21
-302.4104423181412
 31
0.0
  0
TEXT
  5
127
330
1F
100
AcDbEntity
  8
C-5
  6
Continuous
 62
     2
370
     9
100
AcDbText
 10
283.3584605062531
 20
-189.8294267982038
 30
0.0
 40
30.48
  1
▽G.L.
 41
1.104166666666667
  7
ＭＳ ゴシック
100
AcDbText
  0
LINE
  5
128
330
1F
100
AcDbEntity
  8
C-4
  6
Continuous
 62
     7
370
     9
100
AcDbLine
 10
-1302.753108005494
 20
-813.3077554026157
 30
0.0
 11
-902.7531080054944
 21
-813.3077554026157
 31
0.0
  0
LWPOLYLINE
  5
129
330
1F
100
AcDbEntity
  8
C-4
  6
Continuous
 62
     7
370
     9
100
AcDbPolyline
 90
        4
 70
     1
 43
2.0
 10
-1301.753108005494
 20
-813.3077554026157
 42
0.4142135623731
 10
-1302.753108005494
 20
-812.3077554026157
 42
0.4142135623731
 10
-1303.753108005494
 20
-813.3077554026157
 42
0.4142135623731
 10
-1302.753108005494
 20
-814.3077554026156
 42
0.4142135623731
  0
LWPOLYLINE
  5
12A
330
1F
100
AcDbEntity
  8
C-4
  6
Continuous
 62
     7
370
     9
100
AcDbPolyline
 90
        4
 70
     1
 43
2.0
 10
-901.7531080054944
 20
-813.3077554026157
 42
0.4142135623731
 10
-902.7531080054944
 20
-812.3077554026157
 42
0.4142135623731
 10
-903.7531080054943
 20
-813.3077554026157
 42
0.4142135623731
 10
-902.7531080054944
 20
-814.3077554026156
 42
0.4142135623731
  0
LINE
  5
12B
330
1F
100
AcDbEntity
  8
C-4
  6
Continuous
 62
     7
370
     9
100
AcDbLine
 10
-1302.753108005494
 20
-816.3077554026155
 30
0.0
 11
-1302.753108005494
 21
-572.4107284208867
 31
0.0
  0
LINE
  5
12C
330
1F
100
AcDbEntity
  8
C-4
  6
Continuous
 62
     7
370
     9
100
AcDbLine
 10
-902.7531080054944
 20
-816.3077554026155
 30
0.0
 11
-902.7531080054944
 21
-572.4107284208867
 31
0.0
  0
LINE
  5
12D
330
1F
100
AcDbEntity
  8
C-4
  6
Continuous
 62
     7
370
     9
100
AcDbLine
 10
-1252.753108005495
 20
-699.7159186679211
 30
0.0
 11
-952.7531080054944
 21
-699.7159186679211
 31
0.0
  0
LWPOLYLINE
  5
12E
330
1F
100
AcDbEntity
  8
C-4
  6
Continuous
 62
     7
370
     9
100
AcDbPolyline
 90
        4
 70
     1
 43
2.0
 10
-1251.753108005495
 20
-699.7159186679211
 42
0.4142135623731
 10
-1252.753108005495
 20
-698.7159186679212
 42
0.4142135623731
 10
-1253.753108005494
 20
-699.7159186679211
 42
0.4142135623731
 10
-1252.753108005495
 20
-700.7159186679211
 42
0.4142135623731
  0
LWPOLYLINE
  5
12F
330
1F
100
AcDbEntity
  8
C-4
  6
Continuous
 62
     7
370
     9
100
AcDbPolyline
 90
        4
 70
     1
 43
2.0
 10
-951.7531080054944
 20
-699.7159186679211
 42
0.4142135623731
 10
-952.7531080054944
 20
-698.7159186679212
 42
0.4142135623731
 10
-953.7531080054943
 20
-699.7159186679211
 42
0.4142135623731
 10
-952.7531080054944
 20
-700.7159186679211
 42
0.4142135623731
  0
LINE
  5
130
330
1F
100
AcDbEntity
  8
C-4
  6
Continuous
 62
     7
370
     9
100
AcDbLine
 10
-1252.753108005495
 20
-702.7159186679212
 30
0.0
 11
-1252.753108005495
 21
-572.4107284208867
 31
0.0
  0
LINE
  5
131
330
1F
100
AcDbEntity
  8
C-4
  6
Continuous
 62
     7
370
     9
100
AcDbLine
 10
-952.7531080054944
 20
-702.7159186679212
 30
0.0
 11
-952.7531080054944
 21
-572.4107284208867
 31
0.0
  0
TEXT
  5
132
330
1F
100
AcDbEntity
  8
C-4
  6
Continuous
 62
     2
370
   211
100
AcDbText
 10
-1157.753108005494
 20
-797.6677554026157
 30
0.0
 40
30.48
  1
□400
 41
1.099999999999994
  7
ＭＳ ゴシック
100
AcDbText
  0
TEXT
  5
133
330
1F
100
AcDbEntity
  8
C-4
  6
Continuous
 62
     2
370
   211
100
AcDbText
 10
-1157.753108005494
 20
-684.0759186679211
 30
0.0
 40
30.48
  1
□300
 41
1.099999999999994
  7
ＭＳ ゴシック
100
AcDbText
  0
LINE
  5
134
330
1F
100
AcDbEntity
  8
C-4
  6
Continuous
 62
     7
370
     9
100
AcDbLine
 10
-1620.407602566248
 20
647.5893050865895
 30
0.0
 11
-1120.942621977196
 21
647.5893050865895
 31
0.0
  0
LINE
  5
135
330
1F
100
AcDbEntity
  8
C-4
  6
Continuous
 62
     7
370
     9
100
AcDbLine
 10
-1133.003121202285
 20
708.0916883144893
 30
0.0
 11
-1133.003121202285
 21
642.0246317420626
 31
0.0
  0
LINE
  5
136
330
1F
100
AcDbEntity
  8
C-4
  6
Continuous
 62
     7
370
     9
100
AcDbLine
 10
-1072.503094808704
 20
708.0916883144893
 30
0.0
 11
-1072.503094808704
 21
642.0246317420626
 31
0.0
  0
TEXT
  5
137
330
1F
100
AcDbEntity
  8
C-F
  6
Continuous
 62
     2
370
     0
100
AcDbText
 10
1361.652470565698
 20
-1118.147439613527
 30
0.0
 40
30.48
  1
支柱質量：2.3kg／本
 41
1.111842105263158
  7
ＭＳ ゴシック
100
AcDbText
  0
ARC
  5
138
330
1F
100
AcDbEntity
  8
C-2
  6
Continuous
 62
     3
370
     9
100
AcDbCircle
 10
-1102.753108005494
 20
595.3115335946516
 30
0.0
 40
52.27812452601249
100
AcDbArc
 50
54.64534367901268
 51
125.3546563210863
  0
LINE
  5
139
330
1F
100
AcDbEntity
  8
C-2
  6
Continuous
 62
     3
370
     9
100
AcDbLine
 10
-1072.503094808704
 20
637.5896582113135
 30
0.0
 11
-1133.003121202285
 21
637.5896582113135
 31
0.0
  0
LINE
  5
13A
330
1F
100
AcDbEntity
  8
C-2
  6
Continuous
 62
     3
370
     9
100
AcDbLine
 10
-1054.186094978359
 20
527.5894624957733
 30
0.0
 11
-1054.186094978359
 21
527.5994624956826
 31
0.0
  0
ARC
  5
13B
330
1F
100
AcDbEntity
  8
C-2
  6
Continuous
 62
     3
370
     9
100
AcDbCircle
 10
-1054.186094978359
 20
540.272462380782
 30
0.0
 40
12.68299988500862
100
AcDbArc
 50
270.0
 51
0.0
  0
ARC
  5
13C
330
1F
100
AcDbEntity
  8
C-2
  6
Continuous
 62
     3
370
     9
100
AcDbCircle
 10
-1054.186094978359
 20
540.272462380782
 30
0.0
 40
18.68299983060874
100
AcDbArc
 50
270.0
 51
0.0
  0
LINE
  5
13D
330
1F
100
AcDbEntity
  8
C-2
  6
Continuous
 62
     3
370
     9
100
AcDbLine
 10
-1066.50309486668
 20
547.0894623189737
 30
0.0
 11
-1066.50309486668
 21
537.2475657157487
 31
0.0
  0
LINE
  5
13E
330
1F
100
AcDbEntity
  8
C-2
  6
Continuous
 62
     3
370
     9
100
AcDbLine
 10
-1072.503094812288
 20
547.0894623189737
 30
0.0
 11
-1066.503094866688
 21
547.0894623189737
 31
0.0
  0
ARC
  5
13F
330
1F
100
AcDbEntity
  8
C-2
  6
Continuous
 62
     3
370
     9
100
AcDbCircle
 10
-1054.186094978359
 20
540.272462380782
 30
0.0
 40
12.68299988500862
100
AcDbArc
 50
193.7980315976056
 51
270.0
  0
ARC
  5
140
330
1F
100
AcDbEntity
  8
C-2
  6
Continuous
 62
     3
370
     9
100
AcDbCircle
 10
-1054.186094978359
 20
540.272462380782
 30
0.0
 40
18.68299983060874
100
AcDbArc
 50
191.3596882805108
 51
270.0
  0
ARC
  5
141
330
1F
100
AcDbEntity
  8
C-2
  6
Continuous
 62
     3
370
     9
100
AcDbCircle
 10
-1054.186094978359
 20
554.9064622480984
 30
0.0
 40
12.68299988500862
100
AcDbArc
 50
0.0
 51
90.0
  0
ARC
  5
142
330
1F
100
AcDbEntity
  8
C-2
  6
Continuous
 62
     3
370
     9
100
AcDbCircle
 10
-1054.186094978359
 20
554.9064622480984
 30
0.0
 40
18.68299983060874
100
AcDbArc
 50
0.0
 51
90.0
  0
LINE
  5
143
330
1F
100
AcDbEntity
  8
C-2
  6
Continuous
 62
     3
370
     9
100
AcDbLine
 10
-1066.50309486668
 20
548.0894623099067
 30
0.0
 11
-1066.50309486668
 21
557.9313589131322
 31
0.0
  0
ARC
  5
144
330
1F
100
AcDbEntity
  8
C-2
  6
Continuous
 62
     3
370
     9
100
AcDbCircle
 10
-1054.186094978359
 20
554.9064622480984
 30
0.0
 40
12.68299988500862
100
AcDbArc
 50
90.0
 51
166.2019684023945
  0
ARC
  5
145
330
1F
100
AcDbEntity
  8
C-2
  6
Continuous
 62
     3
370
     9
100
AcDbCircle
 10
-1054.186094978359
 20
554.9064622480984
 30
0.0
 40
18.68299983060874
100
AcDbArc
 50
90.0
 51
168.6403117194892
  0
LINE
  5
146
330
1F
100
AcDbEntity
  8
C-2
  6
Continuous
 62
     3
370
     9
100
AcDbLine
 10
-1072.503094812273
 20
548.0894623099067
 30
0.0
 11
-1066.50309486668
 21
548.0894623099033
 31
0.0
  0
LINE
  5
147
330
1F
100
AcDbEntity
  8
C-2
  6
Continuous
 62
     3
370
     9
100
AcDbLine
 10
-1041.503095093354
 20
540.272462380782
 30
0.0
 11
-1041.503095093354
 21
554.9064622480984
 31
0.0
  0
LINE
  5
148
330
1F
100
AcDbEntity
  8
C-2
  6
Continuous
 62
     3
370
     9
100
AcDbLine
 10
-1035.503095147754
 20
540.272462380782
 30
0.0
 11
-1035.503095147754
 21
554.9064622480984
 31
0.0
  0
LINE
  5
149
330
1F
100
AcDbEntity
  8
C-A
  6
JWW_CENTER1
 62
     7
370
     9
100
AcDbLine
 10
-1080.374502067572
 20
547.5894623144426
 30
0.0
 11
-1029.060587531943
 21
547.5894623144269
 31
0.0
  0
LINE
  5
14A
330
1F
100
AcDbEntity
  8
C-A
  6
JWW_CENTER1
 62
     7
370
     9
100
AcDbLine
 10
-1054.186094978359
 20
513.0693337511591
 30
0.0
 11
-1054.186094978359
 21
582.1095908777099
 31
0.0
  0
LINE
  5
14B
330
1F
100
AcDbEntity
  8
C-2
  6
Continuous
 62
     3
370
     9
100
AcDbLine
 10
-1151.32012103263
 20
527.5894624957733
 30
0.0
 11
-1151.32012103263
 21
527.5994624956826
 31
0.0
  0
ARC
  5
14C
330
1F
100
AcDbEntity
  8
C-2
  6
Continuous
 62
     3
370
     9
100
AcDbCircle
 10
-1151.32012103263
 20
540.272462380782
 30
0.0
 40
12.68299988500862
100
AcDbArc
 50
180.0
 51
270.0
  0
ARC
  5
14D
330
1F
100
AcDbEntity
  8
C-2
  6
Continuous
 62
     3
370
     9
100
AcDbCircle
 10
-1151.32012103263
 20
540.272462380782
 30
0.0
 40
18.68299983060874
100
AcDbArc
 50
180.0
 51
270.0
  0
LINE
  5
14E
330
1F
100
AcDbEntity
  8
C-2
  6
Continuous
 62
     3
370
     9
100
AcDbLine
 10
-1139.003121144309
 20
547.0894623189737
 30
0.0
 11
-1139.003121144309
 21
537.2475657157487
 31
0.0
  0
LINE
  5
14F
330
1F
100
AcDbEntity
  8
C-2
  6
Continuous
 62
     3
370
     9
100
AcDbLine
 10
-1133.003121198701
 20
547.0894623189737
 30
0.0
 11
-1139.003121144301
 21
547.0894623189737
 31
0.0
  0
ARC
  5
150
330
1F
100
AcDbEntity
  8
C-2
  6
Continuous
 62
     3
370
     9
100
AcDbCircle
 10
-1151.32012103263
 20
540.272462380782
 30
0.0
 40
12.68299988500862
100
AcDbArc
 50
270.0
 51
346.2019684023944
  0
ARC
  5
151
330
1F
100
AcDbEntity
  8
C-2
  6
Continuous
 62
     3
370
     9
100
AcDbCircle
 10
-1151.32012103263
 20
540.272462380782
 30
0.0
 40
18.68299983060874
100
AcDbArc
 50
270.0
 51
348.6403117194892
  0
ARC
  5
152
330
1F
100
AcDbEntity
  8
C-2
  6
Continuous
 62
     3
370
     9
100
AcDbCircle
 10
-1151.32012103263
 20
554.9064622480984
 30
0.0
 40
12.68299988500862
100
AcDbArc
 50
90.0
 51
180.0
  0
ARC
  5
153
330
1F
100
AcDbEntity
  8
C-2
  6
Continuous
 62
     3
370
     9
100
AcDbCircle
 10
-1151.32012103263
 20
554.9064622480984
 30
0.0
 40
18.68299983060874
100
AcDbArc
 50
90.0
 51
180.0
  0
LINE
  5
154
330
1F
100
AcDbEntity
  8
C-2
  6
Continuous
 62
     3
370
     9
100
AcDbLine
 10
-1139.003121144309
 20
548.0894623099067
 30
0.0
 11
-1139.003121144309
 21
557.9313589131322
 31
0.0
  0
ARC
  5
155
330
1F
100
AcDbEntity
  8
C-2
  6
Continuous
 62
     3
370
     9
100
AcDbCircle
 10
-1151.32012103263
 20
554.9064622480984
 30
0.0
 40
12.68299988500862
100
AcDbArc
 50
13.79803159760555
 51
90.0
  0
ARC
  5
156
330
1F
100
AcDbEntity
  8
C-2
  6
Continuous
 62
     3
370
     9
100
AcDbCircle
 10
-1151.32012103263
 20
554.9064622480984
 30
0.0
 40
18.68299983060874
100
AcDbArc
 50
11.35968828051082
 51
90.0
  0
LINE
  5
157
330
1F
100
AcDbEntity
  8
C-2
  6
Continuous
 62
     3
370
     9
100
AcDbLine
 10
-1133.003121198715
 20
548.0894623099067
 30
0.0
 11
-1139.003121144309
 21
548.0894623099033
 31
0.0
  0
LINE
  5
158
330
1F
100
AcDbEntity
  8
C-2
  6
Continuous
 62
     3
370
     9
100
AcDbLine
 10
-1164.003120917635
 20
540.272462380782
 30
0.0
 11
-1164.003120917635
 21
554.9064622480984
 31
0.0
  0
LINE
  5
159
330
1F
100
AcDbEntity
  8
C-2
  6
Continuous
 62
     3
370
     9
100
AcDbLine
 10
-1170.003120863235
 20
540.272462380782
 30
0.0
 11
-1170.003120863235
 21
554.9064622480984
 31
0.0
  0
LINE
  5
15A
330
1F
100
AcDbEntity
  8
C-A
  6
JWW_CENTER1
 62
     7
370
     9
100
AcDbLine
 10
-1151.32012103263
 20
513.0693337511591
 30
0.0
 11
-1151.32012103263
 21
582.1095908777099
 31
0.0
  0
LINE
  5
15B
330
1F
100
AcDbEntity
  8
C-A
  6
JWW_CENTER1
 62
     7
370
     9
100
AcDbLine
 10
-1125.131713943417
 20
547.5894623144482
 30
0.0
 11
-1176.445628479046
 21
547.5894623144324
 31
0.0
  0
LINE
  5
15C
330
1F
100
AcDbEntity
  8
C-2
  6
Continuous
 62
     3
370
     9
100
AcDbLine
 10
-1133.003121202285
 20
-452.4105660380528
 30
0.0
 11
-1133.003121202285
 21
637.9488390975812
 31
0.0
  0
LINE
  5
15D
330
1F
100
AcDbEntity
  8
C-2
  6
Continuous
 62
     3
370
     9
100
AcDbLine
 10
-1072.503094808704
 20
-452.4105660380528
 30
0.0
 11
-1072.503094808704
 21
637.9488390976335
 31
0.0
  0
ARC
  5
15E
330
1F
100
AcDbEntity
  8
C-2
  6
Continuous
 62
     3
370
     9
100
AcDbCircle
 10
0.0000000000001776
 20
570.5902790361095
 30
0.0
 40
3.0
100
AcDbArc
 50
90.0
 51
180.0
  0
ARC
  5
15F
330
1F
100
AcDbEntity
  8
C-2
  6
Continuous
 62
     3
370
     9
100
AcDbCircle
 10
0.0
 20
570.5902790361095
 30
0.0
 40
3.0
100
AcDbArc
 50
0.0
 51
90.0
  0
LINE
  5
160
330
1F
100
AcDbEntity
  8
C-2
  6
Continuous
 62
     3
370
     9
100
AcDbLine
 10
-2.999999999999829
 20
524.590279507575
 30
0.0
 11
-2.999999999999829
 21
570.5902790361095
 31
0.0
  0
ARC
  5
161
330
1F
100
AcDbEntity
  8
C-2
  6
Continuous
 62
     3
370
     9
100
AcDbCircle
 10
0.0000000000001776
 20
524.590279507575
 30
0.0
 40
3.0
100
AcDbArc
 50
180.0
 51
270.0
  0
LINE
  5
162
330
1F
100
AcDbEntity
  8
C-2
  6
Continuous
 62
     3
370
     9
100
AcDbLine
 10
3.000000000000007
 20
524.590279507575
 30
0.0
 11
3.000000000000007
 21
570.5902790361095
 31
0.0
  0
ARC
  5
163
330
1F
100
AcDbEntity
  8
C-2
  6
Continuous
 62
     3
370
     9
100
AcDbCircle
 10
0.0
 20
524.590279507575
 30
0.0
 40
3.0
100
AcDbArc
 50
270.0
 51
0.0
  0
ARC
  5
164
330
1F
100
AcDbEntity
  8
C-2
  6
Continuous
 62
     3
370
     9
100
AcDbCircle
 10
0.0
 20
595.3115335946516
 30
0.0
 40
52.27812452601249
100
AcDbArc
 50
54.64534367901268
 51
125.3546563210863
  0
LINE
  5
165
330
1F
100
AcDbEntity
  8
C-2
  6
Continuous
 62
     3
370
     9
100
AcDbLine
 10
30.25001319679063
 20
637.5896582113135
 30
0.0
 11
-30.25001319679063
 21
637.5896582113135
 31
0.0
  0
LINE
  5
166
330
1F
100
AcDbEntity
  8
C-2
  6
Continuous
 62
     3
370
     9
100
AcDbLine
 10
-30.25001319679063
 20
-452.4105660380528
 30
0.0
 11
-30.25001319679063
 21
637.9488390975812
 31
0.0
  0
LINE
  5
167
330
1F
100
AcDbEntity
  8
C-2
  6
Continuous
 62
     3
370
     9
100
AcDbLine
 10
30.25001319679063
 20
-452.4105660380528
 30
0.0
 11
30.25001319679063
 21
637.9488390976335
 31
0.0
  0
LINE
  5
168
330
1F
100
AcDbEntity
  8
3-5
  6
Continuous
 62
     7
370
     9
100
AcDbLine
 10
830.3510250141136
 20
-367.7158544668741
 30
0.0
 11
1446.351025014113
 21
-367.7158544668741
 31
0.0
  0
LINE
  5
169
330
1F
100
AcDbEntity
  8
3-5
  6
Continuous
 62
     7
370
     9
100
AcDbLine
 10
830.3510250141136
 20
-437.7158544668741
 30
0.0
 11
1446.351025014113
 21
-437.7158544668741
 31
0.0
  0
LINE
  5
16A
330
1F
100
AcDbEntity
  8
3-5
  6
Continuous
 62
     7
370
     9
100
AcDbLine
 10
830.3510250141136
 20
-367.7158544668741
 30
0.0
 11
830.3510250141136
 21
-437.7158544668741
 31
0.0
  0
LINE
  5
16B
330
1F
100
AcDbEntity
  8
3-5
  6
Continuous
 62
     7
370
     9
100
AcDbLine
 10
1446.351025014113
 20
-367.7158544668741
 30
0.0
 11
1446.351025014113
 21
-437.7158544668741
 31
0.0
  0
TEXT
  5
16C
330
1F
100
AcDbEntity
  8
3-5
  6
Continuous
 62
     2
370
     9
100
AcDbText
 10
848.3510250141137
 20
-417.0758544668741
 30
0.0
 40
30.48
  1
フック部詳細図　Ｓ＝１：３
 41
1.115384615384615
  7
ＭＳ ゴシック
100
AcDbText
  0
ARC
  5
16D
330
1F
100
AcDbEntity
  8
3-2
  6
Continuous
 62
     3
370
     9
100
AcDbCircle
 10
1138.351023284473
 20
88.83071357352506
 30
0.0
 40
174.2604150867083
100
AcDbArc
 50
54.64534367901268
 51
125.3546563210863
  0
LINE
  5
16E
330
1F
100
AcDbEntity
  8
3-2
  6
Continuous
 62
     3
370
     9
100
AcDbLine
 10
1239.184400607109
 20
229.7577956290642
 30
0.0
 11
1037.517645961838
 21
229.7577956290642
 31
0.0
  0
LINE
  5
16F
330
1F
100
AcDbEntity
  8
3-2
  6
Continuous
 62
     3
370
     9
100
AcDbLine
 10
1300.241066708258
 20
-136.9095234227353
 30
0.0
 11
1300.241066708258
 21
-136.8761900897046
 31
0.0
  0
ARC
  5
170
330
1F
100
AcDbEntity
  8
3-2
  6
Continuous
 62
     3
370
     9
100
AcDbCircle
 10
1300.241066708258
 20
-94.63285713937296
 30
0.0
 40
42.27666628336208
100
AcDbArc
 50
270.0
 51
0.0
  0
ARC
  5
171
330
1F
100
AcDbEntity
  8
3-2
  6
Continuous
 62
     3
370
     9
100
AcDbCircle
 10
1300.241066708258
 20
-94.63285713937296
 30
0.0
 40
62.27666610202914
100
AcDbArc
 50
270.0
 51
0.0
  0
LINE
  5
172
330
1F
100
AcDbEntity
  8
3-2
  6
Continuous
 62
     3
370
     9
100
AcDbLine
 10
1259.184400413854
 20
-71.90952401206744
 30
0.0
 11
1259.184400413854
 21
-104.7158460228179
 31
0.0
  0
LINE
  5
173
330
1F
100
AcDbEntity
  8
3-2
  6
Continuous
 62
     3
370
     9
100
AcDbLine
 10
1239.18440059516
 20
-71.90952401206744
 30
0.0
 11
1259.184400413829
 21
-71.90952401206744
 31
0.0
  0
ARC
  5
174
330
1F
100
AcDbEntity
  8
3-2
  6
Continuous
 62
     3
370
     9
100
AcDbCircle
 10
1300.241066708258
 20
-94.63285713937296
 30
0.0
 40
42.27666628336208
100
AcDbArc
 50
193.7980315976056
 51
270.0
  0
ARC
  5
175
330
1F
100
AcDbEntity
  8
3-2
  6
Continuous
 62
     3
370
     9
100
AcDbCircle
 10
1300.241066708258
 20
-94.63285713937296
 30
0.0
 40
62.27666610202914
100
AcDbArc
 50
191.3596882805108
 51
270.0
  0
ARC
  5
176
330
1F
100
AcDbEntity
  8
3-2
  6
Continuous
 62
     3
370
     9
100
AcDbCircle
 10
1300.241066708258
 20
-45.85285758165199
 30
0.0
 40
42.27666628336208
100
AcDbArc
 50
0.0
 51
90.0
  0
ARC
  5
177
330
1F
100
AcDbEntity
  8
3-2
  6
Continuous
 62
     3
370
     9
100
AcDbCircle
 10
1300.241066708258
 20
-45.85285758165199
 30
0.0
 40
62.27666610202914
100
AcDbArc
 50
0.0
 51
90.0
  0
LINE
  5
178
330
1F
100
AcDbEntity
  8
3-2
  6
Continuous
 62
     3
370
     9
100
AcDbLine
 10
1259.184400413854
 20
-68.57619070895751
 30
0.0
 11
1259.184400413854
 21
-35.76986869820601
 31
0.0
  0
ARC
  5
179
330
1F
100
AcDbEntity
  8
3-2
  6
Continuous
 62
     3
370
     9
100
AcDbCircle
 10
1300.241066708258
 20
-45.85285758165199
 30
0.0
 40
42.27666628336208
100
AcDbArc
 50
90.0
 51
166.2019684023945
  0
ARC
  5
17A
330
1F
100
AcDbEntity
  8
3-2
  6
Continuous
 62
     3
370
     9
100
AcDbCircle
 10
1300.241066708258
 20
-45.85285758165199
 30
0.0
 40
62.27666610202914
100
AcDbArc
 50
90.0
 51
168.6403117194892
  0
LINE
  5
17B
330
1F
100
AcDbEntity
  8
3-2
  6
Continuous
 62
     3
370
     9
100
AcDbLine
 10
1239.18440059521
 20
-68.57619070895751
 30
0.0
 11
1259.184400413854
 21
-68.57619070896888
 31
0.0
  0
LINE
  5
17C
330
1F
100
AcDbEntity
  8
3-2
  6
Continuous
 62
     3
370
     9
100
AcDbLine
 10
1342.517732991607
 20
-94.63285713937296
 30
0.0
 11
1342.517732991607
 21
-45.85285758165199
 31
0.0
  0
LINE
  5
17D
330
1F
100
AcDbEntity
  8
3-2
  6
Continuous
 62
     3
370
     9
100
AcDbLine
 10
1362.517732810275
 20
-94.63285713937296
 30
0.0
 11
1362.517732810275
 21
-45.85285758165199
 31
0.0
  0
LINE
  5
17E
330
1F
100
AcDbEntity
  8
3-A
  6
JWW_CENTER1
 62
     7
370
     9
100
AcDbLine
 10
1212.94637641088
 20
-70.24285736050459
 30
0.0
 11
1383.99275819631
 21
-70.24285736055674
 31
0.0
  0
LINE
  5
17F
330
1F
100
AcDbEntity
  8
3-A
  6
JWW_CENTER1
 62
     7
370
     9
100
AcDbLine
 10
1300.241066708258
 20
-185.3099525714498
 30
0.0
 11
1300.241066708258
 21
44.82423785038634
 31
0.0
  0
LINE
  5
180
330
1F
100
AcDbEntity
  8
3-2
  6
Continuous
 62
     3
370
     9
100
AcDbLine
 10
976.4609798606878
 20
-136.9095234227353
 30
0.0
 11
976.4609798606878
 21
-136.8761900897046
 31
0.0
  0
ARC
  5
181
330
1F
100
AcDbEntity
  8
3-2
  6
Continuous
 62
     3
370
     9
100
AcDbCircle
 10
976.4609798606878
 20
-94.63285713937296
 30
0.0
 40
42.27666628336208
100
AcDbArc
 50
180.0
 51
270.0
  0
ARC
  5
182
330
1F
100
AcDbEntity
  8
3-2
  6
Continuous
 62
     3
370
     9
100
AcDbCircle
 10
976.4609798606878
 20
-94.63285713937296
 30
0.0
 40
62.27666610202914
100
AcDbArc
 50
180.0
 51
270.0
  0
LINE
  5
183
330
1F
100
AcDbEntity
  8
3-2
  6
Continuous
 62
     3
370
     9
100
AcDbLine
 10
1017.517646155092
 20
-71.90952401206744
 30
0.0
 11
1017.517646155092
 21
-104.7158460228179
 31
0.0
  0
LINE
  5
184
330
1F
100
AcDbEntity
  8
3-2
  6
Continuous
 62
     3
370
     9
100
AcDbLine
 10
1037.517645973785
 20
-71.90952401206744
 30
0.0
 11
1017.517646155117
 21
-71.90952401206744
 31
0.0
  0
ARC
  5
185
330
1F
100
AcDbEntity
  8
3-2
  6
Continuous
 62
     3
370
     9
100
AcDbCircle
 10
976.4609798606878
 20
-94.63285713937296
 30
0.0
 40
42.27666628336208
100
AcDbArc
 50
270.0
 51
346.2019684023944
  0
ARC
  5
186
330
1F
100
AcDbEntity
  8
3-2
  6
Continuous
 62
     3
370
     9
100
AcDbCircle
 10
976.4609798606878
 20
-94.63285713937296
 30
0.0
 40
62.27666610202914
100
AcDbArc
 50
270.0
 51
348.6403117194892
  0
ARC
  5
187
330
1F
100
AcDbEntity
  8
3-2
  6
Continuous
 62
     3
370
     9
100
AcDbCircle
 10
976.4609798606878
 20
-45.85285758165199
 30
0.0
 40
42.27666628336208
100
AcDbArc
 50
90.0
 51
180.0
  0
ARC
  5
188
330
1F
100
AcDbEntity
  8
3-2
  6
Continuous
 62
     3
370
     9
100
AcDbCircle
 10
976.4609798606878
 20
-45.85285758165199
 30
0.0
 40
62.27666610202914
100
AcDbArc
 50
90.0
 51
180.0
  0
LINE
  5
189
330
1F
100
AcDbEntity
  8
3-2
  6
Continuous
 62
     3
370
     9
100
AcDbLine
 10
1017.517646155092
 20
-68.57619070895751
 30
0.0
 11
1017.517646155092
 21
-35.76986869820601
 31
0.0
  0
ARC
  5
18A
330
1F
100
AcDbEntity
  8
3-2
  6
Continuous
 62
     3
370
     9
100
AcDbCircle
 10
976.4609798606878
 20
-45.85285758165199
 30
0.0
 40
42.27666628336208
100
AcDbArc
 50
13.79803159760555
 51
90.0
  0
ARC
  5
18B
330
1F
100
AcDbEntity
  8
3-2
  6
Continuous
 62
     3
370
     9
100
AcDbCircle
 10
976.4609798606878
 20
-45.85285758165199
 30
0.0
 40
62.27666610202914
100
AcDbArc
 50
11.35968828051082
 51
90.0
  0
LINE
  5
18C
330
1F
100
AcDbEntity
  8
3-2
  6
Continuous
 62
     3
370
     9
100
AcDbLine
 10
1037.517645973736
 20
-68.57619070895751
 30
0.0
 11
1017.517646155092
 21
-68.57619070896888
 31
0.0
  0
LINE
  5
18D
330
1F
100
AcDbEntity
  8
3-2
  6
Continuous
 62
     3
370
     9
100
AcDbLine
 10
934.1843135773386
 20
-94.63285713937296
 30
0.0
 11
934.1843135773386
 21
-45.85285758165199
 31
0.0
  0
LINE
  5
18E
330
1F
100
AcDbEntity
  8
3-2
  6
Continuous
 62
     3
370
     9
100
AcDbLine
 10
914.1843137586702
 20
-94.63285713937296
 30
0.0
 11
914.1843137586702
 21
-45.85285758165199
 31
0.0
  0
LINE
  5
18F
330
1F
100
AcDbEntity
  8
3-A
  6
JWW_CENTER1
 62
     7
370
     9
100
AcDbLine
 10
976.4609798606878
 20
-185.3099525714498
 30
0.0
 11
976.4609798606878
 21
44.82423785038634
 31
0.0
  0
LINE
  5
190
330
1F
100
AcDbEntity
  8
3-A
  6
JWW_CENTER1
 62
     7
370
     9
100
AcDbLine
 10
1063.755670158065
 20
-70.24285736048625
 30
0.0
 11
892.7092883726352
 21
-70.2428573605387
 31
0.0
  0
LINE
  5
191
330
1F
100
AcDbEntity
  8
3-2
  6
Continuous
 62
     3
370
     9
100
AcDbLine
 10
1239.184400607109
 20
-256.909523241385
 30
0.0
 11
1239.184400607109
 21
230.9550652501311
 31
0.0
  0
LINE
  5
192
330
1F
100
AcDbEntity
  8
3-2
  6
Continuous
 62
     3
370
     9
100
AcDbLine
 10
1037.517645961838
 20
-256.909523241385
 30
0.0
 11
1037.517645961838
 21
230.9550652499571
 31
0.0
  0
LINE
  5
193
330
1F
100
AcDbEntity
  8
3-0
  6
JWW_CENTER2
 62
     7
370
     9
100
AcDbLine
 10
1138.351023284473
 20
331.1463480757965
 30
0.0
 11
1138.351023284473
 21
-317.3625642920126
 31
0.0
  0
LINE
  5
194
330
1F
100
AcDbEntity
  8
3-4
  6
Continuous
 62
     7
370
     9
100
AcDbLine
 10
1259.184400413854
 20
-52.25479955689124
 30
0.0
 11
1239.184400595334
 21
-52.25479955689124
 31
0.0
  0
LWPOLYLINE
  5
195
330
1F
100
AcDbEntity
  8
3-4
  6
Continuous
 62
     7
370
     9
100
AcDbPolyline
 90
        4
 70
     1
 43
2.0
 10
1260.184400413853
 20
-52.25479955689124
 42
0.4142135623731
 10
1259.184400413854
 20
-51.25479955689124
 42
0.4142135623731
 10
1258.184400413854
 20
-52.25479955689124
 42
0.4142135623731
 10
1259.184400413854
 20
-53.25479955689124
 42
0.4142135623731
  0
LWPOLYLINE
  5
196
330
1F
100
AcDbEntity
  8
3-4
  6
Continuous
 62
     7
370
     9
100
AcDbPolyline
 90
        4
 70
     1
 43
2.0
 10
1240.184400595334
 20
-52.25479955689124
 42
0.4142135623731
 10
1239.184400595334
 20
-51.25479955689124
 42
0.4142135623731
 10
1238.184400595334
 20
-52.25479955689124
 42
0.4142135623731
 10
1239.184400595334
 20
-53.25479955689124
 42
0.4142135623731
  0
TEXT
  5
197
330
1F
100
AcDbEntity
  8
3-4
  6
Continuous
 62
     2
370
   211
100
AcDbText
 10
1161.464156032119
 20
-36.61479955689124
 30
0.0
 40
30.48
  1
φ6
 41
1.083333333333333
  7
ＭＳ ゴシック
100
AcDbText
  0
LINE
  5
198
330
1F
100
AcDbEntity
  8
3-4
  6
Continuous
 62
     7
370
     9
100
AcDbLine
 10
1526.560480910383
 20
263.0911286602334
 30
0.0
 11
1526.560480910383
 21
-70.24285736055674
 31
0.0
  0
LWPOLYLINE
  5
199
330
1F
100
AcDbEntity
  8
3-4
  6
Continuous
 62
     7
370
     9
100
AcDbPolyline
 90
        4
 70
     1
 43
2.0
 10
1527.560480910383
 20
263.0911286602334
 42
0.4142135623731
 10
1526.560480910383
 20
264.0911286602334
 42
0.4142135623731
 10
1525.560480910383
 20
263.0911286602334
 42
0.4142135623731
 10
1526.560480910383
 20
262.0911286602334
 42
0.4142135623731
  0
LWPOLYLINE
  5
19A
330
1F
100
AcDbEntity
  8
3-4
  6
Continuous
 62
     7
370
     9
100
AcDbPolyline
 90
        4
 70
     1
 43
2.0
 10
1527.560480910383
 20
-70.24285736055674
 42
0.4142135623731
 10
1526.560480910383
 20
-69.24285736055674
 42
0.4142135623731
 10
1525.560480910383
 20
-70.24285736055674
 42
0.4142135623731
 10
1526.560480910383
 20
-71.24285736055674
 42
0.4142135623731
  0
LINE
  5
19B
330
1F
100
AcDbEntity
  8
3-4
  6
Continuous
 62
     7
370
     9
100
AcDbLine
 10
1529.560480910383
 20
263.0911286602334
 30
0.0
 11
1158.351023284473
 21
263.0911286602334
 31
0.0
  0
TEXT
  5
19C
330
1F
100
AcDbEntity
  8
3-4
  6
Continuous
 62
     2
370
   211
100
AcDbText
 10
1514.920480910383
 20
63.92413564983841
 30
0.0
 40
30.48
  1
100
 50
90.0
 41
1.083333333333333
  7
ＭＳ ゴシック
100
AcDbText
  0
LINE
  5
19D
330
1F
100
AcDbEntity
  8
3-4
  6
Continuous
 62
     7
370
     9
100
AcDbLine
 10
1459.313086957444
 20
16.42380852037718
 30
0.0
 11
1459.313086957444
 21
-156.909523241402
 31
0.0
  0
LWPOLYLINE
  5
19E
330
1F
100
AcDbEntity
  8
3-4
  6
Continuous
 62
     7
370
     9
100
AcDbPolyline
 90
        4
 70
     1
 43
2.0
 10
1460.313086957444
 20
16.42380852037718
 42
0.4142135623731
 10
1459.313086957444
 20
17.42380852037718
 42
0.4142135623731
 10
1458.313086957444
 20
16.42380852037718
 42
0.4142135623731
 10
1459.313086957444
 20
15.42380852037718
 42
0.4142135623731
  0
LWPOLYLINE
  5
19F
330
1F
100
AcDbEntity
  8
3-4
  6
Continuous
 62
     7
370
     9
100
AcDbPolyline
 90
        4
 70
     1
 43
2.0
 10
1460.313086957444
 20
-156.909523241402
 42
0.4142135623731
 10
1459.313086957444
 20
-155.909523241402
 42
0.4142135623731
 10
1458.313086957444
 20
-156.909523241402
 42
0.4142135623731
 10
1459.313086957444
 20
-157.909523241402
 42
0.4142135623731
  0
LINE
  5
1A0
330
1F
100
AcDbEntity
  8
3-4
  6
Continuous
 62
     7
370
     9
100
AcDbLine
 10
1462.313086957444
 20
16.42380852037718
 30
0.0
 11
1320.241066708258
 21
16.42380852037718
 31
0.0
  0
LINE
  5
1A1
330
1F
100
AcDbEntity
  8
3-4
  6
Continuous
 62
     7
370
     9
100
AcDbLine
 10
1462.313086957444
 20
-156.909523241402
 30
0.0
 11
1320.241066708258
 21
-156.909523241402
 31
0.0
  0
TEXT
  5
1A2
330
1F
100
AcDbEntity
  8
3-4
  6
Continuous
 62
     2
370
   211
100
AcDbText
 10
1447.673086957444
 20
-91.49285736051255
 30
0.0
 40
30.48
  1
52
 50
90.0
 41
1.0625
  7
ＭＳ ゴシック
100
AcDbText
  0
LINE
  5
1A3
330
1F
100
AcDbEntity
  8
3-4
  6
Continuous
 62
     7
370
     9
100
AcDbLine
 10
1529.560480910383
 20
-70.24285736055674
 30
0.0
 11
1476.560480910383
 21
-70.24285736055674
 31
0.0
  0
LINE
  5
1A4
330
1F
100
AcDbEntity
  8
3-4
  6
Continuous
 62
     7
370
     9
100
AcDbLine
 10
1239.184355703353
 20
320.8922904133
 30
0.0
 11
1362.517732810275
 21
320.8922904133
 31
0.0
  0
LWPOLYLINE
  5
1A5
330
1F
100
AcDbEntity
  8
3-4
  6
Continuous
 62
     7
370
     9
100
AcDbPolyline
 90
        4
 70
     1
 43
2.0
 10
1240.184355703353
 20
320.8922904133
 42
0.4142135623731
 10
1239.184355703353
 20
321.8922904133
 42
0.4142135623731
 10
1238.184355703353
 20
320.8922904133
 42
0.4142135623731
 10
1239.184355703353
 20
319.8922904133
 42
0.4142135623731
  0
LWPOLYLINE
  5
1A6
330
1F
100
AcDbEntity
  8
3-4
  6
Continuous
 62
     7
370
     9
100
AcDbPolyline
 90
        4
 70
     1
 43
2.0
 10
1363.517732810275
 20
320.8922904133
 42
0.4142135623731
 10
1362.517732810275
 20
321.8922904133
 42
0.4142135623731
 10
1361.517732810275
 20
320.8922904133
 42
0.4142135623731
 10
1362.517732810275
 20
319.8922904133
 42
0.4142135623731
  0
LINE
  5
1A7
330
1F
100
AcDbEntity
  8
3-4
  6
Continuous
 62
     7
370
     9
100
AcDbLine
 10
1239.184355703353
 20
323.8922904133
 30
0.0
 11
1239.184355703353
 21
250.9550652501311
 31
0.0
  0
LINE
  5
1A8
330
1F
100
AcDbEntity
  8
3-4
  6
Continuous
 62
     7
370
     9
100
AcDbLine
 10
1362.517732810275
 20
323.8922904133
 30
0.0
 11
1362.517732810275
 21
-25.85285758165199
 31
0.0
  0
TEXT
  5
1A9
330
1F
100
AcDbEntity
  8
3-4
  6
Continuous
 62
     2
370
   211
100
AcDbText
 10
1279.601044256814
 20
332.5322904133
 30
0.0
 40
30.48
  1
37
 41
1.0625
  7
ＭＳ ゴシック
100
AcDbText
  0
LINE
  5
1AA
330
1F
100
AcDbEntity
  8
3-4
  6
Continuous
 62
     7
370
     9
100
AcDbLine
 10
1239.184400595334
 20
-52.25479955689124
 30
0.0
 11
1162.474564250556
 21
-52.25479955689124
 31
0.0
  0
TEXT
  5
1AB
330
1F
100
AcDbEntity
  8
F-5ﾚｲﾔ
  6
Continuous
 62
     2
370
     0
100
AcDbText
 10
-922.5003505397484
 20
-1362.864190673312
 30
0.0
 40
30.48
  1
車止め　ステンレス製　先付タイプ　固定式　両フック付　ＥＡ０６８５ＲＣ－Ｋ
 41
0.8993243243243243
  7
ＭＳ ゴシック
100
AcDbText
  0
TEXT
  5
1AC
330
1F
100
AcDbEntity
  8
C-5
  6
Continuous
 62
     7
370
     9
100
AcDbText
 10
-994.611279623159
 20
217.2722877113929
 30
0.0
 40
22.86
  1
本体：φ60.5×1.5
 41
1.156862745098039
  7
ＭＳ ゴシック
100
AcDbText
  0
LINE
  5
1AD
330
1F
100
AcDbEntity
  8
C-5
  6
Continuous
 62
     7
370
     9
100
AcDbLine
 10
-938.4834479454611
 20
-74.49147888279467
 30
0.0
 11
-571.3107915857838
 21
-74.49147888279467
 31
0.0
  0
LINE
  5
1AE
330
1F
100
AcDbEntity
  8
C-5
  6
Continuous
 62
     7
370
     9
100
AcDbLine
 10
-1067.993813340957
 20
-296.6604357197462
 30
0.0
 11
-938.4834479454611
 21
-74.49147888279467
 31
0.0
  0
LINE
  5
1AF
330
1F
100
AcDbEntity
  8
C-5
  6
Continuous
 62
     7
370
     9
100
AcDbLine
 10
-1067.993813340957
 20
-296.6604357197462
 30
0.0
 11
-1058.330278839719
 21
-273.6036340997601
 31
0.0
  0
LINE
  5
1B0
330
1F
100
AcDbEntity
  8
C-5
  6
Continuous
 62
     7
370
     9
100
AcDbLine
 10
-1067.993813340957
 20
-296.6604357197462
 30
0.0
 11
-1052.692016414573
 21
-276.8903823353038
 31
0.0
  0
TEXT
  5
1B1
330
1F
100
AcDbEntity
  8
C-5
  6
Continuous
 62
     7
370
     9
100
AcDbText
 10
-929.6987038236354
 20
-60.39314413999348
 30
0.0
 40
22.86
  1
六角ナット：M6
 41
1.154761904761905
  7
ＭＳ ゴシック
100
AcDbText
  0
TEXT
  5
1B2
330
1F
100
AcDbEntity
  8
C-5
  6
Continuous
 62
     7
370
     9
100
AcDbText
 10
-929.6987038236354
 20
-106.7288415395207
 30
0.0
 40
22.86
  1
SWRCH　電気亜鉛めっき
 41
1.150793650793651
  7
ＭＳ ゴシック
100
AcDbText
  0
ENDSEC
  0
SECTION
  2
OBJECTS
  0
DICTIONARY
  5
C
330
0
100
AcDbDictionary
281
     1
  3
ACAD_DETAILVIEWSTYLE
350
1BA
  3
ACAD_GROUP
350
D
  3
ACAD_LAYOUT
350
1A
  3
ACAD_MATERIAL
350
43
  3
ACAD_MLEADERSTYLE
350
6B
  3
ACAD_MLINESTYLE
350
17
  3
ACAD_PLOTSETTINGS
350
19
  3
ACAD_PLOTSTYLENAME
350
E
  3
ACAD_SCALELIST
350
47
  3
ACAD_SECTIONVIEWSTYLE
350
1BB
  3
ACAD_TABLESTYLE
350
69
  3
ACAD_VISUALSTYLE
350
2A
  3
ACDB_RECOMPOSE_DATA
350
1B7
  3
AcDbVariableDictionary
350
1B3
  0
SUN
  5
6D
330
29
100
AcDbSun
 90
        1
290
     0
 63
     7
421
 16777215
 40
1.0
291
     1
 91
  2455826
 92
 54000000
292
     0
 70
     2
 71
   256
280
     1
  0
DICTIONARY
  5
1BA
102
{ACAD_REACTORS
330
C
102
}
330
C
100
AcDbDictionary
281
     1
  0
DICTIONARY
  5
D
102
{ACAD_REACTORS
330
C
102
}
330
C
100
AcDbDictionary
281
     1
  0
DICTIONARY
  5
1A
102
{ACAD_REACTORS
330
C
102
}
330
C
100
AcDbDictionary
281
     1
  3
Layout1
350
1E
  3
Layout2
350
26
  3
Model
350
22
  0
DICTIONARY
  5
43
102
{ACAD_REACTORS
330
C
102
}
330
C
100
AcDbDictionary
281
     1
  3
ByBlock
350
45
  3
ByLayer
350
44
  3
Global
350
46
  0
DICTIONARY
  5
6B
102
{ACAD_REACTORS
330
C
102
}
330
C
100
AcDbDictionary
281
     1
  3
Standard
350
6C
  0
DICTIONARY
  5
17
102
{ACAD_REACTORS
330
C
102
}
330
C
100
AcDbDictionary
281
     1
  3
Standard
350
18
  0
DICTIONARY
  5
19
102
{ACAD_REACTORS
330
C
102
}
330
C
100
AcDbDictionary
281
     1
  0
ACDBDICTIONARYWDFLT
  5
E
102
{ACAD_REACTORS
330
C
102
}
330
C
100
AcDbDictionary
281
     1
  3
Normal
350
F
100
AcDbDictionaryWithDefault
340
F
  0
DICTIONARY
  5
47
102
{ACAD_REACTORS
330
C
102
}
330
C
100
AcDbDictionary
281
     1
  3
A0
350
48
  3
A1
350
49
  3
A2
350
4A
  3
A3
350
4B
  3
A4
350
4C
  3
A5
350
4D
  3
A6
350
4E
  3
A7
350
4F
  3
A8
350
50
  3
A9
350
51
  3
B0
350
52
  3
B1
350
53
  3
B2
350
54
  3
B3
350
55
  3
B4
350
56
  3
B5
350
57
  3
B6
350
58
  3
B7
350
59
  3
B8
350
5A
  3
B9
350
5B
  3
C0
350
5C
  3
C1
350
5D
  3
C2
350
5E
  3
C3
350
5F
  3
C4
350
60
  3
C5
350
61
  3
C6
350
62
  3
C7
350
63
  3
C8
350
64
  3
C9
350
65
  3
D0
350
66
  3
D1
350
67
  3
D2
350
68
  0
DICTIONARY
  5
1BB
102
{ACAD_REACTORS
330
C
102
}
330
C
100
AcDbDictionary
281
     1
  0
DICTIONARY
  5
69
102
{ACAD_REACTORS
330
C
102
}
330
C
100
AcDbDictionary
281
     1
  3
Standard
350
6A
  0
DICTIONARY
  5
2A
102
{ACAD_REACTORS
330
C
102
}
330
C
100
AcDbDictionary
281
     1
  3
2dWireframe
350
2F
  3
Basic
350
32
  3
Brighten
350
36
  3
ColorChange
350
3A
  3
Conceptual
350
34
  3
Dim
350
35
  3
EdgeColorOff
350
3D
  3
Facepattern
350
39
  3
Flat
350
2B
  3
FlatWithEdges
350
2C
  3
Gouraud
350
2D
  3
GouraudWithEdges
350
2E
  3
Hidden
350
31
  3
JitterOff
350
3B
  3
Linepattern
350
38
  3
OverhangOff
350
3C
  3
Realistic
350
33
  3
Shaded
350
42
  3
Shaded with edges
350
41
  3
Shades of Gray
350
3E
  3
Sketchy
350
3F
  3
Thicken
350
37
  3
Wireframe
350
30
  3
X-Ray
350
40
  0
XRECORD
  5
1B7
102
{ACAD_REACTORS
330
C
102
}
330
C
100
AcDbXrecord
280
     1
 90
        1
330
6A
  0
DICTIONARY
  5
1B3
102
{ACAD_REACTORS
330
C
102
}
330
C
100
AcDbDictionary
281
     1
  3
CANNOSCALE
350
1B4
  3
CENTEREXE
350
1BC
  3
CENTERLTYPEFILE
350
1BD
  3
CMLEADERSTYLE
350
1B9
  3
CTABLESTYLE
350
1B8
  0
LAYOUT
  5
1E
102
{ACAD_REACTORS
330
1A
102
}
330
1A
100
AcDbPlotSettings
  1

  2
none_device
  4

  6

 40
0.0
 41
0.0
 42
0.0
 43
0.0
 44
0.0
 45
0.0
 46
0.0
 47
0.0
 48
0.0
 49
0.0
140
0.0
141
0.0
142
1.0
143
1.0
 70
   688
 72
     1
 73
     0
 74
     5
  7

 75
    16
 76
     0
 77
     5
 78
   300
147
1.0
148
0.0
149
0.0
100
AcDbLayout
  1
Layout1
 70
     1
 71
     1
 10
0.0
 20
0.0
 11
420.0
 21
297.0
 12
0.0
 22
0.0
 32
0.0
 14
1.000000000000000E+20
 24
1.000000000000000E+20
 34
1.000000000000000E+20
 15
-1.000000000000000E+20
 25
-1.000000000000000E+20
 35
-1.000000000000000E+20
146
0.0
 13
0.0
 23
0.0
 33
0.0
 16
1.0
 26
0.0
 36
0.0
 17
0.0
 27
1.0
 37
0.0
 76
     0
330
1B
  0
LAYOUT
  5
26
102
{ACAD_REACTORS
330
1A
102
}
330
1A
100
AcDbPlotSettings
  1

  2
none_device
  4

  6

 40
0.0
 41
0.0
 42
0.0
 43
0.0
 44
0.0
 45
0.0
 46
0.0
 47
0.0
 48
0.0
 49
0.0
140
0.0
141
0.0
142
1.0
143
1.0
 70
   688
 72
     1
 73
     0
 74
     5
  7

 75
    16
 76
     0
 77
     5
 78
   300
147
1.0
148
0.0
149
0.0
100
AcDbLayout
  1
Layout2
 70
     1
 71
     2
 10
0.0
 20
0.0
 11
0.0
 21
0.0
 12
0.0
 22
0.0
 32
0.0
 14
0.0
 24
0.0
 34
0.0
 15
0.0
 25
0.0
 35
0.0
146
0.0
 13
0.0
 23
0.0
 33
0.0
 16
1.0
 26
0.0
 36
0.0
 17
0.0
 27
1.0
 37
0.0
 76
     0
330
23
  0
LAYOUT
  5
22
102
{ACAD_REACTORS
330
1A
102
}
330
1A
100
AcDbPlotSettings
  1

  2
none_device
  4
Letter_(8.50_x_11.00_Inches)
  6

 40
6.35
 41
6.35
 42
6.35000508
 43
6.35000508
 44
215.9
 45
279.4
 46
0.0
 47
0.0
 48
0.0
 49
0.0
140
0.0
141
0.0
142
1.0
143
1.0
 70
  1712
 72
     1
 73
     0
 74
     0
  7

 75
     0
 76
     0
 77
     5
 78
   300
147
1.0
148
0.0
149
0.0
100
AcDbLayout
  1
Model
 70
     1
 71
     0
 10
-2100.0
 20
-1485.0
 11
2100.0
 21
1485.0
 12
0.0
 22
0.0
 32
0.0
 14
-2100.0
 24
-1485.0
 34
0.0
 15
2100.0
 25
1485.0
 35
0.0
146
0.0
 13
0.0
 23
0.0
 33
0.0
 16
1.0
 26
0.0
 36
0.0
 17
0.0
 27
1.0
 37
0.0
 76
     0
330
1F
331
29
  0
MATERIAL
  5
45
102
{ACAD_REACTORS
330
43
102
}
330
43
100
AcDbMaterial
  1
ByBlock
 72
     1
 94
      127
  0
MATERIAL
  5
44
102
{ACAD_REACTORS
330
43
102
}
330
43
100
AcDbMaterial
  1
ByLayer
 72
     1
 94
      127
  0
MATERIAL
  5
46
102
{ACAD_REACTORS
330
43
102
}
330
43
100
AcDbMaterial
  1
Global
 72
     1
 94
      127
  0
MLEADERSTYLE
  5
6C
102
{ACAD_REACTORS
330
6B
102
}
330
6B
100
AcDbMLeaderStyle
179
     2
170
     2
171
     1
172
     0
 90
        2
 40
0.0
 41
0.0
173
     1
 91
-1056964608
340
14
 92
       -2
290
     1
 42
2.0
291
     1
 43
8.0
  3
Standard
341
0
 44
4.0
300

342
11
174
     1
178
     6
175
     1
176
     0
 93
-1056964608
 45
4.0
292
     0
297
     0
 46
4.0
343
0
 94
-1056964608
 47
1.0
 49
1.0
140
1.0
293
     1
141
0.0
294
     1
177
     0
142
1.0
295
     0
296
     0
143
3.75
271
     0
272
     9
273
     9
298
     0
  0
MLINESTYLE
  5
18
102
{ACAD_REACTORS
330
17
102
}
330
17
100
AcDbMlineStyle
  2
Standard
 70
     0
  3

 62
   256
 51
90.0
 52
90.0
 71
     2
 49
0.5
 62
   256
  6
BYLAYER
 49
-0.5
 62
   256
  6
BYLAYER
  0
ACDBPLACEHOLDER
  5
F
102
{ACAD_REACTORS
330
E
102
}
330
E
  0
SCALE
  5
48
102
{ACAD_REACTORS
330
47
102
}
330
47
100
AcDbScale
 70
     0
300
1:1
140
1.0
141
1.0
290
     1
  0
SCALE
  5
49
102
{ACAD_REACTORS
330
47
102
}
330
47
100
AcDbScale
 70
     0
300
1:2
140
1.0
141
2.0
290
     0
  0
SCALE
  5
4A
102
{ACAD_REACTORS
330
47
102
}
330
47
100
AcDbScale
 70
     0
300
1:4
140
1.0
141
4.0
290
     0
  0
SCALE
  5
4B
102
{ACAD_REACTORS
330
47
102
}
330
47
100
AcDbScale
 70
     0
300
1:5
140
1.0
141
5.0
290
     0
  0
SCALE
  5
4C
102
{ACAD_REACTORS
330
47
102
}
330
47
100
AcDbScale
 70
     0
300
1:8
140
1.0
141
8.0
290
     0
  0
SCALE
  5
4D
102
{ACAD_REACTORS
330
47
102
}
330
47
100
AcDbScale
 70
     0
300
1:10
140
1.0
141
10.0
290
     0
  0
SCALE
  5
4E
102
{ACAD_REACTORS
330
47
102
}
330
47
100
AcDbScale
 70
     0
300
1:16
140
1.0
141
16.0
290
     0
  0
SCALE
  5
4F
102
{ACAD_REACTORS
330
47
102
}
330
47
100
AcDbScale
 70
     0
300
1:20
140
1.0
141
20.0
290
     0
  0
SCALE
  5
50
102
{ACAD_REACTORS
330
47
102
}
330
47
100
AcDbScale
 70
     0
300
1:30
140
1.0
141
30.0
290
     0
  0
SCALE
  5
51
102
{ACAD_REACTORS
330
47
102
}
330
47
100
AcDbScale
 70
     0
300
1:40
140
1.0
141
40.0
290
     0
  0
SCALE
  5
52
102
{ACAD_REACTORS
330
47
102
}
330
47
100
AcDbScale
 70
     0
300
1:50
140
1.0
141
50.0
290
     0
  0
SCALE
  5
53
102
{ACAD_REACTORS
330
47
102
}
330
47
100
AcDbScale
 70
     0
300
1:100
140
1.0
141
100.0
290
     0
  0
SCALE
  5
54
102
{ACAD_REACTORS
330
47
102
}
330
47
100
AcDbScale
 70
     0
300
2:1
140
2.0
141
1.0
290
     0
  0
SCALE
  5
55
102
{ACAD_REACTORS
330
47
102
}
330
47
100
AcDbScale
 70
     0
300
4:1
140
4.0
141
1.0
290
     0
  0
SCALE
  5
56
102
{ACAD_REACTORS
330
47
102
}
330
47
100
AcDbScale
 70
     0
300
8:1
140
8.0
141
1.0
290
     0
  0
SCALE
  5
57
102
{ACAD_REACTORS
330
47
102
}
330
47
100
AcDbScale
 70
     0
300
10:1
140
10.0
141
1.0
290
     0
  0
SCALE
  5
58
102
{ACAD_REACTORS
330
47
102
}
330
47
100
AcDbScale
 70
     0
300
100:1
140
100.0
141
1.0
290
     0
  0
SCALE
  5
59
102
{ACAD_REACTORS
330
47
102
}
330
47
100
AcDbScale
 70
     0
300
1/128" = 1'-0"
140
0.0078125
141
12.0
290
     0
  0
SCALE
  5
5A
102
{ACAD_REACTORS
330
47
102
}
330
47
100
AcDbScale
 70
     0
300
1/64" = 1'-0"
140
0.015625
141
12.0
290
     0
  0
SCALE
  5
5B
102
{ACAD_REACTORS
330
47
102
}
330
47
100
AcDbScale
 70
     0
300
1/32" = 1'-0"
140
0.03125
141
12.0
290
     0
  0
SCALE
  5
5C
102
{ACAD_REACTORS
330
47
102
}
330
47
100
AcDbScale
 70
     0
300
1/16" = 1'-0"
140
0.0625
141
12.0
290
     0
  0
SCALE
  5
5D
102
{ACAD_REACTORS
330
47
102
}
330
47
100
AcDbScale
 70
     0
300
3/32" = 1'-0"
140
0.09375
141
12.0
290
     0
  0
SCALE
  5
5E
102
{ACAD_REACTORS
330
47
102
}
330
47
100
AcDbScale
 70
     0
300
1/8" = 1'-0"
140
0.125
141
12.0
290
     0
  0
SCALE
  5
5F
102
{ACAD_REACTORS
330
47
102
}
330
47
100
AcDbScale
 70
     0
300
3/16" = 1'-0"
140
0.1875
141
12.0
290
     0
  0
SCALE
  5
60
102
{ACAD_REACTORS
330
47
102
}
330
47
100
AcDbScale
 70
     0
300
1/4" = 1'-0"
140
0.25
141
12.0
290
     0
  0
SCALE
  5
61
102
{ACAD_REACTORS
330
47
102
}
330
47
100
AcDbScale
 70
     0
300
3/8" = 1'-0"
140
0.375
141
12.0
290
     0
  0
SCALE
  5
62
102
{ACAD_REACTORS
330
47
102
}
330
47
100
AcDbScale
 70
     0
300
1/2" = 1'-0"
140
0.5
141
12.0
290
     0
  0
SCALE
  5
63
102
{ACAD_REACTORS
330
47
102
}
330
47
100
AcDbScale
 70
     0
300
3/4" = 1'-0"
140
0.75
141
12.0
290
     0
  0
SCALE
  5
64
102
{ACAD_REACTORS
330
47
102
}
330
47
100
AcDbScale
 70
     0
300
1" = 1'-0"
140
1.0
141
12.0
290
     0
  0
SCALE
  5
65
102
{ACAD_REACTORS
330
47
102
}
330
47
100
AcDbScale
 70
     0
300
1-1/2" = 1'-0"
140
1.5
141
12.0
290
     0
  0
SCALE
  5
66
102
{ACAD_REACTORS
330
47
102
}
330
47
100
AcDbScale
 70
     0
300
3" = 1'-0"
140
3.0
141
12.0
290
     0
  0
SCALE
  5
67
102
{ACAD_REACTORS
330
47
102
}
330
47
100
AcDbScale
 70
     0
300
6" = 1'-0"
140
6.0
141
12.0
290
     0
  0
SCALE
  5
68
102
{ACAD_REACTORS
330
47
102
}
330
47
100
AcDbScale
 70
     0
300
1'-0" = 1'-0"
140
12.0
141
12.0
290
     0
  0
TABLESTYLE
  5
6A
102
{ACAD_REACTORS
330
69
102
}
102
{ACAD_XDICTIONARY
360
1B5
102
}
330
69
100
AcDbTableStyle
  3
Standard
 70
     0
 71
     0
 40
0.06
 41
0.06
280
     0
281
     0
  7
Standard
140
4.5
170
     2
 62
     0
 63
   257
283
     0
 90
        4
 91
        0
  1

274
    -2
284
     1
 64
     0
275
    -2
285
     1
 65
     0
276
    -2
286
     1
 66
     0
277
    -2
287
     1
 67
     0
278
    -2
288
     1
 68
     0
279
    -2
289
     1
 69
     0
  7
Standard
140
6.0
170
     5
 62
     0
 63
   257
283
     0
 90
        4
 91
        0
  1

274
    -2
284
     1
 64
     0
275
    -2
285
     1
 65
     0
276
    -2
286
     1
 66
     0
277
    -2
287
     1
 67
     0
278
    -2
288
     1
 68
     0
279
    -2
289
     1
 69
     0
  7
Standard
140
4.5
170
     5
 62
     0
 63
   257
283
     0
 90
        4
 91
        0
  1

274
    -2
284
     1
 64
     0
275
    -2
285
     1
 65
     0
276
    -2
286
     1
 66
     0
277
    -2
287
     1
 67
     0
278
    -2
288
     1
 68
     0
279
    -2
289
     1
 69
     0
  0
VISUALSTYLE
  5
2F
102
{ACAD_REACTORS
330
2A
102
}
330
2A
100
AcDbVisualStyle
  2
2dWireframe
 70
     4
177
     3
291
     0
 70
    58
 90
        0
176
     1
 90
        2
176
     1
 90
        0
176
     1
 90
        0
176
     1
 40
0.6
176
     1
 40
30.0
176
     1
 62
     7
420
 16777215
176
     1
 90
        1
176
     1
 90
        4
176
     1
 62
     7
176
     1
 62
   257
176
     1
 90
        1
176
     1
 90
        1
176
     1
 40
1.0
176
     1
 90
        0
176
     1
 62
   257
176
     1
 40
1.0
176
     1
 90
        1
176
     1
 90
        6
176
     1
 90
        2
176
     1
 62
     7
176
     1
 90
        5
176
     1
 90
        0
176
     1
 90
        0
176
     1
290
     0
176
     1
 90
        1
176
     1
 40
0.0
176
     1
 90
        0
176
     1
290
     1
176
     1
290
     1
176
     1
290
     0
176
     1
290
     0
176
     1
290
     0
176
     1
290
     0
176
     1
290
     0
176
     1
290
     0
176
     1
290
     0
176
     1
 90
       50
176
     1
 40
0.0
176
     1
 40
1.0
176
     1
 90
        0
176
     1
 62
    18
420
        0
176
     1
 90
       50
176
     1
 90
        3
176
     1
 62
     5
420
      255
176
     1
290
     0
176
     1
 90
       50
176
     1
 90
       50
176
     1
 90
       50
176
     1
290
     0
176
     1
 90
       50
176
     1
 62
   256
176
     0
 40
1.0
176
     0
 90
        2
176
     1
  1
strokes_ogs.tif
176
     1
290
     0
176
     1
 40
1.0
176
     1
 40
1.0
176
     1
  0
VISUALSTYLE
  5
32
102
{ACAD_REACTORS
330
2A
102
}
330
2A
100
AcDbVisualStyle
  2
Basic
 70
     7
177
     3
291
     1
 70
    58
 90
        1
176
     1
 90
        0
176
     1
 90
        1
176
     1
 90
        0
176
     1
 40
0.6
176
     1
 40
30.0
176
     1
 62
     7
420
 16777215
176
     1
 90
        0
176
     1
 90
        4
176
     1
 62
     7
176
     1
 62
   257
176
     1
 90
        1
176
     1
 90
        1
176
     1
 40
1.0
176
     1
 90
        8
176
     1
 62
     7
176
     1
 40
1.0
176
     1
 90
        1
176
     1
 90
        6
176
     1
 90
        2
176
     1
 62
     7
176
     1
 90
        5
176
     1
 90
        0
176
     1
 90
        0
176
     1
290
     0
176
     1
 90
        1
176
     1
 40
0.0
176
     1
 90
        0
176
     1
290
     0
176
     1
290
     1
176
     1
290
     1
176
     1
290
     0
176
     1
290
     0
176
     1
290
     0
176
     1
290
     0
176
     1
290
     0
176
     1
290
     0
176
     1
 90
       50
176
     1
 40
0.0
176
     1
 40
1.0
176
     1
 90
        0
176
     1
 62
    18
420
        0
176
     1
 90
       50
176
     1
 90
        3
176
     1
 62
     5
420
      255
176
     1
290
     0
176
     1
 90
       50
176
     1
 90
       50
176
     1
 90
       50
176
     1
290
     0
176
     1
 90
       50
176
     1
 62
   256
176
     0
 40
1.0
176
     0
 90
        2
176
     1
  1
strokes_ogs.tif
176
     1
290
     0
176
     1
 40
1.0
176
     1
 40
1.0
176
     1
  0
VISUALSTYLE
  5
36
102
{ACAD_REACTORS
330
2A
102
}
330
2A
100
AcDbVisualStyle
  2
Brighten
 70
    12
177
     3
291
     1
 70
    58
 90
        2
176
     1
 90
        2
176
     1
 90
        0
176
     1
 90
        0
176
     1
 40
0.6
176
     1
 40
30.0
176
     1
 62
     7
420
 16777215
176
     1
 90
        1
176
     1
 90
        4
176
     1
 62
     7
176
     1
 62
   257
176
     1
 90
        1
176
     1
 90
        1
176
     1
 40
1.0
176
     1
 90
        8
176
     1
 62
     7
176
     1
 40
1.0
176
     1
 90
        1
176
     1
 90
        6
176
     1
 90
        2
176
     1
 62
     7
176
     1
 90
        5
176
     1
 90
        0
176
     1
 90
        0
176
     1
290
     0
176
     1
 90
        1
176
     1
 40
50.0
176
     1
 90
        0
176
     1
290
     0
176
     1
290
     1
176
     1
290
     1
176
     1
290
     0
176
     1
290
     0
176
     1
290
     0
176
     1
290
     0
176
     1
290
     0
176
     1
290
     0
176
     1
 90
       50
176
     1
 40
0.0
176
     1
 40
1.0
176
     1
 90
        0
176
     1
 62
    18
420
        0
176
     1
 90
       50
176
     1
 90
        3
176
     1
 62
     5
420
      255
176
     1
290
     0
176
     1
 90
       50
176
     1
 90
       50
176
     1
 90
       50
176
     1
290
     0
176
     1
 90
       50
176
     1
 62
   256
176
     0
 40
1.0
176
     0
 90
        2
176
     1
  1
strokes_ogs.tif
176
     1
290
     0
176
     1
 40
1.0
176
     1
 40
1.0
176
     1
  0
VISUALSTYLE
  5
3A
102
{ACAD_REACTORS
330
2A
102
}
330
2A
100
AcDbVisualStyle
  2
ColorChange
 70
    16
177
     3
291
     1
 70
    58
 90
        2
176
     1
 90
        2
176
     1
 90
        3
176
     1
 90
        0
176
     1
 40
0.6
176
     1
 40
30.0
176
     1
 62
     8
420
  8421504
176
     1
 90
        1
176
     1
 90
        4
176
     1
 62
     7
176
     1
 62
   257
176
     1
 90
        1
176
     1
 90
        1
176
     1
 40
1.0
176
     1
 90
        8
176
     1
 62
     8
420
  8421504
176
     1
 40
1.0
176
     1
 90
        1
176
     1
 90
        6
176
     1
 90
        2
176
     1
 62
     7
176
     1
 90
        5
176
     1
 90
        0
176
     1
 90
        0
176
     1
290
     0
176
     1
 90
        1
176
     1
 40
0.0
176
     1
 90
        0
176
     1
290
     0
176
     1
290
     1
176
     1
290
     1
176
     1
290
     0
176
     1
290
     0
176
     1
290
     0
176
     1
290
     0
176
     1
290
     0
176
     1
290
     0
176
     1
 90
       50
176
     1
 40
0.0
176
     1
 40
1.0
176
     1
 90
        0
176
     1
 62
    18
420
        0
176
     1
 90
       50
176
     1
 90
        3
176
     1
 62
     5
420
      255
176
     1
290
     0
176
     1
 90
       50
176
     1
 90
       50
176
     1
 90
       50
176
     1
290
     0
176
     1
 90
       50
176
     1
 62
   256
176
     0
 40
1.0
176
     0
 90
        2
176
     1
  1
strokes_ogs.tif
176
     1
290
     0
176
     1
 40
1.0
176
     1
 40
1.0
176
     1
  0
VISUALSTYLE
  5
34
102
{ACAD_REACTORS
330
2A
102
}
330
2A
100
AcDbVisualStyle
  2
Conceptual
 70
     9
177
     3
291
     0
 70
    58
 90
        3
176
     1
 90
        2
176
     1
 90
        0
176
     1
 90
        0
176
     1
 40
0.6
176
     1
 40
30.0
176
     1
 62
     7
420
 16777215
176
     1
 90
        2
176
     1
 90
        2
176
     1
 62
     7
176
     1
 62
   257
176
     1
 90
        1
176
     1
 90
        1
176
     1
 40
179.0
176
     1
 90
        8
176
     1
 62
     7
176
     1
 40
1.0
176
     1
 90
        1
176
     1
 90
        6
176
     1
 90
        2
176
     1
 62
     7
176
     1
 90
        3
176
     1
 90
        0
176
     1
 90
        0
176
     1
290
     0
176
     1
 90
        1
176
     1
 40
0.0
176
     1
 90
        0
176
     1
290
     0
176
     1
290
     1
176
     1
290
     1
176
     1
290
     0
176
     1
290
     0
176
     1
290
     0
176
     1
290
     0
176
     1
290
     0
176
     1
290
     0
176
     1
 90
       50
176
     1
 40
0.0
176
     1
 40
1.0
176
     1
 90
        0
176
     1
 62
    18
420
        0
176
     1
 90
       50
176
     1
 90
        3
176
     1
 62
     5
420
      255
176
     1
290
     0
176
     1
 90
       50
176
     1
 90
       50
176
     1
 90
       50
176
     1
290
     0
176
     1
 90
       50
176
     1
 62
   256
176
     0
 40
1.0
176
     0
 90
        2
176
     1
  1
strokes_ogs.tif
176
     1
290
     0
176
     1
 40
1.0
176
     1
 40
1.0
176
     1
  0
VISUALSTYLE
  5
35
102
{ACAD_REACTORS
330
2A
102
}
330
2A
100
AcDbVisualStyle
  2
Dim
 70
    11
177
     3
291
     1
 70
    58
 90
        2
176
     1
 90
        2
176
     1
 90
        0
176
     1
 90
        0
176
     1
 40
0.6
176
     1
 40
30.0
176
     1
 62
     7
420
 16777215
176
     1
 90
        1
176
     1
 90
        4
176
     1
 62
     7
176
     1
 62
   257
176
     1
 90
        1
176
     1
 90
        1
176
     1
 40
1.0
176
     1
 90
        8
176
     1
 62
     7
176
     1
 40
1.0
176
     1
 90
        1
176
     1
 90
        6
176
     1
 90
        2
176
     1
 62
     7
176
     1
 90
        5
176
     1
 90
        0
176
     1
 90
        0
176
     1
290
     0
176
     1
 90
        1
176
     1
 40
-50.0
176
     1
 90
        0
176
     1
290
     0
176
     1
290
     1
176
     1
290
     1
176
     1
290
     0
176
     1
290
     0
176
     1
290
     0
176
     1
290
     0
176
     1
290
     0
176
     1
290
     0
176
     1
 90
       50
176
     1
 40
0.0
176
     1
 40
1.0
176
     1
 90
        0
176
     1
 62
    18
420
        0
176
     1
 90
       50
176
     1
 90
        3
176
     1
 62
     5
420
      255
176
     1
290
     0
176
     1
 90
       50
176
     1
 90
       50
176
     1
 90
       50
176
     1
290
     0
176
     1
 90
       50
176
     1
 62
   256
176
     0
 40
1.0
176
     0
 90
        2
176
     1
  1
strokes_ogs.tif
176
     1
290
     0
176
     1
 40
1.0
176
     1
 40
1.0
176
     1
  0
VISUALSTYLE
  5
3D
102
{ACAD_REACTORS
330
2A
102
}
330
2A
100
AcDbVisualStyle
  2
EdgeColorOff
 70
    22
177
     3
291
     1
 70
    58
 90
        2
176
     0
 90
        2
176
     0
 90
        0
176
     0
 90
        0
176
     0
 40
0.6
176
     0
 40
30.0
176
     0
 62
     7
420
 16777215
176
     0
 90
        1
176
     0
 90
        4
176
     0
 62
     7
176
     0
 62
   257
176
     0
 90
        1
176
     0
 90
        1
176
     0
 40
1.0
176
     0
 90
        8
176
     2
 62
     7
176
     0
 40
1.0
176
     0
 90
        1
176
     0
 90
        6
176
     0
 90
        2
176
     0
 62
     7
176
     0
 90
        5
176
     0
 90
        0
176
     0
 90
        0
176
     0
290
     0
176
     0
 90
        1
176
     0
 40
0.0
176
     0
 90
        0
176
     0
290
     0
176
     0
290
     1
176
     0
290
     1
176
     0
290
     0
176
     0
290
     0
176
     0
290
     0
176
     0
290
     0
176
     0
290
     0
176
     0
290
     0
176
     0
 90
       50
176
     0
 40
0.0
176
     0
 40
1.0
176
     0
 90
        0
176
     0
 62
    18
420
        0
176
     0
 90
       50
176
     0
 90
        3
176
     0
 62
     5
420
      255
176
     0
290
     0
176
     0
 90
       50
176
     0
 90
       50
176
     0
 90
       50
176
     0
290
     0
176
     0
 90
       50
176
     0
 62
   256
176
     0
 40
1.0
176
     0
 90
        2
176
     0
  1
strokes_ogs.tif
176
     0
290
     0
176
     0
 40
1.0
176
     0
 40
1.0
176
     0
  0
VISUALSTYLE
  5
39
102
{ACAD_REACTORS
330
2A
102
}
330
2A
100
AcDbVisualStyle
  2
Facepattern
 70
    15
177
     3
291
     1
 70
    58
 90
        2
176
     1
 90
        2
176
     1
 90
        0
176
     1
 90
        0
176
     1
 40
0.6
176
     1
 40
30.0
176
     1
 62
     7
420
 16777215
176
     1
 90
        1
176
     1
 90
        4
176
     1
 62
     7
176
     1
 62
   257
176
     1
 90
        1
176
     1
 90
        1
176
     1
 40
1.0
176
     1
 90
        8
176
     1
 62
     7
176
     1
 40
1.0
176
     1
 90
        1
176
     1
 90
        6
176
     1
 90
        2
176
     1
 62
     7
176
     1
 90
        5
176
     1
 90
        0
176
     1
 90
        0
176
     1
290
     0
176
     1
 90
        1
176
     1
 40
0.0
176
     1
 90
        0
176
     1
290
     0
176
     1
290
     1
176
     1
290
     1
176
     1
290
     0
176
     1
290
     0
176
     1
290
     0
176
     1
290
     0
176
     1
290
     0
176
     1
290
     0
176
     1
 90
       50
176
     1
 40
0.0
176
     1
 40
1.0
176
     1
 90
        0
176
     1
 62
    18
420
        0
176
     1
 90
       50
176
     1
 90
        3
176
     1
 62
     5
420
      255
176
     1
290
     0
176
     1
 90
       50
176
     1
 90
       50
176
     1
 90
       50
176
     1
290
     0
176
     1
 90
       50
176
     1
 62
   256
176
     0
 40
1.0
176
     0
 90
        2
176
     1
  1
strokes_ogs.tif
176
     1
290
     0
176
     1
 40
1.0
176
     1
 40
1.0
176
     1
  0
VISUALSTYLE
  5
2B
102
{ACAD_REACTORS
330
2A
102
}
330
2A
100
AcDbVisualStyle
  2
Flat
 70
     0
177
     3
291
     1
 70
    58
 90
        2
176
     1
 90
        1
176
     1
 90
        1
176
     1
 90
        2
176
     1
 40
0.6
176
     1
 40
30.0
176
     1
 62
     7
420
 16777215
176
     1
 90
        0
176
     1
 90
        0
176
     1
 62
     7
176
     1
 62
   257
176
     1
 90
        1
176
     1
 90
        1
176
     1
 40
1.0
176
     1
 90
        8
176
     1
 62
     7
176
     1
 40
1.0
176
     1
 90
        1
176
     1
 90
        6
176
     1
 90
        2
176
     1
 62
     7
176
     1
 90
        5
176
     1
 90
        0
176
     1
 90
        0
176
     1
290
     0
176
     1
 90
       13
176
     1
 40
0.0
176
     1
 90
        0
176
     1
290
     0
176
     1
290
     1
176
     1
290
     1
176
     1
290
     0
176
     1
290
     0
176
     1
290
     0
176
     1
290
     0
176
     1
290
     0
176
     1
290
     0
176
     1
 90
       50
176
     1
 40
0.0
176
     1
 40
1.0
176
     1
 90
        0
176
     1
 62
    18
420
        0
176
     1
 90
       50
176
     1
 90
        3
176
     1
 62
     5
420
      255
176
     1
290
     0
176
     1
 90
       50
176
     1
 90
       50
176
     1
 90
       50
176
     1
290
     0
176
     1
 90
       50
176
     1
 62
   256
176
     0
 40
1.0
176
     0
 90
        2
176
     1
  1
strokes_ogs.tif
176
     1
290
     0
176
     1
 40
1.0
176
     1
 40
1.0
176
     1
  0
VISUALSTYLE
  5
2C
102
{ACAD_REACTORS
330
2A
102
}
330
2A
100
AcDbVisualStyle
  2
FlatWithEdges
 70
     1
177
     3
291
     1
 70
    58
 90
        2
176
     1
 90
        1
176
     1
 90
        1
176
     1
 90
        2
176
     1
 40
0.6
176
     1
 40
30.0
176
     1
 62
     7
420
 16777215
176
     1
 90
        1
176
     1
 90
        0
176
     1
 62
     7
176
     1
 62
   257
176
     1
 90
        1
176
     1
 90
        1
176
     1
 40
1.0
176
     1
 90
        0
176
     1
 62
   257
176
     1
 40
1.0
176
     1
 90
        1
176
     1
 90
        6
176
     1
 90
        2
176
     1
 62
     7
176
     1
 90
        5
176
     1
 90
        0
176
     1
 90
        0
176
     1
290
     0
176
     1
 90
       13
176
     1
 40
0.0
176
     1
 90
        0
176
     1
290
     0
176
     1
290
     1
176
     1
290
     1
176
     1
290
     0
176
     1
290
     0
176
     1
290
     0
176
     1
290
     0
176
     1
290
     0
176
     1
290
     0
176
     1
 90
       50
176
     1
 40
0.0
176
     1
 40
1.0
176
     1
 90
        0
176
     1
 62
    18
420
        0
176
     1
 90
       50
176
     1
 90
        3
176
     1
 62
     5
420
      255
176
     1
290
     0
176
     1
 90
       50
176
     1
 90
       50
176
     1
 90
       50
176
     1
290
     0
176
     1
 90
       50
176
     1
 62
   256
176
     0
 40
1.0
176
     0
 90
        2
176
     1
  1
strokes_ogs.tif
176
     1
290
     0
176
     1
 40
1.0
176
     1
 40
1.0
176
     1
  0
VISUALSTYLE
  5
2D
102
{ACAD_REACTORS
330
2A
102
}
330
2A
100
AcDbVisualStyle
  2
Gouraud
 70
     2
177
     3
291
     1
 70
    58
 90
        2
176
     1
 90
        2
176
     1
 90
        1
176
     1
 90
        2
176
     1
 40
0.6
176
     1
 40
30.0
176
     1
 62
     7
420
 16777215
176
     1
 90
        0
176
     1
 90
        0
176
     1
 62
     7
176
     1
 62
   257
176
     1
 90
        1
176
     1
 90
        1
176
     1
 40
1.0
176
     1
 90
        0
176
     1
 62
     7
176
     1
 40
1.0
176
     1
 90
        1
176
     1
 90
        6
176
     1
 90
        2
176
     1
 62
     7
176
     1
 90
        5
176
     1
 90
        0
176
     1
 90
        0
176
     1
290
     0
176
     1
 90
       13
176
     1
 40
0.0
176
     1
 90
        0
176
     1
290
     0
176
     1
290
     1
176
     1
290
     1
176
     1
290
     0
176
     1
290
     0
176
     1
290
     0
176
     1
290
     0
176
     1
290
     0
176
     1
290
     0
176
     1
 90
       50
176
     1
 40
0.0
176
     1
 40
1.0
176
     1
 90
        0
176
     1
 62
    18
420
        0
176
     1
 90
       50
176
     1
 90
        3
176
     1
 62
     5
420
      255
176
     1
290
     0
176
     1
 90
       50
176
     1
 90
       50
176
     1
 90
       50
176
     1
290
     0
176
     1
 90
       50
176
     1
 62
   256
176
     0
 40
1.0
176
     0
 90
        2
176
     1
  1
strokes_ogs.tif
176
     1
290
     0
176
     1
 40
1.0
176
     1
 40
1.0
176
     1
  0
VISUALSTYLE
  5
2E
102
{ACAD_REACTORS
330
2A
102
}
330
2A
100
AcDbVisualStyle
  2
GouraudWithEdges
 70
     3
177
     3
291
     1
 70
    58
 90
        2
176
     1
 90
        2
176
     1
 90
        1
176
     1
 90
        2
176
     1
 40
0.6
176
     1
 40
30.0
176
     1
 62
     7
420
 16777215
176
     1
 90
        1
176
     1
 90
        0
176
     1
 62
     7
176
     1
 62
   257
176
     1
 90
        1
176
     1
 90
        1
176
     1
 40
1.0
176
     1
 90
        0
176
     1
 62
   257
176
     1
 40
1.0
176
     1
 90
        1
176
     1
 90
        6
176
     1
 90
        2
176
     1
 62
     7
176
     1
 90
        5
176
     1
 90
        0
176
     1
 90
        0
176
     1
290
     0
176
     1
 90
       13
176
     1
 40
0.0
176
     1
 90
        0
176
     1
290
     0
176
     1
290
     1
176
     1
290
     1
176
     1
290
     0
176
     1
290
     0
176
     1
290
     0
176
     1
290
     0
176
     1
290
     0
176
     1
290
     0
176
     1
 90
       50
176
     1
 40
0.0
176
     1
 40
1.0
176
     1
 90
        0
176
     1
 62
    18
420
        0
176
     1
 90
       50
176
     1
 90
        3
176
     1
 62
     5
420
      255
176
     1
290
     0
176
     1
 90
       50
176
     1
 90
       50
176
     1
 90
       50
176
     1
290
     0
176
     1
 90
       50
176
     1
 62
   256
176
     0
 40
1.0
176
     0
 90
        2
176
     1
  1
strokes_ogs.tif
176
     1
290
     0
176
     1
 40
1.0
176
     1
 40
1.0
176
     1
  0
VISUALSTYLE
  5
31
102
{ACAD_REACTORS
330
2A
102
}
330
2A
100
AcDbVisualStyle
  2
Hidden
 70
     6
177
     3
291
     0
 70
    58
 90
        1
176
     1
 90
        2
176
     1
 90
        2
176
     1
 90
        0
176
     1
 40
0.6
176
     1
 40
30.0
176
     1
 62
     7
420
 16777215
176
     1
 90
        2
176
     1
 90
        2
176
     1
 62
     7
176
     1
 62
   257
176
     1
 90
        2
176
     1
 90
        1
176
     1
 40
40.0
176
     1
 90
        0
176
     1
 62
   257
176
     1
 40
1.0
176
     1
 90
        1
176
     1
 90
        6
176
     1
 90
        2
176
     1
 62
     7
176
     1
 90
        3
176
     1
 90
        0
176
     1
 90
        0
176
     1
290
     0
176
     1
 90
        1
176
     1
 40
0.0
176
     1
 90
        0
176
     1
290
     0
176
     1
290
     1
176
     1
290
     1
176
     1
290
     0
176
     1
290
     0
176
     1
290
     0
176
     1
290
     0
176
     1
290
     0
176
     1
290
     0
176
     1
 90
       50
176
     1
 40
0.0
176
     1
 40
1.0
176
     1
 90
        0
176
     1
 62
    18
420
        0
176
     1
 90
       50
176
     1
 90
        3
176
     1
 62
     5
420
      255
176
     1
290
     0
176
     1
 90
       50
176
     1
 90
       50
176
     1
 90
       50
176
     1
290
     0
176
     1
 90
       50
176
     1
 62
   256
176
     0
 40
1.0
176
     0
 90
        2
176
     1
  1
strokes_ogs.tif
176
     1
290
     0
176
     1
 40
1.0
176
     1
 40
1.0
176
     1
  0
VISUALSTYLE
  5
3B
102
{ACAD_REACTORS
330
2A
102
}
330
2A
100
AcDbVisualStyle
  2
JitterOff
 70
    20
177
     3
291
     1
 70
    58
 90
        2
176
     0
 90
        2
176
     0
 90
        0
176
     0
 90
        0
176
     0
 40
0.6
176
     0
 40
30.0
176
     0
 62
     7
420
 16777215
176
     0
 90
        1
176
     0
 90
        4
176
     0
 62
     7
176
     0
 62
   257
176
     0
 90
        1
176
     0
 90
        1
176
     0
 40
1.0
176
     0
 90
       10
176
     2
 62
     7
176
     0
 40
1.0
176
     0
 90
        1
176
     0
 90
        6
176
     0
 90
        2
176
     0
 62
     7
176
     0
 90
        5
176
     0
 90
        0
176
     0
 90
        0
176
     0
290
     0
176
     0
 90
        1
176
     0
 40
0.0
176
     0
 90
        0
176
     0
290
     0
176
     0
290
     1
176
     0
290
     1
176
     0
290
     0
176
     0
290
     0
176
     0
290
     0
176
     0
290
     0
176
     0
290
     0
176
     0
290
     0
176
     0
 90
       50
176
     0
 40
0.0
176
     0
 40
1.0
176
     0
 90
        0
176
     0
 62
    18
420
        0
176
     0
 90
       50
176
     0
 90
        3
176
     0
 62
     5
420
      255
176
     0
290
     0
176
     0
 90
       50
176
     0
 90
       50
176
     0
 90
       50
176
     0
290
     0
176
     0
 90
       50
176
     0
 62
   256
176
     0
 40
1.0
176
     0
 90
        2
176
     0
  1
strokes_ogs.tif
176
     0
290
     0
176
     0
 40
1.0
176
     0
 40
1.0
176
     0
  0
VISUALSTYLE
  5
38
102
{ACAD_REACTORS
330
2A
102
}
330
2A
100
AcDbVisualStyle
  2
Linepattern
 70
    14
177
     3
291
     1
 70
    58
 90
        2
176
     1
 90
        2
176
     1
 90
        0
176
     1
 90
        0
176
     1
 40
0.6
176
     1
 40
30.0
176
     1
 62
     7
420
 16777215
176
     1
 90
        1
176
     1
 90
        4
176
     1
 62
     7
176
     1
 62
   257
176
     1
 90
        7
176
     1
 90
        7
176
     1
 40
1.0
176
     1
 90
        8
176
     1
 62
     7
176
     1
 40
1.0
176
     1
 90
        1
176
     1
 90
        6
176
     1
 90
        2
176
     1
 62
     7
176
     1
 90
        5
176
     1
 90
        0
176
     1
 90
        0
176
     1
290
     0
176
     1
 90
        1
176
     1
 40
0.0
176
     1
 90
        0
176
     1
290
     0
176
     1
290
     1
176
     1
290
     1
176
     1
290
     0
176
     1
290
     0
176
     1
290
     0
176
     1
290
     0
176
     1
290
     0
176
     1
290
     0
176
     1
 90
       50
176
     1
 40
0.0
176
     1
 40
1.0
176
     1
 90
        0
176
     1
 62
    18
420
        0
176
     1
 90
       50
176
     1
 90
        3
176
     1
 62
     5
420
      255
176
     1
290
     0
176
     1
 90
       50
176
     1
 90
       50
176
     1
 90
       50
176
     1
290
     0
176
     1
 90
       50
176
     1
 62
   256
176
     0
 40
1.0
176
     0
 90
        2
176
     1
  1
strokes_ogs.tif
176
     1
290
     0
176
     1
 40
1.0
176
     1
 40
1.0
176
     1
  0
VISUALSTYLE
  5
3C
102
{ACAD_REACTORS
330
2A
102
}
330
2A
100
AcDbVisualStyle
  2
OverhangOff
 70
    21
177
     3
291
     1
 70
    58
 90
        2
176
     0
 90
        2
176
     0
 90
        0
176
     0
 90
        0
176
     0
 40
0.6
176
     0
 40
30.0
176
     0
 62
     7
420
 16777215
176
     0
 90
        1
176
     0
 90
        4
176
     0
 62
     7
176
     0
 62
   257
176
     0
 90
        1
176
     0
 90
        1
176
     0
 40
1.0
176
     0
 90
        9
176
     2
 62
     7
176
     0
 40
1.0
176
     0
 90
        1
176
     0
 90
        6
176
     0
 90
        2
176
     0
 62
     7
176
     0
 90
        5
176
     0
 90
        0
176
     0
 90
        0
176
     0
290
     0
176
     0
 90
        1
176
     0
 40
0.0
176
     0
 90
        0
176
     0
290
     0
176
     0
290
     1
176
     0
290
     1
176
     0
290
     0
176
     0
290
     0
176
     0
290
     0
176
     0
290
     0
176
     0
290
     0
176
     0
290
     0
176
     0
 90
       50
176
     0
 40
0.0
176
     0
 40
1.0
176
     0
 90
        0
176
     0
 62
    18
420
        0
176
     0
 90
       50
176
     0
 90
        3
176
     0
 62
     5
420
      255
176
     0
290
     0
176
     0
 90
       50
176
     0
 90
       50
176
     0
 90
       50
176
     0
290
     0
176
     0
 90
       50
176
     0
 62
   256
176
     0
 40
1.0
176
     0
 90
        2
176
     0
  1
strokes_ogs.tif
176
     0
290
     0
176
     0
 40
1.0
176
     0
 40
1.0
176
     0
  0
VISUALSTYLE
  5
33
102
{ACAD_REACTORS
330
2A
102
}
330
2A
100
AcDbVisualStyle
  2
Realistic
 70
     8
177
     3
291
     0
 70
    58
 90
        2
176
     1
 90
        3
176
     1
 90
        0
176
     1
 90
        2
176
     1
 40
0.6
176
     1
 40
30.0
176
     1
 62
     7
420
 16777215
176
     1
 90
        0
176
     1
 90
        0
176
     1
 62
     7
176
     1
 62
   257
176
     1
 90
        1
176
     1
 90
        1
176
     1
 40
1.0
176
     1
 90
        8
176
     1
 62
   257
176
     1
 40
1.0
176
     1
 90
        1
176
     1
 90
        6
176
     1
 90
        2
176
     1
 62
     7
176
     1
 90
        3
176
     1
 90
        0
176
     1
 90
        0
176
     1
290
     0
176
     1
 90
       13
176
     1
 40
0.0
176
     1
 90
        0
176
     1
290
     0
176
     1
290
     1
176
     1
290
     1
176
     1
290
     0
176
     1
290
     0
176
     1
290
     0
176
     1
290
     0
176
     1
290
     0
176
     1
290
     0
176
     1
 90
       50
176
     1
 40
0.0
176
     1
 40
1.0
176
     1
 90
        0
176
     1
 62
    18
420
        0
176
     1
 90
       50
176
     1
 90
        3
176
     1
 62
     5
420
      255
176
     1
290
     0
176
     1
 90
       50
176
     1
 90
       50
176
     1
 90
       50
176
     1
290
     0
176
     1
 90
       50
176
     1
 62
   256
176
     0
 40
1.0
176
     0
 90
        2
176
     1
  1
strokes_ogs.tif
176
     1
290
     0
176
     1
 40
1.0
176
     1
 40
1.0
176
     1
  0
VISUALSTYLE
  5
42
102
{ACAD_REACTORS
330
2A
102
}
330
2A
100
AcDbVisualStyle
  2
Shaded
 70
    27
177
     3
291
     0
 70
    58
 90
        2
176
     1
 90
        2
176
     1
 90
        1
176
     1
 90
        2
176
     1
 40
0.6
176
     1
 40
30.0
176
     1
 62
     7
420
 16777215
176
     1
 90
        0
176
     1
 90
        4
176
     1
 62
     7
176
     1
 62
   257
176
     1
 90
        1
176
     1
 90
        1
176
     1
 40
1.0
176
     1
 90
        8
176
     1
 62
   257
176
     1
 40
1.0
176
     1
 90
        1
176
     1
 90
        6
176
     1
 90
        2
176
     1
 62
     8
420
  7895160
176
     1
 90
        3
176
     1
 90
        0
176
     1
 90
        0
176
     1
290
     0
176
     1
 90
        5
176
     1
 40
0.0
176
     1
 90
        0
176
     1
290
     0
176
     1
290
     1
176
     1
290
     1
176
     1
290
     0
176
     1
290
     0
176
     1
290
     0
176
     1
290
     0
176
     1
290
     0
176
     1
290
     0
176
     1
 90
       50
176
     1
 40
0.0
176
     1
 40
1.0
176
     1
 90
        0
176
     1
 62
    18
420
        0
176
     1
 90
       50
176
     1
 90
        3
176
     1
 62
     5
420
      255
176
     1
290
     0
176
     1
 90
       50
176
     1
 90
       50
176
     1
 90
       50
176
     1
290
     0
176
     1
 90
       50
176
     1
 62
   256
176
     0
 40
1.0
176
     0
 90
        2
176
     1
  1
strokes_ogs.tif
176
     1
290
     0
176
     1
 40
1.0
176
     1
 40
1.0
176
     1
  0
VISUALSTYLE
  5
41
102
{ACAD_REACTORS
330
2A
102
}
330
2A
100
AcDbVisualStyle
  2
Shaded with edges
 70
    26
177
     3
291
     0
 70
    58
 90
        2
176
     1
 90
        2
176
     1
 90
        1
176
     1
 90
        2
176
     1
 40
0.6
176
     1
 40
30.0
176
     1
 62
     7
420
 16777215
176
     1
 90
        1
176
     1
 90
       10
176
     1
 62
     7
176
     1
 62
   257
176
     1
 90
        2
176
     1
 90
        1
176
     1
 40
1.0
176
     1
 90
        8
176
     1
 62
   257
176
     1
 40
1.0
176
     1
 90
        1
176
     1
 90
        6
176
     1
 90
        2
176
     1
 62
     7
176
     1
 90
        3
176
     1
 90
        0
176
     1
 90
        0
176
     1
290
     0
176
     1
 90
        5
176
     1
 40
0.0
176
     1
 90
        0
176
     1
290
     0
176
     1
290
     1
176
     1
290
     1
176
     1
290
     0
176
     1
290
     0
176
     1
290
     0
176
     1
290
     0
176
     1
290
     0
176
     1
290
     0
176
     1
 90
       50
176
     1
 40
0.0
176
     1
 40
1.0
176
     1
 90
        0
176
     1
 62
    18
420
        0
176
     1
 90
       50
176
     1
 90
        3
176
     1
 62
     5
420
      255
176
     1
290
     0
176
     1
 90
       50
176
     1
 90
       50
176
     1
 90
       50
176
     1
290
     0
176
     1
 90
       50
176
     1
 62
   256
176
     0
 40
1.0
176
     0
 90
        2
176
     1
  1
strokes_ogs.tif
176
     1
290
     0
176
     1
 40
1.0
176
     1
 40
1.0
176
     1
  0
VISUALSTYLE
  5
3E
102
{ACAD_REACTORS
330
2A
102
}
330
2A
100
AcDbVisualStyle
  2
Shades of Gray
 70
    23
177
     3
291
     0
 70
    58
 90
        2
176
     1
 90
        2
176
     1
 90
        3
176
     1
 90
        0
176
     1
 40
0.6
176
     1
 40
30.0
176
     1
 62
     7
420
 16777215
176
     1
 90
        2
176
     1
 90
        2
176
     1
 62
     7
176
     1
 62
     7
176
     1
 90
        1
176
     1
 90
        1
176
     1
 40
40.0
176
     1
 90
        8
176
     1
 62
     7
176
     1
 40
1.0
176
     1
 90
        1
176
     1
 90
        6
176
     1
 90
        2
176
     1
 62
     7
176
     1
 90
        3
176
     1
 90
        0
176
     1
 90
        0
176
     1
290
     0
176
     1
 90
        1
176
     1
 40
0.0
176
     1
 90
        0
176
     1
290
     0
176
     1
290
     1
176
     1
290
     1
176
     1
290
     0
176
     1
290
     0
176
     1
290
     0
176
     1
290
     0
176
     1
290
     0
176
     1
290
     0
176
     1
 90
       50
176
     1
 40
0.0
176
     1
 40
1.0
176
     1
 90
        0
176
     1
 62
    18
420
        0
176
     1
 90
       50
176
     1
 90
        3
176
     1
 62
     5
420
      255
176
     1
290
     0
176
     1
 90
       50
176
     1
 90
       50
176
     1
 90
       50
176
     1
290
     0
176
     1
 90
       50
176
     1
 62
   256
176
     0
 40
1.0
176
     0
 90
        2
176
     1
  1
strokes_ogs.tif
176
     1
290
     0
176
     1
 40
1.0
176
     1
 40
1.0
176
     1
  0
VISUALSTYLE
  5
3F
102
{ACAD_REACTORS
330
2A
102
}
330
2A
100
AcDbVisualStyle
  2
Sketchy
 70
    24
177
     3
291
     0
 70
    58
 90
        1
176
     1
 90
        2
176
     1
 90
        2
176
     1
 90
        0
176
     1
 40
0.6
176
     1
 40
30.0
176
     1
 62
     7
420
 16777215
176
     1
 90
        2
176
     1
 90
        2
176
     1
 62
     7
176
     1
 62
     7
176
     1
 90
        1
176
     1
 90
        1
176
     1
 40
40.0
176
     1
 90
       11
176
     1
 62
     7
176
     1
 40
1.0
176
     1
 90
        1
176
     1
 90
        6
176
     1
 90
        2
176
     1
 62
     7
176
     1
 90
        6
176
     1
 90
        0
176
     1
 90
        0
176
     1
290
     0
176
     1
 90
        1
176
     1
 40
0.0
176
     1
 90
        0
176
     1
290
     0
176
     1
290
     1
176
     1
290
     1
176
     1
290
     0
176
     1
290
     0
176
     1
290
     0
176
     1
290
     0
176
     1
290
     0
176
     1
290
     0
176
     1
 90
       50
176
     1
 40
0.0
176
     1
 40
1.0
176
     1
 90
        0
176
     1
 62
    18
420
        0
176
     1
 90
       50
176
     1
 90
        3
176
     1
 62
     5
420
      255
176
     1
290
     0
176
     1
 90
       50
176
     1
 90
       50
176
     1
 90
       50
176
     1
290
     0
176
     1
 90
       50
176
     1
 62
   256
176
     0
 40
1.0
176
     0
 90
        2
176
     1
  1
strokes_ogs.tif
176
     1
290
     0
176
     1
 40
1.0
176
     1
 40
1.0
176
     1
  0
VISUALSTYLE
  5
37
102
{ACAD_REACTORS
330
2A
102
}
330
2A
100
AcDbVisualStyle
  2
Thicken
 70
    13
177
     3
291
     1
 70
    58
 90
        2
176
     1
 90
        2
176
     1
 90
        0
176
     1
 90
        0
176
     1
 40
0.6
176
     1
 40
30.0
176
     1
 62
     7
420
 16777215
176
     1
 90
        1
176
     1
 90
        4
176
     1
 62
     7
176
     1
 62
   257
176
     1
 90
        1
176
     1
 90
        1
176
     1
 40
1.0
176
     1
 90
       12
176
     1
 62
     7
176
     1
 40
1.0
176
     1
 90
        1
176
     1
 90
        6
176
     1
 90
        2
176
     1
 62
     7
176
     1
 90
        5
176
     1
 90
        0
176
     1
 90
        0
176
     1
290
     0
176
     1
 90
        1
176
     1
 40
0.0
176
     1
 90
        0
176
     1
290
     0
176
     1
290
     1
176
     1
290
     1
176
     1
290
     0
176
     1
290
     0
176
     1
290
     0
176
     1
290
     0
176
     1
290
     0
176
     1
290
     0
176
     1
 90
       50
176
     1
 40
0.0
176
     1
 40
1.0
176
     1
 90
        0
176
     1
 62
    18
420
        0
176
     1
 90
       50
176
     1
 90
        3
176
     1
 62
     5
420
      255
176
     1
290
     0
176
     1
 90
       50
176
     1
 90
       50
176
     1
 90
       50
176
     1
290
     0
176
     1
 90
       50
176
     1
 62
   256
176
     0
 40
1.0
176
     0
 90
        2
176
     1
  1
strokes_ogs.tif
176
     1
290
     0
176
     1
 40
1.0
176
     1
 40
1.0
176
     1
  0
VISUALSTYLE
  5
30
102
{ACAD_REACTORS
330
2A
102
}
330
2A
100
AcDbVisualStyle
  2
Wireframe
 70
     5
177
     3
291
     0
 70
    58
 90
        0
176
     1
 90
        2
176
     1
 90
        0
176
     1
 90
        0
176
     1
 40
0.6
176
     1
 40
30.0
176
     1
 62
     7
420
 16777215
176
     1
 90
        1
176
     1
 90
        4
176
     1
 62
     7
176
     1
 62
   257
176
     1
 90
        1
176
     1
 90
        1
176
     1
 40
1.0
176
     1
 90
        0
176
     1
 62
   257
176
     1
 40
1.0
176
     1
 90
        1
176
     1
 90
        6
176
     1
 90
        2
176
     1
 62
     7
176
     1
 90
        3
176
     1
 90
        0
176
     1
 90
        0
176
     1
290
     0
176
     1
 90
        1
176
     1
 40
0.0
176
     1
 90
        0
176
     1
290
     0
176
     1
290
     1
176
     1
290
     1
176
     1
290
     0
176
     1
290
     0
176
     1
290
     0
176
     1
290
     0
176
     1
290
     0
176
     1
290
     0
176
     1
 90
       50
176
     1
 40
0.0
176
     1
 40
1.0
176
     1
 90
        0
176
     1
 62
    18
420
        0
176
     1
 90
       50
176
     1
 90
        3
176
     1
 62
     5
420
      255
176
     1
290
     0
176
     1
 90
       50
176
     1
 90
       50
176
     1
 90
       50
176
     1
290
     0
176
     1
 90
       50
176
     1
 62
   256
176
     0
 40
1.0
176
     0
 90
        2
176
     1
  1
strokes_ogs.tif
176
     1
290
     0
176
     1
 40
1.0
176
     1
 40
1.0
176
     1
  0
VISUALSTYLE
  5
40
102
{ACAD_REACTORS
330
2A
102
}
330
2A
100
AcDbVisualStyle
  2
X-Ray
 70
    25
177
     3
291
     0
 70
    58
 90
        2
176
     1
 90
        2
176
     1
 90
        1
176
     1
 90
        1
176
     1
 40
0.5
176
     1
 40
30.0
176
     1
 62
     7
420
 16777215
176
     1
 90
        1
176
     1
 90
        0
176
     1
 62
     7
176
     1
 62
   257
176
     1
 90
        1
176
     1
 90
        1
176
     1
 40
1.0
176
     1
 90
        8
176
     1
 62
     7
176
     1
 40
1.0
176
     1
 90
        1
176
     1
 90
        6
176
     1
 90
        2
176
     1
 62
     7
176
     1
 90
        3
176
     1
 90
        0
176
     1
 90
        0
176
     1
290
     0
176
     1
 90
       13
176
     1
 40
0.0
176
     1
 90
        0
176
     1
290
     0
176
     1
290
     1
176
     1
290
     1
176
     1
290
     0
176
     1
290
     0
176
     1
290
     0
176
     1
290
     0
176
     1
290
     0
176
     1
290
     0
176
     1
 90
       50
176
     1
 40
0.0
176
     1
 40
1.0
176
     1
 90
        0
176
     1
 62
    18
420
        0
176
     1
 90
       50
176
     1
 90
        3
176
     1
 62
     5
420
      255
176
     1
290
     0
176
     1
 90
       50
176
     1
 90
       50
176
     1
 90
       50
176
     1
290
     0
176
     1
 90
       50
176
     1
 62
   256
176
     0
 40
1.0
176
     0
 90
        2
176
     1
  1
strokes_ogs.tif
176
     1
290
     0
176
     1
 40
1.0
176
     1
 40
1.0
176
     1
  0
DICTIONARYVAR
  5
1B4
102
{ACAD_REACTORS
330
1B3
102
}
330
1B3
100
DictionaryVariables
280
     0
  1
1:1
  0
DICTIONARYVAR
  5
1BC
102
{ACAD_REACTORS
330
1B3
102
}
330
1B3
100
DictionaryVariables
280
     0
  1
3.500000
  0
DICTIONARYVAR
  5
1BD
102
{ACAD_REACTORS
330
1B3
102
}
330
1B3
100
DictionaryVariables
280
     0
  1
acadiso.lin
  0
DICTIONARYVAR
  5
1B9
102
{ACAD_REACTORS
330
1B3
102
}
330
1B3
100
DictionaryVariables
280
     0
  1
Standard
  0
DICTIONARYVAR
  5
1B8
102
{ACAD_REACTORS
330
1B3
102
}
330
1B3
100
DictionaryVariables
280
     0
  1
Standard
  0
DICTIONARY
  5
1B5
330
6A
100
AcDbDictionary
280
     1
281
     1
  3
ACAD_ROUNDTRIP_2008_TABLESTYLE_CELLSTYLEMAP
360
1B6
  0
CELLSTYLEMAP
  5
1B6
102
{ACAD_REACTORS
330
1B5
102
}
330
1B5
100
AcDbCellStyleMap
 90
        3
300
CELLSTYLE
  1
TABLEFORMAT_BEGIN
 90
        5
170
     1
 91
        0
 92
    32768
 62
   257
 93
        1
300
CONTENTFORMAT
  1
CONTENTFORMAT_BEGIN
 90
        0
 91
        0
 92
        4
 93
        0
300

 40
0.0
140
1.0
 94
        5
 62
     0
340
11
144
6.0
309
CONTENTFORMAT_END
171
     1
301
MARGIN
  1
CELLMARGIN_BEGIN
 40
1.5
 40
1.5
 40
1.5
 40
1.5
 40
1.5
 40
1.5
309
CELLMARGIN_END
 94
        6
 95
        1
302
GRIDFORMAT
  1
GRIDFORMAT_BEGIN
 90
        0
 91
        1
 62
     0
 92
       -2
340
14
 93
        0
 40
0.045
309
GRIDFORMAT_END
 95
        2
302
GRIDFORMAT
  1
GRIDFORMAT_BEGIN
 90
        0
 91
        1
 62
     0
 92
       -2
340
14
 93
        0
 40
0.045
309
GRIDFORMAT_END
 95
        4
302
GRIDFORMAT
  1
GRIDFORMAT_BEGIN
 90
        0
 91
        1
 62
     0
 92
       -2
340
14
 93
        0
 40
0.045
309
GRIDFORMAT_END
 95
        8
302
GRIDFORMAT
  1
GRIDFORMAT_BEGIN
 90
        0
 91
        1
 62
     0
 92
       -2
340
14
 93
        0
 40
0.045
309
GRIDFORMAT_END
 95
       16
302
GRIDFORMAT
  1
GRIDFORMAT_BEGIN
 90
        0
 91
        1
 62
     0
 92
       -2
340
14
 93
        0
 40
0.045
309
GRIDFORMAT_END
 95
       32
302
GRIDFORMAT
  1
GRIDFORMAT_BEGIN
 90
        0
 91
        1
 62
     0
 92
       -2
340
14
 93
        0
 40
0.045
309
GRIDFORMAT_END
309
TABLEFORMAT_END
  1
CELLSTYLE_BEGIN
 90
        1
 91
        1
300
_TITLE
309
CELLSTYLE_END
300
CELLSTYLE
  1
TABLEFORMAT_BEGIN
 90
        5
170
     1
 91
        0
 92
        0
 62
   257
 93
        1
300
CONTENTFORMAT
  1
CONTENTFORMAT_BEGIN
 90
        0
 91
        0
 92
        4
 93
        0
300

 40
0.0
140
1.0
 94
        5
 62
     0
340
11
144
4.5
309
CONTENTFORMAT_END
171
     1
301
MARGIN
  1
CELLMARGIN_BEGIN
 40
1.5
 40
1.5
 40
1.5
 40
1.5
 40
1.5
 40
1.5
309
CELLMARGIN_END
 94
        6
 95
        1
302
GRIDFORMAT
  1
GRIDFORMAT_BEGIN
 90
        0
 91
        1
 62
     0
 92
       -2
340
14
 93
        0
 40
0.045
309
GRIDFORMAT_END
 95
        2
302
GRIDFORMAT
  1
GRIDFORMAT_BEGIN
 90
        0
 91
        1
 62
     0
 92
       -2
340
14
 93
        0
 40
0.045
309
GRIDFORMAT_END
 95
        4
302
GRIDFORMAT
  1
GRIDFORMAT_BEGIN
 90
        0
 91
        1
 62
     0
 92
       -2
340
14
 93
        0
 40
0.045
309
GRIDFORMAT_END
 95
        8
302
GRIDFORMAT
  1
GRIDFORMAT_BEGIN
 90
        0
 91
        1
 62
     0
 92
       -2
340
14
 93
        0
 40
0.045
309
GRIDFORMAT_END
 95
       16
302
GRIDFORMAT
  1
GRIDFORMAT_BEGIN
 90
        0
 91
        1
 62
     0
 92
       -2
340
14
 93
        0
 40
0.045
309
GRIDFORMAT_END
 95
       32
302
GRIDFORMAT
  1
GRIDFORMAT_BEGIN
 90
        0
 91
        1
 62
     0
 92
       -2
340
14
 93
        0
 40
0.045
309
GRIDFORMAT_END
309
TABLEFORMAT_END
  1
CELLSTYLE_BEGIN
 90
        2
 91
        1
300
_HEADER
309
CELLSTYLE_END
300
CELLSTYLE
  1
TABLEFORMAT_BEGIN
 90
        5
170
     1
 91
        0
 92
        0
 62
   257
 93
        1
300
CONTENTFORMAT
  1
CONTENTFORMAT_BEGIN
 90
        0
 91
        0
 92
        4
 93
        0
300

 40
0.0
140
1.0
 94
        2
 62
     0
340
11
144
4.5
309
CONTENTFORMAT_END
171
     1
301
MARGIN
  1
CELLMARGIN_BEGIN
 40
1.5
 40
1.5
 40
1.5
 40
1.5
 40
1.5
 40
1.5
309
CELLMARGIN_END
 94
        6
 95
        1
302
GRIDFORMAT
  1
GRIDFORMAT_BEGIN
 90
        0
 91
        1
 62
     0
 92
       -2
340
14
 93
        0
 40
0.045
309
GRIDFORMAT_END
 95
        2
302
GRIDFORMAT
  1
GRIDFORMAT_BEGIN
 90
        0
 91
        1
 62
     0
 92
       -2
340
14
 93
        0
 40
0.045
309
GRIDFORMAT_END
 95
        4
302
GRIDFORMAT
  1
GRIDFORMAT_BEGIN
 90
        0
 91
        1
 62
     0
 92
       -2
340
14
 93
        0
 40
0.045
309
GRIDFORMAT_END
 95
        8
302
GRIDFORMAT
  1
GRIDFORMAT_BEGIN
 90
        0
 91
        1
 62
     0
 92
       -2
340
14
 93
        0
 40
0.045
309
GRIDFORMAT_END
 95
       16
302
GRIDFORMAT
  1
GRIDFORMAT_BEGIN
 90
        0
 91
        1
 62
     0
 92
       -2
340
14
 93
        0
 40
0.045
309
GRIDFORMAT_END
 95
       32
302
GRIDFORMAT
  1
GRIDFORMAT_BEGIN
 90
        0
 91
        1
 62
     0
 92
       -2
340
14
 93
        0
 40
0.045
309
GRIDFORMAT_END
309
TABLEFORMAT_END
  1
CELLSTYLE_BEGIN
 90
        3
 91
        2
300
_DATA
309
CELLSTYLE_END
  0
ENDSEC
  0
EOF
