  0
SECTION
  2
HEADER
  9
$ACADVER
  1
AC1027
  9
$ACADMAINTVER
 70
   105
  9
$DWGCODEPAGE
  3
ANSI_932
  9
$REQUIREDVERSIONS
160
                 0
  9
$INSBASE
 10
0.0
 20
0.0
 30
0.0
  9
$EXTMIN
 10
-2100.0
 20
-1485.0
 30
0.0
  9
$EXTMAX
 10
2100.0
 20
1485.0
 30
0.0
  9
$LIMMIN
 10
-2100.0
 20
-1485.0
  9
$LIMMAX
 10
2100.0
 20
1485.0
  9
$ORTHOMODE
 70
     0
  9
$REGENMODE
 70
     1
  9
$FILLMODE
 70
     1
  9
$QTEXTMODE
 70
     0
  9
$MIRRTEXT
 70
     1
  9
$LTSCALE
 40
10.0
  9
$ATTMODE
 70
     1
  9
$TEXTSIZE
 40
2.5
  9
$TRACEWID
 40
1.0
  9
$TEXTSTYLE
  7
Standard
  9
$CLAYER
  8
0
  9
$CELTYPE
  6
ByLayer
  9
$CECOLOR
 62
   256
  9
$CELTSCALE
 40
1.0
  9
$DISPSILH
 70
     0
  9
$DIMSCALE
 40
1.0
  9
$DIMASZ
 40
2.5
  9
$DIMEXO
 40
0.625
  9
$DIMDLI
 40
3.75
  9
$DIMRND
 40
0.0
  9
$DIMDLE
 40
0.0
  9
$DIMEXE
 40
1.25
  9
$DIMTP
 40
0.0
  9
$DIMTM
 40
0.0
  9
$DIMTXT
 40
2.5
  9
$DIMCEN
 40
2.5
  9
$DIMTSZ
 40
0.0
  9
$DIMTOL
 70
     0
  9
$DIMLIM
 70
     0
  9
$DIMTIH
 70
     0
  9
$DIMTOH
 70
     0
  9
$DIMSE1
 70
     0
  9
$DIMSE2
 70
     0
  9
$DIMTAD
 70
     1
  9
$DIMZIN
 70
     8
  9
$DIMBLK
  1

  9
$DIMASO
 70
     1
  9
$DIMSHO
 70
     1
  9
$DIMPOST
  1

  9
$DIMAPOST
  1

  9
$DIMALT
 70
     0
  9
$DIMALTD
 70
     3
  9
$DIMALTF
 40
0.03937007874016
  9
$DIMLFAC
 40
1.0
  9
$DIMTOFL
 70
     1
  9
$DIMTVP
 40
0.0
  9
$DIMTIX
 70
     0
  9
$DIMSOXD
 70
     0
  9
$DIMSAH
 70
     0
  9
$DIMBLK1
  1

  9
$DIMBLK2
  1

  9
$DIMSTYLE
  2
ISO-25
  9
$DIMCLRD
 70
     0
  9
$DIMCLRE
 70
     0
  9
$DIMCLRT
 70
     0
  9
$DIMTFAC
 40
1.0
  9
$DIMGAP
 40
0.625
  9
$DIMJUST
 70
     0
  9
$DIMSD1
 70
     0
  9
$DIMSD2
 70
     0
  9
$DIMTOLJ
 70
     0
  9
$DIMTZIN
 70
     8
  9
$DIMALTZ
 70
     0
  9
$DIMALTTZ
 70
     0
  9
$DIMUPT
 70
     0
  9
$DIMDEC
 70
     2
  9
$DIMTDEC
 70
     2
  9
$DIMALTU
 70
     2
  9
$DIMALTTD
 70
     3
  9
$DIMTXSTY
  7
Standard
  9
$DIMAUNIT
 70
     0
  9
$DIMADEC
 70
     0
  9
$DIMALTRND
 40
0.0
  9
$DIMAZIN
 70
     0
  9
$DIMDSEP
 70
    44
  9
$DIMATFIT
 70
     3
  9
$DIMFRAC
 70
     0
  9
$DIMLDRBLK
  1

  9
$DIMLUNIT
 70
     2
  9
$DIMLWD
 70
    -2
  9
$DIMLWE
 70
    -2
  9
$DIMTMOVE
 70
     0
  9
$DIMFXL
 40
1.0
  9
$DIMFXLON
 70
     0
  9
$DIMJOGANG
 40
0.7853981633974483
  9
$DIMTFILL
 70
     0
  9
$DIMTFILLCLR
 70
     0
  9
$DIMARCSYM
 70
     0
  9
$DIMLTYPE
  6

  9
$DIMLTEX1
  6

  9
$DIMLTEX2
  6

  9
$DIMTXTDIRECTION
 70
     0
  9
$LUNITS
 70
     2
  9
$LUPREC
 70
     4
  9
$SKETCHINC
 40
1.0
  9
$FILLETRAD
 40
10.0
  9
$AUNITS
 70
     0
  9
$AUPREC
 70
     0
  9
$MENU
  1
.
  9
$ELEVATION
 40
0.0
  9
$PELEVATION
 40
0.0
  9
$THICKNESS
 40
0.0
  9
$LIMCHECK
 70
     0
  9
$CHAMFERA
 40
0.0
  9
$CHAMFERB
 40
0.0
  9
$CHAMFERC
 40
0.0
  9
$CHAMFERD
 40
0.0
  9
$SKPOLY
 70
     0
  9
$TDCREATE
 40
2458890.452174583
  9
$TDUCREATE
 40
2458890.077174583
  9
$TDUPDATE
 40
2458890.452174583
  9
$TDUUPDATE
 40
2458890.077174583
  9
$TDINDWG
 40
0.0000000116
  9
$TDUSRTIMER
 40
0.0000000116
  9
$USRTIMER
 70
     1
  9
$ANGBASE
 50
0.0
  9
$ANGDIR
 70
     0
  9
$PDMODE
 70
     0
  9
$PDSIZE
 40
0.0
  9
$PLINEWID
 40
0.0
  9
$SPLFRAME
 70
     0
  9
$SPLINETYPE
 70
     6
  9
$SPLINESEGS
 70
     8
  9
$HANDSEED
  5
1CD
  9
$SURFTAB1
 70
     6
  9
$SURFTAB2
 70
     6
  9
$SURFTYPE
 70
     6
  9
$SURFU
 70
     6
  9
$SURFV
 70
     6
  9
$UCSBASE
  2

  9
$UCSNAME
  2

  9
$UCSORG
 10
0.0
 20
0.0
 30
0.0
  9
$UCSXDIR
 10
1.0
 20
0.0
 30
0.0
  9
$UCSYDIR
 10
0.0
 20
1.0
 30
0.0
  9
$UCSORTHOREF
  2

  9
$UCSORTHOVIEW
 70
     0
  9
$UCSORGTOP
 10
0.0
 20
0.0
 30
0.0
  9
$UCSORGBOTTOM
 10
0.0
 20
0.0
 30
0.0
  9
$UCSORGLEFT
 10
0.0
 20
0.0
 30
0.0
  9
$UCSORGRIGHT
 10
0.0
 20
0.0
 30
0.0
  9
$UCSORGFRONT
 10
0.0
 20
0.0
 30
0.0
  9
$UCSORGBACK
 10
0.0
 20
0.0
 30
0.0
  9
$PUCSBASE
  2

  9
$PUCSNAME
  2

  9
$PUCSORG
 10
0.0
 20
0.0
 30
0.0
  9
$PUCSXDIR
 10
1.0
 20
0.0
 30
0.0
  9
$PUCSYDIR
 10
0.0
 20
1.0
 30
0.0
  9
$PUCSORTHOREF
  2

  9
$PUCSORTHOVIEW
 70
     0
  9
$PUCSORGTOP
 10
0.0
 20
0.0
 30
0.0
  9
$PUCSORGBOTTOM
 10
0.0
 20
0.0
 30
0.0
  9
$PUCSORGLEFT
 10
0.0
 20
0.0
 30
0.0
  9
$PUCSORGRIGHT
 10
0.0
 20
0.0
 30
0.0
  9
$PUCSORGFRONT
 10
0.0
 20
0.0
 30
0.0
  9
$PUCSORGBACK
 10
0.0
 20
0.0
 30
0.0
  9
$USERI1
 70
     0
  9
$USERI2
 70
     0
  9
$USERI3
 70
     0
  9
$USERI4
 70
     0
  9
$USERI5
 70
     0
  9
$USERR1
 40
0.0
  9
$USERR2
 40
0.0
  9
$USERR3
 40
0.0
  9
$USERR4
 40
0.0
  9
$USERR5
 40
0.0
  9
$WORLDVIEW
 70
     1
  9
$SHADEDGE
 70
     3
  9
$SHADEDIF
 70
    70
  9
$TILEMODE
 70
     1
  9
$MAXACTVP
 70
    64
  9
$PINSBASE
 10
0.0
 20
0.0
 30
0.0
  9
$PLIMCHECK
 70
     0
  9
$PEXTMIN
 10
1.000000000000000E+20
 20
1.000000000000000E+20
 30
1.000000000000000E+20
  9
$PEXTMAX
 10
-1.000000000000000E+20
 20
-1.000000000000000E+20
 30
-1.000000000000000E+20
  9
$PLIMMIN
 10
0.0
 20
0.0
  9
$PLIMMAX
 10
420.0
 20
297.0
  9
$UNITMODE
 70
     0
  9
$VISRETAIN
 70
     1
  9
$PLINEGEN
 70
     0
  9
$PSLTSCALE
 70
     1
  9
$TREEDEPTH
 70
  3020
  9
$CMLSTYLE
  2
Standard
  9
$CMLJUST
 70
     0
  9
$CMLSCALE
 40
20.0
  9
$PROXYGRAPHICS
 70
     1
  9
$MEASUREMENT
 70
     1
  9
$CELWEIGHT
370
    -1
  9
$ENDCAPS
280
     0
  9
$JOINSTYLE
280
     0
  9
$LWDISPLAY
290
     0
  9
$INSUNITS
 70
     4
  9
$HYPERLINKBASE
  1

  9
$STYLESHEET
  1

  9
$XEDIT
290
     1
  9
$CEPSNTYPE
380
     0
  9
$PSTYLEMODE
290
     1
  9
$FINGERPRINTGUID
  2
{F813D645-8B5F-4A4A-AD05-EA8D867AAE98}
  9
$VERSIONGUID
  2
{FAEB1C32-E019-11D5-929B-00C0DF256EC4}
  9
$EXTNAMES
290
     1
  9
$PSVPSCALE
 40
0.0
  9
$OLESTARTUP
290
     0
  9
$SORTENTS
280
   127
  9
$INDEXCTL
280
     0
  9
$HIDETEXT
280
     1
  9
$XCLIPFRAME
280
     2
  9
$HALOGAP
280
     0
  9
$OBSCOLOR
 70
   257
  9
$OBSLTYPE
280
     0
  9
$INTERSECTIONDISPLAY
280
     0
  9
$INTERSECTIONCOLOR
 70
   257
  9
$DIMASSOC
280
     2
  9
$PROJECTNAME
  1

  9
$CAMERADISPLAY
290
     0
  9
$LENSLENGTH
 40
50.0
  9
$CAMERAHEIGHT
 40
0.0
  9
$STEPSPERSEC
 40
2.0
  9
$STEPSIZE
 40
6.0
  9
$3DDWFPREC
 40
2.0
  9
$PSOLWIDTH
 40
5.0
  9
$PSOLHEIGHT
 40
80.0
  9
$LOFTANG1
 40
1.570796326794897
  9
$LOFTANG2
 40
1.570796326794897
  9
$LOFTMAG1
 40
0.0
  9
$LOFTMAG2
 40
0.0
  9
$LOFTPARAM
 70
     7
  9
$LOFTNORMALS
280
     1
  9
$LATITUDE
 40
37.795
  9
$LONGITUDE
 40
-122.394
  9
$NORTHDIRECTION
 40
0.0
  9
$TIMEZONE
 70
 -8000
  9
$LIGHTGLYPHDISPLAY
280
     1
  9
$TILEMODELIGHTSYNCH
280
     1
  9
$CMATERIAL
347
44
  9
$SOLIDHIST
280
     0
  9
$SHOWHIST
280
     1
  9
$DWFFRAME
280
     2
  9
$DGNFRAME
280
     2
  9
$REALWORLDSCALE
290
     1
  9
$INTERFERECOLOR
 62
   256
  9
$CSHADOW
280
     0
  9
$SHADOWPLANELOCATION
 40
0.0
  0
ENDSEC
  0
SECTION
  2
CLASSES
  0
CLASS
  1
ACDBDICTIONARYWDFLT
  2
AcDbDictionaryWithDefault
  3
ObjectDBX Classes
 90
        0
 91
        4
280
     0
281
     0
  0
CLASS
  1
VISUALSTYLE
  2
AcDbVisualStyle
  3
ObjectDBX Classes
 90
     4095
 91
        4
280
     0
281
     0
  0
CLASS
  1
MATERIAL
  2
AcDbMaterial
  3
ObjectDBX Classes
 90
     1153
 91
        4
280
     0
281
     0
  0
CLASS
  1
SCALE
  2
AcDbScale
  3
ObjectDBX Classes
 90
     1153
 91
        4
280
     0
281
     0
  0
CLASS
  1
TABLESTYLE
  2
AcDbTableStyle
  3
ObjectDBX Classes
 90
     4095
 91
        4
280
     0
281
     0
  0
CLASS
  1
MLEADERSTYLE
  2
AcDbMLeaderStyle
  3
ACDB_MLEADERSTYLE_CLASS
 90
     4095
 91
        4
280
     0
281
     0
  0
CLASS
  1
SUN
  2
AcDbSun
  3
SCENEOE
 90
     1153
 91
        4
280
     0
281
     0
  0
CLASS
  1
DICTIONARYVAR
  2
AcDbDictionaryVar
  3
ObjectDBX Classes
 90
        0
 91
        4
280
     0
281
     0
  0
CLASS
  1
CELLSTYLEMAP
  2
AcDbCellStyleMap
  3
ObjectDBX Classes
 90
     1152
 91
        4
280
     0
281
     0
  0
ENDSEC
  0
SECTION
  2
TABLES
  0
TABLE
  2
VPORT
  5
8
330
0
100
AcDbSymbolTable
 70
     1
  0
VPORT
  5
29
330
8
100
AcDbSymbolTableRecord
100
AcDbViewportTableRecord
  2
*Active
 70
     0
 10
0.0
 20
0.0
 11
1.0
 21
1.0
 12
0.0
 22
0.0
 13
0.0
 23
0.0
 14
10.0
 24
10.0
 15
10.0
 25
10.0
 16
0.0
 26
0.0
 36
1.0
 17
0.0
 27
0.0
 37
0.0
 40
3267.0
 41
1.414141414141414
 42
50.0
 43
0.0
 44
0.0
 50
0.0
 51
0.0
 71
     0
 72
 10000
 73
     1
 74
     3
 75
     0
 76
     0
 77
     0
 78
     0
281
     0
 65
     1
110
0.0
120
0.0
130
0.0
111
1.0
121
0.0
131
0.0
112
0.0
122
1.0
132
0.0
 79
     0
146
0.0
348
2F
 60
     3
 61
     5
292
     1
282
     1
141
0.0
142
0.0
 63
   250
361
6D
  0
ENDTAB
  0
TABLE
  2
LTYPE
  5
5
330
0
100
AcDbSymbolTable
 70
     6
  0
LTYPE
  5
14
330
5
100
AcDbSymbolTableRecord
100
AcDbLinetypeTableRecord
  2
ByBlock
 70
     0
  3

 72
    65
 73
     0
 40
0.0
  0
LTYPE
  5
15
330
5
100
AcDbSymbolTableRecord
100
AcDbLinetypeTableRecord
  2
ByLayer
 70
     0
  3

 72
    65
 73
     0
 40
0.0
  0
LTYPE
  5
16
330
5
100
AcDbSymbolTableRecord
100
AcDbLinetypeTableRecord
  2
Continuous
 70
     0
  3
Solid line
 72
    65
 73
     0
 40
0.0
  0
LTYPE
  5
6F
330
5
100
AcDbSymbolTableRecord
100
AcDbLinetypeTableRecord
  2
JWW_CENTER2
 70
     0
  3
-------------  --  -------------
 72
    65
 73
     4
 40
13.54666666666667
 49
11.00666666666667
 74
     0
 49
-0.8466666666666667
 74
     0
 49
0.8466666666666667
 74
     0
 49
-0.8466666666666667
 74
     0
  0
LTYPE
  5
70
330
5
100
AcDbSymbolTableRecord
100
AcDbLinetypeTableRecord
  2
JWW_CENTER1
 70
     0
  3
-----  --  ----------  --  -----
 72
    65
 73
     4
 40
6.773333333333333
 49
4.233333333333333
 74
     0
 49
-0.8466666666666667
 74
     0
 49
0.8466666666666667
 74
     0
 49
-0.8466666666666667
 74
     0
  0
LTYPE
  5
71
330
5
100
AcDbSymbolTableRecord
100
AcDbLinetypeTableRecord
  2
JWW_PHANTOM2
 70
     0
  3
------------  -  -  ------------
 72
    65
 73
     6
 40
13.54666666666667
 49
10.16
 74
     0
 49
-0.8466666666666667
 74
     0
 49
0.4233333333333333
 74
     0
 49
-0.8466666666666667
 74
     0
 49
0.4233333333333333
 74
     0
 49
-0.8466666666666667
 74
     0
  0
LTYPE
  5
72
330
5
100
AcDbSymbolTableRecord
100
AcDbLinetypeTableRecord
  2
JWW_DASHED1
 70
     0
  3
-  --  --  --  --  --  --  --  -
 72
    65
 73
     2
 40
1.693333333333333
 49
0.8466666666666667
 74
     0
 49
-0.8466666666666667
 74
     0
  0
LTYPE
  5
73
330
5
100
AcDbSymbolTableRecord
100
AcDbLinetypeTableRecord
  2
JWW_PHANTOM1
 70
     0
  3
----  -  -  --------  -  -  ----
 72
    65
 73
     6
 40
6.773333333333333
 49
3.386666666666667
 74
     0
 49
-0.8466666666666667
 74
     0
 49
0.4233333333333333
 74
     0
 49
-0.8466666666666667
 74
     0
 49
0.4233333333333333
 74
     0
 49
-0.8466666666666667
 74
     0
  0
ENDTAB
  0
TABLE
  2
LAYER
  5
2
330
0
100
AcDbSymbolTable
 70
    16
  0
LAYER
  5
10
330
2
100
AcDbSymbolTableRecord
100
AcDbLayerTableRecord
  2
0
 70
     0
 62
     7
  6
Continuous
370
    -3
390
F
347
46
348
0
  0
LAYER
  5
74
330
2
100
AcDbSymbolTableRecord
100
AcDbLayerTableRecord
  2
3-1
 70
     0
 62
     7
  6
Continuous
370
    -3
390
F
347
46
348
0
  0
LAYER
  5
75
330
2
100
AcDbSymbolTableRecord
100
AcDbLayerTableRecord
  2
C-0
 70
     0
 62
     7
  6
Continuous
370
    -3
390
F
347
46
348
0
  0
LAYER
  5
76
330
2
100
AcDbSymbolTableRecord
100
AcDbLayerTableRecord
  2
C-4
 70
     0
 62
     7
  6
Continuous
370
    -3
390
F
347
46
348
0
  0
LAYER
  5
77
330
2
100
AcDbSymbolTableRecord
100
AcDbLayerTableRecord
  2
C-5
 70
     0
 62
     7
  6
Continuous
370
    -3
390
F
347
46
348
0
  0
LAYER
  5
78
330
2
100
AcDbSymbolTableRecord
100
AcDbLayerTableRecord
  2
C-2
 70
     0
 62
     7
  6
Continuous
370
    -3
390
F
347
46
348
0
  0
LAYER
  5
79
330
2
100
AcDbSymbolTableRecord
100
AcDbLayerTableRecord
  2
C-A
 70
     0
 62
     7
  6
Continuous
370
    -3
390
F
347
46
348
0
  0
LAYER
  5
7A
330
2
100
AcDbSymbolTableRecord
100
AcDbLayerTableRecord
  2
F-5ﾚｲﾔ
 70
     0
 62
     7
  6
Continuous
370
    -3
390
F
347
46
348
0
  0
LAYER
  5
7B
330
2
100
AcDbSymbolTableRecord
100
AcDbLayerTableRecord
  2
3-5
 70
     0
 62
     7
  6
Continuous
370
    -3
390
F
347
46
348
0
  0
LAYER
  5
7C
330
2
100
AcDbSymbolTableRecord
100
AcDbLayerTableRecord
  2
3-6
 70
     0
 62
     7
  6
Continuous
370
    -3
390
F
347
46
348
0
  0
LAYER
  5
7D
330
2
100
AcDbSymbolTableRecord
100
AcDbLayerTableRecord
  2
3-0
 70
     0
 62
     7
  6
Continuous
370
    -3
390
F
347
46
348
0
  0
LAYER
  5
7E
330
2
100
AcDbSymbolTableRecord
100
AcDbLayerTableRecord
  2
3-4
 70
     0
 62
     7
  6
Continuous
370
    -3
390
F
347
46
348
0
  0
LAYER
  5
7F
330
2
100
AcDbSymbolTableRecord
100
AcDbLayerTableRecord
  2
3-2
 70
     0
 62
     7
  6
Continuous
370
    -3
390
F
347
46
348
0
  0
LAYER
  5
80
330
2
100
AcDbSymbolTableRecord
100
AcDbLayerTableRecord
  2
3-A
 70
     0
 62
     7
  6
Continuous
370
    -3
390
F
347
46
348
0
  0
LAYER
  5
81
330
2
100
AcDbSymbolTableRecord
100
AcDbLayerTableRecord
  2
C-6
 70
     0
 62
     7
  6
Continuous
370
    -3
390
F
347
46
348
0
  0
LAYER
  5
82
330
2
100
AcDbSymbolTableRecord
100
AcDbLayerTableRecord
  2
C-1
 70
     0
 62
     7
  6
Continuous
370
    -3
390
F
347
46
348
0
  0
ENDTAB
  0
TABLE
  2
STYLE
  5
3
330
0
100
AcDbSymbolTable
 70
     2
  0
STYLE
  5
11
330
3
100
AcDbSymbolTableRecord
100
AcDbTextStyleTableRecord
  2
Standard
 70
     0
 40
0.0
 41
1.0
 50
0.0
 71
     0
 42
2.5
  3
txt
  4

  0
STYLE
  5
6E
330
3
100
AcDbSymbolTableRecord
100
AcDbTextStyleTableRecord
  2
ＭＳ ゴシック
 70
     0
 40
1.0
 41
1.0
 50
0.0
 71
     0
 42
2.5
  3

  4

1001
ACAD
1000
MS Gothic
1071
    32817
  0
ENDTAB
  0
TABLE
  2
VIEW
  5
6
330
0
100
AcDbSymbolTable
 70
     0
  0
ENDTAB
  0
TABLE
  2
UCS
  5
7
330
0
100
AcDbSymbolTable
 70
     0
  0
ENDTAB
  0
TABLE
  2
APPID
  5
9
330
0
100
AcDbSymbolTable
 70
     1
  0
APPID
  5
12
330
9
100
AcDbSymbolTableRecord
100
AcDbRegAppTableRecord
  2
ACAD
 70
     0
  0
ENDTAB
  0
TABLE
  2
DIMSTYLE
  5
A
330
0
100
AcDbSymbolTable
 70
     1
100
AcDbDimStyleTable
  0
DIMSTYLE
105
27
330
A
100
AcDbSymbolTableRecord
100
AcDbDimStyleTableRecord
  2
ISO-25
 70
     0
 41
2.5
 42
0.625
 43
3.75
 44
1.25
 73
     0
 74
     0
 77
     1
 78
     8
140
2.5
141
2.5
143
0.03937007874016
147
0.625
171
     3
172
     1
178
     0
271
     2
272
     2
274
     3
278
    44
283
     0
284
     8
340
11
  0
ENDTAB
  0
TABLE
  2
BLOCK_RECORD
  5
1
330
0
100
AcDbSymbolTable
 70
     1
  0
BLOCK_RECORD
  5
1F
330
1
100
AcDbSymbolTableRecord
100
AcDbBlockTableRecord
  2
*Model_Space
340
22
 70
     0
280
     1
281
     0
  0
BLOCK_RECORD
  5
1B
330
1
100
AcDbSymbolTableRecord
100
AcDbBlockTableRecord
  2
*Paper_Space
340
1E
 70
     0
280
     1
281
     0
  0
BLOCK_RECORD
  5
23
330
1
100
AcDbSymbolTableRecord
100
AcDbBlockTableRecord
  2
*Paper_Space0
340
26
 70
     0
280
     1
281
     0
  0
ENDTAB
  0
ENDSEC
  0
SECTION
  2
BLOCKS
  0
BLOCK
  5
20
330
1F
100
AcDbEntity
  8
0
100
AcDbBlockBegin
  2
*Model_Space
 70
     0
 10
0.0
 20
0.0
 30
0.0
  3
*Model_Space
  1

  0
ENDBLK
  5
21
330
1F
100
AcDbEntity
  8
0
100
AcDbBlockEnd
  0
BLOCK
  5
1C
330
1B
100
AcDbEntity
 67
     1
  8
0
100
AcDbBlockBegin
  2
*Paper_Space
 70
     0
 10
0.0
 20
0.0
 30
0.0
  3
*Paper_Space
  1

  0
ENDBLK
  5
1D
330
1B
100
AcDbEntity
 67
     1
  8
0
100
AcDbBlockEnd
  0
BLOCK
  5
24
330
23
100
AcDbEntity
  8
0
100
AcDbBlockBegin
  2
*Paper_Space0
 70
     0
 10
0.0
 20
0.0
 30
0.0
  3
*Paper_Space0
  1

  0
ENDBLK
  5
25
330
23
100
AcDbEntity
  8
0
100
AcDbBlockEnd
  0
ENDSEC
  0
SECTION
  2
ENTITIES
  0
LINE
  5
83
330
1F
100
AcDbEntity
  8
3-1
  6
Continuous
 62
     4
370
     9
100
AcDbLine
 10
1299.169696340937
 20
-112.0436805664792
 30
0.0
 11
1355.000438543369
 21
-428.6755537948976
 31
0.0
  0
LINE
  5
84
330
1F
100
AcDbEntity
  8
C-0
  6
JWW_CENTER2
 62
     7
370
     9
100
AcDbLine
 10
0.0
 20
798.4760119186461
 30
0.0
 11
0.0
 21
-354.723838627701
 31
0.0
  0
LINE
  5
85
330
1F
100
AcDbEntity
  8
C-0
  6
JWW_CENTER2
 62
     7
370
     9
100
AcDbLine
 10
-1306.342529707775
 20
798.4760119186461
 30
0.0
 11
-1306.342529707775
 21
-354.723838627701
 31
0.0
  0
LINE
  5
86
330
1F
100
AcDbEntity
  8
C-4
  6
Continuous
 62
     7
370
     9
100
AcDbLine
 10
-1558.768774885342
 20
773.4759990311557
 30
0.0
 11
-1558.768774885342
 21
-76.52407571629084
 31
0.0
  0
LWPOLYLINE
  5
87
330
1F
100
AcDbEntity
  8
C-4
  6
Continuous
 62
     7
370
     9
100
AcDbPolyline
 90
        4
 70
     1
 43
2.0
 10
-1557.768774885342
 20
773.4759990311557
 42
0.4142135623731
 10
-1558.768774885342
 20
774.4759990311557
 42
0.4142135623731
 10
-1559.768774885342
 20
773.4759990311557
 42
0.4142135623731
 10
-1558.768774885342
 20
772.4759990311557
 42
0.4142135623731
  0
LWPOLYLINE
  5
88
330
1F
100
AcDbEntity
  8
C-4
  6
Continuous
 62
     7
370
     9
100
AcDbPolyline
 90
        4
 70
     1
 43
2.0
 10
-1557.768774885342
 20
-76.52407571629084
 42
0.4142135623731
 10
-1558.768774885342
 20
-75.52407571629084
 42
0.4142135623731
 10
-1559.768774885342
 20
-76.52407571629084
 42
0.4142135623731
 10
-1558.768774885342
 20
-77.52407571629084
 42
0.4142135623731
  0
TEXT
  5
89
330
1F
100
AcDbEntity
  8
C-4
  6
Continuous
 62
     2
370
   211
100
AcDbText
 10
-1570.408774885342
 20
315.9759616574324
 30
0.0
 40
30.48
  1
850
 50
90.0
 41
1.083333333333333
  7
ＭＳ ゴシック
100
AcDbText
  0
LWPOLYLINE
  5
8A
330
1F
100
AcDbEntity
  8
C-4
  6
Continuous
 62
     7
370
     9
100
AcDbPolyline
 90
        4
 70
     1
 43
2.0
 10
-1557.768774885342
 20
-326.5240344763207
 42
0.4142135623731
 10
-1558.768774885342
 20
-325.5240344763207
 42
0.4142135623731
 10
-1559.768774885342
 20
-326.5240344763207
 42
0.4142135623731
 10
-1558.768774885342
 20
-327.5240344763207
 42
0.4142135623731
  0
TEXT
  5
8B
330
1F
100
AcDbEntity
  8
C-4
  6
Continuous
 62
     2
370
   211
100
AcDbText
 10
-1570.408774885342
 20
-234.0240550963057
 30
0.0
 40
30.48
  1
250
 50
90.0
 41
1.083333333333333
  7
ＭＳ ゴシック
100
AcDbText
  0
LINE
  5
8C
330
1F
100
AcDbEntity
  8
C-4
  6
Continuous
 62
     7
370
     9
100
AcDbLine
 10
-1558.768774885342
 20
-76.52407571629084
 30
0.0
 11
-1558.768774885342
 21
-406.6191008831912
 31
0.0
  0
LWPOLYLINE
  5
8D
330
1F
100
AcDbEntity
  8
C-4
  6
Continuous
 62
     7
370
     9
100
AcDbPolyline
 90
        4
 70
     1
 43
2.0
 10
-1557.768774885342
 20
-329.723926262638
 42
0.4142135623731
 10
-1558.768774885342
 20
-328.723926262638
 42
0.4142135623731
 10
-1559.768774885342
 20
-329.723926262638
 42
0.4142135623731
 10
-1558.768774885342
 20
-330.723926262638
 42
0.4142135623731
  0
LINE
  5
8E
330
1F
100
AcDbEntity
  8
C-4
  6
Continuous
 62
     7
370
     9
100
AcDbLine
 10
-1561.768774885342
 20
-329.723926262638
 30
0.0
 11
-1530.881939018759
 21
-329.723926262638
 31
0.0
  0
TEXT
  5
8F
330
1F
100
AcDbEntity
  8
C-4
  6
Continuous
 62
     2
370
   211
100
AcDbText
 10
-1570.408774885342
 20
-399.1758384718437
 30
0.0
 40
30.48
  1
3.2
 50
90.0
 41
1.083333333333333
  7
ＭＳ ゴシック
100
AcDbText
  0
TEXT
  5
90
330
1F
100
AcDbEntity
  8
C-5
  6
Continuous
 62
     2
370
     9
100
AcDbText
 10
-1110.474334605835
 20
-60.5056966278719
 30
0.0
 40
30.48
  1
▽G.L.
 41
1.104166666666667
  7
ＭＳ ゴシック
100
AcDbText
  0
LINE
  5
91
330
1F
100
AcDbEntity
  8
C-4
  6
Continuous
 62
     7
370
     9
100
AcDbLine
 10
-981.4194904590869
 20
-76.52392626263804
 30
0.0
 11
-981.4194904590869
 21
-329.723926262638
 31
0.0
  0
LWPOLYLINE
  5
92
330
1F
100
AcDbEntity
  8
C-4
  6
Continuous
 62
     7
370
     9
100
AcDbPolyline
 90
        4
 70
     1
 43
2.0
 10
-980.419490459087
 20
-76.52392626263804
 42
0.4142135623731
 10
-981.4194904590869
 20
-75.52392626263804
 42
0.4142135623731
 10
-982.4194904590868
 20
-76.52392626263804
 42
0.4142135623731
 10
-981.4194904590869
 20
-77.52392626263804
 42
0.4142135623731
  0
LWPOLYLINE
  5
93
330
1F
100
AcDbEntity
  8
C-4
  6
Continuous
 62
     7
370
     9
100
AcDbPolyline
 90
        4
 70
     1
 43
2.0
 10
-980.419490459087
 20
-329.723926262638
 42
0.4142135623731
 10
-981.4194904590869
 20
-328.723926262638
 42
0.4142135623731
 10
-982.4194904590868
 20
-329.723926262638
 42
0.4142135623731
 10
-981.4194904590869
 20
-330.723926262638
 42
0.4142135623731
  0
LINE
  5
94
330
1F
100
AcDbEntity
  8
C-4
  6
Continuous
 62
     7
370
     9
100
AcDbLine
 10
-978.419490459087
 20
-329.723926262638
 30
0.0
 11
-1086.342529707775
 21
-329.723926262638
 31
0.0
  0
TEXT
  5
95
330
1F
100
AcDbEntity
  8
C-4
  6
Continuous
 62
     2
370
   211
100
AcDbText
 10
-993.059490459087
 20
-258.123926262638
 30
0.0
 40
30.48
  1
253.2
 50
90.0
 41
1.1
  7
ＭＳ ゴシック
100
AcDbText
  0
LINE
  5
96
330
1F
100
AcDbEntity
  8
C-4
  6
Continuous
 62
     7
370
     9
100
AcDbLine
 10
-981.4194904590869
 20
-329.723926262638
 30
0.0
 11
-981.4194904590869
 21
-429.723926262638
 31
0.0
  0
LWPOLYLINE
  5
97
330
1F
100
AcDbEntity
  8
C-4
  6
Continuous
 62
     7
370
     9
100
AcDbPolyline
 90
        4
 70
     1
 43
2.0
 10
-980.419490459087
 20
-429.723926262638
 42
0.4142135623731
 10
-981.4194904590869
 20
-428.723926262638
 42
0.4142135623731
 10
-982.4194904590868
 20
-429.723926262638
 42
0.4142135623731
 10
-981.4194904590869
 20
-430.723926262638
 42
0.4142135623731
  0
LINE
  5
98
330
1F
100
AcDbEntity
  8
C-4
  6
Continuous
 62
     7
370
     9
100
AcDbLine
 10
-978.419490459087
 20
-429.723926262638
 30
0.0
 11
-1086.342529707775
 21
-429.723926262638
 31
0.0
  0
TEXT
  5
99
330
1F
100
AcDbEntity
  8
C-4
  6
Continuous
 62
     2
370
   211
100
AcDbText
 10
-993.059490459087
 20
-412.223926262638
 30
0.0
 40
30.48
  1
100
 50
90.0
 41
1.083333333333333
  7
ＭＳ ゴシック
100
AcDbText
  0
LINE
  5
9A
330
1F
100
AcDbEntity
  8
C-4
  6
Continuous
 62
     7
370
     9
100
AcDbLine
 10
-1506.342529707774
 20
-690.6209532443665
 30
0.0
 11
-1106.342529707775
 21
-690.6209532443665
 31
0.0
  0
LWPOLYLINE
  5
9B
330
1F
100
AcDbEntity
  8
C-4
  6
Continuous
 62
     7
370
     9
100
AcDbPolyline
 90
        4
 70
     1
 43
2.0
 10
-1505.342529707775
 20
-690.6209532443665
 42
0.4142135623731
 10
-1506.342529707774
 20
-689.6209532443665
 42
0.4142135623731
 10
-1507.342529707774
 20
-690.6209532443665
 42
0.4142135623731
 10
-1506.342529707774
 20
-691.6209532443665
 42
0.4142135623731
  0
LWPOLYLINE
  5
9C
330
1F
100
AcDbEntity
  8
C-4
  6
Continuous
 62
     7
370
     9
100
AcDbPolyline
 90
        4
 70
     1
 43
2.0
 10
-1105.342529707775
 20
-690.6209532443665
 42
0.4142135623731
 10
-1106.342529707775
 20
-689.6209532443665
 42
0.4142135623731
 10
-1107.342529707775
 20
-690.6209532443665
 42
0.4142135623731
 10
-1106.342529707775
 20
-691.6209532443665
 42
0.4142135623731
  0
LINE
  5
9D
330
1F
100
AcDbEntity
  8
C-4
  6
Continuous
 62
     7
370
     9
100
AcDbLine
 10
-1506.342529707774
 20
-693.6209532443667
 30
0.0
 11
-1506.342529707774
 21
-449.723926262638
 31
0.0
  0
LINE
  5
9E
330
1F
100
AcDbEntity
  8
C-4
  6
Continuous
 62
     7
370
     9
100
AcDbLine
 10
-1106.342529707775
 20
-693.6209532443667
 30
0.0
 11
-1106.342529707775
 21
-449.723926262638
 31
0.0
  0
LINE
  5
9F
330
1F
100
AcDbEntity
  8
C-4
  6
Continuous
 62
     7
370
     9
100
AcDbLine
 10
-1456.342529707775
 20
-577.0291165096728
 30
0.0
 11
-1156.342529707775
 21
-577.0291165096728
 31
0.0
  0
LWPOLYLINE
  5
A0
330
1F
100
AcDbEntity
  8
C-4
  6
Continuous
 62
     7
370
     9
100
AcDbPolyline
 90
        4
 70
     1
 43
2.0
 10
-1455.342529707775
 20
-577.0291165096728
 42
0.4142135623731
 10
-1456.342529707775
 20
-576.0291165096728
 42
0.4142135623731
 10
-1457.342529707775
 20
-577.0291165096728
 42
0.4142135623731
 10
-1456.342529707775
 20
-578.0291165096728
 42
0.4142135623731
  0
LWPOLYLINE
  5
A1
330
1F
100
AcDbEntity
  8
C-4
  6
Continuous
 62
     7
370
     9
100
AcDbPolyline
 90
        4
 70
     1
 43
2.0
 10
-1155.342529707775
 20
-577.0291165096728
 42
0.4142135623731
 10
-1156.342529707775
 20
-576.0291165096728
 42
0.4142135623731
 10
-1157.342529707775
 20
-577.0291165096728
 42
0.4142135623731
 10
-1156.342529707775
 20
-578.0291165096728
 42
0.4142135623731
  0
LINE
  5
A2
330
1F
100
AcDbEntity
  8
C-4
  6
Continuous
 62
     7
370
     9
100
AcDbLine
 10
-1456.342529707775
 20
-580.0291165096733
 30
0.0
 11
-1456.342529707775
 21
-449.723926262638
 31
0.0
  0
LINE
  5
A3
330
1F
100
AcDbEntity
  8
C-4
  6
Continuous
 62
     7
370
     9
100
AcDbLine
 10
-1156.342529707775
 20
-580.0291165096733
 30
0.0
 11
-1156.342529707775
 21
-449.723926262638
 31
0.0
  0
TEXT
  5
A4
330
1F
100
AcDbEntity
  8
C-4
  6
Continuous
 62
     2
370
   211
100
AcDbText
 10
-1361.342529707774
 20
-674.9809532443666
 30
0.0
 40
30.48
  1
□400
 41
1.099999999999997
  7
ＭＳ ゴシック
100
AcDbText
  0
TEXT
  5
A5
330
1F
100
AcDbEntity
  8
C-4
  6
Continuous
 62
     2
370
   211
100
AcDbText
 10
-1361.342529707774
 20
-561.3891165096728
 30
0.0
 40
30.48
  1
□300
 41
1.099999999999997
  7
ＭＳ ゴシック
100
AcDbText
  0
LINE
  5
A6
330
1F
100
AcDbEntity
  8
C-4
  6
Continuous
 62
     7
370
     9
100
AcDbLine
 10
-1344.492677841748
 20
851.7406810809229
 30
0.0
 11
-1268.192381573801
 21
851.7406810809229
 31
0.0
  0
LWPOLYLINE
  5
A7
330
1F
100
AcDbEntity
  8
C-4
  6
Continuous
 62
     7
370
     9
100
AcDbPolyline
 90
        4
 70
     1
 43
2.0
 10
-1343.492677841748
 20
851.7406810809229
 42
0.4142135623731
 10
-1344.492677841748
 20
852.7406810809227
 42
0.4142135623731
 10
-1345.492677841748
 20
851.7406810809229
 42
0.4142135623731
 10
-1344.492677841748
 20
850.740681080923
 42
0.4142135623731
  0
LWPOLYLINE
  5
A8
330
1F
100
AcDbEntity
  8
C-4
  6
Continuous
 62
     7
370
     9
100
AcDbPolyline
 90
        4
 70
     1
 43
2.0
 10
-1267.192381573801
 20
851.7406810809229
 42
0.4142135623731
 10
-1268.192381573801
 20
852.7406810809227
 42
0.4142135623731
 10
-1269.192381573801
 20
851.7406810809229
 42
0.4142135623731
 10
-1268.192381573801
 20
850.740681080923
 42
0.4142135623731
  0
TEXT
  5
A9
330
1F
100
AcDbEntity
  8
C-4
  6
Continuous
 62
     2
370
   211
100
AcDbText
 10
-1372.592529707775
 20
867.3806810809228
 30
0.0
 40
30.48
  1
φ76.3
 41
1.104166666666667
  7
ＭＳ ゴシック
100
AcDbText
  0
LINE
  5
AA
330
1F
100
AcDbEntity
  8
C-4
  6
Continuous
 62
     7
370
     9
100
AcDbLine
 10
-1344.492677841748
 20
854.7406810809229
 30
0.0
 11
-1344.492677841748
 21
767.2242980049125
 31
0.0
  0
LINE
  5
AB
330
1F
100
AcDbEntity
  8
C-4
  6
Continuous
 62
     7
370
     9
100
AcDbLine
 10
-1268.192381573801
 20
854.7406810809229
 30
0.0
 11
-1268.192381573801
 21
767.2242980049125
 31
0.0
  0
LINE
  5
AC
330
1F
100
AcDbEntity
  8
C-5
  6
Continuous
 62
     7
370
     9
100
AcDbLine
 10
-1198.668642601656
 20
371.8785772159634
 30
0.0
 11
-1268.128217533033
 21
251.5708610525343
 31
0.0
  0
LINE
  5
AD
330
1F
100
AcDbEntity
  8
C-5
  6
Continuous
 62
     7
370
     9
100
AcDbLine
 10
-1268.128217533033
 20
251.5708610525343
 30
0.0
 11
-1258.561148625271
 21
274.6678563660845
 31
0.0
  0
LINE
  5
AE
330
1F
100
AcDbEntity
  8
C-5
  6
Continuous
 62
     7
370
     9
100
AcDbLine
 10
-1268.128217533033
 20
251.5708610525343
 30
0.0
 11
-1252.909196321348
 21
271.4047056964333
 31
0.0
  0
TEXT
  5
AF
330
1F
100
AcDbEntity
  8
C-5
  6
Continuous
 62
     7
370
     9
100
AcDbText
 10
-1198.668642601656
 20
334.8070776710446
 30
0.0
 40
22.86
  1
SUS304　ヘアライン仕上
 41
1.151515151515152
  7
ＭＳ ゴシック
100
AcDbText
  0
LINE
  5
B0
330
1F
100
AcDbEntity
  8
C-5
  6
Continuous
 62
     7
370
     9
100
AcDbLine
 10
-1198.668642601656
 20
371.8785772159634
 30
0.0
 11
-812.5164677646515
 21
371.8785772159634
 31
0.0
  0
TEXT
  5
B1
330
1F
100
AcDbEntity
  8
C-5
  6
Continuous
 62
     7
370
     9
100
AcDbText
 10
-1194.185564166018
 20
387.3327759461515
 30
0.0
 40
22.86
  1
本体：φ76.3×2.0
 41
1.156862745098039
  7
ＭＳ ゴシック
100
AcDbText
  0
TEXT
  5
B2
330
1F
100
AcDbEntity
  8
C-5
  6
Continuous
 62
     2
370
     9
100
AcDbText
 10
199.6311390273669
 20
-60.5056966278719
 30
0.0
 40
30.48
  1
▽G.L.
 41
1.104166666666667
  7
ＭＳ ゴシック
100
AcDbText
  0
ARC
  5
B3
330
1F
100
AcDbEntity
  8
C-2
  6
Continuous
 62
     3
370
     9
100
AcDbCircle
 10
-1306.342529015956
 20
705.2335912894546
 30
0.0
 40
68.24260354793822
100
AcDbArc
 50
56.01091647065034
 51
123.9890835293496
  0
LINE
  5
B4
330
1F
100
AcDbEntity
  8
C-2
  6
Continuous
 62
     3
370
     9
100
AcDbLine
 10
-1344.492529361847
 20
761.8165433633126
 30
0.0
 11
-1344.492529361847
 21
-76.52402932132406
 31
0.0
  0
LINE
  5
B5
330
1F
100
AcDbEntity
  8
C-2
  6
Continuous
 62
     3
370
     9
100
AcDbLine
 10
-1249.875529527969
 20
653.4759992125021
 30
0.0
 11
-1249.875529527969
 21
653.4859992124113
 31
0.0
  0
ARC
  5
B6
330
1F
100
AcDbEntity
  8
C-2
  6
Continuous
 62
     3
370
     9
100
AcDbCircle
 10
-1249.875529527969
 20
666.1589990975108
 30
0.0
 40
12.68299988500862
100
AcDbArc
 50
270.0
 51
0.0
  0
ARC
  5
B7
330
1F
100
AcDbEntity
  8
C-2
  6
Continuous
 62
     3
370
     9
100
AcDbCircle
 10
-1249.875529527969
 20
666.1589990975108
 30
0.0
 40
18.68299983060874
100
AcDbArc
 50
270.0
 51
0.0
  0
LINE
  5
B8
330
1F
100
AcDbEntity
  8
C-2
  6
Continuous
 62
     3
370
     9
100
AcDbLine
 10
-1262.19252941629
 20
672.9759990357024
 30
0.0
 11
-1262.19252941629
 21
663.1341024324773
 31
0.0
  0
LINE
  5
B9
330
1F
100
AcDbEntity
  8
C-2
  6
Continuous
 62
     3
370
     9
100
AcDbLine
 10
-1268.192529361898
 20
672.9759990357024
 30
0.0
 11
-1262.192529416298
 21
672.9759990357024
 31
0.0
  0
ARC
  5
BA
330
1F
100
AcDbEntity
  8
C-2
  6
Continuous
 62
     3
370
     9
100
AcDbCircle
 10
-1249.875529527969
 20
666.1589990975108
 30
0.0
 40
12.68299988500862
100
AcDbArc
 50
193.7980315976056
 51
270.0
  0
ARC
  5
BB
330
1F
100
AcDbEntity
  8
C-2
  6
Continuous
 62
     3
370
     9
100
AcDbCircle
 10
-1249.875529527969
 20
666.1589990975108
 30
0.0
 40
18.68299983060874
100
AcDbArc
 50
191.3596882805108
 51
270.0
  0
ARC
  5
BC
330
1F
100
AcDbEntity
  8
C-2
  6
Continuous
 62
     3
370
     9
100
AcDbCircle
 10
-1249.875529527969
 20
680.7929989648271
 30
0.0
 40
12.68299988500862
100
AcDbArc
 50
0.0
 51
90.0
  0
ARC
  5
BD
330
1F
100
AcDbEntity
  8
C-2
  6
Continuous
 62
     3
370
     9
100
AcDbCircle
 10
-1249.875529527969
 20
680.7929989648271
 30
0.0
 40
18.68299983060874
100
AcDbArc
 50
0.0
 51
90.0
  0
LINE
  5
BE
330
1F
100
AcDbEntity
  8
C-2
  6
Continuous
 62
     3
370
     9
100
AcDbLine
 10
-1262.19252941629
 20
673.9759990266355
 30
0.0
 11
-1262.19252941629
 21
683.8178956298609
 31
0.0
  0
ARC
  5
BF
330
1F
100
AcDbEntity
  8
C-2
  6
Continuous
 62
     3
370
     9
100
AcDbCircle
 10
-1249.875529527969
 20
680.7929989648271
 30
0.0
 40
12.68299988500862
100
AcDbArc
 50
90.0
 51
166.2019684023945
  0
ARC
  5
C0
330
1F
100
AcDbEntity
  8
C-2
  6
Continuous
 62
     3
370
     9
100
AcDbCircle
 10
-1249.875529527969
 20
680.7929989648271
 30
0.0
 40
18.68299983060874
100
AcDbArc
 50
90.0
 51
168.6403117194892
  0
LINE
  5
C1
330
1F
100
AcDbEntity
  8
C-2
  6
Continuous
 62
     3
370
     9
100
AcDbLine
 10
-1268.192529361884
 20
673.9759990266355
 30
0.0
 11
-1262.19252941629
 21
673.975999026632
 31
0.0
  0
LINE
  5
C2
330
1F
100
AcDbEntity
  8
C-2
  6
Continuous
 62
     3
370
     9
100
AcDbLine
 10
-1237.192529642964
 20
666.1589990975108
 30
0.0
 11
-1237.192529642964
 21
680.7929989648271
 31
0.0
  0
LINE
  5
C3
330
1F
100
AcDbEntity
  8
C-2
  6
Continuous
 62
     3
370
     9
100
AcDbLine
 10
-1231.192529697364
 20
666.1589990975108
 30
0.0
 11
-1231.192529697364
 21
680.7929989648271
 31
0.0
  0
LINE
  5
C4
330
1F
100
AcDbEntity
  8
C-A
  6
JWW_CENTER1
 62
     7
370
     9
100
AcDbLine
 10
-1276.063936617182
 20
673.4759990311713
 30
0.0
 11
-1224.750022081553
 21
673.4759990311557
 31
0.0
  0
LINE
  5
C5
330
1F
100
AcDbEntity
  8
C-A
  6
JWW_CENTER1
 62
     7
370
     9
100
AcDbLine
 10
-1249.875529527969
 20
638.9558704678877
 30
0.0
 11
-1249.875529527969
 21
707.9961275944386
 31
0.0
  0
LINE
  5
C6
330
1F
100
AcDbEntity
  8
C-2
  6
Continuous
 62
     3
370
     9
100
AcDbLine
 10
-1268.192530053703
 20
760.4761949552369
 30
0.0
 11
-1344.492529361847
 21
760.4761949552369
 31
0.0
  0
LINE
  5
C7
330
1F
100
AcDbEntity
  8
C-2
  6
Continuous
 62
     3
370
     9
100
AcDbLine
 10
-1268.192529361846
 20
761.8165433633126
 30
0.0
 11
-1268.192529361847
 21
-76.52402932132406
 31
0.0
  0
LINE
  5
C8
330
1F
100
AcDbEntity
  8
C-4
  6
Continuous
 62
     7
370
     9
100
AcDbLine
 10
-1659.958673794584
 20
773.4759990311557
 30
0.0
 11
-1659.958673794584
 21
-326.5240344763207
 31
0.0
  0
LWPOLYLINE
  5
C9
330
1F
100
AcDbEntity
  8
C-4
  6
Continuous
 62
     7
370
     9
100
AcDbPolyline
 90
        4
 70
     1
 43
2.0
 10
-1658.958673794584
 20
773.4759990311557
 42
0.4142135623731
 10
-1659.958673794584
 20
774.4759990311557
 42
0.4142135623731
 10
-1660.958673794584
 20
773.4759990311557
 42
0.4142135623731
 10
-1659.958673794584
 20
772.4759990311557
 42
0.4142135623731
  0
LWPOLYLINE
  5
CA
330
1F
100
AcDbEntity
  8
C-4
  6
Continuous
 62
     7
370
     9
100
AcDbPolyline
 90
        4
 70
     1
 43
2.0
 10
-1658.958673794584
 20
-326.5240344763207
 42
0.4142135623731
 10
-1659.958673794584
 20
-325.5240344763207
 42
0.4142135623731
 10
-1660.958673794584
 20
-326.5240344763207
 42
0.4142135623731
 10
-1659.958673794584
 20
-327.5240344763207
 42
0.4142135623731
  0
LINE
  5
CB
330
1F
100
AcDbEntity
  8
C-4
  6
Continuous
 62
     7
370
     9
100
AcDbLine
 10
-1662.958673794584
 20
773.4759990311557
 30
0.0
 11
-1326.342529707775
 21
773.4759990311557
 31
0.0
  0
LINE
  5
CC
330
1F
100
AcDbEntity
  8
C-4
  6
Continuous
 62
     7
370
     9
100
AcDbLine
 10
-1662.958673794584
 20
-326.5240344763207
 30
0.0
 11
-1396.342575071742
 21
-326.5240344763207
 31
0.0
  0
TEXT
  5
CD
330
1F
100
AcDbEntity
  8
C-4
  6
Continuous
 62
     2
370
   211
100
AcDbText
 10
-1671.598673794584
 20
179.7259822774175
 30
0.0
 40
30.48
  1
1100
 50
90.0
 41
1.09375
  7
ＭＳ ゴシック
100
AcDbText
  0
ARC
  5
CE
330
1F
100
AcDbEntity
  8
C-2
  6
Continuous
 62
     3
370
     9
100
AcDbCircle
 10
0.0000006918194231
 20
705.2335912894545
 30
0.0
 40
68.24260354793822
100
AcDbArc
 50
56.01091647065034
 51
123.9890835293496
  0
ARC
  5
CF
330
1F
100
AcDbEntity
  8
C-2
  6
Continuous
 62
     3
370
     9
100
AcDbCircle
 10
0.1613586288615246
 20
696.4759987954227
 30
0.0
 40
3.0
100
AcDbArc
 50
90.0
 51
180.0
  0
ARC
  5
D0
330
1F
100
AcDbEntity
  8
C-2
  6
Continuous
 62
     3
370
     9
100
AcDbCircle
 10
0.161358628861354
 20
696.4759987954227
 30
0.0
 40
3.0
100
AcDbArc
 50
0.0
 51
90.0
  0
LINE
  5
D1
330
1F
100
AcDbEntity
  8
C-2
  6
Continuous
 62
     3
370
     9
100
AcDbLine
 10
-2.838641371138475
 20
650.4759992668886
 30
0.0
 11
-2.838641371138475
 21
696.4759987954227
 31
0.0
  0
ARC
  5
D2
330
1F
100
AcDbEntity
  8
C-2
  6
Continuous
 62
     3
370
     9
100
AcDbCircle
 10
0.1613586288615246
 20
650.4759992668886
 30
0.0
 40
3.0
100
AcDbArc
 50
180.0
 51
270.0
  0
LINE
  5
D3
330
1F
100
AcDbEntity
  8
C-2
  6
Continuous
 62
     3
370
     9
100
AcDbLine
 10
3.161358628861354
 20
650.4759992668886
 30
0.0
 11
3.161358628861354
 21
696.4759987954227
 31
0.0
  0
ARC
  5
D4
330
1F
100
AcDbEntity
  8
C-2
  6
Continuous
 62
     3
370
     9
100
AcDbCircle
 10
0.161358628861354
 20
650.4759992668886
 30
0.0
 40
3.0
100
AcDbArc
 50
270.0
 51
0.0
  0
LINE
  5
D5
330
1F
100
AcDbEntity
  8
C-2
  6
Continuous
 62
     3
370
     9
100
AcDbLine
 10
-38.14999965407196
 20
760.4761949552369
 30
0.0
 11
38.14999965407196
 21
760.4761949552369
 31
0.0
  0
LINE
  5
D6
330
1F
100
AcDbEntity
  8
C-2
  6
Continuous
 62
     3
370
     9
100
AcDbLine
 10
-38.14999896228937
 20
-76.52402932132406
 30
0.0
 11
-38.14999896228937
 21
-49.78894391026799
 31
0.0
  0
LINE
  5
D7
330
1F
100
AcDbEntity
  8
C-2
  6
Continuous
 62
     3
370
     9
100
AcDbLine
 10
-38.14999896228937
 20
0.7920092046710181
 30
0.0
 11
-38.14999896228937
 21
761.8165433633126
 31
0.0
  0
LINE
  5
D8
330
1F
100
AcDbEntity
  8
C-2
  6
Continuous
 62
     3
370
     9
100
AcDbLine
 10
38.15000034592822
 20
-76.52402932132406
 30
0.0
 11
38.15000034592823
 21
-49.78894188934163
 31
0.0
  0
LINE
  5
D9
330
1F
100
AcDbEntity
  8
C-2
  6
Continuous
 62
     3
370
     9
100
AcDbLine
 10
38.15000034592825
 20
0.792007183744623
 30
0.0
 11
38.15000034592856
 21
761.8165433633126
 31
0.0
  0
TEXT
  5
DA
330
1F
100
AcDbEntity
  8
F-5ﾚｲﾔ
  6
Continuous
 62
     2
370
     0
100
AcDbText
 10
-778.5003505397486
 20
-1326.363350089075
 30
0.0
 40
30.48
  1
車止め　ステンレス製　先付タイプ
 41
0.8984374999999999
  7
ＭＳ ゴシック
100
AcDbText
  0
TEXT
  5
DB
330
1F
100
AcDbEntity
  8
C-5
  6
Continuous
 62
     2
370
     0
100
AcDbText
 10
1360.989361702128
 20
-1105.125957446808
 30
0.0
 40
30.48
  1
支柱質量：3.9kg／本
 41
1.111842105263158
  7
ＭＳ ゴシック
100
AcDbText
  0
TEXT
  5
DC
330
1F
100
AcDbEntity
  8
3-5
  6
Continuous
 62
     2
370
     9
100
AcDbText
 10
1555.500299513717
 20
-426.6219839715034
 30
0.0
 40
30.48
  1
▽G.L.
 41
1.104166666666667
  7
ＭＳ ゴシック
100
AcDbText
  0
LINE
  5
DD
330
1F
100
AcDbEntity
  8
3-6
  6
JWW_PHANTOM2
 62
     6
370
     9
100
AcDbLine
 10
1389.592525718687
 20
-436.3422204615648
 30
0.0
 11
1696.865424522173
 21
-436.3422204615648
 31
0.0
  0
LINE
  5
DE
330
1F
100
AcDbEntity
  8
3-6
  6
JWW_PHANTOM2
 62
     6
370
     9
100
AcDbLine
 10
989.8034551514996
 20
-436.3422204615645
 30
0.0
 11
685.1120016413762
 21
-436.3422204615645
 31
0.0
  0
LINE
  5
DF
330
1F
100
AcDbEntity
  8
3-0
  6
JWW_CENTER2
 62
     7
370
     9
100
AcDbLine
 10
1138.351023284473
 20
13.18846753179741
 30
0.0
 11
1138.351023284473
 21
-666.4845747440572
 31
0.0
  0
LINE
  5
E0
330
1F
100
AcDbEntity
  8
3-5
  6
Continuous
 62
     7
370
     9
100
AcDbLine
 10
1348.782276655638
 20
-109.1011576726775
 30
0.0
 11
1407.147266854341
 21
-109.1011576726775
 31
0.0
  0
TEXT
  5
E1
330
1F
100
AcDbEntity
  8
3-5
  6
Continuous
 62
     7
370
     9
100
AcDbText
 10
1377.147266854341
 20
-98.20449100601097
 30
0.0
 40
22.86
  1
蓋
  7
ＭＳ ゴシック
100
AcDbText
  0
LINE
  5
E2
330
1F
100
AcDbEntity
  8
3-5
  6
Continuous
 62
     7
370
     9
100
AcDbLine
 10
1310.379375965637
 20
-175.6169328257808
 30
0.0
 11
1348.782276655638
 21
-109.1011576726775
 31
0.0
  0
LWPOLYLINE
  5
E3
330
1F
100
AcDbEntity
  8
3-4
  6
Continuous
 62
     7
370
     9
100
AcDbPolyline
 90
        4
 70
     1
 43
2.0
 10
872.5491192342441
 20
-428.6755537948977
 42
0.4142135623731
 10
871.5491192342442
 20
-427.6755537948977
 42
0.4142135623731
 10
870.5491192342442
 20
-428.6755537948977
 42
0.4142135623731
 10
871.5491192342442
 20
-429.6755537948977
 42
0.4142135623731
  0
LWPOLYLINE
  5
E4
330
1F
100
AcDbEntity
  8
3-4
  6
Continuous
 62
     7
370
     9
100
AcDbPolyline
 90
        4
 70
     1
 43
2.0
 10
872.5491192342441
 20
-436.344729676208
 42
0.4142135623731
 10
871.5491192342442
 20
-435.3447296762079
 42
0.4142135623731
 10
870.5491192342442
 20
-436.344729676208
 42
0.4142135623731
 10
871.5491192342442
 20
-437.344729676208
 42
0.4142135623731
  0
LINE
  5
E5
330
1F
100
AcDbEntity
  8
3-4
  6
Continuous
 62
     7
370
     9
100
AcDbLine
 10
868.5491192342442
 20
-428.6755537948977
 30
0.0
 11
969.8034551514996
 21
-428.6755537948977
 31
0.0
  0
LINE
  5
E6
330
1F
100
AcDbEntity
  8
3-4
  6
Continuous
 62
     7
370
     9
100
AcDbLine
 10
868.5491192342442
 20
-436.344729676208
 30
0.0
 11
969.8504515574228
 21
-436.344729676208
 31
0.0
  0
TEXT
  5
E7
330
1F
100
AcDbEntity
  8
3-4
  6
Continuous
 62
     2
370
   211
100
AcDbText
 10
855.9091192342443
 20
-506.4453467901012
 30
0.0
 40
30.48
  1
2.3
 50
90.0
 41
1.083333333333333
  7
ＭＳ ゴシック
100
AcDbText
  0
LINE
  5
E8
330
1F
100
AcDbEntity
  8
3-4
  6
Continuous
 62
     7
370
     9
100
AcDbLine
 10
871.5491192342442
 20
-428.6755537948977
 30
0.0
 11
871.5491192342442
 21
-508.4130512094964
 31
0.0
  0
LINE
  5
E9
330
1F
100
AcDbEntity
  8
3-5
  6
Continuous
 62
     7
370
     9
100
AcDbLine
 10
830.3510250141136
 20
357.554929047609
 30
0.0
 11
1446.351025014113
 21
357.554929047609
 31
0.0
  0
LINE
  5
EA
330
1F
100
AcDbEntity
  8
3-5
  6
Continuous
 62
     7
370
     9
100
AcDbLine
 10
830.3510250141136
 20
287.554929047609
 30
0.0
 11
1446.351025014113
 21
287.554929047609
 31
0.0
  0
LINE
  5
EB
330
1F
100
AcDbEntity
  8
3-5
  6
Continuous
 62
     7
370
     9
100
AcDbLine
 10
830.3510250141136
 20
357.554929047609
 30
0.0
 11
830.3510250141136
 21
287.554929047609
 31
0.0
  0
LINE
  5
EC
330
1F
100
AcDbEntity
  8
3-5
  6
Continuous
 62
     7
370
     9
100
AcDbLine
 10
1446.351025014113
 20
357.554929047609
 30
0.0
 11
1446.351025014113
 21
287.554929047609
 31
0.0
  0
TEXT
  5
ED
330
1F
100
AcDbEntity
  8
3-5
  6
Continuous
 62
     2
370
     9
100
AcDbText
 10
848.3510250141137
 20
308.194929047609
 30
0.0
 40
30.48
  1
フック部詳細図　Ｓ＝１：３
 41
1.115384615384615
  7
ＭＳ ゴシック
100
AcDbText
  0
LINE
  5
EE
330
1F
100
AcDbEntity
  8
3-2
  6
Continuous
 62
     3
370
     9
100
AcDbLine
 10
1011.1843577709
 20
945.0281592763954
 30
0.0
 11
1265.517688798046
 21
945.0281592763954
 31
0.0
  0
LINE
  5
EF
330
1F
100
AcDbEntity
  8
3-0
  6
JWW_CENTER2
 62
     7
370
     9
100
AcDbLine
 10
1138.351023284473
 20
407.9082192224705
 30
0.0
 11
1138.351023284473
 21
1041.31204496324
 31
0.0
  0
LINE
  5
F0
330
1F
100
AcDbEntity
  8
3-2
  6
Continuous
 62
     3
370
     9
100
AcDbLine
 10
1011.184357770777
 20
468.3612602730979
 30
0.0
 11
1011.184357770777
 21
949.4964072611162
 31
0.0
  0
ARC
  5
F1
330
1F
100
AcDbEntity
  8
3-2
  6
Continuous
 62
     3
370
     9
100
AcDbCircle
 10
1138.351023284473
 20
760.8865670149225
 30
0.0
 40
227.475345159794
100
AcDbArc
 50
56.01091647065034
 51
123.9890835293496
  0
LINE
  5
F2
330
1F
100
AcDbEntity
  8
3-A
  6
JWW_CENTER1
 62
     7
370
     9
100
AcDbLine
 10
1239.279664613593
 20
655.0279261539786
 30
0.0
 11
1410.326046399023
 21
655.0279261539263
 31
0.0
  0
LINE
  5
F3
330
1F
100
AcDbEntity
  8
3-A
  6
JWW_CENTER1
 62
     7
370
     9
100
AcDbLine
 10
1326.57435491097
 20
539.9608309430332
 30
0.0
 11
1326.57435491097
 21
770.0950213648694
 31
0.0
  0
LINE
  5
F4
330
1F
100
AcDbEntity
  8
3-2
  6
Continuous
 62
     3
370
     9
100
AcDbLine
 10
1326.57435491097
 20
588.3612600917477
 30
0.0
 11
1326.57435491097
 21
588.3945934247786
 31
0.0
  0
ARC
  5
F5
330
1F
100
AcDbEntity
  8
3-2
  6
Continuous
 62
     3
370
     9
100
AcDbCircle
 10
1326.57435491097
 20
630.63792637511
 30
0.0
 40
42.27666628336208
100
AcDbArc
 50
270.0
 51
0.0
  0
ARC
  5
F6
330
1F
100
AcDbEntity
  8
3-2
  6
Continuous
 62
     3
370
     9
100
AcDbCircle
 10
1326.57435491097
 20
630.63792637511
 30
0.0
 40
62.27666610202914
100
AcDbArc
 50
270.0
 51
0.0
  0
LINE
  5
F7
330
1F
100
AcDbEntity
  8
3-2
  6
Continuous
 62
     3
370
     9
100
AcDbLine
 10
1285.517688616566
 20
653.3612595024156
 30
0.0
 11
1285.517688616566
 21
620.5549374916652
 31
0.0
  0
LINE
  5
F8
330
1F
100
AcDbEntity
  8
3-2
  6
Continuous
 62
     3
370
     9
100
AcDbLine
 10
1265.517688797873
 20
653.3612595024156
 30
0.0
 11
1285.517688616541
 21
653.3612595024156
 31
0.0
  0
ARC
  5
F9
330
1F
100
AcDbEntity
  8
3-2
  6
Continuous
 62
     3
370
     9
100
AcDbCircle
 10
1326.57435491097
 20
630.63792637511
 30
0.0
 40
42.27666628336208
100
AcDbArc
 50
193.7980315976056
 51
270.0
  0
ARC
  5
FA
330
1F
100
AcDbEntity
  8
3-2
  6
Continuous
 62
     3
370
     9
100
AcDbCircle
 10
1326.57435491097
 20
630.63792637511
 30
0.0
 40
62.27666610202914
100
AcDbArc
 50
191.3596882805108
 51
270.0
  0
ARC
  5
FB
330
1F
100
AcDbEntity
  8
3-2
  6
Continuous
 62
     3
370
     9
100
AcDbCircle
 10
1326.57435491097
 20
679.4179259328312
 30
0.0
 40
42.27666628336208
100
AcDbArc
 50
0.0
 51
90.0
  0
ARC
  5
FC
330
1F
100
AcDbEntity
  8
3-2
  6
Continuous
 62
     3
370
     9
100
AcDbCircle
 10
1326.57435491097
 20
679.4179259328312
 30
0.0
 40
62.27666610202914
100
AcDbArc
 50
0.0
 51
90.0
  0
ARC
  5
FD
330
1F
100
AcDbEntity
  8
3-2
  6
Continuous
 62
     3
370
     9
100
AcDbCircle
 10
1326.57435491097
 20
679.4179259328312
 30
0.0
 40
42.27666628336208
100
AcDbArc
 50
90.0
 51
166.2019684023945
  0
ARC
  5
FE
330
1F
100
AcDbEntity
  8
3-2
  6
Continuous
 62
     3
370
     9
100
AcDbCircle
 10
1326.57435491097
 20
679.4179259328312
 30
0.0
 40
62.27666610202914
100
AcDbArc
 50
90.0
 51
168.6403117194892
  0
LINE
  5
FF
330
1F
100
AcDbEntity
  8
3-2
  6
Continuous
 62
     3
370
     9
100
AcDbLine
 10
1265.517688797922
 20
656.6945928055256
 30
0.0
 11
1285.517688616566
 21
656.6945928055143
 31
0.0
  0
LINE
  5
100
330
1F
100
AcDbEntity
  8
3-2
  6
Continuous
 62
     3
370
     9
100
AcDbLine
 10
1368.85102119432
 20
630.63792637511
 30
0.0
 11
1368.85102119432
 21
679.4179259328312
 31
0.0
  0
LINE
  5
101
330
1F
100
AcDbEntity
  8
3-2
  6
Continuous
 62
     3
370
     9
100
AcDbLine
 10
1388.851021012988
 20
630.63792637511
 30
0.0
 11
1388.851021012988
 21
679.4179259328312
 31
0.0
  0
LINE
  5
102
330
1F
100
AcDbEntity
  8
3-4
  6
Continuous
 62
     7
370
     9
100
AcDbLine
 10
1388.851021012999
 20
1046.163073927783
 30
0.0
 11
1265.517688798046
 21
1046.163073927783
 31
0.0
  0
LWPOLYLINE
  5
103
330
1F
100
AcDbEntity
  8
3-4
  6
Continuous
 62
     7
370
     9
100
AcDbPolyline
 90
        4
 70
     1
 43
2.0
 10
1389.851021012999
 20
1046.163073927783
 42
0.4142135623731
 10
1388.851021012999
 20
1047.163073927783
 42
0.4142135623731
 10
1387.851021012999
 20
1046.163073927783
 42
0.4142135623731
 10
1388.851021012999
 20
1045.163073927783
 42
0.4142135623731
  0
LWPOLYLINE
  5
104
330
1F
100
AcDbEntity
  8
3-4
  6
Continuous
 62
     7
370
     9
100
AcDbPolyline
 90
        4
 70
     1
 43
2.0
 10
1266.517688798046
 20
1046.163073927783
 42
0.4142135623731
 10
1265.517688798046
 20
1047.163073927783
 42
0.4142135623731
 10
1264.517688798046
 20
1046.163073927783
 42
0.4142135623731
 10
1265.517688798046
 20
1045.163073927783
 42
0.4142135623731
  0
LINE
  5
105
330
1F
100
AcDbEntity
  8
3-4
  6
Continuous
 62
     7
370
     9
100
AcDbLine
 10
1388.851021012999
 20
1049.163073927783
 30
0.0
 11
1388.851021012999
 21
699.4179259328312
 31
0.0
  0
LINE
  5
106
330
1F
100
AcDbEntity
  8
3-4
  6
Continuous
 62
     7
370
     9
100
AcDbLine
 10
1265.517688798046
 20
1049.163073927783
 30
0.0
 11
1265.517688798046
 21
969.4964072612004
 31
0.0
  0
TEXT
  5
107
330
1F
100
AcDbEntity
  8
3-4
  6
Continuous
 62
     2
370
   211
100
AcDbText
 10
1305.934354905523
 20
1061.803073927783
 30
0.0
 40
30.48
  1
37
 41
1.0625
  7
ＭＳ ゴシック
100
AcDbText
  0
LINE
  5
108
330
1F
100
AcDbEntity
  8
3-4
  6
Continuous
 62
     7
370
     9
100
AcDbLine
 10
1552.893769101321
 20
988.3619121747165
 30
0.0
 11
1552.893769101321
 21
655.0279261539263
 31
0.0
  0
LWPOLYLINE
  5
109
330
1F
100
AcDbEntity
  8
3-4
  6
Continuous
 62
     7
370
     9
100
AcDbPolyline
 90
        4
 70
     1
 43
2.0
 10
1553.893769101321
 20
988.3619121747165
 42
0.4142135623731
 10
1552.893769101321
 20
989.3619121747165
 42
0.4142135623731
 10
1551.893769101321
 20
988.3619121747165
 42
0.4142135623731
 10
1552.893769101321
 20
987.3619121747165
 42
0.4142135623731
  0
LWPOLYLINE
  5
10A
330
1F
100
AcDbEntity
  8
3-4
  6
Continuous
 62
     7
370
     9
100
AcDbPolyline
 90
        4
 70
     1
 43
2.0
 10
1553.893769101321
 20
655.0279261539263
 42
0.4142135623731
 10
1552.893769101321
 20
656.0279261539262
 42
0.4142135623731
 10
1551.893769101321
 20
655.0279261539263
 42
0.4142135623731
 10
1552.893769101321
 20
654.0279261539263
 42
0.4142135623731
  0
LINE
  5
10B
330
1F
100
AcDbEntity
  8
3-4
  6
Continuous
 62
     7
370
     9
100
AcDbLine
 10
1555.893769101321
 20
988.3619121747165
 30
0.0
 11
1158.351023284473
 21
988.3619121747165
 31
0.0
  0
TEXT
  5
10C
330
1F
100
AcDbEntity
  8
3-4
  6
Continuous
 62
     2
370
   211
100
AcDbText
 10
1537.253769101321
 20
789.1949191643214
 30
0.0
 40
30.48
  1
100
 50
90.0
 41
1.083333333333333
  7
ＭＳ ゴシック
100
AcDbText
  0
LINE
  5
10D
330
1F
100
AcDbEntity
  8
3-4
  6
Continuous
 62
     7
370
     9
100
AcDbLine
 10
1555.893769101321
 20
655.0279261539263
 30
0.0
 11
1502.893769101321
 21
655.0279261539263
 31
0.0
  0
LINE
  5
10E
330
1F
100
AcDbEntity
  8
3-4
  6
Continuous
 62
     7
370
     9
100
AcDbLine
 10
1485.646375148382
 20
568.3612602730808
 30
0.0
 11
1485.646375148382
 21
741.6945920348603
 31
0.0
  0
LWPOLYLINE
  5
10F
330
1F
100
AcDbEntity
  8
3-4
  6
Continuous
 62
     7
370
     9
100
AcDbPolyline
 90
        4
 70
     1
 43
2.0
 10
1486.646375148382
 20
568.3612602730808
 42
0.4142135623731
 10
1485.646375148382
 20
569.3612602730808
 42
0.4142135623731
 10
1484.646375148382
 20
568.3612602730808
 42
0.4142135623731
 10
1485.646375148382
 20
567.3612602730808
 42
0.4142135623731
  0
LWPOLYLINE
  5
110
330
1F
100
AcDbEntity
  8
3-4
  6
Continuous
 62
     7
370
     9
100
AcDbPolyline
 90
        4
 70
     1
 43
2.0
 10
1486.646375148382
 20
741.6945920348603
 42
0.4142135623731
 10
1485.646375148382
 20
742.6945920348602
 42
0.4142135623731
 10
1484.646375148382
 20
741.6945920348603
 42
0.4142135623731
 10
1485.646375148382
 20
740.6945920348603
 42
0.4142135623731
  0
LINE
  5
111
330
1F
100
AcDbEntity
  8
3-4
  6
Continuous
 62
     7
370
     9
100
AcDbLine
 10
1488.646375148382
 20
568.3612602730808
 30
0.0
 11
1346.57435491097
 21
568.3612602730808
 31
0.0
  0
LINE
  5
112
330
1F
100
AcDbEntity
  8
3-4
  6
Continuous
 62
     7
370
     9
100
AcDbLine
 10
1488.646375148382
 20
741.6945920348603
 30
0.0
 11
1346.57435491097
 21
741.6945920348603
 31
0.0
  0
TEXT
  5
113
330
1F
100
AcDbEntity
  8
3-4
  6
Continuous
 62
     2
370
   211
100
AcDbText
 10
1470.006375148382
 20
633.7779261539706
 30
0.0
 40
30.48
  1
52
 50
90.0
 41
1.0625
  7
ＭＳ ゴシック
100
AcDbText
  0
LINE
  5
114
330
1F
100
AcDbEntity
  8
3-4
  6
Continuous
 62
     7
370
     9
100
AcDbLine
 10
1285.517688616566
 20
673.0159839576033
 30
0.0
 11
1265.517688798046
 21
673.0159839576033
 31
0.0
  0
LWPOLYLINE
  5
115
330
1F
100
AcDbEntity
  8
3-4
  6
Continuous
 62
     7
370
     9
100
AcDbPolyline
 90
        4
 70
     1
 43
2.0
 10
1286.517688616566
 20
673.0159839576033
 42
0.4142135623731
 10
1285.517688616566
 20
674.0159839576033
 42
0.4142135623731
 10
1284.517688616566
 20
673.0159839576033
 42
0.4142135623731
 10
1285.517688616566
 20
672.0159839576035
 42
0.4142135623731
  0
LWPOLYLINE
  5
116
330
1F
100
AcDbEntity
  8
3-4
  6
Continuous
 62
     7
370
     9
100
AcDbPolyline
 90
        4
 70
     1
 43
2.0
 10
1266.517688798046
 20
673.0159839576033
 42
0.4142135623731
 10
1265.517688798046
 20
674.0159839576033
 42
0.4142135623731
 10
1264.517688798046
 20
673.0159839576033
 42
0.4142135623731
 10
1265.517688798046
 20
672.0159839576035
 42
0.4142135623731
  0
LINE
  5
117
330
1F
100
AcDbEntity
  8
3-2
  6
Continuous
 62
     3
370
     9
100
AcDbLine
 10
1285.517688616566
 20
656.6945928055256
 30
0.0
 11
1285.517688616566
 21
689.5009148162771
 31
0.0
  0
LINE
  5
118
330
1F
100
AcDbEntity
  8
3-2
  6
Continuous
 62
     3
370
     9
100
AcDbLine
 10
1265.517688798046
 20
468.3612602730977
 30
0.0
 11
1265.517688798046
 21
949.4964072611162
 31
0.0
  0
TEXT
  5
119
330
1F
100
AcDbEntity
  8
3-4
  6
Continuous
 62
     2
370
   211
100
AcDbText
 10
1187.797444234831
 20
688.6559839576033
 30
0.0
 40
30.48
  1
φ6
 41
1.083333333333333
  7
ＭＳ ゴシック
100
AcDbText
  0
LINE
  5
11A
330
1F
100
AcDbEntity
  8
3-5
  6
Continuous
 62
     7
370
     9
100
AcDbLine
 10
1310.379375965637
 20
-175.6169328257808
 30
0.0
 11
1319.946461774764
 21
-152.5199445129986
 31
0.0
  0
LINE
  5
11B
330
1F
100
AcDbEntity
  8
3-5
  6
Continuous
 62
     7
370
     9
100
AcDbLine
 10
1310.379375965637
 20
-175.6169328257808
 30
0.0
 11
1325.598411690855
 21
-155.7830993184999
 31
0.0
  0
LINE
  5
11C
330
1F
100
AcDbEntity
  8
C-6
  6
Continuous
 62
     6
370
     9
100
AcDbLine
 10
-1350.906800147667
 20
-76.52400358742973
 30
0.0
 11
-1596.171143116474
 21
-76.52400358742973
 31
0.0
  0
LINE
  5
11D
330
1F
100
AcDbEntity
  8
C-6
  6
Continuous
 62
     6
370
     9
100
AcDbLine
 10
-1350.906800147667
 20
-149.5639832257141
 30
0.0
 11
-1456.342529707775
 21
-254.9997127858222
 31
0.0
  0
LINE
  5
11E
330
1F
100
AcDbEntity
  8
C-6
  6
Continuous
 62
     6
370
     9
100
AcDbLine
 10
-1350.906800147667
 20
-135.4218476019832
 30
0.0
 11
-1456.342529707775
 21
-240.8575771620912
 31
0.0
  0
LINE
  5
11F
330
1F
100
AcDbEntity
  8
C-6
  6
Continuous
 62
     6
370
     9
100
AcDbLine
 10
-1350.906800147667
 20
-121.2797119782523
 30
0.0
 11
-1456.342529707775
 21
-226.7154415383603
 31
0.0
  0
LINE
  5
120
330
1F
100
AcDbEntity
  8
C-6
  6
Continuous
 62
     6
370
     9
100
AcDbLine
 10
-1456.342529707775
 20
-329.7240035874296
 30
0.0
 11
-1456.342529707775
 21
-76.52400358742973
 31
0.0
  0
LINE
  5
121
330
1F
100
AcDbEntity
  8
C-6
  6
Continuous
 62
     6
370
     9
100
AcDbLine
 10
-1156.342529707775
 20
-329.7240035874296
 30
0.0
 11
-1156.342529707775
 21
-76.52400358742973
 31
0.0
  0
LINE
  5
122
330
1F
100
AcDbEntity
  8
C-6
  6
Continuous
 62
     6
370
     9
100
AcDbLine
 10
-1106.342529707775
 20
-429.7240035874296
 30
0.0
 11
-1106.342529707775
 21
-329.7240035874296
 31
0.0
  0
LINE
  5
123
330
1F
100
AcDbEntity
  8
C-6
  6
Continuous
 62
     6
370
     9
100
AcDbLine
 10
-1506.342529707775
 20
-329.7240035874296
 30
0.0
 11
-1106.342529707775
 21
-329.7240035874296
 31
0.0
  0
LINE
  5
124
330
1F
100
AcDbEntity
  8
C-6
  6
Continuous
 62
     6
370
     9
100
AcDbLine
 10
-1506.342529707775
 20
-429.7240035874296
 30
0.0
 11
-1506.342529707775
 21
-329.7240035874296
 31
0.0
  0
LINE
  5
125
330
1F
100
AcDbEntity
  8
C-6
  6
Continuous
 62
     6
370
     9
100
AcDbLine
 10
-1506.342529707775
 20
-429.7240035874296
 30
0.0
 11
-1106.342529707775
 21
-429.7240035874296
 31
0.0
  0
LINE
  5
126
330
1F
100
AcDbEntity
  8
C-6
  6
Continuous
 62
     6
370
     9
100
AcDbLine
 10
-1306.342529707775
 20
-329.7240035874296
 30
0.0
 11
-1333.137448950887
 21
-429.7240035874296
 31
0.0
  0
LINE
  5
127
330
1F
100
AcDbEntity
  8
C-6
  6
Continuous
 62
     6
370
     9
100
AcDbLine
 10
-1320.088080137347
 20
-429.7240035874296
 30
0.0
 11
-1326.612764544117
 21
-405.3735498780117
 31
0.0
  0
LINE
  5
128
330
1F
100
AcDbEntity
  8
C-6
  6
Continuous
 62
     6
370
     9
100
AcDbLine
 10
-1319.391898521315
 20
-329.7240035874296
 30
0.0
 11
-1312.867214114545
 21
-354.0744572968478
 31
0.0
  0
LINE
  5
129
330
1F
100
AcDbEntity
  8
C-6
  6
Continuous
 62
     6
370
     9
100
AcDbLine
 10
-1356.342529707775
 20
-329.7240035874296
 30
0.0
 11
-1383.137448950887
 21
-429.7240035874296
 31
0.0
  0
LINE
  5
12A
330
1F
100
AcDbEntity
  8
C-6
  6
Continuous
 62
     6
370
     9
100
AcDbLine
 10
-1370.088080137347
 20
-429.7240035874296
 30
0.0
 11
-1376.612764544117
 21
-405.3735498780117
 31
0.0
  0
LINE
  5
12B
330
1F
100
AcDbEntity
  8
C-6
  6
Continuous
 62
     6
370
     9
100
AcDbLine
 10
-1369.391898521315
 20
-329.7240035874296
 30
0.0
 11
-1362.867214114545
 21
-354.0744572968478
 31
0.0
  0
LINE
  5
12C
330
1F
100
AcDbEntity
  8
C-6
  6
Continuous
 62
     6
370
     9
100
AcDbLine
 10
-1406.342529707775
 20
-329.7240035874296
 30
0.0
 11
-1433.137448950887
 21
-429.7240035874296
 31
0.0
  0
LINE
  5
12D
330
1F
100
AcDbEntity
  8
C-6
  6
Continuous
 62
     6
370
     9
100
AcDbLine
 10
-1420.088080137347
 20
-429.7240035874296
 30
0.0
 11
-1426.612764544117
 21
-405.3735498780117
 31
0.0
  0
LINE
  5
12E
330
1F
100
AcDbEntity
  8
C-6
  6
Continuous
 62
     6
370
     9
100
AcDbLine
 10
-1419.391898521315
 20
-329.7240035874296
 30
0.0
 11
-1412.867214114545
 21
-354.0744572968478
 31
0.0
  0
LINE
  5
12F
330
1F
100
AcDbEntity
  8
C-6
  6
Continuous
 62
     6
370
     9
100
AcDbLine
 10
-1456.342529707775
 20
-329.7240035874296
 30
0.0
 11
-1483.137448950887
 21
-429.7240035874296
 31
0.0
  0
LINE
  5
130
330
1F
100
AcDbEntity
  8
C-6
  6
Continuous
 62
     6
370
     9
100
AcDbLine
 10
-1470.088080137347
 20
-429.7240035874296
 30
0.0
 11
-1476.612764544117
 21
-405.3735498780117
 31
0.0
  0
LINE
  5
131
330
1F
100
AcDbEntity
  8
C-6
  6
Continuous
 62
     6
370
     9
100
AcDbLine
 10
-1469.391898521314
 20
-329.7240035874296
 30
0.0
 11
-1462.867214114545
 21
-354.0744572968478
 31
0.0
  0
LINE
  5
132
330
1F
100
AcDbEntity
  8
C-6
  6
Continuous
 62
     6
370
     9
100
AcDbLine
 10
-1256.342529707775
 20
-329.7240035874296
 30
0.0
 11
-1283.137448950887
 21
-429.7240035874296
 31
0.0
  0
LINE
  5
133
330
1F
100
AcDbEntity
  8
C-6
  6
Continuous
 62
     6
370
     9
100
AcDbLine
 10
-1270.088080137347
 20
-429.7240035874296
 30
0.0
 11
-1276.612764544117
 21
-405.3735498780117
 31
0.0
  0
LINE
  5
134
330
1F
100
AcDbEntity
  8
C-6
  6
Continuous
 62
     6
370
     9
100
AcDbLine
 10
-1269.391898521315
 20
-329.7240035874296
 30
0.0
 11
-1262.867214114545
 21
-354.0744572968478
 31
0.0
  0
LINE
  5
135
330
1F
100
AcDbEntity
  8
C-6
  6
Continuous
 62
     6
370
     9
100
AcDbLine
 10
-1206.342529707775
 20
-329.7240035874296
 30
0.0
 11
-1233.137448950887
 21
-429.7240035874296
 31
0.0
  0
LINE
  5
136
330
1F
100
AcDbEntity
  8
C-6
  6
Continuous
 62
     6
370
     9
100
AcDbLine
 10
-1220.088080137347
 20
-429.7240035874296
 30
0.0
 11
-1226.612764544117
 21
-405.3735498780117
 31
0.0
  0
LINE
  5
137
330
1F
100
AcDbEntity
  8
C-6
  6
Continuous
 62
     6
370
     9
100
AcDbLine
 10
-1219.391898521315
 20
-329.7240035874296
 30
0.0
 11
-1212.867214114545
 21
-354.0744572968478
 31
0.0
  0
LINE
  5
138
330
1F
100
AcDbEntity
  8
C-6
  6
Continuous
 62
     6
370
     9
100
AcDbLine
 10
-1156.342529707775
 20
-329.7240035874296
 30
0.0
 11
-1183.137448950887
 21
-429.7240035874296
 31
0.0
  0
LINE
  5
139
330
1F
100
AcDbEntity
  8
C-6
  6
Continuous
 62
     6
370
     9
100
AcDbLine
 10
-1170.088080137347
 20
-429.7240035874296
 30
0.0
 11
-1176.612764544117
 21
-405.3735498780117
 31
0.0
  0
LINE
  5
13A
330
1F
100
AcDbEntity
  8
C-6
  6
Continuous
 62
     6
370
     9
100
AcDbLine
 10
-1169.391898521315
 20
-329.7240035874296
 30
0.0
 11
-1162.867214114545
 21
-354.0744572968478
 31
0.0
  0
LINE
  5
13B
330
1F
100
AcDbEntity
  8
C-6
  6
Continuous
 62
     6
370
     9
100
AcDbLine
 10
-1106.342529707775
 20
-329.7240035874296
 30
0.0
 11
-1133.137448950887
 21
-429.7240035874296
 31
0.0
  0
LINE
  5
13C
330
1F
100
AcDbEntity
  8
C-6
  6
Continuous
 62
     6
370
     9
100
AcDbLine
 10
-1120.088080137347
 20
-429.7240035874296
 30
0.0
 11
-1126.612764544117
 21
-405.3735498780117
 31
0.0
  0
LINE
  5
13D
330
1F
100
AcDbEntity
  8
C-6
  6
Continuous
 62
     6
370
     9
100
AcDbLine
 10
-1119.391898521315
 20
-329.7240035874296
 30
0.0
 11
-1112.867214114545
 21
-354.0744572968478
 31
0.0
  0
LINE
  5
13E
330
1F
100
AcDbEntity
  8
C-6
  6
Continuous
 62
     6
370
     9
100
AcDbLine
 10
-1230.970084746695
 20
-76.52400358742973
 30
0.0
 11
-955.3223871953485
 21
-76.52400358742973
 31
0.0
  0
LINE
  5
13F
330
1F
100
AcDbEntity
  8
C-6
  6
Continuous
 62
     6
370
     9
100
AcDbLine
 10
-1156.342529707775
 20
-125.5966031207506
 30
0.0
 11
-1261.778259267883
 21
-231.0323326808584
 31
0.0
  0
LINE
  5
140
330
1F
100
AcDbEntity
  8
C-6
  6
Continuous
 62
     6
370
     9
100
AcDbLine
 10
-1156.342529707775
 20
-139.7387387444816
 30
0.0
 11
-1261.778259267883
 21
-245.1744683045892
 31
0.0
  0
LINE
  5
141
330
1F
100
AcDbEntity
  8
C-6
  6
Continuous
 62
     6
370
     9
100
AcDbLine
 10
-1156.342529707775
 20
-153.8808743682125
 30
0.0
 11
-1261.778259267883
 21
-259.3166039283204
 31
0.0
  0
LINE
  5
142
330
1F
100
AcDbEntity
  8
C-6
  6
Continuous
 62
     6
370
     9
100
AcDbLine
 10
-44.56427043989208
 20
-76.52400358742973
 30
0.0
 11
-289.8286134086987
 21
-76.52400358742973
 31
0.0
  0
LINE
  5
143
330
1F
100
AcDbEntity
  8
C-6
  6
Continuous
 62
     6
370
     9
100
AcDbLine
 10
-44.56427043989208
 20
-149.5639832257141
 30
0.0
 11
-150.0
 21
-254.9997127858222
 31
0.0
  0
LINE
  5
144
330
1F
100
AcDbEntity
  8
C-6
  6
Continuous
 62
     6
370
     9
100
AcDbLine
 10
-44.56427043989208
 20
-135.4218476019832
 30
0.0
 11
-150.0
 21
-240.8575771620912
 31
0.0
  0
LINE
  5
145
330
1F
100
AcDbEntity
  8
C-6
  6
Continuous
 62
     6
370
     9
100
AcDbLine
 10
-44.56427043989208
 20
-121.2797119782523
 30
0.0
 11
-150.0
 21
-226.7154415383603
 31
0.0
  0
LINE
  5
146
330
1F
100
AcDbEntity
  8
C-6
  6
Continuous
 62
     6
370
     9
100
AcDbLine
 10
-150.0
 20
-329.7240035874296
 30
0.0
 11
-150.0
 21
-76.52400358742973
 31
0.0
  0
LINE
  5
147
330
1F
100
AcDbEntity
  8
C-6
  6
Continuous
 62
     6
370
     9
100
AcDbLine
 10
149.9999999999999
 20
-329.7240035874296
 30
0.0
 11
149.9999999999999
 21
-76.52400358742973
 31
0.0
  0
LINE
  5
148
330
1F
100
AcDbEntity
  8
C-6
  6
Continuous
 62
     6
370
     9
100
AcDbLine
 10
199.9999999999999
 20
-429.7240035874296
 30
0.0
 11
199.9999999999999
 21
-329.7240035874296
 31
0.0
  0
LINE
  5
149
330
1F
100
AcDbEntity
  8
C-6
  6
Continuous
 62
     6
370
     9
100
AcDbLine
 10
-200.0
 20
-329.7240035874296
 30
0.0
 11
200.0
 21
-329.7240035874296
 31
0.0
  0
LINE
  5
14A
330
1F
100
AcDbEntity
  8
C-6
  6
Continuous
 62
     6
370
     9
100
AcDbLine
 10
-200.0
 20
-429.7240035874296
 30
0.0
 11
-200.0
 21
-329.7240035874296
 31
0.0
  0
LINE
  5
14B
330
1F
100
AcDbEntity
  8
C-6
  6
Continuous
 62
     6
370
     9
100
AcDbLine
 10
-200.0
 20
-429.7240035874296
 30
0.0
 11
200.0
 21
-429.7240035874296
 31
0.0
  0
LINE
  5
14C
330
1F
100
AcDbEntity
  8
C-6
  6
Continuous
 62
     6
370
     9
100
AcDbLine
 10
0.0
 20
-329.7240035874296
 30
0.0
 11
-26.79491924311236
 21
-429.7240035874296
 31
0.0
  0
LINE
  5
14D
330
1F
100
AcDbEntity
  8
C-6
  6
Continuous
 62
     6
370
     9
100
AcDbLine
 10
-13.7455504295724
 20
-429.7240035874296
 30
0.0
 11
-20.27023483634252
 21
-405.3735498780117
 31
0.0
  0
LINE
  5
14E
330
1F
100
AcDbEntity
  8
C-6
  6
Continuous
 62
     6
370
     9
100
AcDbLine
 10
-13.04936881354024
 20
-329.7240035874296
 30
0.0
 11
-6.52468440677012
 21
-354.0744572968478
 31
0.0
  0
LINE
  5
14F
330
1F
100
AcDbEntity
  8
C-6
  6
Continuous
 62
     6
370
     9
100
AcDbLine
 10
-50.0
 20
-329.7240035874296
 30
0.0
 11
-76.79491924311236
 21
-429.7240035874296
 31
0.0
  0
LINE
  5
150
330
1F
100
AcDbEntity
  8
C-6
  6
Continuous
 62
     6
370
     9
100
AcDbLine
 10
-63.7455504295724
 20
-429.7240035874296
 30
0.0
 11
-70.27023483634252
 21
-405.3735498780117
 31
0.0
  0
LINE
  5
151
330
1F
100
AcDbEntity
  8
C-6
  6
Continuous
 62
     6
370
     9
100
AcDbLine
 10
-63.04936881354024
 20
-329.7240035874296
 30
0.0
 11
-56.52468440677012
 21
-354.0744572968478
 31
0.0
  0
LINE
  5
152
330
1F
100
AcDbEntity
  8
C-6
  6
Continuous
 62
     6
370
     9
100
AcDbLine
 10
-100.0
 20
-329.7240035874296
 30
0.0
 11
-126.7949192431124
 21
-429.7240035874296
 31
0.0
  0
LINE
  5
153
330
1F
100
AcDbEntity
  8
C-6
  6
Continuous
 62
     6
370
     9
100
AcDbLine
 10
-113.7455504295724
 20
-429.7240035874296
 30
0.0
 11
-120.2702348363425
 21
-405.3735498780117
 31
0.0
  0
LINE
  5
154
330
1F
100
AcDbEntity
  8
C-6
  6
Continuous
 62
     6
370
     9
100
AcDbLine
 10
-113.0493688135402
 20
-329.7240035874296
 30
0.0
 11
-106.5246844067701
 21
-354.0744572968478
 31
0.0
  0
LINE
  5
155
330
1F
100
AcDbEntity
  8
C-6
  6
Continuous
 62
     6
370
     9
100
AcDbLine
 10
-150.0
 20
-329.7240035874296
 30
0.0
 11
-176.7949192431121
 21
-429.7240035874296
 31
0.0
  0
LINE
  5
156
330
1F
100
AcDbEntity
  8
C-6
  6
Continuous
 62
     6
370
     9
100
AcDbLine
 10
-163.7455504295724
 20
-429.7240035874296
 30
0.0
 11
-170.270234836342
 21
-405.3735498780117
 31
0.0
  0
LINE
  5
157
330
1F
100
AcDbEntity
  8
C-6
  6
Continuous
 62
     6
370
     9
100
AcDbLine
 10
-163.0493688135397
 20
-329.7240035874296
 30
0.0
 11
-156.5246844067701
 21
-354.0744572968478
 31
0.0
  0
LINE
  5
158
330
1F
100
AcDbEntity
  8
C-6
  6
Continuous
 62
     6
370
     9
100
AcDbLine
 10
49.99999999999986
 20
-329.7240035874296
 30
0.0
 11
23.20508075688764
 21
-429.7240035874296
 31
0.0
  0
LINE
  5
159
330
1F
100
AcDbEntity
  8
C-6
  6
Continuous
 62
     6
370
     9
100
AcDbLine
 10
36.2544495704276
 20
-429.7240035874296
 30
0.0
 11
29.72976516365748
 21
-405.3735498780117
 31
0.0
  0
LINE
  5
15A
330
1F
100
AcDbEntity
  8
C-6
  6
Continuous
 62
     6
370
     9
100
AcDbLine
 10
36.95063118645976
 20
-329.7240035874296
 30
0.0
 11
43.47531559322988
 21
-354.0744572968478
 31
0.0
  0
LINE
  5
15B
330
1F
100
AcDbEntity
  8
C-6
  6
Continuous
 62
     6
370
     9
100
AcDbLine
 10
99.99999999999986
 20
-329.7240035874296
 30
0.0
 11
73.20508075688764
 21
-429.7240035874296
 31
0.0
  0
LINE
  5
15C
330
1F
100
AcDbEntity
  8
C-6
  6
Continuous
 62
     6
370
     9
100
AcDbLine
 10
86.2544495704276
 20
-429.7240035874296
 30
0.0
 11
79.72976516365748
 21
-405.3735498780117
 31
0.0
  0
LINE
  5
15D
330
1F
100
AcDbEntity
  8
C-6
  6
Continuous
 62
     6
370
     9
100
AcDbLine
 10
86.9506311864599
 20
-329.7240035874296
 30
0.0
 11
93.47531559323002
 21
-354.0744572968478
 31
0.0
  0
LINE
  5
15E
330
1F
100
AcDbEntity
  8
C-6
  6
Continuous
 62
     6
370
     9
100
AcDbLine
 10
149.9999999999999
 20
-329.7240035874296
 30
0.0
 11
123.2050807568876
 21
-429.7240035874296
 31
0.0
  0
LINE
  5
15F
330
1F
100
AcDbEntity
  8
C-6
  6
Continuous
 62
     6
370
     9
100
AcDbLine
 10
136.2544495704276
 20
-429.7240035874296
 30
0.0
 11
129.7297651636575
 21
-405.3735498780117
 31
0.0
  0
LINE
  5
160
330
1F
100
AcDbEntity
  8
C-6
  6
Continuous
 62
     6
370
     9
100
AcDbLine
 10
136.9506311864599
 20
-329.7240035874296
 30
0.0
 11
143.47531559323
 21
-354.0744572968478
 31
0.0
  0
LINE
  5
161
330
1F
100
AcDbEntity
  8
C-6
  6
Continuous
 62
     6
370
     9
100
AcDbLine
 10
199.9999999999999
 20
-329.7240035874296
 30
0.0
 11
173.2050807568876
 21
-429.7240035874296
 31
0.0
  0
LINE
  5
162
330
1F
100
AcDbEntity
  8
C-6
  6
Continuous
 62
     6
370
     9
100
AcDbLine
 10
186.2544495704276
 20
-429.7240035874296
 30
0.0
 11
179.7297651636575
 21
-405.3735498780117
 31
0.0
  0
LINE
  5
163
330
1F
100
AcDbEntity
  8
C-6
  6
Continuous
 62
     6
370
     9
100
AcDbLine
 10
186.9506311864599
 20
-329.7240035874296
 30
0.0
 11
193.47531559323
 21
-354.0744572968478
 31
0.0
  0
LINE
  5
164
330
1F
100
AcDbEntity
  8
C-6
  6
Continuous
 62
     6
370
     9
100
AcDbLine
 10
149.9999999999999
 20
-125.5966031207506
 30
0.0
 11
44.56427043989208
 21
-231.0323326808584
 31
0.0
  0
LINE
  5
165
330
1F
100
AcDbEntity
  8
C-6
  6
Continuous
 62
     6
370
     9
100
AcDbLine
 10
149.9999999999999
 20
-139.7387387444816
 30
0.0
 11
44.56427043989208
 21
-245.1744683045892
 31
0.0
  0
LINE
  5
166
330
1F
100
AcDbEntity
  8
C-6
  6
Continuous
 62
     6
370
     9
100
AcDbLine
 10
149.9999999999999
 20
-153.8808743682125
 30
0.0
 11
44.56427043989208
 21
-259.3166039283204
 31
0.0
  0
LINE
  5
167
330
1F
100
AcDbEntity
  8
C-6
  6
Continuous
 62
     6
370
     9
100
AcDbLine
 10
44.56427043989208
 20
-76.52400358742973
 30
0.0
 11
351.0201425124262
 21
-76.52400358742973
 31
0.0
  0
LINE
  5
168
330
1F
100
AcDbEntity
  8
C-2
  6
JWW_DASHED1
 62
     3
370
     9
100
AcDbLine
 10
-1268.192381573801
 20
-76.52402932132406
 30
0.0
 11
-1268.192381573801
 21
-326.5242355211768
 31
0.0
  0
LINE
  5
169
330
1F
100
AcDbEntity
  8
C-2
  6
JWW_DASHED1
 62
     3
370
     9
100
AcDbLine
 10
-1344.492677841748
 20
-76.52402932132404
 30
0.0
 11
-1344.492677841748
 21
-326.5242355211767
 31
0.0
  0
LINE
  5
16A
330
1F
100
AcDbEntity
  8
C-2
  6
JWW_DASHED1
 62
     3
370
     9
100
AcDbLine
 10
38.15014813397383
 20
-76.52402932132406
 30
0.0
 11
38.15014813397383
 21
-326.5242355211768
 31
0.0
  0
LINE
  5
16B
330
1F
100
AcDbEntity
  8
C-2
  6
JWW_DASHED1
 62
     3
370
     9
100
AcDbLine
 10
-38.15014813397369
 20
-76.52402932132404
 30
0.0
 11
-38.15014813397369
 21
-326.5242355211767
 31
0.0
  0
LINE
  5
16C
330
1F
100
AcDbEntity
  8
C-1
  6
Continuous
 62
     2
370
     9
100
AcDbLine
 10
-1350.906800147667
 20
-76.52402932132406
 30
0.0
 11
-1261.778259267883
 21
-76.52402932132406
 31
0.0
  0
LINE
  5
16D
330
1F
100
AcDbEntity
  8
C-1
  6
Continuous
 62
     4
370
     9
100
AcDbLine
 10
-1258.096927790836
 20
20.76553264720152
 30
0.0
 11
-1241.382950165433
 21
-74.02414479324133
 31
0.0
  0
LINE
  5
16E
330
1F
100
AcDbEntity
  8
C-1
  6
Continuous
 62
     2
370
     9
100
AcDbLine
 10
-1256.342488467804
 20
-326.5242355211768
 30
0.0
 11
-1356.342447227834
 21
-326.5237406415312
 31
0.0
  0
LINE
  5
16F
330
1F
100
AcDbEntity
  8
C-1
  6
Continuous
 62
     2
370
     9
100
AcDbLine
 10
-1356.342447227834
 20
-326.5237406415312
 30
0.0
 11
-1356.342447227834
 21
-329.7238798676715
 31
0.0
  0
LINE
  5
170
330
1F
100
AcDbEntity
  8
C-1
  6
Continuous
 62
     2
370
     9
100
AcDbLine
 10
-1256.342488467804
 20
-326.5242355211768
 30
0.0
 11
-1256.342488467804
 21
-329.7241273074939
 31
0.0
  0
LINE
  5
171
330
1F
100
AcDbEntity
  8
C-1
  6
Continuous
 62
     2
370
     9
100
AcDbLine
 10
-1318.342618786111
 20
-326.5239880813538
 30
0.0
 11
-1318.342618786111
 21
-329.7238798676715
 31
0.0
  0
LINE
  5
172
330
1F
100
AcDbEntity
  8
C-1
  6
JWW_DASHED1
 62
     2
370
     9
100
AcDbLine
 10
-1265.792586453974
 20
-76.52402932132406
 30
0.0
 11
-1265.792586453974
 21
-326.5242355211768
 31
0.0
  0
LINE
  5
173
330
1F
100
AcDbEntity
  8
C-1
  6
JWW_DASHED1
 62
     2
370
     9
100
AcDbLine
 10
-1346.892472961575
 20
-76.52402932132404
 30
0.0
 11
-1346.892472961575
 21
-326.5242355211767
 31
0.0
  0
ARC
  5
174
330
1F
100
AcDbEntity
  8
C-1
  6
Continuous
 62
     2
370
     9
100
AcDbCircle
 10
-1234.092575896541
 20
-77.22403657955903
 30
0.0
 40
3.199999557959067
100
AcDbArc
 50
0.0
 51
90.0
  0
CIRCLE
  5
175
330
1F
100
AcDbEntity
  8
C-1
  6
Continuous
 62
     4
370
     9
100
AcDbCircle
 10
-1247.892665964637
 20
-82.02412169885797
 30
0.0
 40
2.7
  0
LINE
  5
176
330
1F
100
AcDbEntity
  8
C-1
  6
Continuous
 62
     4
370
     9
100
AcDbLine
 10
-1259.007061719029
 20
12.68198653635364
 30
0.0
 11
-1265.049587649124
 21
6.63946060625964
 31
0.0
  0
LINE
  5
177
330
1F
100
AcDbEntity
  8
C-1
  6
Continuous
 62
     4
370
     9
100
AcDbLine
 10
-1245.741277181141
 20
-62.55201613634166
 30
0.0
 11
-1253.486059793217
 21
-58.94056469358468
 31
0.0
  0
LINE
  5
178
330
1F
100
AcDbEntity
  8
C-1
  6
Continuous
 62
     4
370
     9
100
AcDbLine
 10
-1265.049587649124
 20
6.63946060625964
 30
0.0
 11
-1264.966764265059
 21
6.169745853976156
 31
0.0
  0
LINE
  5
179
330
1F
100
AcDbEntity
  8
C-1
  6
Continuous
 62
     4
370
     9
100
AcDbLine
 10
-1264.966764265059
 20
6.169745853976156
 30
0.0
 11
-1253.486059793217
 21
-58.94056469358468
 31
0.0
  0
LINE
  5
17A
330
1F
100
AcDbEntity
  8
C-1
  6
Continuous
 62
     4
370
     9
100
AcDbLine
 10
-1258.096927790836
 20
20.76553264720154
 30
0.0
 11
-1260.361985622764
 21
20.36614183856756
 31
0.0
  0
LINE
  5
17B
330
1F
100
AcDbEntity
  8
C-1
  6
Continuous
 62
     2
370
     9
100
AcDbLine
 10
-1268.192381573801
 20
-74.0241447932413
 30
0.0
 11
-1234.092575896541
 21
-74.0241447932413
 31
0.0
  0
LINE
  5
17C
330
1F
100
AcDbEntity
  8
C-1
  6
Continuous
 62
     4
370
     9
100
AcDbLine
 10
-1260.361985622764
 20
20.36614183856756
 30
0.0
 11
-1243.71843137277
 21
-74.0241447932413
 31
0.0
  0
LINE
  5
17D
330
1F
100
AcDbEntity
  8
C-1
  6
Continuous
 62
     2
370
     9
100
AcDbLine
 10
-1294.342440629439
 20
-326.5239880813539
 30
0.0
 11
-1294.342440629439
 21
-329.7238798676716
 31
0.0
  0
LINE
  5
17E
330
1F
100
AcDbEntity
  8
C-1
  6
Continuous
 62
     2
370
     9
100
AcDbLine
 10
-1350.906800147667
 20
-76.52402932132406
 30
0.0
 11
-1350.906800147667
 21
-326.5242355211768
 31
0.0
  0
LINE
  5
17F
330
1F
100
AcDbEntity
  8
C-1
  6
Continuous
 62
     2
370
     9
100
AcDbLine
 10
-1261.778259267883
 20
-76.52402932132406
 30
0.0
 11
-1261.778259267883
 21
-326.5242355211768
 31
0.0
  0
LINE
  5
180
330
1F
100
AcDbEntity
  8
C-1
  6
Continuous
 62
     4
370
     9
100
AcDbLine
 10
-1242.121295445478
 20
-69.83678062992163
 30
0.0
 11
-1244.386353277406
 21
-70.23617143855559
 31
0.0
  0
LINE
  5
181
330
1F
100
AcDbEntity
  8
C-1
  6
Continuous
 62
     2
370
     9
100
AcDbLine
 10
-1234.066313246359
 20
-99.02397983335952
 30
0.0
 11
-1261.778259267883
 21
-99.02397983335952
 31
0.0
  0
ARC
  5
182
330
1F
100
AcDbEntity
  8
C-1
  6
Continuous
 62
     2
370
     9
100
AcDbCircle
 10
-1234.092575896541
 20
-95.8240880470418
 30
0.0
 40
3.199999557959066
100
AcDbArc
 50
270.4702362859036
 51
359.5297637134759
  0
LINE
  5
183
330
1F
100
AcDbEntity
  8
C-1
  6
Continuous
 62
     2
370
     9
100
AcDbLine
 10
-1230.892684110224
 20
-95.85035069725882
 30
0.0
 11
-1230.892684110224
 21
-77.22403657955903
 31
0.0
  0
LINE
  5
184
330
1F
100
AcDbEntity
  8
C-1
  6
Continuous
 62
     2
370
     9
100
AcDbLine
 10
50.00004123997044
 20
-326.5242355211768
 30
0.0
 11
-49.99991752005911
 21
-326.5237406415312
 31
0.0
  0
LINE
  5
185
330
1F
100
AcDbEntity
  8
C-1
  6
Continuous
 62
     2
370
     9
100
AcDbLine
 10
-49.99991752005911
 20
-326.5237406415312
 30
0.0
 11
-49.99991752005911
 21
-329.7238798676715
 31
0.0
  0
LINE
  5
186
330
1F
100
AcDbEntity
  8
C-1
  6
Continuous
 62
     2
370
     9
100
AcDbLine
 10
50.00004123997044
 20
-326.5242355211768
 30
0.0
 11
50.00004123997044
 21
-329.7241273074939
 31
0.0
  0
LINE
  5
187
330
1F
100
AcDbEntity
  8
C-1
  6
Continuous
 62
     2
370
     9
100
AcDbLine
 10
-12.0000890783362
 20
-326.5239880813538
 30
0.0
 11
-12.0000890783362
 21
-329.7238798676715
 31
0.0
  0
LINE
  5
188
330
1F
100
AcDbEntity
  8
C-1
  6
JWW_DASHED1
 62
     2
370
     9
100
AcDbLine
 10
40.54994325380065
 20
-76.52402932132406
 30
0.0
 11
40.54994325380065
 21
-326.5242355211768
 31
0.0
  0
LINE
  5
189
330
1F
100
AcDbEntity
  8
C-1
  6
JWW_DASHED1
 62
     2
370
     9
100
AcDbLine
 10
-40.54994325380051
 20
-76.52402932132404
 30
0.0
 11
-40.54994325380051
 21
-326.5242355211767
 31
0.0
  0
LINE
  5
18A
330
1F
100
AcDbEntity
  8
C-1
  6
Continuous
 62
     2
370
     9
100
AcDbLine
 10
12.0000890783362
 20
-326.5239880813539
 30
0.0
 11
12.0000890783362
 21
-329.7238798676716
 31
0.0
  0
LINE
  5
18B
330
1F
100
AcDbEntity
  8
C-1
  6
Continuous
 62
     2
370
     9
100
AcDbLine
 10
-44.56427043989208
 20
-76.52402932132406
 30
0.0
 11
-44.56427043989208
 21
-326.5242355211768
 31
0.0
  0
LINE
  5
18C
330
1F
100
AcDbEntity
  8
C-1
  6
Continuous
 62
     2
370
     9
100
AcDbLine
 10
44.56427043989208
 20
-76.52402932132406
 30
0.0
 11
44.56427043989208
 21
-326.5242355211768
 31
0.0
  0
LINE
  5
18D
330
1F
100
AcDbEntity
  8
C-1
  6
Continuous
 62
     2
370
     9
100
AcDbLine
 10
16.3
 20
-99.02397983335952
 30
0.0
 11
-16.3
 21
-99.02397983335952
 31
0.0
  0
LINE
  5
18E
330
1F
100
AcDbEntity
  8
C-1
  6
Continuous
 62
     2
370
     9
100
AcDbLine
 10
-44.56427043989208
 20
-76.52402932132406
 30
0.0
 11
-16.3
 21
-76.52402932132406
 31
0.0
  0
LINE
  5
18F
330
1F
100
AcDbEntity
  8
C-1
  6
Continuous
 62
     2
370
     9
100
AcDbLine
 10
16.3
 20
-76.52402932132406
 30
0.0
 11
44.56427043989208
 21
-76.52402932132406
 31
0.0
  0
LINE
  5
190
330
1F
100
AcDbEntity
  8
C-1
  6
Continuous
 62
     2
370
     9
100
AcDbLine
 10
-16.3
 20
-74.0241447932413
 30
0.0
 11
-16.3
 21
-99.02397983335952
 31
0.0
  0
LINE
  5
191
330
1F
100
AcDbEntity
  8
C-1
  6
Continuous
 62
     2
370
     9
100
AcDbLine
 10
-16.3
 20
-74.0241447932413
 30
0.0
 11
16.3
 21
-74.0241447932413
 31
0.0
  0
LINE
  5
192
330
1F
100
AcDbEntity
  8
C-1
  6
Continuous
 62
     2
370
     9
100
AcDbLine
 10
16.3
 20
-74.0241447932413
 30
0.0
 11
16.3
 21
-99.02397983335959
 31
0.0
  0
ELLIPSE
  5
193
330
1F
100
AcDbEntity
  8
C-1
  6
Continuous
 62
     4
370
     9
100
AcDbEllipse
 10
0.0
 20
-24.49846735279849
 30
0.0
 11
46.0
 21
0.0
 31
0.0
210
0.0
220
0.0
230
1.0
 40
0.9840000000000002
 41
0.0
 42
6.283185307179586
  0
ELLIPSE
  5
194
330
1F
100
AcDbEntity
  8
C-1
  6
Continuous
 62
     4
370
     9
100
AcDbEllipse
 10
0.0
 20
-24.49846735279849
 30
0.0
 11
37.0
 21
0.0
 31
0.0
210
0.0
220
0.0
230
1.0
 40
0.9839999999999999
 41
0.0
 42
6.283185307179586
  0
ELLIPSE
  5
195
330
1F
100
AcDbEntity
  8
C-1
  6
Continuous
 62
     4
370
     9
100
AcDbEllipse
 10
0.0
 20
-24.49846735279849
 30
0.0
 11
32.8188905893372
 21
0.0
 31
0.0
210
0.0
220
0.0
230
1.0
 40
0.984
 41
0.0
 42
6.283185307179586
  0
LINE
  5
196
330
1F
100
AcDbEntity
  8
C-1
  6
Continuous
 62
     4
370
     9
100
AcDbLine
 10
-15.0
 20
-67.2883270861512
 30
0.0
 11
-15.0
 21
-74.0241447932413
 31
0.0
  0
LINE
  5
197
330
1F
100
AcDbEntity
  8
C-1
  6
Continuous
 62
     4
370
     9
100
AcDbLine
 10
15.0
 20
-67.2883270861512
 30
0.0
 11
15.0
 21
-74.0241447932413
 31
0.0
  0
LINE
  5
198
330
1F
100
AcDbEntity
  8
3-2
  6
Continuous
 62
     3
370
     9
100
AcDbLine
 10
1265.518183731052
 20
-46.65422712611658
 30
0.0
 11
1265.518183731052
 21
-436.3422204615645
 31
0.0
  0
LINE
  5
199
330
1F
100
AcDbEntity
  8
3-2
  6
Continuous
 62
     3
370
     9
100
AcDbLine
 10
1011.183862837895
 20
-46.65422712611658
 30
0.0
 11
1011.183862837895
 21
-436.3422204615645
 31
0.0
  0
LINE
  5
19A
330
1F
100
AcDbEntity
  8
3-1
  6
Continuous
 62
     2
370
     9
100
AcDbLine
 10
1389.850508609642
 20
-500.7632917146566
 30
0.0
 11
1389.850508609642
 21
-438.6755779890143
 31
0.0
  0
CIRCLE
  5
19B
330
1F
100
AcDbEntity
  8
3-1
  6
Continuous
 62
     4
370
     9
100
AcDbCircle
 10
1333.183902428266
 20
-454.6758617200109
 30
0.0
 40
9.0
  0
LINE
  5
19C
330
1F
100
AcDbEntity
  8
3-1
  6
Continuous
 62
     4
370
     9
100
AcDbLine
 10
1296.135916580291
 20
-138.9888342693055
 30
0.0
 11
1275.994163479977
 21
-159.1305873696189
 31
0.0
  0
LINE
  5
19D
330
1F
100
AcDbEntity
  8
3-1
  6
Continuous
 62
     4
370
     9
100
AcDbLine
 10
1340.355198373254
 20
-389.7688431782896
 30
0.0
 11
1314.539256332998
 21
-377.7306717024331
 31
0.0
  0
LINE
  5
19E
330
1F
100
AcDbEntity
  8
3-1
  6
Continuous
 62
     4
370
     9
100
AcDbLine
 10
1275.994163479977
 20
-159.1305873696189
 30
0.0
 11
1276.270241426858
 21
-160.6963032105638
 31
0.0
  0
LINE
  5
19F
330
1F
100
AcDbEntity
  8
3-1
  6
Continuous
 62
     4
370
     9
100
AcDbLine
 10
1276.270241426858
 20
-160.6963032105638
 30
0.0
 11
1314.539256332998
 21
-377.7306717024331
 31
0.0
  0
LINE
  5
1A0
330
1F
100
AcDbEntity
  8
3-1
  6
Continuous
 62
     4
370
     9
100
AcDbLine
 10
1352.421804158796
 20
-414.0513914902229
 30
0.0
 11
1344.871611385702
 21
-415.3826941856695
 31
0.0
  0
LINE
  5
1A1
330
1F
100
AcDbEntity
  8
3-1
  6
Continuous
 62
     2
370
     9
100
AcDbLine
 10
1286.898591417446
 20
-436.3422204615645
 30
0.0
 11
1286.898591417446
 21
-608.9169700436037
 31
0.0
  0
LINE
  5
1A2
330
1F
100
AcDbEntity
  8
3-1
  6
Continuous
 62
     2
370
     9
100
AcDbLine
 10
989.8034551514996
 20
-436.3422204615645
 30
0.0
 11
989.8034551514996
 21
-608.9169700436037
 31
0.0
  0
ARC
  5
1A3
330
1F
100
AcDbEntity
  8
3-1
  6
Continuous
 62
     2
370
     9
100
AcDbCircle
 10
1379.184202655251
 20
-500.6757495472903
 30
0.0
 40
10.66666519319688
100
AcDbArc
 50
270.4702362858387
 51
359.5297637136032
  0
LINE
  5
1A4
330
1F
100
AcDbEntity
  8
3-1
  6
Continuous
 62
     2
370
     9
100
AcDbLine
 10
1379.271744822513
 20
-511.3420555016828
 30
0.0
 11
1286.898591417446
 21
-511.3420555016828
 31
0.0
  0
LINE
  5
1A5
330
1F
100
AcDbEntity
  8
3-1
  6
Continuous
 62
     4
370
     9
100
AcDbLine
 10
1299.169696340937
 20
-112.0436805664792
 30
0.0
 11
1291.619503567843
 21
-113.3749832619257
 31
0.0
  0
ARC
  5
1A6
330
1F
100
AcDbEntity
  8
3-1
  6
JWW_PHANTOM1
 62
     4
370
     9
100
AcDbCircle
 10
1333.183902428266
 20
-454.6758617200109
 30
0.0
 40
343.8224671089557
100
AcDbArc
 50
95.66312890485254
 51
176.9437869049903
  0
LINE
  5
1A7
330
1F
100
AcDbEntity
  8
3-1
  6
JWW_PHANTOM1
 62
     4
370
     9
100
AcDbLine
 10
989.8034551514996
 20
-428.6755537948976
 30
0.0
 11
1310.643325168471
 21
-428.6755537948976
 31
0.0
  0
LINE
  5
1A8
330
1F
100
AcDbEntity
  8
3-1
  6
JWW_PHANTOM1
 62
     4
370
     9
100
AcDbLine
 10
989.8034551514996
 20
-428.6755537948977
 30
0.0
 11
989.8034551514996
 21
-436.3422204615645
 31
0.0
  0
ARC
  5
1A9
330
1F
100
AcDbEntity
  8
3-1
  6
Continuous
 62
     2
370
     9
100
AcDbCircle
 10
1379.096660487988
 20
-439.3418597492901
 30
0.0
 40
10.66666519319688
100
AcDbArc
 50
0.4702362863966728
 51
89.52976371415978
  0
LINE
  5
1AA
330
1F
100
AcDbEntity
  8
3-1
  6
Continuous
 62
     2
370
     9
100
AcDbLine
 10
1265.518183731052
 20
-428.6755537948976
 30
0.0
 11
1379.184202655251
 21
-428.6755537948976
 31
0.0
  0
LINE
  5
1AB
330
1F
100
AcDbEntity
  8
3-1
  6
Continuous
 62
     2
370
     9
100
AcDbLine
 10
989.8034551514996
 20
-436.3422204615645
 30
0.0
 11
1286.898591417446
 21
-436.3422204615645
 31
0.0
  0
LINE
  5
1AC
330
1F
100
AcDbEntity
  8
3-1
  6
JWW_PHANTOM1
 62
     4
370
     9
100
AcDbLine
 10
989.8034551514996
 20
-436.3422204615647
 30
0.0
 11
1286.898591417446
 21
-436.3422204615647
 31
0.0
  0
LINE
  5
1AD
330
1F
100
AcDbEntity
  8
3-1
  6
Continuous
 62
     4
370
     9
100
AcDbLine
 10
1291.619503567843
 20
-113.3749832619257
 30
0.0
 11
1347.215501185578
 21
-428.6755537948977
 31
0.0
  0
LINE
  5
1AE
330
1F
100
AcDbEntity
  8
3-4
  6
Continuous
 62
     7
370
     9
100
AcDbLine
 10
1265.517688798046
 20
673.0159839576033
 30
0.0
 11
1188.807852453268
 21
673.0159839576033
 31
0.0
  0
LINE
  5
1AF
330
1F
100
AcDbEntity
  8
C-5
  6
Continuous
 62
     7
370
     9
100
AcDbLine
 10
-1261.779676759823
 20
-180.6734911839101
 30
0.0
 11
-1246.607902693191
 21
-160.8034818313443
 31
0.0
  0
LINE
  5
1B0
330
1F
100
AcDbEntity
  8
C-5
  6
Continuous
 62
     7
370
     9
100
AcDbLine
 10
-1261.779676759823
 20
-180.6734911839101
 30
0.0
 11
-1252.26760520505
 21
-157.5537919052242
 31
0.0
  0
LINE
  5
1B1
330
1F
100
AcDbEntity
  8
C-5
  6
Continuous
 62
     7
370
     9
100
AcDbLine
 10
-1261.779676759823
 20
-180.6734911839101
 30
0.0
 11
-1095.484872927319
 21
108.9477158718843
 31
0.0
  0
TEXT
  5
1B2
330
1F
100
AcDbEntity
  8
C-5
  6
Continuous
 62
     7
370
     9
100
AcDbText
 10
-1089.773180416414
 20
122.5825291903154
 30
0.0
 40
22.86
  1
脱着用埋設管
 41
1.138888888888889
  7
ＭＳ ゴシック
100
AcDbText
  0
TEXT
  5
1B3
330
1F
100
AcDbEntity
  8
C-5
  6
Continuous
 62
     7
370
     9
100
AcDbText
 10
-1089.773180416414
 20
73.27756465130838
 30
0.0
 40
22.86
  1
蓋：SPHC　溶融亜鉛めっき
 41
1.152777777777778
  7
ＭＳ ゴシック
100
AcDbText
  0
TEXT
  5
1B4
330
1F
100
AcDbEntity
  8
C-5
  6
Continuous
 62
     7
370
     9
100
AcDbText
 10
-1089.773180416414
 20
36.96196181442835
 30
0.0
 40
22.86
  1
埋設管本体：SGP　溶融亜鉛めっき
 41
1.155913978494624
  7
ＭＳ ゴシック
100
AcDbText
  0
LINE
  5
1B5
330
1F
100
AcDbEntity
  8
C-5
  6
Continuous
 62
     7
370
     9
100
AcDbLine
 10
-548.7017422116603
 20
108.9477158718844
 30
0.0
 11
-1095.484872927319
 21
108.9477158718844
 31
0.0
  0
ARC
  5
1B6
330
1F
100
AcDbEntity
  8
C-1
  6
Continuous
 62
     4
370
     9
100
AcDbCircle
 10
0.0000000000000011
 20
-8.734467352798477
 30
0.0
 40
7.0
100
AcDbArc
 50
90.0
 51
180.0
  0
LINE
  5
1B7
330
1F
100
AcDbEntity
  8
C-1
  6
Continuous
 62
     4
370
     9
100
AcDbLine
 10
-7.0
 20
-12.73446735279848
 30
0.0
 11
-7.0
 21
-8.734467352798479
 31
0.0
  0
ARC
  5
1B8
330
1F
100
AcDbEntity
  8
C-1
  6
Continuous
 62
     4
370
     9
100
AcDbCircle
 10
0.0000000000000011
 20
-12.73446735279848
 30
0.0
 40
7.0
100
AcDbArc
 50
180.0
 51
270.0
  0
ARC
  5
1B9
330
1F
100
AcDbEntity
  8
C-1
  6
Continuous
 62
     4
370
     9
100
AcDbCircle
 10
0.0
 20
-12.73446735279848
 30
0.0
 40
7.0
100
AcDbArc
 50
270.0
 51
0.0
  0
LINE
  5
1BA
330
1F
100
AcDbEntity
  8
C-1
  6
Continuous
 62
     4
370
     9
100
AcDbLine
 10
7.0
 20
-8.734467352798479
 30
0.0
 11
7.0
 21
-12.73446735279848
 31
0.0
  0
ARC
  5
1BB
330
1F
100
AcDbEntity
  8
C-1
  6
Continuous
 62
     4
370
     9
100
AcDbCircle
 10
-0.0000000000000022
 20
-8.734467352798477
 30
0.0
 40
7.0
100
AcDbArc
 50
0.0
 51
90.00000000000001
  0
TEXT
  5
1BC
330
1F
100
AcDbEntity
  8
3-5
  6
Continuous
 62
     2
370
     9
100
AcDbText
 10
804.738594388852
 20
-766.1978649189188
 30
0.0
 40
30.48
  1
埋設管蓋部　詳細図　Ｓ＝１：３
 41
1.116666666666666
  7
ＭＳ ゴシック
100
AcDbText
  0
LINE
  5
1BD
330
1F
100
AcDbEntity
  8
3-5
  6
Continuous
 62
     7
370
     9
100
AcDbLine
 10
788.7789282186516
 20
-716.8378649189186
 30
0.0
 11
788.7789282186516
 21
-786.8378649189186
 31
0.0
  0
LINE
  5
1BE
330
1F
100
AcDbEntity
  8
3-5
  6
Continuous
 62
     7
370
     9
100
AcDbLine
 10
1487.923118350294
 20
-716.8378649189186
 30
0.0
 11
1487.923118350294
 21
-786.8378649189186
 31
0.0
  0
LINE
  5
1BF
330
1F
100
AcDbEntity
  8
3-5
  6
Continuous
 62
     7
370
     9
100
AcDbLine
 10
788.7789282186516
 20
-716.8378649189186
 30
0.0
 11
1487.923118350294
 21
-716.8378649189186
 31
0.0
  0
LINE
  5
1C0
330
1F
100
AcDbEntity
  8
3-5
  6
Continuous
 62
     7
370
     9
100
AcDbLine
 10
788.7789282186516
 20
-786.8378649189186
 30
0.0
 11
1487.923118350294
 21
-786.8378649189186
 31
0.0
  0
TEXT
  5
1C1
330
1F
100
AcDbEntity
  8
F-5ﾚｲﾔ
  6
Continuous
 62
     2
370
     0
100
AcDbText
 10
-778.5003505397486
 20
-1370.637217473965
 30
0.0
 40
30.48
  1
脱着式　スチール製蓋　片フック付　ＥＡ０７８５ＲＥ－Ｄ
 41
0.899074074074074
  7
ＭＳ ゴシック
100
AcDbText
  0
ENDSEC
  0
SECTION
  2
OBJECTS
  0
DICTIONARY
  5
C
330
0
100
AcDbDictionary
281
     1
  3
ACAD_DETAILVIEWSTYLE
350
1C9
  3
ACAD_GROUP
350
D
  3
ACAD_LAYOUT
350
1A
  3
ACAD_MATERIAL
350
43
  3
ACAD_MLEADERSTYLE
350
6B
  3
ACAD_MLINESTYLE
350
17
  3
ACAD_PLOTSETTINGS
350
19
  3
ACAD_PLOTSTYLENAME
350
E
  3
ACAD_SCALELIST
350
47
  3
ACAD_SECTIONVIEWSTYLE
350
1CA
  3
ACAD_TABLESTYLE
350
69
  3
ACAD_VISUALSTYLE
350
2A
  3
ACDB_RECOMPOSE_DATA
350
1C6
  3
AcDbVariableDictionary
350
1C2
  0
SUN
  5
6D
330
29
100
AcDbSun
 90
        1
290
     0
 63
     7
421
 16777215
 40
1.0
291
     1
 91
  2455826
 92
 54000000
292
     0
 70
     2
 71
   256
280
     1
  0
DICTIONARY
  5
1C9
102
{ACAD_REACTORS
330
C
102
}
330
C
100
AcDbDictionary
281
     1
  0
DICTIONARY
  5
D
102
{ACAD_REACTORS
330
C
102
}
330
C
100
AcDbDictionary
281
     1
  0
DICTIONARY
  5
1A
102
{ACAD_REACTORS
330
C
102
}
330
C
100
AcDbDictionary
281
     1
  3
Layout1
350
1E
  3
Layout2
350
26
  3
Model
350
22
  0
DICTIONARY
  5
43
102
{ACAD_REACTORS
330
C
102
}
330
C
100
AcDbDictionary
281
     1
  3
ByBlock
350
45
  3
ByLayer
350
44
  3
Global
350
46
  0
DICTIONARY
  5
6B
102
{ACAD_REACTORS
330
C
102
}
330
C
100
AcDbDictionary
281
     1
  3
Standard
350
6C
  0
DICTIONARY
  5
17
102
{ACAD_REACTORS
330
C
102
}
330
C
100
AcDbDictionary
281
     1
  3
Standard
350
18
  0
DICTIONARY
  5
19
102
{ACAD_REACTORS
330
C
102
}
330
C
100
AcDbDictionary
281
     1
  0
ACDBDICTIONARYWDFLT
  5
E
102
{ACAD_REACTORS
330
C
102
}
330
C
100
AcDbDictionary
281
     1
  3
Normal
350
F
100
AcDbDictionaryWithDefault
340
F
  0
DICTIONARY
  5
47
102
{ACAD_REACTORS
330
C
102
}
330
C
100
AcDbDictionary
281
     1
  3
A0
350
48
  3
A1
350
49
  3
A2
350
4A
  3
A3
350
4B
  3
A4
350
4C
  3
A5
350
4D
  3
A6
350
4E
  3
A7
350
4F
  3
A8
350
50
  3
A9
350
51
  3
B0
350
52
  3
B1
350
53
  3
B2
350
54
  3
B3
350
55
  3
B4
350
56
  3
B5
350
57
  3
B6
350
58
  3
B7
350
59
  3
B8
350
5A
  3
B9
350
5B
  3
C0
350
5C
  3
C1
350
5D
  3
C2
350
5E
  3
C3
350
5F
  3
C4
350
60
  3
C5
350
61
  3
C6
350
62
  3
C7
350
63
  3
C8
350
64
  3
C9
350
65
  3
D0
350
66
  3
D1
350
67
  3
D2
350
68
  0
DICTIONARY
  5
1CA
102
{ACAD_REACTORS
330
C
102
}
330
C
100
AcDbDictionary
281
     1
  0
DICTIONARY
  5
69
102
{ACAD_REACTORS
330
C
102
}
330
C
100
AcDbDictionary
281
     1
  3
Standard
350
6A
  0
DICTIONARY
  5
2A
102
{ACAD_REACTORS
330
C
102
}
330
C
100
AcDbDictionary
281
     1
  3
2dWireframe
350
2F
  3
Basic
350
32
  3
Brighten
350
36
  3
ColorChange
350
3A
  3
Conceptual
350
34
  3
Dim
350
35
  3
EdgeColorOff
350
3D
  3
Facepattern
350
39
  3
Flat
350
2B
  3
FlatWithEdges
350
2C
  3
Gouraud
350
2D
  3
GouraudWithEdges
350
2E
  3
Hidden
350
31
  3
JitterOff
350
3B
  3
Linepattern
350
38
  3
OverhangOff
350
3C
  3
Realistic
350
33
  3
Shaded
350
42
  3
Shaded with edges
350
41
  3
Shades of Gray
350
3E
  3
Sketchy
350
3F
  3
Thicken
350
37
  3
Wireframe
350
30
  3
X-Ray
350
40
  0
XRECORD
  5
1C6
102
{ACAD_REACTORS
330
C
102
}
330
C
100
AcDbXrecord
280
     1
 90
        1
330
6A
  0
DICTIONARY
  5
1C2
102
{ACAD_REACTORS
330
C
102
}
330
C
100
AcDbDictionary
281
     1
  3
CANNOSCALE
350
1C3
  3
CENTEREXE
350
1CB
  3
CENTERLTYPEFILE
350
1CC
  3
CMLEADERSTYLE
350
1C8
  3
CTABLESTYLE
350
1C7
  0
LAYOUT
  5
1E
102
{ACAD_REACTORS
330
1A
102
}
330
1A
100
AcDbPlotSettings
  1

  2
none_device
  4

  6

 40
0.0
 41
0.0
 42
0.0
 43
0.0
 44
0.0
 45
0.0
 46
0.0
 47
0.0
 48
0.0
 49
0.0
140
0.0
141
0.0
142
1.0
143
1.0
 70
   688
 72
     1
 73
     0
 74
     5
  7

 75
    16
 76
     0
 77
     5
 78
   300
147
1.0
148
0.0
149
0.0
100
AcDbLayout
  1
Layout1
 70
     1
 71
     1
 10
0.0
 20
0.0
 11
420.0
 21
297.0
 12
0.0
 22
0.0
 32
0.0
 14
1.000000000000000E+20
 24
1.000000000000000E+20
 34
1.000000000000000E+20
 15
-1.000000000000000E+20
 25
-1.000000000000000E+20
 35
-1.000000000000000E+20
146
0.0
 13
0.0
 23
0.0
 33
0.0
 16
1.0
 26
0.0
 36
0.0
 17
0.0
 27
1.0
 37
0.0
 76
     0
330
1B
  0
LAYOUT
  5
26
102
{ACAD_REACTORS
330
1A
102
}
330
1A
100
AcDbPlotSettings
  1

  2
none_device
  4

  6

 40
0.0
 41
0.0
 42
0.0
 43
0.0
 44
0.0
 45
0.0
 46
0.0
 47
0.0
 48
0.0
 49
0.0
140
0.0
141
0.0
142
1.0
143
1.0
 70
   688
 72
     1
 73
     0
 74
     5
  7

 75
    16
 76
     0
 77
     5
 78
   300
147
1.0
148
0.0
149
0.0
100
AcDbLayout
  1
Layout2
 70
     1
 71
     2
 10
0.0
 20
0.0
 11
0.0
 21
0.0
 12
0.0
 22
0.0
 32
0.0
 14
0.0
 24
0.0
 34
0.0
 15
0.0
 25
0.0
 35
0.0
146
0.0
 13
0.0
 23
0.0
 33
0.0
 16
1.0
 26
0.0
 36
0.0
 17
0.0
 27
1.0
 37
0.0
 76
     0
330
23
  0
LAYOUT
  5
22
102
{ACAD_REACTORS
330
1A
102
}
330
1A
100
AcDbPlotSettings
  1

  2
none_device
  4
Letter_(8.50_x_11.00_Inches)
  6

 40
6.35
 41
6.35
 42
6.35000508
 43
6.35000508
 44
215.9
 45
279.4
 46
0.0
 47
0.0
 48
0.0
 49
0.0
140
0.0
141
0.0
142
1.0
143
1.0
 70
  1712
 72
     1
 73
     0
 74
     0
  7

 75
     0
 76
     0
 77
     5
 78
   300
147
1.0
148
0.0
149
0.0
100
AcDbLayout
  1
Model
 70
     1
 71
     0
 10
-2100.0
 20
-1485.0
 11
2100.0
 21
1485.0
 12
0.0
 22
0.0
 32
0.0
 14
-2100.0
 24
-1485.0
 34
0.0
 15
2100.0
 25
1485.0
 35
0.0
146
0.0
 13
0.0
 23
0.0
 33
0.0
 16
1.0
 26
0.0
 36
0.0
 17
0.0
 27
1.0
 37
0.0
 76
     0
330
1F
331
29
  0
MATERIAL
  5
45
102
{ACAD_REACTORS
330
43
102
}
330
43
100
AcDbMaterial
  1
ByBlock
 72
     1
 94
      127
  0
MATERIAL
  5
44
102
{ACAD_REACTORS
330
43
102
}
330
43
100
AcDbMaterial
  1
ByLayer
 72
     1
 94
      127
  0
MATERIAL
  5
46
102
{ACAD_REACTORS
330
43
102
}
330
43
100
AcDbMaterial
  1
Global
 72
     1
 94
      127
  0
MLEADERSTYLE
  5
6C
102
{ACAD_REACTORS
330
6B
102
}
330
6B
100
AcDbMLeaderStyle
179
     2
170
     2
171
     1
172
     0
 90
        2
 40
0.0
 41
0.0
173
     1
 91
-1056964608
340
14
 92
       -2
290
     1
 42
2.0
291
     1
 43
8.0
  3
Standard
341
0
 44
4.0
300

342
11
174
     1
178
     6
175
     1
176
     0
 93
-1056964608
 45
4.0
292
     0
297
     0
 46
4.0
343
0
 94
-1056964608
 47
1.0
 49
1.0
140
1.0
293
     1
141
0.0
294
     1
177
     0
142
1.0
295
     0
296
     0
143
3.75
271
     0
272
     9
273
     9
298
     0
  0
MLINESTYLE
  5
18
102
{ACAD_REACTORS
330
17
102
}
330
17
100
AcDbMlineStyle
  2
Standard
 70
     0
  3

 62
   256
 51
90.0
 52
90.0
 71
     2
 49
0.5
 62
   256
  6
BYLAYER
 49
-0.5
 62
   256
  6
BYLAYER
  0
ACDBPLACEHOLDER
  5
F
102
{ACAD_REACTORS
330
E
102
}
330
E
  0
SCALE
  5
48
102
{ACAD_REACTORS
330
47
102
}
330
47
100
AcDbScale
 70
     0
300
1:1
140
1.0
141
1.0
290
     1
  0
SCALE
  5
49
102
{ACAD_REACTORS
330
47
102
}
330
47
100
AcDbScale
 70
     0
300
1:2
140
1.0
141
2.0
290
     0
  0
SCALE
  5
4A
102
{ACAD_REACTORS
330
47
102
}
330
47
100
AcDbScale
 70
     0
300
1:4
140
1.0
141
4.0
290
     0
  0
SCALE
  5
4B
102
{ACAD_REACTORS
330
47
102
}
330
47
100
AcDbScale
 70
     0
300
1:5
140
1.0
141
5.0
290
     0
  0
SCALE
  5
4C
102
{ACAD_REACTORS
330
47
102
}
330
47
100
AcDbScale
 70
     0
300
1:8
140
1.0
141
8.0
290
     0
  0
SCALE
  5
4D
102
{ACAD_REACTORS
330
47
102
}
330
47
100
AcDbScale
 70
     0
300
1:10
140
1.0
141
10.0
290
     0
  0
SCALE
  5
4E
102
{ACAD_REACTORS
330
47
102
}
330
47
100
AcDbScale
 70
     0
300
1:16
140
1.0
141
16.0
290
     0
  0
SCALE
  5
4F
102
{ACAD_REACTORS
330
47
102
}
330
47
100
AcDbScale
 70
     0
300
1:20
140
1.0
141
20.0
290
     0
  0
SCALE
  5
50
102
{ACAD_REACTORS
330
47
102
}
330
47
100
AcDbScale
 70
     0
300
1:30
140
1.0
141
30.0
290
     0
  0
SCALE
  5
51
102
{ACAD_REACTORS
330
47
102
}
330
47
100
AcDbScale
 70
     0
300
1:40
140
1.0
141
40.0
290
     0
  0
SCALE
  5
52
102
{ACAD_REACTORS
330
47
102
}
330
47
100
AcDbScale
 70
     0
300
1:50
140
1.0
141
50.0
290
     0
  0
SCALE
  5
53
102
{ACAD_REACTORS
330
47
102
}
330
47
100
AcDbScale
 70
     0
300
1:100
140
1.0
141
100.0
290
     0
  0
SCALE
  5
54
102
{ACAD_REACTORS
330
47
102
}
330
47
100
AcDbScale
 70
     0
300
2:1
140
2.0
141
1.0
290
     0
  0
SCALE
  5
55
102
{ACAD_REACTORS
330
47
102
}
330
47
100
AcDbScale
 70
     0
300
4:1
140
4.0
141
1.0
290
     0
  0
SCALE
  5
56
102
{ACAD_REACTORS
330
47
102
}
330
47
100
AcDbScale
 70
     0
300
8:1
140
8.0
141
1.0
290
     0
  0
SCALE
  5
57
102
{ACAD_REACTORS
330
47
102
}
330
47
100
AcDbScale
 70
     0
300
10:1
140
10.0
141
1.0
290
     0
  0
SCALE
  5
58
102
{ACAD_REACTORS
330
47
102
}
330
47
100
AcDbScale
 70
     0
300
100:1
140
100.0
141
1.0
290
     0
  0
SCALE
  5
59
102
{ACAD_REACTORS
330
47
102
}
330
47
100
AcDbScale
 70
     0
300
1/128" = 1'-0"
140
0.0078125
141
12.0
290
     0
  0
SCALE
  5
5A
102
{ACAD_REACTORS
330
47
102
}
330
47
100
AcDbScale
 70
     0
300
1/64" = 1'-0"
140
0.015625
141
12.0
290
     0
  0
SCALE
  5
5B
102
{ACAD_REACTORS
330
47
102
}
330
47
100
AcDbScale
 70
     0
300
1/32" = 1'-0"
140
0.03125
141
12.0
290
     0
  0
SCALE
  5
5C
102
{ACAD_REACTORS
330
47
102
}
330
47
100
AcDbScale
 70
     0
300
1/16" = 1'-0"
140
0.0625
141
12.0
290
     0
  0
SCALE
  5
5D
102
{ACAD_REACTORS
330
47
102
}
330
47
100
AcDbScale
 70
     0
300
3/32" = 1'-0"
140
0.09375
141
12.0
290
     0
  0
SCALE
  5
5E
102
{ACAD_REACTORS
330
47
102
}
330
47
100
AcDbScale
 70
     0
300
1/8" = 1'-0"
140
0.125
141
12.0
290
     0
  0
SCALE
  5
5F
102
{ACAD_REACTORS
330
47
102
}
330
47
100
AcDbScale
 70
     0
300
3/16" = 1'-0"
140
0.1875
141
12.0
290
     0
  0
SCALE
  5
60
102
{ACAD_REACTORS
330
47
102
}
330
47
100
AcDbScale
 70
     0
300
1/4" = 1'-0"
140
0.25
141
12.0
290
     0
  0
SCALE
  5
61
102
{ACAD_REACTORS
330
47
102
}
330
47
100
AcDbScale
 70
     0
300
3/8" = 1'-0"
140
0.375
141
12.0
290
     0
  0
SCALE
  5
62
102
{ACAD_REACTORS
330
47
102
}
330
47
100
AcDbScale
 70
     0
300
1/2" = 1'-0"
140
0.5
141
12.0
290
     0
  0
SCALE
  5
63
102
{ACAD_REACTORS
330
47
102
}
330
47
100
AcDbScale
 70
     0
300
3/4" = 1'-0"
140
0.75
141
12.0
290
     0
  0
SCALE
  5
64
102
{ACAD_REACTORS
330
47
102
}
330
47
100
AcDbScale
 70
     0
300
1" = 1'-0"
140
1.0
141
12.0
290
     0
  0
SCALE
  5
65
102
{ACAD_REACTORS
330
47
102
}
330
47
100
AcDbScale
 70
     0
300
1-1/2" = 1'-0"
140
1.5
141
12.0
290
     0
  0
SCALE
  5
66
102
{ACAD_REACTORS
330
47
102
}
330
47
100
AcDbScale
 70
     0
300
3" = 1'-0"
140
3.0
141
12.0
290
     0
  0
SCALE
  5
67
102
{ACAD_REACTORS
330
47
102
}
330
47
100
AcDbScale
 70
     0
300
6" = 1'-0"
140
6.0
141
12.0
290
     0
  0
SCALE
  5
68
102
{ACAD_REACTORS
330
47
102
}
330
47
100
AcDbScale
 70
     0
300
1'-0" = 1'-0"
140
12.0
141
12.0
290
     0
  0
TABLESTYLE
  5
6A
102
{ACAD_REACTORS
330
69
102
}
102
{ACAD_XDICTIONARY
360
1C4
102
}
330
69
100
AcDbTableStyle
  3
Standard
 70
     0
 71
     0
 40
0.06
 41
0.06
280
     0
281
     0
  7
Standard
140
4.5
170
     2
 62
     0
 63
   257
283
     0
 90
        4
 91
        0
  1

274
    -2
284
     1
 64
     0
275
    -2
285
     1
 65
     0
276
    -2
286
     1
 66
     0
277
    -2
287
     1
 67
     0
278
    -2
288
     1
 68
     0
279
    -2
289
     1
 69
     0
  7
Standard
140
6.0
170
     5
 62
     0
 63
   257
283
     0
 90
        4
 91
        0
  1

274
    -2
284
     1
 64
     0
275
    -2
285
     1
 65
     0
276
    -2
286
     1
 66
     0
277
    -2
287
     1
 67
     0
278
    -2
288
     1
 68
     0
279
    -2
289
     1
 69
     0
  7
Standard
140
4.5
170
     5
 62
     0
 63
   257
283
     0
 90
        4
 91
        0
  1

274
    -2
284
     1
 64
     0
275
    -2
285
     1
 65
     0
276
    -2
286
     1
 66
     0
277
    -2
287
     1
 67
     0
278
    -2
288
     1
 68
     0
279
    -2
289
     1
 69
     0
  0
VISUALSTYLE
  5
2F
102
{ACAD_REACTORS
330
2A
102
}
330
2A
100
AcDbVisualStyle
  2
2dWireframe
 70
     4
177
     3
291
     0
 70
    58
 90
        0
176
     1
 90
        2
176
     1
 90
        0
176
     1
 90
        0
176
     1
 40
0.6
176
     1
 40
30.0
176
     1
 62
     7
420
 16777215
176
     1
 90
        1
176
     1
 90
        4
176
     1
 62
     7
176
     1
 62
   257
176
     1
 90
        1
176
     1
 90
        1
176
     1
 40
1.0
176
     1
 90
        0
176
     1
 62
   257
176
     1
 40
1.0
176
     1
 90
        1
176
     1
 90
        6
176
     1
 90
        2
176
     1
 62
     7
176
     1
 90
        5
176
     1
 90
        0
176
     1
 90
        0
176
     1
290
     0
176
     1
 90
        1
176
     1
 40
0.0
176
     1
 90
        0
176
     1
290
     1
176
     1
290
     1
176
     1
290
     0
176
     1
290
     0
176
     1
290
     0
176
     1
290
     0
176
     1
290
     0
176
     1
290
     0
176
     1
290
     0
176
     1
 90
       50
176
     1
 40
0.0
176
     1
 40
1.0
176
     1
 90
        0
176
     1
 62
    18
420
        0
176
     1
 90
       50
176
     1
 90
        3
176
     1
 62
     5
420
      255
176
     1
290
     0
176
     1
 90
       50
176
     1
 90
       50
176
     1
 90
       50
176
     1
290
     0
176
     1
 90
       50
176
     1
 62
   256
176
     0
 40
1.0
176
     0
 90
        2
176
     1
  1
strokes_ogs.tif
176
     1
290
     0
176
     1
 40
1.0
176
     1
 40
1.0
176
     1
  0
VISUALSTYLE
  5
32
102
{ACAD_REACTORS
330
2A
102
}
330
2A
100
AcDbVisualStyle
  2
Basic
 70
     7
177
     3
291
     1
 70
    58
 90
        1
176
     1
 90
        0
176
     1
 90
        1
176
     1
 90
        0
176
     1
 40
0.6
176
     1
 40
30.0
176
     1
 62
     7
420
 16777215
176
     1
 90
        0
176
     1
 90
        4
176
     1
 62
     7
176
     1
 62
   257
176
     1
 90
        1
176
     1
 90
        1
176
     1
 40
1.0
176
     1
 90
        8
176
     1
 62
     7
176
     1
 40
1.0
176
     1
 90
        1
176
     1
 90
        6
176
     1
 90
        2
176
     1
 62
     7
176
     1
 90
        5
176
     1
 90
        0
176
     1
 90
        0
176
     1
290
     0
176
     1
 90
        1
176
     1
 40
0.0
176
     1
 90
        0
176
     1
290
     0
176
     1
290
     1
176
     1
290
     1
176
     1
290
     0
176
     1
290
     0
176
     1
290
     0
176
     1
290
     0
176
     1
290
     0
176
     1
290
     0
176
     1
 90
       50
176
     1
 40
0.0
176
     1
 40
1.0
176
     1
 90
        0
176
     1
 62
    18
420
        0
176
     1
 90
       50
176
     1
 90
        3
176
     1
 62
     5
420
      255
176
     1
290
     0
176
     1
 90
       50
176
     1
 90
       50
176
     1
 90
       50
176
     1
290
     0
176
     1
 90
       50
176
     1
 62
   256
176
     0
 40
1.0
176
     0
 90
        2
176
     1
  1
strokes_ogs.tif
176
     1
290
     0
176
     1
 40
1.0
176
     1
 40
1.0
176
     1
  0
VISUALSTYLE
  5
36
102
{ACAD_REACTORS
330
2A
102
}
330
2A
100
AcDbVisualStyle
  2
Brighten
 70
    12
177
     3
291
     1
 70
    58
 90
        2
176
     1
 90
        2
176
     1
 90
        0
176
     1
 90
        0
176
     1
 40
0.6
176
     1
 40
30.0
176
     1
 62
     7
420
 16777215
176
     1
 90
        1
176
     1
 90
        4
176
     1
 62
     7
176
     1
 62
   257
176
     1
 90
        1
176
     1
 90
        1
176
     1
 40
1.0
176
     1
 90
        8
176
     1
 62
     7
176
     1
 40
1.0
176
     1
 90
        1
176
     1
 90
        6
176
     1
 90
        2
176
     1
 62
     7
176
     1
 90
        5
176
     1
 90
        0
176
     1
 90
        0
176
     1
290
     0
176
     1
 90
        1
176
     1
 40
50.0
176
     1
 90
        0
176
     1
290
     0
176
     1
290
     1
176
     1
290
     1
176
     1
290
     0
176
     1
290
     0
176
     1
290
     0
176
     1
290
     0
176
     1
290
     0
176
     1
290
     0
176
     1
 90
       50
176
     1
 40
0.0
176
     1
 40
1.0
176
     1
 90
        0
176
     1
 62
    18
420
        0
176
     1
 90
       50
176
     1
 90
        3
176
     1
 62
     5
420
      255
176
     1
290
     0
176
     1
 90
       50
176
     1
 90
       50
176
     1
 90
       50
176
     1
290
     0
176
     1
 90
       50
176
     1
 62
   256
176
     0
 40
1.0
176
     0
 90
        2
176
     1
  1
strokes_ogs.tif
176
     1
290
     0
176
     1
 40
1.0
176
     1
 40
1.0
176
     1
  0
VISUALSTYLE
  5
3A
102
{ACAD_REACTORS
330
2A
102
}
330
2A
100
AcDbVisualStyle
  2
ColorChange
 70
    16
177
     3
291
     1
 70
    58
 90
        2
176
     1
 90
        2
176
     1
 90
        3
176
     1
 90
        0
176
     1
 40
0.6
176
     1
 40
30.0
176
     1
 62
     8
420
  8421504
176
     1
 90
        1
176
     1
 90
        4
176
     1
 62
     7
176
     1
 62
   257
176
     1
 90
        1
176
     1
 90
        1
176
     1
 40
1.0
176
     1
 90
        8
176
     1
 62
     8
420
  8421504
176
     1
 40
1.0
176
     1
 90
        1
176
     1
 90
        6
176
     1
 90
        2
176
     1
 62
     7
176
     1
 90
        5
176
     1
 90
        0
176
     1
 90
        0
176
     1
290
     0
176
     1
 90
        1
176
     1
 40
0.0
176
     1
 90
        0
176
     1
290
     0
176
     1
290
     1
176
     1
290
     1
176
     1
290
     0
176
     1
290
     0
176
     1
290
     0
176
     1
290
     0
176
     1
290
     0
176
     1
290
     0
176
     1
 90
       50
176
     1
 40
0.0
176
     1
 40
1.0
176
     1
 90
        0
176
     1
 62
    18
420
        0
176
     1
 90
       50
176
     1
 90
        3
176
     1
 62
     5
420
      255
176
     1
290
     0
176
     1
 90
       50
176
     1
 90
       50
176
     1
 90
       50
176
     1
290
     0
176
     1
 90
       50
176
     1
 62
   256
176
     0
 40
1.0
176
     0
 90
        2
176
     1
  1
strokes_ogs.tif
176
     1
290
     0
176
     1
 40
1.0
176
     1
 40
1.0
176
     1
  0
VISUALSTYLE
  5
34
102
{ACAD_REACTORS
330
2A
102
}
330
2A
100
AcDbVisualStyle
  2
Conceptual
 70
     9
177
     3
291
     0
 70
    58
 90
        3
176
     1
 90
        2
176
     1
 90
        0
176
     1
 90
        0
176
     1
 40
0.6
176
     1
 40
30.0
176
     1
 62
     7
420
 16777215
176
     1
 90
        2
176
     1
 90
        2
176
     1
 62
     7
176
     1
 62
   257
176
     1
 90
        1
176
     1
 90
        1
176
     1
 40
179.0
176
     1
 90
        8
176
     1
 62
     7
176
     1
 40
1.0
176
     1
 90
        1
176
     1
 90
        6
176
     1
 90
        2
176
     1
 62
     7
176
     1
 90
        3
176
     1
 90
        0
176
     1
 90
        0
176
     1
290
     0
176
     1
 90
        1
176
     1
 40
0.0
176
     1
 90
        0
176
     1
290
     0
176
     1
290
     1
176
     1
290
     1
176
     1
290
     0
176
     1
290
     0
176
     1
290
     0
176
     1
290
     0
176
     1
290
     0
176
     1
290
     0
176
     1
 90
       50
176
     1
 40
0.0
176
     1
 40
1.0
176
     1
 90
        0
176
     1
 62
    18
420
        0
176
     1
 90
       50
176
     1
 90
        3
176
     1
 62
     5
420
      255
176
     1
290
     0
176
     1
 90
       50
176
     1
 90
       50
176
     1
 90
       50
176
     1
290
     0
176
     1
 90
       50
176
     1
 62
   256
176
     0
 40
1.0
176
     0
 90
        2
176
     1
  1
strokes_ogs.tif
176
     1
290
     0
176
     1
 40
1.0
176
     1
 40
1.0
176
     1
  0
VISUALSTYLE
  5
35
102
{ACAD_REACTORS
330
2A
102
}
330
2A
100
AcDbVisualStyle
  2
Dim
 70
    11
177
     3
291
     1
 70
    58
 90
        2
176
     1
 90
        2
176
     1
 90
        0
176
     1
 90
        0
176
     1
 40
0.6
176
     1
 40
30.0
176
     1
 62
     7
420
 16777215
176
     1
 90
        1
176
     1
 90
        4
176
     1
 62
     7
176
     1
 62
   257
176
     1
 90
        1
176
     1
 90
        1
176
     1
 40
1.0
176
     1
 90
        8
176
     1
 62
     7
176
     1
 40
1.0
176
     1
 90
        1
176
     1
 90
        6
176
     1
 90
        2
176
     1
 62
     7
176
     1
 90
        5
176
     1
 90
        0
176
     1
 90
        0
176
     1
290
     0
176
     1
 90
        1
176
     1
 40
-50.0
176
     1
 90
        0
176
     1
290
     0
176
     1
290
     1
176
     1
290
     1
176
     1
290
     0
176
     1
290
     0
176
     1
290
     0
176
     1
290
     0
176
     1
290
     0
176
     1
290
     0
176
     1
 90
       50
176
     1
 40
0.0
176
     1
 40
1.0
176
     1
 90
        0
176
     1
 62
    18
420
        0
176
     1
 90
       50
176
     1
 90
        3
176
     1
 62
     5
420
      255
176
     1
290
     0
176
     1
 90
       50
176
     1
 90
       50
176
     1
 90
       50
176
     1
290
     0
176
     1
 90
       50
176
     1
 62
   256
176
     0
 40
1.0
176
     0
 90
        2
176
     1
  1
strokes_ogs.tif
176
     1
290
     0
176
     1
 40
1.0
176
     1
 40
1.0
176
     1
  0
VISUALSTYLE
  5
3D
102
{ACAD_REACTORS
330
2A
102
}
330
2A
100
AcDbVisualStyle
  2
EdgeColorOff
 70
    22
177
     3
291
     1
 70
    58
 90
        2
176
     0
 90
        2
176
     0
 90
        0
176
     0
 90
        0
176
     0
 40
0.6
176
     0
 40
30.0
176
     0
 62
     7
420
 16777215
176
     0
 90
        1
176
     0
 90
        4
176
     0
 62
     7
176
     0
 62
   257
176
     0
 90
        1
176
     0
 90
        1
176
     0
 40
1.0
176
     0
 90
        8
176
     2
 62
     7
176
     0
 40
1.0
176
     0
 90
        1
176
     0
 90
        6
176
     0
 90
        2
176
     0
 62
     7
176
     0
 90
        5
176
     0
 90
        0
176
     0
 90
        0
176
     0
290
     0
176
     0
 90
        1
176
     0
 40
0.0
176
     0
 90
        0
176
     0
290
     0
176
     0
290
     1
176
     0
290
     1
176
     0
290
     0
176
     0
290
     0
176
     0
290
     0
176
     0
290
     0
176
     0
290
     0
176
     0
290
     0
176
     0
 90
       50
176
     0
 40
0.0
176
     0
 40
1.0
176
     0
 90
        0
176
     0
 62
    18
420
        0
176
     0
 90
       50
176
     0
 90
        3
176
     0
 62
     5
420
      255
176
     0
290
     0
176
     0
 90
       50
176
     0
 90
       50
176
     0
 90
       50
176
     0
290
     0
176
     0
 90
       50
176
     0
 62
   256
176
     0
 40
1.0
176
     0
 90
        2
176
     0
  1
strokes_ogs.tif
176
     0
290
     0
176
     0
 40
1.0
176
     0
 40
1.0
176
     0
  0
VISUALSTYLE
  5
39
102
{ACAD_REACTORS
330
2A
102
}
330
2A
100
AcDbVisualStyle
  2
Facepattern
 70
    15
177
     3
291
     1
 70
    58
 90
        2
176
     1
 90
        2
176
     1
 90
        0
176
     1
 90
        0
176
     1
 40
0.6
176
     1
 40
30.0
176
     1
 62
     7
420
 16777215
176
     1
 90
        1
176
     1
 90
        4
176
     1
 62
     7
176
     1
 62
   257
176
     1
 90
        1
176
     1
 90
        1
176
     1
 40
1.0
176
     1
 90
        8
176
     1
 62
     7
176
     1
 40
1.0
176
     1
 90
        1
176
     1
 90
        6
176
     1
 90
        2
176
     1
 62
     7
176
     1
 90
        5
176
     1
 90
        0
176
     1
 90
        0
176
     1
290
     0
176
     1
 90
        1
176
     1
 40
0.0
176
     1
 90
        0
176
     1
290
     0
176
     1
290
     1
176
     1
290
     1
176
     1
290
     0
176
     1
290
     0
176
     1
290
     0
176
     1
290
     0
176
     1
290
     0
176
     1
290
     0
176
     1
 90
       50
176
     1
 40
0.0
176
     1
 40
1.0
176
     1
 90
        0
176
     1
 62
    18
420
        0
176
     1
 90
       50
176
     1
 90
        3
176
     1
 62
     5
420
      255
176
     1
290
     0
176
     1
 90
       50
176
     1
 90
       50
176
     1
 90
       50
176
     1
290
     0
176
     1
 90
       50
176
     1
 62
   256
176
     0
 40
1.0
176
     0
 90
        2
176
     1
  1
strokes_ogs.tif
176
     1
290
     0
176
     1
 40
1.0
176
     1
 40
1.0
176
     1
  0
VISUALSTYLE
  5
2B
102
{ACAD_REACTORS
330
2A
102
}
330
2A
100
AcDbVisualStyle
  2
Flat
 70
     0
177
     3
291
     1
 70
    58
 90
        2
176
     1
 90
        1
176
     1
 90
        1
176
     1
 90
        2
176
     1
 40
0.6
176
     1
 40
30.0
176
     1
 62
     7
420
 16777215
176
     1
 90
        0
176
     1
 90
        0
176
     1
 62
     7
176
     1
 62
   257
176
     1
 90
        1
176
     1
 90
        1
176
     1
 40
1.0
176
     1
 90
        8
176
     1
 62
     7
176
     1
 40
1.0
176
     1
 90
        1
176
     1
 90
        6
176
     1
 90
        2
176
     1
 62
     7
176
     1
 90
        5
176
     1
 90
        0
176
     1
 90
        0
176
     1
290
     0
176
     1
 90
       13
176
     1
 40
0.0
176
     1
 90
        0
176
     1
290
     0
176
     1
290
     1
176
     1
290
     1
176
     1
290
     0
176
     1
290
     0
176
     1
290
     0
176
     1
290
     0
176
     1
290
     0
176
     1
290
     0
176
     1
 90
       50
176
     1
 40
0.0
176
     1
 40
1.0
176
     1
 90
        0
176
     1
 62
    18
420
        0
176
     1
 90
       50
176
     1
 90
        3
176
     1
 62
     5
420
      255
176
     1
290
     0
176
     1
 90
       50
176
     1
 90
       50
176
     1
 90
       50
176
     1
290
     0
176
     1
 90
       50
176
     1
 62
   256
176
     0
 40
1.0
176
     0
 90
        2
176
     1
  1
strokes_ogs.tif
176
     1
290
     0
176
     1
 40
1.0
176
     1
 40
1.0
176
     1
  0
VISUALSTYLE
  5
2C
102
{ACAD_REACTORS
330
2A
102
}
330
2A
100
AcDbVisualStyle
  2
FlatWithEdges
 70
     1
177
     3
291
     1
 70
    58
 90
        2
176
     1
 90
        1
176
     1
 90
        1
176
     1
 90
        2
176
     1
 40
0.6
176
     1
 40
30.0
176
     1
 62
     7
420
 16777215
176
     1
 90
        1
176
     1
 90
        0
176
     1
 62
     7
176
     1
 62
   257
176
     1
 90
        1
176
     1
 90
        1
176
     1
 40
1.0
176
     1
 90
        0
176
     1
 62
   257
176
     1
 40
1.0
176
     1
 90
        1
176
     1
 90
        6
176
     1
 90
        2
176
     1
 62
     7
176
     1
 90
        5
176
     1
 90
        0
176
     1
 90
        0
176
     1
290
     0
176
     1
 90
       13
176
     1
 40
0.0
176
     1
 90
        0
176
     1
290
     0
176
     1
290
     1
176
     1
290
     1
176
     1
290
     0
176
     1
290
     0
176
     1
290
     0
176
     1
290
     0
176
     1
290
     0
176
     1
290
     0
176
     1
 90
       50
176
     1
 40
0.0
176
     1
 40
1.0
176
     1
 90
        0
176
     1
 62
    18
420
        0
176
     1
 90
       50
176
     1
 90
        3
176
     1
 62
     5
420
      255
176
     1
290
     0
176
     1
 90
       50
176
     1
 90
       50
176
     1
 90
       50
176
     1
290
     0
176
     1
 90
       50
176
     1
 62
   256
176
     0
 40
1.0
176
     0
 90
        2
176
     1
  1
strokes_ogs.tif
176
     1
290
     0
176
     1
 40
1.0
176
     1
 40
1.0
176
     1
  0
VISUALSTYLE
  5
2D
102
{ACAD_REACTORS
330
2A
102
}
330
2A
100
AcDbVisualStyle
  2
Gouraud
 70
     2
177
     3
291
     1
 70
    58
 90
        2
176
     1
 90
        2
176
     1
 90
        1
176
     1
 90
        2
176
     1
 40
0.6
176
     1
 40
30.0
176
     1
 62
     7
420
 16777215
176
     1
 90
        0
176
     1
 90
        0
176
     1
 62
     7
176
     1
 62
   257
176
     1
 90
        1
176
     1
 90
        1
176
     1
 40
1.0
176
     1
 90
        0
176
     1
 62
     7
176
     1
 40
1.0
176
     1
 90
        1
176
     1
 90
        6
176
     1
 90
        2
176
     1
 62
     7
176
     1
 90
        5
176
     1
 90
        0
176
     1
 90
        0
176
     1
290
     0
176
     1
 90
       13
176
     1
 40
0.0
176
     1
 90
        0
176
     1
290
     0
176
     1
290
     1
176
     1
290
     1
176
     1
290
     0
176
     1
290
     0
176
     1
290
     0
176
     1
290
     0
176
     1
290
     0
176
     1
290
     0
176
     1
 90
       50
176
     1
 40
0.0
176
     1
 40
1.0
176
     1
 90
        0
176
     1
 62
    18
420
        0
176
     1
 90
       50
176
     1
 90
        3
176
     1
 62
     5
420
      255
176
     1
290
     0
176
     1
 90
       50
176
     1
 90
       50
176
     1
 90
       50
176
     1
290
     0
176
     1
 90
       50
176
     1
 62
   256
176
     0
 40
1.0
176
     0
 90
        2
176
     1
  1
strokes_ogs.tif
176
     1
290
     0
176
     1
 40
1.0
176
     1
 40
1.0
176
     1
  0
VISUALSTYLE
  5
2E
102
{ACAD_REACTORS
330
2A
102
}
330
2A
100
AcDbVisualStyle
  2
GouraudWithEdges
 70
     3
177
     3
291
     1
 70
    58
 90
        2
176
     1
 90
        2
176
     1
 90
        1
176
     1
 90
        2
176
     1
 40
0.6
176
     1
 40
30.0
176
     1
 62
     7
420
 16777215
176
     1
 90
        1
176
     1
 90
        0
176
     1
 62
     7
176
     1
 62
   257
176
     1
 90
        1
176
     1
 90
        1
176
     1
 40
1.0
176
     1
 90
        0
176
     1
 62
   257
176
     1
 40
1.0
176
     1
 90
        1
176
     1
 90
        6
176
     1
 90
        2
176
     1
 62
     7
176
     1
 90
        5
176
     1
 90
        0
176
     1
 90
        0
176
     1
290
     0
176
     1
 90
       13
176
     1
 40
0.0
176
     1
 90
        0
176
     1
290
     0
176
     1
290
     1
176
     1
290
     1
176
     1
290
     0
176
     1
290
     0
176
     1
290
     0
176
     1
290
     0
176
     1
290
     0
176
     1
290
     0
176
     1
 90
       50
176
     1
 40
0.0
176
     1
 40
1.0
176
     1
 90
        0
176
     1
 62
    18
420
        0
176
     1
 90
       50
176
     1
 90
        3
176
     1
 62
     5
420
      255
176
     1
290
     0
176
     1
 90
       50
176
     1
 90
       50
176
     1
 90
       50
176
     1
290
     0
176
     1
 90
       50
176
     1
 62
   256
176
     0
 40
1.0
176
     0
 90
        2
176
     1
  1
strokes_ogs.tif
176
     1
290
     0
176
     1
 40
1.0
176
     1
 40
1.0
176
     1
  0
VISUALSTYLE
  5
31
102
{ACAD_REACTORS
330
2A
102
}
330
2A
100
AcDbVisualStyle
  2
Hidden
 70
     6
177
     3
291
     0
 70
    58
 90
        1
176
     1
 90
        2
176
     1
 90
        2
176
     1
 90
        0
176
     1
 40
0.6
176
     1
 40
30.0
176
     1
 62
     7
420
 16777215
176
     1
 90
        2
176
     1
 90
        2
176
     1
 62
     7
176
     1
 62
   257
176
     1
 90
        2
176
     1
 90
        1
176
     1
 40
40.0
176
     1
 90
        0
176
     1
 62
   257
176
     1
 40
1.0
176
     1
 90
        1
176
     1
 90
        6
176
     1
 90
        2
176
     1
 62
     7
176
     1
 90
        3
176
     1
 90
        0
176
     1
 90
        0
176
     1
290
     0
176
     1
 90
        1
176
     1
 40
0.0
176
     1
 90
        0
176
     1
290
     0
176
     1
290
     1
176
     1
290
     1
176
     1
290
     0
176
     1
290
     0
176
     1
290
     0
176
     1
290
     0
176
     1
290
     0
176
     1
290
     0
176
     1
 90
       50
176
     1
 40
0.0
176
     1
 40
1.0
176
     1
 90
        0
176
     1
 62
    18
420
        0
176
     1
 90
       50
176
     1
 90
        3
176
     1
 62
     5
420
      255
176
     1
290
     0
176
     1
 90
       50
176
     1
 90
       50
176
     1
 90
       50
176
     1
290
     0
176
     1
 90
       50
176
     1
 62
   256
176
     0
 40
1.0
176
     0
 90
        2
176
     1
  1
strokes_ogs.tif
176
     1
290
     0
176
     1
 40
1.0
176
     1
 40
1.0
176
     1
  0
VISUALSTYLE
  5
3B
102
{ACAD_REACTORS
330
2A
102
}
330
2A
100
AcDbVisualStyle
  2
JitterOff
 70
    20
177
     3
291
     1
 70
    58
 90
        2
176
     0
 90
        2
176
     0
 90
        0
176
     0
 90
        0
176
     0
 40
0.6
176
     0
 40
30.0
176
     0
 62
     7
420
 16777215
176
     0
 90
        1
176
     0
 90
        4
176
     0
 62
     7
176
     0
 62
   257
176
     0
 90
        1
176
     0
 90
        1
176
     0
 40
1.0
176
     0
 90
       10
176
     2
 62
     7
176
     0
 40
1.0
176
     0
 90
        1
176
     0
 90
        6
176
     0
 90
        2
176
     0
 62
     7
176
     0
 90
        5
176
     0
 90
        0
176
     0
 90
        0
176
     0
290
     0
176
     0
 90
        1
176
     0
 40
0.0
176
     0
 90
        0
176
     0
290
     0
176
     0
290
     1
176
     0
290
     1
176
     0
290
     0
176
     0
290
     0
176
     0
290
     0
176
     0
290
     0
176
     0
290
     0
176
     0
290
     0
176
     0
 90
       50
176
     0
 40
0.0
176
     0
 40
1.0
176
     0
 90
        0
176
     0
 62
    18
420
        0
176
     0
 90
       50
176
     0
 90
        3
176
     0
 62
     5
420
      255
176
     0
290
     0
176
     0
 90
       50
176
     0
 90
       50
176
     0
 90
       50
176
     0
290
     0
176
     0
 90
       50
176
     0
 62
   256
176
     0
 40
1.0
176
     0
 90
        2
176
     0
  1
strokes_ogs.tif
176
     0
290
     0
176
     0
 40
1.0
176
     0
 40
1.0
176
     0
  0
VISUALSTYLE
  5
38
102
{ACAD_REACTORS
330
2A
102
}
330
2A
100
AcDbVisualStyle
  2
Linepattern
 70
    14
177
     3
291
     1
 70
    58
 90
        2
176
     1
 90
        2
176
     1
 90
        0
176
     1
 90
        0
176
     1
 40
0.6
176
     1
 40
30.0
176
     1
 62
     7
420
 16777215
176
     1
 90
        1
176
     1
 90
        4
176
     1
 62
     7
176
     1
 62
   257
176
     1
 90
        7
176
     1
 90
        7
176
     1
 40
1.0
176
     1
 90
        8
176
     1
 62
     7
176
     1
 40
1.0
176
     1
 90
        1
176
     1
 90
        6
176
     1
 90
        2
176
     1
 62
     7
176
     1
 90
        5
176
     1
 90
        0
176
     1
 90
        0
176
     1
290
     0
176
     1
 90
        1
176
     1
 40
0.0
176
     1
 90
        0
176
     1
290
     0
176
     1
290
     1
176
     1
290
     1
176
     1
290
     0
176
     1
290
     0
176
     1
290
     0
176
     1
290
     0
176
     1
290
     0
176
     1
290
     0
176
     1
 90
       50
176
     1
 40
0.0
176
     1
 40
1.0
176
     1
 90
        0
176
     1
 62
    18
420
        0
176
     1
 90
       50
176
     1
 90
        3
176
     1
 62
     5
420
      255
176
     1
290
     0
176
     1
 90
       50
176
     1
 90
       50
176
     1
 90
       50
176
     1
290
     0
176
     1
 90
       50
176
     1
 62
   256
176
     0
 40
1.0
176
     0
 90
        2
176
     1
  1
strokes_ogs.tif
176
     1
290
     0
176
     1
 40
1.0
176
     1
 40
1.0
176
     1
  0
VISUALSTYLE
  5
3C
102
{ACAD_REACTORS
330
2A
102
}
330
2A
100
AcDbVisualStyle
  2
OverhangOff
 70
    21
177
     3
291
     1
 70
    58
 90
        2
176
     0
 90
        2
176
     0
 90
        0
176
     0
 90
        0
176
     0
 40
0.6
176
     0
 40
30.0
176
     0
 62
     7
420
 16777215
176
     0
 90
        1
176
     0
 90
        4
176
     0
 62
     7
176
     0
 62
   257
176
     0
 90
        1
176
     0
 90
        1
176
     0
 40
1.0
176
     0
 90
        9
176
     2
 62
     7
176
     0
 40
1.0
176
     0
 90
        1
176
     0
 90
        6
176
     0
 90
        2
176
     0
 62
     7
176
     0
 90
        5
176
     0
 90
        0
176
     0
 90
        0
176
     0
290
     0
176
     0
 90
        1
176
     0
 40
0.0
176
     0
 90
        0
176
     0
290
     0
176
     0
290
     1
176
     0
290
     1
176
     0
290
     0
176
     0
290
     0
176
     0
290
     0
176
     0
290
     0
176
     0
290
     0
176
     0
290
     0
176
     0
 90
       50
176
     0
 40
0.0
176
     0
 40
1.0
176
     0
 90
        0
176
     0
 62
    18
420
        0
176
     0
 90
       50
176
     0
 90
        3
176
     0
 62
     5
420
      255
176
     0
290
     0
176
     0
 90
       50
176
     0
 90
       50
176
     0
 90
       50
176
     0
290
     0
176
     0
 90
       50
176
     0
 62
   256
176
     0
 40
1.0
176
     0
 90
        2
176
     0
  1
strokes_ogs.tif
176
     0
290
     0
176
     0
 40
1.0
176
     0
 40
1.0
176
     0
  0
VISUALSTYLE
  5
33
102
{ACAD_REACTORS
330
2A
102
}
330
2A
100
AcDbVisualStyle
  2
Realistic
 70
     8
177
     3
291
     0
 70
    58
 90
        2
176
     1
 90
        3
176
     1
 90
        0
176
     1
 90
        2
176
     1
 40
0.6
176
     1
 40
30.0
176
     1
 62
     7
420
 16777215
176
     1
 90
        0
176
     1
 90
        0
176
     1
 62
     7
176
     1
 62
   257
176
     1
 90
        1
176
     1
 90
        1
176
     1
 40
1.0
176
     1
 90
        8
176
     1
 62
   257
176
     1
 40
1.0
176
     1
 90
        1
176
     1
 90
        6
176
     1
 90
        2
176
     1
 62
     7
176
     1
 90
        3
176
     1
 90
        0
176
     1
 90
        0
176
     1
290
     0
176
     1
 90
       13
176
     1
 40
0.0
176
     1
 90
        0
176
     1
290
     0
176
     1
290
     1
176
     1
290
     1
176
     1
290
     0
176
     1
290
     0
176
     1
290
     0
176
     1
290
     0
176
     1
290
     0
176
     1
290
     0
176
     1
 90
       50
176
     1
 40
0.0
176
     1
 40
1.0
176
     1
 90
        0
176
     1
 62
    18
420
        0
176
     1
 90
       50
176
     1
 90
        3
176
     1
 62
     5
420
      255
176
     1
290
     0
176
     1
 90
       50
176
     1
 90
       50
176
     1
 90
       50
176
     1
290
     0
176
     1
 90
       50
176
     1
 62
   256
176
     0
 40
1.0
176
     0
 90
        2
176
     1
  1
strokes_ogs.tif
176
     1
290
     0
176
     1
 40
1.0
176
     1
 40
1.0
176
     1
  0
VISUALSTYLE
  5
42
102
{ACAD_REACTORS
330
2A
102
}
330
2A
100
AcDbVisualStyle
  2
Shaded
 70
    27
177
     3
291
     0
 70
    58
 90
        2
176
     1
 90
        2
176
     1
 90
        1
176
     1
 90
        2
176
     1
 40
0.6
176
     1
 40
30.0
176
     1
 62
     7
420
 16777215
176
     1
 90
        0
176
     1
 90
        4
176
     1
 62
     7
176
     1
 62
   257
176
     1
 90
        1
176
     1
 90
        1
176
     1
 40
1.0
176
     1
 90
        8
176
     1
 62
   257
176
     1
 40
1.0
176
     1
 90
        1
176
     1
 90
        6
176
     1
 90
        2
176
     1
 62
     8
420
  7895160
176
     1
 90
        3
176
     1
 90
        0
176
     1
 90
        0
176
     1
290
     0
176
     1
 90
        5
176
     1
 40
0.0
176
     1
 90
        0
176
     1
290
     0
176
     1
290
     1
176
     1
290
     1
176
     1
290
     0
176
     1
290
     0
176
     1
290
     0
176
     1
290
     0
176
     1
290
     0
176
     1
290
     0
176
     1
 90
       50
176
     1
 40
0.0
176
     1
 40
1.0
176
     1
 90
        0
176
     1
 62
    18
420
        0
176
     1
 90
       50
176
     1
 90
        3
176
     1
 62
     5
420
      255
176
     1
290
     0
176
     1
 90
       50
176
     1
 90
       50
176
     1
 90
       50
176
     1
290
     0
176
     1
 90
       50
176
     1
 62
   256
176
     0
 40
1.0
176
     0
 90
        2
176
     1
  1
strokes_ogs.tif
176
     1
290
     0
176
     1
 40
1.0
176
     1
 40
1.0
176
     1
  0
VISUALSTYLE
  5
41
102
{ACAD_REACTORS
330
2A
102
}
330
2A
100
AcDbVisualStyle
  2
Shaded with edges
 70
    26
177
     3
291
     0
 70
    58
 90
        2
176
     1
 90
        2
176
     1
 90
        1
176
     1
 90
        2
176
     1
 40
0.6
176
     1
 40
30.0
176
     1
 62
     7
420
 16777215
176
     1
 90
        1
176
     1
 90
       10
176
     1
 62
     7
176
     1
 62
   257
176
     1
 90
        2
176
     1
 90
        1
176
     1
 40
1.0
176
     1
 90
        8
176
     1
 62
   257
176
     1
 40
1.0
176
     1
 90
        1
176
     1
 90
        6
176
     1
 90
        2
176
     1
 62
     7
176
     1
 90
        3
176
     1
 90
        0
176
     1
 90
        0
176
     1
290
     0
176
     1
 90
        5
176
     1
 40
0.0
176
     1
 90
        0
176
     1
290
     0
176
     1
290
     1
176
     1
290
     1
176
     1
290
     0
176
     1
290
     0
176
     1
290
     0
176
     1
290
     0
176
     1
290
     0
176
     1
290
     0
176
     1
 90
       50
176
     1
 40
0.0
176
     1
 40
1.0
176
     1
 90
        0
176
     1
 62
    18
420
        0
176
     1
 90
       50
176
     1
 90
        3
176
     1
 62
     5
420
      255
176
     1
290
     0
176
     1
 90
       50
176
     1
 90
       50
176
     1
 90
       50
176
     1
290
     0
176
     1
 90
       50
176
     1
 62
   256
176
     0
 40
1.0
176
     0
 90
        2
176
     1
  1
strokes_ogs.tif
176
     1
290
     0
176
     1
 40
1.0
176
     1
 40
1.0
176
     1
  0
VISUALSTYLE
  5
3E
102
{ACAD_REACTORS
330
2A
102
}
330
2A
100
AcDbVisualStyle
  2
Shades of Gray
 70
    23
177
     3
291
     0
 70
    58
 90
        2
176
     1
 90
        2
176
     1
 90
        3
176
     1
 90
        0
176
     1
 40
0.6
176
     1
 40
30.0
176
     1
 62
     7
420
 16777215
176
     1
 90
        2
176
     1
 90
        2
176
     1
 62
     7
176
     1
 62
     7
176
     1
 90
        1
176
     1
 90
        1
176
     1
 40
40.0
176
     1
 90
        8
176
     1
 62
     7
176
     1
 40
1.0
176
     1
 90
        1
176
     1
 90
        6
176
     1
 90
        2
176
     1
 62
     7
176
     1
 90
        3
176
     1
 90
        0
176
     1
 90
        0
176
     1
290
     0
176
     1
 90
        1
176
     1
 40
0.0
176
     1
 90
        0
176
     1
290
     0
176
     1
290
     1
176
     1
290
     1
176
     1
290
     0
176
     1
290
     0
176
     1
290
     0
176
     1
290
     0
176
     1
290
     0
176
     1
290
     0
176
     1
 90
       50
176
     1
 40
0.0
176
     1
 40
1.0
176
     1
 90
        0
176
     1
 62
    18
420
        0
176
     1
 90
       50
176
     1
 90
        3
176
     1
 62
     5
420
      255
176
     1
290
     0
176
     1
 90
       50
176
     1
 90
       50
176
     1
 90
       50
176
     1
290
     0
176
     1
 90
       50
176
     1
 62
   256
176
     0
 40
1.0
176
     0
 90
        2
176
     1
  1
strokes_ogs.tif
176
     1
290
     0
176
     1
 40
1.0
176
     1
 40
1.0
176
     1
  0
VISUALSTYLE
  5
3F
102
{ACAD_REACTORS
330
2A
102
}
330
2A
100
AcDbVisualStyle
  2
Sketchy
 70
    24
177
     3
291
     0
 70
    58
 90
        1
176
     1
 90
        2
176
     1
 90
        2
176
     1
 90
        0
176
     1
 40
0.6
176
     1
 40
30.0
176
     1
 62
     7
420
 16777215
176
     1
 90
        2
176
     1
 90
        2
176
     1
 62
     7
176
     1
 62
     7
176
     1
 90
        1
176
     1
 90
        1
176
     1
 40
40.0
176
     1
 90
       11
176
     1
 62
     7
176
     1
 40
1.0
176
     1
 90
        1
176
     1
 90
        6
176
     1
 90
        2
176
     1
 62
     7
176
     1
 90
        6
176
     1
 90
        0
176
     1
 90
        0
176
     1
290
     0
176
     1
 90
        1
176
     1
 40
0.0
176
     1
 90
        0
176
     1
290
     0
176
     1
290
     1
176
     1
290
     1
176
     1
290
     0
176
     1
290
     0
176
     1
290
     0
176
     1
290
     0
176
     1
290
     0
176
     1
290
     0
176
     1
 90
       50
176
     1
 40
0.0
176
     1
 40
1.0
176
     1
 90
        0
176
     1
 62
    18
420
        0
176
     1
 90
       50
176
     1
 90
        3
176
     1
 62
     5
420
      255
176
     1
290
     0
176
     1
 90
       50
176
     1
 90
       50
176
     1
 90
       50
176
     1
290
     0
176
     1
 90
       50
176
     1
 62
   256
176
     0
 40
1.0
176
     0
 90
        2
176
     1
  1
strokes_ogs.tif
176
     1
290
     0
176
     1
 40
1.0
176
     1
 40
1.0
176
     1
  0
VISUALSTYLE
  5
37
102
{ACAD_REACTORS
330
2A
102
}
330
2A
100
AcDbVisualStyle
  2
Thicken
 70
    13
177
     3
291
     1
 70
    58
 90
        2
176
     1
 90
        2
176
     1
 90
        0
176
     1
 90
        0
176
     1
 40
0.6
176
     1
 40
30.0
176
     1
 62
     7
420
 16777215
176
     1
 90
        1
176
     1
 90
        4
176
     1
 62
     7
176
     1
 62
   257
176
     1
 90
        1
176
     1
 90
        1
176
     1
 40
1.0
176
     1
 90
       12
176
     1
 62
     7
176
     1
 40
1.0
176
     1
 90
        1
176
     1
 90
        6
176
     1
 90
        2
176
     1
 62
     7
176
     1
 90
        5
176
     1
 90
        0
176
     1
 90
        0
176
     1
290
     0
176
     1
 90
        1
176
     1
 40
0.0
176
     1
 90
        0
176
     1
290
     0
176
     1
290
     1
176
     1
290
     1
176
     1
290
     0
176
     1
290
     0
176
     1
290
     0
176
     1
290
     0
176
     1
290
     0
176
     1
290
     0
176
     1
 90
       50
176
     1
 40
0.0
176
     1
 40
1.0
176
     1
 90
        0
176
     1
 62
    18
420
        0
176
     1
 90
       50
176
     1
 90
        3
176
     1
 62
     5
420
      255
176
     1
290
     0
176
     1
 90
       50
176
     1
 90
       50
176
     1
 90
       50
176
     1
290
     0
176
     1
 90
       50
176
     1
 62
   256
176
     0
 40
1.0
176
     0
 90
        2
176
     1
  1
strokes_ogs.tif
176
     1
290
     0
176
     1
 40
1.0
176
     1
 40
1.0
176
     1
  0
VISUALSTYLE
  5
30
102
{ACAD_REACTORS
330
2A
102
}
330
2A
100
AcDbVisualStyle
  2
Wireframe
 70
     5
177
     3
291
     0
 70
    58
 90
        0
176
     1
 90
        2
176
     1
 90
        0
176
     1
 90
        0
176
     1
 40
0.6
176
     1
 40
30.0
176
     1
 62
     7
420
 16777215
176
     1
 90
        1
176
     1
 90
        4
176
     1
 62
     7
176
     1
 62
   257
176
     1
 90
        1
176
     1
 90
        1
176
     1
 40
1.0
176
     1
 90
        0
176
     1
 62
   257
176
     1
 40
1.0
176
     1
 90
        1
176
     1
 90
        6
176
     1
 90
        2
176
     1
 62
     7
176
     1
 90
        3
176
     1
 90
        0
176
     1
 90
        0
176
     1
290
     0
176
     1
 90
        1
176
     1
 40
0.0
176
     1
 90
        0
176
     1
290
     0
176
     1
290
     1
176
     1
290
     1
176
     1
290
     0
176
     1
290
     0
176
     1
290
     0
176
     1
290
     0
176
     1
290
     0
176
     1
290
     0
176
     1
 90
       50
176
     1
 40
0.0
176
     1
 40
1.0
176
     1
 90
        0
176
     1
 62
    18
420
        0
176
     1
 90
       50
176
     1
 90
        3
176
     1
 62
     5
420
      255
176
     1
290
     0
176
     1
 90
       50
176
     1
 90
       50
176
     1
 90
       50
176
     1
290
     0
176
     1
 90
       50
176
     1
 62
   256
176
     0
 40
1.0
176
     0
 90
        2
176
     1
  1
strokes_ogs.tif
176
     1
290
     0
176
     1
 40
1.0
176
     1
 40
1.0
176
     1
  0
VISUALSTYLE
  5
40
102
{ACAD_REACTORS
330
2A
102
}
330
2A
100
AcDbVisualStyle
  2
X-Ray
 70
    25
177
     3
291
     0
 70
    58
 90
        2
176
     1
 90
        2
176
     1
 90
        1
176
     1
 90
        1
176
     1
 40
0.5
176
     1
 40
30.0
176
     1
 62
     7
420
 16777215
176
     1
 90
        1
176
     1
 90
        0
176
     1
 62
     7
176
     1
 62
   257
176
     1
 90
        1
176
     1
 90
        1
176
     1
 40
1.0
176
     1
 90
        8
176
     1
 62
     7
176
     1
 40
1.0
176
     1
 90
        1
176
     1
 90
        6
176
     1
 90
        2
176
     1
 62
     7
176
     1
 90
        3
176
     1
 90
        0
176
     1
 90
        0
176
     1
290
     0
176
     1
 90
       13
176
     1
 40
0.0
176
     1
 90
        0
176
     1
290
     0
176
     1
290
     1
176
     1
290
     1
176
     1
290
     0
176
     1
290
     0
176
     1
290
     0
176
     1
290
     0
176
     1
290
     0
176
     1
290
     0
176
     1
 90
       50
176
     1
 40
0.0
176
     1
 40
1.0
176
     1
 90
        0
176
     1
 62
    18
420
        0
176
     1
 90
       50
176
     1
 90
        3
176
     1
 62
     5
420
      255
176
     1
290
     0
176
     1
 90
       50
176
     1
 90
       50
176
     1
 90
       50
176
     1
290
     0
176
     1
 90
       50
176
     1
 62
   256
176
     0
 40
1.0
176
     0
 90
        2
176
     1
  1
strokes_ogs.tif
176
     1
290
     0
176
     1
 40
1.0
176
     1
 40
1.0
176
     1
  0
DICTIONARYVAR
  5
1C3
102
{ACAD_REACTORS
330
1C2
102
}
330
1C2
100
DictionaryVariables
280
     0
  1
1:1
  0
DICTIONARYVAR
  5
1CB
102
{ACAD_REACTORS
330
1C2
102
}
330
1C2
100
DictionaryVariables
280
     0
  1
3.500000
  0
DICTIONARYVAR
  5
1CC
102
{ACAD_REACTORS
330
1C2
102
}
330
1C2
100
DictionaryVariables
280
     0
  1
acadiso.lin
  0
DICTIONARYVAR
  5
1C8
102
{ACAD_REACTORS
330
1C2
102
}
330
1C2
100
DictionaryVariables
280
     0
  1
Standard
  0
DICTIONARYVAR
  5
1C7
102
{ACAD_REACTORS
330
1C2
102
}
330
1C2
100
DictionaryVariables
280
     0
  1
Standard
  0
DICTIONARY
  5
1C4
330
6A
100
AcDbDictionary
280
     1
281
     1
  3
ACAD_ROUNDTRIP_2008_TABLESTYLE_CELLSTYLEMAP
360
1C5
  0
CELLSTYLEMAP
  5
1C5
102
{ACAD_REACTORS
330
1C4
102
}
330
1C4
100
AcDbCellStyleMap
 90
        3
300
CELLSTYLE
  1
TABLEFORMAT_BEGIN
 90
        5
170
     1
 91
        0
 92
    32768
 62
   257
 93
        1
300
CONTENTFORMAT
  1
CONTENTFORMAT_BEGIN
 90
        0
 91
        0
 92
        4
 93
        0
300

 40
0.0
140
1.0
 94
        5
 62
     0
340
11
144
6.0
309
CONTENTFORMAT_END
171
     1
301
MARGIN
  1
CELLMARGIN_BEGIN
 40
1.5
 40
1.5
 40
1.5
 40
1.5
 40
1.5
 40
1.5
309
CELLMARGIN_END
 94
        6
 95
        1
302
GRIDFORMAT
  1
GRIDFORMAT_BEGIN
 90
        0
 91
        1
 62
     0
 92
       -2
340
14
 93
        0
 40
0.045
309
GRIDFORMAT_END
 95
        2
302
GRIDFORMAT
  1
GRIDFORMAT_BEGIN
 90
        0
 91
        1
 62
     0
 92
       -2
340
14
 93
        0
 40
0.045
309
GRIDFORMAT_END
 95
        4
302
GRIDFORMAT
  1
GRIDFORMAT_BEGIN
 90
        0
 91
        1
 62
     0
 92
       -2
340
14
 93
        0
 40
0.045
309
GRIDFORMAT_END
 95
        8
302
GRIDFORMAT
  1
GRIDFORMAT_BEGIN
 90
        0
 91
        1
 62
     0
 92
       -2
340
14
 93
        0
 40
0.045
309
GRIDFORMAT_END
 95
       16
302
GRIDFORMAT
  1
GRIDFORMAT_BEGIN
 90
        0
 91
        1
 62
     0
 92
       -2
340
14
 93
        0
 40
0.045
309
GRIDFORMAT_END
 95
       32
302
GRIDFORMAT
  1
GRIDFORMAT_BEGIN
 90
        0
 91
        1
 62
     0
 92
       -2
340
14
 93
        0
 40
0.045
309
GRIDFORMAT_END
309
TABLEFORMAT_END
  1
CELLSTYLE_BEGIN
 90
        1
 91
        1
300
_TITLE
309
CELLSTYLE_END
300
CELLSTYLE
  1
TABLEFORMAT_BEGIN
 90
        5
170
     1
 91
        0
 92
        0
 62
   257
 93
        1
300
CONTENTFORMAT
  1
CONTENTFORMAT_BEGIN
 90
        0
 91
        0
 92
        4
 93
        0
300

 40
0.0
140
1.0
 94
        5
 62
     0
340
11
144
4.5
309
CONTENTFORMAT_END
171
     1
301
MARGIN
  1
CELLMARGIN_BEGIN
 40
1.5
 40
1.5
 40
1.5
 40
1.5
 40
1.5
 40
1.5
309
CELLMARGIN_END
 94
        6
 95
        1
302
GRIDFORMAT
  1
GRIDFORMAT_BEGIN
 90
        0
 91
        1
 62
     0
 92
       -2
340
14
 93
        0
 40
0.045
309
GRIDFORMAT_END
 95
        2
302
GRIDFORMAT
  1
GRIDFORMAT_BEGIN
 90
        0
 91
        1
 62
     0
 92
       -2
340
14
 93
        0
 40
0.045
309
GRIDFORMAT_END
 95
        4
302
GRIDFORMAT
  1
GRIDFORMAT_BEGIN
 90
        0
 91
        1
 62
     0
 92
       -2
340
14
 93
        0
 40
0.045
309
GRIDFORMAT_END
 95
        8
302
GRIDFORMAT
  1
GRIDFORMAT_BEGIN
 90
        0
 91
        1
 62
     0
 92
       -2
340
14
 93
        0
 40
0.045
309
GRIDFORMAT_END
 95
       16
302
GRIDFORMAT
  1
GRIDFORMAT_BEGIN
 90
        0
 91
        1
 62
     0
 92
       -2
340
14
 93
        0
 40
0.045
309
GRIDFORMAT_END
 95
       32
302
GRIDFORMAT
  1
GRIDFORMAT_BEGIN
 90
        0
 91
        1
 62
     0
 92
       -2
340
14
 93
        0
 40
0.045
309
GRIDFORMAT_END
309
TABLEFORMAT_END
  1
CELLSTYLE_BEGIN
 90
        2
 91
        1
300
_HEADER
309
CELLSTYLE_END
300
CELLSTYLE
  1
TABLEFORMAT_BEGIN
 90
        5
170
     1
 91
        0
 92
        0
 62
   257
 93
        1
300
CONTENTFORMAT
  1
CONTENTFORMAT_BEGIN
 90
        0
 91
        0
 92
        4
 93
        0
300

 40
0.0
140
1.0
 94
        2
 62
     0
340
11
144
4.5
309
CONTENTFORMAT_END
171
     1
301
MARGIN
  1
CELLMARGIN_BEGIN
 40
1.5
 40
1.5
 40
1.5
 40
1.5
 40
1.5
 40
1.5
309
CELLMARGIN_END
 94
        6
 95
        1
302
GRIDFORMAT
  1
GRIDFORMAT_BEGIN
 90
        0
 91
        1
 62
     0
 92
       -2
340
14
 93
        0
 40
0.045
309
GRIDFORMAT_END
 95
        2
302
GRIDFORMAT
  1
GRIDFORMAT_BEGIN
 90
        0
 91
        1
 62
     0
 92
       -2
340
14
 93
        0
 40
0.045
309
GRIDFORMAT_END
 95
        4
302
GRIDFORMAT
  1
GRIDFORMAT_BEGIN
 90
        0
 91
        1
 62
     0
 92
       -2
340
14
 93
        0
 40
0.045
309
GRIDFORMAT_END
 95
        8
302
GRIDFORMAT
  1
GRIDFORMAT_BEGIN
 90
        0
 91
        1
 62
     0
 92
       -2
340
14
 93
        0
 40
0.045
309
GRIDFORMAT_END
 95
       16
302
GRIDFORMAT
  1
GRIDFORMAT_BEGIN
 90
        0
 91
        1
 62
     0
 92
       -2
340
14
 93
        0
 40
0.045
309
GRIDFORMAT_END
 95
       32
302
GRIDFORMAT
  1
GRIDFORMAT_BEGIN
 90
        0
 91
        1
 62
     0
 92
       -2
340
14
 93
        0
 40
0.045
309
GRIDFORMAT_END
309
TABLEFORMAT_END
  1
CELLSTYLE_BEGIN
 90
        3
 91
        2
300
_DATA
309
CELLSTYLE_END
  0
ENDSEC
  0
EOF
