  0
SECTION
  2
HEADER
  9
$ACADVER
  1
AC1027
  9
$ACADMAINTVER
 70
   105
  9
$DWGCODEPAGE
  3
ANSI_932
  9
$REQUIREDVERSIONS
160
                 0
  9
$INSBASE
 10
0.0
 20
0.0
 30
0.0
  9
$EXTMIN
 10
-1260.0
 20
-891.0
 30
0.0
  9
$EXTMAX
 10
1260.0
 20
891.0
 30
0.0
  9
$LIMMIN
 10
-1260.0
 20
-891.0
  9
$LIMMAX
 10
1260.0
 20
891.0
  9
$ORTHOMODE
 70
     0
  9
$REGENMODE
 70
     1
  9
$FILLMODE
 70
     1
  9
$QTEXTMODE
 70
     0
  9
$MIRRTEXT
 70
     1
  9
$LTSCALE
 40
6.0
  9
$ATTMODE
 70
     1
  9
$TEXTSIZE
 40
2.5
  9
$TRACEWID
 40
1.0
  9
$TEXTSTYLE
  7
Standard
  9
$CLAYER
  8
0
  9
$CELTYPE
  6
ByLayer
  9
$CECOLOR
 62
   256
  9
$CELTSCALE
 40
1.0
  9
$DISPSILH
 70
     0
  9
$DIMSCALE
 40
1.0
  9
$DIMASZ
 40
2.5
  9
$DIMEXO
 40
0.625
  9
$DIMDLI
 40
3.75
  9
$DIMRND
 40
0.0
  9
$DIMDLE
 40
0.0
  9
$DIMEXE
 40
1.25
  9
$DIMTP
 40
0.0
  9
$DIMTM
 40
0.0
  9
$DIMTXT
 40
2.5
  9
$DIMCEN
 40
2.5
  9
$DIMTSZ
 40
0.0
  9
$DIMTOL
 70
     0
  9
$DIMLIM
 70
     0
  9
$DIMTIH
 70
     0
  9
$DIMTOH
 70
     0
  9
$DIMSE1
 70
     0
  9
$DIMSE2
 70
     0
  9
$DIMTAD
 70
     1
  9
$DIMZIN
 70
     8
  9
$DIMBLK
  1

  9
$DIMASO
 70
     1
  9
$DIMSHO
 70
     1
  9
$DIMPOST
  1

  9
$DIMAPOST
  1

  9
$DIMALT
 70
     0
  9
$DIMALTD
 70
     3
  9
$DIMALTF
 40
0.03937007874016
  9
$DIMLFAC
 40
1.0
  9
$DIMTOFL
 70
     1
  9
$DIMTVP
 40
0.0
  9
$DIMTIX
 70
     0
  9
$DIMSOXD
 70
     0
  9
$DIMSAH
 70
     0
  9
$DIMBLK1
  1

  9
$DIMBLK2
  1

  9
$DIMSTYLE
  2
ISO-25
  9
$DIMCLRD
 70
     0
  9
$DIMCLRE
 70
     0
  9
$DIMCLRT
 70
     0
  9
$DIMTFAC
 40
1.0
  9
$DIMGAP
 40
0.625
  9
$DIMJUST
 70
     0
  9
$DIMSD1
 70
     0
  9
$DIMSD2
 70
     0
  9
$DIMTOLJ
 70
     0
  9
$DIMTZIN
 70
     8
  9
$DIMALTZ
 70
     0
  9
$DIMALTTZ
 70
     0
  9
$DIMUPT
 70
     0
  9
$DIMDEC
 70
     2
  9
$DIMTDEC
 70
     2
  9
$DIMALTU
 70
     2
  9
$DIMALTTD
 70
     3
  9
$DIMTXSTY
  7
Standard
  9
$DIMAUNIT
 70
     0
  9
$DIMADEC
 70
     0
  9
$DIMALTRND
 40
0.0
  9
$DIMAZIN
 70
     0
  9
$DIMDSEP
 70
    44
  9
$DIMATFIT
 70
     3
  9
$DIMFRAC
 70
     0
  9
$DIMLDRBLK
  1

  9
$DIMLUNIT
 70
     2
  9
$DIMLWD
 70
    -2
  9
$DIMLWE
 70
    -2
  9
$DIMTMOVE
 70
     0
  9
$DIMFXL
 40
1.0
  9
$DIMFXLON
 70
     0
  9
$DIMJOGANG
 40
0.7853981633974483
  9
$DIMTFILL
 70
     0
  9
$DIMTFILLCLR
 70
     0
  9
$DIMARCSYM
 70
     0
  9
$DIMLTYPE
  6

  9
$DIMLTEX1
  6

  9
$DIMLTEX2
  6

  9
$DIMTXTDIRECTION
 70
     0
  9
$LUNITS
 70
     2
  9
$LUPREC
 70
     4
  9
$SKETCHINC
 40
1.0
  9
$FILLETRAD
 40
10.0
  9
$AUNITS
 70
     0
  9
$AUPREC
 70
     0
  9
$MENU
  1
.
  9
$ELEVATION
 40
0.0
  9
$PELEVATION
 40
0.0
  9
$THICKNESS
 40
0.0
  9
$LIMCHECK
 70
     0
  9
$CHAMFERA
 40
0.0
  9
$CHAMFERB
 40
0.0
  9
$CHAMFERC
 40
0.0
  9
$CHAMFERD
 40
0.0
  9
$SKPOLY
 70
     0
  9
$TDCREATE
 40
2458834.38905757
  9
$TDUCREATE
 40
2458834.01405757
  9
$TDUPDATE
 40
2458834.389057755
  9
$TDUUPDATE
 40
2458834.014057755
  9
$TDINDWG
 40
0.0000000116
  9
$TDUSRTIMER
 40
0.0000000116
  9
$USRTIMER
 70
     1
  9
$ANGBASE
 50
0.0
  9
$ANGDIR
 70
     0
  9
$PDMODE
 70
     0
  9
$PDSIZE
 40
0.0
  9
$PLINEWID
 40
0.0
  9
$SPLFRAME
 70
     0
  9
$SPLINETYPE
 70
     6
  9
$SPLINESEGS
 70
     8
  9
$HANDSEED
  5
1AB
  9
$SURFTAB1
 70
     6
  9
$SURFTAB2
 70
     6
  9
$SURFTYPE
 70
     6
  9
$SURFU
 70
     6
  9
$SURFV
 70
     6
  9
$UCSBASE
  2

  9
$UCSNAME
  2

  9
$UCSORG
 10
0.0
 20
0.0
 30
0.0
  9
$UCSXDIR
 10
1.0
 20
0.0
 30
0.0
  9
$UCSYDIR
 10
0.0
 20
1.0
 30
0.0
  9
$UCSORTHOREF
  2

  9
$UCSORTHOVIEW
 70
     0
  9
$UCSORGTOP
 10
0.0
 20
0.0
 30
0.0
  9
$UCSORGBOTTOM
 10
0.0
 20
0.0
 30
0.0
  9
$UCSORGLEFT
 10
0.0
 20
0.0
 30
0.0
  9
$UCSORGRIGHT
 10
0.0
 20
0.0
 30
0.0
  9
$UCSORGFRONT
 10
0.0
 20
0.0
 30
0.0
  9
$UCSORGBACK
 10
0.0
 20
0.0
 30
0.0
  9
$PUCSBASE
  2

  9
$PUCSNAME
  2

  9
$PUCSORG
 10
0.0
 20
0.0
 30
0.0
  9
$PUCSXDIR
 10
1.0
 20
0.0
 30
0.0
  9
$PUCSYDIR
 10
0.0
 20
1.0
 30
0.0
  9
$PUCSORTHOREF
  2

  9
$PUCSORTHOVIEW
 70
     0
  9
$PUCSORGTOP
 10
0.0
 20
0.0
 30
0.0
  9
$PUCSORGBOTTOM
 10
0.0
 20
0.0
 30
0.0
  9
$PUCSORGLEFT
 10
0.0
 20
0.0
 30
0.0
  9
$PUCSORGRIGHT
 10
0.0
 20
0.0
 30
0.0
  9
$PUCSORGFRONT
 10
0.0
 20
0.0
 30
0.0
  9
$PUCSORGBACK
 10
0.0
 20
0.0
 30
0.0
  9
$USERI1
 70
     0
  9
$USERI2
 70
     0
  9
$USERI3
 70
     0
  9
$USERI4
 70
     0
  9
$USERI5
 70
     0
  9
$USERR1
 40
0.0
  9
$USERR2
 40
0.0
  9
$USERR3
 40
0.0
  9
$USERR4
 40
0.0
  9
$USERR5
 40
0.0
  9
$WORLDVIEW
 70
     1
  9
$SHADEDGE
 70
     3
  9
$SHADEDIF
 70
    70
  9
$TILEMODE
 70
     1
  9
$MAXACTVP
 70
    64
  9
$PINSBASE
 10
0.0
 20
0.0
 30
0.0
  9
$PLIMCHECK
 70
     0
  9
$PEXTMIN
 10
1.000000000000000E+20
 20
1.000000000000000E+20
 30
1.000000000000000E+20
  9
$PEXTMAX
 10
-1.000000000000000E+20
 20
-1.000000000000000E+20
 30
-1.000000000000000E+20
  9
$PLIMMIN
 10
0.0
 20
0.0
  9
$PLIMMAX
 10
420.0
 20
297.0
  9
$UNITMODE
 70
     0
  9
$VISRETAIN
 70
     1
  9
$PLINEGEN
 70
     0
  9
$PSLTSCALE
 70
     1
  9
$TREEDEPTH
 70
  3020
  9
$CMLSTYLE
  2
Standard
  9
$CMLJUST
 70
     0
  9
$CMLSCALE
 40
20.0
  9
$PROXYGRAPHICS
 70
     1
  9
$MEASUREMENT
 70
     1
  9
$CELWEIGHT
370
    -1
  9
$ENDCAPS
280
     0
  9
$JOINSTYLE
280
     0
  9
$LWDISPLAY
290
     0
  9
$INSUNITS
 70
     4
  9
$HYPERLINKBASE
  1

  9
$STYLESHEET
  1

  9
$XEDIT
290
     1
  9
$CEPSNTYPE
380
     0
  9
$PSTYLEMODE
290
     1
  9
$FINGERPRINTGUID
  2
{E091402C-40C6-4885-9AB7-081C9457DC5C}
  9
$VERSIONGUID
  2
{FAEB1C32-E019-11D5-929B-00C0DF256EC4}
  9
$EXTNAMES
290
     1
  9
$PSVPSCALE
 40
0.0
  9
$OLESTARTUP
290
     0
  9
$SORTENTS
280
   127
  9
$INDEXCTL
280
     0
  9
$HIDETEXT
280
     1
  9
$XCLIPFRAME
280
     2
  9
$HALOGAP
280
     0
  9
$OBSCOLOR
 70
   257
  9
$OBSLTYPE
280
     0
  9
$INTERSECTIONDISPLAY
280
     0
  9
$INTERSECTIONCOLOR
 70
   257
  9
$DIMASSOC
280
     2
  9
$PROJECTNAME
  1

  9
$CAMERADISPLAY
290
     0
  9
$LENSLENGTH
 40
50.0
  9
$CAMERAHEIGHT
 40
0.0
  9
$STEPSPERSEC
 40
2.0
  9
$STEPSIZE
 40
6.0
  9
$3DDWFPREC
 40
2.0
  9
$PSOLWIDTH
 40
5.0
  9
$PSOLHEIGHT
 40
80.0
  9
$LOFTANG1
 40
1.570796326794897
  9
$LOFTANG2
 40
1.570796326794897
  9
$LOFTMAG1
 40
0.0
  9
$LOFTMAG2
 40
0.0
  9
$LOFTPARAM
 70
     7
  9
$LOFTNORMALS
280
     1
  9
$LATITUDE
 40
37.795
  9
$LONGITUDE
 40
-122.394
  9
$NORTHDIRECTION
 40
0.0
  9
$TIMEZONE
 70
 -8000
  9
$LIGHTGLYPHDISPLAY
280
     1
  9
$TILEMODELIGHTSYNCH
280
     1
  9
$CMATERIAL
347
44
  9
$SOLIDHIST
280
     0
  9
$SHOWHIST
280
     1
  9
$DWFFRAME
280
     2
  9
$DGNFRAME
280
     2
  9
$REALWORLDSCALE
290
     1
  9
$INTERFERECOLOR
 62
   256
  9
$CSHADOW
280
     0
  9
$SHADOWPLANELOCATION
 40
0.0
  0
ENDSEC
  0
SECTION
  2
CLASSES
  0
CLASS
  1
ACDBDICTIONARYWDFLT
  2
AcDbDictionaryWithDefault
  3
ObjectDBX Classes
 90
        0
 91
        4
280
     0
281
     0
  0
CLASS
  1
VISUALSTYLE
  2
AcDbVisualStyle
  3
ObjectDBX Classes
 90
     4095
 91
        4
280
     0
281
     0
  0
CLASS
  1
MATERIAL
  2
AcDbMaterial
  3
ObjectDBX Classes
 90
     1153
 91
        4
280
     0
281
     0
  0
CLASS
  1
SCALE
  2
AcDbScale
  3
ObjectDBX Classes
 90
     1153
 91
        4
280
     0
281
     0
  0
CLASS
  1
TABLESTYLE
  2
AcDbTableStyle
  3
ObjectDBX Classes
 90
     4095
 91
        4
280
     0
281
     0
  0
CLASS
  1
MLEADERSTYLE
  2
AcDbMLeaderStyle
  3
ACDB_MLEADERSTYLE_CLASS
 90
     4095
 91
        4
280
     0
281
     0
  0
CLASS
  1
SUN
  2
AcDbSun
  3
SCENEOE
 90
     1153
 91
        4
280
     0
281
     0
  0
CLASS
  1
DICTIONARYVAR
  2
AcDbDictionaryVar
  3
ObjectDBX Classes
 90
        0
 91
        4
280
     0
281
     0
  0
CLASS
  1
CELLSTYLEMAP
  2
AcDbCellStyleMap
  3
ObjectDBX Classes
 90
     1152
 91
        4
280
     0
281
     0
  0
ENDSEC
  0
SECTION
  2
TABLES
  0
TABLE
  2
VPORT
  5
8
330
0
100
AcDbSymbolTable
 70
     1
  0
VPORT
  5
29
330
8
100
AcDbSymbolTableRecord
100
AcDbViewportTableRecord
  2
*Active
 70
     0
 10
0.0
 20
0.0
 11
1.0
 21
1.0
 12
0.0
 22
0.0
 13
0.0
 23
0.0
 14
10.0
 24
10.0
 15
10.0
 25
10.0
 16
0.0
 26
0.0
 36
1.0
 17
0.0
 27
0.0
 37
0.0
 40
1960.2
 41
1.414141414141414
 42
50.0
 43
0.0
 44
0.0
 50
0.0
 51
0.0
 71
     0
 72
 10000
 73
     1
 74
     3
 75
     0
 76
     0
 77
     0
 78
     0
281
     0
 65
     1
110
0.0
120
0.0
130
0.0
111
1.0
121
0.0
131
0.0
112
0.0
122
1.0
132
0.0
 79
     0
146
0.0
348
2F
 60
     3
 61
     5
292
     1
282
     1
141
0.0
142
0.0
 63
   250
361
6D
  0
ENDTAB
  0
TABLE
  2
LTYPE
  5
5
330
0
100
AcDbSymbolTable
 70
     5
  0
LTYPE
  5
14
330
5
100
AcDbSymbolTableRecord
100
AcDbLinetypeTableRecord
  2
ByBlock
 70
     0
  3

 72
    65
 73
     0
 40
0.0
  0
LTYPE
  5
15
330
5
100
AcDbSymbolTableRecord
100
AcDbLinetypeTableRecord
  2
ByLayer
 70
     0
  3

 72
    65
 73
     0
 40
0.0
  0
LTYPE
  5
16
330
5
100
AcDbSymbolTableRecord
100
AcDbLinetypeTableRecord
  2
Continuous
 70
     0
  3
Solid line
 72
    65
 73
     0
 40
0.0
  0
LTYPE
  5
6F
330
5
100
AcDbSymbolTableRecord
100
AcDbLinetypeTableRecord
  2
JWW_CENTER1
 70
     0
  3
-----  --  ----------  --  -----
 72
    65
 73
     4
 40
6.773333333333333
 49
4.233333333333333
 74
     0
 49
-0.8466666666666667
 74
     0
 49
0.8466666666666667
 74
     0
 49
-0.8466666666666667
 74
     0
  0
LTYPE
  5
70
330
5
100
AcDbSymbolTableRecord
100
AcDbLinetypeTableRecord
  2
JWW_CENTER2
 70
     0
  3
-------------  --  -------------
 72
    65
 73
     4
 40
13.54666666666667
 49
11.00666666666667
 74
     0
 49
-0.8466666666666667
 74
     0
 49
0.8466666666666667
 74
     0
 49
-0.8466666666666667
 74
     0
  0
LTYPE
  5
71
330
5
100
AcDbSymbolTableRecord
100
AcDbLinetypeTableRecord
  2
JWW_DASHED2
 70
     0
  3
--    ----    ----    ----    --
 72
    65
 73
     2
 40
3.386666666666667
 49
1.693333333333333
 74
     0
 49
-1.693333333333333
 74
     0
  0
LTYPE
  5
72
330
5
100
AcDbSymbolTableRecord
100
AcDbLinetypeTableRecord
  2
JWW_DASHED1
 70
     0
  3
-  --  --  --  --  --  --  --  -
 72
    65
 73
     2
 40
1.693333333333333
 49
0.8466666666666667
 74
     0
 49
-0.8466666666666667
 74
     0
  0
ENDTAB
  0
TABLE
  2
LAYER
  5
2
330
0
100
AcDbSymbolTable
 70
    14
  0
LAYER
  5
10
330
2
100
AcDbSymbolTableRecord
100
AcDbLayerTableRecord
  2
0
 70
     0
 62
     7
  6
Continuous
370
    -3
390
F
347
46
348
0
  0
LAYER
  5
73
330
2
100
AcDbSymbolTableRecord
100
AcDbLayerTableRecord
  2
A-A_インテリア
 70
     0
 62
     7
  6
Continuous
370
    -3
390
F
347
46
348
0
  0
LAYER
  5
74
330
2
100
AcDbSymbolTableRecord
100
AcDbLayerTableRecord
  2
A-5_建具
 70
     0
 62
     7
  6
Continuous
370
    -3
390
F
347
46
348
0
  0
LAYER
  5
75
330
2
100
AcDbSymbolTableRecord
100
AcDbLayerTableRecord
  2
A-4_文字
 70
     0
 62
     7
  6
Continuous
370
    -3
390
F
347
46
348
0
  0
LAYER
  5
76
330
2
100
AcDbSymbolTableRecord
100
AcDbLayerTableRecord
  2
A-6_間仕切
 70
     0
 62
     7
  6
Continuous
370
    -3
390
F
347
46
348
0
  0
LAYER
  5
77
330
2
100
AcDbSymbolTableRecord
100
AcDbLayerTableRecord
  2
A-2_仕上
 70
     0
 62
     7
  6
Continuous
370
    -3
390
F
347
46
348
0
  0
LAYER
  5
78
330
2
100
AcDbSymbolTableRecord
100
AcDbLayerTableRecord
  2
A-0_通り芯
 70
     0
 62
     7
  6
Continuous
370
    -3
390
F
347
46
348
0
  0
LAYER
  5
79
330
2
100
AcDbSymbolTableRecord
100
AcDbLayerTableRecord
  2
A-B_衛生陶器
 70
     0
 62
     7
  6
Continuous
370
    -3
390
F
347
46
348
0
  0
LAYER
  5
7A
330
2
100
AcDbSymbolTableRecord
100
AcDbLayerTableRecord
  2
D-5_建具
 70
     0
 62
     7
  6
Continuous
370
    -3
390
F
347
46
348
0
  0
LAYER
  5
7B
330
2
100
AcDbSymbolTableRecord
100
AcDbLayerTableRecord
  2
D-2_仕上
 70
     0
 62
     7
  6
Continuous
370
    -3
390
F
347
46
348
0
  0
LAYER
  5
7C
330
2
100
AcDbSymbolTableRecord
100
AcDbLayerTableRecord
  2
D-A_インテリア
 70
     0
 62
     7
  6
Continuous
370
    -3
390
F
347
46
348
0
  0
LAYER
  5
7D
330
2
100
AcDbSymbolTableRecord
100
AcDbLayerTableRecord
  2
D-0_通り芯
 70
     0
 62
     7
  6
Continuous
370
    -3
390
F
347
46
348
0
  0
LAYER
  5
7E
330
2
100
AcDbSymbolTableRecord
100
AcDbLayerTableRecord
  2
D-4_文字
 70
     0
 62
     7
  6
Continuous
370
    -3
390
F
347
46
348
0
  0
LAYER
  5
7F
330
2
100
AcDbSymbolTableRecord
100
AcDbLayerTableRecord
  2
F-5ﾚｲﾔ
 70
     0
 62
     7
  6
Continuous
370
    -3
390
F
347
46
348
0
  0
ENDTAB
  0
TABLE
  2
STYLE
  5
3
330
0
100
AcDbSymbolTable
 70
     2
  0
STYLE
  5
11
330
3
100
AcDbSymbolTableRecord
100
AcDbTextStyleTableRecord
  2
Standard
 70
     0
 40
0.0
 41
1.0
 50
0.0
 71
     0
 42
2.5
  3
txt
  4

  0
STYLE
  5
6E
330
3
100
AcDbSymbolTableRecord
100
AcDbTextStyleTableRecord
  2
ＭＳ ゴシック
 70
     0
 40
1.0
 41
1.0
 50
0.0
 71
     0
 42
2.5
  3

  4

1001
ACAD
1000
MS Gothic
1071
    32817
  0
ENDTAB
  0
TABLE
  2
VIEW
  5
6
330
0
100
AcDbSymbolTable
 70
     0
  0
ENDTAB
  0
TABLE
  2
UCS
  5
7
330
0
100
AcDbSymbolTable
 70
     0
  0
ENDTAB
  0
TABLE
  2
APPID
  5
9
330
0
100
AcDbSymbolTable
 70
     1
  0
APPID
  5
12
330
9
100
AcDbSymbolTableRecord
100
AcDbRegAppTableRecord
  2
ACAD
 70
     0
  0
ENDTAB
  0
TABLE
  2
DIMSTYLE
  5
A
330
0
100
AcDbSymbolTable
 70
     1
100
AcDbDimStyleTable
  0
DIMSTYLE
105
27
330
A
100
AcDbSymbolTableRecord
100
AcDbDimStyleTableRecord
  2
ISO-25
 70
     0
 41
2.5
 42
0.625
 43
3.75
 44
1.25
 73
     0
 74
     0
 77
     1
 78
     8
140
2.5
141
2.5
143
0.03937007874016
147
0.625
171
     3
172
     1
178
     0
271
     2
272
     2
274
     3
278
    44
283
     0
284
     8
340
11
  0
ENDTAB
  0
TABLE
  2
BLOCK_RECORD
  5
1
330
0
100
AcDbSymbolTable
 70
     1
  0
BLOCK_RECORD
  5
1F
330
1
100
AcDbSymbolTableRecord
100
AcDbBlockTableRecord
  2
*Model_Space
340
22
 70
     0
280
     1
281
     0
  0
BLOCK_RECORD
  5
1B
330
1
100
AcDbSymbolTableRecord
100
AcDbBlockTableRecord
  2
*Paper_Space
340
1E
 70
     0
280
     1
281
     0
  0
BLOCK_RECORD
  5
23
330
1
100
AcDbSymbolTableRecord
100
AcDbBlockTableRecord
  2
*Paper_Space0
340
26
 70
     0
280
     1
281
     0
  0
ENDTAB
  0
ENDSEC
  0
SECTION
  2
BLOCKS
  0
BLOCK
  5
20
330
1F
100
AcDbEntity
  8
0
100
AcDbBlockBegin
  2
*Model_Space
 70
     0
 10
0.0
 20
0.0
 30
0.0
  3
*Model_Space
  1

  0
ENDBLK
  5
21
330
1F
100
AcDbEntity
  8
0
100
AcDbBlockEnd
  0
BLOCK
  5
1C
330
1B
100
AcDbEntity
 67
     1
  8
0
100
AcDbBlockBegin
  2
*Paper_Space
 70
     0
 10
0.0
 20
0.0
 30
0.0
  3
*Paper_Space
  1

  0
ENDBLK
  5
1D
330
1B
100
AcDbEntity
 67
     1
  8
0
100
AcDbBlockEnd
  0
BLOCK
  5
24
330
23
100
AcDbEntity
  8
0
100
AcDbBlockBegin
  2
*Paper_Space0
 70
     0
 10
0.0
 20
0.0
 30
0.0
  3
*Paper_Space0
  1

  0
ENDBLK
  5
25
330
23
100
AcDbEntity
  8
0
100
AcDbBlockEnd
  0
ENDSEC
  0
SECTION
  2
ENTITIES
  0
LINE
  5
80
330
1F
100
AcDbEntity
  8
A-A_インテリア
  6
JWW_CENTER1
 62
     7
370
     9
100
AcDbLine
 10
-628.9663069134822
 20
645.1004267013714
 30
0.0
 11
-628.9663069134822
 21
618.1004269461707
 31
0.0
  0
LINE
  5
81
330
1F
100
AcDbEntity
  8
A-A_インテリア
  6
JWW_CENTER1
 62
     7
370
     9
100
AcDbLine
 10
-642.4663067910826
 20
631.6004268237714
 30
0.0
 11
-615.4663070358823
 21
631.6004268237714
 31
0.0
  0
TEXT
  5
82
330
1F
100
AcDbEntity
  8
A-5_建具
  6
Continuous
 62
     2
370
     9
100
AcDbText
 10
-391.4665480041951
 20
-552.4307359473265
 30
0.0
 40
18.288
  1
▽G.L.
 41
1.104166666666667
  7
ＭＳ ゴシック
100
AcDbText
  0
LINE
  5
83
330
1F
100
AcDbEntity
  8
A-5_建具
  6
Continuous
 62
     7
370
     9
100
AcDbLine
 10
-603.9663069134822
 20
-549.8147360017265
 30
0.0
 11
-598.2260655688256
 21
-535.9565388135964
 31
0.0
  0
LINE
  5
84
330
1F
100
AcDbEntity
  8
A-5_建具
  6
Continuous
 62
     7
370
     9
100
AcDbLine
 10
-603.9663069134822
 20
-549.8147360017265
 30
0.0
 11
-594.8348941864717
 21
-537.9144292153874
 31
0.0
  0
LINE
  5
85
330
1F
100
AcDbEntity
  8
A-5_建具
  6
Continuous
 62
     7
370
     9
100
AcDbLine
 10
-553.5798051522755
 20
-462.5426074529368
 30
0.0
 11
-603.9663069134822
 21
-549.8147360017265
 31
0.0
  0
TEXT
  5
86
330
1F
100
AcDbEntity
  8
A-5_建具
  6
Continuous
 62
     7
370
   211
100
AcDbText
 10
-548.5204609997743
 20
-453.2700882148238
 30
0.0
 40
13.716
  1
ベースプレート：t=6.0
 41
1.158730158730158
  7
ＭＳ ゴシック
100
AcDbText
  0
TEXT
  5
87
330
1F
100
AcDbEntity
  8
A-5_建具
  6
Continuous
 62
     7
370
     9
100
AcDbText
 10
-551.2103080611573
 20
-484.7855071798883
 30
0.0
 40
13.716
  1
SUS304　ヘアライン仕上
 41
1.151515151515151
  7
ＭＳ ゴシック
100
AcDbText
  0
LINE
  5
88
330
1F
100
AcDbEntity
  8
A-5_建具
  6
Continuous
 62
     7
370
     9
100
AcDbLine
 10
-553.5798051522755
 20
-462.5426074529368
 30
0.0
 11
-323.2103080611573
 21
-462.5426074529368
 31
0.0
  0
LWPOLYLINE
  5
89
330
1F
100
AcDbEntity
  8
A-4_文字
  6
Continuous
 62
     7
370
     9
100
AcDbPolyline
 90
        4
 70
     1
 43
1.2
 10
-865.7551266581049
 20
-555.8155529047236
 42
0.4142135623731
 10
-866.3551266581048
 20
-555.2155529047236
 42
0.4142135623731
 10
-866.9551266581047
 20
-555.8155529047236
 42
0.4142135623731
 10
-866.3551266581048
 20
-556.4155529047237
 42
0.4142135623731
  0
LWPOLYLINE
  5
8A
330
1F
100
AcDbEntity
  8
A-4_文字
  6
Continuous
 62
     7
370
     9
100
AcDbPolyline
 90
        4
 70
     1
 43
1.2
 10
-865.7551266581049
 20
-549.8155529047236
 42
0.4142135623731
 10
-866.3551266581048
 20
-549.2155529047236
 42
0.4142135623731
 10
-866.9551266581047
 20
-549.8155529047236
 42
0.4142135623731
 10
-866.3551266581048
 20
-550.4155529047237
 42
0.4142135623731
  0
LINE
  5
8B
330
1F
100
AcDbEntity
  8
A-4_文字
  6
Continuous
 62
     7
370
     9
100
AcDbLine
 10
-866.3551266581048
 20
-555.8155529047236
 30
0.0
 11
-866.3551266581048
 21
-549.8155529047236
 31
0.0
  0
TEXT
  5
8C
330
1F
100
AcDbEntity
  8
A-4_文字
  6
Continuous
 62
     2
370
   211
100
AcDbText
 10
-873.3391266581043
 20
-545.8436689148073
 30
0.0
 40
18.288
  1
6
 50
90.0
  7
ＭＳ ゴシック
100
AcDbText
  0
LINE
  5
8D
330
1F
100
AcDbEntity
  8
A-4_文字
  6
Continuous
 62
     7
370
     9
100
AcDbLine
 10
-866.3551266581048
 20
-549.8155529047236
 30
0.0
 11
-866.3551266581048
 21
-528.6669631384715
 31
0.0
  0
LINE
  5
8E
330
1F
100
AcDbEntity
  8
A-4_文字
  6
Continuous
 62
     7
370
     9
100
AcDbLine
 10
-866.3551266581048
 20
-576.9641426709758
 30
0.0
 11
-866.3551266581048
 21
-555.8155529047236
 31
0.0
  0
LINE
  5
8F
330
1F
100
AcDbEntity
  8
A-4_文字
  6
Continuous
 62
     7
370
     9
100
AcDbLine
 10
-869.3551266581045
 20
-549.8155529047236
 30
0.0
 11
-823.8028291258569
 21
-549.8155529047236
 31
0.0
  0
LINE
  5
90
330
1F
100
AcDbEntity
  8
A-4_文字
  6
Continuous
 62
     7
370
     9
100
AcDbLine
 10
-866.3551266581048
 20
631.6004268237714
 30
0.0
 11
-866.3551266581048
 21
481.6004268237713
 31
0.0
  0
LWPOLYLINE
  5
91
330
1F
100
AcDbEntity
  8
A-4_文字
  6
Continuous
 62
     7
370
     9
100
AcDbPolyline
 90
        4
 70
     1
 43
1.2
 10
-865.7551266581049
 20
631.6004268237714
 42
0.4142135623731
 10
-866.3551266581048
 20
632.2004268237713
 42
0.4142135623731
 10
-866.9551266581047
 20
631.6004268237714
 42
0.4142135623731
 10
-866.3551266581048
 20
631.0004268237714
 42
0.4142135623731
  0
LWPOLYLINE
  5
92
330
1F
100
AcDbEntity
  8
A-4_文字
  6
Continuous
 62
     7
370
     9
100
AcDbPolyline
 90
        4
 70
     1
 43
1.2
 10
-865.7551266581049
 20
481.6004268237713
 42
0.4142135623731
 10
-866.3551266581048
 20
482.2004268237713
 42
0.4142135623731
 10
-866.9551266581047
 20
481.6004268237713
 42
0.4142135623731
 10
-866.3551266581048
 20
481.0004268237714
 42
0.4142135623731
  0
TEXT
  5
93
330
1F
100
AcDbEntity
  8
A-4_文字
  6
Continuous
 62
     2
370
   211
100
AcDbText
 10
-873.3391266581048
 20
537.1004268237714
 30
0.0
 40
18.288
  1
150
 50
90.0
 41
1.083333333333333
  7
ＭＳ ゴシック
100
AcDbText
  0
LWPOLYLINE
  5
94
330
1F
100
AcDbEntity
  8
A-4_文字
  6
Continuous
 62
     7
370
     9
100
AcDbPolyline
 90
        4
 70
     1
 43
1.2
 10
-922.5357079059693
 20
294.1850605397942
 42
0.4142135623731
 10
-923.1357079059693
 20
294.7850605397941
 42
0.4142135623731
 10
-923.7357079059693
 20
294.1850605397942
 42
0.4142135623731
 10
-923.1357079059693
 20
293.5850605397941
 42
0.4142135623731
  0
LWPOLYLINE
  5
95
330
1F
100
AcDbEntity
  8
A-4_文字
  6
Continuous
 62
     7
370
     9
100
AcDbPolyline
 90
        4
 70
     1
 43
1.2
 10
-922.5357079059693
 20
-555.8155529047236
 42
0.4142135623731
 10
-923.1357079059693
 20
-555.2155529047236
 42
0.4142135623731
 10
-923.7357079059693
 20
-555.8155529047236
 42
0.4142135623731
 10
-923.1357079059693
 20
-556.4155529047237
 42
0.4142135623731
  0
LINE
  5
96
330
1F
100
AcDbEntity
  8
A-4_文字
  6
Continuous
 62
     7
370
     9
100
AcDbLine
 10
-926.1357079059693
 20
294.1850605397942
 30
0.0
 11
-723.8028293525226
 21
294.1850605397942
 31
0.0
  0
LINE
  5
97
330
1F
100
AcDbEntity
  8
A-4_文字
  6
Continuous
 62
     7
370
     9
100
AcDbLine
 10
-923.1357079059693
 20
294.1850605397942
 30
0.0
 11
-923.1357079059693
 21
-555.8155529047236
 31
0.0
  0
TEXT
  5
98
330
1F
100
AcDbEntity
  8
A-4_文字
  6
Continuous
 62
     2
370
   211
100
AcDbText
 10
-930.1197079059688
 20
-150.3152461824647
 30
0.0
 40
18.288
  1
850
 50
90.0
 41
1.083333333333333
  7
ＭＳ ゴシック
100
AcDbText
  0
LINE
  5
99
330
1F
100
AcDbEntity
  8
A-4_文字
  6
Continuous
 62
     7
370
     9
100
AcDbLine
 10
-923.1357079059693
 20
456.6004268237713
 30
0.0
 11
-923.1357079059693
 21
656.6004268237714
 31
0.0
  0
LWPOLYLINE
  5
9A
330
1F
100
AcDbEntity
  8
A-4_文字
  6
Continuous
 62
     7
370
     9
100
AcDbPolyline
 90
        4
 70
     1
 43
1.2
 10
-922.5357079059693
 20
456.6004268237713
 42
0.4142135623731
 10
-923.1357079059693
 20
457.2004268237713
 42
0.4142135623731
 10
-923.7357079059693
 20
456.6004268237713
 42
0.4142135623731
 10
-923.1357079059693
 20
456.0004268237714
 42
0.4142135623731
  0
LWPOLYLINE
  5
9B
330
1F
100
AcDbEntity
  8
A-4_文字
  6
Continuous
 62
     7
370
     9
100
AcDbPolyline
 90
        4
 70
     1
 43
1.2
 10
-922.5357079059693
 20
656.6004268237714
 42
0.4142135623731
 10
-923.1357079059693
 20
657.2004268237713
 42
0.4142135623731
 10
-923.7357079059693
 20
656.6004268237714
 42
0.4142135623731
 10
-923.1357079059693
 20
656.0004268237714
 42
0.4142135623731
  0
LINE
  5
9C
330
1F
100
AcDbEntity
  8
A-4_文字
  6
Continuous
 62
     7
370
     9
100
AcDbLine
 10
-924.9357079059694
 20
456.6004268237713
 30
0.0
 11
-815.9663051001529
 21
456.6004268237713
 31
0.0
  0
LINE
  5
9D
330
1F
100
AcDbEntity
  8
A-4_文字
  6
Continuous
 62
     7
370
     9
100
AcDbLine
 10
-924.9357079059694
 20
656.6004268237714
 30
0.0
 11
-815.9663051001529
 21
656.6004268237714
 31
0.0
  0
TEXT
  5
9E
330
1F
100
AcDbEntity
  8
A-4_文字
  6
Continuous
 62
     2
370
   211
100
AcDbText
 10
-930.1197079059694
 20
537.1004268237714
 30
0.0
 40
18.288
  1
200
 50
89.99999999999999
 41
1.083333333333333
  7
ＭＳ ゴシック
100
AcDbText
  0
LINE
  5
9F
330
1F
100
AcDbEntity
  8
A-4_文字
  6
Continuous
 62
     7
370
     9
100
AcDbLine
 10
-868.1551266581048
 20
631.6004268237714
 30
0.0
 11
-815.9663051001529
 21
631.6004268237714
 31
0.0
  0
LINE
  5
A0
330
1F
100
AcDbEntity
  8
A-4_文字
  6
Continuous
 62
     7
370
     9
100
AcDbLine
 10
-868.1551266581048
 20
481.6004268237713
 30
0.0
 11
-815.9663051001529
 21
481.6004268237713
 31
0.0
  0
LINE
  5
A1
330
1F
100
AcDbEntity
  8
A-4_文字
  6
Continuous
 62
     7
370
     9
100
AcDbLine
 10
-628.9663069134822
 20
718.9892483817231
 30
0.0
 11
-778.9663069134822
 21
718.9892483817231
 31
0.0
  0
LWPOLYLINE
  5
A2
330
1F
100
AcDbEntity
  8
A-4_文字
  6
Continuous
 62
     7
370
     9
100
AcDbPolyline
 90
        4
 70
     1
 43
1.2
 10
-628.3663069134823
 20
718.9892483817231
 42
0.4142135623731
 10
-628.9663069134822
 20
719.5892483817231
 42
0.4142135623731
 10
-629.5663069134821
 20
718.9892483817231
 42
0.4142135623731
 10
-628.9663069134822
 20
718.3892483817232
 42
0.4142135623731
  0
LWPOLYLINE
  5
A3
330
1F
100
AcDbEntity
  8
A-4_文字
  6
Continuous
 62
     7
370
     9
100
AcDbPolyline
 90
        4
 70
     1
 43
1.2
 10
-778.3663069134823
 20
718.9892483817231
 42
0.4142135623731
 10
-778.9663069134822
 20
719.5892483817231
 42
0.4142135623731
 10
-779.5663069134821
 20
718.9892483817231
 42
0.4142135623731
 10
-778.9663069134822
 20
718.3892483817232
 42
0.4142135623731
  0
TEXT
  5
A4
330
1F
100
AcDbEntity
  8
A-4_文字
  6
Continuous
 62
     2
370
   211
100
AcDbText
 10
-723.4663069134822
 20
725.9732483817231
 30
0.0
 40
18.288
  1
150
 41
1.083333333333333
  7
ＭＳ ゴシック
100
AcDbText
  0
LINE
  5
A5
330
1F
100
AcDbEntity
  8
A-4_文字
  6
Continuous
 62
     7
370
     9
100
AcDbLine
 10
-803.9663069134823
 20
775.7698296295877
 30
0.0
 11
-603.9663069134822
 21
775.7698296295877
 31
0.0
  0
LWPOLYLINE
  5
A6
330
1F
100
AcDbEntity
  8
A-4_文字
  6
Continuous
 62
     7
370
     9
100
AcDbPolyline
 90
        4
 70
     1
 43
1.2
 10
-803.3663069134823
 20
775.7698296295877
 42
0.4142135623731
 10
-803.9663069134823
 20
776.3698296295877
 42
0.4142135623731
 10
-804.5663069134823
 20
775.7698296295877
 42
0.4142135623731
 10
-803.9663069134823
 20
775.1698296295876
 42
0.4142135623731
  0
LWPOLYLINE
  5
A7
330
1F
100
AcDbEntity
  8
A-4_文字
  6
Continuous
 62
     7
370
     9
100
AcDbPolyline
 90
        4
 70
     1
 43
1.2
 10
-603.3663069134822
 20
775.7698296295877
 42
0.4142135623731
 10
-603.9663069134822
 20
776.3698296295877
 42
0.4142135623731
 10
-604.5663069134821
 20
775.7698296295877
 42
0.4142135623731
 10
-603.9663069134822
 20
775.1698296295876
 42
0.4142135623731
  0
LINE
  5
A8
330
1F
100
AcDbEntity
  8
A-4_文字
  6
Continuous
 62
     7
370
     9
100
AcDbLine
 10
-803.9663069134823
 20
777.5698296295877
 30
0.0
 11
-803.9663069134823
 21
668.6004268237714
 31
0.0
  0
LINE
  5
A9
330
1F
100
AcDbEntity
  8
A-4_文字
  6
Continuous
 62
     7
370
     9
100
AcDbLine
 10
-603.9663069134822
 20
777.5698296295877
 30
0.0
 11
-603.9663069134822
 21
668.6004268237714
 31
0.0
  0
TEXT
  5
AA
330
1F
100
AcDbEntity
  8
A-4_文字
  6
Continuous
 62
     2
370
   211
100
AcDbText
 10
-723.4663069134822
 20
782.7538296295878
 30
0.0
 40
18.288
  1
200
 41
1.083333333333333
  7
ＭＳ ゴシック
100
AcDbText
  0
LINE
  5
AB
330
1F
100
AcDbEntity
  8
A-4_文字
  6
Continuous
 62
     7
370
     9
100
AcDbLine
 10
-628.9663069134822
 20
720.7892483817232
 30
0.0
 11
-628.9663069134822
 21
668.6004268237714
 31
0.0
  0
LINE
  5
AC
330
1F
100
AcDbEntity
  8
A-4_文字
  6
Continuous
 62
     7
370
     9
100
AcDbLine
 10
-778.9663069134822
 20
720.7892483817232
 30
0.0
 11
-778.9663069134822
 21
668.6004268237714
 31
0.0
  0
LINE
  5
AD
330
1F
100
AcDbEntity
  8
A-A_インテリア
  6
JWW_CENTER1
 62
     7
370
     9
100
AcDbLine
 10
-778.9663069134822
 20
495.1004267013717
 30
0.0
 11
-778.9663069134822
 21
468.1004269461711
 31
0.0
  0
LINE
  5
AE
330
1F
100
AcDbEntity
  8
A-A_インテリア
  6
JWW_CENTER1
 62
     7
370
     9
100
AcDbLine
 10
-792.4663067910827
 20
481.6004268237713
 30
0.0
 11
-765.4663070358823
 21
481.6004268237713
 31
0.0
  0
LINE
  5
AF
330
1F
100
AcDbEntity
  8
A-A_インテリア
  6
JWW_CENTER1
 62
     7
370
     9
100
AcDbLine
 10
-778.9663069134822
 20
645.1004267013714
 30
0.0
 11
-778.9663069134822
 21
618.1004269461707
 31
0.0
  0
LINE
  5
B0
330
1F
100
AcDbEntity
  8
A-A_インテリア
  6
JWW_CENTER1
 62
     7
370
     9
100
AcDbLine
 10
-792.4663067910827
 20
631.6004268237714
 30
0.0
 11
-765.4663070358823
 21
631.6004268237714
 31
0.0
  0
LINE
  5
B1
330
1F
100
AcDbEntity
  8
A-A_インテリア
  6
JWW_CENTER1
 62
     7
370
     9
100
AcDbLine
 10
-642.4663067910826
 20
481.6004268237713
 30
0.0
 11
-615.4663070358823
 21
481.6004268237713
 31
0.0
  0
LINE
  5
B2
330
1F
100
AcDbEntity
  8
A-A_インテリア
  6
JWW_CENTER1
 62
     7
370
     9
100
AcDbLine
 10
-628.9663069134822
 20
495.1004267013717
 30
0.0
 11
-628.9663069134822
 21
468.1004269461711
 31
0.0
  0
LINE
  5
B3
330
1F
100
AcDbEntity
  8
A-5_建具
  6
Continuous
 62
     7
370
     9
100
AcDbLine
 10
-583.5405667075529
 20
402.920603853247
 30
0.0
 11
-496.6488521429516
 21
402.920603853247
 31
0.0
  0
LINE
  5
B4
330
1F
100
AcDbEntity
  8
A-5_建具
  6
Continuous
 62
     7
370
     9
100
AcDbLine
 10
-625.2163116663789
 20
475.1052335513041
 30
0.0
 11
-616.0848989393685
 21
463.2049267649653
 31
0.0
  0
LINE
  5
B5
330
1F
100
AcDbEntity
  8
A-5_建具
  6
Continuous
 62
     7
370
     9
100
AcDbLine
 10
-625.2163116663789
 20
475.1052335513041
 30
0.0
 11
-619.4760703217223
 21
461.2470363631743
 31
0.0
  0
LINE
  5
B6
330
1F
100
AcDbEntity
  8
A-5_建具
  6
Continuous
 62
     7
370
     9
100
AcDbLine
 10
-583.5405667075529
 20
402.920603853247
 30
0.0
 11
-625.2163116663789
 21
475.1052335513041
 31
0.0
  0
TEXT
  5
B7
330
1F
100
AcDbEntity
  8
A-5_建具
  6
Continuous
 62
     2
370
   211
100
AcDbText
 10
-576.1488521429517
 20
409.9046038532468
 30
0.0
 40
18.288
  1
4-φ15
 41
1.104166666666667
  7
ＭＳ ゴシック
100
AcDbText
  0
LINE
  5
B8
330
1F
100
AcDbEntity
  8
A-6_間仕切
  6
Continuous
 62
     6
370
     5
100
AcDbLine
 10
-324.777906287128
 20
-555.8147359473265
 30
0.0
 11
-1037.422968593274
 21
-555.8147359473265
 31
0.0
  0
LINE
  5
B9
330
1F
100
AcDbEntity
  8
A-6_間仕切
  6
Continuous
 62
     6
370
     5
100
AcDbLine
 10
-460.1043751330845
 20
-555.8147359473265
 30
0.0
 11
-561.5790166727197
 21
-657.2893774869619
 31
0.0
  0
LINE
  5
BA
330
1F
100
AcDbEntity
  8
A-6_間仕切
  6
Continuous
 62
     6
370
     5
100
AcDbLine
 10
-440.3053852598613
 20
-555.8147359473265
 30
0.0
 11
-541.7800267994965
 21
-657.2893774869619
 31
0.0
  0
LINE
  5
BB
330
1F
100
AcDbEntity
  8
A-6_間仕切
  6
Continuous
 62
     6
370
     5
100
AcDbLine
 10
-450.2048801964729
 20
-555.8147359473265
 30
0.0
 11
-551.6795217361081
 21
-657.2893774869619
 31
0.0
  0
LINE
  5
BC
330
1F
100
AcDbEntity
  8
A-6_間仕切
  6
Continuous
 62
     6
370
     5
100
AcDbLine
 10
-887.6292590083333
 20
-555.8147359473265
 30
0.0
 11
-989.1039005479688
 21
-657.2893774869619
 31
0.0
  0
LINE
  5
BD
330
1F
100
AcDbEntity
  8
A-6_間仕切
  6
Continuous
 62
     6
370
     5
100
AcDbLine
 10
-867.83026913511
 20
-555.8147359473265
 30
0.0
 11
-969.3049106747455
 21
-657.2893774869619
 31
0.0
  0
LINE
  5
BE
330
1F
100
AcDbEntity
  8
A-6_間仕切
  6
Continuous
 62
     6
370
     5
100
AcDbLine
 10
-877.7297640717217
 20
-555.8147359473265
 30
0.0
 11
-979.2044056113568
 21
-657.2893774869619
 31
0.0
  0
LINE
  5
BF
330
1F
100
AcDbEntity
  8
A-2_仕上
  6
Continuous
 62
     3
370
     9
100
AcDbLine
 10
-603.9663069134822
 20
-555.8147359473265
 30
0.0
 11
-603.9663069134822
 21
-549.8147360017265
 31
0.0
  0
LINE
  5
C0
330
1F
100
AcDbEntity
  8
A-2_仕上
  6
Continuous
 62
     3
370
     9
100
AcDbLine
 10
-803.9663051001529
 20
-555.8147359473265
 30
0.0
 11
-803.9663051001529
 21
-549.8147360017265
 31
0.0
  0
LINE
  5
C1
330
1F
100
AcDbEntity
  8
A-2_仕上
  6
Continuous
 62
     3
370
     9
100
AcDbLine
 10
-603.9663069134822
 20
-549.8147360017265
 30
0.0
 11
-803.9663051001529
 21
-549.8147360017265
 31
0.0
  0
LINE
  5
C2
330
1F
100
AcDbEntity
  8
A-2_仕上
  6
Continuous
 62
     3
370
     9
100
AcDbLine
 10
-603.9663069134822
 20
-555.8147359473265
 30
0.0
 11
-803.9663051001529
 21
-555.8147359473265
 31
0.0
  0
LINE
  5
C3
330
1F
100
AcDbEntity
  8
A-2_仕上
  6
Continuous
 62
     3
370
     9
100
AcDbLine
 10
-803.9663051001529
 20
656.6004268237714
 30
0.0
 11
-603.9663069134822
 21
656.6004268237714
 31
0.0
  0
LINE
  5
C4
330
1F
100
AcDbEntity
  8
A-2_仕上
  6
Continuous
 62
     3
370
     9
100
AcDbLine
 10
-803.9663051001529
 20
456.6004268237713
 30
0.0
 11
-603.9663069134822
 21
456.6004268237713
 31
0.0
  0
LINE
  5
C5
330
1F
100
AcDbEntity
  8
A-2_仕上
  6
Continuous
 62
     3
370
     9
100
AcDbLine
 10
-603.9663069134822
 20
656.6004268237714
 30
0.0
 11
-603.9663069134822
 21
456.6004268237713
 31
0.0
  0
LINE
  5
C6
330
1F
100
AcDbEntity
  8
A-2_仕上
  6
Continuous
 62
     3
370
     9
100
AcDbLine
 10
-803.9663051001529
 20
656.6004268237714
 30
0.0
 11
-803.9663051001529
 21
456.6004268237713
 31
0.0
  0
CIRCLE
  5
C7
330
1F
100
AcDbEntity
  8
A-2_仕上
  6
Continuous
 62
     3
370
     9
100
AcDbCircle
 10
-778.9663069134822
 20
631.6004268237714
 30
0.0
 40
7.5
  0
CIRCLE
  5
C8
330
1F
100
AcDbEntity
  8
A-2_仕上
  6
Continuous
 62
     3
370
     9
100
AcDbCircle
 10
-778.9663069134822
 20
481.6004268237713
 30
0.0
 40
7.5
  0
CIRCLE
  5
C9
330
1F
100
AcDbEntity
  8
A-2_仕上
  6
Continuous
 62
     3
370
     9
100
AcDbCircle
 10
-628.9663069134822
 20
481.6004268237713
 30
0.0
 40
7.5
  0
CIRCLE
  5
CA
330
1F
100
AcDbEntity
  8
A-2_仕上
  6
Continuous
 62
     3
370
     9
100
AcDbCircle
 10
-628.9663069134822
 20
631.6004268237714
 30
0.0
 40
7.5
  0
LINE
  5
CB
330
1F
100
AcDbEntity
  8
A-0_通り芯
  6
JWW_CENTER2
 62
     7
370
     9
100
AcDbLine
 10
-703.9663060068176
 20
-584.8147360017266
 30
0.0
 11
-703.9663060068176
 21
310.0702961825884
 31
0.0
  0
LINE
  5
CC
330
1F
100
AcDbEntity
  8
A-2_仕上
  6
Continuous
 62
     3
370
     9
100
AcDbLine
 10
-653.1663060068178
 20
-549.8147360017265
 30
0.0
 11
-653.1663060068174
 21
278.5282799289496
 31
0.0
  0
LINE
  5
CD
330
1F
100
AcDbEntity
  8
A-2_仕上
  6
Continuous
 62
     3
370
     9
100
AcDbLine
 10
-754.7663060068176
 20
-549.8147360017265
 30
0.0
 11
-754.7663060068176
 21
278.5282799289495
 31
0.0
  0
ARC
  5
CE
330
1F
100
AcDbEntity
  8
A-2_仕上
  6
Continuous
 62
     3
370
     9
100
AcDbCircle
 10
-703.9641369093624
 20
203.9449446642093
 30
0.0
 40
90.24031168181511
100
AcDbArc
 50
55.74054580731735
 51
124.2594541926827
  0
LINE
  5
CF
330
1F
100
AcDbEntity
  8
A-2_仕上
  6
Continuous
 62
     3
370
     9
100
AcDbLine
 10
-754.7663060068176
 20
277.1852565001421
 30
0.0
 11
-653.1663060067806
 21
277.1852565001421
 31
0.0
  0
LINE
  5
D0
330
1F
100
AcDbEntity
  8
A-0_通り芯
  6
JWW_CENTER2
 62
     7
370
     9
100
AcDbLine
 10
-817.1059331669621
 20
556.6004268237714
 30
0.0
 11
-591.0768062037862
 21
556.6004268237714
 31
0.0
  0
LINE
  5
D1
330
1F
100
AcDbEntity
  8
A-0_通り芯
  6
JWW_CENTER2
 62
     7
370
     9
100
AcDbLine
 10
-703.9663060068176
 20
446.165136295314
 30
0.0
 11
-703.9663060068176
 21
667.1236241661325
 31
0.0
  0
CIRCLE
  5
D2
330
1F
100
AcDbEntity
  8
A-2_仕上
  6
Continuous
 62
     3
370
     9
100
AcDbCircle
 10
-703.9663060068176
 20
556.6004268237714
 30
0.0
 40
50.8
  0
CIRCLE
  5
D3
330
1F
100
AcDbEntity
  8
A-2_仕上
  6
JWW_DASHED2
 62
     3
370
     9
100
AcDbCircle
 10
-703.9663060068176
 20
556.6004268237714
 30
0.0
 40
48.8
  0
LINE
  5
D4
330
1F
100
AcDbEntity
  8
A-B_衛生陶器
  6
JWW_DASHED1
 62
     2
370
     9
100
AcDbLine
 10
-772.9663069134822
 20
-555.8147359473265
 30
0.0
 11
-772.9663069134822
 21
-584.8147360017266
 31
0.0
  0
LINE
  5
D5
330
1F
100
AcDbEntity
  8
A-B_衛生陶器
  6
JWW_DASHED1
 62
     2
370
     9
100
AcDbLine
 10
-784.9663069134822
 20
-555.8147359473265
 30
0.0
 11
-784.9663069134822
 21
-584.8147360017266
 31
0.0
  0
LINE
  5
D6
330
1F
100
AcDbEntity
  8
A-B_衛生陶器
  6
JWW_DASHED1
 62
     2
370
     9
100
AcDbLine
 10
-789.9359619504085
 20
-549.8147360017265
 30
0.0
 11
-767.9966518765559
 21
-549.8147360017265
 31
0.0
  0
LINE
  5
D7
330
1F
100
AcDbEntity
  8
A-B_衛生陶器
  6
JWW_DASHED1
 62
     2
370
     9
100
AcDbLine
 10
-769.4663069134822
 20
-539.8147360017265
 30
0.0
 11
-767.9966518765559
 21
-540.6632419755424
 31
0.0
  0
LINE
  5
D8
330
1F
100
AcDbEntity
  8
A-B_衛生陶器
  6
JWW_DASHED1
 62
     2
370
     9
100
AcDbLine
 10
-767.9966518765559
 20
-540.6632419755424
 30
0.0
 11
-767.9966518765559
 21
-549.8147360017265
 31
0.0
  0
LINE
  5
D9
330
1F
100
AcDbEntity
  8
A-B_衛生陶器
  6
JWW_DASHED1
 62
     2
370
     9
100
AcDbLine
 10
-773.481479395019
 20
-540.6632419755424
 30
0.0
 11
-773.481479395019
 21
-549.8147360017265
 31
0.0
  0
LINE
  5
DA
330
1F
100
AcDbEntity
  8
A-B_衛生陶器
  6
JWW_DASHED1
 62
     2
370
     9
100
AcDbLine
 10
-784.4511344319453
 20
-540.6632419755424
 30
0.0
 11
-784.4511344319453
 21
-549.8147360017265
 31
0.0
  0
LINE
  5
DB
330
1F
100
AcDbEntity
  8
A-B_衛生陶器
  6
JWW_DASHED1
 62
     2
370
     9
100
AcDbLine
 10
-788.4663069134822
 20
-539.8147360017265
 30
0.0
 11
-789.9359619504085
 21
-540.6632419755424
 31
0.0
  0
LINE
  5
DC
330
1F
100
AcDbEntity
  8
A-B_衛生陶器
  6
JWW_DASHED1
 62
     2
370
     9
100
AcDbLine
 10
-789.9359619504085
 20
-540.6632419755424
 30
0.0
 11
-789.9359619504085
 21
-549.8147360017265
 31
0.0
  0
LINE
  5
DD
330
1F
100
AcDbEntity
  8
A-B_衛生陶器
  6
JWW_DASHED1
 62
     2
370
     9
100
AcDbLine
 10
-788.4663069134822
 20
-539.8147360017265
 30
0.0
 11
-769.4663069134822
 21
-539.8147360017265
 31
0.0
  0
ARC
  5
DE
330
1F
100
AcDbEntity
  8
A-B_衛生陶器
  6
JWW_DASHED1
 62
     2
370
     9
100
AcDbCircle
 10
-778.9663069134822
 20
-557.9662300279106
 30
0.0
 40
18.1514949798584
100
AcDbArc
 50
72.41203308105469
 51
107.5879516601562
  0
ARC
  5
DF
330
1F
100
AcDbEntity
  8
A-B_衛生陶器
  6
JWW_DASHED1
 62
     2
370
     9
100
AcDbCircle
 10
-771.2340271359553
 20
-546.270540588137
 30
0.0
 40
6.474750995635986
100
AcDbArc
 50
60.0
 51
85.61573791503906
  0
ARC
  5
E0
330
1F
100
AcDbEntity
  8
A-B_衛生陶器
  6
JWW_DASHED1
 62
     2
370
     9
100
AcDbCircle
 10
-770.5684511548152
 20
-545.2222334077323
 30
0.0
 40
5.410188674926758
100
AcDbArc
 50
91.80715942382812
 51
122.5770721435547
  0
ARC
  5
E1
330
1F
100
AcDbEntity
  8
A-B_衛生陶器
  6
JWW_DASHED1
 62
     2
370
     9
100
AcDbCircle
 10
-786.698586691009
 20
-546.270540588137
 30
0.0
 40
6.474750995635986
100
AcDbArc
 50
94.38424682617189
 51
119.9999847412109
  0
ARC
  5
E2
330
1F
100
AcDbEntity
  8
A-B_衛生陶器
  6
JWW_DASHED1
 62
     2
370
     9
100
AcDbCircle
 10
-787.3641626721492
 20
-545.2222334077323
 30
0.0
 40
5.410188674926758
100
AcDbArc
 50
57.42291259765625
 51
88.19282531738283
  0
LINE
  5
E3
330
1F
100
AcDbEntity
  8
A-B_衛生陶器
  6
JWW_DASHED1
 62
     2
370
     9
100
AcDbLine
 10
-772.9663069134822
 20
-532.8147360017265
 30
0.0
 11
-784.9663069134822
 21
-532.8147360017265
 31
0.0
  0
LINE
  5
E4
330
1F
100
AcDbEntity
  8
A-B_衛生陶器
  6
JWW_DASHED1
 62
     2
370
     9
100
AcDbLine
 10
-772.9663069134822
 20
-539.8147360017265
 30
0.0
 11
-772.9663069134822
 21
-532.8147360017265
 31
0.0
  0
LINE
  5
E5
330
1F
100
AcDbEntity
  8
A-B_衛生陶器
  6
JWW_DASHED1
 62
     2
370
     9
100
AcDbLine
 10
-784.9663069134822
 20
-539.8147360017265
 30
0.0
 11
-784.9663069134822
 21
-532.8147360017265
 31
0.0
  0
LINE
  5
E6
330
1F
100
AcDbEntity
  8
A-A_インテリア
  6
JWW_CENTER1
 62
     7
370
     9
100
AcDbLine
 10
-778.9663069134822
 20
-530.0028518991295
 30
0.0
 11
-778.9663069134822
 21
-588.254951337428
 31
0.0
  0
LINE
  5
E7
330
1F
100
AcDbEntity
  8
A-2_仕上
  6
JWW_DASHED1
 62
     3
370
     9
100
AcDbLine
 10
-771.4663069814825
 20
-549.8147360017265
 30
0.0
 11
-771.4663069814825
 21
-555.8147359473265
 31
0.0
  0
LINE
  5
E8
330
1F
100
AcDbEntity
  8
A-2_仕上
  6
JWW_DASHED1
 62
     3
370
     9
100
AcDbLine
 10
-786.4663068454826
 20
-549.8147360017265
 30
0.0
 11
-786.4663068454826
 21
-555.8147359473265
 31
0.0
  0
LINE
  5
E9
330
1F
100
AcDbEntity
  8
A-B_衛生陶器
  6
JWW_DASHED1
 62
     2
370
     9
100
AcDbLine
 10
-622.9663069134822
 20
-555.8147359473265
 30
0.0
 11
-622.9663069134822
 21
-584.8147360017266
 31
0.0
  0
LINE
  5
EA
330
1F
100
AcDbEntity
  8
A-B_衛生陶器
  6
JWW_DASHED1
 62
     2
370
     9
100
AcDbLine
 10
-634.9663069134822
 20
-555.8147359473265
 30
0.0
 11
-634.9663069134822
 21
-584.8147360017266
 31
0.0
  0
LINE
  5
EB
330
1F
100
AcDbEntity
  8
A-B_衛生陶器
  6
JWW_DASHED1
 62
     2
370
     9
100
AcDbLine
 10
-639.9359619504085
 20
-549.8147360017265
 30
0.0
 11
-617.9966518765559
 21
-549.8147360017265
 31
0.0
  0
LINE
  5
EC
330
1F
100
AcDbEntity
  8
A-B_衛生陶器
  6
JWW_DASHED1
 62
     2
370
     9
100
AcDbLine
 10
-619.4663069134822
 20
-539.8147360017265
 30
0.0
 11
-617.9966518765559
 21
-540.6632419755424
 31
0.0
  0
LINE
  5
ED
330
1F
100
AcDbEntity
  8
A-B_衛生陶器
  6
JWW_DASHED1
 62
     2
370
     9
100
AcDbLine
 10
-617.9966518765559
 20
-540.6632419755424
 30
0.0
 11
-617.9966518765559
 21
-549.8147360017265
 31
0.0
  0
LINE
  5
EE
330
1F
100
AcDbEntity
  8
A-B_衛生陶器
  6
JWW_DASHED1
 62
     2
370
     9
100
AcDbLine
 10
-623.481479395019
 20
-540.6632419755424
 30
0.0
 11
-623.481479395019
 21
-549.8147360017265
 31
0.0
  0
LINE
  5
EF
330
1F
100
AcDbEntity
  8
A-B_衛生陶器
  6
JWW_DASHED1
 62
     2
370
     9
100
AcDbLine
 10
-634.4511344319453
 20
-540.6632419755424
 30
0.0
 11
-634.4511344319453
 21
-549.8147360017265
 31
0.0
  0
LINE
  5
F0
330
1F
100
AcDbEntity
  8
A-B_衛生陶器
  6
JWW_DASHED1
 62
     2
370
     9
100
AcDbLine
 10
-638.4663069134822
 20
-539.8147360017265
 30
0.0
 11
-639.9359619504085
 21
-540.6632419755424
 31
0.0
  0
LINE
  5
F1
330
1F
100
AcDbEntity
  8
A-B_衛生陶器
  6
JWW_DASHED1
 62
     2
370
     9
100
AcDbLine
 10
-639.9359619504085
 20
-540.6632419755424
 30
0.0
 11
-639.9359619504085
 21
-549.8147360017265
 31
0.0
  0
LINE
  5
F2
330
1F
100
AcDbEntity
  8
A-B_衛生陶器
  6
JWW_DASHED1
 62
     2
370
     9
100
AcDbLine
 10
-638.4663069134822
 20
-539.8147360017265
 30
0.0
 11
-619.4663069134822
 21
-539.8147360017265
 31
0.0
  0
ARC
  5
F3
330
1F
100
AcDbEntity
  8
A-B_衛生陶器
  6
JWW_DASHED1
 62
     2
370
     9
100
AcDbCircle
 10
-628.9663069134822
 20
-557.9662300279106
 30
0.0
 40
18.1514949798584
100
AcDbArc
 50
72.41203308105469
 51
107.5879516601562
  0
ARC
  5
F4
330
1F
100
AcDbEntity
  8
A-B_衛生陶器
  6
JWW_DASHED1
 62
     2
370
     9
100
AcDbCircle
 10
-621.2340271359553
 20
-546.270540588137
 30
0.0
 40
6.474750995635986
100
AcDbArc
 50
60.0
 51
85.61573791503906
  0
ARC
  5
F5
330
1F
100
AcDbEntity
  8
A-B_衛生陶器
  6
JWW_DASHED1
 62
     2
370
     9
100
AcDbCircle
 10
-620.5684511548152
 20
-545.2222334077323
 30
0.0
 40
5.410188674926758
100
AcDbArc
 50
91.80715942382812
 51
122.5770721435547
  0
ARC
  5
F6
330
1F
100
AcDbEntity
  8
A-B_衛生陶器
  6
JWW_DASHED1
 62
     2
370
     9
100
AcDbCircle
 10
-636.698586691009
 20
-546.270540588137
 30
0.0
 40
6.474750995635986
100
AcDbArc
 50
94.38424682617189
 51
119.9999847412109
  0
ARC
  5
F7
330
1F
100
AcDbEntity
  8
A-B_衛生陶器
  6
JWW_DASHED1
 62
     2
370
     9
100
AcDbCircle
 10
-637.3641626721492
 20
-545.2222334077323
 30
0.0
 40
5.410188674926758
100
AcDbArc
 50
57.42291259765625
 51
88.19282531738283
  0
LINE
  5
F8
330
1F
100
AcDbEntity
  8
A-B_衛生陶器
  6
JWW_DASHED1
 62
     2
370
     9
100
AcDbLine
 10
-622.9663069134822
 20
-532.8147360017265
 30
0.0
 11
-634.9663069134822
 21
-532.8147360017265
 31
0.0
  0
LINE
  5
F9
330
1F
100
AcDbEntity
  8
A-B_衛生陶器
  6
JWW_DASHED1
 62
     2
370
     9
100
AcDbLine
 10
-622.9663069134822
 20
-539.8147360017265
 30
0.0
 11
-622.9663069134822
 21
-532.8147360017265
 31
0.0
  0
LINE
  5
FA
330
1F
100
AcDbEntity
  8
A-B_衛生陶器
  6
JWW_DASHED1
 62
     2
370
     9
100
AcDbLine
 10
-634.9663069134822
 20
-539.8147360017265
 30
0.0
 11
-634.9663069134822
 21
-532.8147360017265
 31
0.0
  0
LINE
  5
FB
330
1F
100
AcDbEntity
  8
A-5_建具
  6
Continuous
 62
     7
370
     9
100
AcDbLine
 10
-628.9663069134822
 20
-532.8147360017265
 30
0.0
 11
-623.2260655688256
 21
-518.9565388135964
 31
0.0
  0
LINE
  5
FC
330
1F
100
AcDbEntity
  8
A-5_建具
  6
Continuous
 62
     7
370
     9
100
AcDbLine
 10
-628.9663069134822
 20
-532.8147360017265
 30
0.0
 11
-619.8348941864717
 21
-520.9144292153873
 31
0.0
  0
LINE
  5
FD
330
1F
100
AcDbEntity
  8
A-5_建具
  6
Continuous
 62
     7
370
     9
100
AcDbLine
 10
-545.5144100827949
 20
-388.2715664369089
 30
0.0
 11
-628.9663069134822
 21
-532.8147360017265
 31
0.0
  0
TEXT
  5
FE
330
1F
100
AcDbEntity
  8
A-5_建具
  6
Continuous
 62
     7
370
   211
100
AcDbText
 10
-540.4550659302937
 20
-378.9990471987959
 30
0.0
 40
13.716
  1
あと施工アンカー（別途）
 41
1.152777777777777
  7
ＭＳ ゴシック
100
AcDbText
  0
LINE
  5
FF
330
1F
100
AcDbEntity
  8
A-5_建具
  6
Continuous
 62
     7
370
     9
100
AcDbLine
 10
-545.5144100827949
 20
-388.2715664369089
 30
0.0
 11
-291.4550659302937
 21
-388.2715664369089
 31
0.0
  0
LINE
  5
100
330
1F
100
AcDbEntity
  8
A-A_インテリア
  6
JWW_CENTER1
 62
     7
370
     9
100
AcDbLine
 10
-628.9663069134822
 20
-530.0028518991295
 30
0.0
 11
-628.9663069134822
 21
-588.254951337428
 31
0.0
  0
LINE
  5
101
330
1F
100
AcDbEntity
  8
A-2_仕上
  6
JWW_DASHED1
 62
     3
370
     9
100
AcDbLine
 10
-621.4663069814825
 20
-549.8147360017265
 30
0.0
 11
-621.4663069814825
 21
-555.8147359473265
 31
0.0
  0
LINE
  5
102
330
1F
100
AcDbEntity
  8
A-2_仕上
  6
JWW_DASHED1
 62
     3
370
     9
100
AcDbLine
 10
-636.4663068454826
 20
-549.8147360017265
 30
0.0
 11
-636.4663068454826
 21
-555.8147359473265
 31
0.0
  0
TEXT
  5
103
330
1F
100
AcDbEntity
  8
A-5_建具
  6
Continuous
 62
     7
370
     9
100
AcDbText
 10
-540.4550659302937
 20
-410.5144661638604
 30
0.0
 40
13.716
  1
M12
 41
1.111111111111111
  7
ＭＳ ゴシック
100
AcDbText
  0
LINE
  5
104
330
1F
100
AcDbEntity
  8
A-5_建具
  6
Continuous
 62
     7
370
     9
100
AcDbLine
 10
-611.4905610479913
 20
-63.45859833833131
 30
0.0
 11
-653.1663060068175
 21
-135.6432280363885
 31
0.0
  0
LINE
  5
105
330
1F
100
AcDbEntity
  8
A-5_建具
  6
Continuous
 62
     7
370
     9
100
AcDbLine
 10
-653.1663060068175
 20
-135.6432280363885
 30
0.0
 11
-647.4260646621609
 21
-121.7850308482587
 31
0.0
  0
LINE
  5
106
330
1F
100
AcDbEntity
  8
A-5_建具
  6
Continuous
 62
     7
370
     9
100
AcDbLine
 10
-653.1663060068175
 20
-135.6432280363885
 30
0.0
 11
-644.0348932798071
 21
-123.7429212500496
 31
0.0
  0
TEXT
  5
107
330
1F
100
AcDbEntity
  8
A-5_建具
  6
Continuous
 62
     7
370
   211
100
AcDbText
 10
-609.1210639568734
 20
-85.70149806528245
 30
0.0
 40
13.716
  1
SUS304　ヘアライン仕上
 41
1.151515151515151
  7
ＭＳ ゴシック
100
AcDbText
  0
LINE
  5
108
330
1F
100
AcDbEntity
  8
A-5_建具
  6
Continuous
 62
     7
370
     9
100
AcDbLine
 10
-611.4905610479913
 20
-63.45859833833131
 30
0.0
 11
-381.1210639568734
 21
-63.45859833833131
 31
0.0
  0
TEXT
  5
109
330
1F
100
AcDbEntity
  8
A-5_建具
  6
Continuous
 62
     7
370
     9
100
AcDbText
 10
-611.6812168954904
 20
-54.18607910021834
 30
0.0
 40
13.716
  1
本体：φ101.6×2
 41
1.156249999999999
  7
ＭＳ ゴシック
100
AcDbText
  0
LWPOLYLINE
  5
10A
330
1F
100
AcDbEntity
  8
A-4_文字
  6
Continuous
 62
     7
370
     9
100
AcDbPolyline
 90
        4
 70
     1
 43
1.2
 10
-754.1641364489145
 20
342.4824795363949
 42
0.4142135623731
 10
-754.7641364489145
 20
343.0824795363949
 42
0.4142135623731
 10
-755.3641364489145
 20
342.4824795363949
 42
0.4142135623731
 10
-754.7641364489145
 20
341.8824795363949
 42
0.4142135623731
  0
LINE
  5
10B
330
1F
100
AcDbEntity
  8
A-4_文字
  6
Continuous
 62
     7
370
     9
100
AcDbLine
 10
-754.7641364489145
 20
345.4824795363949
 30
0.0
 11
-754.7641364489145
 21
290.8263020181485
 31
0.0
  0
LWPOLYLINE
  5
10C
330
1F
100
AcDbEntity
  8
A-4_文字
  6
Continuous
 62
     7
370
     9
100
AcDbPolyline
 90
        4
 70
     1
 43
1.2
 10
-652.5641364489516
 20
342.4824795363949
 42
0.4142135623731
 10
-653.1641364489516
 20
343.0824795363949
 42
0.4142135623731
 10
-653.7641364489515
 20
342.4824795363949
 42
0.4142135623731
 10
-653.1641364489516
 20
341.8824795363949
 42
0.4142135623731
  0
LINE
  5
10D
330
1F
100
AcDbEntity
  8
A-4_文字
  6
Continuous
 62
     7
370
     9
100
AcDbLine
 10
-653.1641364489516
 20
345.4824795363949
 30
0.0
 11
-653.1641364489516
 21
290.8263020181485
 31
0.0
  0
LINE
  5
10E
330
1F
100
AcDbEntity
  8
A-4_文字
  6
Continuous
 62
     7
370
     9
100
AcDbLine
 10
-754.7641364489145
 20
342.4824795363949
 30
0.0
 11
-653.1641364489516
 21
342.4824795363949
 31
0.0
  0
TEXT
  5
10F
330
1F
100
AcDbEntity
  8
A-4_文字
  6
Continuous
 62
     2
370
   211
100
AcDbText
 10
-750.464136448933
 20
349.4664795363947
 30
0.0
 40
18.288
  1
φ101.6
 41
1.107142857142857
  7
ＭＳ ゴシック
100
AcDbText
  0
LWPOLYLINE
  5
110
330
1F
100
AcDbEntity
  8
A-4_文字
  6
Continuous
 62
     7
370
     9
100
AcDbPolyline
 90
        4
 70
     1
 43
1.2
 10
-865.7551266581049
 20
294.1850605397942
 42
0.4142135623731
 10
-866.3551266581048
 20
294.7850605397941
 42
0.4142135623731
 10
-866.9551266581047
 20
294.1850605397942
 42
0.4142135623731
 10
-866.3551266581048
 20
293.5850605397941
 42
0.4142135623731
  0
LINE
  5
111
330
1F
100
AcDbEntity
  8
A-2_仕上
  6
Continuous
 62
     3
370
     9
100
AcDbLine
 10
-634.8493061728882
 20
174.1850607211351
 30
0.0
 11
-634.8493061728882
 21
174.1950607210444
 31
0.0
  0
ARC
  5
112
330
1F
100
AcDbEntity
  8
A-2_仕上
  6
Continuous
 62
     3
370
     9
100
AcDbCircle
 10
-634.8493061728882
 20
186.8680606061438
 30
0.0
 40
12.68299988500862
100
AcDbArc
 50
270.0
 51
0.0
  0
ARC
  5
113
330
1F
100
AcDbEntity
  8
A-2_仕上
  6
Continuous
 62
     3
370
     9
100
AcDbCircle
 10
-634.8493061728882
 20
186.8680606061438
 30
0.0
 40
18.68299983060874
100
AcDbArc
 50
270.0
 51
0.0
  0
LINE
  5
114
330
1F
100
AcDbEntity
  8
A-2_仕上
  6
Continuous
 62
     3
370
     9
100
AcDbLine
 10
-647.1663060612095
 20
193.6850605443355
 30
0.0
 11
-647.1663060612095
 21
183.8431639411104
 31
0.0
  0
LINE
  5
115
330
1F
100
AcDbEntity
  8
A-2_仕上
  6
Continuous
 62
     3
370
     9
100
AcDbLine
 10
-653.1663060068174
 20
193.6850605443355
 30
0.0
 11
-647.1663060612169
 21
193.6850605443355
 31
0.0
  0
ARC
  5
116
330
1F
100
AcDbEntity
  8
A-2_仕上
  6
Continuous
 62
     3
370
     9
100
AcDbCircle
 10
-634.8493061728882
 20
186.8680606061438
 30
0.0
 40
12.68299988500862
100
AcDbArc
 50
193.7980315976056
 51
270.0
  0
ARC
  5
117
330
1F
100
AcDbEntity
  8
A-2_仕上
  6
Continuous
 62
     3
370
     9
100
AcDbCircle
 10
-634.8493061728882
 20
186.8680606061438
 30
0.0
 40
18.68299983060874
100
AcDbArc
 50
191.3596882805108
 51
270.0
  0
ARC
  5
118
330
1F
100
AcDbEntity
  8
A-2_仕上
  6
Continuous
 62
     3
370
     9
100
AcDbCircle
 10
-634.8493061728882
 20
201.5020604734602
 30
0.0
 40
12.68299988500862
100
AcDbArc
 50
0.0
 51
90.0
  0
ARC
  5
119
330
1F
100
AcDbEntity
  8
A-2_仕上
  6
Continuous
 62
     3
370
     9
100
AcDbCircle
 10
-634.8493061728882
 20
201.5020604734602
 30
0.0
 40
18.68299983060874
100
AcDbArc
 50
0.0
 51
90.0
  0
LINE
  5
11A
330
1F
100
AcDbEntity
  8
A-2_仕上
  6
Continuous
 62
     3
370
     9
100
AcDbLine
 10
-647.1663060612095
 20
194.6850605352685
 30
0.0
 11
-647.1663060612095
 21
204.526957138494
 31
0.0
  0
ARC
  5
11B
330
1F
100
AcDbEntity
  8
A-2_仕上
  6
Continuous
 62
     3
370
     9
100
AcDbCircle
 10
-634.8493061728882
 20
201.5020604734602
 30
0.0
 40
12.68299988500862
100
AcDbArc
 50
90.0
 51
166.2019684023945
  0
ARC
  5
11C
330
1F
100
AcDbEntity
  8
A-2_仕上
  6
Continuous
 62
     3
370
     9
100
AcDbCircle
 10
-634.8493061728882
 20
201.5020604734602
 30
0.0
 40
18.68299983060874
100
AcDbArc
 50
90.0
 51
168.6403117194892
  0
LINE
  5
11D
330
1F
100
AcDbEntity
  8
A-2_仕上
  6
Continuous
 62
     3
370
     9
100
AcDbLine
 10
-653.1663060068026
 20
194.6850605352685
 30
0.0
 11
-647.1663060612095
 21
194.6850605352651
 31
0.0
  0
LINE
  5
11E
330
1F
100
AcDbEntity
  8
A-2_仕上
  6
Continuous
 62
     3
370
     9
100
AcDbLine
 10
-622.1663062878835
 20
186.8680606061438
 30
0.0
 11
-622.1663062878835
 21
201.5020604734602
 31
0.0
  0
LINE
  5
11F
330
1F
100
AcDbEntity
  8
A-2_仕上
  6
Continuous
 62
     3
370
     9
100
AcDbLine
 10
-616.166306342283
 20
186.8680606061438
 30
0.0
 11
-616.166306342283
 21
201.5020604734602
 31
0.0
  0
LINE
  5
120
330
1F
100
AcDbEntity
  8
A-A_インテリア
  6
JWW_CENTER1
 62
     7
370
     9
100
AcDbLine
 10
-661.0377132621013
 20
194.1850605398044
 30
0.0
 11
-609.7237987264725
 21
194.1850605397887
 31
0.0
  0
LINE
  5
121
330
1F
100
AcDbEntity
  8
A-A_インテリア
  6
JWW_CENTER1
 62
     7
370
     9
100
AcDbLine
 10
-634.8493061728882
 20
159.6649319765208
 30
0.0
 11
-634.8493061728882
 21
228.7051891030716
 31
0.0
  0
LWPOLYLINE
  5
122
330
1F
100
AcDbEntity
  8
A-4_文字
  6
Continuous
 62
     7
370
     9
100
AcDbPolyline
 90
        4
 70
     1
 43
1.2
 10
-865.7551266581049
 20
194.1850605397942
 42
0.4142135623731
 10
-866.3551266581048
 20
194.7850605397942
 42
0.4142135623731
 10
-866.9551266581047
 20
194.1850605397942
 42
0.4142135623731
 10
-866.3551266581048
 20
193.5850605397941
 42
0.4142135623731
  0
LINE
  5
123
330
1F
100
AcDbEntity
  8
A-4_文字
  6
Continuous
 62
     7
370
     9
100
AcDbLine
 10
-866.3551266581048
 20
294.1850605397942
 30
0.0
 11
-866.3551266581048
 21
194.1850605397942
 31
0.0
  0
TEXT
  5
124
330
1F
100
AcDbEntity
  8
A-4_文字
  6
Continuous
 62
     2
370
   211
100
AcDbText
 10
-873.3391266581048
 20
224.6850605397941
 30
0.0
 40
18.288
  1
100
 50
90.0
 41
1.083333333333333
  7
ＭＳ ゴシック
100
AcDbText
  0
LINE
  5
125
330
1F
100
AcDbEntity
  8
A-2_仕上
  6
Continuous
 62
     3
370
     9
100
AcDbLine
 10
-650.1663060340175
 20
553.6004268509711
 30
0.0
 11
-619.1663063150829
 21
553.6004268509711
 31
0.0
  0
ARC
  5
126
330
1F
100
AcDbEntity
  8
A-2_仕上
  6
Continuous
 62
     3
370
     9
100
AcDbCircle
 10
-619.1663063150829
 20
556.6004268237712
 30
0.0
 40
2.999999972800059
100
AcDbArc
 50
270.0
 51
90.0
  0
LINE
  5
127
330
1F
100
AcDbEntity
  8
A-2_仕上
  6
Continuous
 62
     3
370
     9
100
AcDbLine
 10
-619.1663063150829
 20
559.6004267965709
 30
0.0
 11
-650.1663060340175
 21
559.6004267965709
 31
0.0
  0
ARC
  5
128
330
1F
100
AcDbEntity
  8
A-2_仕上
  6
Continuous
 62
     3
370
     9
100
AcDbCircle
 10
-650.1663060340175
 20
556.6004268237712
 30
0.0
 40
2.999999972800059
100
AcDbArc
 50
90.0
 51
270.0
  0
LINE
  5
129
330
1F
100
AcDbEntity
  8
A-A_インテリア
  6
JWW_CENTER1
 62
     7
370
     9
100
AcDbLine
 10
-634.6663061745501
 20
550.600426878171
 30
0.0
 11
-634.6663061745501
 21
562.6004267693717
 31
0.0
  0
LINE
  5
12A
330
1F
100
AcDbEntity
  8
A-2_仕上
  6
Continuous
 62
     3
370
     9
100
AcDbLine
 10
99.8335164614507
 20
-555.8147359473265
 30
0.0
 11
99.8335164614507
 21
-549.8147360017265
 31
0.0
  0
LINE
  5
12B
330
1F
100
AcDbEntity
  8
A-2_仕上
  6
Continuous
 62
     3
370
     9
100
AcDbLine
 10
-100.1664817252201
 20
-555.8147359473265
 30
0.0
 11
-100.1664817252201
 21
-549.8147360017265
 31
0.0
  0
LINE
  5
12C
330
1F
100
AcDbEntity
  8
A-2_仕上
  6
Continuous
 62
     3
370
     9
100
AcDbLine
 10
99.8335164614507
 20
-549.8147360017265
 30
0.0
 11
-100.1664817252201
 21
-549.8147360017265
 31
0.0
  0
LINE
  5
12D
330
1F
100
AcDbEntity
  8
A-2_仕上
  6
Continuous
 62
     3
370
     9
100
AcDbLine
 10
99.8335164614507
 20
-555.8147359473265
 30
0.0
 11
-100.1664817252201
 21
-555.8147359473265
 31
0.0
  0
LINE
  5
12E
330
1F
100
AcDbEntity
  8
A-0_通り芯
  6
JWW_CENTER2
 62
     7
370
     9
100
AcDbLine
 10
-0.166482631884719
 20
-584.8147360017266
 30
0.0
 11
-0.166482631884719
 21
310.0702961825884
 31
0.0
  0
LINE
  5
12F
330
1F
100
AcDbEntity
  8
A-2_仕上
  6
Continuous
 62
     3
370
     9
100
AcDbLine
 10
50.63351736811512
 20
-549.8147360017265
 30
0.0
 11
50.63351736811546
 21
278.5282799289496
 31
0.0
  0
LINE
  5
130
330
1F
100
AcDbEntity
  8
A-2_仕上
  6
Continuous
 62
     3
370
     9
100
AcDbLine
 10
-50.96648263188473
 20
-549.8147360017265
 30
0.0
 11
-50.96648263188473
 21
278.5282799289495
 31
0.0
  0
ARC
  5
131
330
1F
100
AcDbEntity
  8
A-2_仕上
  6
Continuous
 62
     3
370
     9
100
AcDbCircle
 10
-0.1643135344295104
 20
203.9449446642093
 30
0.0
 40
90.24031168181511
100
AcDbArc
 50
55.74054580731735
 51
124.2594541926827
  0
LINE
  5
132
330
1F
100
AcDbEntity
  8
A-2_仕上
  6
Continuous
 62
     3
370
     9
100
AcDbLine
 10
-50.96648263188473
 20
277.1852565001421
 30
0.0
 11
50.63351736815221
 21
277.1852565001421
 31
0.0
  0
LINE
  5
133
330
1F
100
AcDbEntity
  8
A-B_衛生陶器
  6
JWW_DASHED1
 62
     2
370
     9
100
AcDbLine
 10
-69.16648353854933
 20
-555.8147359473265
 30
0.0
 11
-69.16648353854933
 21
-584.8147360017266
 31
0.0
  0
LINE
  5
134
330
1F
100
AcDbEntity
  8
A-B_衛生陶器
  6
JWW_DASHED1
 62
     2
370
     9
100
AcDbLine
 10
-81.16648353854933
 20
-555.8147359473265
 30
0.0
 11
-81.16648353854933
 21
-584.8147360017266
 31
0.0
  0
LINE
  5
135
330
1F
100
AcDbEntity
  8
A-B_衛生陶器
  6
JWW_DASHED1
 62
     2
370
     9
100
AcDbLine
 10
-86.13613857547554
 20
-549.8147360017265
 30
0.0
 11
-64.19682850162303
 21
-549.8147360017265
 31
0.0
  0
LINE
  5
136
330
1F
100
AcDbEntity
  8
A-B_衛生陶器
  6
JWW_DASHED1
 62
     2
370
     9
100
AcDbLine
 10
-65.66648353854927
 20
-539.8147360017265
 30
0.0
 11
-64.19682850162303
 21
-540.6632419755424
 31
0.0
  0
LINE
  5
137
330
1F
100
AcDbEntity
  8
A-B_衛生陶器
  6
JWW_DASHED1
 62
     2
370
     9
100
AcDbLine
 10
-64.19682850162303
 20
-540.6632419755424
 30
0.0
 11
-64.19682850162303
 21
-549.8147360017265
 31
0.0
  0
LINE
  5
138
330
1F
100
AcDbEntity
  8
A-B_衛生陶器
  6
JWW_DASHED1
 62
     2
370
     9
100
AcDbLine
 10
-69.68165602008614
 20
-540.6632419755424
 30
0.0
 11
-69.68165602008614
 21
-549.8147360017265
 31
0.0
  0
LINE
  5
139
330
1F
100
AcDbEntity
  8
A-B_衛生陶器
  6
JWW_DASHED1
 62
     2
370
     9
100
AcDbLine
 10
-80.65131105701252
 20
-540.6632419755424
 30
0.0
 11
-80.65131105701252
 21
-549.8147360017265
 31
0.0
  0
LINE
  5
13A
330
1F
100
AcDbEntity
  8
A-B_衛生陶器
  6
JWW_DASHED1
 62
     2
370
     9
100
AcDbLine
 10
-84.66648353854939
 20
-539.8147360017265
 30
0.0
 11
-86.13613857547554
 21
-540.6632419755424
 31
0.0
  0
LINE
  5
13B
330
1F
100
AcDbEntity
  8
A-B_衛生陶器
  6
JWW_DASHED1
 62
     2
370
     9
100
AcDbLine
 10
-86.13613857547554
 20
-540.6632419755424
 30
0.0
 11
-86.13613857547554
 21
-549.8147360017265
 31
0.0
  0
LINE
  5
13C
330
1F
100
AcDbEntity
  8
A-B_衛生陶器
  6
JWW_DASHED1
 62
     2
370
     9
100
AcDbLine
 10
-84.66648353854939
 20
-539.8147360017265
 30
0.0
 11
-65.66648353854927
 21
-539.8147360017265
 31
0.0
  0
ARC
  5
13D
330
1F
100
AcDbEntity
  8
A-B_衛生陶器
  6
JWW_DASHED1
 62
     2
370
     9
100
AcDbCircle
 10
-75.16648353854933
 20
-557.9662300279106
 30
0.0
 40
18.1514949798584
100
AcDbArc
 50
72.41203308105469
 51
107.5879516601562
  0
ARC
  5
13E
330
1F
100
AcDbEntity
  8
A-B_衛生陶器
  6
JWW_DASHED1
 62
     2
370
     9
100
AcDbCircle
 10
-67.43420376102242
 20
-546.270540588137
 30
0.0
 40
6.474750995635986
100
AcDbArc
 50
60.0
 51
85.61573791503906
  0
ARC
  5
13F
330
1F
100
AcDbEntity
  8
A-B_衛生陶器
  6
JWW_DASHED1
 62
     2
370
     9
100
AcDbCircle
 10
-66.7686277798824
 20
-545.2222334077323
 30
0.0
 40
5.410188674926758
100
AcDbArc
 50
91.80715942382812
 51
122.5770721435547
  0
ARC
  5
140
330
1F
100
AcDbEntity
  8
A-B_衛生陶器
  6
JWW_DASHED1
 62
     2
370
     9
100
AcDbCircle
 10
-82.89876331607624
 20
-546.270540588137
 30
0.0
 40
6.474750995635986
100
AcDbArc
 50
94.38424682617189
 51
119.9999847412109
  0
ARC
  5
141
330
1F
100
AcDbEntity
  8
A-B_衛生陶器
  6
JWW_DASHED1
 62
     2
370
     9
100
AcDbCircle
 10
-83.56433929721626
 20
-545.2222334077323
 30
0.0
 40
5.410188674926758
100
AcDbArc
 50
57.42291259765625
 51
88.19282531738283
  0
LINE
  5
142
330
1F
100
AcDbEntity
  8
A-B_衛生陶器
  6
JWW_DASHED1
 62
     2
370
     9
100
AcDbLine
 10
-69.16648353854933
 20
-532.8147360017265
 30
0.0
 11
-81.16648353854933
 21
-532.8147360017265
 31
0.0
  0
LINE
  5
143
330
1F
100
AcDbEntity
  8
A-B_衛生陶器
  6
JWW_DASHED1
 62
     2
370
     9
100
AcDbLine
 10
-69.16648353854933
 20
-539.8147360017265
 30
0.0
 11
-69.16648353854933
 21
-532.8147360017265
 31
0.0
  0
LINE
  5
144
330
1F
100
AcDbEntity
  8
A-B_衛生陶器
  6
JWW_DASHED1
 62
     2
370
     9
100
AcDbLine
 10
-81.16648353854933
 20
-539.8147360017265
 30
0.0
 11
-81.16648353854933
 21
-532.8147360017265
 31
0.0
  0
LINE
  5
145
330
1F
100
AcDbEntity
  8
A-A_インテリア
  6
JWW_CENTER1
 62
     7
370
     9
100
AcDbLine
 10
-75.16648353854933
 20
-530.0028518991295
 30
0.0
 11
-75.16648353854933
 21
-588.254951337428
 31
0.0
  0
LINE
  5
146
330
1F
100
AcDbEntity
  8
A-2_仕上
  6
JWW_DASHED1
 62
     3
370
     9
100
AcDbLine
 10
-67.66648360654963
 20
-549.8147360017265
 30
0.0
 11
-67.66648360654963
 21
-555.8147359473265
 31
0.0
  0
LINE
  5
147
330
1F
100
AcDbEntity
  8
A-2_仕上
  6
JWW_DASHED1
 62
     3
370
     9
100
AcDbLine
 10
-82.66648347054971
 20
-549.8147360017265
 30
0.0
 11
-82.66648347054971
 21
-555.8147359473265
 31
0.0
  0
LINE
  5
148
330
1F
100
AcDbEntity
  8
A-B_衛生陶器
  6
JWW_DASHED1
 62
     2
370
     9
100
AcDbLine
 10
80.83351646145067
 20
-555.8147359473265
 30
0.0
 11
80.83351646145067
 21
-584.8147360017266
 31
0.0
  0
LINE
  5
149
330
1F
100
AcDbEntity
  8
A-B_衛生陶器
  6
JWW_DASHED1
 62
     2
370
     9
100
AcDbLine
 10
68.83351646145067
 20
-555.8147359473265
 30
0.0
 11
68.83351646145067
 21
-584.8147360017266
 31
0.0
  0
LINE
  5
14A
330
1F
100
AcDbEntity
  8
A-B_衛生陶器
  6
JWW_DASHED1
 62
     2
370
     9
100
AcDbLine
 10
63.86386142452437
 20
-549.8147360017265
 30
0.0
 11
85.80317149837697
 21
-549.8147360017265
 31
0.0
  0
LINE
  5
14B
330
1F
100
AcDbEntity
  8
A-B_衛生陶器
  6
JWW_DASHED1
 62
     2
370
     9
100
AcDbLine
 10
84.33351646145064
 20
-539.8147360017265
 30
0.0
 11
85.80317149837697
 21
-540.6632419755424
 31
0.0
  0
LINE
  5
14C
330
1F
100
AcDbEntity
  8
A-B_衛生陶器
  6
JWW_DASHED1
 62
     2
370
     9
100
AcDbLine
 10
85.80317149837697
 20
-540.6632419755424
 30
0.0
 11
85.80317149837697
 21
-549.8147360017265
 31
0.0
  0
LINE
  5
14D
330
1F
100
AcDbEntity
  8
A-B_衛生陶器
  6
JWW_DASHED1
 62
     2
370
     9
100
AcDbLine
 10
80.31834397991378
 20
-540.6632419755424
 30
0.0
 11
80.31834397991378
 21
-549.8147360017265
 31
0.0
  0
LINE
  5
14E
330
1F
100
AcDbEntity
  8
A-B_衛生陶器
  6
JWW_DASHED1
 62
     2
370
     9
100
AcDbLine
 10
69.34868894298756
 20
-540.6632419755424
 30
0.0
 11
69.34868894298756
 21
-549.8147360017265
 31
0.0
  0
LINE
  5
14F
330
1F
100
AcDbEntity
  8
A-B_衛生陶器
  6
JWW_DASHED1
 62
     2
370
     9
100
AcDbLine
 10
65.3335164614507
 20
-539.8147360017265
 30
0.0
 11
63.86386142452437
 21
-540.6632419755424
 31
0.0
  0
LINE
  5
150
330
1F
100
AcDbEntity
  8
A-B_衛生陶器
  6
JWW_DASHED1
 62
     2
370
     9
100
AcDbLine
 10
63.86386142452437
 20
-540.6632419755424
 30
0.0
 11
63.86386142452437
 21
-549.8147360017265
 31
0.0
  0
LINE
  5
151
330
1F
100
AcDbEntity
  8
A-B_衛生陶器
  6
JWW_DASHED1
 62
     2
370
     9
100
AcDbLine
 10
65.3335164614507
 20
-539.8147360017265
 30
0.0
 11
84.33351646145064
 21
-539.8147360017265
 31
0.0
  0
ARC
  5
152
330
1F
100
AcDbEntity
  8
A-B_衛生陶器
  6
JWW_DASHED1
 62
     2
370
     9
100
AcDbCircle
 10
74.83351646145067
 20
-557.9662300279106
 30
0.0
 40
18.1514949798584
100
AcDbArc
 50
72.41203308105469
 51
107.5879516601562
  0
ARC
  5
153
330
1F
100
AcDbEntity
  8
A-B_衛生陶器
  6
JWW_DASHED1
 62
     2
370
     9
100
AcDbCircle
 10
82.5657962389775
 20
-546.270540588137
 30
0.0
 40
6.474750995635986
100
AcDbArc
 50
60.0
 51
85.61573791503906
  0
ARC
  5
154
330
1F
100
AcDbEntity
  8
A-B_衛生陶器
  6
JWW_DASHED1
 62
     2
370
     9
100
AcDbCircle
 10
83.23137222011769
 20
-545.2222334077323
 30
0.0
 40
5.410188674926758
100
AcDbArc
 50
91.80715942382812
 51
122.5770721435547
  0
ARC
  5
155
330
1F
100
AcDbEntity
  8
A-B_衛生陶器
  6
JWW_DASHED1
 62
     2
370
     9
100
AcDbCircle
 10
67.10123668392384
 20
-546.270540588137
 30
0.0
 40
6.474750995635986
100
AcDbArc
 50
94.38424682617189
 51
119.9999847412109
  0
ARC
  5
156
330
1F
100
AcDbEntity
  8
A-B_衛生陶器
  6
JWW_DASHED1
 62
     2
370
     9
100
AcDbCircle
 10
66.43566070278365
 20
-545.2222334077323
 30
0.0
 40
5.410188674926758
100
AcDbArc
 50
57.42291259765625
 51
88.19282531738283
  0
LINE
  5
157
330
1F
100
AcDbEntity
  8
A-B_衛生陶器
  6
JWW_DASHED1
 62
     2
370
     9
100
AcDbLine
 10
80.83351646145067
 20
-532.8147360017265
 30
0.0
 11
68.83351646145067
 21
-532.8147360017265
 31
0.0
  0
LINE
  5
158
330
1F
100
AcDbEntity
  8
A-B_衛生陶器
  6
JWW_DASHED1
 62
     2
370
     9
100
AcDbLine
 10
80.83351646145067
 20
-539.8147360017265
 30
0.0
 11
80.83351646145067
 21
-532.8147360017265
 31
0.0
  0
LINE
  5
159
330
1F
100
AcDbEntity
  8
A-B_衛生陶器
  6
JWW_DASHED1
 62
     2
370
     9
100
AcDbLine
 10
68.83351646145067
 20
-539.8147360017265
 30
0.0
 11
68.83351646145067
 21
-532.8147360017265
 31
0.0
  0
LINE
  5
15A
330
1F
100
AcDbEntity
  8
A-A_インテリア
  6
JWW_CENTER1
 62
     7
370
     9
100
AcDbLine
 10
74.83351646145067
 20
-530.0028518991295
 30
0.0
 11
74.83351646145067
 21
-588.254951337428
 31
0.0
  0
LINE
  5
15B
330
1F
100
AcDbEntity
  8
A-2_仕上
  6
JWW_DASHED1
 62
     3
370
     9
100
AcDbLine
 10
82.33351639345037
 20
-549.8147360017265
 30
0.0
 11
82.33351639345037
 21
-555.8147359473265
 31
0.0
  0
LINE
  5
15C
330
1F
100
AcDbEntity
  8
A-2_仕上
  6
JWW_DASHED1
 62
     3
370
     9
100
AcDbLine
 10
67.33351652945029
 20
-549.8147360017265
 30
0.0
 11
67.33351652945029
 21
-555.8147359473265
 31
0.0
  0
TEXT
  5
15D
330
1F
100
AcDbEntity
  8
A-5_建具
  6
Continuous
 62
     2
370
     9
100
AcDbText
 10
130.5
 20
-552.4307359473265
 30
0.0
 40
18.288
  1
▽G.L.
 41
1.104166666666667
  7
ＭＳ ゴシック
100
AcDbText
  0
LINE
  5
15E
330
1F
100
AcDbEntity
  8
A-6_間仕切
  6
Continuous
 62
     6
370
     5
100
AcDbLine
 10
-108.5253584603645
 20
-555.8147359473265
 30
0.0
 11
-210.0
 21
-657.2893774869619
 31
0.0
  0
LINE
  5
15F
330
1F
100
AcDbEntity
  8
A-6_間仕切
  6
Continuous
 62
     6
370
     5
100
AcDbLine
 10
-88.72636858714122
 20
-555.8147359473265
 30
0.0
 11
-190.2010101267767
 21
-657.2893774869619
 31
0.0
  0
LINE
  5
160
330
1F
100
AcDbEntity
  8
A-6_間仕切
  6
Continuous
 62
     6
370
     5
100
AcDbLine
 10
-98.62586352375286
 20
-555.8147359473265
 30
0.0
 11
-200.100505063388
 21
-657.2893774869619
 31
0.0
  0
LINE
  5
161
330
1F
100
AcDbEntity
  8
A-6_間仕切
  6
Continuous
 62
     6
370
     5
100
AcDbLine
 10
210.0
 20
-555.8147359473265
 30
0.0
 11
-210.0
 21
-555.8147359473265
 31
0.0
  0
LINE
  5
162
330
1F
100
AcDbEntity
  8
A-6_間仕切
  6
Continuous
 62
     6
370
     5
100
AcDbLine
 10
147.495165896388
 20
-555.8147359473265
 30
0.0
 11
46.02052435675278
 21
-657.2893774869619
 31
0.0
  0
LINE
  5
163
330
1F
100
AcDbEntity
  8
A-6_間仕切
  6
Continuous
 62
     6
370
     5
100
AcDbLine
 10
167.2941557696112
 20
-555.8147359473265
 30
0.0
 11
65.81951422997605
 21
-657.2893774869619
 31
0.0
  0
LINE
  5
164
330
1F
100
AcDbEntity
  8
A-6_間仕切
  6
Continuous
 62
     6
370
     5
100
AcDbLine
 10
157.3946608329996
 20
-555.8147359473265
 30
0.0
 11
55.92001929336441
 21
-657.2893774869619
 31
0.0
  0
ARC
  5
165
330
1F
100
AcDbEntity
  8
A-2_仕上
  6
Continuous
 62
     3
370
     9
100
AcDbCircle
 10
-0.0051243489513233
 20
217.1850603040714
 30
0.0
 40
3.0
100
AcDbArc
 50
90.0
 51
180.0
  0
ARC
  5
166
330
1F
100
AcDbEntity
  8
A-2_仕上
  6
Continuous
 62
     3
370
     9
100
AcDbCircle
 10
-0.0051243489514938
 20
217.1850603040714
 30
0.0
 40
3.0
100
AcDbArc
 50
0.0
 51
90.0
  0
LINE
  5
167
330
1F
100
AcDbEntity
  8
A-2_仕上
  6
Continuous
 62
     3
370
     9
100
AcDbLine
 10
-3.005124348951323
 20
171.1850607755374
 30
0.0
 11
-3.005124348951323
 21
217.1850603040714
 31
0.0
  0
ARC
  5
168
330
1F
100
AcDbEntity
  8
A-2_仕上
  6
Continuous
 62
     3
370
     9
100
AcDbCircle
 10
-0.0051243489513233
 20
171.1850607755374
 30
0.0
 40
3.0
100
AcDbArc
 50
180.0
 51
270.0
  0
LINE
  5
169
330
1F
100
AcDbEntity
  8
A-2_仕上
  6
Continuous
 62
     3
370
     9
100
AcDbLine
 10
2.994875651048506
 20
171.1850607755374
 30
0.0
 11
2.994875651048506
 21
217.1850603040714
 31
0.0
  0
ARC
  5
16A
330
1F
100
AcDbEntity
  8
A-2_仕上
  6
Continuous
 62
     3
370
     9
100
AcDbCircle
 10
-0.0051243489514938
 20
171.1850607755374
 30
0.0
 40
3.0
100
AcDbArc
 50
270.0
 51
0.0
  0
TEXT
  5
16B
330
1F
100
AcDbEntity
  8
D-5_建具
  6
Continuous
 62
     2
370
     9
100
AcDbText
 10
457.2350785069725
 20
-363.0786276583386
 30
0.0
 40
18.288
  1
フック部詳細図　Ｓ＝１：２
 41
1.115384615384615
  7
ＭＳ ゴシック
100
AcDbText
  0
LINE
  5
16C
330
1F
100
AcDbEntity
  8
D-5_建具
  6
Continuous
 62
     7
370
     9
100
AcDbLine
 10
446.4350785069724
 20
-333.4626276583386
 30
0.0
 11
816.0350785069722
 21
-333.4626276583386
 31
0.0
  0
LINE
  5
16D
330
1F
100
AcDbEntity
  8
D-5_建具
  6
Continuous
 62
     7
370
     9
100
AcDbLine
 10
446.4350785069724
 20
-375.4626276583386
 30
0.0
 11
816.0350785069722
 21
-375.4626276583386
 31
0.0
  0
LINE
  5
16E
330
1F
100
AcDbEntity
  8
D-5_建具
  6
Continuous
 62
     7
370
     9
100
AcDbLine
 10
446.4350785069724
 20
-333.4626276583386
 30
0.0
 11
446.4350785069724
 21
-375.4626276583386
 31
0.0
  0
LINE
  5
16F
330
1F
100
AcDbEntity
  8
D-5_建具
  6
Continuous
 62
     7
370
     9
100
AcDbLine
 10
816.0350785069722
 20
-333.4626276583386
 30
0.0
 11
816.0350785069722
 21
-375.4626276583386
 31
0.0
  0
ARC
  5
170
330
1F
100
AcDbEntity
  8
D-2_仕上
  6
Continuous
 62
     3
370
     9
100
AcDbCircle
 10
631.241584761554
 20
-51.56326494186609
 30
0.0
 40
270.7209350454453
100
AcDbArc
 50
55.74054580731735
 51
124.2594541926827
  0
LINE
  5
171
330
1F
100
AcDbEntity
  8
D-2_仕上
  6
Continuous
 62
     3
370
     9
100
AcDbLine
 10
478.8350774691883
 20
168.1576705659323
 30
0.0
 11
783.6350774692992
 21
168.1576705659323
 31
0.0
  0
LINE
  5
172
330
1F
100
AcDbEntity
  8
D-2_仕上
  6
Continuous
 62
     3
370
     9
100
AcDbLine
 10
838.5860769709764
 20
-140.8429167710887
 30
0.0
 11
838.5860769709764
 21
-140.8129167713608
 31
0.0
  0
ARC
  5
173
330
1F
100
AcDbEntity
  8
D-2_仕上
  6
Continuous
 62
     3
370
     9
100
AcDbCircle
 10
838.5860769709764
 20
-102.7939171160625
 30
0.0
 40
38.04899965502587
100
AcDbArc
 50
270.0
 51
0.0
  0
ARC
  5
174
330
1F
100
AcDbEntity
  8
D-2_仕上
  6
Continuous
 62
     3
370
     9
100
AcDbCircle
 10
838.5860769709764
 20
-102.7939171160625
 30
0.0
 40
56.04899949182623
100
AcDbArc
 50
270.0
 51
0.0
  0
LINE
  5
175
330
1F
100
AcDbEntity
  8
D-2_仕上
  6
Continuous
 62
     3
370
     9
100
AcDbLine
 10
801.6350773060124
 20
-82.34291730148755
 30
0.0
 11
801.6350773060124
 21
-111.8686071111629
 31
0.0
  0
LINE
  5
176
330
1F
100
AcDbEntity
  8
D-2_仕上
  6
Continuous
 62
     3
370
     9
100
AcDbLine
 10
783.6350774691887
 20
-82.34291730148755
 30
0.0
 11
801.6350773059905
 21
-82.34291730148755
 31
0.0
  0
ARC
  5
177
330
1F
100
AcDbEntity
  8
D-2_仕上
  6
Continuous
 62
     3
370
     9
100
AcDbCircle
 10
838.5860769709764
 20
-102.7939171160625
 30
0.0
 40
38.04899965502587
100
AcDbArc
 50
193.7980315976056
 51
270.0
  0
ARC
  5
178
330
1F
100
AcDbEntity
  8
D-2_仕上
  6
Continuous
 62
     3
370
     9
100
AcDbCircle
 10
838.5860769709764
 20
-102.7939171160625
 30
0.0
 40
56.04899949182623
100
AcDbArc
 50
191.3596882805108
 51
270.0
  0
ARC
  5
179
330
1F
100
AcDbEntity
  8
D-2_仕上
  6
Continuous
 62
     3
370
     9
100
AcDbCircle
 10
838.5860769709764
 20
-58.89191751411352
 30
0.0
 40
38.04899965502587
100
AcDbArc
 50
0.0
 51
90.0
  0
ARC
  5
17A
330
1F
100
AcDbEntity
  8
D-2_仕上
  6
Continuous
 62
     3
370
     9
100
AcDbCircle
 10
838.5860769709764
 20
-58.89191751411352
 30
0.0
 40
56.04899949182623
100
AcDbArc
 50
0.0
 51
90.0
  0
LINE
  5
17B
330
1F
100
AcDbEntity
  8
D-2_仕上
  6
Continuous
 62
     3
370
     9
100
AcDbLine
 10
801.6350773060124
 20
-79.34291732868849
 30
0.0
 11
801.6350773060124
 21
-49.81722751901214
 31
0.0
  0
ARC
  5
17C
330
1F
100
AcDbEntity
  8
D-2_仕上
  6
Continuous
 62
     3
370
     9
100
AcDbCircle
 10
838.5860769709764
 20
-58.89191751411352
 30
0.0
 40
38.04899965502587
100
AcDbArc
 50
90.0
 51
166.2019684023945
  0
ARC
  5
17D
330
1F
100
AcDbEntity
  8
D-2_仕上
  6
Continuous
 62
     3
370
     9
100
AcDbCircle
 10
838.5860769709764
 20
-58.89191751411352
 30
0.0
 40
56.04899949182623
100
AcDbArc
 50
90.0
 51
168.6403117194892
  0
LINE
  5
17E
330
1F
100
AcDbEntity
  8
D-2_仕上
  6
Continuous
 62
     3
370
     9
100
AcDbLine
 10
783.635077469233
 20
-79.34291732868849
 30
0.0
 11
801.6350773060124
 21
-79.34291732869872
 31
0.0
  0
LINE
  5
17F
330
1F
100
AcDbEntity
  8
D-2_仕上
  6
Continuous
 62
     3
370
     9
100
AcDbLine
 10
876.6350766259906
 20
-102.7939171160625
 30
0.0
 11
876.6350766259906
 21
-58.89191751411352
 31
0.0
  0
LINE
  5
180
330
1F
100
AcDbEntity
  8
D-2_仕上
  6
Continuous
 62
     3
370
     9
100
AcDbLine
 10
894.6350764627921
 20
-102.7939171160625
 30
0.0
 11
894.6350764627921
 21
-58.89191751411352
 31
0.0
  0
LINE
  5
181
330
1F
100
AcDbEntity
  8
D-A_インテリア
  6
JWW_CENTER1
 62
     7
370
     9
100
AcDbLine
 10
760.020855703337
 20
-80.84291731508085
 30
0.0
 11
913.9625993102234
 21
-80.84291731512792
 31
0.0
  0
LINE
  5
182
330
1F
100
AcDbEntity
  8
D-A_インテリア
  6
JWW_CENTER1
 62
     7
370
     9
100
AcDbLine
 10
838.5860769709764
 20
-184.4033030049317
 30
0.0
 11
838.5860769709764
 21
22.71746837472085
 31
0.0
  0
LINE
  5
183
330
1F
100
AcDbEntity
  8
D-2_仕上
  6
Continuous
 62
     3
370
     9
100
AcDbLine
 10
783.6350774691887
 20
172.1867408523547
 30
0.0
 11
783.6350774691887
 21
-248.8429166078571
 31
0.0
  0
LINE
  5
184
330
1F
100
AcDbEntity
  8
D-2_仕上
  6
Continuous
 62
     3
370
     9
100
AcDbLine
 10
478.8350774691883
 20
172.1867408523544
 30
0.0
 11
478.8350774691883
 21
-248.8429166078571
 31
0.0
  0
LINE
  5
185
330
1F
100
AcDbEntity
  8
D-0_通り芯
  6
JWW_CENTER2
 62
     7
370
     9
100
AcDbLine
 10
631.2350774691881
 20
-303.2506535534218
 30
0.0
 11
631.2350774691881
 21
266.8127896132713
 31
0.0
  0
LINE
  5
186
330
1F
100
AcDbEntity
  8
D-4_文字
  6
Continuous
 62
     7
370
     9
100
AcDbLine
 10
1007.790264183656
 20
219.1570823227545
 30
0.0
 11
1007.790264183656
 21
-80.84291731512792
 31
0.0
  0
LWPOLYLINE
  5
187
330
1F
100
AcDbEntity
  8
D-4_文字
  6
Continuous
 62
     7
370
     9
100
AcDbPolyline
 90
        4
 70
     1
 43
1.2
 10
1008.390264183656
 20
219.1570823227545
 42
0.4142135623731
 10
1007.790264183656
 20
219.7570823227545
 42
0.4142135623731
 10
1007.190264183656
 20
219.1570823227545
 42
0.4142135623731
 10
1007.790264183656
 20
218.5570823227545
 42
0.4142135623731
  0
LWPOLYLINE
  5
188
330
1F
100
AcDbEntity
  8
D-4_文字
  6
Continuous
 62
     7
370
     9
100
AcDbPolyline
 90
        4
 70
     1
 43
1.2
 10
1008.390264183656
 20
-80.84291731512792
 42
0.4142135623731
 10
1007.790264183656
 20
-80.24291731512793
 42
0.4142135623731
 10
1007.190264183656
 20
-80.84291731512792
 42
0.4142135623731
 10
1007.790264183656
 20
-81.44291731512791
 42
0.4142135623731
  0
TEXT
  5
189
330
1F
100
AcDbEntity
  8
D-4_文字
  6
Continuous
 62
     2
370
   211
100
AcDbText
 10
1000.806264183656
 20
49.65708250381329
 30
0.0
 40
18.288
  1
100
 50
90.0
 41
1.083333333333333
  7
ＭＳ ゴシック
100
AcDbText
  0
LINE
  5
18A
330
1F
100
AcDbEntity
  8
D-4_文字
  6
Continuous
 62
     7
370
     9
100
AcDbLine
 10
947.267609626011
 20
-2.842918022287222
 30
0.0
 11
947.267609626011
 21
-158.8429166078888
 31
0.0
  0
LWPOLYLINE
  5
18B
330
1F
100
AcDbEntity
  8
D-4_文字
  6
Continuous
 62
     7
370
     9
100
AcDbPolyline
 90
        4
 70
     1
 43
1.2
 10
947.867609626011
 20
-2.842918022287222
 42
0.4142135623731
 10
947.267609626011
 20
-2.242918022287222
 42
0.4142135623731
 10
946.667609626011
 20
-2.842918022287222
 42
0.4142135623731
 10
947.267609626011
 20
-3.442918022287222
 42
0.4142135623731
  0
LWPOLYLINE
  5
18C
330
1F
100
AcDbEntity
  8
D-4_文字
  6
Continuous
 62
     7
370
     9
100
AcDbPolyline
 90
        4
 70
     1
 43
1.2
 10
947.867609626011
 20
-158.8429166078888
 42
0.4142135623731
 10
947.267609626011
 20
-158.2429166078888
 42
0.4142135623731
 10
946.667609626011
 20
-158.8429166078888
 42
0.4142135623731
 10
947.267609626011
 20
-159.4429166078888
 42
0.4142135623731
  0
LINE
  5
18D
330
1F
100
AcDbEntity
  8
D-4_文字
  6
Continuous
 62
     7
370
     9
100
AcDbLine
 10
949.0676096260111
 20
-2.842918022287222
 30
0.0
 11
850.5860769709764
 21
-2.842918022287222
 31
0.0
  0
LINE
  5
18E
330
1F
100
AcDbEntity
  8
D-4_文字
  6
Continuous
 62
     7
370
     9
100
AcDbLine
 10
949.0676096260111
 20
-158.8429166078888
 30
0.0
 11
850.5860769709764
 21
-158.8429166078888
 31
0.0
  0
TEXT
  5
18F
330
1F
100
AcDbEntity
  8
D-4_文字
  6
Continuous
 62
     2
370
   211
100
AcDbText
 10
940.283609626011
 20
-93.59291731508802
 30
0.0
 40
18.288
  1
52
 50
90.0
 41
1.0625
  7
ＭＳ ゴシック
100
AcDbText
  0
LINE
  5
190
330
1F
100
AcDbEntity
  8
D-4_文字
  6
Continuous
 62
     7
370
     9
100
AcDbLine
 10
1009.590264183656
 20
-80.84291731512792
 30
0.0
 11
962.7902641836563
 21
-80.84291731512792
 31
0.0
  0
LINE
  5
191
330
1F
100
AcDbEntity
  8
D-4_文字
  6
Continuous
 62
     7
370
     9
100
AcDbLine
 10
783.6350774692112
 20
-64.42999433489388
 30
0.0
 11
801.6350773060124
 21
-64.42999433489388
 31
0.0
  0
LWPOLYLINE
  5
192
330
1F
100
AcDbEntity
  8
D-4_文字
  6
Continuous
 62
     7
370
     9
100
AcDbPolyline
 90
        4
 70
     1
 43
1.2
 10
784.2350774692111
 20
-64.42999433489388
 42
0.4142135623731
 10
783.6350774692112
 20
-63.82999433489388
 42
0.4142135623731
 10
783.0350774692113
 20
-64.42999433489388
 42
0.4142135623731
 10
783.6350774692112
 20
-65.02999433489387
 42
0.4142135623731
  0
LWPOLYLINE
  5
193
330
1F
100
AcDbEntity
  8
D-4_文字
  6
Continuous
 62
     7
370
     9
100
AcDbPolyline
 90
        4
 70
     1
 43
1.2
 10
802.2350773060123
 20
-64.42999433489388
 42
0.4142135623731
 10
801.6350773060124
 20
-63.82999433489388
 42
0.4142135623731
 10
801.0350773060125
 20
-64.42999433489388
 42
0.4142135623731
 10
801.6350773060124
 20
-65.02999433489387
 42
0.4142135623731
  0
LINE
  5
194
330
1F
100
AcDbEntity
  8
D-4_文字
  6
Continuous
 62
     7
370
     9
100
AcDbLine
 10
783.6350774692112
 20
-64.42999433489388
 30
0.0
 11
738.3593901617843
 21
-64.42999433489388
 31
0.0
  0
TEXT
  5
195
330
1F
100
AcDbEntity
  8
D-4_文字
  6
Continuous
 62
     2
370
   211
100
AcDbText
 10
738.3593901617843
 20
-57.44599433489374
 30
0.0
 40
18.288
  1
φ6
 41
1.083333333333333
  7
ＭＳ ゴシック
100
AcDbText
  0
LWPOLYLINE
  5
196
330
1F
100
AcDbEntity
  8
D-4_文字
  6
Continuous
 62
     7
370
     9
100
AcDbPolyline
 90
        4
 70
     1
 43
1.2
 10
895.2350764629261
 20
271.1787156813432
 42
0.4142135623731
 10
894.6350764629261
 20
271.7787156813432
 42
0.4142135623731
 10
894.0350764629261
 20
271.1787156813432
 42
0.4142135623731
 10
894.6350764629261
 20
270.5787156813432
 42
0.4142135623731
  0
LINE
  5
197
330
1F
100
AcDbEntity
  8
D-4_文字
  6
Continuous
 62
     7
370
     9
100
AcDbLine
 10
894.6350764629261
 20
272.9787156813433
 30
0.0
 11
894.6350764629261
 21
-44.02029635364136
 31
0.0
  0
LINE
  5
198
330
1F
100
AcDbEntity
  8
D-4_文字
  6
Continuous
 62
     7
370
     9
100
AcDbLine
 10
1009.590264183656
 20
219.1570823227545
 30
0.0
 11
681.6756596103979
 21
219.1570823227545
 31
0.0
  0
LINE
  5
199
330
1F
100
AcDbEntity
  8
D-4_文字
  6
Continuous
 62
     7
370
     9
100
AcDbLine
 10
894.6350764629261
 20
271.1787156813432
 30
0.0
 11
783.6350774691887
 21
271.1787156813432
 31
0.0
  0
LWPOLYLINE
  5
19A
330
1F
100
AcDbEntity
  8
D-4_文字
  6
Continuous
 62
     7
370
     9
100
AcDbPolyline
 90
        4
 70
     1
 43
1.2
 10
784.2350774691886
 20
271.1787156813432
 42
0.4142135623731
 10
783.6350774691887
 20
271.7787156813432
 42
0.4142135623731
 10
783.0350774691888
 20
271.1787156813432
 42
0.4142135623731
 10
783.6350774691887
 20
270.5787156813432
 42
0.4142135623731
  0
LINE
  5
19B
330
1F
100
AcDbEntity
  8
D-4_文字
  6
Continuous
 62
     7
370
     9
100
AcDbLine
 10
783.6350774691887
 20
272.9787156813431
 30
0.0
 11
783.6350774691887
 21
184.1867408523547
 31
0.0
  0
TEXT
  5
19C
330
1F
100
AcDbEntity
  8
D-4_文字
  6
Continuous
 62
     2
370
   211
100
AcDbText
 10
826.3850769660573
 20
278.1627156813432
 30
0.0
 40
18.288
  1
37
 41
1.0625
  7
ＭＳ ゴシック
100
AcDbText
  0
LINE
  5
19D
330
1F
100
AcDbEntity
  8
A-4_文字
  6
Continuous
 62
     7
370
     9
100
AcDbLine
 10
-868.1551266581049
 20
194.1850605397942
 30
0.0
 11
-768.0405023470718
 21
194.1850605397942
 31
0.0
  0
TEXT
  5
19E
330
1F
100
AcDbEntity
  8
F-5ﾚｲﾔ
  6
Continuous
 62
     2
370
     0
100
AcDbText
 10
-564.3002103238491
 20
-817.7332552778394
 30
0.0
 40
18.288
  1
車止め　ステンレス製　固定式　後付タイプ　片フック付　ＥＡ１０８５ＲＥ－Ａ
 41
0.8993243243243245
  7
ＭＳ ゴシック
100
AcDbText
  0
TEXT
  5
19F
330
1F
100
AcDbEntity
  8
A-5_建具
  6
Continuous
 62
     2
370
     0
100
AcDbText
 10
816.5936170212766
 20
-663.075574468085
 30
0.0
 40
18.288
  1
支柱質量：6.2kg／本
 41
1.111842105263158
  7
ＭＳ ゴシック
100
AcDbText
  0
ENDSEC
  0
SECTION
  2
OBJECTS
  0
DICTIONARY
  5
C
330
0
100
AcDbDictionary
281
     1
  3
ACAD_DETAILVIEWSTYLE
350
1A7
  3
ACAD_GROUP
350
D
  3
ACAD_LAYOUT
350
1A
  3
ACAD_MATERIAL
350
43
  3
ACAD_MLEADERSTYLE
350
6B
  3
ACAD_MLINESTYLE
350
17
  3
ACAD_PLOTSETTINGS
350
19
  3
ACAD_PLOTSTYLENAME
350
E
  3
ACAD_SCALELIST
350
47
  3
ACAD_SECTIONVIEWSTYLE
350
1A8
  3
ACAD_TABLESTYLE
350
69
  3
ACAD_VISUALSTYLE
350
2A
  3
ACDB_RECOMPOSE_DATA
350
1A4
  3
AcDbVariableDictionary
350
1A0
  0
SUN
  5
6D
330
29
100
AcDbSun
 90
        1
290
     0
 63
     7
421
 16777215
 40
1.0
291
     1
 91
  2455826
 92
 54000000
292
     0
 70
     2
 71
   256
280
     1
  0
DICTIONARY
  5
1A7
102
{ACAD_REACTORS
330
C
102
}
330
C
100
AcDbDictionary
281
     1
  0
DICTIONARY
  5
D
102
{ACAD_REACTORS
330
C
102
}
330
C
100
AcDbDictionary
281
     1
  0
DICTIONARY
  5
1A
102
{ACAD_REACTORS
330
C
102
}
330
C
100
AcDbDictionary
281
     1
  3
Layout1
350
1E
  3
Layout2
350
26
  3
Model
350
22
  0
DICTIONARY
  5
43
102
{ACAD_REACTORS
330
C
102
}
330
C
100
AcDbDictionary
281
     1
  3
ByBlock
350
45
  3
ByLayer
350
44
  3
Global
350
46
  0
DICTIONARY
  5
6B
102
{ACAD_REACTORS
330
C
102
}
330
C
100
AcDbDictionary
281
     1
  3
Standard
350
6C
  0
DICTIONARY
  5
17
102
{ACAD_REACTORS
330
C
102
}
330
C
100
AcDbDictionary
281
     1
  3
Standard
350
18
  0
DICTIONARY
  5
19
102
{ACAD_REACTORS
330
C
102
}
330
C
100
AcDbDictionary
281
     1
  0
ACDBDICTIONARYWDFLT
  5
E
102
{ACAD_REACTORS
330
C
102
}
330
C
100
AcDbDictionary
281
     1
  3
Normal
350
F
100
AcDbDictionaryWithDefault
340
F
  0
DICTIONARY
  5
47
102
{ACAD_REACTORS
330
C
102
}
330
C
100
AcDbDictionary
281
     1
  3
A0
350
48
  3
A1
350
49
  3
A2
350
4A
  3
A3
350
4B
  3
A4
350
4C
  3
A5
350
4D
  3
A6
350
4E
  3
A7
350
4F
  3
A8
350
50
  3
A9
350
51
  3
B0
350
52
  3
B1
350
53
  3
B2
350
54
  3
B3
350
55
  3
B4
350
56
  3
B5
350
57
  3
B6
350
58
  3
B7
350
59
  3
B8
350
5A
  3
B9
350
5B
  3
C0
350
5C
  3
C1
350
5D
  3
C2
350
5E
  3
C3
350
5F
  3
C4
350
60
  3
C5
350
61
  3
C6
350
62
  3
C7
350
63
  3
C8
350
64
  3
C9
350
65
  3
D0
350
66
  3
D1
350
67
  3
D2
350
68
  0
DICTIONARY
  5
1A8
102
{ACAD_REACTORS
330
C
102
}
330
C
100
AcDbDictionary
281
     1
  0
DICTIONARY
  5
69
102
{ACAD_REACTORS
330
C
102
}
330
C
100
AcDbDictionary
281
     1
  3
Standard
350
6A
  0
DICTIONARY
  5
2A
102
{ACAD_REACTORS
330
C
102
}
330
C
100
AcDbDictionary
281
     1
  3
2dWireframe
350
2F
  3
Basic
350
32
  3
Brighten
350
36
  3
ColorChange
350
3A
  3
Conceptual
350
34
  3
Dim
350
35
  3
EdgeColorOff
350
3D
  3
Facepattern
350
39
  3
Flat
350
2B
  3
FlatWithEdges
350
2C
  3
Gouraud
350
2D
  3
GouraudWithEdges
350
2E
  3
Hidden
350
31
  3
JitterOff
350
3B
  3
Linepattern
350
38
  3
OverhangOff
350
3C
  3
Realistic
350
33
  3
Shaded
350
42
  3
Shaded with edges
350
41
  3
Shades of Gray
350
3E
  3
Sketchy
350
3F
  3
Thicken
350
37
  3
Wireframe
350
30
  3
X-Ray
350
40
  0
XRECORD
  5
1A4
102
{ACAD_REACTORS
330
C
102
}
330
C
100
AcDbXrecord
280
     1
 90
        1
330
6A
  0
DICTIONARY
  5
1A0
102
{ACAD_REACTORS
330
C
102
}
330
C
100
AcDbDictionary
281
     1
  3
CANNOSCALE
350
1A1
  3
CENTEREXE
350
1A9
  3
CENTERLTYPEFILE
350
1AA
  3
CMLEADERSTYLE
350
1A6
  3
CTABLESTYLE
350
1A5
  0
LAYOUT
  5
1E
102
{ACAD_REACTORS
330
1A
102
}
330
1A
100
AcDbPlotSettings
  1

  2
none_device
  4

  6

 40
0.0
 41
0.0
 42
0.0
 43
0.0
 44
0.0
 45
0.0
 46
0.0
 47
0.0
 48
0.0
 49
0.0
140
0.0
141
0.0
142
1.0
143
1.0
 70
   688
 72
     1
 73
     0
 74
     5
  7

 75
    16
 76
     0
 77
     5
 78
   300
147
1.0
148
0.0
149
0.0
100
AcDbLayout
  1
Layout1
 70
     1
 71
     1
 10
0.0
 20
0.0
 11
420.0
 21
297.0
 12
0.0
 22
0.0
 32
0.0
 14
1.000000000000000E+20
 24
1.000000000000000E+20
 34
1.000000000000000E+20
 15
-1.000000000000000E+20
 25
-1.000000000000000E+20
 35
-1.000000000000000E+20
146
0.0
 13
0.0
 23
0.0
 33
0.0
 16
1.0
 26
0.0
 36
0.0
 17
0.0
 27
1.0
 37
0.0
 76
     0
330
1B
  0
LAYOUT
  5
26
102
{ACAD_REACTORS
330
1A
102
}
330
1A
100
AcDbPlotSettings
  1

  2
none_device
  4

  6

 40
0.0
 41
0.0
 42
0.0
 43
0.0
 44
0.0
 45
0.0
 46
0.0
 47
0.0
 48
0.0
 49
0.0
140
0.0
141
0.0
142
1.0
143
1.0
 70
   688
 72
     1
 73
     0
 74
     5
  7

 75
    16
 76
     0
 77
     5
 78
   300
147
1.0
148
0.0
149
0.0
100
AcDbLayout
  1
Layout2
 70
     1
 71
     2
 10
0.0
 20
0.0
 11
0.0
 21
0.0
 12
0.0
 22
0.0
 32
0.0
 14
0.0
 24
0.0
 34
0.0
 15
0.0
 25
0.0
 35
0.0
146
0.0
 13
0.0
 23
0.0
 33
0.0
 16
1.0
 26
0.0
 36
0.0
 17
0.0
 27
1.0
 37
0.0
 76
     0
330
23
  0
LAYOUT
  5
22
102
{ACAD_REACTORS
330
1A
102
}
330
1A
100
AcDbPlotSettings
  1

  2
none_device
  4
Letter_(8.50_x_11.00_Inches)
  6

 40
6.35
 41
6.35
 42
6.35000508
 43
6.35000508
 44
215.9
 45
279.4
 46
0.0
 47
0.0
 48
0.0
 49
0.0
140
0.0
141
0.0
142
1.0
143
1.0
 70
  1712
 72
     1
 73
     0
 74
     0
  7

 75
     0
 76
     0
 77
     5
 78
   300
147
1.0
148
0.0
149
0.0
100
AcDbLayout
  1
Model
 70
     1
 71
     0
 10
-1260.0
 20
-891.0
 11
1260.0
 21
891.0
 12
0.0
 22
0.0
 32
0.0
 14
-1260.0
 24
-891.0
 34
0.0
 15
1260.0
 25
891.0
 35
0.0
146
0.0
 13
0.0
 23
0.0
 33
0.0
 16
1.0
 26
0.0
 36
0.0
 17
0.0
 27
1.0
 37
0.0
 76
     0
330
1F
331
29
  0
MATERIAL
  5
45
102
{ACAD_REACTORS
330
43
102
}
330
43
100
AcDbMaterial
  1
ByBlock
 72
     1
 94
      127
  0
MATERIAL
  5
44
102
{ACAD_REACTORS
330
43
102
}
330
43
100
AcDbMaterial
  1
ByLayer
 72
     1
 94
      127
  0
MATERIAL
  5
46
102
{ACAD_REACTORS
330
43
102
}
330
43
100
AcDbMaterial
  1
Global
 72
     1
 94
      127
  0
MLEADERSTYLE
  5
6C
102
{ACAD_REACTORS
330
6B
102
}
330
6B
100
AcDbMLeaderStyle
179
     2
170
     2
171
     1
172
     0
 90
        2
 40
0.0
 41
0.0
173
     1
 91
-1056964608
340
14
 92
       -2
290
     1
 42
2.0
291
     1
 43
8.0
  3
Standard
341
0
 44
4.0
300

342
11
174
     1
178
     6
175
     1
176
     0
 93
-1056964608
 45
4.0
292
     0
297
     0
 46
4.0
343
0
 94
-1056964608
 47
1.0
 49
1.0
140
1.0
293
     1
141
0.0
294
     1
177
     0
142
1.0
295
     0
296
     0
143
3.75
271
     0
272
     9
273
     9
298
     0
  0
MLINESTYLE
  5
18
102
{ACAD_REACTORS
330
17
102
}
330
17
100
AcDbMlineStyle
  2
Standard
 70
     0
  3

 62
   256
 51
90.0
 52
90.0
 71
     2
 49
0.5
 62
   256
  6
BYLAYER
 49
-0.5
 62
   256
  6
BYLAYER
  0
ACDBPLACEHOLDER
  5
F
102
{ACAD_REACTORS
330
E
102
}
330
E
  0
SCALE
  5
48
102
{ACAD_REACTORS
330
47
102
}
330
47
100
AcDbScale
 70
     0
300
1:1
140
1.0
141
1.0
290
     1
  0
SCALE
  5
49
102
{ACAD_REACTORS
330
47
102
}
330
47
100
AcDbScale
 70
     0
300
1:2
140
1.0
141
2.0
290
     0
  0
SCALE
  5
4A
102
{ACAD_REACTORS
330
47
102
}
330
47
100
AcDbScale
 70
     0
300
1:4
140
1.0
141
4.0
290
     0
  0
SCALE
  5
4B
102
{ACAD_REACTORS
330
47
102
}
330
47
100
AcDbScale
 70
     0
300
1:5
140
1.0
141
5.0
290
     0
  0
SCALE
  5
4C
102
{ACAD_REACTORS
330
47
102
}
330
47
100
AcDbScale
 70
     0
300
1:8
140
1.0
141
8.0
290
     0
  0
SCALE
  5
4D
102
{ACAD_REACTORS
330
47
102
}
330
47
100
AcDbScale
 70
     0
300
1:10
140
1.0
141
10.0
290
     0
  0
SCALE
  5
4E
102
{ACAD_REACTORS
330
47
102
}
330
47
100
AcDbScale
 70
     0
300
1:16
140
1.0
141
16.0
290
     0
  0
SCALE
  5
4F
102
{ACAD_REACTORS
330
47
102
}
330
47
100
AcDbScale
 70
     0
300
1:20
140
1.0
141
20.0
290
     0
  0
SCALE
  5
50
102
{ACAD_REACTORS
330
47
102
}
330
47
100
AcDbScale
 70
     0
300
1:30
140
1.0
141
30.0
290
     0
  0
SCALE
  5
51
102
{ACAD_REACTORS
330
47
102
}
330
47
100
AcDbScale
 70
     0
300
1:40
140
1.0
141
40.0
290
     0
  0
SCALE
  5
52
102
{ACAD_REACTORS
330
47
102
}
330
47
100
AcDbScale
 70
     0
300
1:50
140
1.0
141
50.0
290
     0
  0
SCALE
  5
53
102
{ACAD_REACTORS
330
47
102
}
330
47
100
AcDbScale
 70
     0
300
1:100
140
1.0
141
100.0
290
     0
  0
SCALE
  5
54
102
{ACAD_REACTORS
330
47
102
}
330
47
100
AcDbScale
 70
     0
300
2:1
140
2.0
141
1.0
290
     0
  0
SCALE
  5
55
102
{ACAD_REACTORS
330
47
102
}
330
47
100
AcDbScale
 70
     0
300
4:1
140
4.0
141
1.0
290
     0
  0
SCALE
  5
56
102
{ACAD_REACTORS
330
47
102
}
330
47
100
AcDbScale
 70
     0
300
8:1
140
8.0
141
1.0
290
     0
  0
SCALE
  5
57
102
{ACAD_REACTORS
330
47
102
}
330
47
100
AcDbScale
 70
     0
300
10:1
140
10.0
141
1.0
290
     0
  0
SCALE
  5
58
102
{ACAD_REACTORS
330
47
102
}
330
47
100
AcDbScale
 70
     0
300
100:1
140
100.0
141
1.0
290
     0
  0
SCALE
  5
59
102
{ACAD_REACTORS
330
47
102
}
330
47
100
AcDbScale
 70
     0
300
1/128" = 1'-0"
140
0.0078125
141
12.0
290
     0
  0
SCALE
  5
5A
102
{ACAD_REACTORS
330
47
102
}
330
47
100
AcDbScale
 70
     0
300
1/64" = 1'-0"
140
0.015625
141
12.0
290
     0
  0
SCALE
  5
5B
102
{ACAD_REACTORS
330
47
102
}
330
47
100
AcDbScale
 70
     0
300
1/32" = 1'-0"
140
0.03125
141
12.0
290
     0
  0
SCALE
  5
5C
102
{ACAD_REACTORS
330
47
102
}
330
47
100
AcDbScale
 70
     0
300
1/16" = 1'-0"
140
0.0625
141
12.0
290
     0
  0
SCALE
  5
5D
102
{ACAD_REACTORS
330
47
102
}
330
47
100
AcDbScale
 70
     0
300
3/32" = 1'-0"
140
0.09375
141
12.0
290
     0
  0
SCALE
  5
5E
102
{ACAD_REACTORS
330
47
102
}
330
47
100
AcDbScale
 70
     0
300
1/8" = 1'-0"
140
0.125
141
12.0
290
     0
  0
SCALE
  5
5F
102
{ACAD_REACTORS
330
47
102
}
330
47
100
AcDbScale
 70
     0
300
3/16" = 1'-0"
140
0.1875
141
12.0
290
     0
  0
SCALE
  5
60
102
{ACAD_REACTORS
330
47
102
}
330
47
100
AcDbScale
 70
     0
300
1/4" = 1'-0"
140
0.25
141
12.0
290
     0
  0
SCALE
  5
61
102
{ACAD_REACTORS
330
47
102
}
330
47
100
AcDbScale
 70
     0
300
3/8" = 1'-0"
140
0.375
141
12.0
290
     0
  0
SCALE
  5
62
102
{ACAD_REACTORS
330
47
102
}
330
47
100
AcDbScale
 70
     0
300
1/2" = 1'-0"
140
0.5
141
12.0
290
     0
  0
SCALE
  5
63
102
{ACAD_REACTORS
330
47
102
}
330
47
100
AcDbScale
 70
     0
300
3/4" = 1'-0"
140
0.75
141
12.0
290
     0
  0
SCALE
  5
64
102
{ACAD_REACTORS
330
47
102
}
330
47
100
AcDbScale
 70
     0
300
1" = 1'-0"
140
1.0
141
12.0
290
     0
  0
SCALE
  5
65
102
{ACAD_REACTORS
330
47
102
}
330
47
100
AcDbScale
 70
     0
300
1-1/2" = 1'-0"
140
1.5
141
12.0
290
     0
  0
SCALE
  5
66
102
{ACAD_REACTORS
330
47
102
}
330
47
100
AcDbScale
 70
     0
300
3" = 1'-0"
140
3.0
141
12.0
290
     0
  0
SCALE
  5
67
102
{ACAD_REACTORS
330
47
102
}
330
47
100
AcDbScale
 70
     0
300
6" = 1'-0"
140
6.0
141
12.0
290
     0
  0
SCALE
  5
68
102
{ACAD_REACTORS
330
47
102
}
330
47
100
AcDbScale
 70
     0
300
1'-0" = 1'-0"
140
12.0
141
12.0
290
     0
  0
TABLESTYLE
  5
6A
102
{ACAD_REACTORS
330
69
102
}
102
{ACAD_XDICTIONARY
360
1A2
102
}
330
69
100
AcDbTableStyle
  3
Standard
 70
     0
 71
     0
 40
0.06
 41
0.06
280
     0
281
     0
  7
Standard
140
4.5
170
     2
 62
     0
 63
   257
283
     0
 90
        4
 91
        0
  1

274
    -2
284
     1
 64
     0
275
    -2
285
     1
 65
     0
276
    -2
286
     1
 66
     0
277
    -2
287
     1
 67
     0
278
    -2
288
     1
 68
     0
279
    -2
289
     1
 69
     0
  7
Standard
140
6.0
170
     5
 62
     0
 63
   257
283
     0
 90
        4
 91
        0
  1

274
    -2
284
     1
 64
     0
275
    -2
285
     1
 65
     0
276
    -2
286
     1
 66
     0
277
    -2
287
     1
 67
     0
278
    -2
288
     1
 68
     0
279
    -2
289
     1
 69
     0
  7
Standard
140
4.5
170
     5
 62
     0
 63
   257
283
     0
 90
        4
 91
        0
  1

274
    -2
284
     1
 64
     0
275
    -2
285
     1
 65
     0
276
    -2
286
     1
 66
     0
277
    -2
287
     1
 67
     0
278
    -2
288
     1
 68
     0
279
    -2
289
     1
 69
     0
  0
VISUALSTYLE
  5
2F
102
{ACAD_REACTORS
330
2A
102
}
330
2A
100
AcDbVisualStyle
  2
2dWireframe
 70
     4
177
     3
291
     0
 70
    58
 90
        0
176
     1
 90
        2
176
     1
 90
        0
176
     1
 90
        0
176
     1
 40
0.6
176
     1
 40
30.0
176
     1
 62
     7
420
 16777215
176
     1
 90
        1
176
     1
 90
        4
176
     1
 62
     7
176
     1
 62
   257
176
     1
 90
        1
176
     1
 90
        1
176
     1
 40
1.0
176
     1
 90
        0
176
     1
 62
   257
176
     1
 40
1.0
176
     1
 90
        1
176
     1
 90
        6
176
     1
 90
        2
176
     1
 62
     7
176
     1
 90
        5
176
     1
 90
        0
176
     1
 90
        0
176
     1
290
     0
176
     1
 90
        1
176
     1
 40
0.0
176
     1
 90
        0
176
     1
290
     1
176
     1
290
     1
176
     1
290
     0
176
     1
290
     0
176
     1
290
     0
176
     1
290
     0
176
     1
290
     0
176
     1
290
     0
176
     1
290
     0
176
     1
 90
       50
176
     1
 40
0.0
176
     1
 40
1.0
176
     1
 90
        0
176
     1
 62
    18
420
        0
176
     1
 90
       50
176
     1
 90
        3
176
     1
 62
     5
420
      255
176
     1
290
     0
176
     1
 90
       50
176
     1
 90
       50
176
     1
 90
       50
176
     1
290
     0
176
     1
 90
       50
176
     1
 62
   256
176
     0
 40
1.0
176
     0
 90
        2
176
     1
  1
strokes_ogs.tif
176
     1
290
     0
176
     1
 40
1.0
176
     1
 40
1.0
176
     1
  0
VISUALSTYLE
  5
32
102
{ACAD_REACTORS
330
2A
102
}
330
2A
100
AcDbVisualStyle
  2
Basic
 70
     7
177
     3
291
     1
 70
    58
 90
        1
176
     1
 90
        0
176
     1
 90
        1
176
     1
 90
        0
176
     1
 40
0.6
176
     1
 40
30.0
176
     1
 62
     7
420
 16777215
176
     1
 90
        0
176
     1
 90
        4
176
     1
 62
     7
176
     1
 62
   257
176
     1
 90
        1
176
     1
 90
        1
176
     1
 40
1.0
176
     1
 90
        8
176
     1
 62
     7
176
     1
 40
1.0
176
     1
 90
        1
176
     1
 90
        6
176
     1
 90
        2
176
     1
 62
     7
176
     1
 90
        5
176
     1
 90
        0
176
     1
 90
        0
176
     1
290
     0
176
     1
 90
        1
176
     1
 40
0.0
176
     1
 90
        0
176
     1
290
     0
176
     1
290
     1
176
     1
290
     1
176
     1
290
     0
176
     1
290
     0
176
     1
290
     0
176
     1
290
     0
176
     1
290
     0
176
     1
290
     0
176
     1
 90
       50
176
     1
 40
0.0
176
     1
 40
1.0
176
     1
 90
        0
176
     1
 62
    18
420
        0
176
     1
 90
       50
176
     1
 90
        3
176
     1
 62
     5
420
      255
176
     1
290
     0
176
     1
 90
       50
176
     1
 90
       50
176
     1
 90
       50
176
     1
290
     0
176
     1
 90
       50
176
     1
 62
   256
176
     0
 40
1.0
176
     0
 90
        2
176
     1
  1
strokes_ogs.tif
176
     1
290
     0
176
     1
 40
1.0
176
     1
 40
1.0
176
     1
  0
VISUALSTYLE
  5
36
102
{ACAD_REACTORS
330
2A
102
}
330
2A
100
AcDbVisualStyle
  2
Brighten
 70
    12
177
     3
291
     1
 70
    58
 90
        2
176
     1
 90
        2
176
     1
 90
        0
176
     1
 90
        0
176
     1
 40
0.6
176
     1
 40
30.0
176
     1
 62
     7
420
 16777215
176
     1
 90
        1
176
     1
 90
        4
176
     1
 62
     7
176
     1
 62
   257
176
     1
 90
        1
176
     1
 90
        1
176
     1
 40
1.0
176
     1
 90
        8
176
     1
 62
     7
176
     1
 40
1.0
176
     1
 90
        1
176
     1
 90
        6
176
     1
 90
        2
176
     1
 62
     7
176
     1
 90
        5
176
     1
 90
        0
176
     1
 90
        0
176
     1
290
     0
176
     1
 90
        1
176
     1
 40
50.0
176
     1
 90
        0
176
     1
290
     0
176
     1
290
     1
176
     1
290
     1
176
     1
290
     0
176
     1
290
     0
176
     1
290
     0
176
     1
290
     0
176
     1
290
     0
176
     1
290
     0
176
     1
 90
       50
176
     1
 40
0.0
176
     1
 40
1.0
176
     1
 90
        0
176
     1
 62
    18
420
        0
176
     1
 90
       50
176
     1
 90
        3
176
     1
 62
     5
420
      255
176
     1
290
     0
176
     1
 90
       50
176
     1
 90
       50
176
     1
 90
       50
176
     1
290
     0
176
     1
 90
       50
176
     1
 62
   256
176
     0
 40
1.0
176
     0
 90
        2
176
     1
  1
strokes_ogs.tif
176
     1
290
     0
176
     1
 40
1.0
176
     1
 40
1.0
176
     1
  0
VISUALSTYLE
  5
3A
102
{ACAD_REACTORS
330
2A
102
}
330
2A
100
AcDbVisualStyle
  2
ColorChange
 70
    16
177
     3
291
     1
 70
    58
 90
        2
176
     1
 90
        2
176
     1
 90
        3
176
     1
 90
        0
176
     1
 40
0.6
176
     1
 40
30.0
176
     1
 62
     8
420
  8421504
176
     1
 90
        1
176
     1
 90
        4
176
     1
 62
     7
176
     1
 62
   257
176
     1
 90
        1
176
     1
 90
        1
176
     1
 40
1.0
176
     1
 90
        8
176
     1
 62
     8
420
  8421504
176
     1
 40
1.0
176
     1
 90
        1
176
     1
 90
        6
176
     1
 90
        2
176
     1
 62
     7
176
     1
 90
        5
176
     1
 90
        0
176
     1
 90
        0
176
     1
290
     0
176
     1
 90
        1
176
     1
 40
0.0
176
     1
 90
        0
176
     1
290
     0
176
     1
290
     1
176
     1
290
     1
176
     1
290
     0
176
     1
290
     0
176
     1
290
     0
176
     1
290
     0
176
     1
290
     0
176
     1
290
     0
176
     1
 90
       50
176
     1
 40
0.0
176
     1
 40
1.0
176
     1
 90
        0
176
     1
 62
    18
420
        0
176
     1
 90
       50
176
     1
 90
        3
176
     1
 62
     5
420
      255
176
     1
290
     0
176
     1
 90
       50
176
     1
 90
       50
176
     1
 90
       50
176
     1
290
     0
176
     1
 90
       50
176
     1
 62
   256
176
     0
 40
1.0
176
     0
 90
        2
176
     1
  1
strokes_ogs.tif
176
     1
290
     0
176
     1
 40
1.0
176
     1
 40
1.0
176
     1
  0
VISUALSTYLE
  5
34
102
{ACAD_REACTORS
330
2A
102
}
330
2A
100
AcDbVisualStyle
  2
Conceptual
 70
     9
177
     3
291
     0
 70
    58
 90
        3
176
     1
 90
        2
176
     1
 90
        0
176
     1
 90
        0
176
     1
 40
0.6
176
     1
 40
30.0
176
     1
 62
     7
420
 16777215
176
     1
 90
        2
176
     1
 90
        2
176
     1
 62
     7
176
     1
 62
   257
176
     1
 90
        1
176
     1
 90
        1
176
     1
 40
179.0
176
     1
 90
        8
176
     1
 62
     7
176
     1
 40
1.0
176
     1
 90
        1
176
     1
 90
        6
176
     1
 90
        2
176
     1
 62
     7
176
     1
 90
        3
176
     1
 90
        0
176
     1
 90
        0
176
     1
290
     0
176
     1
 90
        1
176
     1
 40
0.0
176
     1
 90
        0
176
     1
290
     0
176
     1
290
     1
176
     1
290
     1
176
     1
290
     0
176
     1
290
     0
176
     1
290
     0
176
     1
290
     0
176
     1
290
     0
176
     1
290
     0
176
     1
 90
       50
176
     1
 40
0.0
176
     1
 40
1.0
176
     1
 90
        0
176
     1
 62
    18
420
        0
176
     1
 90
       50
176
     1
 90
        3
176
     1
 62
     5
420
      255
176
     1
290
     0
176
     1
 90
       50
176
     1
 90
       50
176
     1
 90
       50
176
     1
290
     0
176
     1
 90
       50
176
     1
 62
   256
176
     0
 40
1.0
176
     0
 90
        2
176
     1
  1
strokes_ogs.tif
176
     1
290
     0
176
     1
 40
1.0
176
     1
 40
1.0
176
     1
  0
VISUALSTYLE
  5
35
102
{ACAD_REACTORS
330
2A
102
}
330
2A
100
AcDbVisualStyle
  2
Dim
 70
    11
177
     3
291
     1
 70
    58
 90
        2
176
     1
 90
        2
176
     1
 90
        0
176
     1
 90
        0
176
     1
 40
0.6
176
     1
 40
30.0
176
     1
 62
     7
420
 16777215
176
     1
 90
        1
176
     1
 90
        4
176
     1
 62
     7
176
     1
 62
   257
176
     1
 90
        1
176
     1
 90
        1
176
     1
 40
1.0
176
     1
 90
        8
176
     1
 62
     7
176
     1
 40
1.0
176
     1
 90
        1
176
     1
 90
        6
176
     1
 90
        2
176
     1
 62
     7
176
     1
 90
        5
176
     1
 90
        0
176
     1
 90
        0
176
     1
290
     0
176
     1
 90
        1
176
     1
 40
-50.0
176
     1
 90
        0
176
     1
290
     0
176
     1
290
     1
176
     1
290
     1
176
     1
290
     0
176
     1
290
     0
176
     1
290
     0
176
     1
290
     0
176
     1
290
     0
176
     1
290
     0
176
     1
 90
       50
176
     1
 40
0.0
176
     1
 40
1.0
176
     1
 90
        0
176
     1
 62
    18
420
        0
176
     1
 90
       50
176
     1
 90
        3
176
     1
 62
     5
420
      255
176
     1
290
     0
176
     1
 90
       50
176
     1
 90
       50
176
     1
 90
       50
176
     1
290
     0
176
     1
 90
       50
176
     1
 62
   256
176
     0
 40
1.0
176
     0
 90
        2
176
     1
  1
strokes_ogs.tif
176
     1
290
     0
176
     1
 40
1.0
176
     1
 40
1.0
176
     1
  0
VISUALSTYLE
  5
3D
102
{ACAD_REACTORS
330
2A
102
}
330
2A
100
AcDbVisualStyle
  2
EdgeColorOff
 70
    22
177
     3
291
     1
 70
    58
 90
        2
176
     0
 90
        2
176
     0
 90
        0
176
     0
 90
        0
176
     0
 40
0.6
176
     0
 40
30.0
176
     0
 62
     7
420
 16777215
176
     0
 90
        1
176
     0
 90
        4
176
     0
 62
     7
176
     0
 62
   257
176
     0
 90
        1
176
     0
 90
        1
176
     0
 40
1.0
176
     0
 90
        8
176
     2
 62
     7
176
     0
 40
1.0
176
     0
 90
        1
176
     0
 90
        6
176
     0
 90
        2
176
     0
 62
     7
176
     0
 90
        5
176
     0
 90
        0
176
     0
 90
        0
176
     0
290
     0
176
     0
 90
        1
176
     0
 40
0.0
176
     0
 90
        0
176
     0
290
     0
176
     0
290
     1
176
     0
290
     1
176
     0
290
     0
176
     0
290
     0
176
     0
290
     0
176
     0
290
     0
176
     0
290
     0
176
     0
290
     0
176
     0
 90
       50
176
     0
 40
0.0
176
     0
 40
1.0
176
     0
 90
        0
176
     0
 62
    18
420
        0
176
     0
 90
       50
176
     0
 90
        3
176
     0
 62
     5
420
      255
176
     0
290
     0
176
     0
 90
       50
176
     0
 90
       50
176
     0
 90
       50
176
     0
290
     0
176
     0
 90
       50
176
     0
 62
   256
176
     0
 40
1.0
176
     0
 90
        2
176
     0
  1
strokes_ogs.tif
176
     0
290
     0
176
     0
 40
1.0
176
     0
 40
1.0
176
     0
  0
VISUALSTYLE
  5
39
102
{ACAD_REACTORS
330
2A
102
}
330
2A
100
AcDbVisualStyle
  2
Facepattern
 70
    15
177
     3
291
     1
 70
    58
 90
        2
176
     1
 90
        2
176
     1
 90
        0
176
     1
 90
        0
176
     1
 40
0.6
176
     1
 40
30.0
176
     1
 62
     7
420
 16777215
176
     1
 90
        1
176
     1
 90
        4
176
     1
 62
     7
176
     1
 62
   257
176
     1
 90
        1
176
     1
 90
        1
176
     1
 40
1.0
176
     1
 90
        8
176
     1
 62
     7
176
     1
 40
1.0
176
     1
 90
        1
176
     1
 90
        6
176
     1
 90
        2
176
     1
 62
     7
176
     1
 90
        5
176
     1
 90
        0
176
     1
 90
        0
176
     1
290
     0
176
     1
 90
        1
176
     1
 40
0.0
176
     1
 90
        0
176
     1
290
     0
176
     1
290
     1
176
     1
290
     1
176
     1
290
     0
176
     1
290
     0
176
     1
290
     0
176
     1
290
     0
176
     1
290
     0
176
     1
290
     0
176
     1
 90
       50
176
     1
 40
0.0
176
     1
 40
1.0
176
     1
 90
        0
176
     1
 62
    18
420
        0
176
     1
 90
       50
176
     1
 90
        3
176
     1
 62
     5
420
      255
176
     1
290
     0
176
     1
 90
       50
176
     1
 90
       50
176
     1
 90
       50
176
     1
290
     0
176
     1
 90
       50
176
     1
 62
   256
176
     0
 40
1.0
176
     0
 90
        2
176
     1
  1
strokes_ogs.tif
176
     1
290
     0
176
     1
 40
1.0
176
     1
 40
1.0
176
     1
  0
VISUALSTYLE
  5
2B
102
{ACAD_REACTORS
330
2A
102
}
330
2A
100
AcDbVisualStyle
  2
Flat
 70
     0
177
     3
291
     1
 70
    58
 90
        2
176
     1
 90
        1
176
     1
 90
        1
176
     1
 90
        2
176
     1
 40
0.6
176
     1
 40
30.0
176
     1
 62
     7
420
 16777215
176
     1
 90
        0
176
     1
 90
        0
176
     1
 62
     7
176
     1
 62
   257
176
     1
 90
        1
176
     1
 90
        1
176
     1
 40
1.0
176
     1
 90
        8
176
     1
 62
     7
176
     1
 40
1.0
176
     1
 90
        1
176
     1
 90
        6
176
     1
 90
        2
176
     1
 62
     7
176
     1
 90
        5
176
     1
 90
        0
176
     1
 90
        0
176
     1
290
     0
176
     1
 90
       13
176
     1
 40
0.0
176
     1
 90
        0
176
     1
290
     0
176
     1
290
     1
176
     1
290
     1
176
     1
290
     0
176
     1
290
     0
176
     1
290
     0
176
     1
290
     0
176
     1
290
     0
176
     1
290
     0
176
     1
 90
       50
176
     1
 40
0.0
176
     1
 40
1.0
176
     1
 90
        0
176
     1
 62
    18
420
        0
176
     1
 90
       50
176
     1
 90
        3
176
     1
 62
     5
420
      255
176
     1
290
     0
176
     1
 90
       50
176
     1
 90
       50
176
     1
 90
       50
176
     1
290
     0
176
     1
 90
       50
176
     1
 62
   256
176
     0
 40
1.0
176
     0
 90
        2
176
     1
  1
strokes_ogs.tif
176
     1
290
     0
176
     1
 40
1.0
176
     1
 40
1.0
176
     1
  0
VISUALSTYLE
  5
2C
102
{ACAD_REACTORS
330
2A
102
}
330
2A
100
AcDbVisualStyle
  2
FlatWithEdges
 70
     1
177
     3
291
     1
 70
    58
 90
        2
176
     1
 90
        1
176
     1
 90
        1
176
     1
 90
        2
176
     1
 40
0.6
176
     1
 40
30.0
176
     1
 62
     7
420
 16777215
176
     1
 90
        1
176
     1
 90
        0
176
     1
 62
     7
176
     1
 62
   257
176
     1
 90
        1
176
     1
 90
        1
176
     1
 40
1.0
176
     1
 90
        0
176
     1
 62
   257
176
     1
 40
1.0
176
     1
 90
        1
176
     1
 90
        6
176
     1
 90
        2
176
     1
 62
     7
176
     1
 90
        5
176
     1
 90
        0
176
     1
 90
        0
176
     1
290
     0
176
     1
 90
       13
176
     1
 40
0.0
176
     1
 90
        0
176
     1
290
     0
176
     1
290
     1
176
     1
290
     1
176
     1
290
     0
176
     1
290
     0
176
     1
290
     0
176
     1
290
     0
176
     1
290
     0
176
     1
290
     0
176
     1
 90
       50
176
     1
 40
0.0
176
     1
 40
1.0
176
     1
 90
        0
176
     1
 62
    18
420
        0
176
     1
 90
       50
176
     1
 90
        3
176
     1
 62
     5
420
      255
176
     1
290
     0
176
     1
 90
       50
176
     1
 90
       50
176
     1
 90
       50
176
     1
290
     0
176
     1
 90
       50
176
     1
 62
   256
176
     0
 40
1.0
176
     0
 90
        2
176
     1
  1
strokes_ogs.tif
176
     1
290
     0
176
     1
 40
1.0
176
     1
 40
1.0
176
     1
  0
VISUALSTYLE
  5
2D
102
{ACAD_REACTORS
330
2A
102
}
330
2A
100
AcDbVisualStyle
  2
Gouraud
 70
     2
177
     3
291
     1
 70
    58
 90
        2
176
     1
 90
        2
176
     1
 90
        1
176
     1
 90
        2
176
     1
 40
0.6
176
     1
 40
30.0
176
     1
 62
     7
420
 16777215
176
     1
 90
        0
176
     1
 90
        0
176
     1
 62
     7
176
     1
 62
   257
176
     1
 90
        1
176
     1
 90
        1
176
     1
 40
1.0
176
     1
 90
        0
176
     1
 62
     7
176
     1
 40
1.0
176
     1
 90
        1
176
     1
 90
        6
176
     1
 90
        2
176
     1
 62
     7
176
     1
 90
        5
176
     1
 90
        0
176
     1
 90
        0
176
     1
290
     0
176
     1
 90
       13
176
     1
 40
0.0
176
     1
 90
        0
176
     1
290
     0
176
     1
290
     1
176
     1
290
     1
176
     1
290
     0
176
     1
290
     0
176
     1
290
     0
176
     1
290
     0
176
     1
290
     0
176
     1
290
     0
176
     1
 90
       50
176
     1
 40
0.0
176
     1
 40
1.0
176
     1
 90
        0
176
     1
 62
    18
420
        0
176
     1
 90
       50
176
     1
 90
        3
176
     1
 62
     5
420
      255
176
     1
290
     0
176
     1
 90
       50
176
     1
 90
       50
176
     1
 90
       50
176
     1
290
     0
176
     1
 90
       50
176
     1
 62
   256
176
     0
 40
1.0
176
     0
 90
        2
176
     1
  1
strokes_ogs.tif
176
     1
290
     0
176
     1
 40
1.0
176
     1
 40
1.0
176
     1
  0
VISUALSTYLE
  5
2E
102
{ACAD_REACTORS
330
2A
102
}
330
2A
100
AcDbVisualStyle
  2
GouraudWithEdges
 70
     3
177
     3
291
     1
 70
    58
 90
        2
176
     1
 90
        2
176
     1
 90
        1
176
     1
 90
        2
176
     1
 40
0.6
176
     1
 40
30.0
176
     1
 62
     7
420
 16777215
176
     1
 90
        1
176
     1
 90
        0
176
     1
 62
     7
176
     1
 62
   257
176
     1
 90
        1
176
     1
 90
        1
176
     1
 40
1.0
176
     1
 90
        0
176
     1
 62
   257
176
     1
 40
1.0
176
     1
 90
        1
176
     1
 90
        6
176
     1
 90
        2
176
     1
 62
     7
176
     1
 90
        5
176
     1
 90
        0
176
     1
 90
        0
176
     1
290
     0
176
     1
 90
       13
176
     1
 40
0.0
176
     1
 90
        0
176
     1
290
     0
176
     1
290
     1
176
     1
290
     1
176
     1
290
     0
176
     1
290
     0
176
     1
290
     0
176
     1
290
     0
176
     1
290
     0
176
     1
290
     0
176
     1
 90
       50
176
     1
 40
0.0
176
     1
 40
1.0
176
     1
 90
        0
176
     1
 62
    18
420
        0
176
     1
 90
       50
176
     1
 90
        3
176
     1
 62
     5
420
      255
176
     1
290
     0
176
     1
 90
       50
176
     1
 90
       50
176
     1
 90
       50
176
     1
290
     0
176
     1
 90
       50
176
     1
 62
   256
176
     0
 40
1.0
176
     0
 90
        2
176
     1
  1
strokes_ogs.tif
176
     1
290
     0
176
     1
 40
1.0
176
     1
 40
1.0
176
     1
  0
VISUALSTYLE
  5
31
102
{ACAD_REACTORS
330
2A
102
}
330
2A
100
AcDbVisualStyle
  2
Hidden
 70
     6
177
     3
291
     0
 70
    58
 90
        1
176
     1
 90
        2
176
     1
 90
        2
176
     1
 90
        0
176
     1
 40
0.6
176
     1
 40
30.0
176
     1
 62
     7
420
 16777215
176
     1
 90
        2
176
     1
 90
        2
176
     1
 62
     7
176
     1
 62
   257
176
     1
 90
        2
176
     1
 90
        1
176
     1
 40
40.0
176
     1
 90
        0
176
     1
 62
   257
176
     1
 40
1.0
176
     1
 90
        1
176
     1
 90
        6
176
     1
 90
        2
176
     1
 62
     7
176
     1
 90
        3
176
     1
 90
        0
176
     1
 90
        0
176
     1
290
     0
176
     1
 90
        1
176
     1
 40
0.0
176
     1
 90
        0
176
     1
290
     0
176
     1
290
     1
176
     1
290
     1
176
     1
290
     0
176
     1
290
     0
176
     1
290
     0
176
     1
290
     0
176
     1
290
     0
176
     1
290
     0
176
     1
 90
       50
176
     1
 40
0.0
176
     1
 40
1.0
176
     1
 90
        0
176
     1
 62
    18
420
        0
176
     1
 90
       50
176
     1
 90
        3
176
     1
 62
     5
420
      255
176
     1
290
     0
176
     1
 90
       50
176
     1
 90
       50
176
     1
 90
       50
176
     1
290
     0
176
     1
 90
       50
176
     1
 62
   256
176
     0
 40
1.0
176
     0
 90
        2
176
     1
  1
strokes_ogs.tif
176
     1
290
     0
176
     1
 40
1.0
176
     1
 40
1.0
176
     1
  0
VISUALSTYLE
  5
3B
102
{ACAD_REACTORS
330
2A
102
}
330
2A
100
AcDbVisualStyle
  2
JitterOff
 70
    20
177
     3
291
     1
 70
    58
 90
        2
176
     0
 90
        2
176
     0
 90
        0
176
     0
 90
        0
176
     0
 40
0.6
176
     0
 40
30.0
176
     0
 62
     7
420
 16777215
176
     0
 90
        1
176
     0
 90
        4
176
     0
 62
     7
176
     0
 62
   257
176
     0
 90
        1
176
     0
 90
        1
176
     0
 40
1.0
176
     0
 90
       10
176
     2
 62
     7
176
     0
 40
1.0
176
     0
 90
        1
176
     0
 90
        6
176
     0
 90
        2
176
     0
 62
     7
176
     0
 90
        5
176
     0
 90
        0
176
     0
 90
        0
176
     0
290
     0
176
     0
 90
        1
176
     0
 40
0.0
176
     0
 90
        0
176
     0
290
     0
176
     0
290
     1
176
     0
290
     1
176
     0
290
     0
176
     0
290
     0
176
     0
290
     0
176
     0
290
     0
176
     0
290
     0
176
     0
290
     0
176
     0
 90
       50
176
     0
 40
0.0
176
     0
 40
1.0
176
     0
 90
        0
176
     0
 62
    18
420
        0
176
     0
 90
       50
176
     0
 90
        3
176
     0
 62
     5
420
      255
176
     0
290
     0
176
     0
 90
       50
176
     0
 90
       50
176
     0
 90
       50
176
     0
290
     0
176
     0
 90
       50
176
     0
 62
   256
176
     0
 40
1.0
176
     0
 90
        2
176
     0
  1
strokes_ogs.tif
176
     0
290
     0
176
     0
 40
1.0
176
     0
 40
1.0
176
     0
  0
VISUALSTYLE
  5
38
102
{ACAD_REACTORS
330
2A
102
}
330
2A
100
AcDbVisualStyle
  2
Linepattern
 70
    14
177
     3
291
     1
 70
    58
 90
        2
176
     1
 90
        2
176
     1
 90
        0
176
     1
 90
        0
176
     1
 40
0.6
176
     1
 40
30.0
176
     1
 62
     7
420
 16777215
176
     1
 90
        1
176
     1
 90
        4
176
     1
 62
     7
176
     1
 62
   257
176
     1
 90
        7
176
     1
 90
        7
176
     1
 40
1.0
176
     1
 90
        8
176
     1
 62
     7
176
     1
 40
1.0
176
     1
 90
        1
176
     1
 90
        6
176
     1
 90
        2
176
     1
 62
     7
176
     1
 90
        5
176
     1
 90
        0
176
     1
 90
        0
176
     1
290
     0
176
     1
 90
        1
176
     1
 40
0.0
176
     1
 90
        0
176
     1
290
     0
176
     1
290
     1
176
     1
290
     1
176
     1
290
     0
176
     1
290
     0
176
     1
290
     0
176
     1
290
     0
176
     1
290
     0
176
     1
290
     0
176
     1
 90
       50
176
     1
 40
0.0
176
     1
 40
1.0
176
     1
 90
        0
176
     1
 62
    18
420
        0
176
     1
 90
       50
176
     1
 90
        3
176
     1
 62
     5
420
      255
176
     1
290
     0
176
     1
 90
       50
176
     1
 90
       50
176
     1
 90
       50
176
     1
290
     0
176
     1
 90
       50
176
     1
 62
   256
176
     0
 40
1.0
176
     0
 90
        2
176
     1
  1
strokes_ogs.tif
176
     1
290
     0
176
     1
 40
1.0
176
     1
 40
1.0
176
     1
  0
VISUALSTYLE
  5
3C
102
{ACAD_REACTORS
330
2A
102
}
330
2A
100
AcDbVisualStyle
  2
OverhangOff
 70
    21
177
     3
291
     1
 70
    58
 90
        2
176
     0
 90
        2
176
     0
 90
        0
176
     0
 90
        0
176
     0
 40
0.6
176
     0
 40
30.0
176
     0
 62
     7
420
 16777215
176
     0
 90
        1
176
     0
 90
        4
176
     0
 62
     7
176
     0
 62
   257
176
     0
 90
        1
176
     0
 90
        1
176
     0
 40
1.0
176
     0
 90
        9
176
     2
 62
     7
176
     0
 40
1.0
176
     0
 90
        1
176
     0
 90
        6
176
     0
 90
        2
176
     0
 62
     7
176
     0
 90
        5
176
     0
 90
        0
176
     0
 90
        0
176
     0
290
     0
176
     0
 90
        1
176
     0
 40
0.0
176
     0
 90
        0
176
     0
290
     0
176
     0
290
     1
176
     0
290
     1
176
     0
290
     0
176
     0
290
     0
176
     0
290
     0
176
     0
290
     0
176
     0
290
     0
176
     0
290
     0
176
     0
 90
       50
176
     0
 40
0.0
176
     0
 40
1.0
176
     0
 90
        0
176
     0
 62
    18
420
        0
176
     0
 90
       50
176
     0
 90
        3
176
     0
 62
     5
420
      255
176
     0
290
     0
176
     0
 90
       50
176
     0
 90
       50
176
     0
 90
       50
176
     0
290
     0
176
     0
 90
       50
176
     0
 62
   256
176
     0
 40
1.0
176
     0
 90
        2
176
     0
  1
strokes_ogs.tif
176
     0
290
     0
176
     0
 40
1.0
176
     0
 40
1.0
176
     0
  0
VISUALSTYLE
  5
33
102
{ACAD_REACTORS
330
2A
102
}
330
2A
100
AcDbVisualStyle
  2
Realistic
 70
     8
177
     3
291
     0
 70
    58
 90
        2
176
     1
 90
        3
176
     1
 90
        0
176
     1
 90
        2
176
     1
 40
0.6
176
     1
 40
30.0
176
     1
 62
     7
420
 16777215
176
     1
 90
        0
176
     1
 90
        0
176
     1
 62
     7
176
     1
 62
   257
176
     1
 90
        1
176
     1
 90
        1
176
     1
 40
1.0
176
     1
 90
        8
176
     1
 62
   257
176
     1
 40
1.0
176
     1
 90
        1
176
     1
 90
        6
176
     1
 90
        2
176
     1
 62
     7
176
     1
 90
        3
176
     1
 90
        0
176
     1
 90
        0
176
     1
290
     0
176
     1
 90
       13
176
     1
 40
0.0
176
     1
 90
        0
176
     1
290
     0
176
     1
290
     1
176
     1
290
     1
176
     1
290
     0
176
     1
290
     0
176
     1
290
     0
176
     1
290
     0
176
     1
290
     0
176
     1
290
     0
176
     1
 90
       50
176
     1
 40
0.0
176
     1
 40
1.0
176
     1
 90
        0
176
     1
 62
    18
420
        0
176
     1
 90
       50
176
     1
 90
        3
176
     1
 62
     5
420
      255
176
     1
290
     0
176
     1
 90
       50
176
     1
 90
       50
176
     1
 90
       50
176
     1
290
     0
176
     1
 90
       50
176
     1
 62
   256
176
     0
 40
1.0
176
     0
 90
        2
176
     1
  1
strokes_ogs.tif
176
     1
290
     0
176
     1
 40
1.0
176
     1
 40
1.0
176
     1
  0
VISUALSTYLE
  5
42
102
{ACAD_REACTORS
330
2A
102
}
330
2A
100
AcDbVisualStyle
  2
Shaded
 70
    27
177
     3
291
     0
 70
    58
 90
        2
176
     1
 90
        2
176
     1
 90
        1
176
     1
 90
        2
176
     1
 40
0.6
176
     1
 40
30.0
176
     1
 62
     7
420
 16777215
176
     1
 90
        0
176
     1
 90
        4
176
     1
 62
     7
176
     1
 62
   257
176
     1
 90
        1
176
     1
 90
        1
176
     1
 40
1.0
176
     1
 90
        8
176
     1
 62
   257
176
     1
 40
1.0
176
     1
 90
        1
176
     1
 90
        6
176
     1
 90
        2
176
     1
 62
     8
420
  7895160
176
     1
 90
        3
176
     1
 90
        0
176
     1
 90
        0
176
     1
290
     0
176
     1
 90
        5
176
     1
 40
0.0
176
     1
 90
        0
176
     1
290
     0
176
     1
290
     1
176
     1
290
     1
176
     1
290
     0
176
     1
290
     0
176
     1
290
     0
176
     1
290
     0
176
     1
290
     0
176
     1
290
     0
176
     1
 90
       50
176
     1
 40
0.0
176
     1
 40
1.0
176
     1
 90
        0
176
     1
 62
    18
420
        0
176
     1
 90
       50
176
     1
 90
        3
176
     1
 62
     5
420
      255
176
     1
290
     0
176
     1
 90
       50
176
     1
 90
       50
176
     1
 90
       50
176
     1
290
     0
176
     1
 90
       50
176
     1
 62
   256
176
     0
 40
1.0
176
     0
 90
        2
176
     1
  1
strokes_ogs.tif
176
     1
290
     0
176
     1
 40
1.0
176
     1
 40
1.0
176
     1
  0
VISUALSTYLE
  5
41
102
{ACAD_REACTORS
330
2A
102
}
330
2A
100
AcDbVisualStyle
  2
Shaded with edges
 70
    26
177
     3
291
     0
 70
    58
 90
        2
176
     1
 90
        2
176
     1
 90
        1
176
     1
 90
        2
176
     1
 40
0.6
176
     1
 40
30.0
176
     1
 62
     7
420
 16777215
176
     1
 90
        1
176
     1
 90
       10
176
     1
 62
     7
176
     1
 62
   257
176
     1
 90
        2
176
     1
 90
        1
176
     1
 40
1.0
176
     1
 90
        8
176
     1
 62
   257
176
     1
 40
1.0
176
     1
 90
        1
176
     1
 90
        6
176
     1
 90
        2
176
     1
 62
     7
176
     1
 90
        3
176
     1
 90
        0
176
     1
 90
        0
176
     1
290
     0
176
     1
 90
        5
176
     1
 40
0.0
176
     1
 90
        0
176
     1
290
     0
176
     1
290
     1
176
     1
290
     1
176
     1
290
     0
176
     1
290
     0
176
     1
290
     0
176
     1
290
     0
176
     1
290
     0
176
     1
290
     0
176
     1
 90
       50
176
     1
 40
0.0
176
     1
 40
1.0
176
     1
 90
        0
176
     1
 62
    18
420
        0
176
     1
 90
       50
176
     1
 90
        3
176
     1
 62
     5
420
      255
176
     1
290
     0
176
     1
 90
       50
176
     1
 90
       50
176
     1
 90
       50
176
     1
290
     0
176
     1
 90
       50
176
     1
 62
   256
176
     0
 40
1.0
176
     0
 90
        2
176
     1
  1
strokes_ogs.tif
176
     1
290
     0
176
     1
 40
1.0
176
     1
 40
1.0
176
     1
  0
VISUALSTYLE
  5
3E
102
{ACAD_REACTORS
330
2A
102
}
330
2A
100
AcDbVisualStyle
  2
Shades of Gray
 70
    23
177
     3
291
     0
 70
    58
 90
        2
176
     1
 90
        2
176
     1
 90
        3
176
     1
 90
        0
176
     1
 40
0.6
176
     1
 40
30.0
176
     1
 62
     7
420
 16777215
176
     1
 90
        2
176
     1
 90
        2
176
     1
 62
     7
176
     1
 62
     7
176
     1
 90
        1
176
     1
 90
        1
176
     1
 40
40.0
176
     1
 90
        8
176
     1
 62
     7
176
     1
 40
1.0
176
     1
 90
        1
176
     1
 90
        6
176
     1
 90
        2
176
     1
 62
     7
176
     1
 90
        3
176
     1
 90
        0
176
     1
 90
        0
176
     1
290
     0
176
     1
 90
        1
176
     1
 40
0.0
176
     1
 90
        0
176
     1
290
     0
176
     1
290
     1
176
     1
290
     1
176
     1
290
     0
176
     1
290
     0
176
     1
290
     0
176
     1
290
     0
176
     1
290
     0
176
     1
290
     0
176
     1
 90
       50
176
     1
 40
0.0
176
     1
 40
1.0
176
     1
 90
        0
176
     1
 62
    18
420
        0
176
     1
 90
       50
176
     1
 90
        3
176
     1
 62
     5
420
      255
176
     1
290
     0
176
     1
 90
       50
176
     1
 90
       50
176
     1
 90
       50
176
     1
290
     0
176
     1
 90
       50
176
     1
 62
   256
176
     0
 40
1.0
176
     0
 90
        2
176
     1
  1
strokes_ogs.tif
176
     1
290
     0
176
     1
 40
1.0
176
     1
 40
1.0
176
     1
  0
VISUALSTYLE
  5
3F
102
{ACAD_REACTORS
330
2A
102
}
330
2A
100
AcDbVisualStyle
  2
Sketchy
 70
    24
177
     3
291
     0
 70
    58
 90
        1
176
     1
 90
        2
176
     1
 90
        2
176
     1
 90
        0
176
     1
 40
0.6
176
     1
 40
30.0
176
     1
 62
     7
420
 16777215
176
     1
 90
        2
176
     1
 90
        2
176
     1
 62
     7
176
     1
 62
     7
176
     1
 90
        1
176
     1
 90
        1
176
     1
 40
40.0
176
     1
 90
       11
176
     1
 62
     7
176
     1
 40
1.0
176
     1
 90
        1
176
     1
 90
        6
176
     1
 90
        2
176
     1
 62
     7
176
     1
 90
        6
176
     1
 90
        0
176
     1
 90
        0
176
     1
290
     0
176
     1
 90
        1
176
     1
 40
0.0
176
     1
 90
        0
176
     1
290
     0
176
     1
290
     1
176
     1
290
     1
176
     1
290
     0
176
     1
290
     0
176
     1
290
     0
176
     1
290
     0
176
     1
290
     0
176
     1
290
     0
176
     1
 90
       50
176
     1
 40
0.0
176
     1
 40
1.0
176
     1
 90
        0
176
     1
 62
    18
420
        0
176
     1
 90
       50
176
     1
 90
        3
176
     1
 62
     5
420
      255
176
     1
290
     0
176
     1
 90
       50
176
     1
 90
       50
176
     1
 90
       50
176
     1
290
     0
176
     1
 90
       50
176
     1
 62
   256
176
     0
 40
1.0
176
     0
 90
        2
176
     1
  1
strokes_ogs.tif
176
     1
290
     0
176
     1
 40
1.0
176
     1
 40
1.0
176
     1
  0
VISUALSTYLE
  5
37
102
{ACAD_REACTORS
330
2A
102
}
330
2A
100
AcDbVisualStyle
  2
Thicken
 70
    13
177
     3
291
     1
 70
    58
 90
        2
176
     1
 90
        2
176
     1
 90
        0
176
     1
 90
        0
176
     1
 40
0.6
176
     1
 40
30.0
176
     1
 62
     7
420
 16777215
176
     1
 90
        1
176
     1
 90
        4
176
     1
 62
     7
176
     1
 62
   257
176
     1
 90
        1
176
     1
 90
        1
176
     1
 40
1.0
176
     1
 90
       12
176
     1
 62
     7
176
     1
 40
1.0
176
     1
 90
        1
176
     1
 90
        6
176
     1
 90
        2
176
     1
 62
     7
176
     1
 90
        5
176
     1
 90
        0
176
     1
 90
        0
176
     1
290
     0
176
     1
 90
        1
176
     1
 40
0.0
176
     1
 90
        0
176
     1
290
     0
176
     1
290
     1
176
     1
290
     1
176
     1
290
     0
176
     1
290
     0
176
     1
290
     0
176
     1
290
     0
176
     1
290
     0
176
     1
290
     0
176
     1
 90
       50
176
     1
 40
0.0
176
     1
 40
1.0
176
     1
 90
        0
176
     1
 62
    18
420
        0
176
     1
 90
       50
176
     1
 90
        3
176
     1
 62
     5
420
      255
176
     1
290
     0
176
     1
 90
       50
176
     1
 90
       50
176
     1
 90
       50
176
     1
290
     0
176
     1
 90
       50
176
     1
 62
   256
176
     0
 40
1.0
176
     0
 90
        2
176
     1
  1
strokes_ogs.tif
176
     1
290
     0
176
     1
 40
1.0
176
     1
 40
1.0
176
     1
  0
VISUALSTYLE
  5
30
102
{ACAD_REACTORS
330
2A
102
}
330
2A
100
AcDbVisualStyle
  2
Wireframe
 70
     5
177
     3
291
     0
 70
    58
 90
        0
176
     1
 90
        2
176
     1
 90
        0
176
     1
 90
        0
176
     1
 40
0.6
176
     1
 40
30.0
176
     1
 62
     7
420
 16777215
176
     1
 90
        1
176
     1
 90
        4
176
     1
 62
     7
176
     1
 62
   257
176
     1
 90
        1
176
     1
 90
        1
176
     1
 40
1.0
176
     1
 90
        0
176
     1
 62
   257
176
     1
 40
1.0
176
     1
 90
        1
176
     1
 90
        6
176
     1
 90
        2
176
     1
 62
     7
176
     1
 90
        3
176
     1
 90
        0
176
     1
 90
        0
176
     1
290
     0
176
     1
 90
        1
176
     1
 40
0.0
176
     1
 90
        0
176
     1
290
     0
176
     1
290
     1
176
     1
290
     1
176
     1
290
     0
176
     1
290
     0
176
     1
290
     0
176
     1
290
     0
176
     1
290
     0
176
     1
290
     0
176
     1
 90
       50
176
     1
 40
0.0
176
     1
 40
1.0
176
     1
 90
        0
176
     1
 62
    18
420
        0
176
     1
 90
       50
176
     1
 90
        3
176
     1
 62
     5
420
      255
176
     1
290
     0
176
     1
 90
       50
176
     1
 90
       50
176
     1
 90
       50
176
     1
290
     0
176
     1
 90
       50
176
     1
 62
   256
176
     0
 40
1.0
176
     0
 90
        2
176
     1
  1
strokes_ogs.tif
176
     1
290
     0
176
     1
 40
1.0
176
     1
 40
1.0
176
     1
  0
VISUALSTYLE
  5
40
102
{ACAD_REACTORS
330
2A
102
}
330
2A
100
AcDbVisualStyle
  2
X-Ray
 70
    25
177
     3
291
     0
 70
    58
 90
        2
176
     1
 90
        2
176
     1
 90
        1
176
     1
 90
        1
176
     1
 40
0.5
176
     1
 40
30.0
176
     1
 62
     7
420
 16777215
176
     1
 90
        1
176
     1
 90
        0
176
     1
 62
     7
176
     1
 62
   257
176
     1
 90
        1
176
     1
 90
        1
176
     1
 40
1.0
176
     1
 90
        8
176
     1
 62
     7
176
     1
 40
1.0
176
     1
 90
        1
176
     1
 90
        6
176
     1
 90
        2
176
     1
 62
     7
176
     1
 90
        3
176
     1
 90
        0
176
     1
 90
        0
176
     1
290
     0
176
     1
 90
       13
176
     1
 40
0.0
176
     1
 90
        0
176
     1
290
     0
176
     1
290
     1
176
     1
290
     1
176
     1
290
     0
176
     1
290
     0
176
     1
290
     0
176
     1
290
     0
176
     1
290
     0
176
     1
290
     0
176
     1
 90
       50
176
     1
 40
0.0
176
     1
 40
1.0
176
     1
 90
        0
176
     1
 62
    18
420
        0
176
     1
 90
       50
176
     1
 90
        3
176
     1
 62
     5
420
      255
176
     1
290
     0
176
     1
 90
       50
176
     1
 90
       50
176
     1
 90
       50
176
     1
290
     0
176
     1
 90
       50
176
     1
 62
   256
176
     0
 40
1.0
176
     0
 90
        2
176
     1
  1
strokes_ogs.tif
176
     1
290
     0
176
     1
 40
1.0
176
     1
 40
1.0
176
     1
  0
DICTIONARYVAR
  5
1A1
102
{ACAD_REACTORS
330
1A0
102
}
330
1A0
100
DictionaryVariables
280
     0
  1
1:1
  0
DICTIONARYVAR
  5
1A9
102
{ACAD_REACTORS
330
1A0
102
}
330
1A0
100
DictionaryVariables
280
     0
  1
3.500000
  0
DICTIONARYVAR
  5
1AA
102
{ACAD_REACTORS
330
1A0
102
}
330
1A0
100
DictionaryVariables
280
     0
  1
acadiso.lin
  0
DICTIONARYVAR
  5
1A6
102
{ACAD_REACTORS
330
1A0
102
}
330
1A0
100
DictionaryVariables
280
     0
  1
Standard
  0
DICTIONARYVAR
  5
1A5
102
{ACAD_REACTORS
330
1A0
102
}
330
1A0
100
DictionaryVariables
280
     0
  1
Standard
  0
DICTIONARY
  5
1A2
330
6A
100
AcDbDictionary
280
     1
281
     1
  3
ACAD_ROUNDTRIP_2008_TABLESTYLE_CELLSTYLEMAP
360
1A3
  0
CELLSTYLEMAP
  5
1A3
102
{ACAD_REACTORS
330
1A2
102
}
330
1A2
100
AcDbCellStyleMap
 90
        3
300
CELLSTYLE
  1
TABLEFORMAT_BEGIN
 90
        5
170
     1
 91
        0
 92
    32768
 62
   257
 93
        1
300
CONTENTFORMAT
  1
CONTENTFORMAT_BEGIN
 90
        0
 91
        0
 92
        4
 93
        0
300

 40
0.0
140
1.0
 94
        5
 62
     0
340
11
144
6.0
309
CONTENTFORMAT_END
171
     1
301
MARGIN
  1
CELLMARGIN_BEGIN
 40
1.5
 40
1.5
 40
1.5
 40
1.5
 40
1.5
 40
1.5
309
CELLMARGIN_END
 94
        6
 95
        1
302
GRIDFORMAT
  1
GRIDFORMAT_BEGIN
 90
        0
 91
        1
 62
     0
 92
       -2
340
14
 93
        0
 40
0.045
309
GRIDFORMAT_END
 95
        2
302
GRIDFORMAT
  1
GRIDFORMAT_BEGIN
 90
        0
 91
        1
 62
     0
 92
       -2
340
14
 93
        0
 40
0.045
309
GRIDFORMAT_END
 95
        4
302
GRIDFORMAT
  1
GRIDFORMAT_BEGIN
 90
        0
 91
        1
 62
     0
 92
       -2
340
14
 93
        0
 40
0.045
309
GRIDFORMAT_END
 95
        8
302
GRIDFORMAT
  1
GRIDFORMAT_BEGIN
 90
        0
 91
        1
 62
     0
 92
       -2
340
14
 93
        0
 40
0.045
309
GRIDFORMAT_END
 95
       16
302
GRIDFORMAT
  1
GRIDFORMAT_BEGIN
 90
        0
 91
        1
 62
     0
 92
       -2
340
14
 93
        0
 40
0.045
309
GRIDFORMAT_END
 95
       32
302
GRIDFORMAT
  1
GRIDFORMAT_BEGIN
 90
        0
 91
        1
 62
     0
 92
       -2
340
14
 93
        0
 40
0.045
309
GRIDFORMAT_END
309
TABLEFORMAT_END
  1
CELLSTYLE_BEGIN
 90
        1
 91
        1
300
_TITLE
309
CELLSTYLE_END
300
CELLSTYLE
  1
TABLEFORMAT_BEGIN
 90
        5
170
     1
 91
        0
 92
        0
 62
   257
 93
        1
300
CONTENTFORMAT
  1
CONTENTFORMAT_BEGIN
 90
        0
 91
        0
 92
        4
 93
        0
300

 40
0.0
140
1.0
 94
        5
 62
     0
340
11
144
4.5
309
CONTENTFORMAT_END
171
     1
301
MARGIN
  1
CELLMARGIN_BEGIN
 40
1.5
 40
1.5
 40
1.5
 40
1.5
 40
1.5
 40
1.5
309
CELLMARGIN_END
 94
        6
 95
        1
302
GRIDFORMAT
  1
GRIDFORMAT_BEGIN
 90
        0
 91
        1
 62
     0
 92
       -2
340
14
 93
        0
 40
0.045
309
GRIDFORMAT_END
 95
        2
302
GRIDFORMAT
  1
GRIDFORMAT_BEGIN
 90
        0
 91
        1
 62
     0
 92
       -2
340
14
 93
        0
 40
0.045
309
GRIDFORMAT_END
 95
        4
302
GRIDFORMAT
  1
GRIDFORMAT_BEGIN
 90
        0
 91
        1
 62
     0
 92
       -2
340
14
 93
        0
 40
0.045
309
GRIDFORMAT_END
 95
        8
302
GRIDFORMAT
  1
GRIDFORMAT_BEGIN
 90
        0
 91
        1
 62
     0
 92
       -2
340
14
 93
        0
 40
0.045
309
GRIDFORMAT_END
 95
       16
302
GRIDFORMAT
  1
GRIDFORMAT_BEGIN
 90
        0
 91
        1
 62
     0
 92
       -2
340
14
 93
        0
 40
0.045
309
GRIDFORMAT_END
 95
       32
302
GRIDFORMAT
  1
GRIDFORMAT_BEGIN
 90
        0
 91
        1
 62
     0
 92
       -2
340
14
 93
        0
 40
0.045
309
GRIDFORMAT_END
309
TABLEFORMAT_END
  1
CELLSTYLE_BEGIN
 90
        2
 91
        1
300
_HEADER
309
CELLSTYLE_END
300
CELLSTYLE
  1
TABLEFORMAT_BEGIN
 90
        5
170
     1
 91
        0
 92
        0
 62
   257
 93
        1
300
CONTENTFORMAT
  1
CONTENTFORMAT_BEGIN
 90
        0
 91
        0
 92
        4
 93
        0
300

 40
0.0
140
1.0
 94
        2
 62
     0
340
11
144
4.5
309
CONTENTFORMAT_END
171
     1
301
MARGIN
  1
CELLMARGIN_BEGIN
 40
1.5
 40
1.5
 40
1.5
 40
1.5
 40
1.5
 40
1.5
309
CELLMARGIN_END
 94
        6
 95
        1
302
GRIDFORMAT
  1
GRIDFORMAT_BEGIN
 90
        0
 91
        1
 62
     0
 92
       -2
340
14
 93
        0
 40
0.045
309
GRIDFORMAT_END
 95
        2
302
GRIDFORMAT
  1
GRIDFORMAT_BEGIN
 90
        0
 91
        1
 62
     0
 92
       -2
340
14
 93
        0
 40
0.045
309
GRIDFORMAT_END
 95
        4
302
GRIDFORMAT
  1
GRIDFORMAT_BEGIN
 90
        0
 91
        1
 62
     0
 92
       -2
340
14
 93
        0
 40
0.045
309
GRIDFORMAT_END
 95
        8
302
GRIDFORMAT
  1
GRIDFORMAT_BEGIN
 90
        0
 91
        1
 62
     0
 92
       -2
340
14
 93
        0
 40
0.045
309
GRIDFORMAT_END
 95
       16
302
GRIDFORMAT
  1
GRIDFORMAT_BEGIN
 90
        0
 91
        1
 62
     0
 92
       -2
340
14
 93
        0
 40
0.045
309
GRIDFORMAT_END
 95
       32
302
GRIDFORMAT
  1
GRIDFORMAT_BEGIN
 90
        0
 91
        1
 62
     0
 92
       -2
340
14
 93
        0
 40
0.045
309
GRIDFORMAT_END
309
TABLEFORMAT_END
  1
CELLSTYLE_BEGIN
 90
        3
 91
        2
300
_DATA
309
CELLSTYLE_END
  0
ENDSEC
  0
EOF
