  0
SECTION
  2
HEADER
  9
$ACADVER
  1
AC1015
  9
$ACADMAINTVER
 70
     6
  9
$DWGCODEPAGE
  3
ANSI_932
  9
$INSBASE
 10
0.0
 20
0.0
 30
0.0
  9
$EXTMIN
 10
-2100.0
 20
-1485.0
 30
0.0
  9
$EXTMAX
 10
2100.0
 20
1485.0
 30
0.0
  9
$LIMMIN
 10
-2100.0
 20
-1485.0
  9
$LIMMAX
 10
2100.0
 20
1485.0
  9
$ORTHOMODE
 70
     0
  9
$REGENMODE
 70
     1
  9
$FILLMODE
 70
     1
  9
$QTEXTMODE
 70
     0
  9
$MIRRTEXT
 70
     1
  9
$LTSCALE
 40
10.0
  9
$ATTMODE
 70
     1
  9
$TEXTSIZE
 40
2.5
  9
$TRACEWID
 40
1.0
  9
$TEXTSTYLE
  7
Standard
  9
$CLAYER
  8
0
  9
$CELTYPE
  6
ByLayer
  9
$CECOLOR
 62
   256
  9
$CELTSCALE
 40
1.0
  9
$DISPSILH
 70
     0
  9
$DIMSCALE
 40
1.0
  9
$DIMASZ
 40
2.5
  9
$DIMEXO
 40
0.625
  9
$DIMDLI
 40
3.75
  9
$DIMRND
 40
0.0
  9
$DIMDLE
 40
0.0
  9
$DIMEXE
 40
1.25
  9
$DIMTP
 40
0.0
  9
$DIMTM
 40
0.0
  9
$DIMTXT
 40
2.5
  9
$DIMCEN
 40
2.5
  9
$DIMTSZ
 40
0.0
  9
$DIMTOL
 70
     0
  9
$DIMLIM
 70
     0
  9
$DIMTIH
 70
     0
  9
$DIMTOH
 70
     0
  9
$DIMSE1
 70
     0
  9
$DIMSE2
 70
     0
  9
$DIMTAD
 70
     1
  9
$DIMZIN
 70
     8
  9
$DIMBLK
  1

  9
$DIMASO
 70
     1
  9
$DIMSHO
 70
     1
  9
$DIMPOST
  1

  9
$DIMAPOST
  1

  9
$DIMALT
 70
     0
  9
$DIMALTD
 70
     3
  9
$DIMALTF
 40
0.03937007874016
  9
$DIMLFAC
 40
1.0
  9
$DIMTOFL
 70
     1
  9
$DIMTVP
 40
0.0
  9
$DIMTIX
 70
     0
  9
$DIMSOXD
 70
     0
  9
$DIMSAH
 70
     0
  9
$DIMBLK1
  1

  9
$DIMBLK2
  1

  9
$DIMSTYLE
  2
ISO-25
  9
$DIMCLRD
 70
     0
  9
$DIMCLRE
 70
     0
  9
$DIMCLRT
 70
     0
  9
$DIMTFAC
 40
1.0
  9
$DIMGAP
 40
0.625
  9
$DIMJUST
 70
     0
  9
$DIMSD1
 70
     0
  9
$DIMSD2
 70
     0
  9
$DIMTOLJ
 70
     0
  9
$DIMTZIN
 70
     8
  9
$DIMALTZ
 70
     0
  9
$DIMALTTZ
 70
     0
  9
$DIMUPT
 70
     0
  9
$DIMDEC
 70
     2
  9
$DIMTDEC
 70
     2
  9
$DIMALTU
 70
     2
  9
$DIMALTTD
 70
     3
  9
$DIMTXSTY
  7
Standard
  9
$DIMAUNIT
 70
     0
  9
$DIMADEC
 70
     0
  9
$DIMALTRND
 40
0.0
  9
$DIMAZIN
 70
     0
  9
$DIMDSEP
 70
    44
  9
$DIMATFIT
 70
     3
  9
$DIMFRAC
 70
     0
  9
$DIMLDRBLK
  1

  9
$DIMLUNIT
 70
     2
  9
$DIMLWD
 70
    -2
  9
$DIMLWE
 70
    -2
  9
$DIMTMOVE
 70
     0
  9
$LUNITS
 70
     2
  9
$LUPREC
 70
     4
  9
$SKETCHINC
 40
1.0
  9
$FILLETRAD
 40
10.0
  9
$AUNITS
 70
     0
  9
$AUPREC
 70
     0
  9
$MENU
  1
.
  9
$ELEVATION
 40
0.0
  9
$PELEVATION
 40
0.0
  9
$THICKNESS
 40
0.0
  9
$LIMCHECK
 70
     0
  9
$CHAMFERA
 40
10.0
  9
$CHAMFERB
 40
10.0
  9
$CHAMFERC
 40
20.0
  9
$CHAMFERD
 40
0.0
  9
$SKPOLY
 70
     0
  9
$TDCREATE
 40
2456902.409144664
  9
$TDUCREATE
 40
2456902.034144664
  9
$TDUPDATE
 40
2456902.409144676
  9
$TDUUPDATE
 40
2456902.034144676
  9
$TDINDWG
 40
0.0000000116
  9
$TDUSRTIMER
 40
0.0000000116
  9
$USRTIMER
 70
     1
  9
$ANGBASE
 50
0.0
  9
$ANGDIR
 70
     0
  9
$PDMODE
 70
     0
  9
$PDSIZE
 40
0.0
  9
$PLINEWID
 40
0.0
  9
$SPLFRAME
 70
     0
  9
$SPLINETYPE
 70
     6
  9
$SPLINESEGS
 70
     8
  9
$HANDSEED
  5
2CD
  9
$SURFTAB1
 70
     6
  9
$SURFTAB2
 70
     6
  9
$SURFTYPE
 70
     6
  9
$SURFU
 70
     6
  9
$SURFV
 70
     6
  9
$UCSBASE
  2

  9
$UCSNAME
  2

  9
$UCSORG
 10
0.0
 20
0.0
 30
0.0
  9
$UCSXDIR
 10
1.0
 20
0.0
 30
0.0
  9
$UCSYDIR
 10
0.0
 20
1.0
 30
0.0
  9
$UCSORTHOREF
  2

  9
$UCSORTHOVIEW
 70
     0
  9
$UCSORGTOP
 10
0.0
 20
0.0
 30
0.0
  9
$UCSORGBOTTOM
 10
0.0
 20
0.0
 30
0.0
  9
$UCSORGLEFT
 10
0.0
 20
0.0
 30
0.0
  9
$UCSORGRIGHT
 10
0.0
 20
0.0
 30
0.0
  9
$UCSORGFRONT
 10
0.0
 20
0.0
 30
0.0
  9
$UCSORGBACK
 10
0.0
 20
0.0
 30
0.0
  9
$PUCSBASE
  2

  9
$PUCSNAME
  2

  9
$PUCSORG
 10
0.0
 20
0.0
 30
0.0
  9
$PUCSXDIR
 10
1.0
 20
0.0
 30
0.0
  9
$PUCSYDIR
 10
0.0
 20
1.0
 30
0.0
  9
$PUCSORTHOREF
  2

  9
$PUCSORTHOVIEW
 70
     0
  9
$PUCSORGTOP
 10
0.0
 20
0.0
 30
0.0
  9
$PUCSORGBOTTOM
 10
0.0
 20
0.0
 30
0.0
  9
$PUCSORGLEFT
 10
0.0
 20
0.0
 30
0.0
  9
$PUCSORGRIGHT
 10
0.0
 20
0.0
 30
0.0
  9
$PUCSORGFRONT
 10
0.0
 20
0.0
 30
0.0
  9
$PUCSORGBACK
 10
0.0
 20
0.0
 30
0.0
  9
$USERI1
 70
     0
  9
$USERI2
 70
     0
  9
$USERI3
 70
     0
  9
$USERI4
 70
     0
  9
$USERI5
 70
     0
  9
$USERR1
 40
0.0
  9
$USERR2
 40
0.0
  9
$USERR3
 40
0.0
  9
$USERR4
 40
0.0
  9
$USERR5
 40
0.0
  9
$WORLDVIEW
 70
     1
  9
$SHADEDGE
 70
     3
  9
$SHADEDIF
 70
    70
  9
$TILEMODE
 70
     1
  9
$MAXACTVP
 70
    64
  9
$PINSBASE
 10
0.0
 20
0.0
 30
0.0
  9
$PLIMCHECK
 70
     0
  9
$PEXTMIN
 10
1.000000000000000E+20
 20
1.000000000000000E+20
 30
1.000000000000000E+20
  9
$PEXTMAX
 10
-1.000000000000000E+20
 20
-1.000000000000000E+20
 30
-1.000000000000000E+20
  9
$PLIMMIN
 10
0.0
 20
0.0
  9
$PLIMMAX
 10
420.0
 20
297.0
  9
$UNITMODE
 70
     0
  9
$VISRETAIN
 70
     1
  9
$PLINEGEN
 70
     0
  9
$PSLTSCALE
 70
     1
  9
$TREEDEPTH
 70
  3020
  9
$CMLSTYLE
  2
Standard
  9
$CMLJUST
 70
     0
  9
$CMLSCALE
 40
20.0
  9
$PROXYGRAPHICS
 70
     1
  9
$MEASUREMENT
 70
     1
  9
$CELWEIGHT
370
    -1
  9
$ENDCAPS
280
     0
  9
$JOINSTYLE
280
     0
  9
$LWDISPLAY
290
     0
  9
$INSUNITS
 70
     4
  9
$HYPERLINKBASE
  1

  9
$STYLESHEET
  1

  9
$XEDIT
290
     1
  9
$CEPSNTYPE
380
     0
  9
$PSTYLEMODE
290
     1
  9
$FINGERPRINTGUID
  2
{37DD9CAD-3479-470F-BE9F-0AD31D682652}
  9
$VERSIONGUID
  2
{FAEB1C32-E019-11D5-929B-00C0DF256EC4}
  9
$EXTNAMES
290
     1
  9
$PSVPSCALE
 40
0.0
  9
$OLESTARTUP
290
     0
  0
ENDSEC
  0
SECTION
  2
CLASSES
  0
CLASS
  1
ACDBDICTIONARYWDFLT
  2
AcDbDictionaryWithDefault
  3
ObjectDBX Classes
 90
        0
280
     0
281
     0
  0
CLASS
  1
VISUALSTYLE
  2
AcDbVisualStyle
  3
ObjectDBX Classes
 90
     4095
280
     0
281
     0
  0
CLASS
  1
DICTIONARYVAR
  2
AcDbDictionaryVar
  3
ObjectDBX Classes
 90
        0
280
     0
281
     0
  0
CLASS
  1
ACDBPLACEHOLDER
  2
AcDbPlaceHolder
  3
ObjectDBX Classes
 90
        0
280
     0
281
     0
  0
CLASS
  1
LAYOUT
  2
AcDbLayout
  3
ObjectDBX Classes
 90
        0
280
     0
281
     0
  0
ENDSEC
  0
SECTION
  2
TABLES
  0
TABLE
  2
VPORT
  5
8
330
0
100
AcDbSymbolTable
 70
     1
  0
VPORT
  5
29
330
8
100
AcDbSymbolTableRecord
100
AcDbViewportTableRecord
  2
*Active
 70
     0
 10
0.0
 20
0.0
 11
1.0
 21
1.0
 12
0.0
 22
0.0
 13
0.0
 23
0.0
 14
10.0
 24
10.0
 15
10.0
 25
10.0
 16
0.0
 26
0.0
 36
1.0
 17
0.0
 27
0.0
 37
0.0
 40
3267.0
 41
1.414141414141414
 42
50.0
 43
0.0
 44
0.0
 50
0.0
 51
0.0
 71
     0
 72
 10000
 73
     1
 74
     3
 75
     0
 76
     0
 77
     0
 78
     0
281
     0
 65
     1
110
0.0
120
0.0
130
0.0
111
1.0
121
0.0
131
0.0
112
0.0
122
1.0
132
0.0
 79
     0
146
0.0
  0
ENDTAB
  0
TABLE
  2
LTYPE
  5
5
330
0
100
AcDbSymbolTable
 70
     3
  0
LTYPE
  5
14
330
5
100
AcDbSymbolTableRecord
100
AcDbLinetypeTableRecord
  2
ByBlock
 70
     0
  3

 72
    65
 73
     0
 40
0.0
  0
LTYPE
  5
15
330
5
100
AcDbSymbolTableRecord
100
AcDbLinetypeTableRecord
  2
ByLayer
 70
     0
  3

 72
    65
 73
     0
 40
0.0
  0
LTYPE
  5
16
330
5
100
AcDbSymbolTableRecord
100
AcDbLinetypeTableRecord
  2
Continuous
 70
     0
  3
Solid line
 72
    65
 73
     0
 40
0.0
  0
LTYPE
  5
3C
330
5
100
AcDbSymbolTableRecord
100
AcDbLinetypeTableRecord
  2
JWW_DASHED1
 70
     0
  3
-  --  --  --  --  --  --  --  -
 72
    65
 73
     2
 40
1.693333333333333
 49
0.8466666666666667
 74
     0
 49
-0.8466666666666667
 74
     0
  0
LTYPE
  5
3D
330
5
100
AcDbSymbolTableRecord
100
AcDbLinetypeTableRecord
  2
JWW_CENTER1
 70
     0
  3
-----  --  ----------  --  -----
 72
    65
 73
     4
 40
6.773333333333333
 49
4.233333333333333
 74
     0
 49
-0.8466666666666667
 74
     0
 49
0.8466666666666667
 74
     0
 49
-0.8466666666666667
 74
     0
  0
ENDTAB
  0
TABLE
  2
LAYER
  5
2
330
0
100
AcDbSymbolTable
 70
    10
  0
LAYER
  5
10
330
2
100
AcDbSymbolTableRecord
100
AcDbLayerTableRecord
  2
0
 70
     0
 62
     7
  6
Continuous
370
    -3
390
F
  0
LAYER
  5
3E
330
2
100
AcDbSymbolTableRecord
100
AcDbLayerTableRecord
  2
F-5
 70
     0
 62
     7
  6
Continuous
370
    -3
390
F
  0
LAYER
  5
3F
330
2
100
AcDbSymbolTableRecord
100
AcDbLayerTableRecord
  2
F-1
 70
     0
 62
     7
  6
Continuous
370
    -3
390
F
  0
LAYER
  5
40
330
2
100
AcDbSymbolTableRecord
100
AcDbLayerTableRecord
  2
0-0
 70
     0
 62
     7
  6
Continuous
370
    -3
390
F
  0
LAYER
  5
41
330
2
100
AcDbSymbolTableRecord
100
AcDbLayerTableRecord
  2
0-1
 70
     0
 62
     7
  6
Continuous
370
    -3
390
F
  0
LAYER
  5
42
330
2
100
AcDbSymbolTableRecord
100
AcDbLayerTableRecord
  2
0-5
 70
     0
 62
     7
  6
Continuous
370
    -3
390
F
  0
LAYER
  5
43
330
2
100
AcDbSymbolTableRecord
100
AcDbLayerTableRecord
  2
0-4
 70
     0
 62
     7
  6
Continuous
370
    -3
390
F
  0
LAYER
  5
44
330
2
100
AcDbSymbolTableRecord
100
AcDbLayerTableRecord
  2
0-E
 70
     0
 62
     7
  6
Continuous
370
    -3
390
F
  0
LAYER
  5
45
330
2
100
AcDbSymbolTableRecord
100
AcDbLayerTableRecord
  2
0-2
 70
     0
 62
     7
  6
Continuous
370
    -3
390
F
  0
LAYER
  5
46
330
2
100
AcDbSymbolTableRecord
100
AcDbLayerTableRecord
  2
F-4
 70
     0
 62
     7
  6
Continuous
370
    -3
390
F
  0
ENDTAB
  0
TABLE
  2
STYLE
  5
3
330
0
100
AcDbSymbolTable
 70
     2
  0
STYLE
  5
11
330
3
100
AcDbSymbolTableRecord
100
AcDbTextStyleTableRecord
  2
Standard
 70
     0
 40
0.0
 41
1.0
 50
0.0
 71
     0
 42
2.5
  3
txt
  4

1001
ACAD
1000

1071
        0
  0
STYLE
  5
3B
330
3
100
AcDbSymbolTableRecord
100
AcDbTextStyleTableRecord
  2
ＭＳ ゴシック
 70
     0
 40
1.0
 41
1.0
 50
0.0
 71
     0
 42
10.0
  3

  4

1001
ACAD
1000
MS Gothic
1071
    32817
  0
ENDTAB
  0
TABLE
  2
VIEW
  5
6
330
0
100
AcDbSymbolTable
 70
     0
  0
ENDTAB
  0
TABLE
  2
UCS
  5
7
330
0
100
AcDbSymbolTable
 70
     0
  0
ENDTAB
  0
TABLE
  2
APPID
  5
9
330
0
100
AcDbSymbolTable
 70
     1
  0
APPID
  5
12
330
9
100
AcDbSymbolTableRecord
100
AcDbRegAppTableRecord
  2
ACAD
 70
     0
  0
ENDTAB
  0
TABLE
  2
DIMSTYLE
  5
A
330
0
100
AcDbSymbolTable
 70
     1
100
AcDbDimStyleTable
  0
DIMSTYLE
105
27
330
A
100
AcDbSymbolTableRecord
100
AcDbDimStyleTableRecord
  2
ISO-25
 70
     0
 41
2.5
 42
0.625
 43
3.75
 44
1.25
 73
     0
 74
     0
 77
     1
 78
     8
140
2.5
141
2.5
143
0.03937007874016
147
0.625
171
     3
172
     1
271
     2
272
     2
274
     3
278
    44
283
     0
284
     8
340
11
  0
ENDTAB
  0
TABLE
  2
BLOCK_RECORD
  5
1
330
0
100
AcDbSymbolTable
 70
     1
  0
BLOCK_RECORD
  5
1F
330
1
100
AcDbSymbolTableRecord
100
AcDbBlockTableRecord
  2
*Model_Space
340
22
  0
BLOCK_RECORD
  5
1B
330
1
100
AcDbSymbolTableRecord
100
AcDbBlockTableRecord
  2
*Paper_Space
340
1E
  0
BLOCK_RECORD
  5
23
330
1
100
AcDbSymbolTableRecord
100
AcDbBlockTableRecord
  2
*Paper_Space0
340
26
  0
ENDTAB
  0
ENDSEC
  0
SECTION
  2
BLOCKS
  0
BLOCK
  5
20
330
1F
100
AcDbEntity
  8
0
100
AcDbBlockBegin
  2
*Model_Space
 70
     0
 10
0.0
 20
0.0
 30
0.0
  3
*Model_Space
  1

  0
ENDBLK
  5
21
330
1F
100
AcDbEntity
  8
0
100
AcDbBlockEnd
  0
BLOCK
  5
1C
330
1B
100
AcDbEntity
 67
     1
  8
0
100
AcDbBlockBegin
  2
*Paper_Space
 70
     0
 10
0.0
 20
0.0
 30
0.0
  3
*Paper_Space
  1

  0
ENDBLK
  5
1D
330
1B
100
AcDbEntity
 67
     1
  8
0
100
AcDbBlockEnd
  0
BLOCK
  5
24
330
23
100
AcDbEntity
  8
0
100
AcDbBlockBegin
  2
*Paper_Space0
 70
     0
 10
0.0
 20
0.0
 30
0.0
  3
*Paper_Space0
  1

  0
ENDBLK
  5
25
330
23
100
AcDbEntity
  8
0
100
AcDbBlockEnd
  0
ENDSEC
  0
SECTION
  2
ENTITIES
  0
LWPOLYLINE
  5
47
330
1F
100
AcDbEntity
  8
F-5
  6
Continuous
 62
     7
370
     9
100
AcDbPolyline
 90
        4
 70
     1
 43
1.0
 10
-2099.5
 20
-1485.0
 42
0.4142135623731
 10
-2100.0
 20
-1484.5
 42
0.4142135623731
 10
-2100.5
 20
-1485.0
 42
0.4142135623731
 10
-2100.0
 20
-1485.5
 42
0.4142135623731
  0
LWPOLYLINE
  5
48
330
1F
100
AcDbEntity
  8
F-1
  6
Continuous
 62
     7
370
     9
100
AcDbPolyline
 90
        4
 70
     1
 43
1.0
 10
1860.499703072213
 20
-1504.999998324626
 42
0.4142135623731
 10
1859.999703072213
 20
-1504.499998324626
 42
0.4142135623731
 10
1859.499703072213
 20
-1504.999998324626
 42
0.4142135623731
 10
1859.999703072213
 20
-1505.499998324626
 42
0.4142135623731
  0
LINE
  5
49
330
1F
100
AcDbEntity
  8
0-0
  6
Continuous
 62
     3
370
     9
100
AcDbLine
 10
-478.33346805057
 20
27.77246403467359
 30
0.0
 11
-474.9999587600294
 21
54.43905372006213
 31
0.0
  0
LINE
  5
4A
330
1F
100
AcDbEntity
  8
0-0
  6
Continuous
 62
     3
370
     9
100
AcDbLine
 10
-478.33346805057
 20
27.77246403467359
 30
0.0
 11
-468.3334350585938
 21
27.77246403467359
 31
0.0
  0
LINE
  5
4B
330
1F
100
AcDbEntity
  8
0-0
  6
Continuous
 62
     3
370
     9
100
AcDbLine
 10
-471.6666969093114
 20
54.43905372006213
 30
0.0
 11
-432.1479591163427
 21
43.85011395021422
 31
0.0
  0
LINE
  5
4C
330
1F
100
AcDbEntity
  8
0-0
  6
Continuous
 62
     3
370
     9
100
AcDbLine
 10
-422.4886507601352
 20
41.26164596562802
 30
0.0
 11
-412.8292186840159
 21
38.67367286068713
 31
0.0
  0
LINE
  5
4D
330
1F
100
AcDbEntity
  8
0-0
  6
Continuous
 62
     3
370
     9
100
AcDbLine
 10
-395.5005130252323
 20
34.03046458893868
 30
0.0
 11
-403.1699103278081
 21
36.08545231592359
 31
0.0
  0
LINE
  5
4E
330
1F
100
AcDbEntity
  8
0-0
  6
Continuous
 62
     3
370
     9
100
AcDbLine
 10
-391.6822691221495
 20
24.56217977580536
 30
0.0
 11
-393.0976249076224
 21
31.47886513792542
 31
0.0
  0
LINE
  5
4F
330
1F
100
AcDbEntity
  8
0-0
  6
Continuous
 62
     3
370
     9
100
AcDbLine
 10
-370.7208994272591
 20
17.03778220929365
 30
0.0
 11
-389.2793810045396
 21
22.01058032479182
 31
0.0
  0
LINE
  5
50
330
1F
100
AcDbEntity
  8
0-0
  6
Continuous
 62
     3
370
     9
100
AcDbLine
 10
-362.6800949509078
 20
23.3284448201465
 30
0.0
 11
-367.3641307933909
 21
18.04609948653166
 31
0.0
  0
LINE
  5
51
330
1F
100
AcDbEntity
  8
0-0
  6
JWW_DASHED1
 62
     3
370
     9
100
AcDbLine
 10
-359.538104083087
 20
6.774968125678527
 30
0.0
 11
-362.172100995038
 21
3.804947934589222
 31
0.0
  0
LINE
  5
52
330
1F
100
AcDbEntity
  8
0-0
  6
Continuous
 62
     3
370
     9
100
AcDbLine
 10
-404.0950878246409
 20
18.7141870076465
 30
0.0
 11
-403.2993213550463
 21
14.82517531529027
 31
0.0
  0
LINE
  5
53
330
1F
100
AcDbEntity
  8
0-0
  6
Continuous
 62
     3
370
     9
100
AcDbLine
 10
-408.9011114996831
 20
23.81713846985093
 30
0.0
 11
-439.5269857870565
 21
32.0234801875452
 31
0.0
  0
LINE
  5
54
330
1F
100
AcDbEntity
  8
0-0
  6
Continuous
 62
     3
370
     9
100
AcDbLine
 10
-359.323450036951
 20
24.33676209738479
 30
0.0
 11
-351.654052734375
 21
22.28152693057723
 31
0.0
  0
LINE
  5
55
330
1F
100
AcDbEntity
  8
0-0
  6
Continuous
 62
     3
370
     9
100
AcDbLine
 10
-387.5093202333193
 20
7.732560239276722
 30
0.0
 11
-399.6947417388091
 21
10.99777613876995
 31
0.0
  0
LINE
  5
56
330
1F
100
AcDbEntity
  8
0-0
  6
JWW_DASHED1
 62
     3
370
     9
100
AcDbLine
 10
-367.2071302259289
 20
2.292843178465773
 30
0.0
 11
-387.5091965134078
 21
7.732560239276722
 31
0.0
  0
LINE
  5
57
330
1F
100
AcDbEntity
  8
0-0
  6
JWW_DASHED1
 62
     3
370
     9
100
AcDbLine
 10
-335.3534595386401
 20
4.110536115543653
 30
0.0
 11
-352.8245668153505
 21
8.791602680155108
 31
0.0
  0
LINE
  5
58
330
1F
100
AcDbEntity
  8
0-0
  6
JWW_DASHED1
 62
     3
370
     9
100
AcDbLine
 10
-328.0162501979518
 20
-4.330131114186315
 30
0.0
 11
-325.7188951646958
 21
-23.04029330274204
 31
0.0
  0
LINE
  5
59
330
1F
100
AcDbEntity
  8
0-0
  6
Continuous
 62
     3
370
     9
100
AcDbLine
 10
-323.2156701990075
 20
14.66161759252827
 30
0.0
 11
-341.9946206582557
 21
19.69330638581368
 31
0.0
  0
LINE
  5
5A
330
1F
100
AcDbEntity
  8
0-0
  6
Continuous
 62
     3
370
     9
100
AcDbLine
 10
-327.5295360668284
 20
-41.54161628099359
 30
0.0
 11
-325.5360371357685
 21
-31.57375046595973
 31
0.0
  0
LINE
  5
5B
330
1F
100
AcDbEntity
  8
0-0
  6
JWW_DASHED1
 62
     3
370
     9
100
AcDbLine
 10
-314.805438067462
 20
-2.515654894802708
 30
0.0
 11
-315.8783371384078
 21
6.221197802621248
 31
0.0
  0
LINE
  5
5C
330
1F
100
AcDbEntity
  8
0-0
  6
JWW_DASHED1
 62
     3
370
     9
100
AcDbLine
 10
-264.4552694784628
 20
-14.14829583652562
 30
0.0
 11
-305.5776647619297
 21
-11.27279765768293
 31
0.0
  0
LINE
  5
5D
330
1F
100
AcDbEntity
  8
0-0
  6
Continuous
 62
     3
370
     9
100
AcDbLine
 10
-242.8087389146958
 20
-35.7621643437048
 30
0.0
 11
-233.2995028109164
 21
-168.8944390744902
 31
0.0
  0
LINE
  5
5E
330
1F
100
AcDbEntity
  8
0-0
  6
Continuous
 62
     3
370
     9
100
AcDbLine
 10
-256.0032200168919
 20
-38.18187836925375
 30
0.0
 11
-246.6668206292229
 21
-168.8944390744902
 31
0.0
  0
LINE
  5
5F
330
1F
100
AcDbEntity
  8
0-0
  6
Continuous
 62
     3
370
     9
100
AcDbLine
 10
-267.3102301520268
 20
5.788672992655108
 30
0.0
 11
-261.6165161132812
 21
-14.52267228817277
 31
0.0
  0
LINE
  5
60
330
1F
100
AcDbEntity
  8
0-0
  6
Continuous
 62
     3
370
     9
100
AcDbLine
 10
188.3333773226352
 20
27.77246403467359
 30
0.0
 11
178.3333443306589
 21
27.77246403467359
 31
0.0
  0
LINE
  5
61
330
1F
100
AcDbEntity
  8
0-0
  6
Continuous
 62
     3
370
     9
100
AcDbLine
 10
181.6663587415542
 20
54.43905372006213
 30
0.0
 11
142.1477446684966
 21
43.85011395021422
 31
0.0
  0
LINE
  5
62
330
1F
100
AcDbEntity
  8
0-0
  6
Continuous
 62
     3
370
     9
100
AcDbLine
 10
132.4886837521117
 20
41.26164596562802
 30
0.0
 11
122.8291279560813
 21
38.67367286068713
 31
0.0
  0
LINE
  5
63
330
1F
100
AcDbEntity
  8
0-0
  6
Continuous
 62
     3
370
     9
100
AcDbLine
 10
69.53801335515209
 20
6.774968125678527
 30
0.0
 11
72.17225770692579
 21
3.804947934589222
 31
0.0
  0
LINE
  5
64
330
1F
100
AcDbEntity
  8
0-0
  6
Continuous
 62
     3
370
     9
100
AcDbLine
 10
114.0949970967063
 20
18.7141870076465
 30
0.0
 11
113.2992306271117
 21
14.82517531529027
 31
0.0
  0
LINE
  5
65
330
1F
100
AcDbEntity
  8
0-0
  6
Continuous
 62
     3
370
     9
100
AcDbLine
 10
118.9007733319258
 20
23.81713846985093
 30
0.0
 11
149.5268950591216
 21
32.0234801875452
 31
0.0
  0
LINE
  5
66
330
1F
100
AcDbEntity
  8
0-0
  6
Continuous
 62
     3
370
     9
100
AcDbLine
 10
97.50960066511823
 20
7.732560239276722
 30
0.0
 11
109.6950221706084
 21
10.99777613876995
 31
0.0
  0
LINE
  5
67
330
1F
100
AcDbEntity
  8
0-0
  6
Continuous
 62
     3
370
     9
100
AcDbLine
 10
77.20666833826016
 20
2.292843178465773
 30
0.0
 11
97.5091057854732
 21
7.732560239276722
 31
0.0
  0
LINE
  5
68
330
1F
100
AcDbEntity
  8
0-0
  6
Continuous
 62
     3
370
     9
100
AcDbLine
 10
45.35324509079402
 20
4.110536115543653
 30
0.0
 11
62.82447608741563
 21
8.791602680155108
 31
0.0
  0
LINE
  5
69
330
1F
100
AcDbEntity
  8
0-0
  6
Continuous
 62
     3
370
     9
100
AcDbLine
 10
38.01615947001693
 20
-4.330131114186315
 30
0.0
 11
35.71843327702709
 21
-23.04029330274204
 31
0.0
  0
LINE
  5
6A
330
1F
100
AcDbEntity
  8
0-0
  6
Continuous
 62
     3
370
     9
100
AcDbLine
 10
188.3333773226352
 20
27.77246403467359
 30
0.0
 11
184.9998680320948
 21
54.43905372006213
 31
0.0
  0
LINE
  5
6B
330
1F
100
AcDbEntity
  8
0-0
  6
Continuous
 62
     3
370
     9
100
AcDbLine
 10
-43.33327009871198
 20
-168.8944390744902
 30
0.0
 11
-246.6668206292229
 21
-168.8944390744902
 31
0.0
  0
LINE
  5
6C
330
1F
100
AcDbEntity
  8
0-0
  6
Continuous
 62
     3
370
     9
100
AcDbLine
 10
-33.99687071104296
 20
-38.18187836925375
 30
0.0
 11
-43.33327009871198
 21
-168.8944390744902
 31
0.0
  0
LINE
  5
6D
330
1F
100
AcDbEntity
  8
0-0
  6
Continuous
 62
     3
370
     9
100
AcDbLine
 10
-24.02195286106405
 20
-28.89422462664385
 30
0.0
 11
29.10139754011823
 21
-28.89422462664385
 31
0.0
  0
LINE
  5
6E
330
1F
100
AcDbEntity
  8
0-0
  6
Continuous
 62
     3
370
     9
100
AcDbLine
 10
-47.19135181323878
 20
-35.7621643437048
 30
0.0
 11
-56.70046419710701
 21
-168.8944390744902
 31
0.0
  0
LINE
  5
6F
330
1F
100
AcDbEntity
  8
0-0
  6
Continuous
 62
     3
370
     9
100
AcDbLine
 10
-25.54506868929451
 20
-14.14829583652562
 30
0.0
 11
15.5773265941724
 21
-11.27279765768293
 31
0.0
  0
LINE
  5
70
330
1F
100
AcDbEntity
  8
0-0
  6
Continuous
 62
     3
370
     9
100
AcDbLine
 10
24.80534733952709
 20
-2.515654894802708
 30
0.0
 11
25.8782464104732
 21
6.221197802621248
 31
0.0
  0
LINE
  5
71
330
1F
100
AcDbEntity
  8
0-0
  6
Continuous
 62
     3
370
     9
100
AcDbLine
 10
33.21533203125
 20
14.66161759252827
 30
0.0
 11
51.99403505067579
 21
19.69330638581368
 31
0.0
  0
LINE
  5
72
330
1F
100
AcDbEntity
  8
0-0
  6
Continuous
 62
     3
370
     9
100
AcDbLine
 10
69.32323558910497
 20
24.33676209738479
 30
0.0
 11
61.65359084670627
 21
22.28152693057723
 31
0.0
  0
LINE
  5
73
330
1F
100
AcDbEntity
  8
0-0
  6
Continuous
 62
     3
370
     9
100
AcDbLine
 10
72.6800042229732
 20
23.3284448201465
 30
0.0
 11
77.36404006545627
 21
18.04609948653166
 31
0.0
  0
LINE
  5
74
330
1F
100
AcDbEntity
  8
0-0
  6
Continuous
 62
     3
370
     9
100
AcDbLine
 10
80.7208086993245
 20
17.03778220929365
 30
0.0
 11
99.27929027660497
 21
22.01058032479182
 31
0.0
  0
LINE
  5
75
330
1F
100
AcDbEntity
  8
0-0
  6
Continuous
 62
     3
370
     9
100
AcDbLine
 10
101.6824258340372
 20
24.56217977580536
 30
0.0
 11
103.0977816195102
 21
31.47886513792542
 31
0.0
  0
LINE
  5
76
330
1F
100
AcDbEntity
  8
0-0
  6
Continuous
 62
     3
370
     9
100
AcDbLine
 10
105.5004222972974
 20
34.03021714911603
 30
0.0
 11
113.1700670396961
 21
36.08545231592359
 31
0.0
  0
LINE
  5
77
330
1F
100
AcDbEntity
  8
0-1
  6
Continuous
 62
     2
370
     9
100
AcDbLine
 10
-445.0001072239232
 20
47.29373396182723
 30
0.0
 11
-443.3334762985641
 21
53.96025766326318
 31
0.0
  0
LINE
  5
78
330
1F
100
AcDbEntity
  8
0-1
  6
Continuous
 62
     2
370
     9
100
AcDbLine
 10
-424.8035740207982
 20
53.96025766326318
 30
0.0
 11
-443.3334762985641
 21
53.96025766326318
 31
0.0
  0
LINE
  5
79
330
1F
100
AcDbEntity
  8
0-1
  6
Continuous
 62
     2
370
     9
100
AcDbLine
 10
-380.000016495988
 20
67.29355250595745
 30
0.0
 11
-390.0000494879643
 21
67.29355250595745
 31
0.0
  0
LINE
  5
7A
330
1F
100
AcDbEntity
  8
0-1
  6
Continuous
 62
     2
370
     9
100
AcDbLine
 10
-391.6434210699956
 20
56.56258227791682
 30
0.0
 11
-390.0000494879643
 21
67.29355250595745
 31
0.0
  0
LINE
  5
7B
330
1F
100
AcDbEntity
  8
0-1
  6
Continuous
 62
     2
370
     9
100
AcDbLine
 10
-380.000016495988
 20
67.29355250595745
 30
0.0
 11
-375.7731257258234
 21
44.74040243205536
 31
0.0
  0
LINE
  5
7C
330
1F
100
AcDbEntity
  8
0-1
  6
Continuous
 62
     2
370
     9
100
AcDbLine
 10
154.9997690561656
 20
47.29373396182723
 30
0.0
 11
153.3335092905406
 21
53.96025766326318
 31
0.0
  0
LINE
  5
7D
330
1F
100
AcDbEntity
  8
0-1
  6
Continuous
 62
     2
370
     9
100
AcDbLine
 10
134.8032358530406
 20
53.96025766326318
 30
0.0
 11
153.3335092905406
 21
53.96025766326318
 31
0.0
  0
LINE
  5
7E
330
1F
100
AcDbEntity
  8
0-1
  6
Continuous
 62
     2
370
     9
100
AcDbLine
 10
101.6433303420609
 20
56.56258227791682
 30
0.0
 11
99.99983504011823
 21
67.29355250595745
 31
0.0
  0
LINE
  5
7F
330
1F
100
AcDbEntity
  8
0-1
  6
Continuous
 62
     2
370
     9
100
AcDbLine
 10
-308.3335257865286
 20
28.96017518332229
 30
0.0
 11
-305.0001402158995
 21
12.29361848991005
 31
0.0
  0
LINE
  5
80
330
1F
100
AcDbEntity
  8
0-1
  6
Continuous
 62
     2
370
     9
100
AcDbLine
 10
-268.3333938186232
 20
28.96017518332229
 30
0.0
 11
-271.6667793892523
 21
12.29361848991005
 31
0.0
  0
LINE
  5
81
330
1F
100
AcDbEntity
  8
0-1
  6
Continuous
 62
     2
370
     9
100
AcDbLine
 10
-247.5293958509289
 20
24.94076270443713
 30
0.0
 11
-244.9999422640414
 21
12.29361848991005
 31
0.0
  0
LINE
  5
82
330
1F
100
AcDbEntity
  8
0-1
  6
Continuous
 62
     2
370
     9
100
AcDbLine
 10
-252.4324159364443
 20
28.96017518332229
 30
0.0
 11
-331.5016875395904
 21
28.96017518332229
 31
0.0
  0
LINE
  5
83
330
1F
100
AcDbEntity
  8
0-1
  6
Continuous
 62
     2
370
     9
100
AcDbLine
 10
-331.5016875395904
 20
28.96017518332229
 30
0.0
 11
-370.9459459459458
 21
39.52931976735954
 31
0.0
  0
LINE
  5
84
330
1F
100
AcDbEntity
  8
0-1
  6
Continuous
 62
     2
370
     9
100
AcDbLine
 10
-404.1163676493875
 20
48.41711075659077
 30
0.0
 11
-424.8035740207982
 21
53.96025766326318
 31
0.0
  0
LINE
  5
85
330
1F
100
AcDbEntity
  8
0-1
  6
JWW_DASHED1
 62
     2
370
     9
100
AcDbLine
 10
-370.9459459459458
 20
39.52931976735954
 30
0.0
 11
-404.1163676493875
 21
48.41711075659077
 31
0.0
  0
LINE
  5
86
330
1F
100
AcDbEntity
  8
0-1
  6
Continuous
 62
     2
370
     9
100
AcDbLine
 10
42.59973474451016
 20
43.16940699814495
 30
0.0
 11
40.74245143581095
 21
32.73239527939495
 31
0.0
  0
LINE
  5
87
330
1F
100
AcDbEntity
  8
0-1
  6
JWW_DASHED1
 62
     2
370
     9
100
AcDbLine
 10
87.01617266680756
 20
51.37253199814495
 30
0.0
 11
85.77303499788854
 21
44.74040243205536
 31
0.0
  0
LINE
  5
88
330
1F
100
AcDbEntity
  8
0-1
  6
Continuous
 62
     2
370
     9
100
AcDbLine
 10
22.84117002744949
 20
23.960158687334
 30
0.0
 11
35.9045080236487
 21
27.46044241833062
 31
0.0
  0
LINE
  5
89
330
1F
100
AcDbEntity
  8
0-1
  6
JWW_DASHED1
 62
     2
370
     9
100
AcDbLine
 10
35.9045080236487
 20
27.46044241833062
 30
0.0
 11
114.1162769214529
 21
48.41735819641343
 31
0.0
  0
LINE
  5
8A
330
1F
100
AcDbEntity
  8
0-1
  6
Continuous
 62
     2
370
     9
100
AcDbLine
 10
114.1162769214529
 20
48.41735819641343
 30
0.0
 11
134.8032358530406
 21
53.96025766326318
 31
0.0
  0
LINE
  5
8B
330
1F
100
AcDbEntity
  8
0-1
  6
Continuous
 62
     2
370
     9
100
AcDbLine
 10
89.99980204814193
 20
67.29355250595745
 30
0.0
 11
87.01617266680756
 21
51.37253199814495
 31
0.0
  0
LINE
  5
8C
330
1F
100
AcDbEntity
  8
0-1
  6
Continuous
 62
     2
370
     9
100
AcDbLine
 10
89.99980204814193
 20
67.29355250595745
 30
0.0
 11
99.99983504011823
 21
67.29355250595745
 31
0.0
  0
LINE
  5
8D
330
1F
100
AcDbEntity
  8
0-1
  6
Continuous
 62
     2
370
     9
100
AcDbLine
 10
-275.0001649598818
 20
-8.3061179041988
 30
0.0
 11
-301.66675464527
 21
-8.3061179041988
 31
0.0
  0
LINE
  5
8E
330
1F
100
AcDbEntity
  8
0-1
  6
Continuous
 62
     2
370
     9
100
AcDbLine
 10
-301.66675464527
 20
-8.3061179041988
 30
0.0
 11
-299.4118355415961
 21
-10.5607895680501
 31
0.0
  0
LINE
  5
8F
330
1F
100
AcDbEntity
  8
0-1
  6
Continuous
 62
     2
370
     9
100
AcDbLine
 10
-299.4118355415961
 20
-10.5607895680501
 30
0.0
 11
-277.2550840635557
 21
-10.5607895680501
 31
0.0
  0
LINE
  5
90
330
1F
100
AcDbEntity
  8
0-1
  6
Continuous
 62
     2
370
     9
100
AcDbLine
 10
-277.2550840635557
 20
-10.5607895680501
 30
0.0
 11
-275.0001649598818
 21
-8.3061179041988
 31
0.0
  0
LINE
  5
91
330
1F
100
AcDbEntity
  8
0-1
  6
Continuous
 62
     2
370
     9
100
AcDbLine
 10
-313.3336660024281
 20
48.22113841706368
 30
0.0
 11
-313.3336660024281
 21
28.96017518332229
 31
0.0
  0
LINE
  5
92
330
1F
100
AcDbEntity
  8
0-1
  6
Continuous
 62
     2
370
     9
100
AcDbLine
 10
-263.3333773226352
 20
48.22113841706368
 30
0.0
 11
-263.3333773226352
 21
28.96017518332229
 31
0.0
  0
LINE
  5
93
330
1F
100
AcDbEntity
  8
0-1
  6
Continuous
 62
     2
370
     9
100
AcDbLine
 10
-313.3336660024281
 20
28.96017518332229
 30
0.0
 11
-263.3333773226352
 21
28.96017518332229
 31
0.0
  0
LINE
  5
94
330
1F
100
AcDbEntity
  8
0-1
  6
Continuous
 62
     2
370
     9
100
AcDbLine
 10
-300.8243457691088
 20
48.22113841706368
 30
0.0
 11
-300.8243457691088
 21
28.96017518332229
 31
0.0
  0
LINE
  5
95
330
1F
100
AcDbEntity
  8
0-1
  6
Continuous
 62
     2
370
     9
100
AcDbLine
 10
-275.842573836043
 20
48.22113841706368
 30
0.0
 11
-275.842573836043
 21
28.96017518332229
 31
0.0
  0
LINE
  5
96
330
1F
100
AcDbEntity
  8
0-1
  6
Continuous
 62
     2
370
     9
100
AcDbLine
 10
-307.0787584459458
 20
50.6269958125452
 30
0.0
 11
-269.588161159206
 21
50.6269958125452
 31
0.0
  0
LINE
  5
97
330
1F
100
AcDbEntity
  8
0-1
  6
Continuous
 62
     2
370
     9
100
AcDbLine
 10
-301.66675464527
 20
120.5172397552184
 30
0.0
 11
-299.4118355415961
 21
122.772406298715
 31
0.0
  0
LINE
  5
98
330
1F
100
AcDbEntity
  8
0-1
  6
Continuous
 62
     2
370
     9
100
AcDbLine
 10
-277.2550840635557
 20
122.772406298715
 30
0.0
 11
-275.0001649598818
 21
120.5172397552184
 31
0.0
  0
LINE
  5
99
330
1F
100
AcDbEntity
  8
0-1
  6
Continuous
 62
     2
370
     9
100
AcDbLine
 10
-301.66675464527
 20
12.29361848991005
 30
0.0
 11
-314.3771197344805
 21
12.29361848991005
 31
0.0
  0
LINE
  5
9A
330
1F
100
AcDbEntity
  8
0-1
  6
Continuous
 62
     2
370
     9
100
AcDbLine
 10
-323.6275337837836
 20
931.2960071089981
 30
0.0
 11
-330.7194065403294
 21
938.3878798655437
 31
0.0
  0
LINE
  5
9B
330
1F
100
AcDbEntity
  8
0-1
  6
Continuous
 62
     2
370
     9
100
AcDbLine
 10
-316.7891631255279
 20
931.5288479820975
 30
0.0
 11
-329.7731966585727
 21
944.5130052350538
 31
0.0
  0
LINE
  5
9C
330
1F
100
AcDbEntity
  8
0-1
  6
Continuous
 62
     2
370
     9
100
AcDbLine
 10
-366.5557448928419
 20
856.9420724858983
 30
0.0
 11
-376.2433851087414
 21
859.5377162253408
 31
0.0
  0
LINE
  5
9D
330
1F
100
AcDbEntity
  8
0-1
  6
Continuous
 62
     2
370
     9
100
AcDbLine
 10
-363.3385323189398
 20
850.9035510543106
 30
0.0
 11
-381.0747713656039
 21
855.6558802878408
 31
0.0
  0
LINE
  5
9E
330
1F
100
AcDbEntity
  8
0-1
  6
Continuous
 62
     2
370
     9
100
AcDbLine
 10
-381.0747713656039
 20
855.6558802878408
 30
0.0
 11
-376.2433851087414
 21
859.5377162253408
 31
0.0
  0
LINE
  5
9F
330
1F
100
AcDbEntity
  8
0-1
  6
Continuous
 62
     2
370
     9
100
AcDbLine
 10
-366.5557448928419
 20
856.9420724858983
 30
0.0
 11
-363.3385323189398
 21
850.9035510543106
 31
0.0
  0
LINE
  5
A0
330
1F
100
AcDbEntity
  8
0-1
  6
Continuous
 62
     2
370
     9
100
AcDbLine
 10
-323.6275337837836
 20
931.2960071089981
 30
0.0
 11
-316.7891631255279
 21
931.5288479820975
 31
0.0
  0
LINE
  5
A1
330
1F
100
AcDbEntity
  8
0-1
  6
Continuous
 62
     2
370
     9
100
AcDbLine
 10
-329.7731966585727
 20
944.5130052350538
 30
0.0
 11
-330.7194065403294
 21
938.3878798655437
 31
0.0
  0
LINE
  5
A2
330
1F
100
AcDbEntity
  8
0-1
  6
Continuous
 62
     2
370
     9
100
AcDbLine
 10
-223.3461122255068
 20
1000.151828873145
 30
0.0
 11
-225.941632245038
 21
1009.839097929311
 31
0.0
  0
LINE
  5
A3
330
1F
100
AcDbEntity
  8
0-1
  6
Continuous
 62
     2
370
     9
100
AcDbLine
 10
-217.3074670740075
 20
996.9346162992429
 30
0.0
 11
-222.059796307538
 21
1014.670855345907
 31
0.0
  0
LINE
  5
A4
330
1F
100
AcDbEntity
  8
0-1
  6
Continuous
 62
     2
370
     9
100
AcDbLine
 10
-297.7000468486062
 20
957.2232466043528
 30
0.0
 11
-304.7917958852406
 21
964.3151193608983
 31
0.0
  0
LINE
  5
A5
330
1F
100
AcDbEntity
  8
0-1
  6
Continuous
 62
     2
370
     9
100
AcDbLine
 10
-297.9331351615286
 20
950.3852471058306
 30
0.0
 11
-310.9167975348393
 21
963.3691569189642
 31
0.0
  0
LINE
  5
A6
330
1F
100
AcDbEntity
  8
0-1
  6
Continuous
 62
     2
370
     9
100
AcDbLine
 10
-310.9167975348393
 20
963.3691569189642
 30
0.0
 11
-304.7917958852406
 21
964.3151193608983
 31
0.0
  0
LINE
  5
A7
330
1F
100
AcDbEntity
  8
0-1
  6
Continuous
 62
     2
370
     9
100
AcDbLine
 10
-297.7000468486062
 20
957.2232466043528
 30
0.0
 11
-297.9331351615286
 21
950.3852471058306
 31
0.0
  0
LINE
  5
A8
330
1F
100
AcDbEntity
  8
0-1
  6
Continuous
 62
     2
370
     9
100
AcDbLine
 10
-223.3461122255068
 20
1000.151828873145
 30
0.0
 11
-217.3074670740075
 21
996.9346162992429
 31
0.0
  0
LINE
  5
A9
330
1F
100
AcDbEntity
  8
0-1
  6
Continuous
 62
     2
370
     9
100
AcDbLine
 10
-222.059796307538
 20
1014.670855345907
 30
0.0
 11
-225.941632245038
 21
1009.839097929311
 31
0.0
  0
LINE
  5
AA
330
1F
100
AcDbEntity
  8
0-1
  6
Continuous
 62
     2
370
     9
100
AcDbLine
 10
-102.0717723949534
 20
1009.64188839067
 30
0.0
 11
-99.47612865551093
 21
1019.329652326481
 31
0.0
  0
LINE
  5
AB
330
1F
100
AcDbEntity
  8
0-1
  6
Continuous
 62
     2
370
     9
100
AcDbLine
 10
-98.45061431059946
 20
1003.836702711827
 30
0.0
 11
-93.69828507706927
 21
1021.572694318669
 31
0.0
  0
LINE
  5
AC
330
1F
100
AcDbEntity
  8
0-1
  6
Continuous
 62
     2
370
     9
100
AcDbLine
 10
-187.9286894927154
 20
1009.64188839067
 30
0.0
 11
-190.5244569520693
 21
1019.329404886658
 31
0.0
  0
LINE
  5
AD
330
1F
100
AcDbEntity
  8
0-1
  6
Continuous
 62
     2
370
     9
100
AcDbLine
 10
-191.549352697424
 20
1003.836702711827
 30
0.0
 11
-196.3018056508656
 21
1021.572694318669
 31
0.0
  0
LINE
  5
AE
330
1F
100
AcDbEntity
  8
0-1
  6
Continuous
 62
     2
370
     9
100
AcDbLine
 10
-196.3018056508656
 20
1021.572694318669
 30
0.0
 11
-190.5244569520693
 21
1019.329404886658
 31
0.0
  0
LINE
  5
AF
330
1F
100
AcDbEntity
  8
0-1
  6
Continuous
 62
     2
370
     9
100
AcDbLine
 10
-187.9286894927154
 20
1009.64188839067
 30
0.0
 11
-191.549352697424
 21
1003.836702711827
 31
0.0
  0
LINE
  5
B0
330
1F
100
AcDbEntity
  8
0-1
  6
Continuous
 62
     2
370
     9
100
AcDbLine
 10
-102.0717723949534
 20
1009.64188839067
 30
0.0
 11
-98.45061431059946
 21
1003.836702711827
 31
0.0
  0
LINE
  5
B1
330
1F
100
AcDbEntity
  8
0-1
  6
Continuous
 62
     2
370
     9
100
AcDbLine
 10
-93.69828507706927
 20
1021.572694318669
 30
0.0
 11
-99.47612865551093
 21
1019.329652326481
 31
0.0
  0
LINE
  5
B2
330
1F
100
AcDbEntity
  8
0-1
  6
Continuous
 62
     2
370
     9
100
AcDbLine
 10
7.699832400760158
 20
957.2232466043528
 30
0.0
 11
14.79145771748335
 21
964.3156142405437
 31
0.0
  0
LINE
  5
B3
330
1F
100
AcDbEntity
  8
0-1
  6
Continuous
 62
     2
370
     9
100
AcDbLine
 10
7.932920713682563
 20
950.3852471058306
 30
0.0
 11
20.91658308699323
 21
963.3694043587868
 31
0.0
  0
LINE
  5
B4
330
1F
100
AcDbEntity
  8
0-1
  6
Continuous
 62
     2
370
     9
100
AcDbLine
 10
-66.65397850242812
 20
1000.151828873145
 30
0.0
 11
-64.0583347629854
 21
1009.839592808956
 31
0.0
  0
LINE
  5
B5
330
1F
100
AcDbEntity
  8
0-1
  6
Continuous
 62
     2
370
     9
100
AcDbLine
 10
-72.69274737383853
 20
996.9346162992429
 30
0.0
 11
-67.9401707004854
 21
1014.670855345907
 31
0.0
  0
LINE
  5
B6
330
1F
100
AcDbEntity
  8
0-1
  6
Continuous
 62
     2
370
     9
100
AcDbLine
 10
-67.9401707004854
 20
1014.670855345907
 30
0.0
 11
-64.0583347629854
 21
1009.839592808956
 31
0.0
  0
LINE
  5
B7
330
1F
100
AcDbEntity
  8
0-1
  6
Continuous
 62
     2
370
     9
100
AcDbLine
 10
-66.65397850242812
 20
1000.151828873145
 30
0.0
 11
-72.69274737383853
 21
996.9346162992429
 31
0.0
  0
LINE
  5
B8
330
1F
100
AcDbEntity
  8
0-1
  6
Continuous
 62
     2
370
     9
100
AcDbLine
 10
7.699832400760158
 20
957.2232466043528
 30
0.0
 11
7.932920713682563
 21
950.3852471058306
 31
0.0
  0
LINE
  5
B9
330
1F
100
AcDbEntity
  8
0-1
  6
Continuous
 62
     2
370
     9
100
AcDbLine
 10
20.91658308699323
 20
963.3694043587868
 30
0.0
 11
14.79145771748335
 21
964.3156142405437
 31
0.0
  0
LINE
  5
BA
330
1F
100
AcDbEntity
  8
0-1
  6
Continuous
 62
     2
370
     9
100
AcDbLine
 10
76.55540672508465
 20
856.9420724858983
 30
0.0
 11
86.24317066089532
 21
859.5377162253408
 31
0.0
  0
LINE
  5
BB
330
1F
100
AcDbEntity
  8
0-1
  6
Continuous
 62
     2
370
     9
100
AcDbLine
 10
73.33819415118256
 20
850.9035510543106
 30
0.0
 11
91.07468063766902
 21
855.6558802878408
 31
0.0
  0
LINE
  5
BC
330
1F
100
AcDbEntity
  8
0-1
  6
Continuous
 62
     2
370
     9
100
AcDbLine
 10
33.62707189611484
 20
931.2962545488208
 30
0.0
 11
40.71869721283804
 21
938.3878798655437
 31
0.0
  0
LINE
  5
BD
330
1F
100
AcDbEntity
  8
0-1
  6
Continuous
 62
     2
370
     9
100
AcDbLine
 10
26.78882495777032
 20
931.5288479820975
 30
0.0
 11
39.77298221072658
 21
944.5130052350538
 31
0.0
  0
LINE
  5
BE
330
1F
100
AcDbEntity
  8
0-1
  6
Continuous
 62
     2
370
     9
100
AcDbLine
 10
39.77298221072658
 20
944.5130052350538
 30
0.0
 11
40.71869721283804
 21
938.3878798655437
 31
0.0
  0
LINE
  5
BF
330
1F
100
AcDbEntity
  8
0-1
  6
Continuous
 62
     2
370
     9
100
AcDbLine
 10
33.62707189611484
 20
931.2962545488208
 30
0.0
 11
26.78882495777032
 21
931.5288479820975
 31
0.0
  0
LINE
  5
C0
330
1F
100
AcDbEntity
  8
0-1
  6
Continuous
 62
     2
370
     9
100
AcDbLine
 10
76.55540672508465
 20
856.9420724858983
 30
0.0
 11
73.33819415118256
 21
850.9035510543106
 31
0.0
  0
LINE
  5
C1
330
1F
100
AcDbEntity
  8
0-1
  6
Continuous
 62
     2
370
     9
100
AcDbLine
 10
91.07468063766902
 20
855.6558802878408
 30
0.0
 11
86.24317066089532
 21
859.5377162253408
 31
0.0
  0
LINE
  5
C2
330
1F
100
AcDbEntity
  8
0-1
  6
Continuous
 62
     2
370
     9
100
AcDbLine
 10
86.04571368243256
 20
821.5245260331958
 30
0.0
 11
95.73347761824323
 21
824.1204172124608
 31
0.0
  0
LINE
  5
C3
330
1F
100
AcDbEntity
  8
0-1
  6
Continuous
 62
     2
370
     9
100
AcDbLine
 10
80.24028056376693
 20
825.1455603976382
 30
0.0
 11
97.97627217060835
 21
829.8978896311687
 31
0.0
  0
LINE
  5
C4
330
1F
100
AcDbEntity
  8
0-1
  6
Continuous
 62
     2
370
     9
100
AcDbLine
 10
97.97627217060835
 20
829.8978896311687
 30
0.0
 11
95.73347761824323
 21
824.1204172124608
 31
0.0
  0
LINE
  5
C5
330
1F
100
AcDbEntity
  8
0-1
  6
Continuous
 62
     2
370
     9
100
AcDbLine
 10
86.04571368243256
 20
821.5245260331958
 30
0.0
 11
80.24028056376693
 21
825.1455603976382
 31
0.0
  0
LINE
  5
C6
330
1F
100
AcDbEntity
  8
0-1
  6
Continuous
 62
     2
370
     9
100
AcDbLine
 10
86.66629275760158
 20
27.25828408323792
 30
0.0
 11
93.33331133868256
 21
29.04479960266343
 31
0.0
  0
LINE
  5
C7
330
1F
100
AcDbEntity
  8
0-1
  6
Continuous
 62
     2
370
     9
100
AcDbLine
 10
86.66629275760158
 20
27.25828408323792
 30
0.0
 11
83.33327834670627
 21
28.09067164658245
 31
0.0
  0
LINE
  5
C8
330
1F
100
AcDbEntity
  8
0-1
  6
Continuous
 62
     2
370
     9
100
AcDbLine
 10
24.3767815667232
 20
12.29361848991005
 30
0.0
 11
83.33327834670627
 21
28.09067164658245
 31
0.0
  0
LINE
  5
C9
330
1F
100
AcDbEntity
  8
0-1
  6
Continuous
 62
     2
370
     9
100
AcDbLine
 10
93.33331133868256
 20
29.04479960266343
 30
0.0
 11
96.6668206292232
 21
31.66345524561109
 31
0.0
  0
LINE
  5
CA
330
1F
100
AcDbEntity
  8
0-1
  6
Continuous
 62
     2
370
     9
100
AcDbLine
 10
96.6668206292232
 20
31.66345524561109
 30
0.0
 11
154.9997690561656
 21
47.29373396182723
 31
0.0
  0
LINE
  5
CB
330
1F
100
AcDbEntity
  8
0-1
  6
Continuous
 62
     2
370
     9
100
AcDbLine
 10
-376.6666309253588
 20
27.25828408323792
 30
0.0
 11
-383.3334020666172
 21
29.04479960266343
 31
0.0
  0
LINE
  5
CC
330
1F
100
AcDbEntity
  8
0-1
  6
Continuous
 62
     2
370
     9
100
AcDbLine
 10
-383.3334020666172
 20
29.04479960266343
 30
0.0
 11
-386.6667876372466
 21
31.66345524561109
 31
0.0
  0
LINE
  5
CD
330
1F
100
AcDbEntity
  8
0-1
  6
Continuous
 62
     2
370
     9
100
AcDbLine
 10
-386.6667876372466
 20
31.66345524561109
 30
0.0
 11
-445.0001072239232
 21
47.29373396182723
 31
0.0
  0
LINE
  5
CE
330
1F
100
AcDbEntity
  8
0-1
  6
Continuous
 62
     2
370
     9
100
AcDbLine
 10
-376.6666309253588
 20
27.25828408323792
 30
0.0
 11
-373.3333690746409
 21
28.09067164658245
 31
0.0
  0
LINE
  5
CF
330
1F
100
AcDbEntity
  8
0-1
  6
Continuous
 62
     2
370
     9
100
AcDbLine
 10
-376.0458044103672
 20
821.5245260331958
 30
0.0
 11
-385.7333209063555
 21
824.1204172124608
 31
0.0
  0
LINE
  5
D0
330
1F
100
AcDbEntity
  8
0-1
  6
Continuous
 62
     2
370
     9
100
AcDbLine
 10
-370.2402475717903
 20
825.1455603976382
 30
0.0
 11
-387.9766103383656
 21
829.8978896311687
 31
0.0
  0
LINE
  5
D1
330
1F
100
AcDbEntity
  8
0-1
  6
Continuous
 62
     2
370
     9
100
AcDbLine
 10
-387.9766103383656
 20
829.8978896311687
 30
0.0
 11
-385.7333209063555
 21
824.1204172124608
 31
0.0
  0
LINE
  5
D2
330
1F
100
AcDbEntity
  8
0-1
  6
Continuous
 62
     2
370
     9
100
AcDbLine
 10
-376.0458044103672
 20
821.5245260331958
 30
0.0
 11
-370.2402475717903
 21
825.1455603976382
 31
0.0
  0
LINE
  5
D3
330
1F
100
AcDbEntity
  8
0-1
  6
Continuous
 62
     2
370
     9
100
AcDbLine
 10
-275.0001649598818
 20
12.29361848991005
 30
0.0
 11
24.3767815667232
 21
12.29361848991005
 31
0.0
  0
LINE
  5
D4
330
1F
100
AcDbEntity
  8
0-1
  6
Continuous
 62
     2
370
     9
100
AcDbLine
 10
0.9763975401182279
 20
21.54267162018868
 30
0.0
 11
-1.666259765625
 21
12.29361848991005
 31
0.0
  0
LINE
  5
D5
330
1F
100
AcDbEntity
  8
0-1
  6
Continuous
 62
     2
370
     9
100
AcDbLine
 10
-247.3334235114018
 20
23.960158687334
 30
0.0
 11
22.84117002744949
 21
23.960158687334
 31
0.0
  0
LINE
  5
D6
330
1F
100
AcDbEntity
  8
0-0
  6
Continuous
 62
     3
370
     9
100
AcDbLine
 10
-375.6726651578336
 20
-41.34935553880609
 30
0.0
 11
-382.6515816353461
 21
2.344558101396501
 31
0.0
  0
LINE
  5
D7
330
1F
100
AcDbEntity
  8
0-5
  6
Continuous
 62
     2
370
     9
100
AcDbLine
 10
-475.9469109612542
 20
-221.7735663707319
 30
0.0
 11
-478.3332206107474
 21
-212.227585453291
 31
0.0
  0
LINE
  5
D8
330
1F
100
AcDbEntity
  8
0-5
  6
Continuous
 62
     2
370
     9
100
AcDbLine
 10
-425.9810164168073
 20
-225.5608802959853
 30
0.0
 11
-471.0961006783148
 21
-225.5608802959853
 31
0.0
  0
LINE
  5
D9
330
1F
100
AcDbEntity
  8
0-5
  6
Continuous
 62
     2
370
     9
100
AcDbLine
 10
-419.6904775258656
 20
-235.106861213426
 30
0.0
 11
-421.1302061338682
 21
-229.3481942212385
 31
0.0
  0
LINE
  5
DA
330
1F
100
AcDbEntity
  8
0-5
  6
Continuous
 62
     2
370
     9
100
AcDbLine
 10
-415.5706044789906
 20
-212.227585453291
 30
0.0
 11
-478.3332206107474
 21
-212.227585453291
 31
0.0
  0
LINE
  5
DB
330
1F
100
AcDbEntity
  8
0-5
  6
Continuous
 62
     2
370
     9
100
AcDbLine
 10
-409.2801893079601
 20
-221.7735663707319
 30
0.0
 11
-410.7197941960516
 21
-216.0148993785444
 31
0.0
  0
LINE
  5
DC
330
1F
100
AcDbEntity
  8
0-5
  6
Continuous
 62
     2
370
     9
100
AcDbLine
 10
5.719818940033861
 20
-235.106861213426
 30
0.0
 11
3.333509290540633
 21
-225.5608802959853
 31
0.0
  0
LINE
  5
DD
330
1F
100
AcDbEntity
  8
0-5
  6
Continuous
 62
     2
370
     9
100
AcDbLine
 10
185.9470676731419
 20
-221.7735663707319
 30
0.0
 11
188.3333773226352
 21
-212.227585453291
 31
0.0
  0
LINE
  5
DE
330
1F
100
AcDbEntity
  8
0-5
  6
Continuous
 62
     2
370
     9
100
AcDbLine
 10
135.9810494087839
 20
-225.5608802959853
 30
0.0
 11
181.0962573902029
 21
-225.5608802959853
 31
0.0
  0
LINE
  5
DF
330
1F
100
AcDbEntity
  8
0-5
  6
Continuous
 62
     2
370
     9
100
AcDbLine
 10
129.6906342377534
 20
-235.106861213426
 30
0.0
 11
131.1302391258448
 21
-229.3481942212385
 31
0.0
  0
LINE
  5
E0
330
1F
100
AcDbEntity
  8
0-5
  6
Continuous
 62
     2
370
     9
100
AcDbLine
 10
120.7199509079393
 20
-216.0148993785444
 30
0.0
 11
119.2803460198482
 21
-221.7735663707319
 31
0.0
  0
LINE
  5
E1
330
1F
100
AcDbEntity
  8
0-5
  6
Continuous
 62
     2
370
     9
100
AcDbLine
 10
125.5707611908784
 20
-212.227585453291
 30
0.0
 11
188.3333773226352
 21
-212.227585453291
 31
0.0
  0
LINE
  5
E2
330
1F
100
AcDbEntity
  8
0-0
  6
Continuous
 62
     3
370
     9
100
AcDbLine
 10
-265.9778904270482
 20
-28.89447206646651
 30
0.0
 11
-322.2673570787583
 21
-28.89447206646651
 31
0.0
  0
LINE
  5
E3
330
1F
100
AcDbEntity
  8
0-1
  6
Continuous
 62
     2
370
     9
100
AcDbLine
 10
-275.0001649598818
 20
28.96017518332229
 30
0.0
 11
-275.0001649598818
 21
-8.3061179041988
 31
0.0
  0
LINE
  5
E4
330
1F
100
AcDbEntity
  8
0-1
  6
Continuous
 62
     2
370
     9
100
AcDbLine
 10
-277.2550840635557
 20
28.96017518332229
 30
0.0
 11
-277.2550840635557
 21
-10.5607895680501
 31
0.0
  0
LINE
  5
E5
330
1F
100
AcDbEntity
  8
0-1
  6
Continuous
 62
     2
370
     9
100
AcDbLine
 10
-299.4118355415961
 20
28.96017518332229
 30
0.0
 11
-299.4118355415961
 21
-10.5607895680501
 31
0.0
  0
LINE
  5
E6
330
1F
100
AcDbEntity
  8
0-1
  6
Continuous
 62
     2
370
     9
100
AcDbLine
 10
-301.66675464527
 20
28.96017518332229
 30
0.0
 11
-301.66675464527
 21
-8.3061179041988
 31
0.0
  0
LINE
  5
E7
330
1F
100
AcDbEntity
  8
0-1
  6
Continuous
 62
     2
370
     9
100
AcDbLine
 10
-275.0001649598818
 20
50.6269958125452
 30
0.0
 11
-275.0001649598818
 21
120.5172397552184
 31
0.0
  0
LINE
  5
E8
330
1F
100
AcDbEntity
  8
0-1
  6
Continuous
 62
     2
370
     9
100
AcDbLine
 10
-277.2550840635557
 20
50.6269958125452
 30
0.0
 11
-277.2550840635557
 21
122.772406298715
 31
0.0
  0
LINE
  5
E9
330
1F
100
AcDbEntity
  8
0-1
  6
Continuous
 62
     2
370
     9
100
AcDbLine
 10
-299.4118355415961
 20
50.6269958125452
 30
0.0
 11
-299.4118355415961
 21
122.772406298715
 31
0.0
  0
LINE
  5
EA
330
1F
100
AcDbEntity
  8
0-1
  6
Continuous
 62
     2
370
     9
100
AcDbLine
 10
-301.66675464527
 20
50.6269958125452
 30
0.0
 11
-301.66675464527
 21
120.5172397552184
 31
0.0
  0
LINE
  5
EB
330
1F
100
AcDbEntity
  8
0-0
  6
Continuous
 62
     3
370
     9
100
AcDbLine
 10
181.6663587415542
 20
54.43905372006213
 30
0.0
 11
184.9998680320948
 21
54.43905372006213
 31
0.0
  0
LINE
  5
EC
330
1F
100
AcDbEntity
  8
0-0
  6
Continuous
 62
     3
370
     9
100
AcDbLine
 10
-474.9999587600294
 20
54.43905372006213
 30
0.0
 11
-471.6666969093114
 21
54.43905372006213
 31
0.0
  0
LINE
  5
ED
330
1F
100
AcDbEntity
  8
0-1
  6
Continuous
 62
     2
370
     9
100
AcDbLine
 10
-314.3771197344805
 20
12.29361848991005
 30
0.0
 11
-373.3333690746409
 21
28.09067164658245
 31
0.0
  0
LINE
  5
EE
330
1F
100
AcDbEntity
  8
0-0
  6
Continuous
 62
     4
370
     9
100
AcDbLine
 10
-333.3333608266469
 20
-258.1553858122436
 30
0.0
 11
-333.3333608266469
 21
-238.8941751386794
 31
0.0
  0
LINE
  5
EF
330
1F
100
AcDbEntity
  8
0-0
  6
Continuous
 62
     4
370
     9
100
AcDbLine
 10
-383.3334020666172
 20
-258.1553858122436
 30
0.0
 11
-383.3334020666172
 21
-238.8941751386794
 31
0.0
  0
LINE
  5
F0
330
1F
100
AcDbEntity
  8
0-5
  6
Continuous
 62
     4
370
     9
100
AcDbLine
 10
-333.3333608266469
 20
-238.8941751386794
 30
0.0
 11
-383.3334020666172
 21
-238.8941751386794
 31
0.0
  0
LINE
  5
F1
330
1F
100
AcDbEntity
  8
0-0
  6
Continuous
 62
     4
370
     9
100
AcDbLine
 10
-345.8425573400547
 20
-258.1553858122436
 30
0.0
 11
-345.8425573400547
 21
-238.8941751386794
 31
0.0
  0
LINE
  5
F2
330
1F
100
AcDbEntity
  8
0-0
  6
Continuous
 62
     4
370
     9
100
AcDbLine
 10
-370.8242055532094
 20
-258.1553858122436
 30
0.0
 11
-370.8242055532094
 21
-238.8941751386794
 31
0.0
  0
LINE
  5
F3
330
1F
100
AcDbEntity
  8
0-0
  6
Continuous
 62
     4
370
     9
100
AcDbLine
 10
-339.5880209433065
 20
-260.5609957679025
 30
0.0
 11
-377.078865669869
 21
-260.5609957679025
 31
0.0
  0
LINE
  5
F4
330
1F
100
AcDbEntity
  8
0-0
  6
Continuous
 62
     3
370
     9
100
AcDbLine
 10
-347.2549438476562
 20
-5.560896791973278
 30
0.0
 11
-369.4116953256966
 21
-5.560896791973278
 31
0.0
  0
LINE
  5
F5
330
1F
100
AcDbEntity
  8
0-0
  6
Continuous
 62
     3
370
     9
100
AcDbLine
 10
-347.2549438476562
 20
-5.560896791973278
 30
0.0
 11
-358.3333195866763
 21
0.835175183322292
 31
0.0
  0
LINE
  5
F6
330
1F
100
AcDbEntity
  8
0-0
  6
Continuous
 62
     3
370
     9
100
AcDbLine
 10
-369.4116953256966
 20
-5.560896791973278
 30
0.0
 11
-358.3333195866763
 21
0.835175183322292
 31
0.0
  0
LINE
  5
F7
330
1F
100
AcDbEntity
  8
0-0
  6
Continuous
 62
     4
370
     9
100
AcDbLine
 10
-345.0000247439823
 20
-273.972729034372
 30
0.0
 11
-347.2549438476562
 21
-276.2274006982234
 31
0.0
  0
LINE
  5
F8
330
1F
100
AcDbEntity
  8
0-0
  6
Continuous
 62
     4
370
     9
100
AcDbLine
 10
-369.4116953256966
 20
-276.2274006982234
 30
0.0
 11
-371.666738149282
 21
-273.972729034372
 31
0.0
  0
LINE
  5
F9
330
1F
100
AcDbEntity
  8
0-0
  6
JWW_CENTER1
 62
     4
370
     9
100
AcDbLine
 10
-358.3333195866763
 20
-286.9576286067961
 30
0.0
 11
-358.3333195866763
 21
1.804149528761343
 31
0.0
  0
LINE
  5
FA
330
1F
100
AcDbEntity
  8
0-0
  6
Continuous
 62
     4
370
     9
100
AcDbLine
 10
-345.0000247439823
 20
-273.972729034372
 30
0.0
 11
-345.0000247439823
 21
-260.5609957679025
 31
0.0
  0
LINE
  5
FB
330
1F
100
AcDbEntity
  8
0-0
  6
Continuous
 62
     4
370
     9
100
AcDbLine
 10
-347.2549438476562
 20
-276.2274006982234
 30
0.0
 11
-347.2549438476562
 21
-260.5609957679025
 31
0.0
  0
LINE
  5
FC
330
1F
100
AcDbEntity
  8
0-0
  6
Continuous
 62
     4
370
     9
100
AcDbLine
 10
-369.4116953256966
 20
-276.2274006982234
 30
0.0
 11
-369.4116953256966
 21
-260.5609957679025
 31
0.0
  0
LINE
  5
FD
330
1F
100
AcDbEntity
  8
0-0
  6
Continuous
 62
     4
370
     9
100
AcDbLine
 10
-371.666738149282
 20
-273.972729034372
 30
0.0
 11
-371.666738149282
 21
-260.5609957679025
 31
0.0
  0
LINE
  5
FE
330
1F
100
AcDbEntity
  8
0-5
  6
Continuous
 62
     2
370
     9
100
AcDbLine
 10
-378.7832311681797
 20
-228.8053112503771
 30
0.0
 11
-375.0001237199112
 21
-238.8941751386794
 31
0.0
  0
LINE
  5
FF
330
1F
100
AcDbEntity
  8
0-5
  6
Continuous
 62
     2
370
     9
100
AcDbLine
 10
-337.8834080051732
 20
-228.8053112503771
 30
0.0
 11
-341.6667628932643
 21
-238.8941751386794
 31
0.0
  0
LINE
  5
100
330
1F
100
AcDbEntity
  8
0-5
  6
Continuous
 62
     2
370
     9
100
AcDbLine
 10
-404.4293790250211
 20
-225.5608802959853
 30
0.0
 11
-371.666738149282
 21
-225.5608802959853
 31
0.0
  0
LINE
  5
101
330
1F
100
AcDbEntity
  8
0-5
  6
Continuous
 62
     2
370
     9
100
AcDbLine
 10
-383.4650400522591
 20
-225.5608802959853
 30
0.0
 11
-371.666738149282
 21
-225.5608802959853
 31
0.0
  0
LINE
  5
102
330
1F
100
AcDbEntity
  8
0-5
  6
Continuous
 62
     2
370
     9
100
AcDbLine
 10
-345.0000247439823
 20
-225.5608802959853
 30
0.0
 11
-333.2015991210938
 21
-225.5608802959853
 31
0.0
  0
LINE
  5
103
330
1F
100
AcDbEntity
  8
0-0
  6
Continuous
 62
     4
370
     9
100
AcDbLine
 10
-356.3332635003167
 20
-269.5608769967876
 30
0.0
 11
-356.3332635003167
 21
-276.2274006982234
 31
0.0
  0
LINE
  5
104
330
1F
100
AcDbEntity
  8
0-0
  6
Continuous
 62
     4
370
     9
100
AcDbLine
 10
-356.3332635003167
 20
-269.5608769967876
 30
0.0
 11
-360.333251953125
 21
-269.5608769967876
 31
0.0
  0
LINE
  5
105
330
1F
100
AcDbEntity
  8
0-0
  6
Continuous
 62
     4
370
     9
100
AcDbLine
 10
-360.333251953125
 20
-269.5608769967876
 30
0.0
 11
-360.333251953125
 21
-276.2274006982234
 31
0.0
  0
LINE
  5
106
330
1F
100
AcDbEntity
  8
0-0
  6
Continuous
 62
     4
370
     9
100
AcDbLine
 10
-371.666738149282
 20
-273.972729034372
 30
0.0
 11
-360.333251953125
 21
-273.972729034372
 31
0.0
  0
LINE
  5
107
330
1F
100
AcDbEntity
  8
0-0
  6
Continuous
 62
     4
370
     9
100
AcDbLine
 10
-356.3332635003167
 20
-273.972729034372
 30
0.0
 11
-345.0000247439823
 21
-273.972729034372
 31
0.0
  0
LINE
  5
108
330
1F
100
AcDbEntity
  8
0-0
  6
Continuous
 62
     4
370
     9
100
AcDbLine
 10
-347.2549438476562
 20
-276.2274006982234
 30
0.0
 11
-356.3332635003167
 21
-276.2274006982234
 31
0.0
  0
LINE
  5
109
330
1F
100
AcDbEntity
  8
0-0
  6
Continuous
 62
     4
370
     9
100
AcDbLine
 10
-360.333251953125
 20
-276.2274006982234
 30
0.0
 11
-369.4116953256966
 21
-276.2274006982234
 31
0.0
  0
LINE
  5
10A
330
1F
100
AcDbEntity
  8
0-1
  6
Continuous
 62
     2
370
     9
100
AcDbLine
 10
-286.3334037162161
 20
116.1056351574567
 30
0.0
 11
-286.3334037162161
 21
122.772406298715
 31
0.0
  0
LINE
  5
10B
330
1F
100
AcDbEntity
  8
0-1
  6
Continuous
 62
     2
370
     9
100
AcDbLine
 10
-286.3334037162161
 20
116.1056351574567
 30
0.0
 11
-290.3333921690245
 21
116.1056351574567
 31
0.0
  0
LINE
  5
10C
330
1F
100
AcDbEntity
  8
0-1
  6
Continuous
 62
     2
370
     9
100
AcDbLine
 10
-290.3333921690245
 20
116.1056351574567
 30
0.0
 11
-290.3333921690245
 21
122.772406298715
 31
0.0
  0
LINE
  5
10D
330
1F
100
AcDbEntity
  8
0-1
  6
Continuous
 62
     2
370
     9
100
AcDbLine
 10
-299.4118355415961
 20
122.772406298715
 30
0.0
 11
-290.3333921690245
 21
122.772406298715
 31
0.0
  0
LINE
  5
10E
330
1F
100
AcDbEntity
  8
0-1
  6
Continuous
 62
     2
370
     9
100
AcDbLine
 10
-286.3334037162161
 20
122.772406298715
 30
0.0
 11
-277.2550840635557
 21
122.772406298715
 31
0.0
  0
LINE
  5
10F
330
1F
100
AcDbEntity
  8
0-1
  6
Continuous
 62
     2
370
     9
100
AcDbLine
 10
-275.0001649598818
 20
120.5172397552184
 30
0.0
 11
-286.3334037162161
 21
120.5172397552184
 31
0.0
  0
LINE
  5
110
330
1F
100
AcDbEntity
  8
0-1
  6
Continuous
 62
     2
370
     9
100
AcDbLine
 10
-290.3333921690245
 20
120.5172397552184
 30
0.0
 11
-301.66675464527
 21
120.5172397552184
 31
0.0
  0
LINE
  5
111
330
1F
100
AcDbEntity
  8
0-5
  6
Continuous
 62
     2
370
     9
100
AcDbLine
 10
-295.7199096679688
 20
-235.106861213426
 30
0.0
 11
-293.3333525786529
 21
-225.5608802959853
 31
0.0
  0
LINE
  5
112
330
1F
100
AcDbEntity
  8
0-0
  6
JWW_CENTER1
 62
     3
370
     9
100
AcDbLine
 10
-288.3335835224872
 20
129.9054777857293
 30
0.0
 11
-288.3335835224872
 21
-16.65449008008579
 31
0.0
  0
LINE
  5
113
330
1F
100
AcDbEntity
  8
0-1
  6
Continuous
 62
     2
370
     9
100
AcDbLine
 10
76.66675464527032
 20
47.29373396182723
 30
0.0
 11
82.10152290962839
 21
47.29373396182723
 31
0.0
  0
LINE
  5
114
330
1F
100
AcDbEntity
  8
0-1
  6
Continuous
 62
     2
370
     9
100
AcDbLine
 10
47.52230257601354
 20
47.29373396182723
 30
0.0
 11
56.6661937816724
 21
47.29373396182723
 31
0.0
  0
LINE
  5
115
330
1F
100
AcDbEntity
  8
0-5
  6
Continuous
 62
     2
370
     9
100
AcDbLine
 10
-345.0000247439823
 20
-225.5608802959853
 30
0.0
 11
114.4295357369089
 21
-225.5608802959853
 31
0.0
  0
LINE
  5
116
330
1F
100
AcDbEntity
  8
0-5
  6
Continuous
 62
     2
370
     9
100
AcDbLine
 10
124.8398239548143
 20
-238.8941751386794
 30
0.0
 11
-414.8397909628378
 21
-238.8941751386794
 31
0.0
  0
LINE
  5
117
330
1F
100
AcDbEntity
  8
0-0
  6
Continuous
 62
     3
370
     9
100
AcDbLine
 10
-301.66675464527
 20
9.439152695991027
 30
0.0
 11
-316.8418678077489
 21
9.439152695991027
 31
0.0
  0
LINE
  5
118
330
1F
100
AcDbEntity
  8
0-0
  6
Continuous
 62
     3
370
     9
100
AcDbLine
 10
-272.1246667810388
 20
9.439152695991027
 30
0.0
 11
-275.0001649598818
 21
9.439152695991027
 31
0.0
  0
LINE
  5
119
330
1F
100
AcDbEntity
  8
0-0
  6
Continuous
 62
     3
370
     9
100
AcDbLine
 10
-345.0000247439823
 20
-45.56102875987875
 30
0.0
 11
-332.4323087125211
 21
-45.56102875987875
 31
0.0
  0
LINE
  5
11A
330
1F
100
AcDbEntity
  8
0-0
  6
JWW_CENTER1
 62
     3
370
     9
100
AcDbLine
 10
-495.8284532701646
 20
778.596191204226
 30
0.0
 11
215.9741375897383
 21
778.596191204226
 31
0.0
  0
LINE
  5
11B
330
1F
100
AcDbEntity
  8
0-0
  6
JWW_CENTER1
 62
     3
370
     9
100
AcDbLine
 10
-144.9999835040117
 20
1134.986242143837
 30
0.0
 11
-144.9999835040117
 21
767.108055118922
 31
0.0
  0
LINE
  5
11C
330
1F
100
AcDbEntity
  8
0-4
  6
Continuous
 62
     7
370
     9
100
AcDbLine
 10
-445.0001072239232
 20
461.0403357882632
 30
0.0
 11
154.9997690561656
 21
461.0403357882632
 31
0.0
  0
LINE
  5
11D
330
1F
100
AcDbEntity
  8
0-4
  6
Continuous
 62
     7
370
     9
100
AcDbLine
 10
-445.0001072239232
 20
72.29381644176812
 30
0.0
 11
-445.0001072239232
 21
464.0402961978916
 31
0.0
  0
LINE
  5
11E
330
1F
100
AcDbEntity
  8
0-4
  6
Continuous
 62
     7
370
     9
100
AcDbLine
 10
154.9997690561656
 20
72.29369272185693
 30
0.0
 11
154.9997690561656
 21
464.0402961978916
 31
0.0
  0
LINE
  5
11F
330
1F
100
AcDbEntity
  8
0-4
  6
Continuous
 62
     7
370
     9
100
AcDbLine
 10
-445.0001072239232
 20
461.0403357882632
 30
0.0
 11
-420.2139364706503
 21
464.303448449264
 31
0.0
  0
LINE
  5
120
330
1F
100
AcDbEntity
  8
0-4
  6
Continuous
 62
     7
370
     9
100
AcDbLine
 10
-445.0001072239232
 20
461.0403357882632
 30
0.0
 11
-420.2139364706503
 21
457.7772231272624
 31
0.0
  0
LINE
  5
121
330
1F
100
AcDbEntity
  8
0-4
  6
Continuous
 62
     7
370
     9
100
AcDbLine
 10
154.9997690561656
 20
461.0403357882632
 30
0.0
 11
130.2137220228042
 21
464.303448449264
 31
0.0
  0
LINE
  5
122
330
1F
100
AcDbEntity
  8
0-4
  6
Continuous
 62
     7
370
     9
100
AcDbLine
 10
154.9997690561656
 20
461.0403357882632
 30
0.0
 11
130.2137220228042
 21
457.7772231272624
 31
0.0
  0
LINE
  5
123
330
1F
100
AcDbEntity
  8
0-4
  6
Continuous
 62
     7
370
     9
100
AcDbLine
 10
-478.33346805057
 20
541.0403522842514
 30
0.0
 11
188.3333773226352
 21
541.0403522842514
 31
0.0
  0
LINE
  5
124
330
1F
100
AcDbEntity
  8
0-4
  6
Continuous
 62
     7
370
     9
100
AcDbLine
 10
-478.33346805057
 20
52.77242279470329
 30
0.0
 11
-478.33346805057
 21
544.0403126938795
 31
0.0
  0
LINE
  5
125
330
1F
100
AcDbEntity
  8
0-4
  6
Continuous
 62
     7
370
     9
100
AcDbLine
 10
188.3333773226352
 20
52.77242279470329
 30
0.0
 11
188.3333773226352
 21
544.0403126938795
 31
0.0
  0
LINE
  5
126
330
1F
100
AcDbEntity
  8
0-4
  6
Continuous
 62
     7
370
     9
100
AcDbLine
 10
-478.33346805057
 20
541.0403522842514
 30
0.0
 11
-453.5472972972971
 21
544.3034649452522
 31
0.0
  0
LINE
  5
127
330
1F
100
AcDbEntity
  8
0-4
  6
Continuous
 62
     7
370
     9
100
AcDbLine
 10
-478.33346805057
 20
541.0403522842514
 30
0.0
 11
-453.5472972972971
 21
537.7772396232504
 31
0.0
  0
LINE
  5
128
330
1F
100
AcDbEntity
  8
0-4
  6
Continuous
 62
     7
370
     9
100
AcDbLine
 10
188.3333773226352
 20
541.0403522842514
 30
0.0
 11
163.5473302892737
 21
544.3034649452522
 31
0.0
  0
LINE
  5
129
330
1F
100
AcDbEntity
  8
0-4
  6
Continuous
 62
     7
370
     9
100
AcDbLine
 10
188.3333773226352
 20
541.0403522842514
 30
0.0
 11
163.5473302892737
 21
537.7772396232504
 31
0.0
  0
LINE
  5
12A
330
1F
100
AcDbEntity
  8
0-4
  6
Continuous
 62
     7
370
     9
100
AcDbLine
 10
-246.6668206292229
 20
-338.8941957586647
 30
0.0
 11
-43.33327009871198
 21
-338.8941957586647
 31
0.0
  0
LINE
  5
12B
330
1F
100
AcDbEntity
  8
0-4
  6
Continuous
 62
     7
370
     9
100
AcDbLine
 10
-246.6668206292229
 20
-193.8943978345198
 30
0.0
 11
-246.6668206292229
 21
-341.8942180282487
 31
0.0
  0
LINE
  5
12C
330
1F
100
AcDbEntity
  8
0-4
  6
Continuous
 62
     7
370
     9
100
AcDbLine
 10
-43.33327009871198
 20
-193.8943978345198
 30
0.0
 11
-43.33327009871198
 21
-341.8942180282487
 31
0.0
  0
LINE
  5
12D
330
1F
100
AcDbEntity
  8
0-4
  6
Continuous
 62
     7
370
     9
100
AcDbLine
 10
-246.6668206292229
 20
-338.8941957586647
 30
0.0
 11
-221.88064987595
 21
-335.6310212377082
 31
0.0
  0
LINE
  5
12E
330
1F
100
AcDbEntity
  8
0-4
  6
Continuous
 62
     7
370
     9
100
AcDbLine
 10
-246.6668206292229
 20
-338.8941957586647
 30
0.0
 11
-221.88064987595
 21
-342.1573702796212
 31
0.0
  0
LINE
  5
12F
330
1F
100
AcDbEntity
  8
0-4
  6
Continuous
 62
     7
370
     9
100
AcDbLine
 10
-43.33327009871198
 20
-338.8941957586647
 30
0.0
 11
-68.11944085198462
 21
-335.6310212377082
 31
0.0
  0
LINE
  5
130
330
1F
100
AcDbEntity
  8
0-4
  6
Continuous
 62
     7
370
     9
100
AcDbLine
 10
-43.33327009871198
 20
-338.8941957586647
 30
0.0
 11
-68.11944085198462
 21
-342.1573702796212
 31
0.0
  0
LINE
  5
131
330
1F
100
AcDbEntity
  8
0-4
  6
Continuous
 62
     7
370
     9
100
AcDbLine
 10
-256.6666061813766
 20
-418.8942122546529
 30
0.0
 11
-33.33348454655805
 21
-418.8942122546529
 31
0.0
  0
LINE
  5
132
330
1F
100
AcDbEntity
  8
0-4
  6
Continuous
 62
     7
370
     9
100
AcDbLine
 10
-256.6666061813766
 20
-53.8944308264962
 30
0.0
 11
-256.6666061813766
 21
-421.8942345242369
 31
0.0
  0
LINE
  5
133
330
1F
100
AcDbEntity
  8
0-4
  6
Continuous
 62
     7
370
     9
100
AcDbLine
 10
-33.33348454655805
 20
-53.89418338667355
 30
0.0
 11
-33.33348454655805
 21
-421.8942345242369
 31
0.0
  0
LINE
  5
134
330
1F
100
AcDbEntity
  8
0-4
  6
Continuous
 62
     7
370
     9
100
AcDbLine
 10
-256.6666061813766
 20
-418.8942122546529
 30
0.0
 11
-231.8804354281039
 21
-415.6310377336963
 31
0.0
  0
LINE
  5
135
330
1F
100
AcDbEntity
  8
0-4
  6
Continuous
 62
     7
370
     9
100
AcDbLine
 10
-256.6666061813766
 20
-418.8942122546529
 30
0.0
 11
-231.8804354281039
 21
-422.1573867756093
 31
0.0
  0
LINE
  5
136
330
1F
100
AcDbEntity
  8
0-4
  6
Continuous
 62
     7
370
     9
100
AcDbLine
 10
-33.33348454655805
 20
-418.8942122546529
 30
0.0
 11
-58.11965529983098
 21
-415.6310377336963
 31
0.0
  0
LINE
  5
137
330
1F
100
AcDbEntity
  8
0-4
  6
Continuous
 62
     7
370
     9
100
AcDbLine
 10
-33.33348454655805
 20
-418.8942122546529
 30
0.0
 11
-58.11965529983098
 21
-422.1573867756093
 31
0.0
  0
LINE
  5
138
330
1F
100
AcDbEntity
  8
0-4
  6
Continuous
 62
     7
370
     9
100
AcDbLine
 10
-478.3332206107474
 20
-498.894228750641
 30
0.0
 11
188.3333773226352
 21
-498.894228750641
 31
0.0
  0
LINE
  5
139
330
1F
100
AcDbEntity
  8
0-4
  6
Continuous
 62
     7
370
     9
100
AcDbLine
 10
-478.3332206107474
 20
-237.2275442133206
 30
0.0
 11
-478.3332206107474
 21
-501.8942510202251
 31
0.0
  0
LINE
  5
13A
330
1F
100
AcDbEntity
  8
0-4
  6
Continuous
 62
     7
370
     9
100
AcDbLine
 10
188.3333773226352
 20
-237.2275442133206
 30
0.0
 11
188.3333773226352
 21
-501.8942510202251
 31
0.0
  0
LINE
  5
13B
330
1F
100
AcDbEntity
  8
0-4
  6
Continuous
 62
     7
370
     9
100
AcDbLine
 10
-478.3332206107474
 20
-498.894228750641
 30
0.0
 11
-453.5470498574745
 21
-495.6310542296845
 31
0.0
  0
LINE
  5
13C
330
1F
100
AcDbEntity
  8
0-4
  6
Continuous
 62
     7
370
     9
100
AcDbLine
 10
-478.3332206107474
 20
-498.894228750641
 30
0.0
 11
-453.5470498574745
 21
-502.1574032715975
 31
0.0
  0
LINE
  5
13D
330
1F
100
AcDbEntity
  8
0-4
  6
Continuous
 62
     7
370
     9
100
AcDbLine
 10
188.3333773226352
 20
-498.894228750641
 30
0.0
 11
163.5473302892737
 21
-495.6310542296845
 31
0.0
  0
LINE
  5
13E
330
1F
100
AcDbEntity
  8
0-4
  6
Continuous
 62
     7
370
     9
100
AcDbLine
 10
188.3333773226352
 20
-498.894228750641
 30
0.0
 11
163.5473302892737
 21
-502.1574032715975
 31
0.0
  0
LINE
  5
13F
330
1F
100
AcDbEntity
  8
0-4
  6
Continuous
 62
     7
370
     9
100
AcDbLine
 10
288.333459802576
 20
-168.8944390744902
 30
0.0
 11
288.333459802576
 21
54.43905372006213
 31
0.0
  0
LINE
  5
140
330
1F
100
AcDbEntity
  8
0-4
  6
Continuous
 62
     7
370
     9
100
AcDbLine
 10
-18.33331133868228
 20
-168.8944390744902
 30
0.0
 11
291.3334202122044
 21
-168.8944390744902
 31
0.0
  0
LINE
  5
141
330
1F
100
AcDbEntity
  8
0-4
  6
Continuous
 62
     7
370
     9
100
AcDbLine
 10
209.9999505120357
 20
54.43905372006213
 30
0.0
 11
291.3334202122044
 21
54.43905372006213
 31
0.0
  0
LINE
  5
142
330
1F
100
AcDbEntity
  8
0-4
  6
Continuous
 62
     7
370
     9
100
AcDbLine
 10
288.333459802576
 20
-168.8944390744902
 30
0.0
 11
285.0702234216641
 21
-144.1082683212174
 31
0.0
  0
LINE
  5
143
330
1F
100
AcDbEntity
  8
0-4
  6
Continuous
 62
     7
370
     9
100
AcDbLine
 10
288.333459802576
 20
-168.8944390744902
 30
0.0
 11
291.5966961834883
 21
-144.1082683212174
 31
0.0
  0
LINE
  5
144
330
1F
100
AcDbEntity
  8
0-4
  6
Continuous
 62
     7
370
     9
100
AcDbLine
 10
288.333459802576
 20
54.43905372006213
 30
0.0
 11
285.0702234216641
 21
29.65288296678921
 31
0.0
  0
LINE
  5
145
330
1F
100
AcDbEntity
  8
0-4
  6
Continuous
 62
     7
370
     9
100
AcDbLine
 10
288.333459802576
 20
54.43905372006213
 30
0.0
 11
291.5966961834883
 21
29.65288296678921
 31
0.0
  0
LINE
  5
146
330
1F
100
AcDbEntity
  8
0-4
  6
Continuous
 62
     7
370
     9
100
AcDbLine
 10
368.3334762985643
 20
-212.227585453291
 30
0.0
 11
368.3334762985643
 21
54.43905372006213
 31
0.0
  0
LINE
  5
147
330
1F
100
AcDbEntity
  8
0-4
  6
Continuous
 62
     7
370
     9
100
AcDbLine
 10
213.333459802576
 20
-212.227585453291
 30
0.0
 11
371.3334367081927
 21
-212.227585453291
 31
0.0
  0
LINE
  5
148
330
1F
100
AcDbEntity
  8
0-4
  6
Continuous
 62
     7
370
     9
100
AcDbLine
 10
368.3334762985643
 20
-212.227585453291
 30
0.0
 11
365.0702399176521
 21
-187.4414147000181
 31
0.0
  0
LINE
  5
149
330
1F
100
AcDbEntity
  8
0-4
  6
Continuous
 62
     7
370
     9
100
AcDbLine
 10
368.3334762985643
 20
-212.227585453291
 30
0.0
 11
371.5967126794766
 21
-187.4414147000181
 31
0.0
  0
LINE
  5
14A
330
1F
100
AcDbEntity
  8
0-4
  6
Continuous
 62
     7
370
     9
100
AcDbLine
 10
368.3334762985643
 20
54.43905372006213
 30
0.0
 11
365.0702399176521
 21
29.65288296678921
 31
0.0
  0
LINE
  5
14B
330
1F
100
AcDbEntity
  8
0-4
  6
Continuous
 62
     7
370
     9
100
AcDbLine
 10
368.3334762985643
 20
54.43905372006213
 30
0.0
 11
371.5967126794766
 21
29.65288296678921
 31
0.0
  0
LINE
  5
14C
330
1F
100
AcDbEntity
  8
0-4
  6
Continuous
 62
     7
370
     9
100
AcDbLine
 10
209.9999505120357
 20
54.43905372006213
 30
0.0
 11
374.3333971178211
 21
54.43905372006213
 31
0.0
  0
LINE
  5
14D
330
1F
100
AcDbEntity
  8
0-0
  6
Continuous
 62
     7
370
     9
100
AcDbLine
 10
-381.6666474213471
 20
-121.5725627548112
 30
0.0
 11
-334.9999917520057
 21
-113.3438277331685
 31
0.0
  0
LINE
  5
14E
330
1F
100
AcDbEntity
  8
0-0
  6
Continuous
 62
     7
370
     9
100
AcDbLine
 10
-381.6666474213471
 20
-135.1114800901152
 30
0.0
 11
-334.9999917520057
 21
-126.8828687883838
 31
0.0
  0
LINE
  5
14F
330
1F
100
AcDbEntity
  8
0-0
  6
Continuous
 62
     4
370
     9
100
AcDbLine
 10
-345.0000247439823
 20
-238.8941751386794
 30
0.0
 11
-345.0000247439823
 21
-128.6461249644819
 31
0.0
  0
LINE
  5
150
330
1F
100
AcDbEntity
  8
0-0
  6
Continuous
 62
     4
370
     9
100
AcDbLine
 10
-347.2549438476562
 20
-238.8941751386794
 30
0.0
 11
-347.2549438476562
 21
-129.0437607594565
 31
0.0
  0
LINE
  5
151
330
1F
100
AcDbEntity
  8
0-0
  6
Continuous
 62
     4
370
     9
100
AcDbLine
 10
-347.2549438476562
 20
-115.5047197042411
 30
0.0
 11
-347.2549438476562
 21
-9.561008964693087
 31
0.0
  0
LINE
  5
152
330
1F
100
AcDbEntity
  8
0-0
  6
Continuous
 62
     4
370
     9
100
AcDbLine
 10
-371.666738149282
 20
-238.8941751386794
 30
0.0
 11
-371.666738149282
 21
-133.3482239140173
 31
0.0
  0
LINE
  5
153
330
1F
100
AcDbEntity
  8
0-0
  6
Continuous
 62
     4
370
     9
100
AcDbLine
 10
-369.4116953256966
 20
-238.8941751386794
 30
0.0
 11
-369.4116953256966
 21
-132.9505881190427
 31
0.0
  0
LINE
  5
154
330
1F
100
AcDbEntity
  8
0-0
  6
Continuous
 62
     4
370
     9
100
AcDbLine
 10
-369.4116953256966
 20
-119.4116707837385
 30
0.0
 11
-369.4116953256966
 21
-9.561008964693087
 31
0.0
  0
LINE
  5
155
330
1F
100
AcDbEntity
  8
0-E
  6
Continuous
 62
     7
370
     9
100
AcDbLine
 10
183.5961419182857
 20
-224.8909369762006
 30
0.0
 11
198.8151756492823
 21
-244.7247233993424
 31
0.0
  0
LINE
  5
156
330
1F
100
AcDbEntity
  8
0-E
  6
Continuous
 62
     7
370
     9
100
AcDbLine
 10
183.5961419182857
 20
-224.8909369762006
 30
0.0
 11
193.1631552206505
 21
-247.9879597802547
 31
0.0
  0
LINE
  5
157
330
1F
100
AcDbEntity
  8
0-E
  6
Continuous
 62
     7
370
     9
100
AcDbLine
 10
73.56361182960313
 20
82.80604986659938
 30
0.0
 11
83.13062513196797
 21
105.9030726706533
 31
0.0
  0
LINE
  5
158
330
1F
100
AcDbEntity
  8
0-E
  6
Continuous
 62
     7
370
     9
100
AcDbLine
 10
73.56361182960313
 20
82.80604986659938
 30
0.0
 11
88.78264556059975
 21
102.6398362897413
 31
0.0
  0
LINE
  5
159
330
1F
100
AcDbEntity
  8
0-E
  6
Continuous
 62
     7
370
     9
100
AcDbLine
 10
99.99983504011823
 20
67.29355250595745
 30
0.0
 11
109.5668483424834
 21
90.39057531001134
 31
0.0
  0
LINE
  5
15A
330
1F
100
AcDbEntity
  8
0-E
  6
Continuous
 62
     7
370
     9
100
AcDbLine
 10
99.99983504011823
 20
67.29355250595745
 30
0.0
 11
115.2188687711151
 21
87.12733892909938
 31
0.0
  0
LINE
  5
15B
330
1F
100
AcDbEntity
  8
0-E
  6
Continuous
 62
     7
370
     9
100
AcDbLine
 10
-478.33346805057
 20
27.77246403467359
 30
0.0
 11
-487.9006050728461
 21
4.675441230619413
 31
0.0
  0
LINE
  5
15C
330
1F
100
AcDbEntity
  8
0-E
  6
Continuous
 62
     7
370
     9
100
AcDbLine
 10
-478.33346805057
 20
27.77246403467359
 30
0.0
 11
-493.5525017815667
 21
7.938677611531659
 31
0.0
  0
LINE
  5
15D
330
1F
100
AcDbEntity
  8
0-E
  6
Continuous
 62
     7
370
     9
100
AcDbLine
 10
-299.4118355415961
 20
122.772406298715
 30
0.0
 11
-314.6308692725927
 21
142.6061927218569
 31
0.0
  0
LINE
  5
15E
330
1F
100
AcDbEntity
  8
0-E
  6
Continuous
 62
     7
370
     9
100
AcDbLine
 10
-299.4118355415961
 20
122.772406298715
 30
0.0
 11
-308.9789725638724
 21
145.8694291027692
 31
0.0
  0
LINE
  5
15F
330
1F
100
AcDbEntity
  8
0-E
  6
Continuous
 62
     7
370
     9
100
AcDbLine
 10
-369.4116953256966
 20
-276.2274006982234
 30
0.0
 11
-378.9788323479729
 21
-299.3244235022775
 31
0.0
  0
LINE
  5
160
330
1F
100
AcDbEntity
  8
0-E
  6
Continuous
 62
     7
370
     9
100
AcDbLine
 10
-369.4116953256966
 20
-276.2274006982234
 30
0.0
 11
-384.6307290566932
 21
-296.0611871213652
 31
0.0
  0
LINE
  5
161
330
1F
100
AcDbEntity
  8
0-E
  6
Continuous
 62
     7
370
     9
100
AcDbLine
 10
-478.33346805057
 20
27.77246403467359
 30
0.0
 11
-536.0684781461148
 21
-72.22749472535611
 31
0.0
  0
LINE
  5
162
330
1F
100
AcDbEntity
  8
0-E
  6
Continuous
 62
     7
370
     9
100
AcDbLine
 10
183.5961419182857
 20
-224.8909369762006
 30
0.0
 11
249.4158770586995
 21
-338.8941957586647
 31
0.0
  0
LINE
  5
163
330
1F
100
AcDbEntity
  8
0-E
  6
Continuous
 62
     7
370
     9
100
AcDbLine
 10
-369.4116953256966
 20
-276.2274006982234
 30
0.0
 11
-526.8358797640415
 21
-548.8942081306559
 31
0.0
  0
LINE
  5
164
330
1F
100
AcDbEntity
  8
0-E
  6
Continuous
 62
     7
370
     9
100
AcDbLine
 10
-820.6041078309754
 20
-72.22749472535611
 30
0.0
 11
-536.0684781461148
 21
-72.22749472535611
 31
0.0
  0
LINE
  5
165
330
1F
100
AcDbEntity
  8
0-E
  6
Continuous
 62
     7
370
     9
100
AcDbLine
 10
-849.2946315456081
 20
-548.8942081306559
 30
0.0
 11
-526.8358797640415
 21
-548.8942081306559
 31
0.0
  0
LINE
  5
166
330
1F
100
AcDbEntity
  8
0-E
  6
Continuous
 62
     7
370
     9
100
AcDbLine
 10
249.4158770586995
 20
-338.8941957586647
 30
0.0
 11
639.0066610800255
 21
-338.8941957586647
 31
0.0
  0
LINE
  5
167
330
1F
100
AcDbEntity
  8
0-E
  6
Continuous
 62
     7
370
     9
100
AcDbLine
 10
99.99983504011823
 20
67.29355250595745
 30
0.0
 11
274.0183237436656
 21
363.1187478184575
 31
0.0
  0
LINE
  5
168
330
1F
100
AcDbEntity
  8
0-E
  6
Continuous
 62
     7
370
     9
100
AcDbLine
 10
73.56361182960313
 20
82.80604986659938
 30
0.0
 11
307.9079292915964
 21
483.1187725624397
 31
0.0
  0
LINE
  5
169
330
1F
100
AcDbEntity
  8
0-E
  6
Continuous
 62
     7
370
     9
100
AcDbLine
 10
249.2382152660474
 20
603.118797306422
 30
0.0
 11
642.2199146167651
 21
603.118797306422
 31
0.0
  0
LINE
  5
16A
330
1F
100
AcDbEntity
  8
0-E
  6
Continuous
 62
     7
370
     9
100
AcDbLine
 10
307.9079292915964
 20
483.1187725624397
 30
0.0
 11
663.4754902607688
 21
483.1187725624397
 31
0.0
  0
LINE
  5
16B
330
1F
100
AcDbEntity
  8
0-E
  6
Continuous
 62
     7
370
     9
100
AcDbLine
 10
274.0183237436656
 20
363.1187478184575
 30
0.0
 11
669.5622624577703
 21
363.1187478184575
 31
0.0
  0
LINE
  5
16C
330
1F
100
AcDbEntity
  8
0-E
  6
Continuous
 62
     7
370
     9
100
AcDbLine
 10
-299.4118355415961
 20
122.772406298715
 30
0.0
 11
-538.7358794341217
 21
537.29361848991
 31
0.0
  0
LINE
  5
16D
330
1F
100
AcDbEntity
  8
0-E
  6
Continuous
 62
     7
370
     9
100
AcDbLine
 10
-538.7358794341217
 20
537.29361848991
 30
0.0
 11
-870.5510732289906
 21
537.29361848991
 31
0.0
  0
LINE
  5
16E
330
1F
100
AcDbEntity
  8
0-2
  6
Continuous
 62
     6
370
     9
100
AcDbLine
 10
83.33303090688361
 20
65.62704530050979
 30
0.0
 11
80.00001649598829
 21
47.29373396182723
 31
0.0
  0
LINE
  5
16F
330
1F
100
AcDbEntity
  8
0-2
  6
Continuous
 62
     6
370
     9
100
AcDbLine
 10
-373.3334927945523
 20
65.62704530050979
 30
0.0
 11
-370.0002309438344
 21
47.29373396182723
 31
0.0
  0
LINE
  5
170
330
1F
100
AcDbEntity
  8
0-2
  6
Continuous
 62
     6
370
     9
100
AcDbLine
 10
80.00001649598829
 20
69.11174032268036
 30
0.0
 11
83.33303090688361
 21
65.62704530050979
 31
0.0
  0
LINE
  5
171
330
1F
100
AcDbEntity
  8
0-2
  6
Continuous
 62
     6
370
     9
100
AcDbLine
 10
54.16630925358959
 20
66.92350625120667
 30
0.0
 11
49.16654019742424
 21
47.29373396182723
 31
0.0
  0
LINE
  5
172
330
1F
100
AcDbEntity
  8
0-2
  6
Continuous
 62
     6
370
     9
100
AcDbLine
 10
76.66650720544766
 20
47.29373396182723
 30
0.0
 11
80.00001649598829
 21
47.29373396182723
 31
0.0
  0
LINE
  5
173
330
1F
100
AcDbEntity
  8
0-2
  6
Continuous
 62
     6
370
     9
100
AcDbLine
 10
49.16654019742424
 20
70.6038024531702
 30
0.0
 11
84.16640822951877
 21
70.6038024531702
 31
0.0
  0
LINE
  5
174
330
1F
100
AcDbEntity
  8
0-2
  6
Continuous
 62
     6
370
     9
100
AcDbLine
 10
64.99971956820104
 20
73.93706430388818
 30
0.0
 11
68.33322885874168
 21
73.93706430388818
 31
0.0
  0
LINE
  5
175
330
1F
100
AcDbEntity
  8
0-2
  6
Continuous
 62
     6
370
     9
100
AcDbLine
 10
68.33322885874168
 20
83.54366797787463
 30
0.0
 11
68.33322885874168
 21
73.93706430388818
 31
0.0
  0
LINE
  5
176
330
1F
100
AcDbEntity
  8
0-2
  6
Continuous
 62
     6
370
     9
100
AcDbLine
 10
64.99971956820104
 20
83.54366797787463
 30
0.0
 11
64.99971956820104
 21
73.93706430388818
 31
0.0
  0
LINE
  5
177
330
1F
100
AcDbEntity
  8
0-2
  6
Continuous
 62
     6
370
     9
100
AcDbLine
 10
58.33319586676538
 20
30.6037942051762
 30
0.0
 11
74.99975256017763
 21
30.6037942051762
 31
0.0
  0
LINE
  5
178
330
1F
100
AcDbEntity
  8
0-2
  6
Continuous
 62
     6
370
     9
100
AcDbLine
 10
56.66644122149506
 20
32.2706725703577
 30
0.0
 11
76.66650720544766
 21
32.2706725703577
 31
0.0
  0
LINE
  5
179
330
1F
100
AcDbEntity
  8
0-2
  6
Continuous
 62
     6
370
     9
100
AcDbLine
 10
56.66644122149506
 20
32.2706725703577
 30
0.0
 11
58.33319586676538
 21
30.6037942051762
 31
0.0
  0
LINE
  5
17A
330
1F
100
AcDbEntity
  8
0-2
  6
Continuous
 62
     6
370
     9
100
AcDbLine
 10
76.66650720544766
 20
32.2706725703577
 30
0.0
 11
74.99975256017763
 21
30.6037942051762
 31
0.0
  0
LINE
  5
17B
330
1F
100
AcDbEntity
  8
0-2
  6
Continuous
 62
     6
370
     9
100
AcDbLine
 10
76.66650720544766
 20
70.6038024531702
 30
0.0
 11
76.66650720544766
 21
32.2706725703577
 31
0.0
  0
LINE
  5
17C
330
1F
100
AcDbEntity
  8
0-2
  6
Continuous
 62
     6
370
     9
100
AcDbLine
 10
74.99975256017763
 20
70.6038024531702
 30
0.0
 11
74.99975256017763
 21
30.6037942051762
 31
0.0
  0
LINE
  5
17D
330
1F
100
AcDbEntity
  8
0-2
  6
Continuous
 62
     6
370
     9
100
AcDbLine
 10
58.33319586676538
 20
70.6038024531702
 30
0.0
 11
58.33319586676538
 21
30.6037942051762
 31
0.0
  0
LINE
  5
17E
330
1F
100
AcDbEntity
  8
0-2
  6
Continuous
 62
     6
370
     9
100
AcDbLine
 10
56.66644122149506
 20
70.6038024531702
 30
0.0
 11
56.66644122149506
 21
32.2706725703577
 31
0.0
  0
LINE
  5
17F
330
1F
100
AcDbEntity
  8
0-2
  6
Continuous
 62
     6
370
     9
100
AcDbLine
 10
76.66650720544766
 20
65.92335448811525
 30
0.0
 11
83.33303090688361
 21
65.62704530050979
 31
0.0
  0
LINE
  5
180
330
1F
100
AcDbEntity
  8
0-2
  6
Continuous
 62
     6
370
     9
100
AcDbLine
 10
76.66650720544766
 20
69.25995677643868
 30
0.0
 11
80.00001649598829
 21
69.11174032268036
 31
0.0
  0
LINE
  5
181
330
1F
100
AcDbEntity
  8
0-2
  6
Continuous
 62
     6
370
     9
100
AcDbLine
 10
-317.8073779956713
 20
242.9152038203577
 30
0.0
 11
-311.2739769188133
 21
277.2999364533814
 31
0.0
  0
LINE
  5
182
330
1F
100
AcDbEntity
  8
0-2
  6
Continuous
 62
     6
370
     9
100
AcDbLine
 10
-318.126699086782
 20
259.092448264509
 30
0.0
 11
-317.5042642129432
 21
262.3673143170851
 31
0.0
  0
LINE
  5
183
330
1F
100
AcDbEntity
  8
0-2
  6
Continuous
 62
     6
370
     9
100
AcDbLine
 10
-326.9419902079812
 20
264.1605107117218
 30
0.0
 11
-317.5042642129432
 21
262.3673143170851
 31
0.0
  0
LINE
  5
184
330
1F
100
AcDbEntity
  8
0-2
  6
Continuous
 62
     6
370
     9
100
AcDbLine
 10
-327.5641776419974
 20
260.8856446591457
 30
0.0
 11
-318.126699086782
 21
259.092448264509
 31
0.0
  0
LINE
  5
185
330
1F
100
AcDbEntity
  8
0-2
  6
Continuous
 62
     6
370
     9
100
AcDbLine
 10
-276.7992999102617
 20
244.4540320773257
 30
0.0
 11
-273.6881153003588
 21
260.8277437406491
 31
0.0
  0
LINE
  5
186
330
1F
100
AcDbEntity
  8
0-2
  6
Continuous
 62
     6
370
     9
100
AcDbLine
 10
-278.7478885135135
 20
243.1277546280012
 30
0.0
 11
-275.0146401895057
 21
262.7762086239895
 31
0.0
  0
LINE
  5
187
330
1F
100
AcDbEntity
  8
0-2
  6
Continuous
 62
     6
370
     9
100
AcDbLine
 10
-278.7478885135135
 20
243.1277546280012
 30
0.0
 11
-276.7992999102617
 21
244.4540320773257
 31
0.0
  0
LINE
  5
188
330
1F
100
AcDbEntity
  8
0-2
  6
Continuous
 62
     6
370
     9
100
AcDbLine
 10
-275.0146401895057
 20
262.7762086239895
 30
0.0
 11
-273.6881153003588
 21
260.8277437406491
 31
0.0
  0
LINE
  5
189
330
1F
100
AcDbEntity
  8
0-2
  6
Continuous
 62
     6
370
     9
100
AcDbLine
 10
-312.6741151551943
 20
269.9319208547749
 30
0.0
 11
-275.0146401895057
 21
262.7762086239895
 31
0.0
  0
LINE
  5
18A
330
1F
100
AcDbEntity
  8
0-2
  6
Continuous
 62
     6
370
     9
100
AcDbLine
 10
-312.9851470122466
 20
268.2943641085757
 30
0.0
 11
-273.6881153003588
 21
260.8277437406491
 31
0.0
  0
LINE
  5
18B
330
1F
100
AcDbEntity
  8
0-2
  6
Continuous
 62
     6
370
     9
100
AcDbLine
 10
-316.0960841823268
 20
251.9208998850749
 30
0.0
 11
-276.7992999102617
 21
244.4540320773257
 31
0.0
  0
LINE
  5
18C
330
1F
100
AcDbEntity
  8
0-2
  6
Continuous
 62
     6
370
     9
100
AcDbLine
 10
-316.4073634792018
 20
250.2833431388754
 30
0.0
 11
-278.7478885135135
 21
243.1277546280012
 31
0.0
  0
LINE
  5
18D
330
1F
100
AcDbEntity
  8
0-2
  6
JWW_CENTER1
 62
     6
370
     9
100
AcDbLine
 10
-333.8743879988385
 20
263.781185463622
 30
0.0
 11
-267.9705233187289
 21
251.2588746396145
 31
0.0
  0
LINE
  5
18E
330
1F
100
AcDbEntity
  8
0-2
  6
Continuous
 62
     6
370
     9
100
AcDbLine
 10
-287.8341262404982
 20
230.6270947884744
 30
0.0
 11
-305.4322938661318
 21
227.2937092178449
 31
0.0
  0
LINE
  5
18F
330
1F
100
AcDbEntity
  8
0-2
  6
Continuous
 62
     6
370
     9
100
AcDbLine
 10
-295.2983959301096
 20
280.6271360284447
 30
0.0
 11
-298.1763685071789
 21
265.4806021654801
 31
0.0
  0
LINE
  5
190
330
1F
100
AcDbEntity
  8
0-2
  6
Continuous
 62
     6
370
     9
100
AcDbLine
 10
-321.1234427787161
 20
55.42708093184416
 30
0.0
 11
-284.9138414537583
 21
245.9958296121653
 31
0.0
  0
LINE
  5
191
330
1F
100
AcDbEntity
  8
0-2
  6
Continuous
 62
     6
370
     9
100
AcDbLine
 10
-281.8026568438555
 20
262.3695412754887
 30
0.0
 11
-278.3334268105995
 21
280.6271360284447
 31
0.0
  0
LINE
  5
192
330
1F
100
AcDbEntity
  8
0-2
  6
JWW_DASHED1
 62
     6
370
     9
100
AcDbLine
 10
-2.166583086993228
 20
230.6270947884744
 30
0.0
 11
15.43183197846304
 21
227.2937092178449
 31
0.0
  0
LINE
  5
193
330
1F
100
AcDbEntity
  8
0-2
  6
Continuous
 62
     6
370
     9
100
AcDbLine
 10
-341.1026000976562
 20
67.05959815365588
 30
0.0
 11
-373.3334927945523
 21
65.62704530050979
 31
0.0
  0
LINE
  5
194
330
1F
100
AcDbEntity
  8
0-2
  6
Continuous
 62
     6
370
     9
100
AcDbLine
 10
-338.6034578890414
 20
52.71588279523115
 30
0.0
 11
-301.2874293971706
 21
249.1071379419793
 31
0.0
  0
LINE
  5
195
330
1F
100
AcDbEntity
  8
0-2
  6
Continuous
 62
     6
370
     9
100
AcDbLine
 10
5.297934042440886
 20
280.6271360284447
 30
0.0
 11
-295.2983959301096
 21
280.6271360284447
 31
0.0
  0
LINE
  5
196
330
1F
100
AcDbEntity
  8
0-2
  6
Continuous
 62
     6
370
     9
100
AcDbLine
 10
51.1022619298987
 20
67.05959815365588
 30
0.0
 11
56.66644122149506
 21
66.81240577084338
 31
0.0
  0
LINE
  5
197
330
1F
100
AcDbEntity
  8
0-2
  6
Continuous
 62
     6
370
     9
100
AcDbLine
 10
50.46287742820965
 20
70.42465602158245
 30
0.0
 11
56.66644122149506
 21
70.14888433925563
 31
0.0
  0
LINE
  5
198
330
1F
100
AcDbEntity
  8
0-2
  6
Continuous
 62
     6
370
     9
100
AcDbLine
 10
44.84846785261823
 20
72.47518983175979
 30
0.0
 11
5.297934042440886
 21
280.6271360284447
 31
0.0
  0
LINE
  5
199
330
1F
100
AcDbEntity
  8
0-2
  6
Continuous
 62
     6
370
     9
100
AcDbLine
 10
31.1229808910474
 20
55.42708093184416
 30
0.0
 11
-11.66678763724661
 21
280.6271360284447
 31
0.0
  0
LINE
  5
19A
330
1F
100
AcDbEntity
  8
0-2
  6
Continuous
 62
     6
370
     9
100
AcDbLine
 10
56.66644122149506
 20
47.29373396182723
 30
0.0
 11
-263.3335010425463
 21
47.29373396182723
 31
0.0
  0
LINE
  5
19B
330
1F
100
AcDbEntity
  8
0-2
  6
Continuous
 62
     6
370
     9
100
AcDbLine
 10
-313.3335422825169
 20
47.29373396182723
 30
0.0
 11
-370.0002309438344
 21
47.29373396182723
 31
0.0
  0
LINE
  5
19C
330
1F
100
AcDbEntity
  8
0-2
  6
JWW_CENTER1
 62
     6
370
     9
100
AcDbLine
 10
66.66647421347136
 20
93.23699930969468
 30
0.0
 11
66.66647421347136
 21
21.23918667772671
 31
0.0
  0
LINE
  5
19D
330
1F
100
AcDbEntity
  8
0-E
  6
Continuous
 62
     7
370
     9
100
AcDbLine
 10
249.2382152660474
 20
603.118797306422
 30
0.0
 11
15.43183197846304
 21
227.2937092178449
 31
0.0
  0
LINE
  5
19E
330
1F
100
AcDbEntity
  8
0-E
  6
Continuous
 62
     7
370
     9
100
AcDbLine
 10
15.43183197846304
 20
227.2937092178449
 30
0.0
 11
25.73943266997475
 21
250.0699262918528
 31
0.0
  0
LINE
  5
19F
330
1F
100
AcDbEntity
  8
0-E
  6
Continuous
 62
     7
370
     9
100
AcDbLine
 10
15.43183197846304
 20
227.2937092178449
 30
0.0
 11
31.28307445629247
 21
246.6260588404168
 31
0.0
  0
LINE
  5
1A0
330
1F
100
AcDbEntity
  8
0-0
  6
JWW_CENTER1
 62
     3
370
     9
100
AcDbLine
 10
-144.9999835040117
 20
305.8266550054296
 30
0.0
 11
-144.9999835040117
 21
-260.4398739747225
 31
0.0
  0
LINE
  5
1A1
330
1F
100
AcDbEntity
  8
0-2
  6
Continuous
 62
     6
370
     9
100
AcDbLine
 10
79.38215925886823
 20
795.2627478976382
 30
0.0
 11
82.94380806587839
 21
791.9292386070975
 31
0.0
  0
LINE
  5
1A2
330
1F
100
AcDbEntity
  8
0-2
  6
Continuous
 62
     6
370
     9
100
AcDbLine
 10
42.27756809543934
 20
815.2628138815908
 30
0.0
 11
80.3704339104732
 21
815.2628138815908
 31
0.0
  0
LINE
  5
1A3
330
1F
100
AcDbEntity
  8
0-2
  6
Continuous
 62
     6
370
     9
100
AcDbLine
 10
42.89963180954402
 20
811.9293045910504
 30
0.0
 11
77.51745275549013
 21
811.9293045910504
 31
0.0
  0
LINE
  5
1A4
330
1F
100
AcDbEntity
  8
0-2
  6
Continuous
 62
     6
370
     9
100
AcDbLine
 10
80.3704339104732
 20
815.2628138815908
 30
0.0
 11
77.51745275549013
 21
811.9293045910504
 31
0.0
  0
LINE
  5
1A5
330
1F
100
AcDbEntity
  8
0-2
  6
Continuous
 62
     6
370
     9
100
AcDbLine
 10
-369.3818788270693
 20
795.2627478976382
 30
0.0
 11
-372.9437750739018
 21
791.9292386070975
 31
0.0
  0
LINE
  5
1A6
330
1F
100
AcDbEntity
  8
0-2
  6
Continuous
 62
     6
370
     9
100
AcDbLine
 10
-332.2775351034628
 20
815.2628138815908
 30
0.0
 11
-370.370153478674
 21
815.2628138815908
 31
0.0
  0
LINE
  5
1A7
330
1F
100
AcDbEntity
  8
0-2
  6
Continuous
 62
     6
370
     9
100
AcDbLine
 10
-332.8995988175674
 20
811.9293045910504
 30
0.0
 11
-367.5171723236909
 21
811.9293045910504
 31
0.0
  0
LINE
  5
1A8
330
1F
100
AcDbEntity
  8
0-2
  6
Continuous
 62
     6
370
     9
100
AcDbLine
 10
-370.370153478674
 20
815.2628138815908
 30
0.0
 11
-367.5171723236909
 21
811.9293045910504
 31
0.0
  0
LINE
  5
1A9
330
1F
100
AcDbEntity
  8
0-2
  6
Continuous
 62
     6
370
     9
100
AcDbLine
 10
72.0025139885982
 20
795.2627478976382
 30
0.0
 11
79.38215925886823
 21
795.2627478976382
 31
0.0
  0
LINE
  5
1AA
330
1F
100
AcDbEntity
  8
0-2
  6
Continuous
 62
     6
370
     9
100
AcDbLine
 10
78.00144504856434
 20
791.9292386070975
 30
0.0
 11
82.94380806587839
 21
791.9292386070975
 31
0.0
  0
LINE
  5
1AB
330
1F
100
AcDbEntity
  8
0-2
  6
Continuous
 62
     6
370
     9
100
AcDbLine
 10
-362.0024809966216
 20
795.2627478976382
 30
0.0
 11
-369.3818788270693
 21
795.2627478976382
 31
0.0
  0
LINE
  5
1AC
330
1F
100
AcDbEntity
  8
0-2
  6
Continuous
 62
     6
370
     9
100
AcDbLine
 10
-368.0011646167651
 20
791.9292386070975
 30
0.0
 11
-372.9437750739018
 21
791.9292386070975
 31
0.0
  0
LINE
  5
1AD
330
1F
100
AcDbEntity
  8
0-2
  6
Continuous
 62
     6
370
     9
100
AcDbLine
 10
-153.3332618507177
 20
905.2626159297326
 30
0.0
 11
-136.6664577174831
 21
905.2626159297326
 31
0.0
  0
LINE
  5
1AE
330
1F
100
AcDbEntity
  8
0-2
  6
Continuous
 62
     6
370
     9
100
AcDbLine
 10
-155.000016495988
 20
906.9293705750031
 30
0.0
 11
-134.9999505120354
 21
906.9293705750031
 31
0.0
  0
LINE
  5
1AF
330
1F
100
AcDbEntity
  8
0-2
  6
Continuous
 62
     6
370
     9
100
AcDbLine
 10
-155.000016495988
 20
906.9293705750031
 30
0.0
 11
-153.3332618507177
 21
905.2626159297326
 31
0.0
  0
LINE
  5
1B0
330
1F
100
AcDbEntity
  8
0-2
  6
Continuous
 62
     6
370
     9
100
AcDbLine
 10
-134.9999505120354
 20
906.9293705750031
 30
0.0
 11
-136.6664577174831
 21
905.2626159297326
 31
0.0
  0
LINE
  5
1B1
330
1F
100
AcDbEntity
  8
0-2
  6
Continuous
 62
     6
370
     9
100
AcDbLine
 10
-146.6664907094594
 20
947.6193647684153
 30
0.0
 11
-143.3332288587414
 21
947.6193647684153
 31
0.0
  0
LINE
  5
1B2
330
1F
100
AcDbEntity
  8
0-2
  6
JWW_CENTER1
 62
     6
370
     9
100
AcDbLine
 10
66.66672165329402
 20
801.8243571142767
 30
0.0
 11
66.66672165329402
 21
772.4666119179085
 31
0.0
  0
LINE
  5
1B3
330
1F
100
AcDbEntity
  8
0-2
  6
JWW_CENTER1
 62
     6
370
     9
100
AcDbLine
 10
-356.6664412214948
 20
801.8243571142767
 30
0.0
 11
-356.6664412214948
 21
772.4666119179085
 31
0.0
  0
LINE
  5
1B4
330
1F
100
AcDbEntity
  8
0-2
  6
Continuous
 62
     6
370
     9
100
AcDbLine
 10
-304.6571886217271
 20
824.8842639449356
 30
0.0
 11
-327.5073902027026
 21
834.3493320403746
 31
0.0
  0
LINE
  5
1B5
330
1F
100
AcDbEntity
  8
0-2
  6
Continuous
 62
     6
370
     9
100
AcDbLine
 10
-310.2179037558065
 20
796.9295025429085
 30
0.0
 11
-334.9506275073901
 21
796.9295025429085
 31
0.0
  0
LINE
  5
1B6
330
1F
100
AcDbEntity
  8
0-2
  6
Continuous
 62
     6
370
     9
100
AcDbLine
 10
-274.7900885504643
 20
882.4590567553239
 30
0.0
 11
-292.2790114944044
 21
899.9476085395302
 31
0.0
  0
LINE
  5
1B7
330
1F
100
AcDbEntity
  8
0-2
  6
Continuous
 62
     6
370
     9
100
AcDbLine
 10
-290.6256185995565
 20
858.7602603026212
 30
0.0
 11
-313.4755727407094
 21
868.2248335184153
 31
0.0
  0
LINE
  5
1B8
330
1F
100
AcDbEntity
  8
0-2
  6
Continuous
 62
     6
370
     9
100
AcDbLine
 10
-225.1638051625844
 20
924.2214551400368
 30
0.0
 11
-234.628625818201
 21
947.071533001101
 31
0.0
  0
LINE
  5
1B9
330
1F
100
AcDbEntity
  8
0-2
  6
Continuous
 62
     6
370
     9
100
AcDbLine
 10
-248.8630964949323
 20
908.3862962506788
 30
0.0
 11
-266.3516482791385
 21
925.8748480348847
 31
0.0
  0
LINE
  5
1BA
330
1F
100
AcDbEntity
  8
0-2
  6
Continuous
 62
     6
370
     9
100
AcDbLine
 10
-163.3332948426943
 20
943.8137402962868
 30
0.0
 11
-163.3332948426943
 21
968.5468352076043
 31
0.0
  0
LINE
  5
1BB
330
1F
100
AcDbEntity
  8
0-2
  6
Continuous
 62
     6
370
     9
100
AcDbLine
 10
-191.2885511243664
 20
938.2532726020302
 30
0.0
 11
-200.7531243401604
 21
961.1033504630941
 31
0.0
  0
LINE
  5
1BC
330
1F
100
AcDbEntity
  8
0-2
  6
Continuous
 62
     6
370
     9
100
AcDbLine
 10
-98.71166332347968
 20
938.2532726020302
 30
0.0
 11
-89.246842667863
 21
961.1033504630941
 31
0.0
  0
LINE
  5
1BD
330
1F
100
AcDbEntity
  8
0-2
  6
Continuous
 62
     6
370
     9
100
AcDbLine
 10
-126.6666721653291
 20
943.8142351759323
 30
0.0
 11
-126.6666721653291
 21
968.5468352076043
 31
0.0
  0
LINE
  5
1BE
330
1F
100
AcDbEntity
  8
0-2
  6
Continuous
 62
     6
370
     9
100
AcDbLine
 10
-41.1371179529138
 20
908.3862962506788
 30
0.0
 11
-23.64831872888516
 21
925.8753429145302
 31
0.0
  0
LINE
  5
1BF
330
1F
100
AcDbEntity
  8
0-2
  6
Continuous
 62
     6
370
     9
100
AcDbLine
 10
-64.83591440561639
 20
924.2219500196823
 30
0.0
 11
-55.37134118982266
 21
947.071533001101
 31
0.0
  0
LINE
  5
1C0
330
1F
100
AcDbEntity
  8
0-2
  6
Continuous
 62
     6
370
     9
100
AcDbLine
 10
0.6255278716216139
 20
858.7602603026212
 30
0.0
 11
23.47560573268595
 21
868.2248335184153
 31
0.0
  0
LINE
  5
1C1
330
1F
100
AcDbEntity
  8
0-2
  6
Continuous
 62
     6
370
     9
100
AcDbLine
 10
-15.20963101773646
 20
882.4590567553239
 30
0.0
 11
2.279168206292468
 21
899.9476085395302
 31
0.0
  0
LINE
  5
1C2
330
1F
100
AcDbEntity
  8
0-2
  6
Continuous
 62
     6
370
     9
100
AcDbLine
 10
20.21781302787161
 20
796.9295025429085
 30
0.0
 11
44.95066049936668
 21
796.9295025429085
 31
0.0
  0
LINE
  5
1C3
330
1F
100
AcDbEntity
  8
0-2
  6
Continuous
 62
     6
370
     9
100
AcDbLine
 10
14.65734533361484
 20
824.8847588245806
 30
0.0
 11
37.50717575485652
 21
834.3493320403746
 31
0.0
  0
LINE
  5
1C4
330
1F
100
AcDbEntity
  8
0-2
  6
Continuous
 62
     6
370
     9
100
AcDbLine
 10
-162.4999175200591
 20
944.2858554778746
 30
0.0
 11
-127.4998020481416
 21
944.2858554778746
 31
0.0
  0
LINE
  5
1C5
330
1F
100
AcDbEntity
  8
0-2
  6
Continuous
 62
     6
370
     9
100
AcDbLine
 10
-155.000016495988
 20
906.9293705750031
 30
0.0
 11
-155.000016495988
 21
911.5540208600538
 31
0.0
  0
LINE
  5
1C6
330
1F
100
AcDbEntity
  8
0-2
  6
Continuous
 62
     6
370
     9
100
AcDbLine
 10
-153.3332618507177
 20
905.2626159297326
 30
0.0
 11
-153.3332618507177
 21
911.6688329377564
 31
0.0
  0
LINE
  5
1C7
330
1F
100
AcDbEntity
  8
0-2
  6
Continuous
 62
     6
370
     9
100
AcDbLine
 10
-136.6664577174831
 20
905.2626159297326
 30
0.0
 11
-136.6664577174831
 21
911.6688329377564
 31
0.0
  0
LINE
  5
1C8
330
1F
100
AcDbEntity
  8
0-2
  6
Continuous
 62
     6
370
     9
100
AcDbLine
 10
-134.9999505120354
 20
906.9293705750031
 30
0.0
 11
-134.9999505120354
 21
911.5540208600538
 31
0.0
  0
LINE
  5
1C9
330
1F
100
AcDbEntity
  8
0-2
  6
Continuous
 62
     6
370
     9
100
AcDbLine
 10
-153.3332618507177
 20
928.6629999563374
 30
0.0
 11
-153.3332618507177
 21
944.2858554778746
 31
0.0
  0
LINE
  5
1CA
330
1F
100
AcDbEntity
  8
0-2
  6
Continuous
 62
     6
370
     9
100
AcDbLine
 10
-155.000016495988
 20
928.5610547494118
 30
0.0
 11
-155.000016495988
 21
944.2858554778746
 31
0.0
  0
LINE
  5
1CB
330
1F
100
AcDbEntity
  8
0-2
  6
Continuous
 62
     6
370
     9
100
AcDbLine
 10
-136.6664577174831
 20
928.6629999563374
 30
0.0
 11
-136.6664577174831
 21
944.2858554778746
 31
0.0
  0
LINE
  5
1CC
330
1F
100
AcDbEntity
  8
0-2
  6
Continuous
 62
     6
370
     9
100
AcDbLine
 10
-134.9999505120354
 20
928.5610547494118
 30
0.0
 11
-134.9999505120354
 21
944.2858554778746
 31
0.0
  0
LINE
  5
1CD
330
1F
100
AcDbEntity
  8
0-2
  6
Continuous
 62
     6
370
     9
100
AcDbLine
 10
-146.6664907094594
 20
947.6193647684153
 30
0.0
 11
-146.6664907094594
 21
957.2259684424017
 31
0.0
  0
LINE
  5
1CE
330
1F
100
AcDbEntity
  8
0-2
  6
Continuous
 62
     6
370
     9
100
AcDbLine
 10
-143.3332288587414
 20
947.6193647684153
 30
0.0
 11
-143.3332288587414
 21
957.2259684424017
 31
0.0
  0
LINE
  5
1CF
330
1F
100
AcDbEntity
  8
0-2
  6
Continuous
 62
     6
370
     9
100
AcDbLine
 10
-369.9999835040117
 20
778.596191204226
 30
0.0
 11
-369.9999835040117
 21
780.5959998507632
 31
0.0
  0
LINE
  5
1D0
330
1F
100
AcDbEntity
  8
0-2
  6
Continuous
 62
     6
370
     9
100
AcDbLine
 10
-369.9999835040117
 20
780.5959998507632
 30
0.0
 11
-343.3333938186232
 21
780.5959998507632
 31
0.0
  0
LINE
  5
1D1
330
1F
100
AcDbEntity
  8
0-2
  6
Continuous
 62
     6
370
     9
100
AcDbLine
 10
-343.3333938186232
 20
778.596191204226
 30
0.0
 11
-343.3333938186232
 21
780.5959998507632
 31
0.0
  0
LINE
  5
1D2
330
1F
100
AcDbEntity
  8
0-2
  6
Continuous
 62
     6
370
     9
100
AcDbLine
 10
80.00001649598829
 20
778.596191204226
 30
0.0
 11
80.00001649598829
 21
780.5959998507632
 31
0.0
  0
LINE
  5
1D3
330
1F
100
AcDbEntity
  8
0-2
  6
Continuous
 62
     6
370
     9
100
AcDbLine
 10
80.00001649598829
 20
780.5959998507632
 30
0.0
 11
53.33342681059975
 21
780.5959998507632
 31
0.0
  0
LINE
  5
1D4
330
1F
100
AcDbEntity
  8
0-2
  6
Continuous
 62
     6
370
     9
100
AcDbLine
 10
53.33342681059975
 20
778.596191204226
 30
0.0
 11
53.33342681059975
 21
780.5959998507632
 31
0.0
  0
LINE
  5
1D5
330
1F
100
AcDbEntity
  8
0-1
  6
Continuous
 62
     4
370
     9
100
AcDbLine
 10
-98.33332783467057
 20
902.7263577477225
 30
0.0
 11
-85.8240076013513
 21
881.060031998145
 31
0.0
  0
LINE
  5
1D6
330
1F
100
AcDbEntity
  8
0-1
  6
Continuous
 62
     4
370
     9
100
AcDbLine
 10
-85.8240076013513
 20
881.060031998145
 30
0.0
 11
-60.84248310810807
 21
881.060031998145
 31
0.0
  0
LINE
  5
1D7
330
1F
100
AcDbEntity
  8
0-1
  6
Continuous
 62
     4
370
     9
100
AcDbLine
 10
-263.3242220491977
 20
778.6120273528746
 30
0.0
 11
-275.8149842958193
 21
800.2466808051552
 31
0.0
  0
LINE
  5
1D8
330
1F
100
AcDbEntity
  8
0-1
  6
Continuous
 62
     4
370
     9
100
AcDbLine
 10
-263.3333773226352
 20
778.596191204226
 30
0.0
 11
-263.3242220491977
 21
778.6120273528746
 31
0.0
  0
LINE
  5
1D9
330
1F
100
AcDbEntity
  8
0-1
  6
Continuous
 62
     4
370
     9
100
AcDbLine
 10
-276.563737199113
 20
800.2466808051552
 30
0.0
 11
-275.8149842958193
 21
800.2466808051552
 31
0.0
  0
LINE
  5
1DA
330
1F
100
AcDbEntity
  8
0-4
  6
Continuous
 62
     7
370
     9
100
AcDbLine
 10
-278.3334268105995
 20
383.6990601864895
 30
0.0
 11
-11.66678763724661
 21
383.6990601864895
 31
0.0
  0
LINE
  5
1DB
330
1F
100
AcDbEntity
  8
0-4
  6
Continuous
 62
     7
370
     9
100
AcDbLine
 10
-278.3334268105995
 20
295.6271855164093
 30
0.0
 11
-278.3334268105995
 21
386.6990205961179
 31
0.0
  0
LINE
  5
1DC
330
1F
100
AcDbEntity
  8
0-4
  6
Continuous
 62
     7
370
     9
100
AcDbLine
 10
-11.66678763724661
 20
295.6271855164093
 30
0.0
 11
-11.66678763724661
 21
386.6990205961179
 31
0.0
  0
LINE
  5
1DD
330
1F
100
AcDbEntity
  8
0-4
  6
Continuous
 62
     7
370
     9
100
AcDbLine
 10
-278.3334268105995
 20
383.6990601864895
 30
0.0
 11
-253.5472560573268
 21
386.9621728474903
 31
0.0
  0
LINE
  5
1DE
330
1F
100
AcDbEntity
  8
0-4
  6
Continuous
 62
     7
370
     9
100
AcDbLine
 10
-278.3334268105995
 20
383.6990601864895
 30
0.0
 11
-253.5472560573268
 21
380.4359475254887
 31
0.0
  0
LINE
  5
1DF
330
1F
100
AcDbEntity
  8
0-4
  6
Continuous
 62
     7
370
     9
100
AcDbLine
 10
-11.66678763724661
 20
383.6990601864895
 30
0.0
 11
-36.45295839051926
 21
386.9621728474903
 31
0.0
  0
LINE
  5
1E0
330
1F
100
AcDbEntity
  8
0-4
  6
Continuous
 62
     7
370
     9
100
AcDbLine
 10
-11.66678763724661
 20
383.6990601864895
 30
0.0
 11
-36.45295839051926
 21
380.4359475254887
 31
0.0
  0
LINE
  5
1E1
330
1F
100
AcDbEntity
  8
0-4
  6
Continuous
 62
     7
370
     9
100
AcDbLine
 10
368.3334762985643
 20
54.43905372006213
 30
0.0
 11
368.3334762985643
 21
280.6271360284447
 31
0.0
  0
LINE
  5
1E2
330
1F
100
AcDbEntity
  8
0-4
  6
Continuous
 62
     7
370
     9
100
AcDbLine
 10
20.29798353040547
 20
280.6271360284447
 30
0.0
 11
371.3334367081927
 21
280.6271360284447
 31
0.0
  0
LINE
  5
1E3
330
1F
100
AcDbEntity
  8
0-4
  6
Continuous
 62
     7
370
     9
100
AcDbLine
 10
368.3334762985643
 20
54.43905372006213
 30
0.0
 11
365.0702399176521
 21
79.22522447333478
 31
0.0
  0
LINE
  5
1E4
330
1F
100
AcDbEntity
  8
0-4
  6
Continuous
 62
     7
370
     9
100
AcDbLine
 10
368.3334762985643
 20
54.43905372006213
 30
0.0
 11
371.5967126794766
 21
79.22522447333478
 31
0.0
  0
LINE
  5
1E5
330
1F
100
AcDbEntity
  8
0-4
  6
Continuous
 62
     7
370
     9
100
AcDbLine
 10
368.3334762985643
 20
280.6271360284447
 30
0.0
 11
365.0702399176521
 21
255.840965275172
 31
0.0
  0
LINE
  5
1E6
330
1F
100
AcDbEntity
  8
0-4
  6
Continuous
 62
     7
370
     9
100
AcDbLine
 10
368.3334762985643
 20
280.6271360284447
 30
0.0
 11
371.5967126794766
 21
255.840965275172
 31
0.0
  0
LINE
  5
1E7
330
1F
100
AcDbEntity
  8
0-4
  6
Continuous
 62
     7
370
     9
100
AcDbLine
 10
-568.7102446684967
 20
47.29373396182723
 30
0.0
 11
-568.7102446684967
 21
280.6271360284447
 31
0.0
  0
LINE
  5
1E8
330
1F
100
AcDbEntity
  8
0-4
  6
Continuous
 62
     7
370
     9
100
AcDbLine
 10
-385.000280431799
 20
47.29373396182723
 30
0.0
 11
-571.710205078125
 21
47.29373396182723
 31
0.0
  0
LINE
  5
1E9
330
1F
100
AcDbEntity
  8
0-4
  6
Continuous
 62
     7
370
     9
100
AcDbLine
 10
-310.2984454180742
 20
280.6271360284447
 30
0.0
 11
-571.710205078125
 21
280.6271360284447
 31
0.0
  0
LINE
  5
1EA
330
1F
100
AcDbEntity
  8
0-4
  6
Continuous
 62
     7
370
     9
100
AcDbLine
 10
-568.7102446684967
 20
47.29373396182723
 30
0.0
 11
-571.9733573294974
 21
72.07990471510016
 31
0.0
  0
LINE
  5
1EB
330
1F
100
AcDbEntity
  8
0-4
  6
Continuous
 62
     7
370
     9
100
AcDbLine
 10
-568.7102446684967
 20
47.29373396182723
 30
0.0
 11
-565.4471320074956
 21
72.07990471510016
 31
0.0
  0
LINE
  5
1EC
330
1F
100
AcDbEntity
  8
0-4
  6
Continuous
 62
     7
370
     9
100
AcDbLine
 10
-568.7102446684967
 20
280.6271360284447
 30
0.0
 11
-571.9733573294974
 21
255.840965275172
 31
0.0
  0
LINE
  5
1ED
330
1F
100
AcDbEntity
  8
0-4
  6
Continuous
 62
     7
370
     9
100
AcDbLine
 10
-568.7102446684967
 20
280.6271360284447
 30
0.0
 11
-565.4471320074956
 21
255.840965275172
 31
0.0
  0
ARC
  5
1EE
330
1F
100
AcDbEntity
  8
0-0
  6
Continuous
 62
     3
370
     9
100
AcDbCircle
 10
-449.0171690244932
 20
-3.393571385512075
 30
0.0
 40
36.66666907233162
100
AcDbArc
 50
74.99996948242188
 51
121.7900543212891
  0
ARC
  5
1EF
330
1F
100
AcDbEntity
  8
0-0
  6
Continuous
 62
     3
370
     9
100
AcDbCircle
 10
-426.7791335647169
 20
44.56843175532384
 30
0.0
 40
5.416716272766527
100
AcDbArc
 50
187.620590209961
 51
322.3796997070312
  0
ARC
  5
1F0
330
1F
100
AcDbEntity
  8
0-0
  6
Continuous
 62
     3
370
     9
100
AcDbCircle
 10
-407.4605168523016
 20
39.39174322597438
 30
0.0
 40
5.416716272766527
100
AcDbArc
 50
187.620590209961
 51
322.3796997070312
  0
ARC
  5
1F1
330
1F
100
AcDbEntity
  8
0-0
  6
Continuous
 62
     3
370
     9
100
AcDbCircle
 10
-396.3632119668495
 20
30.81053017698792
 30
0.0
 40
3.33333385957254
100
AcDbArc
 50
11.56538391113281
 51
75.00050354003908
  0
ARC
  5
1F2
330
1F
100
AcDbEntity
  8
0-0
  6
Continuous
 62
     3
370
     9
100
AcDbCircle
 10
-388.4168057828336
 20
25.2302672969202
 30
0.0
 40
3.33333385957254
100
AcDbArc
 50
191.5664215087891
 51
255.000503540039
  0
ARC
  5
1F3
330
1F
100
AcDbEntity
  8
0-0
  6
Continuous
 62
     3
370
     9
100
AcDbCircle
 10
-369.8583242055531
 20
20.25771662124441
 30
0.0
 40
3.33333385957254
100
AcDbArc
 50
255.0005035400391
 51
318.435775756836
  0
ARC
  5
1F4
330
1F
100
AcDbEntity
  8
0-0
  6
Continuous
 62
     3
370
     9
100
AcDbCircle
 10
-360.186025258657
 20
21.11707512525641
 30
0.0
 40
3.33333385957254
100
AcDbArc
 50
75.00077819824219
 51
138.4349822998047
  0
ARC
  5
1F5
330
1F
100
AcDbEntity
  8
0-0
  6
Continuous
 62
     3
370
     9
100
AcDbCircle
 10
-398.4006314664273
 20
15.82755403678505
 30
0.0
 40
5.000000064437454
100
AcDbArc
 50
191.5660095214844
 51
254.9999084472656
  0
ARC
  5
1F6
330
1F
100
AcDbEntity
  8
0-0
  6
JWW_DASHED1
 62
     3
370
     9
100
AcDbCircle
 10
-365.9130199535471
 20
7.122373636658494
 30
0.0
 40
5.000000064437454
100
AcDbArc
 50
254.9999084472656
 51
318.4350433349609
  0
ARC
  5
1F7
330
1F
100
AcDbEntity
  8
0-0
  6
JWW_DASHED1
 62
     3
370
     9
100
AcDbCircle
 10
-354.5500884184966
 20
2.352228735898336
 30
0.0
 40
6.66666771914508
100
AcDbArc
 50
75.00050354003906
 51
138.4350738525391
  0
ARC
  5
1F8
330
1F
100
AcDbEntity
  8
0-0
  6
Continuous
 62
     3
370
     9
100
AcDbCircle
 10
-410.626509382918
 20
17.37776452559416
 30
0.0
 40
6.66666771914508
100
AcDbArc
 50
11.56517028808594
 51
75.00050354003908
  0
ARC
  5
1F9
330
1F
100
AcDbEntity
  8
0-0
  6
Continuous
 62
     3
370
     9
100
AcDbCircle
 10
-346.2851034628378
 20
23.00009217550979
 30
0.0
 40
5.416716272766527
100
AcDbArc
 50
187.6191101074219
 51
322.3802185058594
  0
ARC
  5
1FA
330
1F
100
AcDbEntity
  8
0-0
  6
Continuous
 62
     3
370
     9
100
AcDbCircle
 10
-389.2347181165539
 20
1.29318629501995
 30
0.0
 40
6.66666771914508
100
AcDbArc
 50
9.074417114257812
 51
75.00050354003908
  0
ARC
  5
1FB
330
1F
100
AcDbEntity
  8
0-0
  6
Continuous
 62
     3
370
     9
100
AcDbCircle
 10
-322.2673570787583
 20
-32.22748647736182
 30
0.0
 40
3.33333385957254
100
AcDbArc
 50
90.0
 51
168.6900634765625
  0
ARC
  5
1FC
330
1F
100
AcDbEntity
  8
0-0
  6
JWW_DASHED1
 62
     3
370
     9
100
AcDbCircle
 10
-319.101859427787
 20
-22.22770092520818
 30
0.0
 40
6.66666771914508
100
AcDbArc
 50
186.9999847412109
 51
270.0
  0
ARC
  5
1FD
330
1F
100
AcDbEntity
  8
0-0
  6
JWW_DASHED1
 62
     3
370
     9
100
AcDbCircle
 10
-337.9416800834036
 20
-5.548772240664164
 30
0.0
 40
10.00000012887491
100
AcDbArc
 50
7.000076293945313
 51
75.00050354003908
  0
ARC
  5
1FE
330
1F
100
AcDbEntity
  8
0-0
  6
Continuous
 62
     3
370
     9
100
AcDbCircle
 10
-332.4323087125211
 20
-40.56101226389046
 30
0.0
 40
5.000000064437454
100
AcDbArc
 50
270.0
 51
348.6897888183594
  0
ARC
  5
1FF
330
1F
100
AcDbEntity
  8
0-0
  6
JWW_DASHED1
 62
     3
370
     9
100
AcDbCircle
 10
-304.8801319019213
 20
-1.297013768324575
 30
0.0
 40
10.00000012887491
100
AcDbArc
 50
187.0000762939453
 51
266.0001678466797
  0
ARC
  5
200
330
1F
100
AcDbEntity
  8
0-0
  6
Continuous
 62
     3
370
     9
100
AcDbCircle
 10
-265.9778904270482
 20
-38.89425761862043
 30
0.0
 40
10.00000012887491
100
AcDbArc
 50
4.085464477539063
 51
90.00000000000001
  0
ARC
  5
201
330
1F
100
AcDbEntity
  8
0-0
  6
Continuous
 62
     3
370
     9
100
AcDbCircle
 10
-272.1246667810388
 20
4.438888760180362
 30
0.0
 40
5.000000064437454
100
AcDbArc
 50
15.659423828125
 51
90.0
  0
ARC
  5
202
330
1F
100
AcDbEntity
  8
0-0
  6
Continuous
 62
     3
370
     9
100
AcDbCircle
 10
-325.8037670238596
 20
5.002309236320457
 30
0.0
 40
10.00000012887491
100
AcDbArc
 50
26.33775329589844
 51
75.00059509277345
  0
ARC
  5
203
330
1F
100
AcDbEntity
  8
0-0
  6
JWW_DASHED1
 62
     3
370
     9
100
AcDbCircle
 10
-325.8037670238596
 20
5.002309236320457
 30
0.0
 40
10.00000012887491
100
AcDbArc
 50
7.000076293945313
 51
26.33775329589844
  0
ARC
  5
204
330
1F
100
AcDbEntity
  8
0-0
  6
Continuous
 62
     3
370
     9
100
AcDbCircle
 10
-266.0828049118453
 20
-37.42471251199021
 30
0.0
 40
23.33333363404145
100
AcDbArc
 50
4.085601806640625
 51
78.96446228027344
  0
ARC
  5
205
330
1F
100
AcDbEntity
  8
0-0
  6
JWW_DASHED1
 62
     3
370
     9
100
AcDbCircle
 10
-266.0828049118453
 20
-37.42471251199021
 30
0.0
 40
23.33333363404145
100
AcDbArc
 50
78.96446228027344
 51
85.99998474121094
  0
ARC
  5
206
330
1F
100
AcDbEntity
  8
0-0
  6
Continuous
 62
     3
370
     9
100
AcDbCircle
 10
159.0172020164698
 20
-3.393571385512075
 30
0.0
 40
36.66666907233162
100
AcDbArc
 50
58.20994567871099
 51
105.0000305175782
  0
ARC
  5
207
330
1F
100
AcDbEntity
  8
0-0
  6
Continuous
 62
     3
370
     9
100
AcDbCircle
 10
136.779290276605
 20
44.56843175532384
 30
0.0
 40
5.416716272766527
100
AcDbArc
 50
217.6203002929688
 51
352.3794097900391
  0
ARC
  5
208
330
1F
100
AcDbEntity
  8
0-0
  6
Continuous
 62
     3
370
     9
100
AcDbCircle
 10
117.460178684544
 20
39.39174322597438
 30
0.0
 40
5.416716272766527
100
AcDbArc
 50
217.6203002929688
 51
352.3794097900391
  0
ARC
  5
209
330
1F
100
AcDbEntity
  8
0-0
  6
Continuous
 62
     3
370
     9
100
AcDbCircle
 10
106.3634923986487
 20
30.81053017698792
 30
0.0
 40
3.33333385957254
100
AcDbArc
 50
104.999496459961
 51
168.4346160888672
  0
ARC
  5
20A
330
1F
100
AcDbEntity
  8
0-0
  6
Continuous
 62
     3
370
     9
100
AcDbCircle
 10
98.4167150548987
 20
25.2302672969202
 30
0.0
 40
3.33333385957254
100
AcDbArc
 50
284.9994964599609
 51
348.433578491211
  0
ARC
  5
20B
330
1F
100
AcDbEntity
  8
0-0
  6
Continuous
 62
     3
370
     9
100
AcDbCircle
 10
79.85823347761823
 20
20.25771662124441
 30
0.0
 40
3.33333385957254
100
AcDbArc
 50
221.5642242431641
 51
284.9994964599609
  0
ARC
  5
20C
330
1F
100
AcDbEntity
  8
0-0
  6
Continuous
 62
     3
370
     9
100
AcDbCircle
 10
70.18630569045627
 20
21.11707512525641
 30
0.0
 40
3.33333385957254
100
AcDbArc
 50
41.56501770019532
 51
104.9992218017578
  0
ARC
  5
20D
330
1F
100
AcDbEntity
  8
0-0
  6
Continuous
 62
     3
370
     9
100
AcDbCircle
 10
108.4009118982266
 20
15.82755403678505
 30
0.0
 40
5.000000064437454
100
AcDbArc
 50
285.0000915527344
 51
348.4339904785156
  0
ARC
  5
20E
330
1F
100
AcDbEntity
  8
0-0
  6
Continuous
 62
     3
370
     9
100
AcDbCircle
 10
75.9130529455237
 20
7.122373636658494
 30
0.0
 40
5.000000064437454
100
AcDbArc
 50
221.5649566650391
 51
285.0000915527344
  0
ARC
  5
20F
330
1F
100
AcDbEntity
  8
0-0
  6
Continuous
 62
     3
370
     9
100
AcDbCircle
 10
64.54962653082788
 20
2.352228735898336
 30
0.0
 40
6.66666771914508
100
AcDbArc
 50
41.56492614746092
 51
104.9994964599609
  0
ARC
  5
210
330
1F
100
AcDbEntity
  8
0-0
  6
Continuous
 62
     3
370
     9
100
AcDbCircle
 10
120.6264186549834
 20
17.37776452559416
 30
0.0
 40
6.66666771914508
100
AcDbArc
 50
104.999496459961
 51
168.4348297119141
  0
ARC
  5
211
330
1F
100
AcDbEntity
  8
0-0
  6
Continuous
 62
     3
370
     9
100
AcDbCircle
 10
56.28464157516902
 20
23.00009217550979
 30
0.0
 40
5.416716272766527
100
AcDbArc
 50
217.6197814941406
 51
352.3808898925781
  0
ARC
  5
212
330
1F
100
AcDbEntity
  8
0-0
  6
Continuous
 62
     3
370
     9
100
AcDbCircle
 10
29.10139754011823
 20
-22.22770092520818
 30
0.0
 40
6.66666771914508
100
AcDbArc
 50
270.0
 51
353.0000152587891
  0
ARC
  5
213
330
1F
100
AcDbEntity
  8
0-0
  6
Continuous
 62
     3
370
     9
100
AcDbCircle
 10
47.94146563555756
 20
-5.548772240664164
 30
0.0
 40
10.00000012887491
100
AcDbArc
 50
104.999496459961
 51
172.9999237060547
  0
ARC
  5
214
330
1F
100
AcDbEntity
  8
0-0
  6
Continuous
 62
     3
370
     9
100
AcDbCircle
 10
14.88004117398674
 20
-1.297013768324575
 30
0.0
 40
10.00000012887491
100
AcDbArc
 50
273.9998321533204
 51
352.9999237060547
  0
ARC
  5
215
330
1F
100
AcDbEntity
  8
0-0
  6
Continuous
 62
     3
370
     9
100
AcDbCircle
 10
-24.02195286106405
 20
-38.89425761862043
 30
0.0
 40
10.00000012887491
100
AcDbArc
 50
90.0
 51
175.914535522461
  0
ARC
  5
216
330
1F
100
AcDbEntity
  8
0-0
  6
Continuous
 62
     3
370
     9
100
AcDbCircle
 10
35.80355257601354
 20
5.002309236320457
 30
0.0
 40
10.00000012887491
100
AcDbArc
 50
104.9994049072266
 51
173.000717163086
  0
ARC
  5
217
330
1F
100
AcDbEntity
  8
0-0
  6
Continuous
 62
     3
370
     9
100
AcDbCircle
 10
-144.9999835040117
 20
778.596191204226
 30
0.0
 40
326.6665896853885
100
AcDbArc
 50
0.0
 51
180.0
  0
ARC
  5
218
330
1F
100
AcDbEntity
  8
0-0
  6
Continuous
 62
     3
370
     9
100
AcDbCircle
 10
-144.9999835040117
 20
778.596191204226
 30
0.0
 40
330.0000989759291
100
AcDbArc
 50
0.0
 51
180.0
  0
ARC
  5
219
330
1F
100
AcDbEntity
  8
0-0
  6
Continuous
 62
     3
370
     9
100
AcDbCircle
 10
-144.9999835040117
 20
778.596191204226
 30
0.0
 40
333.333360826647
100
AcDbArc
 50
0.0
 51
180.0
  0
ARC
  5
21A
330
1F
100
AcDbEntity
  8
0-0
  6
Continuous
 62
     3
370
     9
100
AcDbCircle
 10
-23.91753325591196
 20
-37.42471251199021
 30
0.0
 40
23.33333363404145
100
AcDbArc
 50
94.00001525878905
 51
175.9143981933594
  0
ARC
  5
21B
330
1F
100
AcDbEntity
  8
0-1
  6
Continuous
 62
     2
370
     9
100
AcDbCircle
 10
-369.2204243427997
 20
45.96869371161603
 30
0.0
 40
6.66666771914508
100
AcDbArc
 50
190.6148834228516
 51
255.000503540039
  0
ARC
  5
21C
330
1F
100
AcDbEntity
  8
0-1
  6
JWW_DASHED1
 62
     2
370
     9
100
AcDbCircle
 10
79.22033361486513
 20
45.96869371161603
 30
0.0
 40
6.66666771914508
100
AcDbArc
 50
284.9994964599609
 51
349.3851165771484
  0
ARC
  5
21D
330
1F
100
AcDbEntity
  8
0-1
  6
Continuous
 62
     2
370
     9
100
AcDbCircle
 10
-252.4324159364443
 20
23.960158687334
 30
0.0
 40
5.000000064437454
100
AcDbArc
 50
11.31021118164062
 51
90.00000000000001
  0
ARC
  5
21E
330
1F
100
AcDbEntity
  8
0-1
  6
Continuous
 62
     2
370
     9
100
AcDbCircle
 10
47.52230257601354
 20
42.29371746583922
 30
0.0
 40
5.000000064437454
100
AcDbArc
 50
90.0
 51
169.91162109375
  0
ARC
  5
21F
330
1F
100
AcDbEntity
  8
0-1
  6
Continuous
 62
     2
370
     9
100
AcDbCircle
 10
34.17886270059142
 20
33.90006380241005
 30
0.0
 40
6.66666771914508
100
AcDbArc
 50
284.9994964599609
 51
349.9115142822266
  0
ARC
  5
220
330
1F
100
AcDbEntity
  8
0-1
  6
Continuous
 62
     2
370
     9
100
AcDbCircle
 10
82.10152290962839
 20
52.29375045781552
 30
0.0
 40
5.000000064437454
100
AcDbArc
 50
270.0
 51
349.3838348388672
  0
ARC
  5
221
330
1F
100
AcDbEntity
  8
0-1
  6
Continuous
 62
     2
370
     9
100
AcDbCircle
 10
111.5280563766893
 20
58.07641911279859
 30
0.0
 40
10.00000012887491
100
AcDbArc
 50
188.7071380615234
 51
285.0002746582031
  0
ARC
  5
222
330
1F
100
AcDbEntity
  8
0-1
  6
Continuous
 62
     2
370
     9
100
AcDbCircle
 10
-401.5282708245354
 20
58.07641911279859
 30
0.0
 40
10.00000012887491
100
AcDbArc
 50
254.9997253417969
 51
351.2928619384766
  0
ARC
  5
223
330
1F
100
AcDbEntity
  8
0-1
  6
Continuous
 62
     2
370
     9
100
AcDbCircle
 10
-307.0787584459458
 20
41.29282338328011
 30
0.0
 40
9.333911457577267
100
AcDbArc
 50
47.92556762695313
 51
132.0746307373047
  0
ARC
  5
224
330
1F
100
AcDbEntity
  8
0-1
  6
Continuous
 62
     2
370
     9
100
AcDbCircle
 10
-288.3335835224872
 20
16.9954699996228
 30
0.0
 40
33.63136729678592
100
AcDbArc
 50
68.19786071777344
 51
111.8021392822266
  0
ARC
  5
225
330
1F
100
AcDbEntity
  8
0-1
  6
Continuous
 62
     2
370
     9
100
AcDbCircle
 10
-269.588161159206
 20
41.29282338328011
 30
0.0
 40
9.33396558503847
100
AcDbArc
 50
47.92572021484374
 51
132.0742797851562
  0
ARC
  5
226
330
1F
100
AcDbEntity
  8
0-1
  6
Continuous
 62
     2
370
     9
100
AcDbCircle
 10
-144.9999835040117
 20
778.596191204226
 30
0.0
 40
300.0
100
AcDbArc
 50
0.0
 51
180.0
  0
ARC
  5
227
330
1F
100
AcDbEntity
  8
0-1
  6
Continuous
 62
     2
370
     9
100
AcDbCircle
 10
-144.9999835040117
 20
778.596191204226
 30
0.0
 40
279.8034977268528
100
AcDbArc
 50
0.0
 51
180.0
  0
ARC
  5
228
330
1F
100
AcDbEntity
  8
0-1
  6
Continuous
 62
     2
370
     9
100
AcDbCircle
 10
-144.9999835040117
 20
778.596191204226
 30
0.0
 40
298.3333381446632
100
AcDbArc
 50
0.0
 51
180.0
  0
ARC
  5
229
330
1F
100
AcDbEntity
  8
0-1
  6
Continuous
 62
     2
370
     9
100
AcDbCircle
 10
-144.9999835040117
 20
778.596191204226
 30
0.0
 40
244.9999731940192
100
AcDbArc
 50
139.291488647461
 51
160.7085418701172
  0
ARC
  5
22A
330
1F
100
AcDbEntity
  8
0-1
  6
Continuous
 62
     2
370
     9
100
AcDbCircle
 10
-144.9999835040117
 20
778.596191204226
 30
0.0
 40
248.3333587646484
100
AcDbArc
 50
138.0777740478516
 51
161.9222412109375
  0
ARC
  5
22B
330
1F
100
AcDbEntity
  8
0-1
  6
Continuous
 62
     2
370
     9
100
AcDbCircle
 10
-144.9999835040117
 20
778.596191204226
 30
0.0
 40
234.9999711320207
100
AcDbArc
 50
139.4744873046875
 51
160.5255737304688
  0
ARC
  5
22C
330
1F
100
AcDbEntity
  8
0-1
  6
Continuous
 62
     2
370
     9
100
AcDbCircle
 10
-144.9999835040117
 20
778.596191204226
 30
0.0
 40
229.9999701010215
100
AcDbArc
 50
138.3233795166016
 51
161.6766510009766
  0
ARC
  5
22D
330
1F
100
AcDbEntity
  8
0-1
  6
Continuous
 62
     2
370
     9
100
AcDbCircle
 10
-144.9999835040117
 20
778.596191204226
 30
0.0
 40
244.9999731940192
100
AcDbArc
 50
109.29150390625
 51
130.7085571289063
  0
ARC
  5
22E
330
1F
100
AcDbEntity
  8
0-1
  6
Continuous
 62
     2
370
     9
100
AcDbCircle
 10
-144.9999835040117
 20
778.596191204226
 30
0.0
 40
248.3333587646484
100
AcDbArc
 50
108.0777893066406
 51
131.9222564697266
  0
ARC
  5
22F
330
1F
100
AcDbEntity
  8
0-1
  6
Continuous
 62
     2
370
     9
100
AcDbCircle
 10
-144.9999835040117
 20
778.596191204226
 30
0.0
 40
234.9999711320207
100
AcDbArc
 50
109.4744720458984
 51
130.5255584716797
  0
ARC
  5
230
330
1F
100
AcDbEntity
  8
0-1
  6
Continuous
 62
     2
370
     9
100
AcDbCircle
 10
-144.9999835040117
 20
778.596191204226
 30
0.0
 40
229.9999701010215
100
AcDbArc
 50
108.3233795166015
 51
131.6766510009766
  0
ARC
  5
231
330
1F
100
AcDbEntity
  8
0-1
  6
Continuous
 62
     2
370
     9
100
AcDbCircle
 10
-144.9999835040117
 20
778.596191204226
 30
0.0
 40
244.9999731940192
100
AcDbArc
 50
79.29148864746097
 51
100.7085418701172
  0
ARC
  5
232
330
1F
100
AcDbEntity
  8
0-1
  6
Continuous
 62
     2
370
     9
100
AcDbCircle
 10
-144.9999835040117
 20
778.596191204226
 30
0.0
 40
248.3333587646484
100
AcDbArc
 50
78.07777404785158
 51
101.9222412109375
  0
ARC
  5
233
330
1F
100
AcDbEntity
  8
0-1
  6
Continuous
 62
     2
370
     9
100
AcDbCircle
 10
-144.9999835040117
 20
778.596191204226
 30
0.0
 40
234.9999711320207
100
AcDbArc
 50
79.47448730468751
 51
100.5255737304688
  0
ARC
  5
234
330
1F
100
AcDbEntity
  8
0-1
  6
Continuous
 62
     2
370
     9
100
AcDbCircle
 10
-144.9999835040117
 20
778.596191204226
 30
0.0
 40
244.9999731940192
100
AcDbArc
 50
49.29148864746095
 51
70.7085418701172
  0
ARC
  5
235
330
1F
100
AcDbEntity
  8
0-1
  6
Continuous
 62
     2
370
     9
100
AcDbCircle
 10
-144.9999835040117
 20
778.596191204226
 30
0.0
 40
248.3333587646484
100
AcDbArc
 50
48.07777404785156
 51
71.9222412109375
  0
ARC
  5
236
330
1F
100
AcDbEntity
  8
0-1
  6
Continuous
 62
     2
370
     9
100
AcDbCircle
 10
-144.9999835040117
 20
778.596191204226
 30
0.0
 40
234.9999711320207
100
AcDbArc
 50
49.4744873046875
 51
70.52557373046875
  0
ARC
  5
237
330
1F
100
AcDbEntity
  8
0-1
  6
Continuous
 62
     2
370
     9
100
AcDbCircle
 10
-144.9999835040117
 20
778.596191204226
 30
0.0
 40
229.9999701010215
100
AcDbArc
 50
48.32337951660157
 51
71.67665100097656
  0
ARC
  5
238
330
1F
100
AcDbEntity
  8
0-1
  6
Continuous
 62
     2
370
     9
100
AcDbCircle
 10
-144.9999835040117
 20
778.596191204226
 30
0.0
 40
244.9999731940192
100
AcDbArc
 50
19.29147338867189
 51
40.70852661132814
  0
ARC
  5
239
330
1F
100
AcDbEntity
  8
0-1
  6
Continuous
 62
     2
370
     9
100
AcDbCircle
 10
-144.9999835040117
 20
778.596191204226
 30
0.0
 40
248.3333587646484
100
AcDbArc
 50
18.07777404785154
 51
41.92224121093749
  0
ARC
  5
23A
330
1F
100
AcDbEntity
  8
0-1
  6
Continuous
 62
     2
370
     9
100
AcDbCircle
 10
-144.9999835040117
 20
778.596191204226
 30
0.0
 40
234.9999711320207
100
AcDbArc
 50
19.47448730468749
 51
40.52557373046874
  0
ARC
  5
23B
330
1F
100
AcDbEntity
  8
0-1
  6
Continuous
 62
     2
370
     9
100
AcDbCircle
 10
-144.9999835040117
 20
778.596191204226
 30
0.0
 40
229.9999701010215
100
AcDbArc
 50
18.32337951660155
 51
41.67665100097655
  0
ARC
  5
23C
330
1F
100
AcDbEntity
  8
0-1
  6
Continuous
 62
     2
370
     9
100
AcDbCircle
 10
-144.9999835040117
 20
778.596191204226
 30
0.0
 40
234.9999711320207
100
AcDbArc
 50
0.0000152587890715
 51
10.52558898925782
  0
ARC
  5
23D
330
1F
100
AcDbEntity
  8
0-1
  6
Continuous
 62
     2
370
     9
100
AcDbCircle
 10
-144.9999835040117
 20
778.596191204226
 30
0.0
 40
244.9999731940192
100
AcDbArc
 50
359.9999847412109
 51
10.70852661132812
  0
ARC
  5
23E
330
1F
100
AcDbEntity
  8
0-1
  6
Continuous
 62
     2
370
     9
100
AcDbCircle
 10
-144.9999835040117
 20
778.596191204226
 30
0.0
 40
248.3333587646484
100
AcDbArc
 50
359.9999847412109
 51
11.92222595214843
  0
ARC
  5
23F
330
1F
100
AcDbEntity
  8
0-1
  6
Continuous
 62
     2
370
     9
100
AcDbCircle
 10
-144.9999835040117
 20
778.596191204226
 30
0.0
 40
229.9999701010215
100
AcDbArc
 50
8.583679199218768
 51
11.67665100097658
  0
ARC
  5
240
330
1F
100
AcDbEntity
  8
0-1
  6
Continuous
 62
     2
370
     9
100
AcDbCircle
 10
-144.9999835040117
 20
778.596191204226
 30
0.0
 40
231.2515825838656
100
AcDbArc
 50
0.0
 51
7.676528930664062
  0
ARC
  5
241
330
1F
100
AcDbEntity
  8
0-1
  6
Continuous
 62
     2
370
     9
100
AcDbCircle
 10
-144.9999835040117
 20
778.596191204226
 30
0.0
 40
234.9999711320207
100
AcDbArc
 50
169.4744110107422
 51
179.999984741211
  0
ARC
  5
242
330
1F
100
AcDbEntity
  8
0-1
  6
Continuous
 62
     2
370
     9
100
AcDbCircle
 10
-144.9999835040117
 20
778.596191204226
 30
0.0
 40
244.9999731940192
100
AcDbArc
 50
169.2914428710938
 51
179.999984741211
  0
ARC
  5
243
330
1F
100
AcDbEntity
  8
0-1
  6
Continuous
 62
     2
370
     9
100
AcDbCircle
 10
-144.9999835040117
 20
778.596191204226
 30
0.0
 40
248.3333587646484
100
AcDbArc
 50
168.0777740478516
 51
180.0000152587891
  0
ARC
  5
244
330
1F
100
AcDbEntity
  8
0-1
  6
Continuous
 62
     2
370
     9
100
AcDbCircle
 10
-144.9999835040117
 20
778.596191204226
 30
0.0
 40
229.9999701010215
100
AcDbArc
 50
168.3233489990234
 51
171.4163208007812
  0
ARC
  5
245
330
1F
100
AcDbEntity
  8
0-1
  6
Continuous
 62
     2
370
     9
100
AcDbCircle
 10
-144.9999835040117
 20
778.596191204226
 30
0.0
 40
231.2515825838656
100
AcDbArc
 50
172.3234710693359
 51
180.0
  0
ARC
  5
246
330
1F
100
AcDbEntity
  8
0-1
  6
Continuous
 62
     2
370
     9
100
AcDbCircle
 10
-144.9999835040117
 20
778.596191204226
 30
0.0
 40
229.9999701010215
100
AcDbArc
 50
95.13784790039062
 51
101.6766662597656
  0
ARC
  5
247
330
1F
100
AcDbEntity
  8
0-1
  6
Continuous
 62
     2
370
     9
100
AcDbCircle
 10
-144.9999835040117
 20
778.596191204226
 30
0.0
 40
229.9999701010215
100
AcDbArc
 50
78.32339477539062
 51
84.8621826171875
  0
ARC
  5
248
330
1F
100
AcDbEntity
  8
0-1
  6
Continuous
 62
     2
370
     9
100
AcDbCircle
 10
-144.9999835040117
 20
778.596191204226
 30
0.0
 40
231.2515825838656
100
AcDbArc
 50
86.596435546875
 51
93.403564453125
  0
ARC
  5
249
330
1F
100
AcDbEntity
  8
0-1
  6
Continuous
 62
     2
370
     9
100
AcDbCircle
 10
4.181238122888544
 20
20.62689683661603
 30
0.0
 40
3.33333385957254
100
AcDbArc
 50
90.0
 51
164.0540161132812
  0
ARC
  5
24A
330
1F
100
AcDbEntity
  8
0-1
  6
Continuous
 62
     2
370
     9
100
AcDbCircle
 10
-365.8317359718114
 20
811.9295520308731
 30
0.0
 40
6.66666771914508
100
AcDbArc
 50
171.4168090820312
 51
213.3877868652344
  0
ARC
  5
24B
330
1F
100
AcDbEntity
  8
0-1
  6
Continuous
 62
     2
370
     9
100
AcDbCircle
 10
-367.5722276842271
 20
808.5962901801552
 30
0.0
 40
6.66666771914508
100
AcDbArc
 50
172.3234252929688
 51
228.8124694824219
  0
ARC
  5
24C
330
1F
100
AcDbEntity
  8
0-1
  6
Continuous
 62
     2
370
     9
100
AcDbCircle
 10
75.83139780405418
 20
811.9295520308731
 30
0.0
 40
6.66666771914508
100
AcDbArc
 50
326.6130981445313
 51
8.583190917968803
  0
ARC
  5
24D
330
1F
100
AcDbEntity
  8
0-1
  6
Continuous
 62
     2
370
     9
100
AcDbCircle
 10
77.57238439611513
 20
808.5962901801552
 30
0.0
 40
6.66666771914508
100
AcDbArc
 50
311.1860198974611
 51
7.67657470703129
  0
ARC
  5
24E
330
1F
100
AcDbEntity
  8
0-1
  6
Continuous
 62
     2
370
     9
100
AcDbCircle
 10
-165.0000494879643
 20
1001.032219762081
 30
0.0
 40
6.66666771914508
100
AcDbArc
 50
53.16412353515626
 51
95.13787841796876
  0
ARC
  5
24F
330
1F
100
AcDbEntity
  8
0-1
  6
Continuous
 62
     2
370
     9
100
AcDbCircle
 10
-158.333278346706
 20
1002.785083465628
 30
0.0
 40
6.66666771914508
100
AcDbArc
 50
36.91754150390626
 51
93.4033660888672
  0
ARC
  5
250
330
1F
100
AcDbEntity
  8
0-1
  6
Continuous
 62
     2
370
     9
100
AcDbCircle
 10
-131.6666886613174
 20
1002.785083465628
 30
0.0
 40
6.66666771914508
100
AcDbArc
 50
86.59663391113284
 51
143.0824584960938
  0
ARC
  5
251
330
1F
100
AcDbEntity
  8
0-1
  6
Continuous
 62
     2
370
     9
100
AcDbCircle
 10
-125.0000412399703
 20
1001.032219762081
 30
0.0
 40
6.66666771914508
100
AcDbArc
 50
84.86212158203125
 51
126.8358764648438
  0
ARC
  5
252
330
1F
100
AcDbEntity
  8
0-5
  6
Continuous
 62
     2
370
     9
100
AcDbCircle
 10
-471.0961006783148
 20
-220.560863799997
 30
0.0
 40
5.000000064437454
100
AcDbArc
 50
194.0364074707031
 51
270.0
  0
ARC
  5
253
330
1F
100
AcDbEntity
  8
0-5
  6
Continuous
 62
     2
370
     9
100
AcDbCircle
 10
-425.9810164168073
 20
-230.5608967919734
 30
0.0
 40
5.000000064437454
100
AcDbArc
 50
14.03511047363282
 51
90.0
  0
ARC
  5
254
330
1F
100
AcDbEntity
  8
0-5
  6
Continuous
 62
     2
370
     9
100
AcDbCircle
 10
-414.8397909628378
 20
-233.8944060825139
 30
0.0
 40
5.000000064437454
100
AcDbArc
 50
194.0364074707031
 51
270.0
  0
ARC
  5
255
330
1F
100
AcDbEntity
  8
0-5
  6
Continuous
 62
     2
370
     9
100
AcDbCircle
 10
-415.5706044789906
 20
-217.2276019492791
 30
0.0
 40
5.000000064437454
100
AcDbArc
 50
14.03640747070312
 51
90.0
  0
ARC
  5
256
330
1F
100
AcDbEntity
  8
0-5
  6
Continuous
 62
     2
370
     9
100
AcDbCircle
 10
-404.4293790250211
 20
-220.560863799997
 30
0.0
 40
5.000000064437454
100
AcDbArc
 50
194.0364074707031
 51
270.0
  0
ARC
  5
257
330
1F
100
AcDbEntity
  8
0-5
  6
Continuous
 62
     2
370
     9
100
AcDbCircle
 10
10.5706292229732
 20
-233.8944060825139
 30
0.0
 40
5.000000064437454
100
AcDbArc
 50
194.0352783203125
 51
270.0
  0
ARC
  5
258
330
1F
100
AcDbEntity
  8
0-5
  6
Continuous
 62
     2
370
     9
100
AcDbCircle
 10
181.0962573902029
 20
-220.560863799997
 30
0.0
 40
5.000000064437454
100
AcDbArc
 50
270.0
 51
345.9650573730469
  0
ARC
  5
259
330
1F
100
AcDbEntity
  8
0-5
  6
Continuous
 62
     2
370
     9
100
AcDbCircle
 10
135.9810494087839
 20
-230.5608967919734
 30
0.0
 40
5.000000064437454
100
AcDbArc
 50
90.0
 51
165.9650573730469
  0
ARC
  5
25A
330
1F
100
AcDbEntity
  8
0-5
  6
Continuous
 62
     2
370
     9
100
AcDbCircle
 10
124.8398239548143
 20
-233.8944060825139
 30
0.0
 40
5.000000064437454
100
AcDbArc
 50
270.0
 51
345.9650573730469
  0
ARC
  5
25B
330
1F
100
AcDbEntity
  8
0-5
  6
Continuous
 62
     2
370
     9
100
AcDbCircle
 10
114.4295357369089
 20
-220.560863799997
 30
0.0
 40
5.000000064437454
100
AcDbArc
 50
270.0
 51
345.9650573730469
  0
ARC
  5
25C
330
1F
100
AcDbEntity
  8
0-5
  6
Continuous
 62
     2
370
     9
100
AcDbCircle
 10
125.5707611908784
 20
-217.2276019492791
 30
0.0
 40
5.000000064437454
100
AcDbArc
 50
90.0
 51
165.9650573730469
  0
ARC
  5
25D
330
1F
100
AcDbEntity
  8
0-0
  6
Continuous
 62
     4
370
     9
100
AcDbCircle
 10
-339.5880209433065
 20
-251.2270707784599
 30
0.0
 40
9.333911457577267
100
AcDbArc
 50
227.9255676269531
 51
312.0746307373047
  0
ARC
  5
25E
330
1F
100
AcDbEntity
  8
0-0
  6
Continuous
 62
     4
370
     9
100
AcDbCircle
 10
-358.3333195866763
 20
-226.9294699549802
 30
0.0
 40
33.63136729678592
100
AcDbArc
 50
248.1978607177734
 51
291.8021392822266
  0
ARC
  5
25F
330
1F
100
AcDbEntity
  8
0-0
  6
Continuous
 62
     4
370
     9
100
AcDbCircle
 10
-377.078865669869
 20
-251.2270707784599
 30
0.0
 40
9.33396558503847
100
AcDbArc
 50
227.9257202148438
 51
312.0742797851562
  0
ARC
  5
260
330
1F
100
AcDbEntity
  8
0-5
  6
Continuous
 62
     2
370
     9
100
AcDbCircle
 10
-383.4650400522591
 20
-230.5608967919734
 30
0.0
 40
5.000000064437454
100
AcDbArc
 50
20.55572509765626
 51
90.00000000000001
  0
ARC
  5
261
330
1F
100
AcDbEntity
  8
0-5
  6
Continuous
 62
     2
370
     9
100
AcDbCircle
 10
-333.2015991210938
 20
-230.5608967919734
 30
0.0
 40
5.000000064437454
100
AcDbArc
 50
90.0
 51
159.4445037841797
  0
ARC
  5
262
330
1F
100
AcDbEntity
  8
0-5
  6
Continuous
 62
     2
370
     9
100
AcDbCircle
 10
-300.5704725110851
 20
-233.8944060825139
 30
0.0
 40
5.000000064437454
100
AcDbArc
 50
270.0
 51
345.9647216796875
  0
ARC
  5
263
330
1F
100
AcDbEntity
  8
0-0
  6
Continuous
 62
     3
370
     9
100
AcDbCircle
 10
-370.7352509369721
 20
-40.56101226389046
 30
0.0
 40
5.000000064437454
100
AcDbArc
 50
189.0746765136719
 51
259.2631225585938
  0
ELLIPSE
  5
264
330
1F
100
AcDbEntity
  8
0-2
  6
Continuous
 62
     6
370
     9
100
AcDbEllipse
 10
66.66647421347136
 20
70.6038024531702
 30
0.0
 11
17.4999340160473
 21
0.0
 31
0.0
210
0.0
220
0.0
230
1.0
 40
0.7428
 41
0.0
 42
1.475408288134874
  0
ELLIPSE
  5
265
330
1F
100
AcDbEntity
  8
0-2
  6
Continuous
 62
     6
370
     9
100
AcDbEllipse
 10
66.66647421347136
 20
70.6038024531702
 30
0.0
 11
17.4999340160473
 21
0.0
 31
0.0
210
0.0
220
0.0
230
1.0
 40
0.7428
 41
1.666184365454919
 42
3.141592653589793
  0
ELLIPSE
  5
266
330
1F
100
AcDbEntity
  8
0-2
  6
Continuous
 62
     6
370
     9
100
AcDbEllipse
 10
-314.5406774572422
 20
260.1078175766921
 30
0.0
 11
3.266704057400761
 21
17.19233361610258
 31
0.0
210
0.0
220
0.0
230
0.9999999999999998
 40
0.7428
 41
0.0
 42
1.475408288134874
  0
ELLIPSE
  5
267
330
1F
100
AcDbEntity
  8
0-2
  6
Continuous
 62
     6
370
     9
100
AcDbEllipse
 10
-314.5406774572422
 20
260.1078175766921
 30
0.0
 11
3.266704057400761
 21
17.19233361610258
 31
0.0
210
0.0
220
0.0
230
0.9999999999999998
 40
0.7428
 41
1.666184365454919
 42
3.141592653589793
  0
ARC
  5
268
330
1F
100
AcDbEntity
  8
0-2
  6
Continuous
 62
     6
370
     9
100
AcDbCircle
 10
-330.9477934966216
 20
57.29376695380353
 30
0.0
 40
10.00000012887491
100
AcDbArc
 50
270.0
 51
349.2415618896485
  0
ARC
  5
269
330
1F
100
AcDbEntity
  8
0-2
  6
Continuous
 62
     6
370
     9
100
AcDbCircle
 10
40.94733160895288
 20
57.29376695380353
 30
0.0
 40
10.00000012887491
100
AcDbArc
 50
190.7584381103516
 51
270.0
  0
ARC
  5
26A
330
1F
100
AcDbEntity
  8
0-2
  6
Continuous
 62
     6
370
     9
100
AcDbCircle
 10
-341.3984144056164
 20
73.71981213961448
 30
0.0
 40
6.666666752583272
100
AcDbArc
 50
272.5442352294922
 51
349.2417449951172
  0
ARC
  5
26B
330
1F
100
AcDbEntity
  8
0-2
  6
Continuous
 62
     6
370
     9
100
AcDbCircle
 10
-345.153066274282
 20
53.96025766326318
 30
0.0
 40
6.666666752583272
100
AcDbArc
 50
270.0
 51
349.241943359375
  0
ARC
  5
26C
330
1F
100
AcDbEntity
  8
0-2
  6
Continuous
 62
     6
370
     9
100
AcDbCircle
 10
51.39819995777032
 20
73.71968841970329
 30
0.0
 40
6.666666752583272
100
AcDbArc
 50
190.7582550048828
 51
267.4557342529297
  0
ARC
  5
26D
330
1F
100
AcDbEntity
  8
0-2
  6
Continuous
 62
     6
370
     9
100
AcDbCircle
 10
50.75881545608127
 20
77.08462256771838
 30
0.0
 40
6.666666752583272
100
AcDbArc
 50
190.7577362060547
 51
267.4557342529297
  0
ARC
  5
26E
330
1F
100
AcDbEntity
  8
0-2
  6
Continuous
 62
     6
370
     9
100
AcDbCircle
 10
-144.9999835040117
 20
778.596191204226
 30
0.0
 40
225.0
100
AcDbArc
 50
4.248031616210938
 51
8.519622802734375
  0
ARC
  5
26F
330
1F
100
AcDbEntity
  8
0-2
  6
Continuous
 62
     6
370
     9
100
AcDbCircle
 10
-144.9999835040117
 20
778.596191204226
 30
0.0
 40
225.0
100
AcDbArc
 50
171.4803771972657
 51
175.7519683837891
  0
ARC
  5
270
330
1F
100
AcDbEntity
  8
0-2
  6
Continuous
 62
     6
370
     9
100
AcDbCircle
 10
-144.9999835040117
 20
778.596191204226
 30
0.0
 40
228.3333546406514
100
AcDbArc
 50
3.347625732421875
 51
176.6523590087891
  0
ARC
  5
271
330
1F
100
AcDbEntity
  8
0-2
  6
Continuous
 62
     6
370
     9
100
AcDbCircle
 10
66.66672165329402
 20
778.596191204226
 30
0.0
 40
17.49999974225019
100
AcDbArc
 50
0.0
 51
180.0
  0
ARC
  5
272
330
1F
100
AcDbEntity
  8
0-2
  6
Continuous
 62
     6
370
     9
100
AcDbCircle
 10
-356.6666886613174
 20
778.596191204226
 30
0.0
 40
17.49999974225019
100
AcDbArc
 50
0.0
 51
180.0
  0
ARC
  5
273
330
1F
100
AcDbEntity
  8
0-2
  6
Continuous
 62
     6
370
     9
100
AcDbCircle
 10
-310.2179037558065
 20
803.5960262443441
 30
0.0
 40
6.666666752583272
100
AcDbArc
 50
270.0
 51
351.3954620361328
  0
ARC
  5
274
330
1F
100
AcDbEntity
  8
0-2
  6
Continuous
 62
     6
370
     9
100
AcDbCircle
 10
-307.2084169130068
 20
818.725486759547
 30
0.0
 40
6.666666752583272
100
AcDbArc
 50
346.1040496826172
 51
67.49980163574217
  0
ARC
  5
275
330
1F
100
AcDbEntity
  8
0-2
  6
Continuous
 62
     6
370
     9
100
AcDbCircle
 10
-144.9999835040117
 20
778.596191204226
 30
0.0
 40
160.431939202386
100
AcDbArc
 50
166.1044616699219
 51
171.3955688476563
  0
ARC
  5
276
330
1F
100
AcDbEntity
  8
0-2
  6
Continuous
 62
     6
370
     9
100
AcDbCircle
 10
-288.0743903082768
 20
864.9190374880097
 30
0.0
 40
6.666666752583272
100
AcDbArc
 50
247.5
 51
328.8954620361328
  0
ARC
  5
277
330
1F
100
AcDbEntity
  8
0-2
  6
Continuous
 62
     6
370
     9
100
AcDbCircle
 10
-279.5043120513091
 20
877.7453281341246
 30
0.0
 40
6.666666752583272
100
AcDbArc
 50
323.6040496826172
 51
44.99980163574219
  0
ARC
  5
278
330
1F
100
AcDbEntity
  8
0-2
  6
Continuous
 62
     6
370
     9
100
AcDbCircle
 10
-144.9999835040117
 20
778.596191204226
 30
0.0
 40
160.431939202386
100
AcDbArc
 50
143.6044616699219
 51
148.8955688476563
  0
ARC
  5
279
330
1F
100
AcDbEntity
  8
0-2
  6
Continuous
 62
     6
370
     9
100
AcDbCircle
 10
-244.1491204339104
 20
913.1005197515233
 30
0.0
 40
6.666666752583272
100
AcDbArc
 50
225.0000000000001
 51
306.3954620361329
  0
ARC
  5
27A
330
1F
100
AcDbEntity
  8
0-2
  6
Continuous
 62
     6
370
     9
100
AcDbCircle
 10
-231.3230772276182
 20
921.6703505686687
 30
0.0
 40
6.666666752583272
100
AcDbArc
 50
301.1040496826172
 51
22.49980163574222
  0
ARC
  5
27B
330
1F
100
AcDbEntity
  8
0-2
  6
Continuous
 62
     6
370
     9
100
AcDbCircle
 10
-144.9999835040117
 20
778.596191204226
 30
0.0
 40
160.431939202386
100
AcDbArc
 50
121.1044616699219
 51
126.3955688476563
  0
ARC
  5
27C
330
1F
100
AcDbEntity
  8
0-2
  6
Continuous
 62
     6
370
     9
100
AcDbCircle
 10
-185.1292790593325
 20
940.8043771733983
 30
0.0
 40
6.666666752583272
100
AcDbArc
 50
202.5
 51
283.8954620361328
  0
ARC
  5
27D
330
1F
100
AcDbEntity
  8
0-2
  6
Continuous
 62
     6
370
     9
100
AcDbCircle
 10
-169.9998185441299
 20
943.8137402962868
 30
0.0
 40
6.666666752583272
100
AcDbArc
 50
278.6040496826172
 51
359.9998016357422
  0
ARC
  5
27E
330
1F
100
AcDbEntity
  8
0-2
  6
Continuous
 62
     6
370
     9
100
AcDbCircle
 10
-144.9999835040117
 20
778.596191204226
 30
0.0
 40
160.431939202386
100
AcDbArc
 50
98.60446166992192
 51
103.8955688476563
  0
ARC
  5
27F
330
1F
100
AcDbEntity
  8
0-2
  6
Continuous
 62
     6
370
     9
100
AcDbCircle
 10
-119.9999010240708
 20
943.8142351759323
 30
0.0
 40
6.666666752583272
100
AcDbArc
 50
180.0
 51
261.3954620361328
  0
ARC
  5
280
330
1F
100
AcDbEntity
  8
0-2
  6
Continuous
 62
     6
370
     9
100
AcDbCircle
 10
-104.8706879486909
 20
940.8043771733983
 30
0.0
 40
6.666666752583272
100
AcDbArc
 50
256.1040496826172
 51
337.4998016357422
  0
ARC
  5
281
330
1F
100
AcDbEntity
  8
0-2
  6
Continuous
 62
     6
370
     9
100
AcDbCircle
 10
-144.9999835040117
 20
778.596191204226
 30
0.0
 40
160.431939202386
100
AcDbArc
 50
76.10446166992189
 51
81.39556884765626
  0
ARC
  5
282
330
1F
100
AcDbEntity
  8
0-2
  6
Continuous
 62
     6
370
     9
100
AcDbCircle
 10
-58.67688978040519
 20
921.6703505686687
 30
0.0
 40
6.666666752583272
100
AcDbArc
 50
157.5
 51
238.8954620361328
  0
ARC
  5
283
330
1F
100
AcDbEntity
  8
0-2
  6
Continuous
 62
     6
370
     9
100
AcDbCircle
 10
-45.85084657411301
 20
913.1005197515233
 30
0.0
 40
6.666666752583272
100
AcDbArc
 50
233.6040496826172
 51
314.9998016357422
  0
ARC
  5
284
330
1F
100
AcDbEntity
  8
0-2
  6
Continuous
 62
     6
370
     9
100
AcDbCircle
 10
-144.9999835040117
 20
778.596191204226
 30
0.0
 40
160.431939202386
100
AcDbArc
 50
53.60446166992192
 51
58.89556884765629
  0
ARC
  5
285
330
1F
100
AcDbEntity
  8
0-2
  6
Continuous
 62
     6
370
     9
100
AcDbCircle
 10
-10.4956549567143
 20
877.7453281341246
 30
0.0
 40
6.666666752583272
100
AcDbArc
 50
135.0
 51
216.3954620361328
  0
ARC
  5
286
330
1F
100
AcDbEntity
  8
0-2
  6
Continuous
 62
     6
370
     9
100
AcDbCircle
 10
-1.925824139569272
 20
864.9190374880097
 30
0.0
 40
6.666666752583272
100
AcDbArc
 50
211.1040496826172
 51
292.4998016357422
  0
ARC
  5
287
330
1F
100
AcDbEntity
  8
0-2
  6
Continuous
 62
     6
370
     9
100
AcDbCircle
 10
-144.9999835040117
 20
778.596191204226
 30
0.0
 40
160.431939202386
100
AcDbArc
 50
31.10446166992189
 51
36.39556884765626
  0
ARC
  5
288
330
1F
100
AcDbEntity
  8
0-2
  6
Continuous
 62
     6
370
     9
100
AcDbCircle
 10
17.20869734480573
 20
818.725486759547
 30
0.0
 40
6.666666752583272
100
AcDbArc
 50
112.5
 51
193.8954620361328
  0
ARC
  5
289
330
1F
100
AcDbEntity
  8
0-2
  6
Continuous
 62
     6
370
     9
100
AcDbCircle
 10
20.21781302787161
 20
803.5960262443441
 30
0.0
 40
6.666666752583272
100
AcDbArc
 50
188.6040496826172
 51
269.9998016357422
  0
ARC
  5
28A
330
1F
100
AcDbEntity
  8
0-2
  6
Continuous
 62
     6
370
     9
100
AcDbCircle
 10
-144.9999835040117
 20
778.596191204226
 30
0.0
 40
160.431939202386
100
AcDbArc
 50
8.604461669921891
 51
13.89556884765627
  0
ARC
  5
28B
330
1F
100
AcDbEntity
  8
0-2
  6
Continuous
 62
     6
370
     9
100
AcDbCircle
 10
-144.9999835040117
 20
778.596191204226
 30
0.0
 40
150.2981649862753
100
AcDbArc
 50
0.0
 51
180.0
  0
ARC
  5
28C
330
1F
100
AcDbEntity
  8
0-2
  6
Continuous
 62
     6
370
     9
100
AcDbCircle
 10
-144.9999835040117
 20
778.596191204226
 30
0.0
 40
133.3333350516654
100
AcDbArc
 50
0.0
 51
180.0
  0
ARC
  5
28D
330
1F
100
AcDbEntity
  8
0-2
  6
Continuous
 62
     6
370
     9
100
AcDbCircle
 10
-144.9999835040117
 20
778.596191204226
 30
0.0
 40
190.8333546406514
100
AcDbArc
 50
0.0
 51
180.0
  0
ELLIPSE
  5
28E
330
1F
100
AcDbEntity
  8
0-2
  6
Continuous
 62
     6
370
     9
100
AcDbEllipse
 10
-144.9999835040117
 20
944.2858554778746
 30
0.0
 11
17.50005773595862
 21
0.0
 31
0.0
210
0.0
220
0.0
230
1.0
 40
0.7428
 41
1.666170250701142
 42
3.141592653589793
  0
ELLIPSE
  5
28F
330
1F
100
AcDbEntity
  8
0-2
  6
Continuous
 62
     6
370
     9
100
AcDbEllipse
 10
-144.9999835040117
 20
944.2858554778746
 30
0.0
 11
17.50005773595862
 21
0.0
 31
0.0
210
0.0
220
0.0
230
1.0
 40
0.7428
 41
0.0
 42
1.475408288134874
  0
ARC
  5
290
330
1F
100
AcDbEntity
  8
0-2
  6
Continuous
 62
     6
370
     9
100
AcDbCircle
 10
-45.85084657411301
 20
913.1005197515233
 30
0.0
 40
6.666666752583272
100
AcDbArc
 50
233.6040496826172
 51
314.9998016357422
  0
ARC
  5
291
330
1F
100
AcDbEntity
  8
0-0
  6
Continuous
 62
     3
370
     9
100
AcDbCircle
 10
-144.9999835040117
 20
778.596191204226
 30
0.0
 40
112.2221250791807
100
AcDbArc
 50
0.0
 51
46.3406982421875
  0
ARC
  5
292
330
1F
100
AcDbEntity
  8
0-0
  6
Continuous
 62
     3
370
     9
100
AcDbCircle
 10
-144.9999835040117
 20
778.596191204226
 30
0.0
 40
115.0001319679054
100
AcDbArc
 50
0.0
 51
45.32794189453125
  0
ARC
  5
293
330
1F
100
AcDbEntity
  8
0-0
  6
Continuous
 62
     3
370
     9
100
AcDbCircle
 10
-144.9999835040117
 20
778.596191204226
 30
0.0
 40
112.2221250791807
100
AcDbArc
 50
73.65922546386719
 51
166.3408203125
  0
ARC
  5
294
330
1F
100
AcDbEntity
  8
0-0
  6
Continuous
 62
     3
370
     9
100
AcDbCircle
 10
-144.9999835040117
 20
778.596191204226
 30
0.0
 40
115.0001319679054
100
AcDbArc
 50
74.67202758789064
 51
165.3279876708985
  0
ARC
  5
295
330
1F
100
AcDbEntity
  8
0-1
  6
Continuous
 62
     2
370
     9
100
AcDbCircle
 10
-73.33324535472968
 20
902.7263577477225
 30
0.0
 40
43.33333195866765
100
AcDbArc
 50
171.9553833007812
 51
308.0445098876953
  0
ARC
  5
296
330
1F
100
AcDbEntity
  8
0-1
  6
Continuous
 62
     2
370
     9
100
AcDbCircle
 10
-73.33324535472968
 20
902.7263577477225
 30
0.0
 40
40.00000051549964
100
AcDbArc
 50
172.3842468261719
 51
307.6155700683594
  0
ARC
  5
297
330
1F
100
AcDbEntity
  8
0-1
  6
Continuous
 62
     4
370
     9
100
AcDbCircle
 10
-73.31716176625832
 20
902.7174499141076
 30
0.0
 40
21.66667177870467
100
AcDbArc
 50
181.3938751220703
 51
298.5910339355469
  0
ARC
  5
298
330
1F
100
AcDbEntity
  8
0-1
  6
Continuous
 62
     4
370
     9
100
AcDbCircle
 10
-73.33324535472968
 20
902.7263577477225
 30
0.0
 40
13.33333350516654
100
AcDbArc
 50
200.3865509033203
 51
279.6137084960937
  0
ARC
  5
299
330
1F
100
AcDbEntity
  8
0-1
  6
Continuous
 62
     2
370
     9
100
AcDbCircle
 10
-288.333459802576
 20
778.596191204226
 30
0.0
 40
43.33333195866765
100
AcDbArc
 50
0.0
 51
68.04469299316405
  0
ARC
  5
29A
330
1F
100
AcDbEntity
  8
0-1
  6
Continuous
 62
     2
370
     9
100
AcDbCircle
 10
-288.333459802576
 20
778.596191204226
 30
0.0
 40
40.00000051549964
100
AcDbArc
 50
0.0
 51
67.61578369140622
  0
ARC
  5
29B
330
1F
100
AcDbEntity
  8
0-1
  6
Continuous
 62
     4
370
     9
100
AcDbCircle
 10
-288.333459802576
 20
778.614501751101
 30
0.0
 40
21.66667177870467
100
AcDbArc
 50
359.950927734375
 51
58.59146118164062
  0
TEXT
  5
29C
330
1F
100
AcDbEntity
  8
0-4
  6
Continuous
 62
     2
370
     9
100
AcDbText
 10
272.6934268105998
 20
-78.47769267721404
 30
0.0
 40
30.48
  1
67
 50
90.0
 41
1.0625
  7
ＭＳ ゴシック
100
AcDbText
  0
TEXT
  5
29D
330
1F
100
AcDbEntity
  8
0-4
  6
Continuous
 62
     2
370
     9
100
AcDbText
 10
-200.0001690838788
 20
556.6803852762278
 30
0.0
 40
30.48
  1
φ200
 41
1.1
  7
ＭＳ ゴシック
100
AcDbText
  0
TEXT
  5
29E
330
1F
100
AcDbEntity
  8
0-4
  6
Continuous
 62
     2
370
     9
100
AcDbText
 10
-200.00029280379
 20
476.6803687802395
 30
0.0
 40
30.48
  1
φ180
 41
1.1
  7
ＭＳ ゴシック
100
AcDbText
  0
TEXT
  5
29F
330
1F
100
AcDbEntity
  8
0-4
  6
Continuous
 62
     2
370
     9
100
AcDbText
 10
-188.7500453639674
 20
-323.2542864865996
 30
0.0
 40
30.48
  1
φ61
 41
1.09375
  7
ＭＳ ゴシック
100
AcDbText
  0
TEXT
  5
2A0
330
1F
100
AcDbEntity
  8
0-4
  6
Continuous
 62
     2
370
     9
100
AcDbText
 10
-188.7500453639674
 20
-403.2542411226322
 30
0.0
 40
30.48
  1
φ67
 41
1.09375
  7
ＭＳ ゴシック
100
AcDbText
  0
TEXT
  5
2A1
330
1F
100
AcDbEntity
  8
0-4
  6
Continuous
 62
     2
370
     9
100
AcDbText
 10
-200.0000453639673
 20
-483.2542576186203
 30
0.0
 40
30.48
  1
φ200
 41
1.1
  7
ＭＳ ゴシック
100
AcDbText
  0
TEXT
  5
2A2
330
1F
100
AcDbEntity
  8
0-E
  6
Continuous
 62
     7
370
     9
100
AcDbText
 10
259.2724032015414
 20
617.7290215858773
 30
0.0
 40
22.86
  1
ストレーナ：ＦＣ１５０
 41
1.151515151515152
  7
ＭＳ ゴシック
100
AcDbText
  0
TEXT
  5
2A3
330
1F
100
AcDbEntity
  8
0-E
  6
Continuous
 62
     7
370
     9
100
AcDbText
 10
356.1693676097975
 20
567.3426030628618
 30
0.0
 40
22.86
  1
樹脂系塗装
 41
1.133333333333333
  7
ＭＳ ゴシック
100
AcDbText
  0
TEXT
  5
2A4
330
1F
100
AcDbEntity
  8
0-E
  6
Continuous
 62
     7
370
     9
100
AcDbText
 10
313.5346613703547
 20
497.5769450708856
 30
0.0
 40
22.86
  1
丸小ネジ：Ｃ２７００
 41
1.15
  7
ＭＳ ゴシック
100
AcDbText
  0
TEXT
  5
2A5
330
1F
100
AcDbEntity
  8
0-E
  6
Continuous
 62
     7
370
     9
100
AcDbText
 10
280.5898388012038
 20
377.4247448359827
 30
0.0
 40
22.86
  1
防水層押え：ＦＣ１５０
 41
1.151515151515152
  7
ＭＳ ゴシック
100
AcDbText
  0
TEXT
  5
2A6
330
1F
100
AcDbEntity
  8
0-E
  6
Continuous
 62
     7
370
     9
100
AcDbText
 10
391.0521966057857
 20
330.9142236947244
 30
0.0
 40
22.86
  1
樹脂系塗装
 41
1.133333333333333
  7
ＭＳ ゴシック
100
AcDbText
  0
TEXT
  5
2A7
330
1F
100
AcDbEntity
  8
0-E
  6
Continuous
 62
     7
370
     9
100
AcDbText
 10
-859.065518765836
 20
554.4178313673385
 30
0.0
 40
22.86
  1
ボルト：Ｃ３６０２
 41
1.148148148148148
  7
ＭＳ ゴシック
100
AcDbText
  0
TEXT
  5
2A8
330
1F
100
AcDbEntity
  8
0-E
  6
Continuous
 62
     7
370
     9
100
AcDbText
 10
-813.9467187829919
 20
-58.57857415683812
 30
0.0
 40
22.86
  1
本体：ＦＣ１５０
 41
1.145833333333333
  7
ＭＳ ゴシック
100
AcDbText
  0
TEXT
  5
2A9
330
1F
100
AcDbEntity
  8
0-E
  6
Continuous
 62
     7
370
     9
100
AcDbText
 10
-772.8560452847865
 20
-103.4314959262639
 30
0.0
 40
22.86
  1
樹脂系塗装
 41
1.133333333333333
  7
ＭＳ ゴシック
100
AcDbText
  0
TEXT
  5
2AA
330
1F
100
AcDbEntity
  8
0-E
  6
Continuous
 62
     7
370
     9
100
AcDbText
 10
256.64211788693
 20
-323.1270047285232
 30
0.0
 40
22.86
  1
クランプ板：ＦＣ１５０
 41
1.151515151515152
  7
ＭＳ ゴシック
100
AcDbText
  0
TEXT
  5
2AB
330
1F
100
AcDbEntity
  8
0-E
  6
Continuous
 62
     7
370
     9
100
AcDbText
 10
349.8069474503803
 20
-375.5322847644185
 30
0.0
 40
22.86
  1
樹脂系塗装
 41
1.133333333333333
  7
ＭＳ ゴシック
100
AcDbText
  0
TEXT
  5
2AC
330
1F
100
AcDbEntity
  8
0-E
  6
Continuous
 62
     7
370
     9
100
AcDbText
 10
-844.4817867794552
 20
-534.3046450763906
 30
0.0
 40
22.86
  1
ボルト：Ｃ３６０２
 41
1.148148148148148
  7
ＭＳ ゴシック
100
AcDbText
  0
TEXT
  5
2AD
330
1F
100
AcDbEntity
  8
0-E
  6
Continuous
 62
     7
370
     9
100
AcDbText
 10
-796.1396377151077
 20
500.4813937089767
 30
0.0
 40
22.86
  1
Ｍ８×４０
 41
1.133333333333333
  7
ＭＳ ゴシック
100
AcDbText
  0
TEXT
  5
2AE
330
1F
100
AcDbEntity
  8
0-E
  6
Continuous
 62
     7
370
     9
100
AcDbText
 10
404.6178374419341
 20
449.1284752387489
 30
0.0
 40
22.86
  1
Ｍ６×１２
 41
1.133333333333333
  7
ＭＳ ゴシック
100
AcDbText
  0
TEXT
  5
2AF
330
1F
100
AcDbEntity
  8
0-4
  6
Continuous
 62
     2
370
     9
100
AcDbText
 10
352.6934433065881
 20
-113.1921636178812
 30
0.0
 40
30.48
  1
100
 50
90.0
 41
1.083333333333333
  7
ＭＳ ゴシック
100
AcDbText
  0
TEXT
  5
2B0
330
1F
100
AcDbEntity
  8
0-E
  6
Continuous
 62
     7
370
     9
100
AcDbText
 10
-773.491969752956
 20
-582.4333607977271
 30
0.0
 40
22.86
  1
Ｍ８×１００
 41
1.138888888888889
  7
ＭＳ ゴシック
100
AcDbText
  0
TEXT
  5
2B1
330
1F
100
AcDbEntity
  8
0-4
  6
Continuous
 62
     2
370
     9
100
AcDbText
 10
-188.7500453639674
 20
399.3390931784658
 30
0.0
 40
30.48
  1
φ80
 41
1.09375
  7
ＭＳ ゴシック
100
AcDbText
  0
TEXT
  5
2B2
330
1F
100
AcDbEntity
  8
0-4
  6
Continuous
 62
     2
370
     9
100
AcDbText
 10
352.6934433065881
 20
146.2831567342091
 30
0.0
 40
30.48
  1
68
 50
90.0
 41
1.0625
  7
ＭＳ ゴシック
100
AcDbText
  0
TEXT
  5
2B3
330
1F
100
AcDbEntity
  8
0-4
  6
Continuous
 62
     2
370
     9
100
AcDbText
 10
-584.3502776604729
 20
142.7104968550917
 30
0.0
 40
30.48
  1
70
 50
90.0
 41
1.0625
  7
ＭＳ ゴシック
100
AcDbText
  0
LINE
  5
2B4
330
1F
100
AcDbEntity
  8
0-0
  6
Continuous
 62
     4
370
     9
100
AcDbLine
 10
-371.666738149282
 20
-119.8093065787133
 30
0.0
 11
-371.666738149282
 21
-7.749730326136977
 31
0.0
  0
LINE
  5
2B5
330
1F
100
AcDbEntity
  8
0-0
  6
Continuous
 62
     4
370
     9
100
AcDbLine
 10
-345.0000247439823
 20
-115.1070839092664
 30
0.0
 11
-345.0000247439823
 21
-7.749730326136977
 31
0.0
  0
LINE
  5
2B6
330
1F
100
AcDbEntity
  8
0-0
  6
Continuous
 62
     4
370
     9
100
AcDbLine
 10
-371.666738149282
 20
-7.815815895647233
 30
0.0
 11
-345.0000247439823
 21
-7.815815895647233
 31
0.0
  0
LINE
  5
2B7
330
1F
100
AcDbEntity
  8
0-0
  6
Continuous
 62
     4
370
     9
100
AcDbLine
 10
-345.0000247439823
 20
-7.815815895647233
 30
0.0
 11
-347.2549438476562
 21
-5.560896791973278
 31
0.0
  0
LINE
  5
2B8
330
1F
100
AcDbEntity
  8
0-0
  6
Continuous
 62
     4
370
     9
100
AcDbLine
 10
-347.2549438476562
 20
-5.560896791973278
 30
0.0
 11
-369.4116953256966
 21
-5.560896791973278
 31
0.0
  0
LINE
  5
2B9
330
1F
100
AcDbEntity
  8
0-0
  6
Continuous
 62
     4
370
     9
100
AcDbLine
 10
-369.4116953256966
 20
-5.560896791973278
 30
0.0
 11
-347.2549438476562
 21
-5.560896791973278
 31
0.0
  0
LINE
  5
2BA
330
1F
100
AcDbEntity
  8
0-0
  6
Continuous
 62
     4
370
     9
100
AcDbLine
 10
-371.666738149282
 20
-7.815815895647233
 30
0.0
 11
-345.0000247439823
 21
-7.815815895647233
 31
0.0
  0
LINE
  5
2BB
330
1F
100
AcDbEntity
  8
0-0
  6
Continuous
 62
     4
370
     9
100
AcDbLine
 10
-347.2549438476562
 20
-5.560896791973278
 30
0.0
 11
-345.0000247439823
 21
-7.815815895647233
 31
0.0
  0
LINE
  5
2BC
330
1F
100
AcDbEntity
  8
0-0
  6
Continuous
 62
     4
370
     9
100
AcDbLine
 10
-369.4116953256966
 20
-5.560896791973278
 30
0.0
 11
-371.666738149282
 21
-7.815815895647233
 31
0.0
  0
LINE
  5
2BD
330
1F
100
AcDbEntity
  8
0-0
  6
Continuous
 62
     4
370
     9
100
AcDbLine
 10
-369.4116953256966
 20
-5.560896791973278
 30
0.0
 11
-371.666738149282
 21
-7.815815895647233
 31
0.0
  0
LINE
  5
2BE
330
1F
100
AcDbEntity
  8
0-0
  6
Continuous
 62
     4
370
     9
100
AcDbLine
 10
-369.4116953256966
 20
-5.560896791973278
 30
0.0
 11
-369.4116953256966
 21
-9.561008964693087
 31
0.0
  0
LINE
  5
2BF
330
1F
100
AcDbEntity
  8
0-0
  6
Continuous
 62
     4
370
     9
100
AcDbLine
 10
-347.2549438476562
 20
-5.560896791973278
 30
0.0
 11
-347.2549438476562
 21
-9.561008964693087
 31
0.0
  0
TEXT
  5
2C0
330
1F
100
AcDbEntity
  8
F-4
  6
Continuous
 62
     6
370
     0
100
AcDbText
 10
-146.133725307611
 20
-1123.845871271585
 30
0.0
 40
30.48
  1
鋳鉄製　たて引き用　シート防水用　　　ＡＬＣ＝１００
 41
0.7980769230769229
  7
ＭＳ ゴシック
100
AcDbText
  0
TEXT
  5
2C1
330
1F
100
AcDbEntity
  8
F-4
  6
Continuous
 62
     6
370
     0
100
AcDbText
 10
-211.8686286150454
 20
-1168.863568962145
 30
0.0
 40
30.48
  1
差し込み式　ＡＬＣ用　ルーフドレイン　　ＥＡＳＢ－１－６５
 41
0.7982758620689655
  7
ＭＳ ゴシック
100
AcDbText
  0
ENDSEC
  0
SECTION
  2
OBJECTS
  0
DICTIONARY
  5
C
330
0
100
AcDbDictionary
281
     1
  3
ACAD_GROUP
350
D
  3
ACAD_LAYOUT
350
1A
  3
ACAD_MLEADERSTYLE
350
2C3
  3
ACAD_MLINESTYLE
350
17
  3
ACAD_PLOTSETTINGS
350
19
  3
ACAD_PLOTSTYLENAME
350
E
  3
ACAD_TABLESTYLE
350
2C2
  3
ACAD_VISUALSTYLE
350
2A
  3
AcDbVariableDictionary
350
2C4
  0
DICTIONARY
  5
D
102
{ACAD_REACTORS
330
C
102
}
330
C
100
AcDbDictionary
281
     1
  0
DICTIONARY
  5
1A
102
{ACAD_REACTORS
330
C
102
}
330
C
100
AcDbDictionary
281
     1
  3
Layout1
350
1E
  3
Layout2
350
26
  3
Model
350
22
  0
DICTIONARY
  5
2C3
102
{ACAD_REACTORS
330
C
102
}
330
C
100
AcDbDictionary
281
     1
  0
DICTIONARY
  5
17
102
{ACAD_REACTORS
330
C
102
}
330
C
100
AcDbDictionary
281
     1
  3
Standard
350
18
  0
DICTIONARY
  5
19
102
{ACAD_REACTORS
330
C
102
}
330
C
100
AcDbDictionary
281
     1
  0
ACDBDICTIONARYWDFLT
  5
E
102
{ACAD_REACTORS
330
C
102
}
330
C
100
AcDbDictionary
281
     1
  3
Normal
350
F
100
AcDbDictionaryWithDefault
340
F
  0
DICTIONARY
  5
2C2
102
{ACAD_REACTORS
330
C
102
}
330
C
100
AcDbDictionary
281
     1
  0
DICTIONARY
  5
2A
102
{ACAD_REACTORS
330
C
102
}
330
C
100
AcDbDictionary
281
     1
  3
2dWireframe
350
2F
  3
3D Hidden
350
31
  3
3dWireframe
350
30
  3
Basic
350
32
  3
Brighten
350
36
  3
ColorChange
350
3A
  3
Conceptual
350
34
  3
Dim
350
35
  3
Facepattern
350
39
  3
Flat
350
2B
  3
FlatWithEdges
350
2C
  3
Gouraud
350
2D
  3
GouraudWithEdges
350
2E
  3
Linepattern
350
38
  3
Realistic
350
33
  3
Thicken
350
37
  0
DICTIONARY
  5
2C4
102
{ACAD_REACTORS
330
C
102
}
330
C
100
AcDbDictionary
281
     1
  3
PSOLHEIGHT
350
2C6
  3
PSOLWIDTH
350
2C5
  0
LAYOUT
  5
1E
102
{ACAD_REACTORS
330
1A
102
}
102
{ACAD_XDICTIONARY
360
2C7
102
}
330
1A
100
AcDbPlotSettings
  1

  2
none_device
  4

  6

 40
0.0
 41
0.0
 42
0.0
 43
0.0
 44
0.0
 45
0.0
 46
0.0
 47
0.0
 48
0.0
 49
0.0
140
0.0
141
0.0
142
1.0
143
1.0
 70
   688
 72
     0
 73
     0
 74
     5
  7

 75
    16
147
1.0
148
0.0
149
0.0
100
AcDbLayout
  1
Layout1
 70
     1
 71
     1
 10
0.0
 20
0.0
 11
420.0
 21
297.0
 12
0.0
 22
0.0
 32
0.0
 14
1.000000000000000E+20
 24
1.000000000000000E+20
 34
1.000000000000000E+20
 15
-1.000000000000000E+20
 25
-1.000000000000000E+20
 35
-1.000000000000000E+20
146
0.0
 13
0.0
 23
0.0
 33
0.0
 16
1.0
 26
0.0
 36
0.0
 17
0.0
 27
1.0
 37
0.0
 76
     0
330
1B
  0
LAYOUT
  5
26
102
{ACAD_REACTORS
330
1A
102
}
102
{ACAD_XDICTIONARY
360
2CB
102
}
330
1A
100
AcDbPlotSettings
  1

  2
none_device
  4

  6

 40
0.0
 41
0.0
 42
0.0
 43
0.0
 44
0.0
 45
0.0
 46
0.0
 47
0.0
 48
0.0
 49
0.0
140
0.0
141
0.0
142
1.0
143
1.0
 70
   688
 72
     0
 73
     0
 74
     5
  7

 75
    16
147
1.0
148
0.0
149
0.0
100
AcDbLayout
  1
Layout2
 70
     1
 71
     2
 10
0.0
 20
0.0
 11
0.0
 21
0.0
 12
0.0
 22
0.0
 32
0.0
 14
0.0
 24
0.0
 34
0.0
 15
0.0
 25
0.0
 35
0.0
146
0.0
 13
0.0
 23
0.0
 33
0.0
 16
1.0
 26
0.0
 36
0.0
 17
0.0
 27
1.0
 37
0.0
 76
     0
330
23
  0
LAYOUT
  5
22
102
{ACAD_REACTORS
330
1A
102
}
102
{ACAD_XDICTIONARY
360
2C9
102
}
330
1A
100
AcDbPlotSettings
  1

  2
none_device
  4

  6

 40
0.0
 41
0.0
 42
0.0
 43
0.0
 44
0.0
 45
0.0
 46
0.0
 47
0.0
 48
0.0
 49
0.0
140
0.0
141
0.0
142
1.0
143
1.0
 70
  1712
 72
     0
 73
     0
 74
     0
  7

 75
     0
147
1.0
148
0.0
149
0.0
100
AcDbLayout
  1
Model
 70
     1
 71
     0
 10
-2100.0
 20
-1485.0
 11
2100.0
 21
1485.0
 12
0.0
 22
0.0
 32
0.0
 14
-2100.0
 24
-1485.0
 34
0.0
 15
2100.0
 25
1485.0
 35
0.0
146
0.0
 13
0.0
 23
0.0
 33
0.0
 16
1.0
 26
0.0
 36
0.0
 17
0.0
 27
1.0
 37
0.0
 76
     0
330
1F
331
29
  0
MLINESTYLE
  5
18
102
{ACAD_REACTORS
330
17
102
}
330
17
100
AcDbMlineStyle
  2
Standard
 70
     0
  3

 62
   256
 51
90.0
 52
90.0
 71
     2
 49
0.5
 62
   256
  6
BYLAYER
 49
-0.5
 62
   256
  6
BYLAYER
  0
ACDBPLACEHOLDER
  5
F
102
{ACAD_REACTORS
330
E
102
}
330
E
  0
VISUALSTYLE
  5
2F
102
{ACAD_REACTORS
330
2A
102
}
330
2A
100
AcDbVisualStyle
  2
2dWireframe
 70
     4
 71
     0
 72
     2
 73
     0
 90
        0
 40
-0.6
 41
-30.0
 62
     5
 63
     7
 74
     1
 91
        4
 64
     7
 65
   257
 75
     1
175
     1
 42
1.0
 92
        0
 66
   257
 43
1.0
 76
     1
 77
     6
 78
     2
 67
     7
 79
     5
170
     0
171
     0
290
     0
174
     0
 93
        1
 44
0.0
173
     0
291
     0
 45
0.0
1001
ACAD
1000
AcDbSavedByObjectVersion
1070
     0
  0
VISUALSTYLE
  5
31
102
{ACAD_REACTORS
330
2A
102
}
330
2A
100
AcDbVisualStyle
  2
3D Hidden
 70
     6
 71
     1
 72
     2
 73
     2
 90
        0
 40
-0.6
 41
-30.0
 62
     5
 63
     7
 74
     2
 91
        2
 64
     7
 65
   257
 75
     2
175
     1
 42
40.0
 92
        0
 66
   257
 43
1.0
 76
     1
 77
     6
 78
     2
 67
     7
 79
     3
170
     0
171
     0
290
     0
174
     0
 93
        1
 44
0.0
173
     0
291
     0
 45
0.0
1001
ACAD
1000
AcDbSavedByObjectVersion
1070
     0
  0
VISUALSTYLE
  5
30
102
{ACAD_REACTORS
330
2A
102
}
330
2A
100
AcDbVisualStyle
  2
3dWireframe
 70
     5
 71
     0
 72
     2
 73
     0
 90
        0
 40
-0.6
 41
-30.0
 62
     5
 63
     7
 74
     1
 91
        4
 64
     7
 65
   257
 75
     1
175
     1
 42
1.0
 92
        0
 66
   257
 43
1.0
 76
     1
 77
     6
 78
     2
 67
     7
 79
     5
170
     0
171
     0
290
     0
174
     0
 93
        1
 44
0.0
173
     0
291
     0
 45
0.0
1001
ACAD
1000
AcDbSavedByObjectVersion
1070
     0
  0
VISUALSTYLE
  5
32
102
{ACAD_REACTORS
330
2A
102
}
330
2A
100
AcDbVisualStyle
  2
Basic
 70
     7
 71
     1
 72
     0
 73
     1
 90
        0
 40
-0.6
 41
-30.0
 62
     5
 63
     7
 74
     0
 91
        4
 64
     7
 65
   257
 75
     1
175
     1
 42
1.0
 92
        8
 66
     7
 43
1.0
 76
     1
 77
     6
 78
     2
 67
     7
 79
     5
170
     0
171
     0
290
     0
174
     0
 93
        1
 44
0.0
173
     0
291
     1
 45
0.0
1001
ACAD
1000
AcDbSavedByObjectVersion
1070
     0
  0
VISUALSTYLE
  5
36
102
{ACAD_REACTORS
330
2A
102
}
330
2A
100
AcDbVisualStyle
  2
Brighten
 70
    12
 71
     2
 72
     2
 73
     0
 90
        0
 40
-0.6
 41
-30.0
 62
     5
 63
     7
 74
     1
 91
        4
 64
     7
 65
   257
 75
     1
175
     1
 42
1.0
 92
        8
 66
     7
 43
1.0
 76
     1
 77
     6
 78
     2
 67
     7
 79
     5
170
     0
171
     0
290
     0
174
     0
 93
        1
 44
50.0
173
     0
291
     1
 45
0.0
1001
ACAD
1000
AcDbSavedByObjectVersion
1070
     0
  0
VISUALSTYLE
  5
3A
102
{ACAD_REACTORS
330
2A
102
}
330
2A
100
AcDbVisualStyle
  2
ColorChange
 70
    16
 71
     2
 72
     2
 73
     3
 90
        0
 40
-0.6
 41
-30.0
 62
     5
 63
     8
 74
     1
 91
        4
 64
     7
 65
   257
 75
     1
175
     1
 42
1.0
 92
        8
 66
     8
 43
1.0
 76
     1
 77
     6
 78
     2
 67
     7
 79
     5
170
     0
171
     0
290
     0
174
     0
 93
        1
 44
0.0
173
     0
291
     1
 45
0.0
1001
ACAD
1000
AcDbSavedByObjectVersion
1070
     0
  0
VISUALSTYLE
  5
34
102
{ACAD_REACTORS
330
2A
102
}
330
2A
100
AcDbVisualStyle
  2
Conceptual
 70
     9
 71
     3
 72
     2
 73
     0
 90
        0
 40
-0.6
 41
-30.0
 62
     5
 63
     7
 74
     2
 91
        2
 64
     7
 65
   257
 75
     1
175
     1
 42
40.0
 92
        8
 66
     7
 43
1.0
 76
     1
 77
     6
 78
     2
 67
     7
 79
     3
170
     0
171
     0
290
     0
174
     0
 93
        1
 44
0.0
173
     0
291
     0
 45
0.0
1001
ACAD
1000
AcDbSavedByObjectVersion
1070
     0
  0
VISUALSTYLE
  5
35
102
{ACAD_REACTORS
330
2A
102
}
330
2A
100
AcDbVisualStyle
  2
Dim
 70
    11
 71
     2
 72
     2
 73
     0
 90
        0
 40
-0.6
 41
-30.0
 62
     5
 63
     7
 74
     1
 91
        4
 64
     7
 65
   257
 75
     1
175
     1
 42
1.0
 92
        8
 66
     7
 43
1.0
 76
     1
 77
     6
 78
     2
 67
     7
 79
     5
170
     0
171
     0
290
     0
174
     0
 93
        1
 44
-50.0
173
     0
291
     1
 45
0.0
1001
ACAD
1000
AcDbSavedByObjectVersion
1070
     0
  0
VISUALSTYLE
  5
39
102
{ACAD_REACTORS
330
2A
102
}
330
2A
100
AcDbVisualStyle
  2
Facepattern
 70
    15
 71
     2
 72
     2
 73
     0
 90
        0
 40
-0.6
 41
-30.0
 62
     5
 63
     7
 74
     1
 91
        4
 64
     7
 65
   257
 75
     1
175
     1
 42
1.0
 92
        8
 66
     7
 43
1.0
 76
     1
 77
     6
 78
     2
 67
     7
 79
     5
170
     0
171
     0
290
     0
174
     0
 93
        1
 44
0.0
173
     0
291
     1
 45
0.0
1001
ACAD
1000
AcDbSavedByObjectVersion
1070
     0
  0
VISUALSTYLE
  5
2B
102
{ACAD_REACTORS
330
2A
102
}
330
2A
100
AcDbVisualStyle
  2
Flat
 70
     0
 71
     2
 72
     1
 73
     1
 90
        2
 40
-0.6
 41
30.0
 62
     5
 63
     7
 74
     0
 91
        4
 64
     7
 65
   257
 75
     1
175
     1
 42
1.0
 92
        8
 66
     7
 43
1.0
 76
     1
 77
     6
 78
     2
 67
     7
 79
     5
170
     0
171
     0
290
     0
174
     0
 93
       13
 44
0.0
173
     0
291
     1
 45
0.0
1001
ACAD
1000
AcDbSavedByObjectVersion
1070
     0
  0
VISUALSTYLE
  5
2C
102
{ACAD_REACTORS
330
2A
102
}
330
2A
100
AcDbVisualStyle
  2
FlatWithEdges
 70
     1
 71
     2
 72
     1
 73
     1
 90
        2
 40
-0.6
 41
30.0
 62
     5
 63
     7
 74
     1
 91
        4
 64
     7
 65
   257
 75
     1
175
     1
 42
1.0
 92
        0
 66
   257
 43
1.0
 76
     1
 77
     6
 78
     2
 67
     7
 79
     5
170
     0
171
     0
290
     0
174
     0
 93
       13
 44
0.0
173
     0
291
     1
 45
0.0
1001
ACAD
1000
AcDbSavedByObjectVersion
1070
     0
  0
VISUALSTYLE
  5
2D
102
{ACAD_REACTORS
330
2A
102
}
330
2A
100
AcDbVisualStyle
  2
Gouraud
 70
     2
 71
     2
 72
     2
 73
     1
 90
        2
 40
-0.6
 41
30.0
 62
     5
 63
     7
 74
     0
 91
        4
 64
     7
 65
   257
 75
     1
175
     1
 42
1.0
 92
        0
 66
     7
 43
1.0
 76
     1
 77
     6
 78
     2
 67
     7
 79
     5
170
     0
171
     0
290
     0
174
     0
 93
       13
 44
0.0
173
     0
291
     1
 45
0.0
1001
ACAD
1000
AcDbSavedByObjectVersion
1070
     0
  0
VISUALSTYLE
  5
2E
102
{ACAD_REACTORS
330
2A
102
}
330
2A
100
AcDbVisualStyle
  2
GouraudWithEdges
 70
     3
 71
     2
 72
     2
 73
     1
 90
        2
 40
-0.6
 41
30.0
 62
     5
 63
     7
 74
     1
 91
        4
 64
     7
 65
   257
 75
     1
175
     1
 42
1.0
 92
        0
 66
   257
 43
1.0
 76
     1
 77
     6
 78
     2
 67
     7
 79
     5
170
     0
171
     0
290
     0
174
     0
 93
       13
 44
0.0
173
     0
291
     1
 45
0.0
1001
ACAD
1000
AcDbSavedByObjectVersion
1070
     0
  0
VISUALSTYLE
  5
38
102
{ACAD_REACTORS
330
2A
102
}
330
2A
100
AcDbVisualStyle
  2
Linepattern
 70
    14
 71
     2
 72
     2
 73
     0
 90
        0
 40
-0.6
 41
-30.0
 62
     5
 63
     7
 74
     1
 91
        4
 64
     7
 65
   257
 75
     7
175
     7
 42
1.0
 92
        8
 66
     7
 43
1.0
 76
     1
 77
     6
 78
     2
 67
     7
 79
     5
170
     0
171
     0
290
     0
174
     0
 93
        1
 44
0.0
173
     0
291
     1
 45
0.0
1001
ACAD
1000
AcDbSavedByObjectVersion
1070
     0
  0
VISUALSTYLE
  5
33
102
{ACAD_REACTORS
330
2A
102
}
330
2A
100
AcDbVisualStyle
  2
Realistic
 70
     8
 71
     2
 72
     2
 73
     0
 90
        0
 40
-0.6
 41
-30.0
 62
     5
 63
     7
 74
     1
 91
        0
 64
     7
 65
   257
 75
     1
175
     1
 42
1.0
 92
        8
 66
     8
 43
1.0
 76
     1
 77
     6
 78
     2
 67
     7
 79
     5
170
     0
171
     0
290
     0
174
     0
 93
       13
 44
0.0
173
     0
291
     0
 45
0.0
1001
ACAD
1000
AcDbSavedByObjectVersion
1070
     0
  0
VISUALSTYLE
  5
37
102
{ACAD_REACTORS
330
2A
102
}
330
2A
100
AcDbVisualStyle
  2
Thicken
 70
    13
 71
     2
 72
     2
 73
     0
 90
        0
 40
-0.6
 41
-30.0
 62
     5
 63
     7
 74
     1
 91
        4
 64
     7
 65
   257
 75
     1
175
     1
 42
1.0
 92
       12
 66
     7
 43
1.0
 76
     1
 77
     6
 78
     2
 67
     7
 79
     5
170
     0
171
     0
290
     0
174
     0
 93
        1
 44
0.0
173
     0
291
     1
 45
0.0
1001
ACAD
1000
AcDbSavedByObjectVersion
1070
     0
  0
DICTIONARYVAR
  5
2C6
102
{ACAD_REACTORS
330
2C4
102
}
330
2C4
100
DictionaryVariables
280
     0
  1
80.000000
  0
DICTIONARYVAR
  5
2C5
102
{ACAD_REACTORS
330
2C4
102
}
330
2C4
100
DictionaryVariables
280
     0
  1
5.000000
  0
DICTIONARY
  5
2C7
330
1E
100
AcDbDictionary
280
     1
281
     1
  3
ACAD_XREC_ROUNDTRIP
360
2C8
  0
DICTIONARY
  5
2CB
330
26
100
AcDbDictionary
280
     1
281
     1
  3
ACAD_XREC_ROUNDTRIP
360
2CC
  0
DICTIONARY
  5
2C9
330
22
100
AcDbDictionary
280
     1
281
     1
  3
ACAD_XREC_ROUNDTRIP
360
2CA
  0
XRECORD
  5
2C8
102
{ACAD_REACTORS
330
2C7
102
}
330
2C7
100
AcDbXrecord
280
     1
102
SHADEPLOT
 70
     0
102
SHADEPLOTRESLEVEL
 70
     5
102
SHADEPLOTCUSTOMDPI
 70
   300
  0
XRECORD
  5
2CC
102
{ACAD_REACTORS
330
2CB
102
}
330
2CB
100
AcDbXrecord
280
     1
102
SHADEPLOT
 70
     0
102
SHADEPLOTRESLEVEL
 70
     5
102
SHADEPLOTCUSTOMDPI
 70
   300
  0
XRECORD
  5
2CA
102
{ACAD_REACTORS
330
2C9
102
}
330
2C9
100
AcDbXrecord
280
     1
102
SHADEPLOT
 70
     0
102
SHADEPLOTRESLEVEL
 70
     5
102
SHADEPLOTCUSTOMDPI
 70
   300
  0
ENDSEC
  0
EOF
