  0
SECTION
  2
HEADER
  9
$ACADVER
  1
AC1015
  9
$ACADMAINTVER
 70
     6
  9
$DWGCODEPAGE
  3
ANSI_932
  9
$INSBASE
 10
0.0
 20
0.0
 30
0.0
  9
$EXTMIN
 10
-2100.0
 20
-1485.0
 30
0.0
  9
$EXTMAX
 10
2100.0
 20
1485.0
 30
0.0
  9
$LIMMIN
 10
-2100.0
 20
-1485.0
  9
$LIMMAX
 10
2100.0
 20
1485.0
  9
$ORTHOMODE
 70
     0
  9
$REGENMODE
 70
     1
  9
$FILLMODE
 70
     1
  9
$QTEXTMODE
 70
     0
  9
$MIRRTEXT
 70
     1
  9
$LTSCALE
 40
10.0
  9
$ATTMODE
 70
     1
  9
$TEXTSIZE
 40
2.5
  9
$TRACEWID
 40
1.0
  9
$TEXTSTYLE
  7
Standard
  9
$CLAYER
  8
0
  9
$CELTYPE
  6
ByLayer
  9
$CECOLOR
 62
   256
  9
$CELTSCALE
 40
1.0
  9
$DISPSILH
 70
     0
  9
$DIMSCALE
 40
1.0
  9
$DIMASZ
 40
2.5
  9
$DIMEXO
 40
0.625
  9
$DIMDLI
 40
3.75
  9
$DIMRND
 40
0.0
  9
$DIMDLE
 40
0.0
  9
$DIMEXE
 40
1.25
  9
$DIMTP
 40
0.0
  9
$DIMTM
 40
0.0
  9
$DIMTXT
 40
2.5
  9
$DIMCEN
 40
2.5
  9
$DIMTSZ
 40
0.0
  9
$DIMTOL
 70
     0
  9
$DIMLIM
 70
     0
  9
$DIMTIH
 70
     0
  9
$DIMTOH
 70
     0
  9
$DIMSE1
 70
     0
  9
$DIMSE2
 70
     0
  9
$DIMTAD
 70
     1
  9
$DIMZIN
 70
     8
  9
$DIMBLK
  1

  9
$DIMASO
 70
     1
  9
$DIMSHO
 70
     1
  9
$DIMPOST
  1

  9
$DIMAPOST
  1

  9
$DIMALT
 70
     0
  9
$DIMALTD
 70
     3
  9
$DIMALTF
 40
0.03937007874016
  9
$DIMLFAC
 40
1.0
  9
$DIMTOFL
 70
     1
  9
$DIMTVP
 40
0.0
  9
$DIMTIX
 70
     0
  9
$DIMSOXD
 70
     0
  9
$DIMSAH
 70
     0
  9
$DIMBLK1
  1

  9
$DIMBLK2
  1

  9
$DIMSTYLE
  2
ISO-25
  9
$DIMCLRD
 70
     0
  9
$DIMCLRE
 70
     0
  9
$DIMCLRT
 70
     0
  9
$DIMTFAC
 40
1.0
  9
$DIMGAP
 40
0.625
  9
$DIMJUST
 70
     0
  9
$DIMSD1
 70
     0
  9
$DIMSD2
 70
     0
  9
$DIMTOLJ
 70
     0
  9
$DIMTZIN
 70
     8
  9
$DIMALTZ
 70
     0
  9
$DIMALTTZ
 70
     0
  9
$DIMUPT
 70
     0
  9
$DIMDEC
 70
     2
  9
$DIMTDEC
 70
     2
  9
$DIMALTU
 70
     2
  9
$DIMALTTD
 70
     3
  9
$DIMTXSTY
  7
Standard
  9
$DIMAUNIT
 70
     0
  9
$DIMADEC
 70
     0
  9
$DIMALTRND
 40
0.0
  9
$DIMAZIN
 70
     0
  9
$DIMDSEP
 70
    44
  9
$DIMATFIT
 70
     3
  9
$DIMFRAC
 70
     0
  9
$DIMLDRBLK
  1

  9
$DIMLUNIT
 70
     2
  9
$DIMLWD
 70
    -2
  9
$DIMLWE
 70
    -2
  9
$DIMTMOVE
 70
     0
  9
$LUNITS
 70
     2
  9
$LUPREC
 70
     4
  9
$SKETCHINC
 40
1.0
  9
$FILLETRAD
 40
10.0
  9
$AUNITS
 70
     0
  9
$AUPREC
 70
     0
  9
$MENU
  1
.
  9
$ELEVATION
 40
0.0
  9
$PELEVATION
 40
0.0
  9
$THICKNESS
 40
0.0
  9
$LIMCHECK
 70
     0
  9
$CHAMFERA
 40
10.0
  9
$CHAMFERB
 40
10.0
  9
$CHAMFERC
 40
20.0
  9
$CHAMFERD
 40
0.0
  9
$SKPOLY
 70
     0
  9
$TDCREATE
 40
2456902.409379548
  9
$TDUCREATE
 40
2456902.034379548
  9
$TDUPDATE
 40
2456902.40937956
  9
$TDUUPDATE
 40
2456902.03437956
  9
$TDINDWG
 40
0.0000000116
  9
$TDUSRTIMER
 40
0.0000000116
  9
$USRTIMER
 70
     1
  9
$ANGBASE
 50
0.0
  9
$ANGDIR
 70
     0
  9
$PDMODE
 70
     0
  9
$PDSIZE
 40
0.0
  9
$PLINEWID
 40
0.0
  9
$SPLFRAME
 70
     0
  9
$SPLINETYPE
 70
     6
  9
$SPLINESEGS
 70
     8
  9
$HANDSEED
  5
2FB
  9
$SURFTAB1
 70
     6
  9
$SURFTAB2
 70
     6
  9
$SURFTYPE
 70
     6
  9
$SURFU
 70
     6
  9
$SURFV
 70
     6
  9
$UCSBASE
  2

  9
$UCSNAME
  2

  9
$UCSORG
 10
0.0
 20
0.0
 30
0.0
  9
$UCSXDIR
 10
1.0
 20
0.0
 30
0.0
  9
$UCSYDIR
 10
0.0
 20
1.0
 30
0.0
  9
$UCSORTHOREF
  2

  9
$UCSORTHOVIEW
 70
     0
  9
$UCSORGTOP
 10
0.0
 20
0.0
 30
0.0
  9
$UCSORGBOTTOM
 10
0.0
 20
0.0
 30
0.0
  9
$UCSORGLEFT
 10
0.0
 20
0.0
 30
0.0
  9
$UCSORGRIGHT
 10
0.0
 20
0.0
 30
0.0
  9
$UCSORGFRONT
 10
0.0
 20
0.0
 30
0.0
  9
$UCSORGBACK
 10
0.0
 20
0.0
 30
0.0
  9
$PUCSBASE
  2

  9
$PUCSNAME
  2

  9
$PUCSORG
 10
0.0
 20
0.0
 30
0.0
  9
$PUCSXDIR
 10
1.0
 20
0.0
 30
0.0
  9
$PUCSYDIR
 10
0.0
 20
1.0
 30
0.0
  9
$PUCSORTHOREF
  2

  9
$PUCSORTHOVIEW
 70
     0
  9
$PUCSORGTOP
 10
0.0
 20
0.0
 30
0.0
  9
$PUCSORGBOTTOM
 10
0.0
 20
0.0
 30
0.0
  9
$PUCSORGLEFT
 10
0.0
 20
0.0
 30
0.0
  9
$PUCSORGRIGHT
 10
0.0
 20
0.0
 30
0.0
  9
$PUCSORGFRONT
 10
0.0
 20
0.0
 30
0.0
  9
$PUCSORGBACK
 10
0.0
 20
0.0
 30
0.0
  9
$USERI1
 70
     0
  9
$USERI2
 70
     0
  9
$USERI3
 70
     0
  9
$USERI4
 70
     0
  9
$USERI5
 70
     0
  9
$USERR1
 40
0.0
  9
$USERR2
 40
0.0
  9
$USERR3
 40
0.0
  9
$USERR4
 40
0.0
  9
$USERR5
 40
0.0
  9
$WORLDVIEW
 70
     1
  9
$SHADEDGE
 70
     3
  9
$SHADEDIF
 70
    70
  9
$TILEMODE
 70
     1
  9
$MAXACTVP
 70
    64
  9
$PINSBASE
 10
0.0
 20
0.0
 30
0.0
  9
$PLIMCHECK
 70
     0
  9
$PEXTMIN
 10
1.000000000000000E+20
 20
1.000000000000000E+20
 30
1.000000000000000E+20
  9
$PEXTMAX
 10
-1.000000000000000E+20
 20
-1.000000000000000E+20
 30
-1.000000000000000E+20
  9
$PLIMMIN
 10
0.0
 20
0.0
  9
$PLIMMAX
 10
420.0
 20
297.0
  9
$UNITMODE
 70
     0
  9
$VISRETAIN
 70
     1
  9
$PLINEGEN
 70
     0
  9
$PSLTSCALE
 70
     1
  9
$TREEDEPTH
 70
  3020
  9
$CMLSTYLE
  2
Standard
  9
$CMLJUST
 70
     0
  9
$CMLSCALE
 40
20.0
  9
$PROXYGRAPHICS
 70
     1
  9
$MEASUREMENT
 70
     1
  9
$CELWEIGHT
370
    -1
  9
$ENDCAPS
280
     0
  9
$JOINSTYLE
280
     0
  9
$LWDISPLAY
290
     0
  9
$INSUNITS
 70
     4
  9
$HYPERLINKBASE
  1

  9
$STYLESHEET
  1

  9
$XEDIT
290
     1
  9
$CEPSNTYPE
380
     0
  9
$PSTYLEMODE
290
     1
  9
$FINGERPRINTGUID
  2
{E1370E28-F979-41F1-BC9D-10C97D02ACF7}
  9
$VERSIONGUID
  2
{FAEB1C32-E019-11D5-929B-00C0DF256EC4}
  9
$EXTNAMES
290
     1
  9
$PSVPSCALE
 40
0.0
  9
$OLESTARTUP
290
     0
  0
ENDSEC
  0
SECTION
  2
CLASSES
  0
CLASS
  1
ACDBDICTIONARYWDFLT
  2
AcDbDictionaryWithDefault
  3
ObjectDBX Classes
 90
        0
280
     0
281
     0
  0
CLASS
  1
VISUALSTYLE
  2
AcDbVisualStyle
  3
ObjectDBX Classes
 90
     4095
280
     0
281
     0
  0
CLASS
  1
DICTIONARYVAR
  2
AcDbDictionaryVar
  3
ObjectDBX Classes
 90
        0
280
     0
281
     0
  0
CLASS
  1
ACDBPLACEHOLDER
  2
AcDbPlaceHolder
  3
ObjectDBX Classes
 90
        0
280
     0
281
     0
  0
CLASS
  1
LAYOUT
  2
AcDbLayout
  3
ObjectDBX Classes
 90
        0
280
     0
281
     0
  0
ENDSEC
  0
SECTION
  2
TABLES
  0
TABLE
  2
VPORT
  5
8
330
0
100
AcDbSymbolTable
 70
     1
  0
VPORT
  5
29
330
8
100
AcDbSymbolTableRecord
100
AcDbViewportTableRecord
  2
*Active
 70
     0
 10
0.0
 20
0.0
 11
1.0
 21
1.0
 12
0.0
 22
0.0
 13
0.0
 23
0.0
 14
10.0
 24
10.0
 15
10.0
 25
10.0
 16
0.0
 26
0.0
 36
1.0
 17
0.0
 27
0.0
 37
0.0
 40
3267.0
 41
1.414141414141414
 42
50.0
 43
0.0
 44
0.0
 50
0.0
 51
0.0
 71
     0
 72
 10000
 73
     1
 74
     3
 75
     0
 76
     0
 77
     0
 78
     0
281
     0
 65
     1
110
0.0
120
0.0
130
0.0
111
1.0
121
0.0
131
0.0
112
0.0
122
1.0
132
0.0
 79
     0
146
0.0
  0
ENDTAB
  0
TABLE
  2
LTYPE
  5
5
330
0
100
AcDbSymbolTable
 70
     4
  0
LTYPE
  5
14
330
5
100
AcDbSymbolTableRecord
100
AcDbLinetypeTableRecord
  2
ByBlock
 70
     0
  3

 72
    65
 73
     0
 40
0.0
  0
LTYPE
  5
15
330
5
100
AcDbSymbolTableRecord
100
AcDbLinetypeTableRecord
  2
ByLayer
 70
     0
  3

 72
    65
 73
     0
 40
0.0
  0
LTYPE
  5
16
330
5
100
AcDbSymbolTableRecord
100
AcDbLinetypeTableRecord
  2
Continuous
 70
     0
  3
Solid line
 72
    65
 73
     0
 40
0.0
  0
LTYPE
  5
3C
330
5
100
AcDbSymbolTableRecord
100
AcDbLinetypeTableRecord
  2
JWW_DASHED1
 70
     0
  3
-  --  --  --  --  --  --  --  -
 72
    65
 73
     2
 40
1.693333333333333
 49
0.8466666666666667
 74
     0
 49
-0.8466666666666667
 74
     0
  0
LTYPE
  5
3D
330
5
100
AcDbSymbolTableRecord
100
AcDbLinetypeTableRecord
  2
JWW_PHANTOM1
 70
     0
  3
----  -  -  --------  -  -  ----
 72
    65
 73
     6
 40
6.773333333333333
 49
3.386666666666667
 74
     0
 49
-0.8466666666666667
 74
     0
 49
0.4233333333333333
 74
     0
 49
-0.8466666666666667
 74
     0
 49
0.4233333333333333
 74
     0
 49
-0.8466666666666667
 74
     0
  0
LTYPE
  5
3E
330
5
100
AcDbSymbolTableRecord
100
AcDbLinetypeTableRecord
  2
JWW_CENTER1
 70
     0
  3
-----  --  ----------  --  -----
 72
    65
 73
     4
 40
6.773333333333333
 49
4.233333333333333
 74
     0
 49
-0.8466666666666667
 74
     0
 49
0.8466666666666667
 74
     0
 49
-0.8466666666666667
 74
     0
  0
ENDTAB
  0
TABLE
  2
LAYER
  5
2
330
0
100
AcDbSymbolTable
 70
    12
  0
LAYER
  5
10
330
2
100
AcDbSymbolTableRecord
100
AcDbLayerTableRecord
  2
0
 70
     0
 62
     7
  6
Continuous
370
    -3
390
F
  0
LAYER
  5
3F
330
2
100
AcDbSymbolTableRecord
100
AcDbLayerTableRecord
  2
F-5
 70
     0
 62
     7
  6
Continuous
370
    -3
390
F
  0
LAYER
  5
40
330
2
100
AcDbSymbolTableRecord
100
AcDbLayerTableRecord
  2
F-1
 70
     0
 62
     7
  6
Continuous
370
    -3
390
F
  0
LAYER
  5
41
330
2
100
AcDbSymbolTableRecord
100
AcDbLayerTableRecord
  2
F-4
 70
     0
 62
     7
  6
Continuous
370
    -3
390
F
  0
LAYER
  5
42
330
2
100
AcDbSymbolTableRecord
100
AcDbLayerTableRecord
  2
0-0
 70
     0
 62
     7
  6
Continuous
370
    -3
390
F
  0
LAYER
  5
43
330
2
100
AcDbSymbolTableRecord
100
AcDbLayerTableRecord
  2
0-F
 70
     0
 62
     7
  6
Continuous
370
    -3
390
F
  0
LAYER
  5
44
330
2
100
AcDbSymbolTableRecord
100
AcDbLayerTableRecord
  2
0-1
 70
     0
 62
     7
  6
Continuous
370
    -3
390
F
  0
LAYER
  5
45
330
2
100
AcDbSymbolTableRecord
100
AcDbLayerTableRecord
  2
0-E
 70
     0
 62
     7
  6
Continuous
370
    -3
390
F
  0
LAYER
  5
46
330
2
100
AcDbSymbolTableRecord
100
AcDbLayerTableRecord
  2
0-5
 70
     0
 62
     7
  6
Continuous
370
    -3
390
F
  0
LAYER
  5
47
330
2
100
AcDbSymbolTableRecord
100
AcDbLayerTableRecord
  2
0-4
 70
     0
 62
     7
  6
Continuous
370
    -3
390
F
  0
LAYER
  5
48
330
2
100
AcDbSymbolTableRecord
100
AcDbLayerTableRecord
  2
0-3
 70
     0
 62
     7
  6
Continuous
370
    -3
390
F
  0
LAYER
  5
49
330
2
100
AcDbSymbolTableRecord
100
AcDbLayerTableRecord
  2
0-2
 70
     0
 62
     7
  6
Continuous
370
    -3
390
F
  0
ENDTAB
  0
TABLE
  2
STYLE
  5
3
330
0
100
AcDbSymbolTable
 70
     2
  0
STYLE
  5
11
330
3
100
AcDbSymbolTableRecord
100
AcDbTextStyleTableRecord
  2
Standard
 70
     0
 40
0.0
 41
1.0
 50
0.0
 71
     0
 42
2.5
  3
txt
  4

1001
ACAD
1000

1071
        0
  0
STYLE
  5
3B
330
3
100
AcDbSymbolTableRecord
100
AcDbTextStyleTableRecord
  2
ＭＳ ゴシック
 70
     0
 40
1.0
 41
1.0
 50
0.0
 71
     0
 42
10.0
  3

  4

1001
ACAD
1000
MS Gothic
1071
    32817
  0
ENDTAB
  0
TABLE
  2
VIEW
  5
6
330
0
100
AcDbSymbolTable
 70
     0
  0
ENDTAB
  0
TABLE
  2
UCS
  5
7
330
0
100
AcDbSymbolTable
 70
     0
  0
ENDTAB
  0
TABLE
  2
APPID
  5
9
330
0
100
AcDbSymbolTable
 70
     1
  0
APPID
  5
12
330
9
100
AcDbSymbolTableRecord
100
AcDbRegAppTableRecord
  2
ACAD
 70
     0
  0
ENDTAB
  0
TABLE
  2
DIMSTYLE
  5
A
330
0
100
AcDbSymbolTable
 70
     1
100
AcDbDimStyleTable
  0
DIMSTYLE
105
27
330
A
100
AcDbSymbolTableRecord
100
AcDbDimStyleTableRecord
  2
ISO-25
 70
     0
 41
2.5
 42
0.625
 43
3.75
 44
1.25
 73
     0
 74
     0
 77
     1
 78
     8
140
2.5
141
2.5
143
0.03937007874016
147
0.625
171
     3
172
     1
271
     2
272
     2
274
     3
278
    44
283
     0
284
     8
340
11
  0
ENDTAB
  0
TABLE
  2
BLOCK_RECORD
  5
1
330
0
100
AcDbSymbolTable
 70
     1
  0
BLOCK_RECORD
  5
1F
330
1
100
AcDbSymbolTableRecord
100
AcDbBlockTableRecord
  2
*Model_Space
340
22
  0
BLOCK_RECORD
  5
1B
330
1
100
AcDbSymbolTableRecord
100
AcDbBlockTableRecord
  2
*Paper_Space
340
1E
  0
BLOCK_RECORD
  5
23
330
1
100
AcDbSymbolTableRecord
100
AcDbBlockTableRecord
  2
*Paper_Space0
340
26
  0
ENDTAB
  0
ENDSEC
  0
SECTION
  2
BLOCKS
  0
BLOCK
  5
20
330
1F
100
AcDbEntity
  8
0
100
AcDbBlockBegin
  2
*Model_Space
 70
     0
 10
0.0
 20
0.0
 30
0.0
  3
*Model_Space
  1

  0
ENDBLK
  5
21
330
1F
100
AcDbEntity
  8
0
100
AcDbBlockEnd
  0
BLOCK
  5
1C
330
1B
100
AcDbEntity
 67
     1
  8
0
100
AcDbBlockBegin
  2
*Paper_Space
 70
     0
 10
0.0
 20
0.0
 30
0.0
  3
*Paper_Space
  1

  0
ENDBLK
  5
1D
330
1B
100
AcDbEntity
 67
     1
  8
0
100
AcDbBlockEnd
  0
BLOCK
  5
24
330
23
100
AcDbEntity
  8
0
100
AcDbBlockBegin
  2
*Paper_Space0
 70
     0
 10
0.0
 20
0.0
 30
0.0
  3
*Paper_Space0
  1

  0
ENDBLK
  5
25
330
23
100
AcDbEntity
  8
0
100
AcDbBlockEnd
  0
ENDSEC
  0
SECTION
  2
ENTITIES
  0
LWPOLYLINE
  5
4A
330
1F
100
AcDbEntity
  8
F-5
  6
Continuous
 62
     7
370
     9
100
AcDbPolyline
 90
        4
 70
     1
 43
1.0
 10
-2099.5
 20
-1485.0
 42
0.4142135623731
 10
-2100.0
 20
-1484.5
 42
0.4142135623731
 10
-2100.5
 20
-1485.0
 42
0.4142135623731
 10
-2100.0
 20
-1485.5
 42
0.4142135623731
  0
LWPOLYLINE
  5
4B
330
1F
100
AcDbEntity
  8
F-1
  6
Continuous
 62
     7
370
     9
100
AcDbPolyline
 90
        4
 70
     1
 43
1.0
 10
1860.499703072213
 20
-1504.999998324626
 42
0.4142135623731
 10
1859.999703072213
 20
-1504.499998324626
 42
0.4142135623731
 10
1859.499703072213
 20
-1504.999998324626
 42
0.4142135623731
 10
1859.999703072213
 20
-1505.499998324626
 42
0.4142135623731
  0
TEXT
  5
4C
330
1F
100
AcDbEntity
  8
F-4
  6
Continuous
 62
     6
370
     0
100
AcDbText
 10
-137.5075053204083
 20
-1175.751139899029
 30
0.0
 40
30.48
  1
鋳鉄製　たて引き用　シート防水用　　　ＡＬＣ＝１００
 41
0.7980769230769229
  7
ＭＳ ゴシック
100
AcDbText
  0
LINE
  5
4D
330
1F
100
AcDbEntity
  8
0-0
  6
Continuous
 62
     3
370
     9
100
AcDbLine
 10
-548.168088878776
 20
-68.98051605256256
 30
0.0
 11
-538.1680558867995
 21
-68.98051605256256
 31
0.0
  0
LINE
  5
4E
330
1F
100
AcDbEntity
  8
0-0
  6
Continuous
 62
     3
370
     9
100
AcDbLine
 10
-458.1187988661071
 20
-75.008768731511
 30
0.0
 11
-441.5504757822811
 21
-79.44821030931934
 31
0.0
  0
LINE
  5
4F
330
1F
100
AcDbEntity
  8
0-0
  6
Continuous
 62
     3
370
     9
100
AcDbLine
 10
-492.3231478684296
 20
-55.490962961874
 30
0.0
 11
-482.6638395122218
 21
-58.07918350663755
 31
0.0
  0
LINE
  5
50
330
1F
100
AcDbEntity
  8
0-0
  6
Continuous
 62
     3
370
     9
100
AcDbLine
 10
-465.3351338534381
 20
-62.722391778386
 30
0.0
 11
-473.0047785958367
 21
-60.66740405140109
 31
0.0
  0
LINE
  5
51
330
1F
100
AcDbEntity
  8
0-0
  6
Continuous
 62
     3
370
     9
100
AcDbLine
 10
-462.9324931756508
 20
-65.27386750948807
 30
0.0
 11
-461.7235022022555
 21
-71.18161699481334
 31
0.0
  0
LINE
  5
52
330
1F
100
AcDbEntity
  8
0-0
  6
Continuous
 62
     3
370
     9
100
AcDbLine
 10
-432.5147157791139
 20
-73.42416410735567
 30
0.0
 11
-436.5153228314787
 21
-77.93598183328484
 31
0.0
  0
LINE
  5
53
330
1F
100
AcDbEntity
  8
0-0
  6
Continuous
 62
     3
370
     9
100
AcDbLine
 10
-421.488302402847
 20
-74.4710819969248
 30
0.0
 11
-429.1579471452454
 21
-72.41609426994003
 31
0.0
  0
LINE
  5
54
330
1F
100
AcDbEntity
  8
0-0
  6
Continuous
 62
     3
370
     9
100
AcDbLine
 10
-541.5013177375174
 20
-42.31380264726255
 30
0.0
 11
-501.9824562246374
 21
-52.90274241711046
 31
0.0
  0
LINE
  5
55
330
1F
100
AcDbEntity
  8
0-0
  6
Continuous
 62
     3
370
     9
100
AcDbLine
 10
-478.7357323278891
 20
-72.93547045765109
 30
0.0
 11
-509.3616066152624
 21
-64.72937617977962
 31
0.0
  0
LINE
  5
56
330
1F
100
AcDbEntity
  8
0-0
  6
Continuous
 62
     3
370
     9
100
AcDbLine
 10
-473.1339421832521
 20
-81.92792849185707
 30
0.0
 11
-473.929708652847
 21
-78.03829819994434
 31
0.0
  0
LINE
  5
57
330
1F
100
AcDbEntity
  8
0-0
  6
JWW_DASHED1
 62
     3
370
     9
100
AcDbLine
 10
-437.0413798944008
 20
-94.46001318885891
 30
0.0
 11
-469.5292388471037
 21
-85.75508022855473
 31
0.0
  0
LINE
  5
58
330
1F
100
AcDbEntity
  8
0-0
  6
JWW_DASHED1
 62
     3
370
     9
100
AcDbLine
 10
-432.0064743834212
 20
-92.94766099291309
 30
0.0
 11
-429.3727249112928
 21
-89.97751708191203
 31
0.0
  0
LINE
  5
59
330
1F
100
AcDbEntity
  8
0-0
  6
Continuous
 62
     3
370
     9
100
AcDbLine
 10
-548.168088878776
 20
-68.98051605256256
 30
0.0
 11
-544.834827028058
 21
-42.31380264726255
 31
0.0
  0
LINE
  5
5A
330
1F
100
AcDbEntity
  8
0-0
  6
Continuous
 62
     3
370
     9
100
AcDbLine
 10
-389.8907319319855
 20
-175.6471222339391
 30
0.0
 11
-406.5013672254821
 21
-175.6471222339391
 31
0.0
  0
LINE
  5
5B
330
1F
100
AcDbEntity
  8
0-0
  6
Continuous
 62
     3
370
     9
100
AcDbLine
 10
-410.8627415392488
 20
-146.5720770349317
 30
0.0
 11
-406.5013672254821
 21
-175.6471222339391
 31
0.0
  0
LINE
  5
5C
330
1F
100
AcDbEntity
  8
0-0
  6
Continuous
 62
     3
370
     9
100
AcDbLine
 10
-381.9904732748907
 20
-236.176593966414
 30
0.0
 11
-386.5676151139954
 21
-178.7157471943488
 31
0.0
  0
LINE
  5
5D
330
1F
100
AcDbEntity
  8
0-0
  6
JWW_DASHED1
 62
     3
370
     9
100
AcDbLine
 10
-397.7325947909381
 20
-101.5278842826089
 30
0.0
 11
-391.8281857432186
 21
-175.6471222339391
 31
0.0
  0
LINE
  5
5E
330
1F
100
AcDbEntity
  8
0-0
  6
JWW_DASHED1
 62
     3
370
     9
100
AcDbLine
 10
-405.1127349408537
 20
-92.6626103172373
 30
0.0
 11
-422.6591876435563
 21
-87.96100624734734
 31
0.0
  0
LINE
  5
5F
330
1F
100
AcDbEntity
  8
0-0
  6
Continuous
 62
     3
370
     9
100
AcDbLine
 10
-387.4437995259464
 20
-83.59307477828025
 30
0.0
 11
-411.8292414864618
 21
-77.05930254168834
 31
0.0
  0
LINE
  5
60
330
1F
100
AcDbEntity
  8
0-0
  6
JWW_DASHED1
 62
     3
370
     9
100
AcDbLine
 10
-378.8722366300428
 20
-107.4129930241631
 30
0.0
 11
-380.0634119362084
 21
-92.45834874365187
 31
0.0
  0
LINE
  5
61
330
1F
100
AcDbEntity
  8
0-0
  6
JWW_DASHED1
 62
     3
370
     9
100
AcDbLine
 10
-351.9270297043673
 20
-118.5633737515703
 30
0.0
 11
-370.0064677850258
 21
-116.5578739891123
 31
0.0
  0
LINE
  5
62
330
1F
100
AcDbEntity
  8
0-0
  6
Continuous
 62
     3
370
     9
100
AcDbLine
 10
-364.834728052129
 20
-135.6471139859453
 30
0.0
 11
-364.834728052129
 21
-172.31373666331
 31
0.0
  0
LINE
  5
63
330
1F
100
AcDbEntity
  8
0-0
  6
JWW_DASHED1
 62
     3
370
     9
100
AcDbLine
 10
-347.5463550844347
 20
-122.7109600585803
 30
0.0
 11
-345.3901644699923
 21
-135.6471139859453
 31
0.0
  0
LINE
  5
64
330
1F
100
AcDbEntity
  8
0-0
  6
Continuous
 62
     3
370
     9
100
AcDbLine
 10
-364.834728052129
 20
-135.6471139859453
 30
0.0
 11
18.49855029457725
 21
-135.6471139859453
 31
0.0
  0
LINE
  5
65
330
1F
100
AcDbEntity
  8
0-0
  6
Continuous
 62
     3
370
     9
100
AcDbLine
 10
-336.1265123901779
 20
-90.22062670765109
 30
0.0
 11
-330.2649104317743
 21
-135.6471139859453
 31
0.0
  0
LINE
  5
66
330
1F
100
AcDbEntity
  8
0-0
  6
Continuous
 62
     3
370
     9
100
AcDbLine
 10
-361.5514490455834
 20
-242.3138438872331
 30
0.0
 11
-357.1762181017488
 21
-172.31373666331
 31
0.0
  0
LINE
  5
67
330
1F
100
AcDbEntity
  8
0-0
  6
Continuous
 62
     3
370
     9
100
AcDbLine
 10
18.49855029457725
 20
-172.31373666331
 30
0.0
 11
-364.834728052129
 21
-172.31373666331
 31
0.0
  0
LINE
  5
68
330
1F
100
AcDbEntity
  8
0-0
  6
Continuous
 62
     3
370
     9
100
AcDbLine
 10
-375.3447345185563
 20
-242.3138438872331
 30
0.0
 11
29.00855676100459
 21
-242.3138438872331
 31
0.0
  0
LINE
  5
69
330
1F
100
AcDbEntity
  8
0-0
  6
Continuous
 62
     3
370
     9
100
AcDbLine
 10
201.8319111212241
 20
-68.98051605256256
 30
0.0
 11
191.8318781292478
 21
-68.98051605256256
 31
0.0
  0
LINE
  5
6A
330
1F
100
AcDbEntity
  8
0-0
  6
Continuous
 62
     3
370
     9
100
AcDbLine
 10
145.9869701108778
 20
-55.490962961874
 30
0.0
 11
136.3276617546699
 21
-58.07918350663755
 31
0.0
  0
LINE
  5
6B
330
1F
100
AcDbEntity
  8
0-0
  6
Continuous
 62
     3
370
     9
100
AcDbLine
 10
195.1651399799655
 20
-42.31380264726255
 30
0.0
 11
155.6462784670856
 21
-52.90274241711046
 31
0.0
  0
LINE
  5
6C
330
1F
100
AcDbEntity
  8
0-0
  6
Continuous
 62
     3
370
     9
100
AcDbLine
 10
132.3995545703371
 20
-72.93547045765109
 30
0.0
 11
163.0254288577106
 21
-64.72937617977962
 31
0.0
  0
LINE
  5
6D
330
1F
100
AcDbEntity
  8
0-0
  6
Continuous
 62
     3
370
     9
100
AcDbLine
 10
126.7977644257004
 20
-81.92792849185707
 30
0.0
 11
127.5935308952949
 21
-78.03829819994434
 31
0.0
  0
LINE
  5
6E
330
1F
100
AcDbEntity
  8
0-0
  6
Continuous
 62
     3
370
     9
100
AcDbLine
 10
90.70520213684912
 20
-94.46001318885891
 30
0.0
 11
123.1930610895517
 21
-85.75508022855473
 31
0.0
  0
LINE
  5
6F
330
1F
100
AcDbEntity
  8
0-0
  6
Continuous
 62
     3
370
     9
100
AcDbLine
 10
85.67029662586944
 20
-92.94766099291309
 30
0.0
 11
83.03654715374105
 21
-89.97751708191203
 31
0.0
  0
LINE
  5
70
330
1F
100
AcDbEntity
  8
0-0
  6
Continuous
 62
     3
370
     9
100
AcDbLine
 10
201.8319111212241
 20
-68.98051605256256
 30
0.0
 11
198.4986492705061
 21
-42.31380264726255
 31
0.0
  0
LINE
  5
71
330
1F
100
AcDbEntity
  8
0-0
  6
JWW_PHANTOM1
 62
     3
370
     9
100
AcDbLine
 10
64.52656378169704
 20
-146.5720770349317
 30
0.0
 11
60.1651894679301
 21
-175.6471222339391
 31
0.0
  0
LINE
  5
72
330
1F
100
AcDbEntity
  8
0-0
  6
Continuous
 62
     3
370
     9
100
AcDbLine
 10
35.65429551733897
 20
-236.176593966414
 30
0.0
 11
40.23143735644364
 21
-178.7157471943488
 31
0.0
  0
LINE
  5
73
330
1F
100
AcDbEntity
  8
0-0
  6
JWW_PHANTOM1
 62
     3
370
     9
100
AcDbLine
 10
114.131319905008
 20
-138.0472802655058
 30
0.0
 11
121.2595663154809
 21
-89.9801152000498
 31
0.0
  0
LINE
  5
74
330
1F
100
AcDbEntity
  8
0-0
  6
Continuous
 62
     3
370
     9
100
AcDbLine
 10
51.39641703338636
 20
-101.5278842826089
 30
0.0
 11
45.49200798566655
 21
-175.6471222339391
 31
0.0
  0
LINE
  5
75
330
1F
100
AcDbEntity
  8
0-0
  6
Continuous
 62
     3
370
     9
100
AcDbLine
 10
58.77655718330171
 20
-92.6626103172373
 30
0.0
 11
76.3230098860046
 21
-87.96100624734734
 31
0.0
  0
LINE
  5
76
330
1F
100
AcDbEntity
  8
0-0
  6
Continuous
 62
     3
370
     9
100
AcDbLine
 10
18.49855029457725
 20
-135.6471139859453
 30
0.0
 11
18.49855029457725
 21
-172.31373666331
 31
0.0
  0
LINE
  5
77
330
1F
100
AcDbEntity
  8
0-0
  6
Continuous
 62
     3
370
     9
100
AcDbLine
 10
15.2152712880314
 20
-242.3138438872331
 30
0.0
 11
10.84004034419703
 21
-172.31373666331
 31
0.0
  0
LINE
  5
78
330
1F
100
AcDbEntity
  8
0-0
  6
JWW_PHANTOM1
 62
     3
370
     9
100
AcDbLine
 10
109.1854927301767
 20
-142.3138851272036
 30
0.0
 11
69.47115375741501
 21
-142.3138851272036
 31
0.0
  0
LINE
  5
79
330
1F
100
AcDbEntity
  8
0-0
  6
Continuous
 62
     3
370
     9
100
AcDbLine
 10
43.55455417443348
 20
-175.6471222339391
 30
0.0
 11
45.49200798566655
 21
-175.6471222339391
 31
0.0
  0
LINE
  5
7A
330
1F
100
AcDbEntity
  8
0-0
  6
JWW_PHANTOM1
 62
     3
370
     9
100
AcDbLine
 10
45.49200798566655
 20
-175.6471222339391
 30
0.0
 11
60.1651894679301
 21
-175.6471222339391
 31
0.0
  0
LINE
  5
7B
330
1F
100
AcDbEntity
  8
0-0
  6
Continuous
 62
     3
370
     9
100
AcDbLine
 10
118.9987086560637
 20
-62.722391778386
 30
0.0
 11
126.6686008382848
 21
-60.66740405140109
 31
0.0
  0
LINE
  5
7C
330
1F
100
AcDbEntity
  8
0-0
  6
Continuous
 62
     3
370
     9
100
AcDbLine
 10
116.5963154180991
 20
-65.27399122939954
 30
0.0
 11
115.3873244447038
 21
-71.18161699481334
 31
0.0
  0
LINE
  5
7D
330
1F
100
AcDbEntity
  8
0-0
  6
Continuous
 62
     3
370
     9
100
AcDbLine
 10
111.7826211085551
 20
-75.008768731511
 30
0.0
 11
95.21454546455172
 21
-79.44821030931934
 31
0.0
  0
LINE
  5
7E
330
1F
100
AcDbEntity
  8
0-0
  6
Continuous
 62
     3
370
     9
100
AcDbLine
 10
86.17853802156188
 20
-73.42416410735567
 30
0.0
 11
90.17914507392672
 21
-77.93598183328484
 31
0.0
  0
LINE
  5
7F
330
1F
100
AcDbEntity
  8
0-0
  6
Continuous
 62
     3
370
     9
100
AcDbLine
 10
75.15212464529495
 20
-74.4710819969248
 30
0.0
 11
82.82176938769365
 21
-72.41609426994003
 31
0.0
  0
LINE
  5
80
330
1F
100
AcDbEntity
  8
0-0
  6
Continuous
 62
     3
370
     9
100
AcDbLine
 10
41.10762176839469
 20
-83.59307477828025
 30
0.0
 11
65.49306372890979
 21
-77.05930254168834
 31
0.0
  0
LINE
  5
81
330
1F
100
AcDbEntity
  8
0-0
  6
Continuous
 62
     3
370
     9
100
AcDbLine
 10
32.53605887249105
 20
-107.4128693042516
 30
0.0
 11
33.7272341786564
 21
-92.45834874365187
 31
0.0
  0
LINE
  5
82
330
1F
100
AcDbEntity
  8
0-0
  6
Continuous
 62
     3
370
     9
100
AcDbLine
 10
1.210177326882982
 20
-122.7109600585803
 30
0.0
 11
-0.9460132875597393
 21
-135.6471139859453
 31
0.0
  0
LINE
  5
83
330
1F
100
AcDbEntity
  8
0-0
  6
Continuous
 62
     3
370
     9
100
AcDbLine
 10
5.590851946815261
 20
-118.5633737515703
 30
0.0
 11
23.67029002747412
 21
-116.5578739891123
 31
0.0
  0
LINE
  5
84
330
1F
100
AcDbEntity
  8
0-0
  6
Continuous
 62
     3
370
     9
100
AcDbLine
 10
-356.29273421503
 20
-237.0550053367685
 30
0.0
 11
-352.2462270755665
 21
-172.31373666331
 31
0.0
  0
LINE
  5
85
330
1F
100
AcDbEntity
  8
0-0
  6
Continuous
 62
     3
370
     9
100
AcDbLine
 10
-361.5514490455834
 20
-242.3138438872331
 30
0.0
 11
-356.29273421503
 21
-237.0550053367685
 31
0.0
  0
LINE
  5
86
330
1F
100
AcDbEntity
  8
0-0
  6
Continuous
 62
     3
370
     9
100
AcDbLine
 10
15.2152712880314
 20
-242.3138438872331
 30
0.0
 11
9.956680177389753
 21
-237.0550053367685
 31
0.0
  0
LINE
  5
87
330
1F
100
AcDbEntity
  8
0-0
  6
Continuous
 62
     3
370
     9
100
AcDbLine
 10
-356.29273421503
 20
-237.0550053367685
 30
0.0
 11
9.956680177389753
 21
-237.0550053367685
 31
0.0
  0
LINE
  5
88
330
1F
100
AcDbEntity
  8
0-0
  6
Continuous
 62
     3
370
     9
100
AcDbLine
 10
9.956680177389753
 20
-237.0550053367685
 30
0.0
 11
5.910049318014754
 21
-172.31373666331
 31
0.0
  0
LINE
  5
89
330
1F
100
AcDbEntity
  8
0-F
  6
Continuous
 62
     7
370
     9
100
AcDbLine
 10
-356.4638388523824
 20
-342.3138026472628
 30
0.0
 11
10.12815597447567
 21
-342.3138026472628
 31
0.0
  0
LINE
  5
8A
330
1F
100
AcDbEntity
  8
0-F
  6
Continuous
 62
     7
370
     9
100
AcDbLine
 10
-356.4638388523824
 20
-252.3138768792094
 30
0.0
 11
-356.4638388523824
 21
-345.3140104967136
 31
0.0
  0
LINE
  5
8B
330
1F
100
AcDbEntity
  8
0-F
  6
Continuous
 62
     7
370
     9
100
AcDbLine
 10
10.12815597447567
 20
-252.3138768792094
 30
0.0
 11
10.12815597447567
 21
-345.3140104967136
 31
0.0
  0
LINE
  5
8C
330
1F
100
AcDbEntity
  8
0-F
  6
Continuous
 62
     7
370
     9
100
AcDbLine
 10
-356.4638388523824
 20
-342.3138026472628
 30
0.0
 11
-331.6775443791983
 21
-339.0508137061732
 31
0.0
  0
LINE
  5
8D
330
1F
100
AcDbEntity
  8
0-F
  6
Continuous
 62
     7
370
     9
100
AcDbLine
 10
-356.4638388523824
 20
-342.3138026472628
 30
0.0
 11
-331.6775443791983
 21
-345.5767915883521
 31
0.0
  0
LINE
  5
8E
330
1F
100
AcDbEntity
  8
0-F
  6
Continuous
 62
     7
370
     9
100
AcDbLine
 10
10.12815597447567
 20
-342.3138026472628
 30
0.0
 11
-14.65789105888578
 21
-339.0508137061732
 31
0.0
  0
LINE
  5
8F
330
1F
100
AcDbEntity
  8
0-F
  6
Continuous
 62
     7
370
     9
100
AcDbLine
 10
10.12815597447567
 20
-342.3138026472628
 30
0.0
 11
-14.65789105888578
 21
-345.5767915883521
 31
0.0
  0
LINE
  5
90
330
1F
100
AcDbEntity
  8
0-F
  6
Continuous
 62
     7
370
     9
100
AcDbLine
 10
301.831993601165
 20
-242.3138438872331
 30
0.0
 11
301.831993601165
 21
-42.31380264726255
 31
0.0
  0
LINE
  5
91
330
1F
100
AcDbEntity
  8
0-F
  6
Continuous
 62
     7
370
     9
100
AcDbLine
 10
301.831993601165
 20
-242.3138438872331
 30
0.0
 11
298.5687572202527
 21
-217.5276731339602
 31
0.0
  0
LINE
  5
92
330
1F
100
AcDbEntity
  8
0-F
  6
Continuous
 62
     7
370
     9
100
AcDbLine
 10
301.831993601165
 20
-242.3138438872331
 30
0.0
 11
305.0952299820772
 21
-217.5276731339602
 31
0.0
  0
LINE
  5
93
330
1F
100
AcDbEntity
  8
0-F
  6
Continuous
 62
     7
370
     9
100
AcDbLine
 10
301.831993601165
 20
-42.31380264726255
 30
0.0
 11
298.5687572202527
 21
-67.10009712044666
 31
0.0
  0
LINE
  5
94
330
1F
100
AcDbEntity
  8
0-F
  6
Continuous
 62
     7
370
     9
100
AcDbLine
 10
301.831993601165
 20
-42.31380264726255
 30
0.0
 11
305.0952299820772
 21
-67.10009712044666
 31
0.0
  0
LINE
  5
95
330
1F
100
AcDbEntity
  8
0-0
  6
JWW_DASHED1
 62
     3
370
     9
100
AcDbLine
 10
-415.8073315149667
 20
-142.3138851272036
 30
0.0
 11
-399.1009370101105
 21
-142.3138851272036
 31
0.0
  0
LINE
  5
96
330
1F
100
AcDbEntity
  8
0-0
  6
Continuous
 62
     3
370
     9
100
AcDbLine
 10
-460.4674976625597
 20
-138.0472802655058
 30
0.0
 11
-467.5957440730326
 21
-89.9801152000498
 31
0.0
  0
LINE
  5
97
330
1F
100
AcDbEntity
  8
0-1
  6
Continuous
 62
     2
370
     9
100
AcDbLine
 10
-514.8347280521289
 20
-49.45912240549745
 30
0.0
 11
-513.16809712677
 21
-42.79247498415046
 31
0.0
  0
LINE
  5
98
330
1F
100
AcDbEntity
  8
0-1
  6
Continuous
 62
     2
370
     9
100
AcDbLine
 10
-494.6381948490039
 20
-42.79247498415046
 30
0.0
 11
-513.16809712677
 21
-42.79247498415046
 31
0.0
  0
LINE
  5
99
330
1F
100
AcDbEntity
  8
0-1
  6
Continuous
 62
     2
370
     9
100
AcDbLine
 10
-449.8345136042826
 20
-29.45930386136723
 30
0.0
 11
-459.8347940360816
 21
-29.45930386136723
 31
0.0
  0
LINE
  5
9A
330
1F
100
AcDbEntity
  8
0-1
  6
Continuous
 62
     2
370
     9
100
AcDbLine
 10
-461.4781656181128
 20
-40.19002664958521
 30
0.0
 11
-459.8347940360816
 21
-29.45930386136723
 31
0.0
  0
LINE
  5
9B
330
1F
100
AcDbEntity
  8
0-1
  6
Continuous
 62
     2
370
     9
100
AcDbLine
 10
-449.8345136042826
 20
-29.45930386136723
 30
0.0
 11
-445.6077465540292
 21
-52.01220649544666
 31
0.0
  0
LINE
  5
9C
330
1F
100
AcDbEntity
  8
0-1
  6
Continuous
 62
     2
370
     9
100
AcDbLine
 10
168.4985502945773
 20
-49.45912240549745
 30
0.0
 11
166.8317956493069
 21
-42.79247498415046
 31
0.0
  0
LINE
  5
9D
330
1F
100
AcDbEntity
  8
0-1
  6
Continuous
 62
     2
370
     9
100
AcDbLine
 10
148.3020170914523
 20
-42.79247498415046
 30
0.0
 11
166.8317956493069
 21
-42.79247498415046
 31
0.0
  0
LINE
  5
9E
330
1F
100
AcDbEntity
  8
0-1
  6
Continuous
 62
     2
370
     9
100
AcDbLine
 10
-376.5015156893756
 20
-67.7925574640912
 30
0.0
 11
-373.1681301187464
 21
-84.45923787741464
 31
0.0
  0
LINE
  5
9F
330
1F
100
AcDbEntity
  8
0-1
  6
Continuous
 62
     2
370
     9
100
AcDbLine
 10
-336.5013837214701
 20
-67.7925574640912
 30
0.0
 11
-339.8348930120108
 21
-84.45923787741464
 31
0.0
  0
LINE
  5
A0
330
1F
100
AcDbEntity
  8
0-1
  6
Continuous
 62
     2
370
     9
100
AcDbLine
 10
-401.3363083677962
 20
-67.7925574640912
 30
0.0
 11
-440.7805667741516
 21
-57.22353659996543
 31
0.0
  0
LINE
  5
A1
330
1F
100
AcDbEntity
  8
0-1
  6
Continuous
 62
     2
370
     9
100
AcDbLine
 10
-473.9511121975048
 20
-48.33574561073391
 30
0.0
 11
-494.6381948490039
 21
-42.79247498415046
 31
0.0
  0
LINE
  5
A2
330
1F
100
AcDbEntity
  8
0-1
  6
JWW_DASHED1
 62
     2
370
     9
100
AcDbLine
 10
-440.7805667741516
 20
-57.22353659996543
 30
0.0
 11
-473.9511121975048
 21
-48.33574561073391
 31
0.0
  0
LINE
  5
A3
330
1F
100
AcDbEntity
  8
0-1
  6
Continuous
 62
     2
370
     9
100
AcDbLine
 10
127.6150581598642
 20
-48.33549817091125
 30
0.0
 11
148.3020170914523
 21
-42.79247498415046
 31
0.0
  0
LINE
  5
A4
330
1F
100
AcDbEntity
  8
0-1
  6
Continuous
 62
     2
370
     9
100
AcDbLine
 10
103.4985832865536
 20
-29.45930386136723
 30
0.0
 11
113.4986162785299
 21
-29.45930386136723
 31
0.0
  0
LINE
  5
A5
330
1F
100
AcDbEntity
  8
0-1
  6
Continuous
 62
     4
370
     9
100
AcDbLine
 10
-343.1681548627287
 20
-105.0589742715235
 30
0.0
 11
-369.8347445481173
 21
-105.0589742715235
 31
0.0
  0
LINE
  5
A6
330
1F
100
AcDbEntity
  8
0-1
  6
Continuous
 62
     4
370
     9
100
AcDbLine
 10
-369.8347445481173
 20
-105.0589742715235
 30
0.0
 11
-367.579825444443
 21
-107.3137696552863
 31
0.0
  0
LINE
  5
A7
330
1F
100
AcDbEntity
  8
0-1
  6
Continuous
 62
     4
370
     9
100
AcDbLine
 10
-367.579825444443
 20
-107.3137696552863
 30
0.0
 11
-345.4230739664027
 21
-107.3137696552863
 31
0.0
  0
LINE
  5
A8
330
1F
100
AcDbEntity
  8
0-1
  6
Continuous
 62
     4
370
     9
100
AcDbLine
 10
-345.4230739664027
 20
-107.3137696552863
 30
0.0
 11
-343.1681548627287
 21
-105.0589742715235
 31
0.0
  0
LINE
  5
A9
330
1F
100
AcDbEntity
  8
0-1
  6
Continuous
 62
     4
370
     9
100
AcDbLine
 10
-381.5015321853639
 20
-48.53159423034953
 30
0.0
 11
-381.5015321853639
 21
-67.7925574640912
 31
0.0
  0
LINE
  5
AA
330
1F
100
AcDbEntity
  8
0-1
  6
Continuous
 62
     4
370
     9
100
AcDbLine
 10
-331.5013672254821
 20
-48.53159423034953
 30
0.0
 11
-331.5013672254821
 21
-67.7925574640912
 31
0.0
  0
LINE
  5
AB
330
1F
100
AcDbEntity
  8
0-1
  6
Continuous
 62
     4
370
     9
100
AcDbLine
 10
-381.5015321853639
 20
-67.7925574640912
 30
0.0
 11
-331.5013672254821
 21
-67.7925574640912
 31
0.0
  0
LINE
  5
AC
330
1F
100
AcDbEntity
  8
0-1
  6
Continuous
 62
     4
370
     9
100
AcDbLine
 10
-368.9922119520446
 20
-48.53159423034953
 30
0.0
 11
-368.9922119520446
 21
-67.7925574640912
 31
0.0
  0
LINE
  5
AD
330
1F
100
AcDbEntity
  8
0-1
  6
Continuous
 62
     4
370
     9
100
AcDbLine
 10
-344.0106874588014
 20
-48.53159423034953
 30
0.0
 11
-344.0106874588014
 21
-67.7925574640912
 31
0.0
  0
LINE
  5
AE
330
1F
100
AcDbEntity
  8
0-1
  6
Continuous
 62
     4
370
     9
100
AcDbLine
 10
-375.2467483487928
 20
-46.12586055477962
 30
0.0
 11
-337.7561510620529
 21
-46.12586055477962
 31
0.0
  0
LINE
  5
AF
330
1F
100
AcDbEntity
  8
0-1
  6
Continuous
 62
     4
370
     9
100
AcDbLine
 10
-367.579825444443
 20
-67.7925574640912
 30
0.0
 11
-367.579825444443
 21
-107.3137696552863
 31
0.0
  0
LINE
  5
B0
330
1F
100
AcDbEntity
  8
0-1
  6
Continuous
 62
     4
370
     9
100
AcDbLine
 10
-369.8347445481173
 20
-67.7925574640912
 30
0.0
 11
-369.8347445481173
 21
-105.0589742715235
 31
0.0
  0
LINE
  5
B1
330
1F
100
AcDbEntity
  8
0-1
  6
Continuous
 62
     4
370
     9
100
AcDbLine
 10
-345.4230739664027
 20
-67.7925574640912
 30
0.0
 11
-345.4230739664027
 21
-107.3137696552863
 31
0.0
  0
LINE
  5
B2
330
1F
100
AcDbEntity
  8
0-1
  6
Continuous
 62
     4
370
     9
100
AcDbLine
 10
-343.1681548627287
 20
-67.7925574640912
 30
0.0
 11
-343.1681548627287
 21
-105.0589742715235
 31
0.0
  0
LINE
  5
B3
330
1F
100
AcDbEntity
  8
0-1
  6
Continuous
 62
     4
370
     9
100
AcDbLine
 10
-343.1681548627287
 20
23.76425966798223
 30
0.0
 11
-369.8347445481173
 21
23.76425966798223
 31
0.0
  0
LINE
  5
B4
330
1F
100
AcDbEntity
  8
0-1
  6
Continuous
 62
     4
370
     9
100
AcDbLine
 10
-369.8347445481173
 20
23.76425966798223
 30
0.0
 11
-367.579825444443
 21
26.0194262114787
 31
0.0
  0
LINE
  5
B5
330
1F
100
AcDbEntity
  8
0-1
  6
Continuous
 62
     4
370
     9
100
AcDbLine
 10
-367.579825444443
 20
26.0194262114787
 30
0.0
 11
-345.4230739664027
 21
26.0194262114787
 31
0.0
  0
LINE
  5
B6
330
1F
100
AcDbEntity
  8
0-1
  6
Continuous
 62
     4
370
     9
100
AcDbLine
 10
-345.4230739664027
 20
26.0194262114787
 30
0.0
 11
-343.1681548627287
 21
23.76425966798223
 31
0.0
  0
LINE
  5
B7
330
1F
100
AcDbEntity
  8
0-1
  6
Continuous
 62
     4
370
     9
100
AcDbLine
 10
-367.579825444443
 20
-46.12586055477962
 30
0.0
 11
-367.579825444443
 21
26.0194262114787
 31
0.0
  0
LINE
  5
B8
330
1F
100
AcDbEntity
  8
0-1
  6
Continuous
 62
     4
370
     9
100
AcDbLine
 10
-369.8347445481173
 20
-46.12586055477962
 30
0.0
 11
-369.8347445481173
 21
23.76425966798223
 31
0.0
  0
LINE
  5
B9
330
1F
100
AcDbEntity
  8
0-1
  6
Continuous
 62
     4
370
     9
100
AcDbLine
 10
-345.4230739664027
 20
-46.12586055477962
 30
0.0
 11
-345.4230739664027
 21
26.0194262114787
 31
0.0
  0
LINE
  5
BA
330
1F
100
AcDbEntity
  8
0-1
  6
Continuous
 62
     4
370
     9
100
AcDbLine
 10
-343.1681548627287
 20
-46.12586055477962
 30
0.0
 11
-343.1681548627287
 21
23.76425966798223
 31
0.0
  0
LINE
  5
BB
330
1F
100
AcDbEntity
  8
0-1
  6
Continuous
 62
     2
370
     9
100
AcDbLine
 10
-369.8347445481173
 20
-84.45923787741464
 30
0.0
 11
-384.2118642825977
 21
-84.45923787741464
 31
0.0
  0
LINE
  5
BC
330
1F
100
AcDbEntity
  8
0-1
  6
Continuous
 62
     2
370
     9
100
AcDbLine
 10
100.1650739960129
 20
-69.49432484426438
 30
0.0
 11
106.8318451372712
 21
-67.70793304475006
 31
0.0
  0
LINE
  5
BD
330
1F
100
AcDbEntity
  8
0-1
  6
Continuous
 62
     2
370
     9
100
AcDbLine
 10
100.1650739960129
 20
-69.49432484426438
 30
0.0
 11
96.83181214529495
 21
-68.66218472074223
 31
0.0
  0
LINE
  5
BE
330
1F
100
AcDbEntity
  8
0-1
  6
Continuous
 62
     2
370
     9
100
AcDbLine
 10
37.87556280513454
 20
-84.45923787741464
 30
0.0
 11
96.83181214529495
 21
-68.66218472074223
 31
0.0
  0
LINE
  5
BF
330
1F
100
AcDbEntity
  8
0-1
  6
Continuous
 62
     2
370
     9
100
AcDbLine
 10
106.8318451372712
 20
-67.70793304475006
 30
0.0
 11
110.1653544278119
 21
-65.08927740180255
 31
0.0
  0
LINE
  5
C0
330
1F
100
AcDbEntity
  8
0-1
  6
Continuous
 62
     2
370
     9
100
AcDbLine
 10
110.1653544278119
 20
-65.08927740180255
 30
0.0
 11
168.4985502945773
 21
-49.45912240549745
 31
0.0
  0
LINE
  5
C1
330
1F
100
AcDbEntity
  8
0-1
  6
Continuous
 62
     2
370
     9
100
AcDbLine
 10
-446.5012517535646
 20
-69.49432484426438
 30
0.0
 11
-453.1680228948233
 21
-67.70793304475006
 31
0.0
  0
LINE
  5
C2
330
1F
100
AcDbEntity
  8
0-1
  6
Continuous
 62
     2
370
     9
100
AcDbLine
 10
-453.1680228948233
 20
-67.70793304475006
 30
0.0
 11
-456.5015321853639
 21
-65.08940112171359
 31
0.0
  0
LINE
  5
C3
330
1F
100
AcDbEntity
  8
0-1
  6
Continuous
 62
     2
370
     9
100
AcDbLine
 10
-456.5015321853639
 20
-65.08940112171359
 30
0.0
 11
-514.8347280521289
 21
-49.45912240549745
 31
0.0
  0
LINE
  5
C4
330
1F
100
AcDbEntity
  8
0-1
  6
Continuous
 62
     2
370
     9
100
AcDbLine
 10
-446.5012517535646
 20
-69.49432484426438
 30
0.0
 11
-443.167989902847
 21
-68.66218472074223
 31
0.0
  0
LINE
  5
C5
330
1F
100
AcDbEntity
  8
0-1
  6
Continuous
 62
     2
370
     9
100
AcDbLine
 10
-384.2118642825977
 20
-84.45923787741464
 30
0.0
 11
-443.167989902847
 21
-68.66218472074223
 31
0.0
  0
LINE
  5
C6
330
1F
100
AcDbEntity
  8
0-1
  6
Continuous
 62
     2
370
     9
100
AcDbLine
 10
-343.1681548627287
 20
-84.45923787741464
 30
0.0
 11
37.87556280513454
 21
-84.45923787741464
 31
0.0
  0
LINE
  5
C7
330
1F
100
AcDbEntity
  8
0-1
  6
Continuous
 62
     2
370
     9
100
AcDbLine
 10
115.1421115804723
 20
-40.19002664958521
 30
0.0
 11
113.4986162785299
 21
-29.45930386136723
 31
0.0
  0
LINE
  5
C8
330
1F
100
AcDbEntity
  8
0-1
  6
Continuous
 62
     2
370
     9
100
AcDbLine
 10
100.5147064653962
 20
-45.38032436917973
 30
0.0
 11
103.4985832865536
 21
-29.45930386136723
 31
0.0
  0
LINE
  5
C9
330
1F
100
AcDbEntity
  8
0-1
  6
JWW_DASHED1
 62
     2
370
     9
100
AcDbLine
 10
100.5147064653962
 20
-45.38032436917973
 30
0.0
 11
99.27156879647751
 21
-52.01220649544666
 31
0.0
  0
LINE
  5
CA
330
1F
100
AcDbEntity
  8
0-1
  6
Continuous
 62
     2
370
     9
100
AcDbLine
 10
54.24123267422228
 20
-64.02046108792973
 30
0.0
 11
56.09826854309912
 21
-53.58344936917973
 31
0.0
  0
LINE
  5
CB
330
1F
100
AcDbEntity
  8
0-1
  6
Continuous
 62
     2
370
     9
100
AcDbLine
 10
49.40304182223766
 20
-69.29229022908274
 30
0.0
 11
36.33970382603817
 21
-72.79257396007921
 31
0.0
  0
LINE
  5
CC
330
1F
100
AcDbEntity
  8
0-1
  6
JWW_DASHED1
 62
     2
370
     9
100
AcDbLine
 10
49.40304182223766
 20
-69.29229022908274
 30
0.0
 11
127.6150581598642
 21
-48.33549817091125
 31
0.0
  0
LINE
  5
CD
330
1F
100
AcDbEntity
  8
0-1
  6
JWW_CENTER1
 62
     4
370
     9
100
AcDbLine
 10
-356.501449705423
 20
36.01958292336661
 30
0.0
 11
-356.501449705423
 21
-117.3138026472625
 31
0.0
  0
LINE
  5
CE
330
1F
100
AcDbEntity
  8
0-1
  6
Continuous
 62
     2
370
     9
100
AcDbLine
 10
-315.6975094736874
 20
-71.81209366288755
 30
0.0
 11
-313.1680558867996
 21
-84.45923787741464
 31
0.0
  0
LINE
  5
CF
330
1F
100
AcDbEntity
  8
0-1
  6
Continuous
 62
     2
370
     9
100
AcDbLine
 10
-320.6004058392912
 20
-67.7925574640912
 30
0.0
 11
-401.3363083677962
 21
-67.7925574640912
 31
0.0
  0
LINE
  5
D0
330
1F
100
AcDbEntity
  8
0-1
  6
Continuous
 62
     2
370
     9
100
AcDbLine
 10
9.474667402896241
 20
-75.210184747136
 30
0.0
 11
6.832010097153014
 21
-84.45923787741464
 31
0.0
  0
LINE
  5
D1
330
1F
100
AcDbEntity
  8
0-1
  6
Continuous
 62
     2
370
     9
100
AcDbLine
 10
-315.5014134142488
 20
-72.79257396007921
 30
0.0
 11
36.33970382603817
 21
-72.79257396007921
 31
0.0
  0
LINE
  5
D2
330
1F
100
AcDbEntity
  8
0-0
  6
Continuous
 62
     3
370
     9
100
AcDbLine
 10
-544.834827028058
 20
-42.31380264726255
 30
0.0
 11
-462.0478958097303
 21
-42.31380264726255
 31
0.0
  0
LINE
  5
D3
330
1F
100
AcDbEntity
  8
0-0
  6
Continuous
 62
     3
370
     9
100
AcDbLine
 10
115.7119654920012
 20
-42.31380264726255
 30
0.0
 11
198.4986492705061
 21
-42.31380264726255
 31
0.0
  0
LINE
  5
D4
330
1F
100
AcDbEntity
  8
0-0
  6
Continuous
 62
     3
370
     9
100
AcDbLine
 10
-339.4323084205834
 20
-87.31382739124484
 30
0.0
 11
-343.1681548627287
 21
-87.31382739124484
 31
0.0
  0
LINE
  5
D5
330
1F
100
AcDbEntity
  8
0-0
  6
Continuous
 62
     3
370
     9
100
AcDbLine
 10
-369.8347445481173
 20
-87.31382739124484
 30
0.0
 11
-381.9862667979061
 21
-87.31382739124484
 31
0.0
  0
LINE
  5
D6
330
1F
100
AcDbEntity
  8
0-1
  6
Continuous
 62
     2
370
     9
100
AcDbLine
 10
95.60030414804001
 20
-49.45912240549745
 30
0.0
 11
90.16528844385928
 21
-49.45912240549745
 31
0.0
  0
LINE
  5
D7
330
1F
100
AcDbEntity
  8
0-E
  6
Continuous
 62
     7
370
     9
100
AcDbLine
 10
-548.168088878776
 20
-68.98051605256256
 30
0.0
 11
-557.7352259010522
 21
-92.07753885661646
 31
0.0
  0
LINE
  5
D8
330
1F
100
AcDbEntity
  8
0-E
  6
Continuous
 62
     7
370
     9
100
AcDbLine
 10
-548.168088878776
 20
-68.98051605256256
 30
0.0
 11
-563.3871226097726
 21
-88.81430247570421
 31
0.0
  0
LINE
  5
D9
330
1F
100
AcDbEntity
  8
0-E
  6
Continuous
 62
     7
370
     9
100
AcDbLine
 10
-548.168088878776
 20
-68.98051605256256
 30
0.0
 11
-617.4501257374119
 21
-188.9805407965447
 31
0.0
  0
LINE
  5
DA
330
1F
100
AcDbEntity
  8
0-E
  6
Continuous
 62
     7
370
     9
100
AcDbLine
 10
-919.3502161354272
 20
-188.9805407965447
 30
0.0
 11
-617.4501257374119
 21
-188.9805407965447
 31
0.0
  0
LINE
  5
DB
330
1F
100
AcDbEntity
  8
0-5
  6
Continuous
 62
     2
370
     9
100
AcDbLine
 10
-489.5254695138055
 20
-398.526562953956
 30
0.0
 11
-490.9650744018966
 21
-392.7678959617685
 31
0.0
  0
LINE
  5
DC
330
1F
100
AcDbEntity
  8
0-5
  6
Continuous
 62
     2
370
     9
100
AcDbLine
 10
-479.1150575759888
 20
-385.1931443913504
 30
0.0
 11
-480.55466246408
 21
-379.4344773991629
 31
0.0
  0
LINE
  5
DD
330
1F
100
AcDbEntity
  8
0-5
  6
Continuous
 62
     2
370
     9
100
AcDbLine
 10
44.21843521856371
 20
-398.526562953956
 30
0.0
 11
41.83163068942516
 21
-388.980458316604
 31
0.0
  0
LINE
  5
DE
330
1F
100
AcDbEntity
  8
0-5
  6
Continuous
 62
     2
370
     9
100
AcDbLine
 10
199.4453540319082
 20
-385.1931443913504
 30
0.0
 11
201.8319111212241
 21
-375.6470397539982
 31
0.0
  0
LINE
  5
DF
330
1F
100
AcDbEntity
  8
0-5
  6
Continuous
 62
     2
370
     9
100
AcDbLine
 10
134.2182372667056
 20
-379.4344773991629
 30
0.0
 11
132.7786323786142
 21
-385.1931443913504
 31
0.0
  0
LINE
  5
E0
330
1F
100
AcDbEntity
  8
0-5
  6
Continuous
 62
     2
370
     9
100
AcDbLine
 10
-463.6180252042615
 20
-392.2248892709957
 30
0.0
 11
-459.8346703161704
 21
-402.3135057194754
 31
0.0
  0
LINE
  5
E1
330
1F
100
AcDbEntity
  8
0-5
  6
Continuous
 62
     2
370
     9
100
AcDbLine
 10
-422.7180783213436
 20
-392.2248892709957
 30
0.0
 11
-426.5014332094347
 21
-402.3135057194754
 31
0.0
  0
LINE
  5
E2
330
1F
100
AcDbEntity
  8
0-5
  6
Continuous
 62
     2
370
     9
100
AcDbLine
 10
-545.7816555093714
 20
-385.1931443913504
 30
0.0
 11
-548.168088878776
 21
-375.6470397539982
 31
0.0
  0
LINE
  5
E3
330
1F
100
AcDbEntity
  8
0-5
  6
Continuous
 62
     2
370
     9
100
AcDbLine
 10
139.0690475496447
 20
-375.6470397539982
 30
0.0
 11
201.8319111212241
 21
-375.6470397539982
 31
0.0
  0
LINE
  5
E4
330
1F
100
AcDbEntity
  8
0-5
  6
Continuous
 62
     2
370
     9
100
AcDbLine
 10
149.4793357675502
 20
-388.980458316604
 30
0.0
 11
194.5947911887916
 21
-388.980458316604
 31
0.0
  0
LINE
  5
E5
330
1F
100
AcDbEntity
  8
0-5
  6
Continuous
 62
     2
370
     9
100
AcDbLine
 10
143.1889205965197
 20
-398.526562953956
 30
0.0
 11
144.6285254846108
 21
-392.7678959617685
 31
0.0
  0
LINE
  5
E6
330
1F
100
AcDbEntity
  8
0-5
  6
Continuous
 62
     2
370
     9
100
AcDbLine
 10
-485.4054727470192
 20
-375.6470397539982
 30
0.0
 11
-548.168088878776
 21
-375.6470397539982
 31
0.0
  0
LINE
  5
E7
330
1F
100
AcDbEntity
  8
0-5
  6
Continuous
 62
     2
370
     9
100
AcDbLine
 10
-495.8157609649246
 20
-388.980458316604
 30
0.0
 11
-540.9309689463435
 21
-388.980458316604
 31
0.0
  0
LINE
  5
E8
330
1F
100
AcDbEntity
  8
0-0
  6
Continuous
 62
     4
370
     9
100
AcDbLine
 10
-454.2466130816896
 20
-108.9805243005567
 30
0.0
 11
-432.0897378837378
 21
-108.9805243005567
 31
0.0
  0
LINE
  5
E9
330
1F
100
AcDbEntity
  8
0-0
  6
Continuous
 62
     4
370
     9
100
AcDbLine
 10
-456.5015321853639
 20
-111.2353196843193
 30
0.0
 11
-429.8349424999753
 21
-111.2353196843193
 31
0.0
  0
LINE
  5
EA
330
1F
100
AcDbEntity
  8
0-0
  6
Continuous
 62
     4
370
     9
100
AcDbLine
 10
-432.0897378837378
 20
-108.9805243005567
 30
0.0
 11
-429.8349424999753
 21
-111.2353196843193
 31
0.0
  0
LINE
  5
EB
330
1F
100
AcDbEntity
  8
0-0
  6
Continuous
 62
     4
370
     9
100
AcDbLine
 10
-454.2466130816896
 20
-108.9805243005567
 30
0.0
 11
-456.5015321853639
 21
-111.2353196843193
 31
0.0
  0
LINE
  5
EC
330
1F
100
AcDbEntity
  8
0-0
  6
Continuous
 62
     4
370
     9
100
AcDbLine
 10
-432.0897378837378
 20
-442.3138851272035
 30
0.0
 11
-429.8349424999753
 21
-440.0593371832634
 31
0.0
  0
LINE
  5
ED
330
1F
100
AcDbEntity
  8
0-0
  6
Continuous
 62
     4
370
     9
100
AcDbLine
 10
-454.2466130816896
 20
-442.3138851272035
 30
0.0
 11
-456.5015321853639
 21
-440.0593371832634
 31
0.0
  0
LINE
  5
EE
330
1F
100
AcDbEntity
  8
0-5
  6
Continuous
 62
     2
370
     9
100
AcDbLine
 10
-456.5015321853639
 20
-388.980458316604
 30
0.0
 11
-474.264371012961
 21
-388.980458316604
 31
0.0
  0
LINE
  5
EF
330
1F
100
AcDbEntity
  8
0-0
  6
Continuous
 62
     4
370
     9
100
AcDbLine
 10
-441.1681812563097
 20
-435.6472377058566
 30
0.0
 11
-441.1681812563097
 21
-442.3138851272035
 31
0.0
  0
LINE
  5
F0
330
1F
100
AcDbEntity
  8
0-0
  6
Continuous
 62
     4
370
     9
100
AcDbLine
 10
-441.1681812563097
 20
-435.6472377058566
 30
0.0
 11
-445.168169709118
 21
-435.6472377058566
 31
0.0
  0
LINE
  5
F1
330
1F
100
AcDbEntity
  8
0-0
  6
Continuous
 62
     4
370
     9
100
AcDbLine
 10
-445.168169709118
 20
-435.6472377058566
 30
0.0
 11
-445.168169709118
 21
-442.3138851272035
 31
0.0
  0
LINE
  5
F2
330
1F
100
AcDbEntity
  8
0-0
  6
Continuous
 62
     4
370
     9
100
AcDbLine
 10
-456.5015321853639
 20
-440.0593371832634
 30
0.0
 11
-445.168169709118
 21
-440.0593371832634
 31
0.0
  0
LINE
  5
F3
330
1F
100
AcDbEntity
  8
0-0
  6
Continuous
 62
     4
370
     9
100
AcDbLine
 10
-441.1681812563097
 20
-440.0593371832634
 30
0.0
 11
-429.8349424999753
 21
-440.0593371832634
 31
0.0
  0
LINE
  5
F4
330
1F
100
AcDbEntity
  8
0-0
  6
Continuous
 62
     4
370
     9
100
AcDbLine
 10
-454.2466130816896
 20
-442.3138851272035
 30
0.0
 11
-445.168169709118
 21
-442.3138851272035
 31
0.0
  0
LINE
  5
F5
330
1F
100
AcDbEntity
  8
0-0
  6
Continuous
 62
     4
370
     9
100
AcDbLine
 10
-441.1681812563097
 20
-442.3138851272035
 30
0.0
 11
-432.0897378837378
 21
-442.3138851272035
 31
0.0
  0
LINE
  5
F6
330
1F
100
AcDbEntity
  8
0-5
  6
Continuous
 62
     2
370
     9
100
AcDbLine
 10
-390.5544892562042
 20
-398.526562953956
 30
0.0
 11
-388.1680558867996
 21
-388.980458316604
 31
0.0
  0
LINE
  5
F7
330
1F
100
AcDbEntity
  8
0-0
  6
Continuous
 62
     3
370
     9
100
AcDbLine
 10
-429.8349424999753
 20
-142.3138851272036
 30
0.0
 11
-415.8073315149667
 21
-142.3138851272036
 31
0.0
  0
LINE
  5
F8
330
1F
100
AcDbEntity
  8
0-0
  6
JWW_CENTER1
 62
     4
370
     9
100
AcDbLine
 10
-443.1681136227581
 20
-448.7183700564686
 30
0.0
 11
-443.1681136227581
 21
-102.4992093063631
 31
0.0
  0
LINE
  5
F9
330
1F
100
AcDbEntity
  8
0-5
  6
Continuous
 62
     2
370
     9
100
AcDbLine
 10
127.9278220956752
 20
-388.980458316604
 30
0.0
 11
-429.8349424999753
 21
-388.980458316604
 31
0.0
  0
LINE
  5
FA
330
1F
100
AcDbEntity
  8
0-5
  6
Continuous
 62
     2
370
     9
100
AcDbLine
 10
138.3381103135806
 20
-402.3135057194754
 30
0.0
 11
-484.6746592308664
 21
-402.3135057194754
 31
0.0
  0
LINE
  5
FB
330
1F
100
AcDbEntity
  8
0-0
  6
Continuous
 62
     4
370
     9
100
AcDbLine
 10
-468.1680723827878
 20
-421.5748401129509
 30
0.0
 11
-468.1680723827878
 21
-402.3135057194754
 31
0.0
  0
LINE
  5
FC
330
1F
100
AcDbEntity
  8
0-0
  6
Continuous
 62
     4
370
     9
100
AcDbLine
 10
-418.1680311428173
 20
-421.5748401129509
 30
0.0
 11
-418.1680311428173
 21
-402.3135057194754
 31
0.0
  0
LINE
  5
FD
330
1F
100
AcDbEntity
  8
0-0
  6
Continuous
 62
     4
370
     9
100
AcDbLine
 10
-455.6588758693798
 20
-421.5748401129509
 30
0.0
 11
-455.6588758693798
 21
-402.3135057194754
 31
0.0
  0
LINE
  5
FE
330
1F
100
AcDbEntity
  8
0-0
  6
Continuous
 62
     4
370
     9
100
AcDbLine
 10
-430.6773513761365
 20
-421.5748401129509
 30
0.0
 11
-430.6773513761365
 21
-402.3135057194754
 31
0.0
  0
LINE
  5
FF
330
1F
100
AcDbEntity
  8
0-0
  6
Continuous
 62
     4
370
     9
100
AcDbLine
 10
-461.9134122661282
 20
-423.9804500686098
 30
0.0
 11
-424.4226912594769
 21
-423.9804500686098
 31
0.0
  0
LINE
  5
100
330
1F
100
AcDbEntity
  8
0-0
  6
Continuous
 62
     4
370
     9
100
AcDbLine
 10
-454.2466130816896
 20
-442.3138851272035
 30
0.0
 11
-454.2466130816896
 21
-423.9804500686098
 31
0.0
  0
LINE
  5
101
330
1F
100
AcDbEntity
  8
0-0
  6
Continuous
 62
     4
370
     9
100
AcDbLine
 10
-456.5015321853639
 20
-423.9804500686098
 30
0.0
 11
-456.5015321853639
 21
-440.0593371832634
 31
0.0
  0
LINE
  5
102
330
1F
100
AcDbEntity
  8
0-0
  6
Continuous
 62
     4
370
     9
100
AcDbLine
 10
-432.0897378837378
 20
-423.9804500686098
 30
0.0
 11
-432.0897378837378
 21
-442.3138851272035
 31
0.0
  0
LINE
  5
103
330
1F
100
AcDbEntity
  8
0-0
  6
Continuous
 62
     4
370
     9
100
AcDbLine
 10
-429.8349424999753
 20
-440.0593371832634
 30
0.0
 11
-429.8349424999753
 21
-423.9804500686098
 31
0.0
  0
LINE
  5
104
330
1F
100
AcDbEntity
  8
0-4
  6
Continuous
 62
     7
370
     9
100
AcDbLine
 10
381.8318863772419
 20
-375.6470397539982
 30
0.0
 11
381.8318863772419
 21
-42.31380264726255
 31
0.0
  0
LINE
  5
105
330
1F
100
AcDbEntity
  8
0-4
  6
Continuous
 62
     7
370
     9
100
AcDbLine
 10
226.831993601165
 20
-375.6470397539982
 30
0.0
 11
384.8318467868702
 21
-375.6470397539982
 31
0.0
  0
LINE
  5
106
330
1F
100
AcDbEntity
  8
0-4
  6
Continuous
 62
     7
370
     9
100
AcDbLine
 10
223.498731750447
 20
-42.31380264726255
 30
0.0
 11
384.8318467868702
 21
-42.31380264726255
 31
0.0
  0
LINE
  5
107
330
1F
100
AcDbEntity
  8
0-F
  6
Continuous
 62
     7
370
     9
100
AcDbLine
 10
42.76373650129155
 20
-242.3138438872331
 30
0.0
 11
304.8319540107934
 21
-242.3138438872331
 31
0.0
  0
LINE
  5
108
330
1F
100
AcDbEntity
  8
0-0
  6
JWW_CENTER1
 62
     3
370
     9
100
AcDbLine
 10
-173.1680888787759
 20
-359.3908620064265
 30
0.0
 11
-173.1680888787759
 21
-442.3255147988675
 31
0.0
  0
LINE
  5
109
330
1F
100
AcDbEntity
  8
0-4
  6
Continuous
 62
     7
370
     9
100
AcDbLine
 10
-381.5016559052751
 20
-542.3139676071445
 30
0.0
 11
35.16535442781188
 21
-542.3139676071445
 31
0.0
  0
LINE
  5
10A
330
1F
100
AcDbEntity
  8
0-4
  6
Continuous
 62
     7
370
     9
100
AcDbLine
 10
-381.5016559052751
 20
-267.3138026472628
 30
0.0
 11
-381.5016559052751
 21
-545.3140517366841
 31
0.0
  0
LINE
  5
10B
330
1F
100
AcDbEntity
  8
0-4
  6
Continuous
 62
     7
370
     9
100
AcDbLine
 10
35.16535442781188
 20
-267.3138026472628
 30
0.0
 11
35.16535442781188
 21
-545.3140517366841
 31
0.0
  0
LINE
  5
10C
330
1F
100
AcDbEntity
  8
0-4
  6
Continuous
 62
     7
370
     9
100
AcDbLine
 10
-381.5016559052751
 20
-542.3139676071445
 30
0.0
 11
-356.7154851520021
 21
-539.0508549461435
 31
0.0
  0
LINE
  5
10D
330
1F
100
AcDbEntity
  8
0-4
  6
Continuous
 62
     7
370
     9
100
AcDbLine
 10
-381.5016559052751
 20
-542.3139676071445
 30
0.0
 11
-356.7154851520021
 21
-545.5770802681452
 31
0.0
  0
LINE
  5
10E
330
1F
100
AcDbEntity
  8
0-4
  6
Continuous
 62
     7
370
     9
100
AcDbLine
 10
35.16535442781188
 20
-542.3139676071445
 30
0.0
 11
10.37930739445042
 21
-539.0508549461435
 31
0.0
  0
LINE
  5
10F
330
1F
100
AcDbEntity
  8
0-4
  6
Continuous
 62
     7
370
     9
100
AcDbLine
 10
35.16535442781188
 20
-542.3139676071445
 30
0.0
 11
10.37930739445042
 21
-545.5770802681452
 31
0.0
  0
LINE
  5
110
330
1F
100
AcDbEntity
  8
0-4
  6
Continuous
 62
     7
370
     9
100
AcDbLine
 10
-548.168088878776
 20
-622.3139841031326
 30
0.0
 11
201.8319111212241
 21
-622.3139841031326
 31
0.0
  0
LINE
  5
111
330
1F
100
AcDbEntity
  8
0-4
  6
Continuous
 62
     7
370
     9
100
AcDbLine
 10
-548.168088878776
 20
-400.6472459538504
 30
0.0
 11
-548.168088878776
 21
-625.3140682326723
 31
0.0
  0
LINE
  5
112
330
1F
100
AcDbEntity
  8
0-4
  6
Continuous
 62
     7
370
     9
100
AcDbLine
 10
201.8319111212241
 20
-400.6472459538504
 30
0.0
 11
201.8319111212241
 21
-625.3140682326723
 31
0.0
  0
LINE
  5
113
330
1F
100
AcDbEntity
  8
0-4
  6
Continuous
 62
     7
370
     9
100
AcDbLine
 10
-548.168088878776
 20
-622.3139841031326
 30
0.0
 11
-523.381918125503
 21
-619.0507477222204
 31
0.0
  0
LINE
  5
114
330
1F
100
AcDbEntity
  8
0-4
  6
Continuous
 62
     7
370
     9
100
AcDbLine
 10
-548.168088878776
 20
-622.3139841031326
 30
0.0
 11
-523.381918125503
 21
-625.5770967641333
 31
0.0
  0
LINE
  5
115
330
1F
100
AcDbEntity
  8
0-4
  6
Continuous
 62
     7
370
     9
100
AcDbLine
 10
201.8319111212241
 20
-622.3139841031326
 30
0.0
 11
177.0458640878627
 21
-619.0507477222204
 31
0.0
  0
LINE
  5
116
330
1F
100
AcDbEntity
  8
0-4
  6
Continuous
 62
     7
370
     9
100
AcDbLine
 10
201.8319111212241
 20
-622.3139841031326
 30
0.0
 11
177.0458640878627
 21
-625.5770967641333
 31
0.0
  0
LINE
  5
117
330
1F
100
AcDbEntity
  8
0-E
  6
Continuous
 62
     7
370
     9
100
AcDbLine
 10
197.0946757168744
 20
-388.3106387167305
 30
0.0
 11
212.313709447871
 21
-408.1446725796951
 31
0.0
  0
LINE
  5
118
330
1F
100
AcDbEntity
  8
0-E
  6
Continuous
 62
     7
370
     9
100
AcDbLine
 10
197.0946757168744
 20
-388.3106387167305
 30
0.0
 11
206.6616890192392
 21
-411.4075378008732
 31
0.0
  0
LINE
  5
119
330
1F
100
AcDbEntity
  8
0-E
  6
Continuous
 62
     7
370
     9
100
AcDbLine
 10
-911.8442528357016
 20
-672.3139016231917
 30
0.0
 11
-587.0372971373273
 21
-672.3139016231917
 31
0.0
  0
LINE
  5
11A
330
1F
100
AcDbEntity
  8
0-E
  6
Continuous
 62
     7
370
     9
100
AcDbLine
 10
-454.2466130816896
 20
-442.3138851272035
 30
0.0
 11
-587.0372971373273
 21
-672.3139016231917
 31
0.0
  0
LINE
  5
11B
330
1F
100
AcDbEntity
  8
0-4
  6
Continuous
 62
     7
370
     9
100
AcDbLine
 10
381.8318863772419
 20
-42.31380264726255
 30
0.0
 11
385.0951227581541
 21
-67.09997340053548
 31
0.0
  0
LINE
  5
11C
330
1F
100
AcDbEntity
  8
0-4
  6
Continuous
 62
     7
370
     9
100
AcDbLine
 10
381.8318863772419
 20
-42.31380264726255
 30
0.0
 11
378.5686499963296
 21
-67.09997340053548
 31
0.0
  0
LINE
  5
11D
330
1F
100
AcDbEntity
  8
0-4
  6
Continuous
 62
     7
370
     9
100
AcDbLine
 10
381.8318863772419
 20
-375.6470397539982
 30
0.0
 11
378.5686499963296
 21
-350.8611164405482
 31
0.0
  0
LINE
  5
11E
330
1F
100
AcDbEntity
  8
0-4
  6
Continuous
 62
     7
370
     9
100
AcDbLine
 10
381.8318863772419
 20
-375.6470397539982
 30
0.0
 11
385.0951227581541
 21
-350.8611164405482
 31
0.0
  0
LINE
  5
11F
330
1F
100
AcDbEntity
  8
0-E
  6
Continuous
 62
     7
370
     9
100
AcDbLine
 10
197.0946757168744
 20
-388.3106387167305
 30
0.0
 11
286.0084643834707
 21
-542.3139676071445
 31
0.0
  0
LINE
  5
120
330
1F
100
AcDbEntity
  8
0-E
  6
Continuous
 62
     7
370
     9
100
AcDbLine
 10
286.0084643834707
 20
-542.3139676071445
 30
0.0
 11
677.2968093079851
 21
-542.3139676071445
 31
0.0
  0
LINE
  5
121
330
1F
100
AcDbEntity
  8
0-E
  6
Continuous
 62
     7
370
     9
100
AcDbLine
 10
-454.2466130816896
 20
-442.3138851272035
 30
0.0
 11
-463.813750103966
 21
-465.4109079312576
 31
0.0
  0
LINE
  5
122
330
1F
100
AcDbEntity
  8
0-E
  6
Continuous
 62
     7
370
     9
100
AcDbLine
 10
-454.2466130816896
 20
-442.3138851272035
 30
0.0
 11
-469.4656468126862
 21
-462.1476715503454
 31
0.0
  0
LINE
  5
123
330
1F
100
AcDbEntity
  8
0-3
  6
Continuous
 62
     7
370
     9
100
AcDbLine
 10
-466.5015651773402
 20
-262.9920187051175
 30
0.0
 11
-419.8349095079988
 21
-254.7632836834748
 31
0.0
  0
LINE
  5
124
330
1F
100
AcDbEntity
  8
0-3
  6
Continuous
 62
     7
370
     9
100
AcDbLine
 10
-466.5015651773402
 20
-276.5309360404214
 30
0.0
 11
-419.8349095079988
 21
-268.30232473869
 31
0.0
  0
LINE
  5
125
330
1F
100
AcDbEntity
  8
0-0
  6
Continuous
 62
     4
370
     9
100
AcDbLine
 10
-456.5015321853639
 20
-111.2353196843193
 30
0.0
 11
-456.5015321853639
 21
-261.2287625290193
 31
0.0
  0
LINE
  5
126
330
1F
100
AcDbEntity
  8
0-0
  6
Continuous
 62
     4
370
     9
100
AcDbLine
 10
-456.5015321853639
 20
-274.7676798643235
 30
0.0
 11
-456.5015321853639
 21
-402.3135057194754
 31
0.0
  0
LINE
  5
127
330
1F
100
AcDbEntity
  8
0-0
  6
Continuous
 62
     4
370
     9
100
AcDbLine
 10
-429.8349424999753
 20
-111.2353196843193
 30
0.0
 11
-429.8349424999753
 21
-256.5265398595727
 31
0.0
  0
LINE
  5
128
330
1F
100
AcDbEntity
  8
0-0
  6
Continuous
 62
     4
370
     9
100
AcDbLine
 10
-429.8349424999753
 20
-270.0655809147879
 30
0.0
 11
-429.8349424999753
 21
-402.3135057194754
 31
0.0
  0
LINE
  5
129
330
1F
100
AcDbEntity
  8
0-0
  6
Continuous
 62
     4
370
     9
100
AcDbLine
 10
-454.2466130816896
 20
-108.9805243005567
 30
0.0
 11
-454.2466130816896
 21
-260.8311267340447
 31
0.0
  0
LINE
  5
12A
330
1F
100
AcDbEntity
  8
0-0
  6
Continuous
 62
     4
370
     9
100
AcDbLine
 10
-454.2466130816896
 20
-274.3700440693488
 30
0.0
 11
-454.2466130816896
 21
-402.3135057194754
 31
0.0
  0
LINE
  5
12B
330
1F
100
AcDbEntity
  8
0-0
  6
Continuous
 62
     4
370
     9
100
AcDbLine
 10
-432.0897378837378
 20
-108.9805243005567
 30
0.0
 11
-432.0897378837378
 21
-256.9241756545473
 31
0.0
  0
LINE
  5
12C
330
1F
100
AcDbEntity
  8
0-0
  6
Continuous
 62
     4
370
     9
100
AcDbLine
 10
-432.0897378837378
 20
-270.4632167097628
 30
0.0
 11
-432.0897378837378
 21
-402.3135057194754
 31
0.0
  0
LINE
  5
12D
330
1F
100
AcDbEntity
  8
0-1
  6
Continuous
 62
     2
370
     9
100
AcDbLine
 10
88.73916902610173
 20
917.1143144346629
 30
0.0
 11
98.41901488758819
 21
919.7079786555244
 31
0.0
  0
LINE
  5
12E
330
1F
100
AcDbEntity
  8
0-1
  6
Continuous
 62
     2
370
     9
100
AcDbLine
 10
85.4746954460762
 20
911.0634210119431
 30
0.0
 11
103.2035112980611
 21
915.8137707268929
 31
0.0
  0
LINE
  5
12F
330
1F
100
AcDbEntity
  8
0-1
  6
Continuous
 62
     2
370
     9
100
AcDbLine
 10
34.99870370726708
 20
1010.195732033903
 30
0.0
 11
42.08463790806942
 21
1017.281913674528
 31
0.0
  0
LINE
  5
130
330
1F
100
AcDbEntity
  8
0-1
  6
Continuous
 62
     2
370
     9
100
AcDbLine
 10
28.12606263357619
 20
1010.394178771656
 30
0.0
 11
41.10428133078923
 21
1023.372397468869
 31
0.0
  0
LINE
  5
131
330
1F
100
AcDbEntity
  8
0-1
  6
Continuous
 62
     2
370
     9
100
AcDbLine
 10
85.4746954460762
 20
911.0634210119431
 30
0.0
 11
88.73916902610173
 21
917.1143144346629
 31
0.0
  0
LINE
  5
132
330
1F
100
AcDbEntity
  8
0-1
  6
Continuous
 62
     2
370
     9
100
AcDbLine
 10
103.2035112980611
 20
915.8137707268929
 30
0.0
 11
98.41901488758819
 21
919.7079786555244
 31
0.0
  0
LINE
  5
133
330
1F
100
AcDbEntity
  8
0-1
  6
Continuous
 62
     2
370
     9
100
AcDbLine
 10
42.08463790806942
 20
1017.281913674528
 30
0.0
 11
41.10428133078923
 21
1023.372397468869
 31
0.0
  0
LINE
  5
134
330
1F
100
AcDbEntity
  8
0-1
  6
Continuous
 62
     2
370
     9
100
AcDbLine
 10
34.99870370726708
 20
1010.195732033903
 30
0.0
 11
28.12606263357619
 21
1010.394178771656
 31
0.0
  0
LINE
  5
135
330
1F
100
AcDbEntity
  8
0-1
  6
Continuous
 62
     2
370
     9
100
AcDbLine
 10
9.071464211912396
 20
1036.122971529258
 30
0.0
 11
16.15739841271474
 21
1043.209153169883
 31
0.0
  0
LINE
  5
136
330
1F
100
AcDbEntity
  8
0-1
  6
Continuous
 62
     2
370
     9
100
AcDbLine
 10
9.269663509843124
 20
1029.25057789539
 30
0.0
 11
22.24812964687854
 21
1042.228796592602
 31
0.0
  0
LINE
  5
137
330
1F
100
AcDbEntity
  8
0-1
  6
Continuous
 62
     2
370
     9
100
AcDbLine
 10
-84.00995338732744
 20
1089.863684287915
 30
0.0
 11
-81.41628916646599
 21
1099.543530149401
 31
0.0
  0
LINE
  5
138
330
1F
100
AcDbEntity
  8
0-1
  6
Continuous
 62
     2
370
     9
100
AcDbLine
 10
-90.06109424986963
 20
1086.59921070789
 30
0.0
 11
-85.31074453492042
 21
1104.327779120051
 31
0.0
  0
LINE
  5
139
330
1F
100
AcDbEntity
  8
0-1
  6
Continuous
 62
     2
370
     9
100
AcDbLine
 10
9.269663509843124
 20
1029.25057789539
 30
0.0
 11
9.071464211912396
 21
1036.122971529258
 31
0.0
  0
LINE
  5
13A
330
1F
100
AcDbEntity
  8
0-1
  6
Continuous
 62
     2
370
     9
100
AcDbLine
 10
22.24812964687854
 20
1042.228796592602
 30
0.0
 11
16.15739841271474
 21
1043.209153169883
 31
0.0
  0
LINE
  5
13B
330
1F
100
AcDbEntity
  8
0-1
  6
Continuous
 62
     2
370
     9
100
AcDbLine
 10
-81.41628916646599
 20
1099.543530149401
 30
0.0
 11
-85.31074453492042
 21
1104.327779120051
 31
0.0
  0
LINE
  5
13C
330
1F
100
AcDbEntity
  8
0-1
  6
Continuous
 62
     2
370
     9
100
AcDbLine
 10
-84.00995338732744
 20
1089.863684287915
 30
0.0
 11
-90.06109424986963
 21
1086.59921070789
 31
0.0
  0
LINE
  5
13D
330
1F
100
AcDbEntity
  8
0-1
  6
Continuous
 62
     2
370
     9
100
AcDbLine
 10
-119.4272524002074
 20
1099.35374380544
 30
0.0
 11
-116.8335881793459
 21
1109.033342227104
 31
0.0
  0
LINE
  5
13E
330
1F
100
AcDbEntity
  8
0-1
  6
Continuous
 62
     2
370
     9
100
AcDbLine
 10
-115.819084906542
 20
1093.501049680651
 30
0.0
 11
-111.0687351915925
 21
1111.229865532636
 31
0.0
  0
LINE
  5
13F
330
1F
100
AcDbEntity
  8
0-1
  6
Continuous
 62
     2
370
     9
100
AcDbLine
 10
-226.9084304776991
 20
1099.35374380544
 30
0.0
 11
-229.5020946985605
 21
1109.033342227104
 31
0.0
  0
LINE
  5
140
330
1F
100
AcDbEntity
  8
0-1
  6
Continuous
 62
     2
370
     9
100
AcDbLine
 10
-230.5165979713647
 20
1093.501049680651
 30
0.0
 11
-235.2669476863139
 21
1111.229618092814
 31
0.0
  0
LINE
  5
141
330
1F
100
AcDbEntity
  8
0-1
  6
Continuous
 62
     2
370
     9
100
AcDbLine
 10
-115.819084906542
 20
1093.501049680651
 30
0.0
 11
-119.4272524002074
 21
1099.35374380544
 31
0.0
  0
LINE
  5
142
330
1F
100
AcDbEntity
  8
0-1
  6
Continuous
 62
     2
370
     9
100
AcDbLine
 10
-111.0687351915925
 20
1111.229865532636
 30
0.0
 11
-116.8335881793459
 21
1109.033342227104
 31
0.0
  0
LINE
  5
143
330
1F
100
AcDbEntity
  8
0-1
  6
Continuous
 62
     2
370
     9
100
AcDbLine
 10
-229.5020946985605
 20
1109.033342227104
 30
0.0
 11
-235.2669476863139
 21
1111.229618092814
 31
0.0
  0
LINE
  5
144
330
1F
100
AcDbEntity
  8
0-1
  6
Continuous
 62
     2
370
     9
100
AcDbLine
 10
-226.9084304776991
 20
1099.35374380544
 30
0.0
 11
-230.5165979713647
 21
1093.501049680651
 31
0.0
  0
LINE
  5
145
330
1F
100
AcDbEntity
  8
0-1
  6
Continuous
 62
     2
370
     9
100
AcDbLine
 10
-262.3257294905793
 20
1089.863684287915
 30
0.0
 11
-264.9193937114408
 21
1099.543530149401
 31
0.0
  0
LINE
  5
146
330
1F
100
AcDbEntity
  8
0-1
  6
Continuous
 62
     2
370
     9
100
AcDbLine
 10
-256.2748360678595
 20
1086.59921070789
 30
0.0
 11
-261.025185782809
 21
1104.328026559874
 31
0.0
  0
LINE
  5
147
330
1F
100
AcDbEntity
  8
0-1
  6
Continuous
 62
     2
370
     9
100
AcDbLine
 10
-355.4071470898191
 20
1036.12321896908
 30
0.0
 11
-362.4933287304441
 21
1043.209153169883
 31
0.0
  0
LINE
  5
148
330
1F
100
AcDbEntity
  8
0-1
  6
Continuous
 62
     2
370
     9
100
AcDbLine
 10
-355.6055938275725
 20
1029.25057789539
 30
0.0
 11
-368.5838125247852
 21
1042.228796592602
 31
0.0
  0
LINE
  5
149
330
1F
100
AcDbEntity
  8
0-1
  6
Continuous
 62
     2
370
     9
100
AcDbLine
 10
-256.2748360678595
 20
1086.59921070789
 30
0.0
 11
-262.3257294905793
 21
1089.863684287915
 31
0.0
  0
LINE
  5
14A
330
1F
100
AcDbEntity
  8
0-1
  6
Continuous
 62
     2
370
     9
100
AcDbLine
 10
-261.025185782809
 20
1104.328026559874
 30
0.0
 11
-264.9193937114408
 21
1099.543530149401
 31
0.0
  0
LINE
  5
14B
330
1F
100
AcDbEntity
  8
0-1
  6
Continuous
 62
     2
370
     9
100
AcDbLine
 10
-362.4933287304441
 20
1043.209153169883
 30
0.0
 11
-368.5838125247852
 21
1042.228796592602
 31
0.0
  0
LINE
  5
14C
330
1F
100
AcDbEntity
  8
0-1
  6
Continuous
 62
     2
370
     9
100
AcDbLine
 10
-355.4071470898191
 20
1036.12321896908
 30
0.0
 11
-355.6055938275725
 21
1029.25057789539
 31
0.0
  0
LINE
  5
14D
330
1F
100
AcDbEntity
  8
0-1
  6
Continuous
 62
     2
370
     9
100
AcDbLine
 10
-381.3343865851738
 20
1010.195979473725
 30
0.0
 11
-388.4203207859761
 21
1017.281913674528
 31
0.0
  0
LINE
  5
14E
330
1F
100
AcDbEntity
  8
0-1
  6
Continuous
 62
     2
370
     9
100
AcDbLine
 10
-374.4619929513055
 20
1010.394178771656
 30
0.0
 11
-387.4402116485183
 21
1023.372644908692
 31
0.0
  0
LINE
  5
14F
330
1F
100
AcDbEntity
  8
0-1
  6
Continuous
 62
     2
370
     9
100
AcDbLine
 10
-435.0748519040081
 20
917.1145618744856
 30
0.0
 11
-444.7546977654946
 21
919.7079786555244
 31
0.0
  0
LINE
  5
150
330
1F
100
AcDbEntity
  8
0-1
  6
Continuous
 62
     2
370
     9
100
AcDbLine
 10
-431.8106257638055
 20
911.0634210119431
 30
0.0
 11
-449.5391941759675
 21
915.8137707268929
 31
0.0
  0
LINE
  5
151
330
1F
100
AcDbEntity
  8
0-1
  6
Continuous
 62
     2
370
     9
100
AcDbLine
 10
-374.4619929513055
 20
1010.394178771656
 30
0.0
 11
-381.3343865851738
 21
1010.195979473725
 31
0.0
  0
LINE
  5
152
330
1F
100
AcDbEntity
  8
0-1
  6
Continuous
 62
     2
370
     9
100
AcDbLine
 10
-387.4402116485183
 20
1023.372644908692
 30
0.0
 11
-388.4203207859761
 21
1017.281913674528
 31
0.0
  0
LINE
  5
153
330
1F
100
AcDbEntity
  8
0-1
  6
Continuous
 62
     2
370
     9
100
AcDbLine
 10
-444.7546977654946
 20
919.7079786555244
 30
0.0
 11
-449.5391941759675
 21
915.8137707268929
 31
0.0
  0
LINE
  5
154
330
1F
100
AcDbEntity
  8
0-1
  6
Continuous
 62
     2
370
     9
100
AcDbLine
 10
-435.0748519040081
 20
917.1145618744856
 30
0.0
 11
-431.8106257638055
 21
911.0634210119431
 31
0.0
  0
LINE
  5
155
330
1F
100
AcDbEntity
  8
0-1
  6
Continuous
 62
     2
370
     9
100
AcDbLine
 10
98.22898110380433
 20
881.6970154217827
 30
0.0
 11
107.9088269652908
 21
884.2909270824669
 31
0.0
  0
LINE
  5
156
330
1F
100
AcDbEntity
  8
0-1
  6
Continuous
 62
     2
370
     9
100
AcDbLine
 10
92.37653441883819
 20
885.3051829154483
 30
0.0
 11
110.1051028310002
 21
890.0555326303979
 31
0.0
  0
LINE
  5
157
330
1F
100
AcDbEntity
  8
0-1
  6
Continuous
 62
     2
370
     9
100
AcDbLine
 10
107.9088269652908
 20
884.2909270824669
 30
0.0
 11
110.1051028310002
 21
890.0555326303979
 31
0.0
  0
LINE
  5
158
330
1F
100
AcDbEntity
  8
0-1
  6
Continuous
 62
     2
370
     9
100
AcDbLine
 10
98.22898110380433
 20
881.6970154217827
 30
0.0
 11
92.37653441883819
 21
885.3051829154483
 31
0.0
  0
LINE
  5
159
330
1F
100
AcDbEntity
  8
0-1
  6
Continuous
 62
     2
370
     9
100
AcDbLine
 10
-444.5649114215334
 20
881.6970154217827
 30
0.0
 11
-454.2450047228425
 21
884.2909270824669
 31
0.0
  0
LINE
  5
15A
330
1F
100
AcDbEntity
  8
0-1
  6
Continuous
 62
     2
370
     9
100
AcDbLine
 10
-438.7124647365673
 20
885.3051829154483
 30
0.0
 11
-456.4410331487295
 21
890.0555326303979
 31
0.0
  0
LINE
  5
15B
330
1F
100
AcDbEntity
  8
0-1
  6
Continuous
 62
     2
370
     9
100
AcDbLine
 10
-454.2450047228425
 20
884.2909270824669
 30
0.0
 11
-456.4410331487295
 21
890.0555326303979
 31
0.0
  0
LINE
  5
15C
330
1F
100
AcDbEntity
  8
0-1
  6
Continuous
 62
     2
370
     9
100
AcDbLine
 10
-444.5649114215334
 20
881.6970154217827
 30
0.0
 11
-438.7124647365673
 21
885.3051829154483
 31
0.0
  0
LINE
  5
15D
330
1F
100
AcDbEntity
  8
0-1
  6
Continuous
 62
     4
370
     9
100
AcDbLine
 10
-106.5012435055707
 20
986.727796935719
 30
0.0
 11
-93.99217071207406
 21
1008.394370125119
 31
0.0
  0
LINE
  5
15E
330
1F
100
AcDbEntity
  8
0-1
  6
Continuous
 62
     4
370
     9
100
AcDbLine
 10
-106.5012435055707
 20
986.727796935719
 30
0.0
 11
-93.99217071207406
 21
965.0612237463181
 31
0.0
  0
LINE
  5
15F
330
1F
100
AcDbEntity
  8
0-1
  6
Continuous
 62
     4
370
     9
100
AcDbLine
 10
-93.99217071207406
 20
965.0612237463181
 30
0.0
 11
-69.01064621883083
 21
965.0612237463181
 31
0.0
  0
LINE
  5
160
330
1F
100
AcDbEntity
  8
0-1
  6
Continuous
 62
     4
370
     9
100
AcDbLine
 10
-56.50132598551156
 20
986.727796935719
 30
0.0
 11
-69.01064621883083
 21
965.0612237463181
 31
0.0
  0
LINE
  5
161
330
1F
100
AcDbEntity
  8
0-1
  6
Continuous
 62
     4
370
     9
100
AcDbLine
 10
-91.81940162951494
 20
982.6950227064115
 30
0.0
 11
-72.84967506701494
 21
993.6472041358877
 31
0.0
  0
LINE
  5
162
330
1F
100
AcDbEntity
  8
0-1
  6
Continuous
 62
     4
370
     9
100
AcDbLine
 10
-90.15289442406728
 20
979.80838973555
 30
0.0
 11
-71.18316786156728
 21
990.7605711650262
 31
0.0
  0
LINE
  5
163
330
1F
100
AcDbEntity
  8
0-1
  6
JWW_CENTER1
 62
     4
370
     9
100
AcDbLine
 10
-63.99652565295245
 20
1017.046598403202
 30
0.0
 11
-99.01049775493735
 21
956.4010773939115
 31
0.0
  0
LINE
  5
164
330
1F
100
AcDbEntity
  8
0-1
  6
Continuous
 62
     4
370
     9
100
AcDbLine
 10
-331.4918407923105
 20
827.9723862515973
 30
0.0
 11
-343.9826030389321
 21
849.6070397038773
 31
0.0
  0
LINE
  5
165
330
1F
100
AcDbEntity
  8
0-1
  6
Continuous
 62
     4
370
     9
100
AcDbLine
 10
-369.000996065748
 20
849.6072871437002
 30
0.0
 11
-343.9826030389321
 21
849.6070397038773
 31
0.0
  0
LINE
  5
166
330
1F
100
AcDbEntity
  8
0-1
  6
Continuous
 62
     4
370
     9
100
AcDbLine
 10
-353.1678166949709
 20
827.9565501029483
 30
0.0
 11
-365.1528119441264
 21
834.875957303117
 31
0.0
  0
LINE
  5
167
330
1F
100
AcDbEntity
  8
0-1
  6
Continuous
 62
     4
370
     9
100
AcDbLine
 10
-359.8343403964068
 20
827.9565501029483
 30
0.0
 11
-366.819319149574
 21
831.9893243322556
 31
0.0
  0
LINE
  5
168
330
1F
100
AcDbEntity
  8
0-1
  6
Continuous
 62
     4
370
     9
100
AcDbLine
 10
-331.500996065748
 20
827.9565501029483
 30
0.0
 11
-331.4918407923105
 21
827.9723862515973
 31
0.0
  0
LINE
  5
169
330
1F
100
AcDbEntity
  8
0-2
  6
Continuous
 62
     6
370
     9
100
AcDbLine
 10
91.50010256706449
 20
841.2898449456429
 30
0.0
 11
96.50284090110173
 21
841.2898449456429
 31
0.0
  0
LINE
  5
16A
330
1F
100
AcDbEntity
  8
0-2
  6
Continuous
 62
     6
370
     9
100
AcDbLine
 10
85.50092406727569
 20
844.6231067963606
 30
0.0
 11
92.97731830819626
 21
844.6231067963606
 31
0.0
  0
LINE
  5
16B
330
1F
100
AcDbEntity
  8
0-2
  6
Continuous
 62
     6
370
     9
100
AcDbLine
 10
57.77207522331448
 20
861.2899109295952
 30
0.0
 11
91.40706519375354
 21
861.2899109295952
 31
0.0
  0
LINE
  5
16C
330
1F
100
AcDbEntity
  8
0-2
  6
Continuous
 62
     6
370
     9
100
AcDbLine
 10
57.26606078602568
 20
864.6231727803136
 30
0.0
 11
94.33081413801031
 21
864.6231727803136
 31
0.0
  0
LINE
  5
16D
330
1F
100
AcDbEntity
  8
0-2
  6
Continuous
 62
     6
370
     9
100
AcDbLine
 10
92.97731830819626
 20
844.6231067963606
 30
0.0
 11
96.50284090110173
 21
841.2898449456429
 31
0.0
  0
LINE
  5
16E
330
1F
100
AcDbEntity
  8
0-2
  6
Continuous
 62
     6
370
     9
100
AcDbLine
 10
91.40706519375354
 20
861.2899109295952
 30
0.0
 11
94.33081413801031
 21
864.6231727803136
 31
0.0
  0
LINE
  5
16F
330
1F
100
AcDbEntity
  8
0-2
  6
Continuous
 62
     6
370
     9
100
AcDbLine
 10
-437.8360328847936
 20
841.2898449456429
 30
0.0
 11
-442.8385237790081
 21
841.2898449456429
 31
0.0
  0
LINE
  5
170
330
1F
100
AcDbEntity
  8
0-2
  6
Continuous
 62
     6
370
     9
100
AcDbLine
 10
-431.8371018248274
 20
844.6231067963606
 30
0.0
 11
-439.3132486259253
 21
844.6231067963606
 31
0.0
  0
LINE
  5
171
330
1F
100
AcDbEntity
  8
0-2
  6
Continuous
 62
     6
370
     9
100
AcDbLine
 10
-404.1080055410436
 20
861.2899109295952
 30
0.0
 11
-437.7429955114829
 21
861.2899109295952
 31
0.0
  0
LINE
  5
172
330
1F
100
AcDbEntity
  8
0-2
  6
Continuous
 62
     6
370
     9
100
AcDbLine
 10
-403.6022385435774
 20
864.6231727803136
 30
0.0
 11
-440.6667444557397
 21
864.6231727803136
 31
0.0
  0
LINE
  5
173
330
1F
100
AcDbEntity
  8
0-2
  6
Continuous
 62
     6
370
     9
100
AcDbLine
 10
-439.3132486259253
 20
844.6231067963606
 30
0.0
 11
-442.8385237790081
 21
841.2898449456429
 31
0.0
  0
LINE
  5
174
330
1F
100
AcDbEntity
  8
0-2
  6
Continuous
 62
     6
370
     9
100
AcDbLine
 10
-437.7429955114829
 20
861.2899109295952
 30
0.0
 11
-440.6667444557397
 21
864.6231727803136
 31
0.0
  0
LINE
  5
175
330
1F
100
AcDbEntity
  8
0-2
  6
Continuous
 62
     6
370
     9
100
AcDbLine
 10
-398.4631608672683
 20
888.6738286608033
 30
0.0
 11
-388.9347481772344
 21
886.1058981814958
 31
0.0
  0
LINE
  5
176
330
1F
100
AcDbEntity
  8
0-2
  6
Continuous
 62
     6
370
     9
100
AcDbLine
 10
-405.6426273210266
 20
847.9566160869012
 30
0.0
 11
-395.8106059686196
 21
847.1106193333117
 31
0.0
  0
LINE
  5
177
330
1F
100
AcDbEntity
  8
0-2
  6
Continuous
 62
     6
370
     9
100
AcDbLine
 10
-364.1096056518967
 20
962.0674493322556
 30
0.0
 11
-356.0341596003764
 21
956.3956337178136
 31
0.0
  0
LINE
  5
178
330
1F
100
AcDbEntity
  8
0-2
  6
Continuous
 62
     6
370
     9
100
AcDbLine
 10
-384.7822130737717
 20
926.261422358016
 30
0.0
 11
-375.8328095687042
 21
922.1039384581004
 31
0.0
  0
LINE
  5
179
330
1F
100
AcDbEntity
  8
0-2
  6
Continuous
 62
     6
370
     9
100
AcDbLine
 10
-306.7258363845827
 20
1019.285681358227
 30
0.0
 11
-301.0772801134676
 21
1011.193656838591
 31
0.0
  0
LINE
  5
17A
330
1F
100
AcDbEntity
  8
0-2
  6
Continuous
 62
     6
370
     9
100
AcDbLine
 10
-338.3981336818798
 20
992.7094072081004
 30
0.0
 11
-331.410185650841
 21
985.7415018026952
 31
0.0
  0
LINE
  5
17B
330
1F
100
AcDbEntity
  8
0-2
  6
Continuous
 62
     6
370
     9
100
AcDbLine
 10
-233.2327449044306
 20
1053.426438326133
 30
0.0
 11
-230.6925276852582
 21
1043.890849881242
 31
0.0
  0
LINE
  5
17C
330
1F
100
AcDbEntity
  8
0-2
  6
Continuous
 62
     6
370
     9
100
AcDbLine
 10
-272.084756095309
 20
1039.285499902358
 30
0.0
 11
-267.9015384538392
 21
1030.347973508776
 31
0.0
  0
LINE
  5
17D
330
1F
100
AcDbEntity
  8
0-2
  6
Continuous
 62
     6
370
     9
100
AcDbLine
 10
-152.495110297167
 20
1060.372321587323
 30
0.0
 11
-153.3695626303595
 21
1050.542774633143
 31
0.0
  0
LINE
  5
17E
330
1F
100
AcDbEntity
  8
0-2
  6
Continuous
 62
     6
370
     9
100
AcDbLine
 10
-193.8405725807397
 20
1060.372321587323
 30
0.0
 11
-192.9663676873696
 21
1050.543022072966
 31
0.0
  0
LINE
  5
17F
330
1F
100
AcDbEntity
  8
0-2
  6
Continuous
 62
     6
370
     9
100
AcDbLine
 10
-74.25092678259776
 20
1039.285499902358
 30
0.0
 11
-78.43439186388994
 21
1030.347726068954
 31
0.0
  0
LINE
  5
180
330
1F
100
AcDbEntity
  8
0-2
  6
Continuous
 62
     6
370
     9
100
AcDbLine
 10
-113.1029379734761
 20
1053.426438326133
 30
0.0
 11
-115.6434026324709
 21
1043.890849881242
 31
0.0
  0
LINE
  5
181
330
1F
100
AcDbEntity
  8
0-2
  6
Continuous
 62
     6
370
     9
100
AcDbLine
 10
-7.937549196026654
 20
992.7091597682781
 30
0.0
 11
-14.9257446668884
 21
985.7415018026952
 31
0.0
  0
LINE
  5
182
330
1F
100
AcDbEntity
  8
0-2
  6
Continuous
 62
     6
370
     9
100
AcDbLine
 10
-39.60984649332406
 20
1019.285433918404
 30
0.0
 11
-45.25840276443891
 21
1011.193904278413
 31
0.0
  0
LINE
  5
183
330
1F
100
AcDbEntity
  8
0-2
  6
Continuous
 62
     6
370
     9
100
AcDbLine
 10
38.44653019586499
 20
926.261422358016
 30
0.0
 11
29.49663181115224
 21
922.1039384581004
 31
0.0
  0
LINE
  5
184
330
1F
100
AcDbEntity
  8
0-2
  6
Continuous
 62
     6
370
     9
100
AcDbLine
 10
17.77392277398999
 20
962.0674493322556
 30
0.0
 11
9.698476722469959
 21
956.3956337178136
 31
0.0
  0
LINE
  5
185
330
1F
100
AcDbEntity
  8
0-2
  6
Continuous
 62
     6
370
     9
100
AcDbLine
 10
59.30669700329755
 20
847.9566160869012
 30
0.0
 11
49.47492309071318
 21
847.1106193333117
 31
0.0
  0
LINE
  5
186
330
1F
100
AcDbEntity
  8
0-2
  6
Continuous
 62
     6
370
     9
100
AcDbLine
 10
52.12723054953923
 20
888.6738286608033
 30
0.0
 11
42.59906529932802
 21
886.1058981814958
 31
0.0
  0
LINE
  5
187
330
1F
100
AcDbEntity
  8
0-2
  6
Continuous
 62
     6
370
     9
100
AcDbLine
 10
-181.5012435055707
 20
1017.956682070854
 30
0.0
 11
-164.8344393723358
 21
1017.956682070854
 31
0.0
  0
LINE
  5
188
330
1F
100
AcDbEntity
  8
0-2
  6
Continuous
 62
     6
370
     9
100
AcDbLine
 10
-183.167998150841
 20
1019.623436716124
 30
0.0
 11
-163.1679321668884
 21
1019.623436716124
 31
0.0
  0
LINE
  5
189
330
1F
100
AcDbEntity
  8
0-2
  6
Continuous
 62
     6
370
     9
100
AcDbLine
 10
-183.167998150841
 20
1019.623436716124
 30
0.0
 11
-181.5012435055707
 21
1017.956682070854
 31
0.0
  0
LINE
  5
18A
330
1F
100
AcDbEntity
  8
0-2
  6
Continuous
 62
     6
370
     9
100
AcDbLine
 10
-163.1679321668884
 20
1019.623436716124
 30
0.0
 11
-164.8344393723358
 21
1017.956682070854
 31
0.0
  0
LINE
  5
18B
330
1F
100
AcDbEntity
  8
0-2
  6
Continuous
 62
     6
370
     9
100
AcDbLine
 10
-190.6678991749118
 20
1056.962600831411
 30
0.0
 11
-155.6677837029946
 21
1056.962600831411
 31
0.0
  0
LINE
  5
18C
330
1F
100
AcDbEntity
  8
0-2
  6
Continuous
 62
     6
370
     9
100
AcDbLine
 10
-174.8344723643123
 20
1058.629355476681
 30
0.0
 11
-171.5012105135944
 21
1058.629355476681
 31
0.0
  0
LINE
  5
18D
330
1F
100
AcDbEntity
  8
0-2
  6
Continuous
 62
     6
370
     9
100
AcDbLine
 10
-171.5012105135944
 20
1058.629355476681
 30
0.0
 11
-171.5012105135944
 21
1069.902218916293
 31
0.0
  0
LINE
  5
18E
330
1F
100
AcDbEntity
  8
0-2
  6
Continuous
 62
     6
370
     9
100
AcDbLine
 10
-174.8344723643123
 20
1058.629355476681
 30
0.0
 11
-174.8344723643123
 21
1069.902218916293
 31
0.0
  0
LINE
  5
18F
330
1F
100
AcDbEntity
  8
0-2
  6
Continuous
 62
     6
370
     9
100
AcDbLine
 10
-181.5012435055707
 20
1017.956682070854
 30
0.0
 11
-181.5012435055707
 21
1024.446533738928
 31
0.0
  0
LINE
  5
190
330
1F
100
AcDbEntity
  8
0-2
  6
Continuous
 62
     6
370
     9
100
AcDbLine
 10
-181.5012435055707
 20
1041.468414017644
 30
0.0
 11
-181.5012435055707
 21
1056.962600831411
 31
0.0
  0
LINE
  5
191
330
1F
100
AcDbEntity
  8
0-2
  6
Continuous
 62
     6
370
     9
100
AcDbLine
 10
-183.167998150841
 20
1019.623436716124
 30
0.0
 11
-183.167998150841
 21
1024.368837634621
 31
0.0
  0
LINE
  5
192
330
1F
100
AcDbEntity
  8
0-2
  6
Continuous
 62
     6
370
     9
100
AcDbLine
 10
-183.167998150841
 20
1041.396903908903
 30
0.0
 11
-183.167998150841
 21
1056.962600831411
 31
0.0
  0
LINE
  5
193
330
1F
100
AcDbEntity
  8
0-2
  6
Continuous
 62
     6
370
     9
100
AcDbLine
 10
-164.8344393723358
 20
1017.956682070854
 30
0.0
 11
-164.8344393723358
 21
1024.446533738928
 31
0.0
  0
LINE
  5
194
330
1F
100
AcDbEntity
  8
0-2
  6
Continuous
 62
     6
370
     9
100
AcDbLine
 10
-164.8344393723358
 20
1041.468414017644
 30
0.0
 11
-164.8344393723358
 21
1056.962600831411
 31
0.0
  0
LINE
  5
195
330
1F
100
AcDbEntity
  8
0-2
  6
Continuous
 62
     6
370
     9
100
AcDbLine
 10
-163.1679321668884
 20
1019.623436716124
 30
0.0
 11
-163.1679321668884
 21
1024.368837634621
 31
0.0
  0
LINE
  5
196
330
1F
100
AcDbEntity
  8
0-2
  6
Continuous
 62
     6
370
     9
100
AcDbLine
 10
-163.1679321668884
 20
1041.396903908903
 30
0.0
 11
-163.1679321668884
 21
1056.962600831411
 31
0.0
  0
LINE
  5
197
330
1F
100
AcDbEntity
  8
0-2
  6
JWW_CENTER1
 62
     6
370
     9
100
AcDbLine
 10
80.16513173197151
 20
849.8559641654483
 30
0.0
 11
80.16513173197151
 21
821.9318853014283
 31
0.0
  0
LINE
  5
198
330
1F
100
AcDbEntity
  8
0-2
  6
JWW_CENTER1
 62
     6
370
     9
100
AcDbLine
 10
-426.5013094895235
 20
849.8559641654483
 30
0.0
 11
-426.5013094895235
 21
821.9318853014283
 31
0.0
  0
LINE
  5
199
330
1F
100
AcDbEntity
  8
0-4
  6
Continuous
 62
     7
370
     9
100
AcDbLine
 10
-369.8346208282058
 20
283.8741147012379
 30
0.0
 11
23.49869051047673
 21
283.8741147012379
 31
0.0
  0
LINE
  5
19A
330
1F
100
AcDbEntity
  8
0-4
  6
Continuous
 62
     7
370
     9
100
AcDbLine
 10
-369.8346208282058
 20
193.8741889331848
 30
0.0
 11
-369.8346208282058
 21
286.8740751108666
 31
0.0
  0
LINE
  5
19B
330
1F
100
AcDbEntity
  8
0-4
  6
Continuous
 62
     7
370
     9
100
AcDbLine
 10
23.49869051047673
 20
193.8741889331848
 30
0.0
 11
23.49869051047673
 21
286.8740751108666
 31
0.0
  0
LINE
  5
19C
330
1F
100
AcDbEntity
  8
0-4
  6
Continuous
 62
     7
370
     9
100
AcDbLine
 10
-369.8346208282058
 20
283.8741147012379
 30
0.0
 11
-345.0483263550217
 21
287.137227362239
 31
0.0
  0
LINE
  5
19D
330
1F
100
AcDbEntity
  8
0-4
  6
Continuous
 62
     7
370
     9
100
AcDbLine
 10
-369.8346208282058
 20
283.8741147012379
 30
0.0
 11
-345.0483263550217
 21
280.6110020402375
 31
0.0
  0
LINE
  5
19E
330
1F
100
AcDbEntity
  8
0-4
  6
Continuous
 62
     7
370
     9
100
AcDbLine
 10
23.49869051047673
 20
283.8741147012379
 30
0.0
 11
-1.287603962707382
 21
287.137227362239
 31
0.0
  0
LINE
  5
19F
330
1F
100
AcDbEntity
  8
0-4
  6
Continuous
 62
     7
370
     9
100
AcDbLine
 10
23.49869051047673
 20
283.8741147012379
 30
0.0
 11
-1.287603962707382
 21
280.6110020402375
 31
0.0
  0
LINE
  5
1A0
330
1F
100
AcDbEntity
  8
0-2
  6
Continuous
 62
     6
370
     9
100
AcDbLine
 10
-439.8348517720402
 20
827.9565501029483
 30
0.0
 11
-439.8348517720402
 21
829.9566061893083
 31
0.0
  0
LINE
  5
1A1
330
1F
100
AcDbEntity
  8
0-2
  6
Continuous
 62
     6
370
     9
100
AcDbLine
 10
-439.8348517720402
 20
829.9566061893083
 30
0.0
 11
-413.1682620866516
 21
829.9566061893083
 31
0.0
  0
LINE
  5
1A2
330
1F
100
AcDbEntity
  8
0-2
  6
Continuous
 62
     6
370
     9
100
AcDbLine
 10
-413.1682620866516
 20
827.9565501029483
 30
0.0
 11
-413.1682620866516
 21
829.9566061893083
 31
0.0
  0
LINE
  5
1A3
330
1F
100
AcDbEntity
  8
0-2
  6
Continuous
 62
     6
370
     9
100
AcDbLine
 10
93.4989214543111
 20
827.9565501029483
 30
0.0
 11
93.4989214543111
 21
829.9566061893083
 31
0.0
  0
LINE
  5
1A4
330
1F
100
AcDbEntity
  8
0-2
  6
Continuous
 62
     6
370
     9
100
AcDbLine
 10
93.4989214543111
 20
829.9566061893083
 30
0.0
 11
66.83233176892256
 21
829.9566061893083
 31
0.0
  0
LINE
  5
1A5
330
1F
100
AcDbEntity
  8
0-2
  6
Continuous
 62
     6
370
     9
100
AcDbLine
 10
66.83233176892256
 20
827.9565501029483
 30
0.0
 11
66.83233176892256
 21
829.9566061893083
 31
0.0
  0
LINE
  5
1A6
330
1F
100
AcDbEntity
  8
0-4
  6
Continuous
 62
     7
370
     9
100
AcDbLine
 10
-514.8346043322176
 20
363.8741311972265
 30
0.0
 11
168.4986740144884
 21
363.8741311972265
 31
0.0
  0
LINE
  5
1A7
330
1F
100
AcDbEntity
  8
0-4
  6
Continuous
 62
     7
370
     9
100
AcDbLine
 10
-514.8346043322176
 20
-19.45914714947975
 30
0.0
 11
-514.8346043322176
 21
366.8740916068546
 31
0.0
  0
LINE
  5
1A8
330
1F
100
AcDbEntity
  8
0-4
  6
Continuous
 62
     7
370
     9
100
AcDbLine
 10
168.4986740144884
 20
-19.45914714947975
 30
0.0
 11
168.4986740144884
 21
366.8740916068546
 31
0.0
  0
LINE
  5
1A9
330
1F
100
AcDbEntity
  8
0-4
  6
Continuous
 62
     7
370
     9
100
AcDbLine
 10
-514.8346043322176
 20
363.8741311972265
 30
0.0
 11
-490.0483098590336
 21
367.1372438582273
 31
0.0
  0
LINE
  5
1AA
330
1F
100
AcDbEntity
  8
0-4
  6
Continuous
 62
     7
370
     9
100
AcDbLine
 10
168.4986740144884
 20
363.8741311972265
 30
0.0
 11
143.712626981127
 21
367.1372438582273
 31
0.0
  0
LINE
  5
1AB
330
1F
100
AcDbEntity
  8
0-4
  6
Continuous
 62
     7
370
     9
100
AcDbLine
 10
168.4986740144884
 20
363.8741311972265
 30
0.0
 11
143.712626981127
 21
360.6110185362255
 31
0.0
  0
LINE
  5
1AC
330
1F
100
AcDbEntity
  8
0-4
  6
Continuous
 62
     7
370
     9
100
AcDbLine
 10
-548.1679651588647
 20
443.8741476932145
 30
0.0
 11
201.8320348411353
 21
443.8741476932145
 31
0.0
  0
LINE
  5
1AD
330
1F
100
AcDbEntity
  8
0-4
  6
Continuous
 62
     7
370
     9
100
AcDbLine
 10
-548.1679651588647
 20
-38.98054079654457
 30
0.0
 11
-548.1679651588647
 21
446.8741081028429
 31
0.0
  0
LINE
  5
1AE
330
1F
100
AcDbEntity
  8
0-4
  6
Continuous
 62
     7
370
     9
100
AcDbLine
 10
201.8320348411353
 20
-38.98054079654457
 30
0.0
 11
201.8320348411353
 21
446.8741081028429
 31
0.0
  0
LINE
  5
1AF
330
1F
100
AcDbEntity
  8
0-4
  6
Continuous
 62
     7
370
     9
100
AcDbLine
 10
-548.1679651588647
 20
443.8741476932145
 30
0.0
 11
-523.3816706856804
 21
447.1372603542156
 31
0.0
  0
LINE
  5
1B0
330
1F
100
AcDbEntity
  8
0-4
  6
Continuous
 62
     7
370
     9
100
AcDbLine
 10
-548.1679651588647
 20
443.8741476932145
 30
0.0
 11
-523.3816706856804
 21
440.6110350322137
 31
0.0
  0
LINE
  5
1B1
330
1F
100
AcDbEntity
  8
0-4
  6
Continuous
 62
     7
370
     9
100
AcDbLine
 10
201.8320348411353
 20
443.8741476932145
 30
0.0
 11
177.0459878077739
 21
447.1372603542156
 31
0.0
  0
LINE
  5
1B2
330
1F
100
AcDbEntity
  8
0-4
  6
Continuous
 62
     7
370
     9
100
AcDbLine
 10
201.8320348411353
 20
443.8741476932145
 30
0.0
 11
177.0459878077739
 21
440.6110350322137
 31
0.0
  0
LINE
  5
1B3
330
1F
100
AcDbEntity
  8
0-4
  6
Continuous
 62
     7
370
     9
100
AcDbLine
 10
70.50681313505433
 20
183.8741559412088
 30
0.0
 11
384.8318467868702
 21
183.8741559412088
 31
0.0
  0
LINE
  5
1B4
330
1F
100
AcDbEntity
  8
0-4
  6
Continuous
 62
     7
370
     9
100
AcDbLine
 10
381.8318863772419
 20
-42.31380264726255
 30
0.0
 11
378.5686499963296
 21
-17.52763189399005
 31
0.0
  0
LINE
  5
1B5
330
1F
100
AcDbEntity
  8
0-4
  6
Continuous
 62
     7
370
     9
100
AcDbLine
 10
381.8318863772419
 20
-42.31380264726255
 30
0.0
 11
385.0956176377994
 21
-17.52763189399005
 31
0.0
  0
LINE
  5
1B6
330
1F
100
AcDbEntity
  8
0-4
  6
Continuous
 62
     7
370
     9
100
AcDbLine
 10
381.8318863772419
 20
183.8741559412088
 30
0.0
 11
378.5686499963296
 21
159.0879851879359
 31
0.0
  0
LINE
  5
1B7
330
1F
100
AcDbEntity
  8
0-4
  6
Continuous
 62
     7
370
     9
100
AcDbLine
 10
381.8318863772419
 20
183.8741559412088
 30
0.0
 11
385.0956176377994
 21
159.0879851879359
 31
0.0
  0
LINE
  5
1B8
330
1F
100
AcDbEntity
  8
0-1
  6
JWW_CENTER1
 62
     4
370
     9
100
AcDbLine
 10
-108.9115548178595
 20
1002.553305671994
 30
0.0
 11
-54.09126211304542
 21
970.902535639266
 31
0.0
  0
LINE
  5
1B9
330
1F
100
AcDbEntity
  8
0-1
  6
Continuous
 62
     2
370
     9
100
AcDbLine
 10
-356.5010785456889
 20
871.2901913613941
 30
0.0
 11
-365.0011313328511
 21
871.2901913613941
 31
0.0
  0
LINE
  5
1BA
330
1F
100
AcDbEntity
  8
0-1
  6
Continuous
 62
     2
370
     9
100
AcDbLine
 10
-356.5013259855115
 20
867.9566820708542
 30
0.0
 11
-365.7239030547683
 21
867.9566820708542
 31
0.0
  0
LINE
  5
1BB
330
1F
100
AcDbEntity
  8
0-1
  6
Continuous
 62
     2
370
     9
100
AcDbLine
 10
-43.97344776549463
 20
965.0609763064958
 30
0.0
 11
-39.72342137191364
 21
972.422311029891
 31
0.0
  0
LINE
  5
1BC
330
1F
100
AcDbEntity
  8
0-1
  6
Continuous
 62
     2
370
     9
100
AcDbLine
 10
-46.86008073635609
 20
966.727730951766
 30
0.0
 11
-42.2487922017277
 21
974.7148409866056
 31
0.0
  0
LINE
  5
1BD
330
1F
100
AcDbEntity
  8
0-1
  6
Continuous
 62
     2
370
     9
100
AcDbLine
 10
-116.1422413149035
 20
1006.727862919671
 30
0.0
 11
-111.5309527802751
 21
1014.714972954511
 31
0.0
  0
LINE
  5
1BE
330
1F
100
AcDbEntity
  8
0-1
  6
Continuous
 62
     2
370
     9
100
AcDbLine
 10
-119.0291217255876
 20
1008.394617564942
 30
0.0
 11
-114.7790953320066
 21
1015.755704848515
 31
0.0
  0
LINE
  5
1BF
330
1F
100
AcDbEntity
  8
0-4
  6
Continuous
 62
     7
370
     9
100
AcDbLine
 10
-648.1680476388055
 20
-49.45912240549745
 30
0.0
 11
-648.1680476388055
 21
183.8741559412088
 31
0.0
  0
LINE
  5
1C0
330
1F
100
AcDbEntity
  8
0-4
  6
Continuous
 62
     7
370
     9
100
AcDbLine
 10
-464.834439372336
 20
-49.45912240549745
 30
0.0
 11
-651.1680080484339
 21
-49.45912240549745
 31
0.0
  0
LINE
  5
1C1
330
1F
100
AcDbEntity
  8
0-4
  6
Continuous
 62
     7
370
     9
100
AcDbLine
 10
-411.8422320771501
 20
183.8741559412088
 30
0.0
 11
-651.1680080484339
 21
183.8741559412088
 31
0.0
  0
LINE
  5
1C2
330
1F
100
AcDbEntity
  8
0-4
  6
Continuous
 62
     7
370
     9
100
AcDbLine
 10
-648.1680476388055
 20
-49.45912240549745
 30
0.0
 11
-651.431036579895
 21
-24.67295165222453
 31
0.0
  0
LINE
  5
1C3
330
1F
100
AcDbEntity
  8
0-4
  6
Continuous
 62
     7
370
     9
100
AcDbLine
 10
-648.1680476388055
 20
-49.45912240549745
 30
0.0
 11
-644.9048112578932
 21
-24.67295165222453
 31
0.0
  0
LINE
  5
1C4
330
1F
100
AcDbEntity
  8
0-4
  6
Continuous
 62
     7
370
     9
100
AcDbLine
 10
-648.1680476388055
 20
183.8741559412088
 30
0.0
 11
-651.431036579895
 21
159.0879851879359
 31
0.0
  0
LINE
  5
1C5
330
1F
100
AcDbEntity
  8
0-4
  6
Continuous
 62
     7
370
     9
100
AcDbLine
 10
-648.1680476388055
 20
183.8741559412088
 30
0.0
 11
-644.9048112578932
 21
159.0879851879359
 31
0.0
  0
LINE
  5
1C6
330
1F
100
AcDbEntity
  8
0-0
  6
JWW_CENTER1
 62
     3
370
     9
100
AcDbLine
 10
-569.7603064014744
 20
827.9565501029483
 30
0.0
 11
225.5394916876304
 21
827.9565501029483
 31
0.0
  0
LINE
  5
1C7
330
1F
100
AcDbEntity
  8
0-1
  6
JWW_CENTER1
 62
     4
370
     9
100
AcDbLine
 10
-356.5013259855115
 20
820.9030305189115
 30
0.0
 11
-356.5010785456889
 21
859.6070726958535
 31
0.0
  0
LINE
  5
1C8
330
1F
100
AcDbEntity
  8
0-0
  6
JWW_CENTER1
 62
     3
370
     9
100
AcDbLine
 10
-173.1679651588647
 20
1218.210225409114
 30
0.0
 11
-173.1679651588647
 21
813.106449147501
 31
0.0
  0
LINE
  5
1C9
330
1F
100
AcDbEntity
  8
0-E
  6
Continuous
 62
     7
370
     9
100
AcDbLine
 10
113.498739998441
 20
-29.45930386136723
 30
0.0
 11
123.0657533008059
 21
-6.362281057313339
 31
0.0
  0
LINE
  5
1CA
330
1F
100
AcDbEntity
  8
0-E
  6
Continuous
 62
     7
370
     9
100
AcDbLine
 10
113.498739998441
 20
-29.45930386136723
 30
0.0
 11
128.7177737294377
 21
-9.625517438225586
 31
0.0
  0
LINE
  5
1CB
330
1F
100
AcDbEntity
  8
0-E
  6
Continuous
 62
     7
370
     9
100
AcDbLine
 10
87.06251678792594
 20
-13.6898402449188
 30
0.0
 11
96.62953009029079
 21
9.407182559134952
 31
0.0
  0
LINE
  5
1CC
330
1F
100
AcDbEntity
  8
0-E
  6
Continuous
 62
     7
370
     9
100
AcDbLine
 10
87.06251678792594
 20
-13.6898402449188
 30
0.0
 11
102.2815505189226
 21
6.143946178223132
 31
0.0
  0
LINE
  5
1CD
330
1F
100
AcDbEntity
  8
0-E
  6
Continuous
 62
     7
370
     9
100
AcDbLine
 10
-356.5013259855115
 20
26.0194262114787
 30
0.0
 11
-371.7203597165081
 21
45.85321263462077
 31
0.0
  0
LINE
  5
1CE
330
1F
100
AcDbEntity
  8
0-E
  6
Continuous
 62
     7
370
     9
100
AcDbLine
 10
-356.5013259855115
 20
26.0194262114787
 30
0.0
 11
-366.0683392878764
 21
49.11644901553288
 31
0.0
  0
LINE
  5
1CF
330
1F
100
AcDbEntity
  8
0-E
  6
Continuous
 62
     7
370
     9
100
AcDbLine
 10
-411.5227872661282
 20
175.334512782425
 30
0.0
 11
-426.7418209971248
 21
195.1682992055669
 31
0.0
  0
LINE
  5
1D0
330
1F
100
AcDbEntity
  8
0-E
  6
Continuous
 62
     7
370
     9
100
AcDbLine
 10
-411.5227872661282
 20
175.334512782425
 30
0.0
 11
-421.089800568493
 21
198.4315355864786
 31
0.0
  0
LINE
  5
1D1
330
1F
100
AcDbEntity
  8
0-E
  6
Continuous
 62
     7
370
     9
100
AcDbLine
 10
40.50671415912515
 20
183.8741559412088
 30
0.0
 11
50.07372746148999
 21
206.9711787452627
 31
0.0
  0
LINE
  5
1D2
330
1F
100
AcDbEntity
  8
0-E
  6
Continuous
 62
     7
370
     9
100
AcDbLine
 10
40.50671415912515
 20
183.8741559412088
 30
0.0
 11
55.72574789012176
 21
203.7079423643505
 31
0.0
  0
LINE
  5
1D3
330
1F
100
AcDbEntity
  8
0-E
  6
Continuous
 62
     7
370
     9
100
AcDbLine
 10
113.498739998441
 20
-29.45930386136723
 30
0.0
 11
294.4014994473431
 21
283.8741147012379
 31
0.0
  0
LINE
  5
1D4
330
1F
100
AcDbEntity
  8
0-E
  6
Continuous
 62
     7
370
     9
100
AcDbLine
 10
87.06251678792594
 20
-13.6898402449188
 30
0.0
 11
328.1433834211609
 21
403.8741394452202
 31
0.0
  0
LINE
  5
1D5
330
1F
100
AcDbEntity
  8
0-E
  6
Continuous
 62
     7
370
     9
100
AcDbLine
 10
196.9111990883905
 20
454.7744904798489
 30
0.0
 11
236.8059216918533
 21
523.8741641892025
 31
0.0
  0
LINE
  5
1D6
330
1F
100
AcDbEntity
  8
0-E
  6
Continuous
 62
     7
370
     9
100
AcDbLine
 10
40.50671415912515
 20
183.8741559412088
 30
0.0
 11
139.0694187093785
 21
354.5894467324879
 31
0.0
  0
LINE
  5
1D7
330
1F
100
AcDbEntity
  8
0-E
  6
Continuous
 62
     7
370
     9
100
AcDbLine
 10
150.0337246901642
 20
373.5802056799119
 30
0.0
 11
186.4110902148684
 21
436.5876635161661
 31
0.0
  0
LINE
  5
1D8
330
1F
100
AcDbEntity
  8
0-4
  6
Continuous
 62
     7
370
     9
100
AcDbLine
 10
-514.8346043322176
 20
363.8741311972265
 30
0.0
 11
-490.0483098590336
 21
360.6110185362255
 31
0.0
  0
LINE
  5
1D9
330
1F
100
AcDbEntity
  8
0-E
  6
Continuous
 62
     7
370
     9
100
AcDbLine
 10
-356.5013259855115
 20
26.0194262114787
 30
0.0
 11
-574.6559032923107
 21
403.8741394452202
 31
0.0
  0
LINE
  5
1DA
330
1F
100
AcDbEntity
  8
0-E
  6
Continuous
 62
     7
370
     9
100
AcDbLine
 10
-411.5227872661282
 20
175.334512782425
 30
0.0
 11
-612.7522332648612
 21
523.8741641892025
 31
0.0
  0
LINE
  5
1DB
330
1F
100
AcDbEntity
  8
0-E
  6
Continuous
 62
     7
370
     9
100
AcDbLine
 10
328.1433834211609
 20
403.8741394452202
 30
0.0
 11
676.4683807818028
 21
403.8741394452202
 31
0.0
  0
LINE
  5
1DC
330
1F
100
AcDbEntity
  8
0-E
  6
Continuous
 62
     7
370
     9
100
AcDbLine
 10
294.4014994473431
 20
283.8741147012379
 30
0.0
 11
682.987925228593
 21
283.8741147012379
 31
0.0
  0
LINE
  5
1DD
330
1F
100
AcDbEntity
  8
0-E
  6
Continuous
 62
     7
370
     9
100
AcDbLine
 10
-981.0557693448866
 20
523.8741641892025
 30
0.0
 11
-612.7522332648612
 21
523.8741641892025
 31
0.0
  0
LINE
  5
1DE
330
1F
100
AcDbEntity
  8
0-E
  6
Continuous
 62
     7
370
     9
100
AcDbLine
 10
-898.4996994810773
 20
403.8741394452202
 30
0.0
 11
-574.6559032923107
 21
403.8741394452202
 31
0.0
  0
LINE
  5
1DF
330
1F
100
AcDbEntity
  8
0-E
  6
Continuous
 62
     7
370
     9
100
AcDbLine
 10
236.8059216918533
 20
523.8741641892025
 30
0.0
 11
662.3524337801133
 21
523.8741641892025
 31
0.0
  0
LINE
  5
1E0
330
1F
100
AcDbEntity
  8
0-2
  6
Continuous
 62
     6
370
     9
100
AcDbLine
 10
96.83193586520642
 20
-31.12581106681503
 30
0.0
 11
93.4989214543111
 21
-49.45912240549745
 31
0.0
  0
LINE
  5
1E1
330
1F
100
AcDbEntity
  8
0-2
  6
Continuous
 62
     6
370
     9
100
AcDbLine
 10
93.4989214543111
 20
-27.6375281672162
 30
0.0
 11
96.83193586520642
 21
-31.12581106681503
 31
0.0
  0
LINE
  5
1E2
330
1F
100
AcDbEntity
  8
0-2
  6
Continuous
 62
     6
370
     9
100
AcDbLine
 10
-443.1678661829355
 20
-31.12581106681503
 30
0.0
 11
-439.8346043322175
 21
-49.45912240549745
 31
0.0
  0
LINE
  5
1E3
330
1F
100
AcDbEntity
  8
0-2
  6
Continuous
 62
     6
370
     9
100
AcDbLine
 10
90.16541216377047
 20
-30.82294472390984
 30
0.0
 11
96.83193586520642
 21
-31.12581106681503
 31
0.0
  0
LINE
  5
1E4
330
1F
100
AcDbEntity
  8
0-2
  6
Continuous
 62
     6
370
     9
100
AcDbLine
 10
90.16541216377047
 20
-27.48597127585214
 30
0.0
 11
93.4989214543111
 21
-27.6375281672162
 31
0.0
  0
LINE
  5
1E5
330
1F
100
AcDbEntity
  8
0-2
  6
Continuous
 62
     6
370
     9
100
AcDbLine
 10
90.16541216377047
 20
-49.45912240549745
 30
0.0
 11
93.4989214543111
 21
-49.45912240549745
 31
0.0
  0
LINE
  5
1E6
330
1F
100
AcDbEntity
  8
0-2
  6
Continuous
 62
     6
370
     9
100
AcDbLine
 10
-386.8423970370318
 20
183.8741559412088
 30
0.0
 11
-173.1679651588647
 21
183.8741559412088
 31
0.0
  0
LINE
  5
1E7
330
1F
100
AcDbEntity
  8
0-2
  6
Continuous
 62
     6
370
     9
100
AcDbLine
 10
-412.0379569768545
 20
-29.71082644107582
 30
0.0
 11
-443.1678661829355
 21
-31.12581106681503
 31
0.0
  0
LINE
  5
1E8
330
1F
100
AcDbEntity
  8
0-2
  6
Continuous
 62
     6
370
     9
100
AcDbLine
 10
40.50671415912515
 20
183.8741559412088
 30
0.0
 11
-173.1679651588647
 21
183.8741559412088
 31
0.0
  0
LINE
  5
1E9
330
1F
100
AcDbEntity
  8
0-2
  6
Continuous
 62
     6
370
     9
100
AcDbLine
 10
59.36534024126214
 20
-23.65436562234734
 30
0.0
 11
40.50671415912515
 21
183.8741559412088
 31
0.0
  0
LINE
  5
1EA
330
1F
100
AcDbEntity
  8
0-2
  6
Continuous
 62
     6
370
     9
100
AcDbLine
 10
65.70202665912515
 20
-29.71082644107582
 30
0.0
 11
70.16534617981787
 21
-29.91372709563692
 31
0.0
  0
LINE
  5
1EB
330
1F
100
AcDbEntity
  8
0-2
  6
Continuous
 62
     6
370
     9
100
AcDbLine
 10
65.39767567728401
 20
-26.36024380277348
 30
0.0
 11
70.16534617981787
 21
-26.57712480731334
 31
0.0
  0
LINE
  5
1EC
330
1F
100
AcDbEntity
  8
0-2
  6
Continuous
 62
     6
370
     9
100
AcDbLine
 10
44.44694589476708
 20
-40.38921570680671
 30
0.0
 11
23.49869051047673
 21
183.8741559412088
 31
0.0
  0
LINE
  5
1ED
330
1F
100
AcDbEntity
  8
0-2
  6
Continuous
 62
     6
370
     9
100
AcDbLine
 10
-173.1679651588647
 20
-49.45912240549745
 30
0.0
 11
70.16534617981787
 21
-49.45912240549745
 31
0.0
  0
LINE
  5
1EE
330
1F
100
AcDbEntity
  8
0-2
  6
Continuous
 62
     6
370
     9
100
AcDbLine
 10
69.33172141736006
 20
-29.87586880277348
 30
0.0
 11
64.33219980101708
 21
-49.45912240549745
 31
0.0
  0
LINE
  5
1EF
330
1F
100
AcDbEntity
  8
0-2
  6
Continuous
 62
     6
370
     9
100
AcDbLine
 10
-391.6890008429863
 20
130.5407291306089
 30
0.0
 11
-374.5050474804441
 21
133.8741147012381
 31
0.0
  0
LINE
  5
1F0
330
1F
100
AcDbEntity
  8
0-2
  6
Continuous
 62
     6
370
     9
100
AcDbLine
 10
62.66544515574676
 20
-25.63648232156609
 30
0.0
 11
97.66531318784158
 21
-25.63648232156609
 31
0.0
  0
LINE
  5
1F1
330
1F
100
AcDbEntity
  8
0-2
  6
Continuous
 62
     6
370
     9
100
AcDbLine
 10
78.49862452652386
 20
-22.3030967509365
 30
0.0
 11
81.83213381706449
 21
-22.3030967509365
 31
0.0
  0
LINE
  5
1F2
330
1F
100
AcDbEntity
  8
0-2
  6
Continuous
 62
     6
370
     9
100
AcDbLine
 10
81.83213381706449
 20
-12.69661679686152
 30
0.0
 11
81.83213381706449
 21
-22.3030967509365
 31
0.0
  0
LINE
  5
1F3
330
1F
100
AcDbEntity
  8
0-2
  6
Continuous
 62
     6
370
     9
100
AcDbLine
 10
78.49862452652386
 20
-12.69661679686152
 30
0.0
 11
78.49862452652386
 21
-22.3030967509365
 31
0.0
  0
LINE
  5
1F4
330
1F
100
AcDbEntity
  8
0-2
  6
Continuous
 62
     6
370
     9
100
AcDbLine
 10
71.83210082508819
 20
-65.63649056955995
 30
0.0
 11
88.49865751850015
 21
-65.63649056955995
 31
0.0
  0
LINE
  5
1F5
330
1F
100
AcDbEntity
  8
0-2
  6
Continuous
 62
     6
370
     9
100
AcDbLine
 10
70.16534617981787
 20
-63.96973592428964
 30
0.0
 11
90.16541216377047
 21
-63.96973592428964
 31
0.0
  0
LINE
  5
1F6
330
1F
100
AcDbEntity
  8
0-2
  6
Continuous
 62
     6
370
     9
100
AcDbLine
 10
70.16534617981787
 20
-63.96973592428964
 30
0.0
 11
71.83210082508819
 21
-65.63649056955995
 31
0.0
  0
LINE
  5
1F7
330
1F
100
AcDbEntity
  8
0-2
  6
Continuous
 62
     6
370
     9
100
AcDbLine
 10
90.16541216377047
 20
-63.96973592428964
 30
0.0
 11
88.49865751850015
 21
-65.63649056955995
 31
0.0
  0
LINE
  5
1F8
330
1F
100
AcDbEntity
  8
0-2
  6
Continuous
 62
     6
370
     9
100
AcDbLine
 10
90.16541216377047
 20
-25.63648232156609
 30
0.0
 11
90.16541216377047
 21
-63.96973592428964
 31
0.0
  0
LINE
  5
1F9
330
1F
100
AcDbEntity
  8
0-2
  6
Continuous
 62
     6
370
     9
100
AcDbLine
 10
88.49865751850015
 20
-25.63648232156609
 30
0.0
 11
88.49865751850015
 21
-65.63649056955995
 31
0.0
  0
LINE
  5
1FA
330
1F
100
AcDbEntity
  8
0-2
  6
Continuous
 62
     6
370
     9
100
AcDbLine
 10
71.83210082508819
 20
-25.63648232156609
 30
0.0
 11
71.83210082508819
 21
-65.63649056955995
 31
0.0
  0
LINE
  5
1FB
330
1F
100
AcDbEntity
  8
0-2
  6
Continuous
 62
     6
370
     9
100
AcDbLine
 10
70.16534617981787
 20
-25.63648232156609
 30
0.0
 11
70.16534617981787
 21
-63.96973592428964
 31
0.0
  0
LINE
  5
1FC
330
1F
100
AcDbEntity
  8
0-2
  6
Continuous
 62
     6
370
     9
100
AcDbLine
 10
-405.3419879365251
 20
144.4573633551656
 30
0.0
 11
-402.1742633271501
 21
179.3135925702204
 31
0.0
  0
LINE
  5
1FD
330
1F
100
AcDbEntity
  8
0-2
  6
Continuous
 62
     6
370
     9
100
AcDbLine
 10
-407.2284691442954
 20
160.5272189162932
 30
0.0
 11
-406.9268400005032
 21
163.8469952966776
 31
0.0
  0
LINE
  5
1FE
330
1F
100
AcDbEntity
  8
0-2
  6
Continuous
 62
     6
370
     9
100
AcDbLine
 10
-416.493853302868
 20
164.7164988334173
 30
0.0
 11
-406.9268400005032
 21
163.8469952966776
 31
0.0
  0
LINE
  5
1FF
330
1F
100
AcDbEntity
  8
0-2
  6
Continuous
 62
     6
370
     9
100
AcDbLine
 10
-416.7957298864829
 20
161.3967224530329
 30
0.0
 11
-407.2284691442954
 21
160.5272189162932
 31
0.0
  0
LINE
  5
200
330
1F
100
AcDbEntity
  8
0-2
  6
Continuous
 62
     6
370
     9
100
AcDbLine
 10
-364.6762428457311
 20
149.9659924065804
 30
0.0
 11
-363.1680971267701
 21
166.5642557089453
 31
0.0
  0
LINE
  5
201
330
1F
100
AcDbEntity
  8
0-2
  6
Continuous
 62
     6
370
     9
100
AcDbLine
 10
-366.4870074677751
 20
148.4569806482401
 30
0.0
 11
-364.676985165199
 21
168.375020330989
 31
0.0
  0
LINE
  5
202
330
1F
100
AcDbEntity
  8
0-2
  6
Continuous
 62
     6
370
     9
100
AcDbLine
 10
-366.4870074677751
 20
148.4569806482401
 30
0.0
 11
-364.6762428457311
 21
149.9659924065804
 31
0.0
  0
LINE
  5
203
330
1F
100
AcDbEntity
  8
0-2
  6
Continuous
 62
     6
370
     9
100
AcDbLine
 10
-364.676985165199
 20
168.375020330989
 30
0.0
 11
-363.1680971267701
 21
166.5642557089453
 31
0.0
  0
LINE
  5
204
330
1F
100
AcDbEntity
  8
0-2
  6
Continuous
 62
     6
370
     9
100
AcDbLine
 10
-402.8529907606384
 20
171.8443740841562
 30
0.0
 11
-364.676985165199
 21
168.375020330989
 31
0.0
  0
LINE
  5
205
330
1F
100
AcDbEntity
  8
0-2
  6
Continuous
 62
     6
370
     9
100
AcDbLine
 10
-403.0039290524456
 20
170.1845477539197
 30
0.0
 11
-363.1680971267701
 21
166.5642557089453
 31
0.0
  0
LINE
  5
206
330
1F
100
AcDbEntity
  8
0-2
  6
Continuous
 62
     6
370
     9
100
AcDbLine
 10
-404.5120747714068
 20
153.5864081714662
 30
0.0
 11
-364.6762428457311
 21
149.9659924065804
 31
0.0
  0
LINE
  5
207
330
1F
100
AcDbEntity
  8
0-2
  6
Continuous
 62
     6
370
     9
100
AcDbLine
 10
-404.6632605030368
 20
151.9264581213183
 30
0.0
 11
-366.4870074677751
 21
148.4569806482401
 31
0.0
  0
LINE
  5
208
330
1F
100
AcDbEntity
  8
0-2
  6
Continuous
 62
     6
370
     9
100
AcDbLine
 10
-388.0578214458157
 20
170.4997860879568
 30
0.0
 11
-386.8423970370318
 21
183.8741559412088
 31
0.0
  0
LINE
  5
209
330
1F
100
AcDbEntity
  8
0-2
  6
Continuous
 62
     6
370
     9
100
AcDbLine
 10
-371.2267172703511
 20
168.970236824338
 30
0.0
 11
-369.8346208282058
 21
183.8741559412088
 31
0.0
  0
LINE
  5
20A
330
1F
100
AcDbEntity
  8
0-2
  6
Continuous
 62
     6
370
     9
100
AcDbLine
 10
-390.7828762124964
 20
-40.38921570680671
 30
0.0
 11
-373.0867224170993
 21
149.0567747783075
 31
0.0
  0
LINE
  5
20B
330
1F
100
AcDbEntity
  8
0-2
  6
JWW_CENTER1
 62
     6
370
     9
100
AcDbLine
 10
-426.658928656542
 20
163.9666324509214
 30
0.0
 11
-351.7866076050217
 21
157.1622847682777
 31
0.0
  0
LINE
  5
20C
330
1F
100
AcDbEntity
  8
0-2
  6
JWW_CENTER1
 62
     6
370
     9
100
AcDbLine
 10
80.16513173197151
 20
-2.375778074838593
 30
0.0
 11
80.16587405143949
 21
-74.75390571419666
 31
0.0
  0
LINE
  5
20D
330
1F
100
AcDbEntity
  8
0-2
  6
Continuous
 62
     6
370
     9
100
AcDbLine
 10
-407.4952092730959
 20
-43.3956095518235
 30
0.0
 11
-389.8678437483917
 21
150.5818701251192
 31
0.0
  0
LINE
  5
20E
330
1F
100
AcDbEntity
  8
0-2
  6
Continuous
 62
     6
370
     9
100
AcDbLine
 10
-173.1679651588647
 20
-49.45912240549745
 30
0.0
 11
-439.8346043322175
 21
-49.45912240549745
 31
0.0
  0
LINE
  5
20F
330
1F
100
AcDbEntity
  8
0-4
  6
Continuous
 62
     7
370
     9
100
AcDbLine
 10
381.8318863772419
 20
-42.31380264726255
 30
0.0
 11
381.8318863772419
 21
183.8741559412088
 31
0.0
  0
LINE
  5
210
330
1F
100
AcDbEntity
  8
0-0
  6
JWW_CENTER1
 62
     3
370
     9
100
AcDbLine
 10
-173.1680888787759
 20
198.5748032437846
 30
0.0
 11
-173.1680888787759
 21
-282.2779733609451
 31
0.0
  0
ARC
  5
211
330
1F
100
AcDbEntity
  8
0-0
  6
Continuous
 62
     3
370
     9
100
AcDbCircle
 10
-518.8516661327877
 20
-100.1465514727484
 30
0.0
 40
36.66666520608438
100
AcDbArc
 50
74.99996948242188
 51
121.7902069091797
  0
ARC
  5
212
330
1F
100
AcDbEntity
  8
0-0
  6
Continuous
 62
     3
370
     9
100
AcDbCircle
 10
-440.256612949722
 20
-74.61855613121543
 30
0.0
 40
5.000000064437453
100
AcDbArc
 50
254.9999084472656
 51
318.4355773925781
  0
ARC
  5
213
330
1F
100
AcDbEntity
  8
0-0
  6
Continuous
 62
     3
370
     9
100
AcDbCircle
 10
-456.8246885937253
 20
-70.17911455340709
 30
0.0
 40
5.000000064437453
100
AcDbArc
 50
191.5648956298828
 51
254.9999084472656
  0
ARC
  5
214
330
1F
100
AcDbEntity
  8
0-0
  6
Continuous
 62
     3
370
     9
100
AcDbCircle
 10
-477.2951376805074
 20
-57.36086570152793
 30
0.0
 40
5.416692108721347
100
AcDbArc
 50
187.6205902099609
 51
322.37890625
  0
ARC
  5
215
330
1F
100
AcDbEntity
  8
0-0
  6
Continuous
 62
     3
370
     9
100
AcDbCircle
 10
-466.197709075144
 20
-65.94220247042557
 30
0.0
 40
3.333333376291636
100
AcDbArc
 50
11.56642150878906
 51
75.00077819824219
  0
ARC
  5
216
330
1F
100
AcDbEntity
  8
0-0
  6
Continuous
 62
     3
370
     9
100
AcDbCircle
 10
-430.0205223669516
 20
-75.63578124206828
 30
0.0
 40
3.333333376291636
100
AcDbArc
 50
75.00022888183594
 51
138.4349822998047
  0
ARC
  5
217
330
1F
100
AcDbEntity
  8
0-0
  6
Continuous
 62
     3
370
     9
100
AcDbCircle
 10
-496.6137543929228
 20
-52.18454833191203
 30
0.0
 40
5.416692108721347
100
AcDbArc
 50
187.6192932128907
 51
322.3796997070312
  0
ARC
  5
218
330
1F
100
AcDbEntity
  8
0-0
  6
Continuous
 62
     3
370
     9
100
AcDbCircle
 10
-416.1196005711324
 20
-73.75276419181503
 30
0.0
 40
5.416692108721347
100
AcDbArc
 50
187.6205902099609
 51
322.3807373046875
  0
ARC
  5
219
330
1F
100
AcDbEntity
  8
0-0
  6
Continuous
 62
     3
370
     9
100
AcDbCircle
 10
-480.4611302111237
 20
-79.37496812181934
 30
0.0
 40
6.666666752583272
100
AcDbArc
 50
11.56620788574219
 51
75.00050354003906
  0
ARC
  5
21A
330
1F
100
AcDbEntity
  8
0-0
  6
JWW_DASHED1
 62
     3
370
     9
100
AcDbCircle
 10
-424.3848329666139
 20
-94.40062763142649
 30
0.0
 40
6.666666752583272
100
AcDbArc
 50
74.999755859375
 51
138.4350738525391
  0
ARC
  5
21B
330
1F
100
AcDbEntity
  8
0-0
  6
JWW_DASHED1
 62
     3
370
     9
100
AcDbCircle
 10
-435.7475170618417
 20
-89.630359010755
 30
0.0
 40
5.000000064437453
100
AcDbArc
 50
255.0012817382812
 51
318.4365081787109
  0
ARC
  5
21C
330
1F
100
AcDbEntity
  8
0-0
  6
Continuous
 62
     3
370
     9
100
AcDbCircle
 10
-389.8907319319855
 20
-178.9805078045686
 30
0.0
 40
3.333333376291636
100
AcDbArc
 50
4.554550170898438
 51
90.0
  0
ARC
  5
21D
330
1F
100
AcDbEntity
  8
0-0
  6
Continuous
 62
     3
370
     9
100
AcDbCircle
 10
-415.8073315149667
 20
-147.3139016231917
 30
0.0
 40
5.000000064437453
100
AcDbArc
 50
8.53070068359375
 51
90.0
  0
ARC
  5
21E
330
1F
100
AcDbEntity
  8
0-0
  6
JWW_DASHED1
 62
     3
370
     9
100
AcDbCircle
 10
-399.1009370101105
 20
-147.3139016231917
 30
0.0
 40
5.000000064437453
100
AcDbArc
 50
4.555007934570312
 51
90.0
  0
ARC
  5
21F
330
1F
100
AcDbEntity
  8
0-0
  6
Continuous
 62
     3
370
     9
100
AcDbCircle
 10
-375.3447345185563
 20
-235.647196465886
 30
0.0
 40
6.666666752583272
100
AcDbArc
 50
184.5546264648437
 51
270.0
  0
ARC
  5
220
330
1F
100
AcDbEntity
  8
0-0
  6
Continuous
 62
     3
370
     9
100
AcDbCircle
 10
-474.1900153462589
 20
-90.95799737910397
 30
0.0
 40
6.666666752583272
100
AcDbArc
 50
8.43475341796875
 51
59.30958557128906
  0
ARC
  5
221
330
1F
100
AcDbEntity
  8
0-0
  6
JWW_DASHED1
 62
     3
370
     9
100
AcDbCircle
 10
-407.7009554856173
 20
-102.3219186734453
 30
0.0
 40
10.00000012887491
100
AcDbArc
 50
4.554595947265626
 51
74.99990844726562
  0
ARC
  5
222
330
1F
100
AcDbEntity
  8
0-0
  6
JWW_DASHED1
 62
     3
370
     9
100
AcDbCircle
 10
-368.9038759353639
 20
-106.6188349134154
 30
0.0
 40
10.00000012887491
100
AcDbArc
 50
184.5545959472657
 51
263.6697540283203
  0
ARC
  5
223
330
1F
100
AcDbEntity
  8
0-0
  6
JWW_DASHED1
 62
     3
370
     9
100
AcDbCircle
 10
-352.4783256291983
 20
-123.532955149374
 30
0.0
 40
5.000000064437453
100
AcDbArc
 50
9.462326049804688
 51
83.67115783691405
  0
ARC
  5
224
330
1F
100
AcDbEntity
  8
0-0
  6
Continuous
 62
     3
370
     9
100
AcDbCircle
 10
-339.4323084205834
 20
-90.647212961874
 30
0.0
 40
3.333333376291636
100
AcDbArc
 50
7.352645874023438
 51
90.0
  0
ARC
  5
225
330
1F
100
AcDbEntity
  8
0-0
  6
Continuous
 62
     3
370
     9
100
AcDbCircle
 10
172.5154883752358
 20
-100.1465514727484
 30
0.0
 40
36.66666520608438
100
AcDbArc
 50
58.20979309082031
 51
105.0000305175781
  0
ARC
  5
226
330
1F
100
AcDbEntity
  8
0-0
  6
Continuous
 62
     3
370
     9
100
AcDbCircle
 10
93.92043519216995
 20
-74.61855613121543
 30
0.0
 40
5.000000064437453
100
AcDbArc
 50
221.5644226074219
 51
285.0000915527344
  0
ARC
  5
227
330
1F
100
AcDbEntity
  8
0-0
  6
Continuous
 62
     3
370
     9
100
AcDbCircle
 10
110.4885108361733
 20
-70.17911455340709
 30
0.0
 40
5.000000064437453
100
AcDbArc
 50
285.0000915527344
 51
348.4351043701172
  0
ARC
  5
228
330
1F
100
AcDbEntity
  8
0-0
  6
Continuous
 62
     3
370
     9
100
AcDbCircle
 10
130.9589599229556
 20
-57.36086570152793
 30
0.0
 40
5.416692108721347
100
AcDbArc
 50
217.62109375
 51
352.3794097900391
  0
ARC
  5
229
330
1F
100
AcDbEntity
  8
0-0
  6
Continuous
 62
     3
370
     9
100
AcDbCircle
 10
119.8615313175924
 20
-65.94220247042557
 30
0.0
 40
3.333333376291636
100
AcDbArc
 50
104.9992218017578
 51
168.4335784912109
  0
ARC
  5
22A
330
1F
100
AcDbEntity
  8
0-0
  6
Continuous
 62
     3
370
     9
100
AcDbCircle
 10
83.68434460939963
 20
-75.63578124206828
 30
0.0
 40
3.333333376291636
100
AcDbArc
 50
41.56501770019531
 51
104.9997711181641
  0
ARC
  5
22B
330
1F
100
AcDbEntity
  8
0-0
  6
Continuous
 62
     3
370
     9
100
AcDbCircle
 10
150.277576635371
 20
-52.18454833191203
 30
0.0
 40
5.416692108721347
100
AcDbArc
 50
217.6203002929688
 51
352.3807067871094
  0
ARC
  5
22C
330
1F
100
AcDbEntity
  8
0-0
  6
Continuous
 62
     3
370
     9
100
AcDbCircle
 10
69.78342281358036
 20
-73.75276419181503
 30
0.0
 40
5.416692108721347
100
AcDbArc
 50
217.6192626953125
 51
352.3794097900391
  0
ARC
  5
22D
330
1F
100
AcDbEntity
  8
0-0
  6
Continuous
 62
     3
370
     9
100
AcDbCircle
 10
134.124952453572
 20
-79.37496812181934
 30
0.0
 40
6.666666752583272
100
AcDbArc
 50
104.9994964599609
 51
168.4337921142578
  0
ARC
  5
22E
330
1F
100
AcDbEntity
  8
0-0
  6
Continuous
 62
     3
370
     9
100
AcDbCircle
 10
78.04865520906188
 20
-94.40062763142649
 30
0.0
 40
6.666666752583272
100
AcDbArc
 50
41.56492614746094
 51
105.000244140625
  0
ARC
  5
22F
330
1F
100
AcDbEntity
  8
0-0
  6
Continuous
 62
     3
370
     9
100
AcDbCircle
 10
121.8991982569926
 20
-80.92542605045082
 30
0.0
 40
5.000000064437453
100
AcDbArc
 50
284.9987182617188
 51
348.4337158203125
  0
ARC
  5
230
330
1F
100
AcDbEntity
  8
0-0
  6
Continuous
 62
     3
370
     9
100
AcDbCircle
 10
89.41133930429001
 20
-89.630359010755
 30
0.0
 40
5.000000064437453
100
AcDbArc
 50
221.5634918212891
 51
284.9987182617188
  0
ARC
  5
231
330
1F
100
AcDbEntity
  8
0-0
  6
Continuous
 62
     3
370
     9
100
AcDbCircle
 10
43.55455417443348
 20
-178.9805078045686
 30
0.0
 40
3.333333376291636
100
AcDbArc
 50
90.0
 51
175.4454498291016
  0
ARC
  5
232
330
1F
100
AcDbEntity
  8
0-0
  6
JWW_PHANTOM1
 62
     3
370
     9
100
AcDbCircle
 10
69.47115375741501
 20
-147.3139016231917
 30
0.0
 40
5.000000064437453
100
AcDbArc
 50
90.0
 51
171.4692993164062
  0
ARC
  5
233
330
1F
100
AcDbEntity
  8
0-0
  6
Continuous
 62
     3
370
     9
100
AcDbCircle
 10
29.00855676100459
 20
-235.647196465886
 30
0.0
 40
6.666666752583272
100
AcDbArc
 50
270.0
 51
355.4453735351562
  0
ARC
  5
234
330
1F
100
AcDbEntity
  8
0-0
  6
JWW_PHANTOM1
 62
     3
370
     9
100
AcDbCircle
 10
109.1854927301767
 20
-137.3138686312154
 30
0.0
 40
5.000000064437453
100
AcDbArc
 50
270.0
 51
351.5646362304688
  0
ARC
  5
235
330
1F
100
AcDbEntity
  8
0-0
  6
JWW_PHANTOM1
 62
     3
370
     9
100
AcDbCircle
 10
127.8538375887072
 20
-90.95799737910397
 30
0.0
 40
6.666666752583272
100
AcDbArc
 50
120.6904144287109
 51
171.5652465820312
  0
ARC
  5
236
330
1F
100
AcDbEntity
  8
0-0
  6
Continuous
 62
     3
370
     9
100
AcDbCircle
 10
61.36477772806526
 20
-102.3219186734453
 30
0.0
 40
10.00000012887491
100
AcDbArc
 50
105.0000915527344
 51
175.4454040527344
  0
ARC
  5
237
330
1F
100
AcDbEntity
  8
0-0
  6
Continuous
 62
     3
370
     9
100
AcDbCircle
 10
22.56769817781187
 20
-106.6188349134154
 30
0.0
 40
10.00000012887491
100
AcDbArc
 50
276.3302459716797
 51
355.4454040527344
  0
ARC
  5
238
330
1F
100
AcDbEntity
  8
0-0
  6
Continuous
 62
     3
370
     9
100
AcDbCircle
 10
6.142147871646242
 20
-123.532955149374
 30
0.0
 40
5.000000064437453
100
AcDbArc
 50
96.32884216308594
 51
170.5376739501953
  0
ARC
  5
239
330
1F
100
AcDbEntity
  8
0-0
  6
Continuous
 62
     3
370
     9
100
AcDbCircle
 10
43.69584231315823
 20
-93.25238313448807
 30
0.0
 40
10.00000012887491
100
AcDbArc
 50
105.0000915527344
 51
175.4457550048828
  0
ARC
  5
23A
330
1F
100
AcDbEntity
  8
0-0
  6
Continuous
 62
     3
370
     9
100
AcDbCircle
 10
-390.03202007071
 20
-93.25238313448807
 30
0.0
 40
10.00000012887491
100
AcDbArc
 50
36.43096923828125
 51
74.99990844726561
  0
ARC
  5
23B
330
1F
100
AcDbEntity
  8
0-0
  6
JWW_DASHED1
 62
     3
370
     9
100
AcDbCircle
 10
-390.03202007071
 20
-93.25238313448807
 30
0.0
 40
10.00000012887491
100
AcDbArc
 50
4.554244995117188
 51
36.43096923828126
  0
ARC
  5
23C
330
1F
100
AcDbEntity
  8
0-0
  6
JWW_DASHED1
 62
     3
370
     9
100
AcDbCircle
 10
-468.2353760145446
 20
-80.92542605045082
 30
0.0
 40
5.000000064437453
100
AcDbArc
 50
239.3083190917969
 51
255.0012817382812
  0
ARC
  5
23D
330
1F
100
AcDbEntity
  8
0-0
  6
Continuous
 62
     3
370
     9
100
AcDbCircle
 10
-468.2353760145446
 20
-80.92542605045082
 30
0.0
 40
5.000000064437453
100
AcDbArc
 50
191.5662841796875
 51
239.3083190917969
  0
ARC
  5
23E
330
1F
100
AcDbEntity
  8
0-1
  6
Continuous
 62
     2
370
     9
100
AcDbCircle
 10
-439.055168890917
 20
-50.7841626557088
 30
0.0
 40
6.666666752583272
100
AcDbArc
 50
190.6148834228516
 51
255.0005035400391
  0
ARC
  5
23F
330
1F
100
AcDbEntity
  8
0-1
  6
JWW_DASHED1
 62
     2
370
     9
100
AcDbCircle
 10
92.71911485327647
 20
-50.7841626557088
 30
0.0
 40
6.666666752583272
100
AcDbArc
 50
284.9994964599609
 51
349.3851165771484
  0
ARC
  5
240
330
1F
100
AcDbEntity
  8
0-1
  6
Continuous
 62
     2
370
     9
100
AcDbCircle
 10
-320.6004058392912
 20
-72.79257396007921
 30
0.0
 40
5.000000064437453
100
AcDbArc
 50
11.31021118164062
 51
90.0
  0
ARC
  5
241
330
1F
100
AcDbEntity
  8
0-1
  6
Continuous
 62
     2
370
     9
100
AcDbCircle
 10
125.0268376151007
 20
-38.67631353461505
 30
0.0
 40
10.00000012887491
100
AcDbArc
 50
188.7071380615234
 51
285.0002746582031
  0
ARC
  5
242
330
1F
100
AcDbEntity
  8
0-1
  6
Continuous
 62
     2
370
     9
100
AcDbCircle
 10
-471.3628916527412
 20
-38.67631353461505
 30
0.0
 40
10.00000012887491
100
AcDbArc
 50
254.9997253417969
 51
351.2928619384766
  0
ARC
  5
243
330
1F
100
AcDbEntity
  8
0-1
  6
Continuous
 62
     4
370
     9
100
AcDbCircle
 10
-375.2467483487928
 20
-55.45990926413339
 30
0.0
 40
9.333911457577267
100
AcDbArc
 50
47.92556762695312
 51
132.0746307373047
  0
ARC
  5
244
330
1F
100
AcDbEntity
  8
0-1
  6
Continuous
 62
     4
370
     9
100
AcDbCircle
 10
-356.501449705423
 20
-79.75726264779041
 30
0.0
 40
33.63136729678592
100
AcDbArc
 50
68.19786071777344
 51
111.8021392822266
  0
ARC
  5
245
330
1F
100
AcDbEntity
  8
0-1
  6
Continuous
 62
     4
370
     9
100
AcDbCircle
 10
-337.7561510620529
 20
-55.45990926413339
 30
0.0
 40
9.33396558503847
100
AcDbArc
 50
47.92572021484375
 51
132.0742797851562
  0
ARC
  5
246
330
1F
100
AcDbEntity
  8
0-1
  6
Continuous
 62
     2
370
     9
100
AcDbCircle
 10
61.0208363746025
 20
-54.45913890148546
 30
0.0
 40
5.000000064437453
100
AcDbArc
 50
90.0
 51
169.911865234375
  0
ARC
  5
247
330
1F
100
AcDbEntity
  8
0-1
  6
Continuous
 62
     2
370
     9
100
AcDbCircle
 10
95.60030414804001
 20
-44.45910590950916
 30
0.0
 40
5.000000064437453
100
AcDbArc
 50
270.0
 51
349.3843536376953
  0
ARC
  5
248
330
1F
100
AcDbEntity
  8
0-1
  6
Continuous
 62
     2
370
     9
100
AcDbCircle
 10
47.67764393900276
 20
-62.85279256491464
 30
0.0
 40
6.666666752583272
100
AcDbArc
 50
284.9994964599609
 51
349.9125671386718
  0
ARC
  5
249
330
1F
100
AcDbEntity
  8
0-1
  6
Continuous
 62
     2
370
     9
100
AcDbCircle
 10
12.67950798566656
 20
-76.1259595307088
 30
0.0
 40
3.333333376291636
100
AcDbArc
 50
90.0
 51
164.0540161132812
  0
ARC
  5
24A
330
1F
100
AcDbEntity
  8
0-5
  6
Continuous
 62
     2
370
     9
100
AcDbCircle
 10
-540.9309689463435
 20
-383.980565540527
 30
0.0
 40
5.000000064437453
100
AcDbArc
 50
194.0364074707031
 51
270.0
  0
ARC
  5
24B
330
1F
100
AcDbEntity
  8
0-5
  6
Continuous
 62
     2
370
     9
100
AcDbCircle
 10
-495.8157609649246
 20
-393.9803510926806
 30
0.0
 40
5.000000064437453
100
AcDbArc
 50
14.03511047363281
 51
90.0
  0
ARC
  5
24C
330
1F
100
AcDbEntity
  8
0-5
  6
Continuous
 62
     2
370
     9
100
AcDbCircle
 10
-485.4054727470192
 20
-380.6470562499865
 30
0.0
 40
5.000000064437453
100
AcDbArc
 50
14.03640747070312
 51
90.0
  0
ARC
  5
24D
330
1F
100
AcDbEntity
  8
0-5
  6
Continuous
 62
     2
370
     9
100
AcDbCircle
 10
-474.264371012961
 20
-383.980565540527
 30
0.0
 40
5.000000064437453
100
AcDbArc
 50
194.0364074707031
 51
270.0
  0
ARC
  5
24E
330
1F
100
AcDbEntity
  8
0-5
  6
Continuous
 62
     2
370
     9
100
AcDbCircle
 10
49.0689980616801
 20
-397.3139841031326
 30
0.0
 40
5.000000064437453
100
AcDbArc
 50
194.0352783203125
 51
270.0
  0
ARC
  5
24F
330
1F
100
AcDbEntity
  8
0-5
  6
Continuous
 62
     2
370
     9
100
AcDbCircle
 10
194.5947911887916
 20
-383.980565540527
 30
0.0
 40
5.000000064437453
100
AcDbArc
 50
270.0
 51
345.9650573730469
  0
ARC
  5
250
330
1F
100
AcDbEntity
  8
0-5
  6
Continuous
 62
     2
370
     9
100
AcDbCircle
 10
149.4793357675502
 20
-393.9803510926806
 30
0.0
 40
5.000000064437453
100
AcDbArc
 50
90.0
 51
165.9650573730469
  0
ARC
  5
251
330
1F
100
AcDbEntity
  8
0-5
  6
Continuous
 62
     2
370
     9
100
AcDbCircle
 10
138.3381103135806
 20
-397.3139841031326
 30
0.0
 40
5.000000064437453
100
AcDbArc
 50
270.0
 51
345.9650573730469
  0
ARC
  5
252
330
1F
100
AcDbEntity
  8
0-5
  6
Continuous
 62
     2
370
     9
100
AcDbCircle
 10
127.9278220956752
 20
-383.980565540527
 30
0.0
 40
5.000000064437453
100
AcDbArc
 50
270.0
 51
345.9650573730469
  0
ARC
  5
253
330
1F
100
AcDbEntity
  8
0-5
  6
Continuous
 62
     2
370
     9
100
AcDbCircle
 10
139.0690475496447
 20
-380.6470562499865
 30
0.0
 40
5.000000064437453
100
AcDbArc
 50
90.0
 51
165.9650573730469
  0
ARC
  5
254
330
1F
100
AcDbEntity
  8
0-5
  6
Continuous
 62
     2
370
     9
100
AcDbCircle
 10
-468.2997103684298
 20
-393.9803510926806
 30
0.0
 40
5.000000064437453
100
AcDbArc
 50
20.55572509765625
 51
90.0
  0
ARC
  5
255
330
1F
100
AcDbEntity
  8
0-5
  6
Continuous
 62
     2
370
     9
100
AcDbCircle
 10
-418.0365168770868
 20
-393.9803510926806
 30
0.0
 40
5.000000064437453
100
AcDbArc
 50
90.0
 51
159.4445037841797
  0
ARC
  5
256
330
1F
100
AcDbEntity
  8
0-5
  6
Continuous
 62
     2
370
     9
100
AcDbCircle
 10
-484.6746592308664
 20
-397.3139841031326
 30
0.0
 40
5.000000064437453
100
AcDbArc
 50
194.0348663330078
 51
270.0
  0
ARC
  5
257
330
1F
100
AcDbEntity
  8
0-5
  6
Continuous
 62
     2
370
     9
100
AcDbCircle
 10
-395.4051758192321
 20
-397.3139841031326
 30
0.0
 40
5.000000064437453
100
AcDbArc
 50
270.0
 51
345.9647216796875
  0
ARC
  5
258
330
1F
100
AcDbEntity
  8
0-0
  6
Continuous
 62
     3
370
     9
100
AcDbCircle
 10
-455.5214230479061
 20
-137.3138686312154
 30
0.0
 40
5.000000064437453
100
AcDbArc
 50
188.4351501464844
 51
258.6956329345703
  0
ARC
  5
259
330
1F
100
AcDbEntity
  8
0-0
  6
Continuous
 62
     4
370
     9
100
AcDbCircle
 10
-461.9134122661282
 20
-414.6465250791672
 30
0.0
 40
9.333911457577267
100
AcDbArc
 50
227.9253692626953
 51
312.0744323730469
  0
ARC
  5
25A
330
1F
100
AcDbEntity
  8
0-0
  6
Continuous
 62
     4
370
     9
100
AcDbCircle
 10
-443.1681136227581
 20
-390.3490479755988
 30
0.0
 40
33.63136729678592
100
AcDbArc
 50
248.1978607177734
 51
291.8021392822265
  0
ARC
  5
25B
330
1F
100
AcDbEntity
  8
0-0
  6
Continuous
 62
     4
370
     9
100
AcDbCircle
 10
-424.4226912594769
 20
-414.6465250791672
 30
0.0
 40
9.33396558503847
100
AcDbArc
 50
227.9257202148438
 51
312.0742797851562
  0
ARC
  5
25C
330
1F
100
AcDbEntity
  8
0-0
  6
Continuous
 62
     3
370
     9
100
AcDbCircle
 10
-173.1679651588647
 20
827.9565501029483
 30
0.0
 40
371.6666762893265
100
AcDbArc
 50
0.0
 51
180.0
  0
ARC
  5
25D
330
1F
100
AcDbEntity
  8
0-0
  6
Continuous
 62
     3
370
     9
100
AcDbCircle
 10
-173.1679651588647
 20
827.9565501029483
 30
0.0
 40
375.0
100
AcDbArc
 50
0.0
 51
180.0
  0
ARC
  5
25E
330
1F
100
AcDbEntity
  8
0-1
  6
Continuous
 62
     2
370
     9
100
AcDbCircle
 10
-173.1679651588647
 20
827.9565501029483
 30
0.0
 40
276.6666721653294
100
AcDbArc
 50
18.79946899414062
 51
41.20048522949219
  0
ARC
  5
25F
330
1F
100
AcDbEntity
  8
0-1
  6
Continuous
 62
     2
370
     9
100
AcDbCircle
 10
-173.1679651588647
 20
827.9565501029483
 30
0.0
 40
286.6666742273279
100
AcDbArc
 50
18.666748046875
 51
41.33323669433594
  0
ARC
  5
260
330
1F
100
AcDbEntity
  8
0-1
  6
Continuous
 62
     2
370
     9
100
AcDbCircle
 10
-173.1679651588647
 20
827.9565501029483
 30
0.0
 40
289.9999979380015
100
AcDbArc
 50
17.63522338867188
 51
42.36474609375
  0
ARC
  5
261
330
1F
100
AcDbEntity
  8
0-1
  6
Continuous
 62
     2
370
     9
100
AcDbCircle
 10
-173.1679651588647
 20
827.9565501029483
 30
0.0
 40
271.6666556693412
100
AcDbArc
 50
17.81321716308594
 51
42.18676757812499
  0
ARC
  5
262
330
1F
100
AcDbEntity
  8
0-1
  6
Continuous
 62
     2
370
     9
100
AcDbCircle
 10
-173.1679651588647
 20
827.9565501029483
 30
0.0
 40
276.6666721653294
100
AcDbArc
 50
48.79946899414062
 51
71.20048522949217
  0
ARC
  5
263
330
1F
100
AcDbEntity
  8
0-1
  6
Continuous
 62
     2
370
     9
100
AcDbCircle
 10
-173.1679651588647
 20
827.9565501029483
 30
0.0
 40
286.6666742273279
100
AcDbArc
 50
48.66674804687499
 51
71.33323669433594
  0
ARC
  5
264
330
1F
100
AcDbEntity
  8
0-1
  6
Continuous
 62
     2
370
     9
100
AcDbCircle
 10
-173.1679651588647
 20
827.9565501029483
 30
0.0
 40
289.9999979380015
100
AcDbArc
 50
47.63522338867188
 51
72.36474609375
  0
ARC
  5
265
330
1F
100
AcDbEntity
  8
0-1
  6
Continuous
 62
     2
370
     9
100
AcDbCircle
 10
-173.1679651588647
 20
827.9565501029483
 30
0.0
 40
271.6666556693412
100
AcDbArc
 50
47.81321716308593
 51
72.186767578125
  0
ARC
  5
266
330
1F
100
AcDbEntity
  8
0-1
  6
Continuous
 62
     2
370
     9
100
AcDbCircle
 10
-173.1679651588647
 20
827.9565501029483
 30
0.0
 40
276.6666721653294
100
AcDbArc
 50
78.79946899414062
 51
101.2004852294922
  0
ARC
  5
267
330
1F
100
AcDbEntity
  8
0-1
  6
Continuous
 62
     2
370
     9
100
AcDbCircle
 10
-173.1679651588647
 20
827.9565501029483
 30
0.0
 40
286.6666742273279
100
AcDbArc
 50
78.666748046875
 51
101.3332366943359
  0
ARC
  5
268
330
1F
100
AcDbEntity
  8
0-1
  6
Continuous
 62
     2
370
     9
100
AcDbCircle
 10
-173.1679651588647
 20
827.9565501029483
 30
0.0
 40
289.9999979380015
100
AcDbArc
 50
77.63522338867188
 51
102.36474609375
  0
ARC
  5
269
330
1F
100
AcDbEntity
  8
0-1
  6
Continuous
 62
     2
370
     9
100
AcDbCircle
 10
-173.1679651588647
 20
827.9565501029483
 30
0.0
 40
276.6666721653294
100
AcDbArc
 50
108.7994689941406
 51
131.2004852294922
  0
ARC
  5
26A
330
1F
100
AcDbEntity
  8
0-1
  6
Continuous
 62
     2
370
     9
100
AcDbCircle
 10
-173.1679651588647
 20
827.9565501029483
 30
0.0
 40
286.6666742273279
100
AcDbArc
 50
108.666748046875
 51
131.3332366943359
  0
ARC
  5
26B
330
1F
100
AcDbEntity
  8
0-1
  6
Continuous
 62
     2
370
     9
100
AcDbCircle
 10
-173.1679651588647
 20
827.9565501029483
 30
0.0
 40
289.9999979380015
100
AcDbArc
 50
107.6352233886719
 51
132.36474609375
  0
ARC
  5
26C
330
1F
100
AcDbEntity
  8
0-1
  6
Continuous
 62
     2
370
     9
100
AcDbCircle
 10
-173.1679651588647
 20
827.9565501029483
 30
0.0
 40
271.6666556693412
100
AcDbArc
 50
107.8132171630859
 51
132.186767578125
  0
ARC
  5
26D
330
1F
100
AcDbEntity
  8
0-1
  6
Continuous
 62
     2
370
     9
100
AcDbCircle
 10
-173.1679651588647
 20
827.9565501029483
 30
0.0
 40
276.6666721653294
100
AcDbArc
 50
138.7994689941406
 51
161.2004852294922
  0
ARC
  5
26E
330
1F
100
AcDbEntity
  8
0-1
  6
Continuous
 62
     2
370
     9
100
AcDbCircle
 10
-173.1679651588647
 20
827.9565501029483
 30
0.0
 40
286.6666742273279
100
AcDbArc
 50
138.666748046875
 51
161.3332366943359
  0
ARC
  5
26F
330
1F
100
AcDbEntity
  8
0-1
  6
Continuous
 62
     2
370
     9
100
AcDbCircle
 10
-173.1679651588647
 20
827.9565501029483
 30
0.0
 40
289.9999979380015
100
AcDbArc
 50
137.6352233886719
 51
162.36474609375
  0
ARC
  5
270
330
1F
100
AcDbEntity
  8
0-1
  6
Continuous
 62
     2
370
     9
100
AcDbCircle
 10
-173.1679651588647
 20
827.9565501029483
 30
0.0
 40
271.6666556693412
100
AcDbArc
 50
137.8132171630859
 51
162.186767578125
  0
ARC
  5
271
330
1F
100
AcDbEntity
  8
0-1
  6
Continuous
 62
     2
370
     9
100
AcDbCircle
 10
-173.1679651588647
 20
827.9565501029483
 30
0.0
 40
321.470105970228
100
AcDbArc
 50
0.0
 51
180.0
  0
ARC
  5
272
330
1F
100
AcDbEntity
  8
0-1
  6
Continuous
 62
     2
370
     9
100
AcDbCircle
 10
-173.1679651588647
 20
827.9565501029483
 30
0.0
 40
340.0000082479941
100
AcDbArc
 50
0.0
 51
180.0
  0
ARC
  5
273
330
1F
100
AcDbEntity
  8
0-1
  6
Continuous
 62
     2
370
     9
100
AcDbCircle
 10
-173.1679651588647
 20
827.9565501029483
 30
0.0
 40
341.6666701033308
100
AcDbArc
 50
0.0
 51
180.0
  0
ARC
  5
274
330
1F
100
AcDbEntity
  8
0-1
  6
Continuous
 62
     2
370
     9
100
AcDbCircle
 10
89.72719623788376
 20
861.2899109295952
 30
0.0
 40
6.666666752583272
100
AcDbArc
 50
270.0
 51
7.226165771484373
  0
ARC
  5
275
330
1F
100
AcDbEntity
  8
0-1
  6
Continuous
 62
     2
370
     9
100
AcDbCircle
 10
-173.1679651588647
 20
827.9565501029483
 30
0.0
 40
271.6666556693412
100
AcDbArc
 50
7.226165771484361
 51
12.18676757812499
  0
ARC
  5
276
330
1F
100
AcDbEntity
  8
0-1
  6
Continuous
 62
     2
370
     9
100
AcDbCircle
 10
91.38801232741085
 20
857.9566490788773
 30
0.0
 40
6.666666752583272
100
AcDbArc
 50
270.0
 51
6.470062255859373
  0
ARC
  5
277
330
1F
100
AcDbEntity
  8
0-1
  6
Continuous
 62
     2
370
     9
100
AcDbCircle
 10
-173.1679651588647
 20
827.9565501029483
 30
0.0
 40
272.9182062922297
100
AcDbArc
 50
0.0
 51
6.469604492187499
  0
ARC
  5
278
330
1F
100
AcDbEntity
  8
0-1
  6
Continuous
 62
     2
370
     9
100
AcDbCircle
 10
-173.1679651588647
 20
827.9565501029483
 30
0.0
 40
276.6666721653294
100
AcDbArc
 50
0.0
 51
11.20048522949217
  0
ARC
  5
279
330
1F
100
AcDbEntity
  8
0-1
  6
Continuous
 62
     2
370
     9
100
AcDbCircle
 10
-173.1679651588647
 20
827.9565501029483
 30
0.0
 40
286.6666742273279
100
AcDbArc
 50
0.0
 51
11.33323669433592
  0
ARC
  5
27A
330
1F
100
AcDbEntity
  8
0-1
  6
Continuous
 62
     2
370
     9
100
AcDbCircle
 10
-173.1679651588647
 20
827.9565501029483
 30
0.0
 40
289.9999979380015
100
AcDbArc
 50
0.0
 51
12.36474609374998
  0
ARC
  5
27B
330
1F
100
AcDbEntity
  8
0-1
  6
Continuous
 62
     2
370
     9
100
AcDbCircle
 10
-173.1679651588647
 20
827.9565501029483
 30
0.0
 40
271.6666556693412
100
AcDbArc
 50
167.813232421875
 51
172.7738342285156
  0
ARC
  5
27C
330
1F
100
AcDbEntity
  8
0-1
  6
Continuous
 62
     2
370
     9
100
AcDbCircle
 10
-173.1679651588647
 20
827.9565501029483
 30
0.0
 40
272.9182062922297
100
AcDbArc
 50
173.5303955078125
 51
180.0
  0
ARC
  5
27D
330
1F
100
AcDbEntity
  8
0-1
  6
Continuous
 62
     2
370
     9
100
AcDbCircle
 10
-173.1679651588647
 20
827.9565501029483
 30
0.0
 40
276.6666721653294
100
AcDbArc
 50
168.7995147705078
 51
180.0
  0
ARC
  5
27E
330
1F
100
AcDbEntity
  8
0-1
  6
Continuous
 62
     2
370
     9
100
AcDbCircle
 10
-173.1679651588647
 20
827.9565501029483
 30
0.0
 40
286.6666742273279
100
AcDbArc
 50
168.6667633056641
 51
180.0
  0
ARC
  5
27F
330
1F
100
AcDbEntity
  8
0-1
  6
Continuous
 62
     2
370
     9
100
AcDbCircle
 10
-173.1679651588647
 20
827.9565501029483
 30
0.0
 40
289.9999979380015
100
AcDbArc
 50
167.63525390625
 51
180.0
  0
ARC
  5
280
330
1F
100
AcDbEntity
  8
0-1
  6
Continuous
 62
     2
370
     9
100
AcDbCircle
 10
-173.1679651588647
 20
827.9565501029483
 30
0.0
 40
271.6666556693412
100
AcDbArc
 50
94.3283233642578
 51
102.186767578125
  0
ARC
  5
281
330
1F
100
AcDbEntity
  8
0-1
  6
Continuous
 62
     2
370
     9
100
AcDbCircle
 10
-173.1679651588647
 20
827.9565501029483
 30
0.0
 40
271.6666556693412
100
AcDbArc
 50
77.81321716308594
 51
85.67167663574219
  0
ARC
  5
282
330
1F
100
AcDbEntity
  8
0-1
  6
Continuous
 62
     2
370
     9
100
AcDbCircle
 10
-173.1679651588647
 20
827.9565501029483
 30
0.0
 40
272.9182062922297
100
AcDbArc
 50
87.12954711914062
 51
92.87045288085939
  0
ARC
  5
283
330
1F
100
AcDbEntity
  8
0-1
  6
Continuous
 62
     2
370
     9
100
AcDbCircle
 10
-81.50116102562978
 20
986.727796935719
 30
0.0
 40
40.00000051549962
100
AcDbArc
 50
149.9999694824219
 51
329.9999237060547
  0
ARC
  5
284
330
1F
100
AcDbEntity
  8
0-1
  6
Continuous
 62
     2
370
     9
100
AcDbCircle
 10
-46.45700126528343
 20
951.0640478594939
 30
0.0
 40
6.666666752583272
100
AcDbArc
 50
44.1744384765625
 51
134.4988708496094
  0
ARC
  5
285
330
1F
100
AcDbEntity
  8
0-1
  6
Continuous
 62
     2
370
     9
100
AcDbCircle
 10
-173.1679651588647
 20
827.9565501029483
 30
0.0
 40
183.3333298966691
100
AcDbArc
 50
0.0
 51
44.17364501953125
  0
ARC
  5
286
330
1F
100
AcDbEntity
  8
0-1
  6
Continuous
 62
     2
370
     9
100
AcDbCircle
 10
-44.38494019053682
 20
958.4404764120702
 30
0.0
 40
3.333333376291636
100
AcDbArc
 50
45.37593078613281
 51
142.6873474121094
  0
ARC
  5
287
330
1F
100
AcDbEntity
  8
0-1
  6
Continuous
 62
     2
370
     9
100
AcDbCircle
 10
-173.1679651588647
 20
827.9565501029483
 30
0.0
 40
186.6666690723316
100
AcDbArc
 50
0.0
 51
45.37590026855468
  0
ARC
  5
288
330
1F
100
AcDbEntity
  8
0-1
  6
Continuous
 62
     2
370
     9
100
AcDbCircle
 10
-81.50116102562978
 20
986.727796935719
 30
0.0
 40
43.33333195866765
100
AcDbArc
 50
322.6880035400391
 51
329.9999084472657
  0
ARC
  5
289
330
1F
100
AcDbEntity
  8
0-1
  6
Continuous
 62
     2
370
     9
100
AcDbCircle
 10
-124.556679923434
 20
1004.727806833312
 30
0.0
 40
3.333333376291636
100
AcDbArc
 50
337.311996459961
 51
74.62364196777347
  0
ARC
  5
28A
330
1F
100
AcDbEntity
  8
0-1
  6
Continuous
 62
     2
370
     9
100
AcDbCircle
 10
-81.50116102562978
 20
986.727796935719
 30
0.0
 40
43.33333195866765
100
AcDbArc
 50
149.9999084472656
 51
157.3118591308594
  0
ARC
  5
28B
330
1F
100
AcDbEntity
  8
0-1
  6
Continuous
 62
     2
370
     9
100
AcDbCircle
 10
-129.9090507268545
 20
999.2450352433625
 30
0.0
 40
6.666666752583272
100
AcDbArc
 50
345.5018768310547
 51
75.82656860351562
  0
ARC
  5
28C
330
1F
100
AcDbEntity
  8
0-1
  6
Continuous
 62
     2
370
     9
100
AcDbCircle
 10
-81.50116102562978
 20
986.727796935719
 30
0.0
 40
43.33333195866765
100
AcDbArc
 50
165.5021209716797
 51
314.4978637695312
  0
ARC
  5
28D
330
1F
100
AcDbEntity
  8
0-1
  6
Continuous
 62
     2
370
     9
100
AcDbCircle
 10
-343.1375960446331
 20
876.1375374868169
 30
0.0
 40
6.666666752583272
100
AcDbArc
 50
164.1744384765625
 51
254.4988708496094
  0
ARC
  5
28E
330
1F
100
AcDbEntity
  8
0-1
  6
Continuous
 62
     2
370
     9
100
AcDbCircle
 10
-350.5617804829777
 20
874.2438805241898
 30
0.0
 40
3.333333376291636
100
AcDbArc
 50
165.3759307861328
 51
262.6873474121094
  0
ARC
  5
28F
330
1F
100
AcDbEntity
  8
0-1
  6
Continuous
 62
     2
370
     9
100
AcDbCircle
 10
-356.5013259855115
 20
827.9565501029483
 30
0.0
 40
43.33333195866765
100
AcDbArc
 50
82.68800354003903
 51
89.9999084472656
  0
ARC
  5
290
330
1F
100
AcDbEntity
  8
0-1
  6
Continuous
 62
     2
370
     9
100
AcDbCircle
 10
-173.1679651588647
 20
827.9565501029483
 30
0.0
 40
186.6666690723316
100
AcDbArc
 50
74.6240234375
 51
165.3759155273438
  0
ARC
  5
291
330
1F
100
AcDbEntity
  8
0-1
  6
Continuous
 62
     2
370
     9
100
AcDbCircle
 10
-173.1679651588647
 20
827.9565501029483
 30
0.0
 40
183.3333298966691
100
AcDbArc
 50
75.82635498046875
 51
164.1736450195312
  0
ARC
  5
292
330
1F
100
AcDbEntity
  8
0-1
  6
Continuous
 62
     2
370
     9
100
AcDbCircle
 10
-356.5013259855115
 20
827.9565501029483
 30
0.0
 40
40.00000051549962
100
AcDbArc
 50
0.0
 51
89.99992370605467
  0
ARC
  5
293
330
1F
100
AcDbEntity
  8
0-1
  6
Continuous
 62
     2
370
     9
100
AcDbCircle
 10
-356.5013259855115
 20
827.9565501029483
 30
0.0
 40
43.33333195866765
100
AcDbArc
 50
0.0
 51
74.49786376953122
  0
CIRCLE
  5
294
330
1F
100
AcDbEntity
  8
0-1
  6
Continuous
 62
     4
370
     9
100
AcDbCircle
 10
-81.50116102562978
 20
986.727796935719
 30
0.0
 40
13.33333350516654
  0
CIRCLE
  5
295
330
1F
100
AcDbEntity
  8
0-1
  6
Continuous
 62
     4
370
     9
100
AcDbCircle
 10
-81.50116102562978
 20
986.727796935719
 30
0.0
 40
11.07833321030075
  0
ARC
  5
296
330
1F
100
AcDbEntity
  8
0-1
  6
Continuous
 62
     4
370
     9
100
AcDbCircle
 10
-356.5010785456889
 20
827.9565501029483
 30
0.0
 40
13.33333350516654
100
AcDbArc
 50
0.0
 51
180.0
  0
ARC
  5
297
330
1F
100
AcDbEntity
  8
0-1
  6
Continuous
 62
     4
370
     9
100
AcDbCircle
 10
-356.5010785456889
 20
827.9565501029483
 30
0.0
 40
11.07833321030075
100
AcDbArc
 50
0.0
 51
180.0
  0
ARC
  5
298
330
1F
100
AcDbEntity
  8
0-2
  6
Continuous
 62
     6
370
     9
100
AcDbCircle
 10
-173.1679651588647
 20
827.9565501029483
 30
0.0
 40
266.666639173353
100
AcDbArc
 50
3.583328247070312
 51
7.180770874023438
  0
ARC
  5
299
330
1F
100
AcDbEntity
  8
0-2
  6
Continuous
 62
     6
370
     9
100
AcDbCircle
 10
-173.1679651588647
 20
827.9565501029483
 30
0.0
 40
266.666639173353
100
AcDbArc
 50
172.8192291259765
 51
176.4166717529297
  0
ARC
  5
29A
330
1F
100
AcDbEntity
  8
0-2
  6
Continuous
 62
     6
370
     9
100
AcDbCircle
 10
-173.1679651588647
 20
827.9565501029483
 30
0.0
 40
270.0000247439823
100
AcDbArc
 50
2.83056640625
 51
177.16943359375
  0
ARC
  5
29B
330
1F
100
AcDbEntity
  8
0-2
  6
Continuous
 62
     6
370
     9
100
AcDbCircle
 10
-173.1679651588647
 20
827.9565501029483
 30
0.0
 40
213.6744164131783
100
AcDbArc
 50
0.0
 51
180.0
  0
ARC
  5
29C
330
1F
100
AcDbEntity
  8
0-2
  6
Continuous
 62
     6
370
     9
100
AcDbCircle
 10
-395.3820401958157
 20
852.092325282425
 30
0.0
 40
5.000000064437453
100
AcDbArc
 50
265.0829467773438
 51
353.801025390625
  0
ARC
  5
29D
330
1F
100
AcDbEntity
  8
0-2
  6
Continuous
 62
     6
370
     9
100
AcDbCircle
 10
-390.2357867646501
 20
881.2783472418844
 30
0.0
 40
5.000000064437453
100
AcDbArc
 50
346.1986083984375
 51
74.91734313964842
  0
ARC
  5
29E
330
1F
100
AcDbEntity
  8
0-2
  6
Continuous
 62
     6
370
     9
100
AcDbCircle
 10
-173.1679651588647
 20
827.9565501029483
 30
0.0
 40
218.5210511491105
100
AcDbArc
 50
166.1988372802734
 51
173.8011627197266
  0
ARC
  5
29F
330
1F
100
AcDbEntity
  8
0-2
  6
Continuous
 62
     6
370
     9
100
AcDbCircle
 10
-373.7261069187886
 20
926.6385206477119
 30
0.0
 40
5.000000064437453
100
AcDbArc
 50
245.0829467773437
 51
333.8010253906249
  0
ARC
  5
2A0
330
1F
100
AcDbEntity
  8
0-2
  6
Continuous
 62
     6
370
     9
100
AcDbCircle
 10
-358.907925700461
 20
952.303968810719
 30
0.0
 40
5.000000064437453
100
AcDbArc
 50
326.1986083984374
 51
54.91734313964839
  0
ARC
  5
2A1
330
1F
100
AcDbEntity
  8
0-2
  6
Continuous
 62
     6
370
     9
100
AcDbCircle
 10
-173.1679651588647
 20
827.9565501029483
 30
0.0
 40
218.5210511491105
100
AcDbArc
 50
146.1988372802734
 51
153.8011627197265
  0
ARC
  5
2A2
330
1F
100
AcDbEntity
  8
0-2
  6
Continuous
 62
     6
370
     9
100
AcDbCircle
 10
-327.8799617013055
 20
989.2821182247815
 30
0.0
 40
5.000000064437453
100
AcDbArc
 50
225.0829467773438
 51
313.801025390625
  0
ARC
  5
2A3
330
1F
100
AcDbEntity
  8
0-2
  6
Continuous
 62
     6
370
     9
100
AcDbCircle
 10
-305.1771105347092
 20
1008.331767849992
 30
0.0
 40
5.000000064437453
100
AcDbArc
 50
306.1986083984376
 51
34.91734313964842
  0
ARC
  5
2A4
330
1F
100
AcDbEntity
  8
0-2
  6
Continuous
 62
     6
370
     9
100
AcDbCircle
 10
-173.1679651588647
 20
827.9565501029483
 30
0.0
 40
218.5210511491105
100
AcDbArc
 50
126.1988372802734
 51
133.8011627197266
  0
ARC
  5
2A5
330
1F
100
AcDbEntity
  8
0-2
  6
Continuous
 62
     6
370
     9
100
AcDbCircle
 10
-263.372894819971
 20
1032.467543029469
 30
0.0
 40
5.000000064437453
100
AcDbArc
 50
205.0829467773438
 51
293.801025390625
  0
ARC
  5
2A6
330
1F
100
AcDbEntity
  8
0-2
  6
Continuous
 62
     6
370
     9
100
AcDbCircle
 10
-235.5237902222092
 20
1042.603667923894
 30
0.0
 40
5.000000064437453
100
AcDbArc
 50
286.1986083984375
 51
14.91734313964844
  0
ARC
  5
2A7
330
1F
100
AcDbEntity
  8
0-2
  6
Continuous
 62
     6
370
     9
100
AcDbCircle
 10
-173.1679651588647
 20
827.9565501029483
 30
0.0
 40
218.5210511491105
100
AcDbArc
 50
106.1988372802735
 51
113.8011627197266
  0
ARC
  5
2A8
330
1F
100
AcDbEntity
  8
0-2
  6
Continuous
 62
     6
370
     9
100
AcDbCircle
 10
-187.9858989373696
 20
1050.985939355483
 30
0.0
 40
5.000000064437453
100
AcDbArc
 50
185.0829467773437
 51
273.801025390625
  0
ARC
  5
2A9
330
1F
100
AcDbEntity
  8
0-2
  6
Continuous
 62
     6
370
     9
100
AcDbCircle
 10
-158.3497839405368
 20
1050.985939355483
 30
0.0
 40
5.000000064437453
100
AcDbArc
 50
266.1986083984375
 51
354.9173431396484
  0
ARC
  5
2AA
330
1F
100
AcDbEntity
  8
0-2
  6
Continuous
 62
     6
370
     9
100
AcDbCircle
 10
-110.8118926556975
 20
1042.603667923894
 30
0.0
 40
5.000000064437453
100
AcDbArc
 50
165.0829467773438
 51
253.801025390625
  0
ARC
  5
2AB
330
1F
100
AcDbEntity
  8
0-2
  6
Continuous
 62
     6
370
     9
100
AcDbCircle
 10
-82.96278805793551
 20
1032.467543029469
 30
0.0
 40
5.000000064437453
100
AcDbArc
 50
246.1986083984375
 51
334.9173431396484
  0
ARC
  5
2AC
330
1F
100
AcDbEntity
  8
0-2
  6
Continuous
 62
     6
370
     9
100
AcDbCircle
 10
-173.1679651588647
 20
827.9565501029483
 30
0.0
 40
218.5210511491105
100
AcDbArc
 50
66.19883728027344
 51
73.80116271972656
  0
ARC
  5
2AD
330
1F
100
AcDbEntity
  8
0-2
  6
Continuous
 62
     6
370
     9
100
AcDbCircle
 10
-41.15881978301989
 20
1008.331767849992
 30
0.0
 40
5.000000064437453
100
AcDbArc
 50
145.0829467773437
 51
233.8010253906249
  0
ARC
  5
2AE
330
1F
100
AcDbEntity
  8
0-2
  6
Continuous
 62
     6
370
     9
100
AcDbCircle
 10
-18.45621605624646
 20
989.2818707849585
 30
0.0
 40
5.000000064437453
100
AcDbArc
 50
226.1986083984375
 51
314.9173431396484
  0
ARC
  5
2AF
330
1F
100
AcDbEntity
  8
0-2
  6
Continuous
 62
     6
370
     9
100
AcDbCircle
 10
-173.1679651588647
 20
827.9565501029483
 30
0.0
 40
218.5210511491105
100
AcDbArc
 50
46.19883728027342
 51
53.80116271972653
  0
ARC
  5
2B0
330
1F
100
AcDbEntity
  8
0-2
  6
Continuous
 62
     6
370
     9
100
AcDbCircle
 10
12.57224282255433
 20
952.303968810719
 30
0.0
 40
5.000000064437453
100
AcDbArc
 50
125.0829467773438
 51
213.801025390625
  0
ARC
  5
2B1
330
1F
100
AcDbEntity
  8
0-2
  6
Continuous
 62
     6
370
     9
100
AcDbCircle
 10
27.39042404088192
 20
926.6382732078896
 30
0.0
 40
5.000000064437453
100
AcDbArc
 50
206.1986083984375
 51
294.9173431396484
  0
ARC
  5
2B2
330
1F
100
AcDbEntity
  8
0-2
  6
Continuous
 62
     6
370
     9
100
AcDbCircle
 10
-173.1679651588647
 20
827.9565501029483
 30
0.0
 40
218.5210511491105
100
AcDbArc
 50
26.19883728027344
 51
33.80116271972656
  0
ARC
  5
2B3
330
1F
100
AcDbEntity
  8
0-2
  6
Continuous
 62
     6
370
     9
100
AcDbCircle
 10
43.90010388674337
 20
881.2783472418844
 30
0.0
 40
5.000000064437453
100
AcDbArc
 50
105.0829467773437
 51
193.8010253906249
  0
ARC
  5
2B4
330
1F
100
AcDbEntity
  8
0-2
  6
Continuous
 62
     6
370
     9
100
AcDbCircle
 10
49.04635731790901
 20
852.092325282425
 30
0.0
 40
5.000000064437453
100
AcDbArc
 50
186.1986083984375
 51
274.9173431396484
  0
ARC
  5
2B5
330
1F
100
AcDbEntity
  8
0-2
  6
Continuous
 62
     6
370
     9
100
AcDbCircle
 10
-173.1679651588647
 20
827.9565501029483
 30
0.0
 40
218.5210511491105
100
AcDbArc
 50
6.198837280273433
 51
13.80116271972656
  0
ARC
  5
2B6
330
1F
100
AcDbEntity
  8
0-2
  6
Continuous
 62
     6
370
     9
100
AcDbCircle
 10
80.16513173197151
 20
827.9565501029483
 30
0.0
 40
17.49999974225018
100
AcDbArc
 50
0.0
 51
180.0
  0
ARC
  5
2B7
330
1F
100
AcDbEntity
  8
0-2
  6
Continuous
 62
     6
370
     9
100
AcDbCircle
 10
-426.5013094895235
 20
827.9565501029483
 30
0.0
 40
17.49999974225018
100
AcDbArc
 50
0.0
 51
180.0
  0
ARC
  5
2B8
330
1F
100
AcDbEntity
  8
0-2
  6
Continuous
 62
     6
370
     9
100
AcDbCircle
 10
-173.1679651588647
 20
827.9565501029483
 30
0.0
 40
218.5210511491105
100
AcDbArc
 50
86.19883728027342
 51
87.37709045410155
  0
ARC
  5
2B9
330
1F
100
AcDbEntity
  8
0-2
  6
Continuous
 62
     6
370
     9
100
AcDbCircle
 10
-173.1679651588647
 20
827.9565501029483
 30
0.0
 40
233.3333402066617
100
AcDbArc
 50
94.12062072753906
 51
180.0
  0
ARC
  5
2BA
330
1F
100
AcDbEntity
  8
0-2
  6
Continuous
 62
     6
370
     9
100
AcDbCircle
 10
-173.1679651588647
 20
827.9565501029483
 30
0.0
 40
233.3333402066617
100
AcDbArc
 50
0.0
 51
85.87937927246094
  0
ELLIPSE
  5
2BB
330
1F
100
AcDbEntity
  8
0-2
  6
Continuous
 62
     6
370
     9
100
AcDbEllipse
 10
-173.1679651588647
 20
1056.962600831411
 30
0.0
 11
17.50005773595861
 21
0.0
 31
0.0
210
0.0
220
0.0
230
1.0
 40
0.7428
 41
0.0
 42
1.475415478669818
  0
ELLIPSE
  5
2BC
330
1F
100
AcDbEntity
  8
0-2
  6
Continuous
 62
     6
370
     9
100
AcDbEllipse
 10
-173.1679651588647
 20
1056.962600831411
 30
0.0
 11
17.50005773595861
 21
0.0
 31
0.0
210
0.0
220
0.0
230
1.0
 40
0.7428
 41
1.666177174919975
 42
3.141592653589793
  0
ARC
  5
2BD
330
1F
100
AcDbEntity
  8
0-2
  6
Continuous
 62
     6
370
     9
100
AcDbCircle
 10
-173.1679651588647
 20
827.9565501029483
 30
0.0
 40
218.5210511491105
100
AcDbArc
 50
92.62290954589844
 51
93.8011474609375
  0
ARC
  5
2BE
330
1F
100
AcDbEntity
  8
0-1
  6
Continuous
 62
     2
370
     9
100
AcDbCircle
 10
-436.0631265556128
 20
861.2899109295952
 30
0.0
 40
6.666666752583272
100
AcDbArc
 50
172.7738342285157
 51
214.657958984375
  0
ARC
  5
2BF
330
1F
100
AcDbEntity
  8
0-1
  6
Continuous
 62
     2
370
     9
100
AcDbCircle
 10
-437.7239426451399
 20
857.9566490788773
 30
0.0
 40
6.666666752583272
100
AcDbArc
 50
173.5299377441406
 51
229.910171508789
  0
ARC
  5
2C0
330
1F
100
AcDbEntity
  8
0-1
  6
Continuous
 62
     4
370
     9
100
AcDbCircle
 10
-356.5013259855115
 20
827.975108089646
 30
0.0
 40
21.66667177870467
100
AcDbArc
 50
359.950927734375
 51
125.3516540527344
  0
ARC
  5
2C1
330
1F
100
AcDbEntity
  8
0-1
  6
Continuous
 62
     2
370
     9
100
AcDbCircle
 10
-159.8346703161704
 20
1093.873941493363
 30
0.0
 40
6.666666752583272
100
AcDbArc
 50
87.1295166015625
 51
143.5073394775391
  0
ARC
  5
2C2
330
1F
100
AcDbEntity
  8
0-1
  6
Continuous
 62
     2
370
     9
100
AcDbCircle
 10
-153.1678991749118
 20
1092.200753412704
 30
0.0
 40
6.666666752583272
100
AcDbArc
 50
85.6715087890625
 51
127.5567932128906
  0
ARC
  5
2C3
330
1F
100
AcDbEntity
  8
0-1
  6
Continuous
 62
     2
370
     9
100
AcDbCircle
 10
-186.501260001559
 20
1093.873941493363
 30
0.0
 40
6.666666752583272
100
AcDbArc
 50
36.49266052246094
 51
92.8704833984375
  0
ARC
  5
2C4
330
1F
100
AcDbEntity
  8
0-1
  6
Continuous
 62
     2
370
     9
100
AcDbCircle
 10
-193.1677837029946
 20
1092.200753412704
 30
0.0
 40
6.666666752583272
100
AcDbArc
 50
52.44320678710938
 51
94.3284912109375
  0
ARC
  5
2C5
330
1F
100
AcDbEntity
  8
0-0
  6
Continuous
 62
     3
370
     9
100
AcDbCircle
 10
-173.1679651588647
 20
827.9565501029483
 30
0.0
 40
172.2220755912162
100
AcDbArc
 50
0.0
 51
46.46299743652344
  0
ARC
  5
2C6
330
1F
100
AcDbEntity
  8
0-0
  6
Continuous
 62
     3
370
     9
100
AcDbCircle
 10
-173.1679651588647
 20
827.9565501029483
 30
0.0
 40
175.0000824799409
100
AcDbArc
 50
0.0
 51
46.36520385742188
  0
ARC
  5
2C7
330
1F
100
AcDbEntity
  8
0-0
  6
Continuous
 62
     3
370
     9
100
AcDbCircle
 10
-173.1679651588647
 20
827.9565501029483
 30
0.0
 40
172.2220755912162
100
AcDbArc
 50
73.53697204589844
 51
166.4629821777344
  0
ARC
  5
2C8
330
1F
100
AcDbEntity
  8
0-0
  6
Continuous
 62
     3
370
     9
100
AcDbCircle
 10
-173.1679651588647
 20
827.9565501029483
 30
0.0
 40
175.0000824799409
100
AcDbArc
 50
73.63475036621092
 51
166.3652038574219
  0
ARC
  5
2C9
330
1F
100
AcDbEntity
  8
0-1
  6
Continuous
 62
     4
370
     9
100
AcDbCircle
 10
-81.48532487698108
 20
986.7186416622815
 30
0.0
 40
21.66667177870467
100
AcDbArc
 50
114.6371459960938
 51
5.351745605468693
  0
ARC
  5
2CA
330
1F
100
AcDbEntity
  8
0-2
  6
Continuous
 62
     6
370
     9
100
AcDbCircle
 10
-173.1679651588647
 20
827.9565501029483
 30
0.0
 40
196.666686599319
100
AcDbArc
 50
0.0
 51
180.0
  0
ARC
  5
2CB
330
1F
100
AcDbEntity
  8
0-2
  6
Continuous
 62
     6
370
     9
100
AcDbCircle
 10
-412.3405758799373
 20
-23.05085989494003
 30
0.0
 40
6.666666752583272
100
AcDbArc
 50
272.6016998291016
 51
354.8072052001953
  0
ARC
  5
2CC
330
1F
100
AcDbEntity
  8
0-2
  6
Continuous
 62
     6
370
     9
100
AcDbCircle
 10
66.00489300203063
 20
-23.05085989494003
 30
0.0
 40
6.666666752583272
100
AcDbArc
 50
185.1927947998047
 51
267.3983001708984
  0
ARC
  5
2CD
330
1F
100
AcDbEntity
  8
0-2
  6
Continuous
 62
     6
370
     9
100
AcDbCircle
 10
65.69979970072151
 20
-19.70052469646021
 30
0.0
 40
6.666666752583272
100
AcDbArc
 50
185.1927947998047
 51
267.3982543945312
  0
ARC
  5
2CE
330
1F
100
AcDbEntity
  8
0-2
  6
Continuous
 62
     6
370
     9
100
AcDbCircle
 10
54.40392435760511
 20
-39.4590894135213
 30
0.0
 40
10.00000012887491
100
AcDbArc
 50
185.3368988037109
 51
270.0
  0
ARC
  5
2CF
330
1F
100
AcDbEntity
  8
0-2
  6
Continuous
 62
     6
370
     9
100
AcDbCircle
 10
-400.7396072355115
 20
-39.4590894135213
 30
0.0
 40
10.00000012887491
100
AcDbArc
 50
270.0
 51
354.6630249023438
  0
ELLIPSE
  5
2D0
330
1F
100
AcDbEntity
  8
0-2
  6
Continuous
 62
     6
370
     9
100
AcDbEllipse
 10
80.16513173197151
 20
-25.63648232156609
 30
0.0
 11
17.4999340160473
 21
0.0
 31
0.0
210
0.0
220
0.0
230
1.0
 40
0.7428
 41
0.0
 42
1.475408288134874
  0
ELLIPSE
  5
2D1
330
1F
100
AcDbEntity
  8
0-2
  6
Continuous
 62
     6
370
     9
100
AcDbEllipse
 10
80.16513173197151
 20
-25.63648232156609
 30
0.0
 11
17.4999340160473
 21
0.0
 31
0.0
210
0.0
220
0.0
230
1.0
 40
0.7428
 41
1.666184365454919
 42
3.141592653589793
  0
ELLIPSE
  5
2D2
330
1F
100
AcDbEntity
  8
0-2
  6
Continuous
 62
     6
370
     9
100
AcDbEllipse
 10
-403.7578781920149
 20
161.8854161027375
 30
0.0
 11
1.583877164330269
 21
17.42811015842861
 31
0.0
210
0.0
220
0.0
230
1.0
 40
0.7428
 41
0.0
 42
1.475408288134874
  0
ELLIPSE
  5
2D3
330
1F
100
AcDbEntity
  8
0-2
  6
Continuous
 62
     6
370
     9
100
AcDbEllipse
 10
-403.7578781920149
 20
161.8854161027375
 30
0.0
 11
1.583877164330269
 21
17.42811015842861
 31
0.0
210
0.0
220
0.0
230
1.0
 40
0.7428
 41
1.666184365454919
 42
3.141592653589793
  0
ARC
  5
2D4
330
1F
100
AcDbEntity
  8
0-2
  6
Continuous
 62
     6
370
     9
100
AcDbCircle
 10
-414.134514594042
 20
-42.79247498415046
 30
0.0
 40
6.666666752583272
100
AcDbArc
 50
270.0
 51
354.8082733154297
  0
TEXT
  5
2D5
330
1F
100
AcDbEntity
  8
0-F
  6
Continuous
 62
     2
370
     9
100
AcDbText
 10
-205.6678414389534
 20
-326.6740170951089
 30
0.0
 40
30.48
  1
Rc4
 41
1.083333333333333
  7
ＭＳ ゴシック
100
AcDbText
  0
TEXT
  5
2D6
330
1F
100
AcDbEntity
  8
0-E
  6
Continuous
 62
     7
370
     9
100
AcDbText
 10
-905.8434453570803
 20
-177.2213181534915
 30
0.0
 40
22.86
  1
本体：ＦＣ１５０
 41
1.145833333333333
  7
ＭＳ ゴシック
100
AcDbText
  0
TEXT
  5
2D7
330
1F
100
AcDbEntity
  8
0-E
  6
Continuous
 62
     7
370
     9
100
AcDbText
 10
-855.5524643736554
 20
-220.9386148569333
 30
0.0
 40
22.86
  1
樹脂系塗装
 41
1.133333333333333
  7
ＭＳ ゴシック
100
AcDbText
  0
TEXT
  5
2D8
330
1F
100
AcDbEntity
  8
0-F
  6
Continuous
 62
     2
370
     9
100
AcDbText
 10
286.1919615380558
 20
-163.5637616538245
 30
0.0
 40
30.48
  1
60
 50
90.00000250447809
 41
1.062500000000001
  7
ＭＳ ゴシック
100
AcDbText
  0
TEXT
  5
2D9
330
1F
100
AcDbEntity
  8
0-4
  6
Continuous
 62
     2
370
     9
100
AcDbText
 10
-228.1682744586429
 20
-526.673934615168
 30
0.0
 40
30.48
  1
φ125
 41
1.1
  7
ＭＳ ゴシック
100
AcDbText
  0
TEXT
  5
2DA
330
1F
100
AcDbEntity
  8
0-4
  6
Continuous
 62
     2
370
     9
100
AcDbText
 10
-228.1681507387316
 20
-606.6739511111562
 30
0.0
 40
30.48
  1
φ225
 41
1.1
  7
ＭＳ ゴシック
100
AcDbText
  0
TEXT
  5
2DB
330
1F
100
AcDbEntity
  8
0-E
  6
Continuous
 62
     7
370
     9
100
AcDbText
 10
-905.6748192419516
 20
-660.873505191604
 30
0.0
 40
22.86
  1
ボルト：Ｃ３６０２
 41
1.148148148148148
  7
ＭＳ ゴシック
100
AcDbText
  0
TEXT
  5
2DC
330
1F
100
AcDbEntity
  8
0-E
  6
Continuous
 62
     7
370
     9
100
AcDbText
 10
296.367478946129
 20
-528.9069194652525
 30
0.0
 40
22.86
  1
クランプ板：ＦＣ１５０
 41
1.151515151515152
  7
ＭＳ ゴシック
100
AcDbText
  0
TEXT
  5
2DD
330
1F
100
AcDbEntity
  8
0-E
  6
Continuous
 62
     7
370
     9
100
AcDbText
 10
399.2462392066337
 20
-578.9559537901048
 30
0.0
 40
22.86
  1
樹脂系塗装
 41
1.133333333333333
  7
ＭＳ ゴシック
100
AcDbText
  0
TEXT
  5
2DE
330
1F
100
AcDbEntity
  8
0-E
  6
Continuous
 62
     7
370
     9
100
AcDbText
 10
411.5553806234412
 20
249.6550592615213
 30
0.0
 40
22.86
  1
樹脂系塗装
 41
1.133333333333333
  7
ＭＳ ゴシック
100
AcDbText
  0
TEXT
  5
2DF
330
1F
100
AcDbEntity
  8
0-E
  6
Continuous
 62
     7
370
     9
100
AcDbText
 10
302.9876695407764
 20
296.6131990419265
 30
0.0
 40
22.86
  1
防水層押え：ＦＣ１５０
 41
1.151515151515152
  7
ＭＳ ゴシック
100
AcDbText
  0
TEXT
  5
2E0
330
1F
100
AcDbEntity
  8
0-E
  6
Continuous
 62
     7
370
     9
100
AcDbText
 10
-894.1271738793037
 20
416.381867551745
 30
0.0
 40
22.86
  1
ボルト：Ｃ３６０２
 41
1.148148148148148
  7
ＭＳ ゴシック
100
AcDbText
  0
TEXT
  5
2E1
330
1F
100
AcDbEntity
  8
0-E
  6
Continuous
 62
     7
370
     9
100
AcDbText
 10
-818.6996432297577
 20
371.5625975981973
 30
0.0
 40
22.86
  1
Ｍ８×４０
 41
1.133333333333333
  7
ＭＳ ゴシック
100
AcDbText
  0
TEXT
  5
2E2
330
1F
100
AcDbEntity
  8
0-4
  6
Continuous
 62
     2
370
     9
100
AcDbText
 10
-228.167903298909
 20
299.5141476932145
 30
0.0
 40
30.48
  1
φ118
 41
1.1
  7
ＭＳ ゴシック
100
AcDbText
  0
TEXT
  5
2E3
330
1F
100
AcDbEntity
  8
0-E
  6
Continuous
 62
     7
370
     9
100
AcDbText
 10
355.940311208323
 20
487.3490933224377
 30
0.0
 40
22.86
  1
樹脂系塗装
 41
1.133333333333333
  7
ＭＳ ゴシック
100
AcDbText
  0
TEXT
  5
2E4
330
1F
100
AcDbEntity
  8
0-E
  6
Continuous
 62
     7
370
     9
100
AcDbText
 10
331.467935390122
 20
418.1749402264703
 30
0.0
 40
22.86
  1
丸小ネジ：Ｃ２７００
 41
1.15
  7
ＭＳ ゴシック
100
AcDbText
  0
TEXT
  5
2E5
330
1F
100
AcDbEntity
  8
0-E
  6
Continuous
 62
     7
370
     9
100
AcDbText
 10
411.3989986555357
 20
369.3283397197138
 30
0.0
 40
22.86
  1
Ｍ６×１２
 41
1.133333333333333
  7
ＭＳ ゴシック
100
AcDbText
  0
TEXT
  5
2E6
330
1F
100
AcDbEntity
  8
0-E
  6
Continuous
 62
     7
370
     9
100
AcDbText
 10
-970.454940091561
 20
537.556365413865
 30
0.0
 40
22.86
  1
丸小ネジ：Ｃ２７００
 41
1.15
  7
ＭＳ ゴシック
100
AcDbText
  0
TEXT
  5
2E7
330
1F
100
AcDbEntity
  8
0-E
  6
Continuous
 62
     7
370
     9
100
AcDbText
 10
-880.9082415986345
 20
489.3841621437002
 30
0.0
 40
22.86
  1
Ｍ６×１２
 41
1.133333333333333
  7
ＭＳ ゴシック
100
AcDbText
  0
TEXT
  5
2E8
330
1F
100
AcDbEntity
  8
0-4
  6
Continuous
 62
     2
370
     9
100
AcDbText
 10
-228.167903298909
 20
379.5141641892025
 30
0.0
 40
30.48
  1
φ205
 41
1.1
  7
ＭＳ ゴシック
100
AcDbText
  0
TEXT
  5
2E9
330
1F
100
AcDbEntity
  8
0-4
  6
Continuous
 62
     2
370
     9
100
AcDbText
 10
-228.167903298909
 20
459.5141806851908
 30
0.0
 40
30.48
  1
φ225
 41
1.1
  7
ＭＳ ゴシック
100
AcDbText
  0
TEXT
  5
2EA
330
1F
100
AcDbEntity
  8
0-4
  6
Continuous
 62
     2
370
     9
100
AcDbText
 10
366.1923491937778
 20
49.53030012035197
 30
0.0
 40
30.48
  1
68
 50
90.0000025044778
 41
1.062500000000001
  7
ＭＳ ゴシック
100
AcDbText
  0
TEXT
  5
2EB
330
1F
100
AcDbEntity
  8
0-4
  6
Continuous
 62
     2
370
     9
100
AcDbText
 10
-663.8080797019147
 20
45.95751652132345
 30
0.0
 40
30.48
  1
70
 50
90.00000250447809
 41
1.062500000000001
  7
ＭＳ ゴシック
100
AcDbText
  0
TEXT
  5
2EC
330
1F
100
AcDbEntity
  8
0-E
  6
Continuous
 62
     7
370
     9
100
AcDbText
 10
247.6052512948937
 20
538.4429422983667
 30
0.0
 40
22.86
  1
ストレーナー：ＦＣ１５０
 41
1.152777777777778
  7
ＭＳ ゴシック
100
AcDbText
  0
TEXT
  5
2ED
330
1F
100
AcDbEntity
  8
0-4
  6
Continuous
 62
     2
370
     9
100
AcDbText
 10
366.1918548058858
 20
-230.2305080511007
 30
0.0
 40
30.48
  1
100
 50
90.00000250447822
 41
1.083333333333334
  7
ＭＳ ゴシック
100
AcDbText
  0
TEXT
  5
2EE
330
1F
100
AcDbEntity
  8
0-E
  6
Continuous
 62
     7
370
     9
100
AcDbText
 10
-853.443044009688
 20
-704.856675984467
 30
0.0
 40
22.86
  1
Ｍ８×１００
 41
1.138888888888889
  7
ＭＳ ゴシック
100
AcDbText
  0
TEXT
  5
2EF
330
1F
100
AcDbEntity
  8
F-4
  6
Continuous
 62
     6
370
     0
100
AcDbText
 10
-219.0265054571435
 20
-1219.83976508704
 30
0.0
 40
30.48
  1
ねじ込み式　ＡＬＣ用　ルーフドレイン　　ＥＡＳＢ－２－１００
 41
0.7983333333333332
  7
ＭＳ ゴシック
100
AcDbText
  0
ENDSEC
  0
SECTION
  2
OBJECTS
  0
DICTIONARY
  5
C
330
0
100
AcDbDictionary
281
     1
  3
ACAD_GROUP
350
D
  3
ACAD_LAYOUT
350
1A
  3
ACAD_MLEADERSTYLE
350
2F1
  3
ACAD_MLINESTYLE
350
17
  3
ACAD_PLOTSETTINGS
350
19
  3
ACAD_PLOTSTYLENAME
350
E
  3
ACAD_TABLESTYLE
350
2F0
  3
ACAD_VISUALSTYLE
350
2A
  3
AcDbVariableDictionary
350
2F2
  0
DICTIONARY
  5
D
102
{ACAD_REACTORS
330
C
102
}
330
C
100
AcDbDictionary
281
     1
  0
DICTIONARY
  5
1A
102
{ACAD_REACTORS
330
C
102
}
330
C
100
AcDbDictionary
281
     1
  3
Layout1
350
1E
  3
Layout2
350
26
  3
Model
350
22
  0
DICTIONARY
  5
2F1
102
{ACAD_REACTORS
330
C
102
}
330
C
100
AcDbDictionary
281
     1
  0
DICTIONARY
  5
17
102
{ACAD_REACTORS
330
C
102
}
330
C
100
AcDbDictionary
281
     1
  3
Standard
350
18
  0
DICTIONARY
  5
19
102
{ACAD_REACTORS
330
C
102
}
330
C
100
AcDbDictionary
281
     1
  0
ACDBDICTIONARYWDFLT
  5
E
102
{ACAD_REACTORS
330
C
102
}
330
C
100
AcDbDictionary
281
     1
  3
Normal
350
F
100
AcDbDictionaryWithDefault
340
F
  0
DICTIONARY
  5
2F0
102
{ACAD_REACTORS
330
C
102
}
330
C
100
AcDbDictionary
281
     1
  0
DICTIONARY
  5
2A
102
{ACAD_REACTORS
330
C
102
}
330
C
100
AcDbDictionary
281
     1
  3
2dWireframe
350
2F
  3
3D Hidden
350
31
  3
3dWireframe
350
30
  3
Basic
350
32
  3
Brighten
350
36
  3
ColorChange
350
3A
  3
Conceptual
350
34
  3
Dim
350
35
  3
Facepattern
350
39
  3
Flat
350
2B
  3
FlatWithEdges
350
2C
  3
Gouraud
350
2D
  3
GouraudWithEdges
350
2E
  3
Linepattern
350
38
  3
Realistic
350
33
  3
Thicken
350
37
  0
DICTIONARY
  5
2F2
102
{ACAD_REACTORS
330
C
102
}
330
C
100
AcDbDictionary
281
     1
  3
PSOLHEIGHT
350
2F4
  3
PSOLWIDTH
350
2F3
  0
LAYOUT
  5
1E
102
{ACAD_REACTORS
330
1A
102
}
102
{ACAD_XDICTIONARY
360
2F5
102
}
330
1A
100
AcDbPlotSettings
  1

  2
none_device
  4

  6

 40
0.0
 41
0.0
 42
0.0
 43
0.0
 44
0.0
 45
0.0
 46
0.0
 47
0.0
 48
0.0
 49
0.0
140
0.0
141
0.0
142
1.0
143
1.0
 70
   688
 72
     0
 73
     0
 74
     5
  7

 75
    16
147
1.0
148
0.0
149
0.0
100
AcDbLayout
  1
Layout1
 70
     1
 71
     1
 10
0.0
 20
0.0
 11
420.0
 21
297.0
 12
0.0
 22
0.0
 32
0.0
 14
1.000000000000000E+20
 24
1.000000000000000E+20
 34
1.000000000000000E+20
 15
-1.000000000000000E+20
 25
-1.000000000000000E+20
 35
-1.000000000000000E+20
146
0.0
 13
0.0
 23
0.0
 33
0.0
 16
1.0
 26
0.0
 36
0.0
 17
0.0
 27
1.0
 37
0.0
 76
     0
330
1B
  0
LAYOUT
  5
26
102
{ACAD_REACTORS
330
1A
102
}
102
{ACAD_XDICTIONARY
360
2F9
102
}
330
1A
100
AcDbPlotSettings
  1

  2
none_device
  4

  6

 40
0.0
 41
0.0
 42
0.0
 43
0.0
 44
0.0
 45
0.0
 46
0.0
 47
0.0
 48
0.0
 49
0.0
140
0.0
141
0.0
142
1.0
143
1.0
 70
   688
 72
     0
 73
     0
 74
     5
  7

 75
    16
147
1.0
148
0.0
149
0.0
100
AcDbLayout
  1
Layout2
 70
     1
 71
     2
 10
0.0
 20
0.0
 11
0.0
 21
0.0
 12
0.0
 22
0.0
 32
0.0
 14
0.0
 24
0.0
 34
0.0
 15
0.0
 25
0.0
 35
0.0
146
0.0
 13
0.0
 23
0.0
 33
0.0
 16
1.0
 26
0.0
 36
0.0
 17
0.0
 27
1.0
 37
0.0
 76
     0
330
23
  0
LAYOUT
  5
22
102
{ACAD_REACTORS
330
1A
102
}
102
{ACAD_XDICTIONARY
360
2F7
102
}
330
1A
100
AcDbPlotSettings
  1

  2
none_device
  4

  6

 40
0.0
 41
0.0
 42
0.0
 43
0.0
 44
0.0
 45
0.0
 46
0.0
 47
0.0
 48
0.0
 49
0.0
140
0.0
141
0.0
142
1.0
143
1.0
 70
  1712
 72
     0
 73
     0
 74
     0
  7

 75
     0
147
1.0
148
0.0
149
0.0
100
AcDbLayout
  1
Model
 70
     1
 71
     0
 10
-2100.0
 20
-1485.0
 11
2100.0
 21
1485.0
 12
0.0
 22
0.0
 32
0.0
 14
-2100.0
 24
-1485.0
 34
0.0
 15
2100.0
 25
1485.0
 35
0.0
146
0.0
 13
0.0
 23
0.0
 33
0.0
 16
1.0
 26
0.0
 36
0.0
 17
0.0
 27
1.0
 37
0.0
 76
     0
330
1F
331
29
  0
MLINESTYLE
  5
18
102
{ACAD_REACTORS
330
17
102
}
330
17
100
AcDbMlineStyle
  2
Standard
 70
     0
  3

 62
   256
 51
90.0
 52
90.0
 71
     2
 49
0.5
 62
   256
  6
BYLAYER
 49
-0.5
 62
   256
  6
BYLAYER
  0
ACDBPLACEHOLDER
  5
F
102
{ACAD_REACTORS
330
E
102
}
330
E
  0
VISUALSTYLE
  5
2F
102
{ACAD_REACTORS
330
2A
102
}
330
2A
100
AcDbVisualStyle
  2
2dWireframe
 70
     4
 71
     0
 72
     2
 73
     0
 90
        0
 40
-0.6
 41
-30.0
 62
     5
 63
     7
 74
     1
 91
        4
 64
     7
 65
   257
 75
     1
175
     1
 42
1.0
 92
        0
 66
   257
 43
1.0
 76
     1
 77
     6
 78
     2
 67
     7
 79
     5
170
     0
171
     0
290
     0
174
     0
 93
        1
 44
0.0
173
     0
291
     0
 45
0.0
1001
ACAD
1000
AcDbSavedByObjectVersion
1070
     0
  0
VISUALSTYLE
  5
31
102
{ACAD_REACTORS
330
2A
102
}
330
2A
100
AcDbVisualStyle
  2
3D Hidden
 70
     6
 71
     1
 72
     2
 73
     2
 90
        0
 40
-0.6
 41
-30.0
 62
     5
 63
     7
 74
     2
 91
        2
 64
     7
 65
   257
 75
     2
175
     1
 42
40.0
 92
        0
 66
   257
 43
1.0
 76
     1
 77
     6
 78
     2
 67
     7
 79
     3
170
     0
171
     0
290
     0
174
     0
 93
        1
 44
0.0
173
     0
291
     0
 45
0.0
1001
ACAD
1000
AcDbSavedByObjectVersion
1070
     0
  0
VISUALSTYLE
  5
30
102
{ACAD_REACTORS
330
2A
102
}
330
2A
100
AcDbVisualStyle
  2
3dWireframe
 70
     5
 71
     0
 72
     2
 73
     0
 90
        0
 40
-0.6
 41
-30.0
 62
     5
 63
     7
 74
     1
 91
        4
 64
     7
 65
   257
 75
     1
175
     1
 42
1.0
 92
        0
 66
   257
 43
1.0
 76
     1
 77
     6
 78
     2
 67
     7
 79
     5
170
     0
171
     0
290
     0
174
     0
 93
        1
 44
0.0
173
     0
291
     0
 45
0.0
1001
ACAD
1000
AcDbSavedByObjectVersion
1070
     0
  0
VISUALSTYLE
  5
32
102
{ACAD_REACTORS
330
2A
102
}
330
2A
100
AcDbVisualStyle
  2
Basic
 70
     7
 71
     1
 72
     0
 73
     1
 90
        0
 40
-0.6
 41
-30.0
 62
     5
 63
     7
 74
     0
 91
        4
 64
     7
 65
   257
 75
     1
175
     1
 42
1.0
 92
        8
 66
     7
 43
1.0
 76
     1
 77
     6
 78
     2
 67
     7
 79
     5
170
     0
171
     0
290
     0
174
     0
 93
        1
 44
0.0
173
     0
291
     1
 45
0.0
1001
ACAD
1000
AcDbSavedByObjectVersion
1070
     0
  0
VISUALSTYLE
  5
36
102
{ACAD_REACTORS
330
2A
102
}
330
2A
100
AcDbVisualStyle
  2
Brighten
 70
    12
 71
     2
 72
     2
 73
     0
 90
        0
 40
-0.6
 41
-30.0
 62
     5
 63
     7
 74
     1
 91
        4
 64
     7
 65
   257
 75
     1
175
     1
 42
1.0
 92
        8
 66
     7
 43
1.0
 76
     1
 77
     6
 78
     2
 67
     7
 79
     5
170
     0
171
     0
290
     0
174
     0
 93
        1
 44
50.0
173
     0
291
     1
 45
0.0
1001
ACAD
1000
AcDbSavedByObjectVersion
1070
     0
  0
VISUALSTYLE
  5
3A
102
{ACAD_REACTORS
330
2A
102
}
330
2A
100
AcDbVisualStyle
  2
ColorChange
 70
    16
 71
     2
 72
     2
 73
     3
 90
        0
 40
-0.6
 41
-30.0
 62
     5
 63
     8
 74
     1
 91
        4
 64
     7
 65
   257
 75
     1
175
     1
 42
1.0
 92
        8
 66
     8
 43
1.0
 76
     1
 77
     6
 78
     2
 67
     7
 79
     5
170
     0
171
     0
290
     0
174
     0
 93
        1
 44
0.0
173
     0
291
     1
 45
0.0
1001
ACAD
1000
AcDbSavedByObjectVersion
1070
     0
  0
VISUALSTYLE
  5
34
102
{ACAD_REACTORS
330
2A
102
}
330
2A
100
AcDbVisualStyle
  2
Conceptual
 70
     9
 71
     3
 72
     2
 73
     0
 90
        0
 40
-0.6
 41
-30.0
 62
     5
 63
     7
 74
     2
 91
        2
 64
     7
 65
   257
 75
     1
175
     1
 42
40.0
 92
        8
 66
     7
 43
1.0
 76
     1
 77
     6
 78
     2
 67
     7
 79
     3
170
     0
171
     0
290
     0
174
     0
 93
        1
 44
0.0
173
     0
291
     0
 45
0.0
1001
ACAD
1000
AcDbSavedByObjectVersion
1070
     0
  0
VISUALSTYLE
  5
35
102
{ACAD_REACTORS
330
2A
102
}
330
2A
100
AcDbVisualStyle
  2
Dim
 70
    11
 71
     2
 72
     2
 73
     0
 90
        0
 40
-0.6
 41
-30.0
 62
     5
 63
     7
 74
     1
 91
        4
 64
     7
 65
   257
 75
     1
175
     1
 42
1.0
 92
        8
 66
     7
 43
1.0
 76
     1
 77
     6
 78
     2
 67
     7
 79
     5
170
     0
171
     0
290
     0
174
     0
 93
        1
 44
-50.0
173
     0
291
     1
 45
0.0
1001
ACAD
1000
AcDbSavedByObjectVersion
1070
     0
  0
VISUALSTYLE
  5
39
102
{ACAD_REACTORS
330
2A
102
}
330
2A
100
AcDbVisualStyle
  2
Facepattern
 70
    15
 71
     2
 72
     2
 73
     0
 90
        0
 40
-0.6
 41
-30.0
 62
     5
 63
     7
 74
     1
 91
        4
 64
     7
 65
   257
 75
     1
175
     1
 42
1.0
 92
        8
 66
     7
 43
1.0
 76
     1
 77
     6
 78
     2
 67
     7
 79
     5
170
     0
171
     0
290
     0
174
     0
 93
        1
 44
0.0
173
     0
291
     1
 45
0.0
1001
ACAD
1000
AcDbSavedByObjectVersion
1070
     0
  0
VISUALSTYLE
  5
2B
102
{ACAD_REACTORS
330
2A
102
}
330
2A
100
AcDbVisualStyle
  2
Flat
 70
     0
 71
     2
 72
     1
 73
     1
 90
        2
 40
-0.6
 41
30.0
 62
     5
 63
     7
 74
     0
 91
        4
 64
     7
 65
   257
 75
     1
175
     1
 42
1.0
 92
        8
 66
     7
 43
1.0
 76
     1
 77
     6
 78
     2
 67
     7
 79
     5
170
     0
171
     0
290
     0
174
     0
 93
       13
 44
0.0
173
     0
291
     1
 45
0.0
1001
ACAD
1000
AcDbSavedByObjectVersion
1070
     0
  0
VISUALSTYLE
  5
2C
102
{ACAD_REACTORS
330
2A
102
}
330
2A
100
AcDbVisualStyle
  2
FlatWithEdges
 70
     1
 71
     2
 72
     1
 73
     1
 90
        2
 40
-0.6
 41
30.0
 62
     5
 63
     7
 74
     1
 91
        4
 64
     7
 65
   257
 75
     1
175
     1
 42
1.0
 92
        0
 66
   257
 43
1.0
 76
     1
 77
     6
 78
     2
 67
     7
 79
     5
170
     0
171
     0
290
     0
174
     0
 93
       13
 44
0.0
173
     0
291
     1
 45
0.0
1001
ACAD
1000
AcDbSavedByObjectVersion
1070
     0
  0
VISUALSTYLE
  5
2D
102
{ACAD_REACTORS
330
2A
102
}
330
2A
100
AcDbVisualStyle
  2
Gouraud
 70
     2
 71
     2
 72
     2
 73
     1
 90
        2
 40
-0.6
 41
30.0
 62
     5
 63
     7
 74
     0
 91
        4
 64
     7
 65
   257
 75
     1
175
     1
 42
1.0
 92
        0
 66
     7
 43
1.0
 76
     1
 77
     6
 78
     2
 67
     7
 79
     5
170
     0
171
     0
290
     0
174
     0
 93
       13
 44
0.0
173
     0
291
     1
 45
0.0
1001
ACAD
1000
AcDbSavedByObjectVersion
1070
     0
  0
VISUALSTYLE
  5
2E
102
{ACAD_REACTORS
330
2A
102
}
330
2A
100
AcDbVisualStyle
  2
GouraudWithEdges
 70
     3
 71
     2
 72
     2
 73
     1
 90
        2
 40
-0.6
 41
30.0
 62
     5
 63
     7
 74
     1
 91
        4
 64
     7
 65
   257
 75
     1
175
     1
 42
1.0
 92
        0
 66
   257
 43
1.0
 76
     1
 77
     6
 78
     2
 67
     7
 79
     5
170
     0
171
     0
290
     0
174
     0
 93
       13
 44
0.0
173
     0
291
     1
 45
0.0
1001
ACAD
1000
AcDbSavedByObjectVersion
1070
     0
  0
VISUALSTYLE
  5
38
102
{ACAD_REACTORS
330
2A
102
}
330
2A
100
AcDbVisualStyle
  2
Linepattern
 70
    14
 71
     2
 72
     2
 73
     0
 90
        0
 40
-0.6
 41
-30.0
 62
     5
 63
     7
 74
     1
 91
        4
 64
     7
 65
   257
 75
     7
175
     7
 42
1.0
 92
        8
 66
     7
 43
1.0
 76
     1
 77
     6
 78
     2
 67
     7
 79
     5
170
     0
171
     0
290
     0
174
     0
 93
        1
 44
0.0
173
     0
291
     1
 45
0.0
1001
ACAD
1000
AcDbSavedByObjectVersion
1070
     0
  0
VISUALSTYLE
  5
33
102
{ACAD_REACTORS
330
2A
102
}
330
2A
100
AcDbVisualStyle
  2
Realistic
 70
     8
 71
     2
 72
     2
 73
     0
 90
        0
 40
-0.6
 41
-30.0
 62
     5
 63
     7
 74
     1
 91
        0
 64
     7
 65
   257
 75
     1
175
     1
 42
1.0
 92
        8
 66
     8
 43
1.0
 76
     1
 77
     6
 78
     2
 67
     7
 79
     5
170
     0
171
     0
290
     0
174
     0
 93
       13
 44
0.0
173
     0
291
     0
 45
0.0
1001
ACAD
1000
AcDbSavedByObjectVersion
1070
     0
  0
VISUALSTYLE
  5
37
102
{ACAD_REACTORS
330
2A
102
}
330
2A
100
AcDbVisualStyle
  2
Thicken
 70
    13
 71
     2
 72
     2
 73
     0
 90
        0
 40
-0.6
 41
-30.0
 62
     5
 63
     7
 74
     1
 91
        4
 64
     7
 65
   257
 75
     1
175
     1
 42
1.0
 92
       12
 66
     7
 43
1.0
 76
     1
 77
     6
 78
     2
 67
     7
 79
     5
170
     0
171
     0
290
     0
174
     0
 93
        1
 44
0.0
173
     0
291
     1
 45
0.0
1001
ACAD
1000
AcDbSavedByObjectVersion
1070
     0
  0
DICTIONARYVAR
  5
2F4
102
{ACAD_REACTORS
330
2F2
102
}
330
2F2
100
DictionaryVariables
280
     0
  1
80.000000
  0
DICTIONARYVAR
  5
2F3
102
{ACAD_REACTORS
330
2F2
102
}
330
2F2
100
DictionaryVariables
280
     0
  1
5.000000
  0
DICTIONARY
  5
2F5
330
1E
100
AcDbDictionary
280
     1
281
     1
  3
ACAD_XREC_ROUNDTRIP
360
2F6
  0
DICTIONARY
  5
2F9
330
26
100
AcDbDictionary
280
     1
281
     1
  3
ACAD_XREC_ROUNDTRIP
360
2FA
  0
DICTIONARY
  5
2F7
330
22
100
AcDbDictionary
280
     1
281
     1
  3
ACAD_XREC_ROUNDTRIP
360
2F8
  0
XRECORD
  5
2F6
102
{ACAD_REACTORS
330
2F5
102
}
330
2F5
100
AcDbXrecord
280
     1
102
SHADEPLOT
 70
     0
102
SHADEPLOTRESLEVEL
 70
     5
102
SHADEPLOTCUSTOMDPI
 70
   300
  0
XRECORD
  5
2FA
102
{ACAD_REACTORS
330
2F9
102
}
330
2F9
100
AcDbXrecord
280
     1
102
SHADEPLOT
 70
     0
102
SHADEPLOTRESLEVEL
 70
     5
102
SHADEPLOTCUSTOMDPI
 70
   300
  0
XRECORD
  5
2F8
102
{ACAD_REACTORS
330
2F7
102
}
330
2F7
100
AcDbXrecord
280
     1
102
SHADEPLOT
 70
     0
102
SHADEPLOTRESLEVEL
 70
     5
102
SHADEPLOTCUSTOMDPI
 70
   300
  0
ENDSEC
  0
EOF
