  0
SECTION
  2
HEADER
  9
$ACADVER
  1
AC1015
  9
$ACADMAINTVER
 70
     6
  9
$DWGCODEPAGE
  3
ANSI_932
  9
$INSBASE
 10
0.0
 20
0.0
 30
0.0
  9
$EXTMIN
 10
-2100.0
 20
-1485.0
 30
0.0
  9
$EXTMAX
 10
2100.0
 20
1485.0
 30
0.0
  9
$LIMMIN
 10
-2100.0
 20
-1485.0
  9
$LIMMAX
 10
2100.0
 20
1485.0
  9
$ORTHOMODE
 70
     0
  9
$REGENMODE
 70
     1
  9
$FILLMODE
 70
     1
  9
$QTEXTMODE
 70
     0
  9
$MIRRTEXT
 70
     1
  9
$LTSCALE
 40
10.0
  9
$ATTMODE
 70
     1
  9
$TEXTSIZE
 40
2.5
  9
$TRACEWID
 40
1.0
  9
$TEXTSTYLE
  7
Standard
  9
$CLAYER
  8
0
  9
$CELTYPE
  6
ByLayer
  9
$CECOLOR
 62
   256
  9
$CELTSCALE
 40
1.0
  9
$DISPSILH
 70
     0
  9
$DIMSCALE
 40
1.0
  9
$DIMASZ
 40
2.5
  9
$DIMEXO
 40
0.625
  9
$DIMDLI
 40
3.75
  9
$DIMRND
 40
0.0
  9
$DIMDLE
 40
0.0
  9
$DIMEXE
 40
1.25
  9
$DIMTP
 40
0.0
  9
$DIMTM
 40
0.0
  9
$DIMTXT
 40
2.5
  9
$DIMCEN
 40
2.5
  9
$DIMTSZ
 40
0.0
  9
$DIMTOL
 70
     0
  9
$DIMLIM
 70
     0
  9
$DIMTIH
 70
     0
  9
$DIMTOH
 70
     0
  9
$DIMSE1
 70
     0
  9
$DIMSE2
 70
     0
  9
$DIMTAD
 70
     1
  9
$DIMZIN
 70
     8
  9
$DIMBLK
  1

  9
$DIMASO
 70
     1
  9
$DIMSHO
 70
     1
  9
$DIMPOST
  1

  9
$DIMAPOST
  1

  9
$DIMALT
 70
     0
  9
$DIMALTD
 70
     3
  9
$DIMALTF
 40
0.03937007874016
  9
$DIMLFAC
 40
1.0
  9
$DIMTOFL
 70
     1
  9
$DIMTVP
 40
0.0
  9
$DIMTIX
 70
     0
  9
$DIMSOXD
 70
     0
  9
$DIMSAH
 70
     0
  9
$DIMBLK1
  1

  9
$DIMBLK2
  1

  9
$DIMSTYLE
  2
ISO-25
  9
$DIMCLRD
 70
     0
  9
$DIMCLRE
 70
     0
  9
$DIMCLRT
 70
     0
  9
$DIMTFAC
 40
1.0
  9
$DIMGAP
 40
0.625
  9
$DIMJUST
 70
     0
  9
$DIMSD1
 70
     0
  9
$DIMSD2
 70
     0
  9
$DIMTOLJ
 70
     0
  9
$DIMTZIN
 70
     8
  9
$DIMALTZ
 70
     0
  9
$DIMALTTZ
 70
     0
  9
$DIMUPT
 70
     0
  9
$DIMDEC
 70
     2
  9
$DIMTDEC
 70
     2
  9
$DIMALTU
 70
     2
  9
$DIMALTTD
 70
     3
  9
$DIMTXSTY
  7
Standard
  9
$DIMAUNIT
 70
     0
  9
$DIMADEC
 70
     0
  9
$DIMALTRND
 40
0.0
  9
$DIMAZIN
 70
     0
  9
$DIMDSEP
 70
    44
  9
$DIMATFIT
 70
     3
  9
$DIMFRAC
 70
     0
  9
$DIMLDRBLK
  1

  9
$DIMLUNIT
 70
     2
  9
$DIMLWD
 70
    -2
  9
$DIMLWE
 70
    -2
  9
$DIMTMOVE
 70
     0
  9
$LUNITS
 70
     2
  9
$LUPREC
 70
     4
  9
$SKETCHINC
 40
1.0
  9
$FILLETRAD
 40
10.0
  9
$AUNITS
 70
     0
  9
$AUPREC
 70
     0
  9
$MENU
  1
.
  9
$ELEVATION
 40
0.0
  9
$PELEVATION
 40
0.0
  9
$THICKNESS
 40
0.0
  9
$LIMCHECK
 70
     0
  9
$CHAMFERA
 40
10.0
  9
$CHAMFERB
 40
10.0
  9
$CHAMFERC
 40
20.0
  9
$CHAMFERD
 40
0.0
  9
$SKPOLY
 70
     0
  9
$TDCREATE
 40
2456902.409378646
  9
$TDUCREATE
 40
2456902.034378646
  9
$TDUPDATE
 40
2456902.409378658
  9
$TDUUPDATE
 40
2456902.034378658
  9
$TDINDWG
 40
0.0000000116
  9
$TDUSRTIMER
 40
0.0000000116
  9
$USRTIMER
 70
     1
  9
$ANGBASE
 50
0.0
  9
$ANGDIR
 70
     0
  9
$PDMODE
 70
     0
  9
$PDSIZE
 40
0.0
  9
$PLINEWID
 40
0.0
  9
$SPLFRAME
 70
     0
  9
$SPLINETYPE
 70
     6
  9
$SPLINESEGS
 70
     8
  9
$HANDSEED
  5
2E3
  9
$SURFTAB1
 70
     6
  9
$SURFTAB2
 70
     6
  9
$SURFTYPE
 70
     6
  9
$SURFU
 70
     6
  9
$SURFV
 70
     6
  9
$UCSBASE
  2

  9
$UCSNAME
  2

  9
$UCSORG
 10
0.0
 20
0.0
 30
0.0
  9
$UCSXDIR
 10
1.0
 20
0.0
 30
0.0
  9
$UCSYDIR
 10
0.0
 20
1.0
 30
0.0
  9
$UCSORTHOREF
  2

  9
$UCSORTHOVIEW
 70
     0
  9
$UCSORGTOP
 10
0.0
 20
0.0
 30
0.0
  9
$UCSORGBOTTOM
 10
0.0
 20
0.0
 30
0.0
  9
$UCSORGLEFT
 10
0.0
 20
0.0
 30
0.0
  9
$UCSORGRIGHT
 10
0.0
 20
0.0
 30
0.0
  9
$UCSORGFRONT
 10
0.0
 20
0.0
 30
0.0
  9
$UCSORGBACK
 10
0.0
 20
0.0
 30
0.0
  9
$PUCSBASE
  2

  9
$PUCSNAME
  2

  9
$PUCSORG
 10
0.0
 20
0.0
 30
0.0
  9
$PUCSXDIR
 10
1.0
 20
0.0
 30
0.0
  9
$PUCSYDIR
 10
0.0
 20
1.0
 30
0.0
  9
$PUCSORTHOREF
  2

  9
$PUCSORTHOVIEW
 70
     0
  9
$PUCSORGTOP
 10
0.0
 20
0.0
 30
0.0
  9
$PUCSORGBOTTOM
 10
0.0
 20
0.0
 30
0.0
  9
$PUCSORGLEFT
 10
0.0
 20
0.0
 30
0.0
  9
$PUCSORGRIGHT
 10
0.0
 20
0.0
 30
0.0
  9
$PUCSORGFRONT
 10
0.0
 20
0.0
 30
0.0
  9
$PUCSORGBACK
 10
0.0
 20
0.0
 30
0.0
  9
$USERI1
 70
     0
  9
$USERI2
 70
     0
  9
$USERI3
 70
     0
  9
$USERI4
 70
     0
  9
$USERI5
 70
     0
  9
$USERR1
 40
0.0
  9
$USERR2
 40
0.0
  9
$USERR3
 40
0.0
  9
$USERR4
 40
0.0
  9
$USERR5
 40
0.0
  9
$WORLDVIEW
 70
     1
  9
$SHADEDGE
 70
     3
  9
$SHADEDIF
 70
    70
  9
$TILEMODE
 70
     1
  9
$MAXACTVP
 70
    64
  9
$PINSBASE
 10
0.0
 20
0.0
 30
0.0
  9
$PLIMCHECK
 70
     0
  9
$PEXTMIN
 10
1.000000000000000E+20
 20
1.000000000000000E+20
 30
1.000000000000000E+20
  9
$PEXTMAX
 10
-1.000000000000000E+20
 20
-1.000000000000000E+20
 30
-1.000000000000000E+20
  9
$PLIMMIN
 10
0.0
 20
0.0
  9
$PLIMMAX
 10
420.0
 20
297.0
  9
$UNITMODE
 70
     0
  9
$VISRETAIN
 70
     1
  9
$PLINEGEN
 70
     0
  9
$PSLTSCALE
 70
     1
  9
$TREEDEPTH
 70
  3020
  9
$CMLSTYLE
  2
Standard
  9
$CMLJUST
 70
     0
  9
$CMLSCALE
 40
20.0
  9
$PROXYGRAPHICS
 70
     1
  9
$MEASUREMENT
 70
     1
  9
$CELWEIGHT
370
    -1
  9
$ENDCAPS
280
     0
  9
$JOINSTYLE
280
     0
  9
$LWDISPLAY
290
     0
  9
$INSUNITS
 70
     4
  9
$HYPERLINKBASE
  1

  9
$STYLESHEET
  1

  9
$XEDIT
290
     1
  9
$CEPSNTYPE
380
     0
  9
$PSTYLEMODE
290
     1
  9
$FINGERPRINTGUID
  2
{3321ADBA-93C0-4EC1-9CEB-50F25D6E4549}
  9
$VERSIONGUID
  2
{FAEB1C32-E019-11D5-929B-00C0DF256EC4}
  9
$EXTNAMES
290
     1
  9
$PSVPSCALE
 40
0.0
  9
$OLESTARTUP
290
     0
  0
ENDSEC
  0
SECTION
  2
CLASSES
  0
CLASS
  1
ACDBDICTIONARYWDFLT
  2
AcDbDictionaryWithDefault
  3
ObjectDBX Classes
 90
        0
280
     0
281
     0
  0
CLASS
  1
VISUALSTYLE
  2
AcDbVisualStyle
  3
ObjectDBX Classes
 90
     4095
280
     0
281
     0
  0
CLASS
  1
DICTIONARYVAR
  2
AcDbDictionaryVar
  3
ObjectDBX Classes
 90
        0
280
     0
281
     0
  0
CLASS
  1
ACDBPLACEHOLDER
  2
AcDbPlaceHolder
  3
ObjectDBX Classes
 90
        0
280
     0
281
     0
  0
CLASS
  1
LAYOUT
  2
AcDbLayout
  3
ObjectDBX Classes
 90
        0
280
     0
281
     0
  0
ENDSEC
  0
SECTION
  2
TABLES
  0
TABLE
  2
VPORT
  5
8
330
0
100
AcDbSymbolTable
 70
     1
  0
VPORT
  5
29
330
8
100
AcDbSymbolTableRecord
100
AcDbViewportTableRecord
  2
*Active
 70
     0
 10
0.0
 20
0.0
 11
1.0
 21
1.0
 12
0.0
 22
0.0
 13
0.0
 23
0.0
 14
10.0
 24
10.0
 15
10.0
 25
10.0
 16
0.0
 26
0.0
 36
1.0
 17
0.0
 27
0.0
 37
0.0
 40
3267.0
 41
1.414141414141414
 42
50.0
 43
0.0
 44
0.0
 50
0.0
 51
0.0
 71
     0
 72
 10000
 73
     1
 74
     3
 75
     0
 76
     0
 77
     0
 78
     0
281
     0
 65
     1
110
0.0
120
0.0
130
0.0
111
1.0
121
0.0
131
0.0
112
0.0
122
1.0
132
0.0
 79
     0
146
0.0
  0
ENDTAB
  0
TABLE
  2
LTYPE
  5
5
330
0
100
AcDbSymbolTable
 70
     4
  0
LTYPE
  5
14
330
5
100
AcDbSymbolTableRecord
100
AcDbLinetypeTableRecord
  2
ByBlock
 70
     0
  3

 72
    65
 73
     0
 40
0.0
  0
LTYPE
  5
15
330
5
100
AcDbSymbolTableRecord
100
AcDbLinetypeTableRecord
  2
ByLayer
 70
     0
  3

 72
    65
 73
     0
 40
0.0
  0
LTYPE
  5
16
330
5
100
AcDbSymbolTableRecord
100
AcDbLinetypeTableRecord
  2
Continuous
 70
     0
  3
Solid line
 72
    65
 73
     0
 40
0.0
  0
LTYPE
  5
3C
330
5
100
AcDbSymbolTableRecord
100
AcDbLinetypeTableRecord
  2
JWW_DASHED1
 70
     0
  3
-  --  --  --  --  --  --  --  -
 72
    65
 73
     2
 40
1.693333333333333
 49
0.8466666666666667
 74
     0
 49
-0.8466666666666667
 74
     0
  0
LTYPE
  5
3D
330
5
100
AcDbSymbolTableRecord
100
AcDbLinetypeTableRecord
  2
JWW_PHANTOM1
 70
     0
  3
----  -  -  --------  -  -  ----
 72
    65
 73
     6
 40
6.773333333333333
 49
3.386666666666667
 74
     0
 49
-0.8466666666666667
 74
     0
 49
0.4233333333333333
 74
     0
 49
-0.8466666666666667
 74
     0
 49
0.4233333333333333
 74
     0
 49
-0.8466666666666667
 74
     0
  0
LTYPE
  5
3E
330
5
100
AcDbSymbolTableRecord
100
AcDbLinetypeTableRecord
  2
JWW_CENTER1
 70
     0
  3
-----  --  ----------  --  -----
 72
    65
 73
     4
 40
6.773333333333333
 49
4.233333333333333
 74
     0
 49
-0.8466666666666667
 74
     0
 49
0.8466666666666667
 74
     0
 49
-0.8466666666666667
 74
     0
  0
ENDTAB
  0
TABLE
  2
LAYER
  5
2
330
0
100
AcDbSymbolTable
 70
    10
  0
LAYER
  5
10
330
2
100
AcDbSymbolTableRecord
100
AcDbLayerTableRecord
  2
0
 70
     0
 62
     7
  6
Continuous
370
    -3
390
F
  0
LAYER
  5
3F
330
2
100
AcDbSymbolTableRecord
100
AcDbLayerTableRecord
  2
F-5
 70
     0
 62
     7
  6
Continuous
370
    -3
390
F
  0
LAYER
  5
40
330
2
100
AcDbSymbolTableRecord
100
AcDbLayerTableRecord
  2
F-1
 70
     0
 62
     7
  6
Continuous
370
    -3
390
F
  0
LAYER
  5
41
330
2
100
AcDbSymbolTableRecord
100
AcDbLayerTableRecord
  2
0-0
 70
     0
 62
     7
  6
Continuous
370
    -3
390
F
  0
LAYER
  5
42
330
2
100
AcDbSymbolTableRecord
100
AcDbLayerTableRecord
  2
0-4
 70
     0
 62
     7
  6
Continuous
370
    -3
390
F
  0
LAYER
  5
43
330
2
100
AcDbSymbolTableRecord
100
AcDbLayerTableRecord
  2
0-1
 70
     0
 62
     7
  6
Continuous
370
    -3
390
F
  0
LAYER
  5
44
330
2
100
AcDbSymbolTableRecord
100
AcDbLayerTableRecord
  2
0-E
 70
     0
 62
     7
  6
Continuous
370
    -3
390
F
  0
LAYER
  5
45
330
2
100
AcDbSymbolTableRecord
100
AcDbLayerTableRecord
  2
0-5
 70
     0
 62
     7
  6
Continuous
370
    -3
390
F
  0
LAYER
  5
46
330
2
100
AcDbSymbolTableRecord
100
AcDbLayerTableRecord
  2
0-2
 70
     0
 62
     7
  6
Continuous
370
    -3
390
F
  0
LAYER
  5
47
330
2
100
AcDbSymbolTableRecord
100
AcDbLayerTableRecord
  2
F-4
 70
     0
 62
     7
  6
Continuous
370
    -3
390
F
  0
ENDTAB
  0
TABLE
  2
STYLE
  5
3
330
0
100
AcDbSymbolTable
 70
     2
  0
STYLE
  5
11
330
3
100
AcDbSymbolTableRecord
100
AcDbTextStyleTableRecord
  2
Standard
 70
     0
 40
0.0
 41
1.0
 50
0.0
 71
     0
 42
2.5
  3
txt
  4

1001
ACAD
1000

1071
        0
  0
STYLE
  5
3B
330
3
100
AcDbSymbolTableRecord
100
AcDbTextStyleTableRecord
  2
ＭＳ ゴシック
 70
     0
 40
1.0
 41
1.0
 50
0.0
 71
     0
 42
10.0
  3

  4

1001
ACAD
1000
MS Gothic
1071
    32817
  0
ENDTAB
  0
TABLE
  2
VIEW
  5
6
330
0
100
AcDbSymbolTable
 70
     0
  0
ENDTAB
  0
TABLE
  2
UCS
  5
7
330
0
100
AcDbSymbolTable
 70
     0
  0
ENDTAB
  0
TABLE
  2
APPID
  5
9
330
0
100
AcDbSymbolTable
 70
     1
  0
APPID
  5
12
330
9
100
AcDbSymbolTableRecord
100
AcDbRegAppTableRecord
  2
ACAD
 70
     0
  0
ENDTAB
  0
TABLE
  2
DIMSTYLE
  5
A
330
0
100
AcDbSymbolTable
 70
     1
100
AcDbDimStyleTable
  0
DIMSTYLE
105
27
330
A
100
AcDbSymbolTableRecord
100
AcDbDimStyleTableRecord
  2
ISO-25
 70
     0
 41
2.5
 42
0.625
 43
3.75
 44
1.25
 73
     0
 74
     0
 77
     1
 78
     8
140
2.5
141
2.5
143
0.03937007874016
147
0.625
171
     3
172
     1
271
     2
272
     2
274
     3
278
    44
283
     0
284
     8
340
11
  0
ENDTAB
  0
TABLE
  2
BLOCK_RECORD
  5
1
330
0
100
AcDbSymbolTable
 70
     1
  0
BLOCK_RECORD
  5
1F
330
1
100
AcDbSymbolTableRecord
100
AcDbBlockTableRecord
  2
*Model_Space
340
22
  0
BLOCK_RECORD
  5
1B
330
1
100
AcDbSymbolTableRecord
100
AcDbBlockTableRecord
  2
*Paper_Space
340
1E
  0
BLOCK_RECORD
  5
23
330
1
100
AcDbSymbolTableRecord
100
AcDbBlockTableRecord
  2
*Paper_Space0
340
26
  0
ENDTAB
  0
ENDSEC
  0
SECTION
  2
BLOCKS
  0
BLOCK
  5
20
330
1F
100
AcDbEntity
  8
0
100
AcDbBlockBegin
  2
*Model_Space
 70
     0
 10
0.0
 20
0.0
 30
0.0
  3
*Model_Space
  1

  0
ENDBLK
  5
21
330
1F
100
AcDbEntity
  8
0
100
AcDbBlockEnd
  0
BLOCK
  5
1C
330
1B
100
AcDbEntity
 67
     1
  8
0
100
AcDbBlockBegin
  2
*Paper_Space
 70
     0
 10
0.0
 20
0.0
 30
0.0
  3
*Paper_Space
  1

  0
ENDBLK
  5
1D
330
1B
100
AcDbEntity
 67
     1
  8
0
100
AcDbBlockEnd
  0
BLOCK
  5
24
330
23
100
AcDbEntity
  8
0
100
AcDbBlockBegin
  2
*Paper_Space0
 70
     0
 10
0.0
 20
0.0
 30
0.0
  3
*Paper_Space0
  1

  0
ENDBLK
  5
25
330
23
100
AcDbEntity
  8
0
100
AcDbBlockEnd
  0
ENDSEC
  0
SECTION
  2
ENTITIES
  0
LWPOLYLINE
  5
48
330
1F
100
AcDbEntity
  8
F-5
  6
Continuous
 62
     7
370
     9
100
AcDbPolyline
 90
        4
 70
     1
 43
1.0
 10
-2099.5
 20
-1485.0
 42
0.4142135623731
 10
-2100.0
 20
-1484.5
 42
0.4142135623731
 10
-2100.5
 20
-1485.0
 42
0.4142135623731
 10
-2100.0
 20
-1485.5
 42
0.4142135623731
  0
LWPOLYLINE
  5
49
330
1F
100
AcDbEntity
  8
F-1
  6
Continuous
 62
     7
370
     9
100
AcDbPolyline
 90
        4
 70
     1
 43
1.0
 10
1860.499703072213
 20
-1504.999998324626
 42
0.4142135623731
 10
1859.999703072213
 20
-1504.499998324626
 42
0.4142135623731
 10
1859.499703072213
 20
-1504.999998324626
 42
0.4142135623731
 10
1859.999703072213
 20
-1505.499998324626
 42
0.4142135623731
  0
LINE
  5
4A
330
1F
100
AcDbEntity
  8
0-0
  6
Continuous
 62
     3
370
     9
100
AcDbLine
 10
-478.3333443306586
 20
-127.9176332474152
 30
0.0
 11
-475.0000824799409
 21
-101.2509198421152
 31
0.0
  0
LINE
  5
4B
330
1F
100
AcDbEntity
  8
0-0
  6
Continuous
 62
     3
370
     9
100
AcDbLine
 10
-478.3333443306586
 20
-127.9176332474152
 30
0.0
 11
-468.3333113386823
 21
-127.9176332474152
 31
0.0
  0
LINE
  5
4C
330
1F
100
AcDbEntity
  8
0-0
  6
Continuous
 62
     3
370
     9
100
AcDbLine
 10
-388.2843017578125
 20
-133.9461333661862
 30
0.0
 11
-371.7157312341638
 21
-138.3854512240832
 31
0.0
  0
LINE
  5
4D
330
1F
100
AcDbEntity
  8
0-0
  6
Continuous
 62
     3
370
     9
100
AcDbLine
 10
-422.4884033203125
 20
-114.4283275965493
 30
0.0
 11
-412.8293424039273
 21
-117.0164244214017
 31
0.0
  0
LINE
  5
4E
330
1F
100
AcDbEntity
  8
0-0
  6
Continuous
 62
     3
370
     9
100
AcDbLine
 10
-395.5006367451435
 20
-121.6597564130613
 30
0.0
 11
-403.1697866078969
 21
-119.6046449661652
 31
0.0
  0
LINE
  5
4F
330
1F
100
AcDbEntity
  8
0-0
  6
Continuous
 62
     3
370
     9
100
AcDbLine
 10
-393.0975011877109
 20
-124.2111084242522
 30
0.0
 11
-391.8885102143159
 21
-130.118734189666
 31
0.0
  0
LINE
  5
50
330
1F
100
AcDbEntity
  8
0-0
  6
Continuous
 62
     3
370
     9
100
AcDbLine
 10
-362.6799712309966
 20
-132.3614050221195
 30
0.0
 11
-366.6808257231841
 21
-136.8732227480486
 31
0.0
  0
LINE
  5
51
330
1F
100
AcDbEntity
  8
0-0
  6
Continuous
 62
     3
370
     9
100
AcDbLine
 10
-471.6665731894003
 20
-101.2509198421152
 30
0.0
 11
-432.1479591163427
 21
-111.8398596119631
 31
0.0
  0
LINE
  5
52
330
1F
100
AcDbEntity
  8
0-0
  6
Continuous
 62
     3
370
     9
100
AcDbLine
 10
-408.9009877797719
 20
-131.8725876525038
 30
0.0
 11
-439.5268620671453
 21
-123.6664933746322
 31
0.0
  0
LINE
  5
53
330
1F
100
AcDbEntity
  8
0-0
  6
JWW_DASHED1
 62
     3
370
     9
100
AcDbLine
 10
-362.1714823954812
 20
-151.8849019076769
 30
0.0
 11
-359.5379803631755
 21
-148.914757996676
 31
0.0
  0
LINE
  5
54
330
1F
100
AcDbEntity
  8
0-0
  6
Continuous
 62
     3
370
     9
100
AcDbLine
 10
-403.2989501953125
 20
-140.8650456867099
 30
0.0
 11
-404.0952115445523
 21
-136.9754153947969
 31
0.0
  0
LINE
  5
55
330
1F
100
AcDbEntity
  8
0-0
  6
Continuous
 62
     3
370
     9
100
AcDbLine
 10
-351.6538052945523
 20
-133.4083229116888
 30
0.0
 11
-359.3229551573057
 21
-131.3534589046152
 31
0.0
  0
LINE
  5
56
330
1F
100
AcDbEntity
  8
0-0
  6
Continuous
 62
     3
370
     9
100
AcDbLine
 10
-315.7765156513935
 20
-143.0214837409751
 30
0.0
 11
-341.9944969383445
 21
-135.9965434564523
 31
0.0
  0
LINE
  5
57
330
1F
100
AcDbEntity
  8
0-0
  6
JWW_DASHED1
 62
     3
370
     9
100
AcDbLine
 10
-303.7316399651604
 20
-189.802209168551
 30
0.0
 11
-308.4394300306164
 21
-151.4620272507935
 31
0.0
  0
LINE
  5
58
330
1F
100
AcDbEntity
  8
0-0
  6
Continuous
 62
     3
370
     9
100
AcDbLine
 10
-297.8789458403716
 20
-244.5841487008569
 30
0.0
 11
-305.8333938186232
 21
-244.5841487008569
 31
0.0
  0
LINE
  5
59
330
1F
100
AcDbEntity
  8
0-0
  6
Continuous
 62
     3
370
     9
100
AcDbLine
 10
-306.70166015625
 20
-237.5114525305655
 30
0.0
 11
-305.8333938186232
 21
-244.5841487008569
 31
0.0
  0
LINE
  5
5A
330
1F
100
AcDbEntity
  8
0-0
  6
Continuous
 62
     3
370
     9
100
AcDbLine
 10
-299.3494807062922
 20
-234.5841157088805
 30
0.0
 11
-321.6665731894003
 21
-234.5841157088805
 31
0.0
  0
LINE
  5
5B
330
1F
100
AcDbEntity
  8
0-0
  6
Continuous
 62
     3
370
     9
100
AcDbLine
 10
-326.0279475031672
 20
-205.5091942297842
 30
0.0
 11
-321.6665731894003
 21
-234.5841157088805
 31
0.0
  0
LINE
  5
5C
330
1F
100
AcDbEntity
  8
0-0
  6
Continuous
 62
     3
370
     9
100
AcDbLine
 10
-386.465124181799
 20
-148.2370203224785
 30
0.0
 11
-399.6947417388091
 21
-144.6923211433189
 31
0.0
  0
LINE
  5
5D
330
1F
100
AcDbEntity
  8
0-0
  6
JWW_DASHED1
 62
     3
370
     9
100
AcDbLine
 10
-386.465124181799
 20
-148.2370203224785
 30
0.0
 11
-367.2068827861062
 21
-153.3972541036229
 31
0.0
  0
LINE
  5
5E
330
1F
100
AcDbEntity
  8
0-0
  6
Continuous
 62
     3
370
     9
100
AcDbLine
 10
-267.7991712415539
 20
-150.6478265144126
 30
0.0
 11
-261.6668701171875
 21
-201.1208489753501
 31
0.0
  0
LINE
  5
5F
330
1F
100
AcDbEntity
  8
0-0
  6
Continuous
 62
     3
370
     9
100
AcDbLine
 10
-296.0516027502109
 20
-237.4326429470561
 30
0.0
 11
-286.6667051573057
 21
-301.2508373621745
 31
0.0
  0
LINE
  5
60
330
1F
100
AcDbEntity
  8
0-0
  6
JWW_DASHED1
 62
     3
370
     9
100
AcDbLine
 10
-320.1829240128799
 20
-201.2510023220561
 30
0.0
 11
-330.9727849187075
 21
-201.2510023220561
 31
0.0
  0
LINE
  5
61
330
1F
100
AcDbEntity
  8
0-0
  6
JWW_DASHED1
 62
     3
370
     9
100
AcDbLine
 10
-320.5773430901604
 20
-162.0134798875122
 30
0.0
 11
-311.666540197424
 21
-234.5841157088805
 31
0.0
  0
LINE
  5
62
330
1F
100
AcDbEntity
  8
0-0
  6
JWW_DASHED1
 62
     3
370
     9
100
AcDbLine
 10
-327.9144287109375
 20
-153.5729363776939
 30
0.0
 11
-352.8244430954391
 21
-146.8983708820224
 31
0.0
  0
LINE
  5
63
330
1F
100
AcDbEntity
  8
0-0
  6
JWW_DASHED1
 62
     3
370
     9
100
AcDbLine
 10
-294.5837897223393
 20
-198.5535370955992
 30
0.0
 11
-261.6668701171875
 21
-201.1208489753501
 31
0.0
  0
LINE
  5
64
330
1F
100
AcDbEntity
  8
0-0
  6
Continuous
 62
     3
370
     9
100
AcDbLine
 10
-261.6668701171875
 20
-201.1208489753501
 30
0.0
 11
-260.0001154719172
 21
-201.2508786021448
 31
0.0
  0
LINE
  5
65
330
1F
100
AcDbEntity
  8
0-0
  6
Continuous
 62
     3
370
     9
100
AcDbLine
 10
-273.3331628747888
 20
-217.9175590154684
 30
0.0
 11
-273.3331628747888
 21
-251.250796122204
 31
0.0
  0
LINE
  5
66
330
1F
100
AcDbEntity
  8
0-0
  6
Continuous
 62
     3
370
     9
100
AcDbLine
 10
-273.3331628747888
 20
-217.9175590154684
 30
0.0
 11
-257.2221085831924
 21
-217.9175590154684
 31
0.0
  0
LINE
  5
67
330
1F
100
AcDbEntity
  8
0-0
  6
Continuous
 62
     3
370
     9
100
AcDbLine
 10
-257.2221085831924
 20
-217.9175590154684
 30
0.0
 11
-260.0001154719172
 21
-201.2508786021448
 31
0.0
  0
LINE
  5
68
330
1F
100
AcDbEntity
  8
0-0
  6
Continuous
 62
     3
370
     9
100
AcDbLine
 10
-270.3064789643159
 20
-301.2508373621745
 30
0.0
 11
-267.1815614442568
 21
-251.250796122204
 31
0.0
  0
LINE
  5
69
330
1F
100
AcDbEntity
  8
0-0
  6
Continuous
 62
     3
370
     9
100
AcDbLine
 10
188.3333773226352
 20
-127.9176332474152
 30
0.0
 11
185.0001154719175
 21
-101.2509198421152
 31
0.0
  0
LINE
  5
6A
330
1F
100
AcDbEntity
  8
0-0
  6
Continuous
 62
     3
370
     9
100
AcDbLine
 10
188.3333773226352
 20
-127.9176332474152
 30
0.0
 11
178.3333443306589
 21
-127.9176332474152
 31
0.0
  0
LINE
  5
6B
330
1F
100
AcDbEntity
  8
0-0
  6
Continuous
 62
     3
370
     9
100
AcDbLine
 10
132.4884363122891
 20
-114.4283275965493
 30
0.0
 11
122.8293753959039
 21
-117.0164244214017
 31
0.0
  0
LINE
  5
6C
330
1F
100
AcDbEntity
  8
0-0
  6
Continuous
 62
     3
370
     9
100
AcDbLine
 10
181.6666061813768
 20
-101.2509198421152
 30
0.0
 11
142.1479921083193
 21
-111.8398596119631
 31
0.0
  0
LINE
  5
6D
330
1F
100
AcDbEntity
  8
0-0
  6
Continuous
 62
     3
370
     9
100
AcDbLine
 10
118.9010207717484
 20
-131.8725876525038
 30
0.0
 11
149.5268950591216
 21
-123.6664933746322
 31
0.0
  0
LINE
  5
6E
330
1F
100
AcDbEntity
  8
0-0
  6
Continuous
 62
     3
370
     9
100
AcDbLine
 10
72.17151538745782
 20
-151.8849019076769
 30
0.0
 11
69.53801335515209
 21
-148.914757996676
 31
0.0
  0
LINE
  5
6F
330
1F
100
AcDbEntity
  8
0-0
  6
Continuous
 62
     3
370
     9
100
AcDbLine
 10
113.2989831872891
 20
-140.8650456867099
 30
0.0
 11
114.0952445365289
 21
-136.9754153947969
 31
0.0
  0
LINE
  5
70
330
1F
100
AcDbEntity
  8
0-0
  6
Continuous
 62
     3
370
     9
100
AcDbLine
 10
7.878978832348196
 20
-244.5841487008569
 30
0.0
 11
15.83342681059975
 21
-244.5841487008569
 31
0.0
  0
LINE
  5
71
330
1F
100
AcDbEntity
  8
0-0
  6
Continuous
 62
     3
370
     9
100
AcDbLine
 10
16.70169314822658
 20
-237.5114525305655
 30
0.0
 11
15.83342681059975
 21
-244.5841487008569
 31
0.0
  0
LINE
  5
72
330
1F
100
AcDbEntity
  8
0-0
  6
JWW_PHANTOM1
 62
     3
370
     9
100
AcDbLine
 10
36.02798049514377
 20
-205.5091942297842
 30
0.0
 11
31.66660618137684
 21
-234.5841157088805
 31
0.0
  0
LINE
  5
73
330
1F
100
AcDbEntity
  8
0-0
  6
JWW_PHANTOM1
 62
     3
370
     9
100
AcDbLine
 10
80.7354076488599
 20
-201.2510023220561
 30
0.0
 11
40.97281791068411
 21
-201.2510023220561
 31
0.0
  0
LINE
  5
74
330
1F
100
AcDbEntity
  8
0-0
  6
JWW_PHANTOM1
 62
     3
370
     9
100
AcDbLine
 10
92.82185322529585
 20
-152.2780837858441
 30
0.0
 11
85.67282186972136
 21
-197.0395765408061
 31
0.0
  0
LINE
  5
75
330
1F
100
AcDbEntity
  8
0-0
  6
Continuous
 62
     3
370
     9
100
AcDbLine
 10
77.20691577808282
 20
-153.3970066638003
 30
0.0
 11
109.6947747307857
 21
-144.6923211433189
 31
0.0
  0
LINE
  5
76
330
1F
100
AcDbEntity
  8
0-0
  6
Continuous
 62
     3
370
     9
100
AcDbLine
 10
6.0516357421875
 20
-237.4326429470561
 30
0.0
 11
-3.33326185071769
 21
-301.2508373621745
 31
0.0
  0
LINE
  5
77
330
1F
100
AcDbEntity
  8
0-0
  6
Continuous
 62
     3
370
     9
100
AcDbLine
 10
30.57737608213699
 20
-162.0134798875122
 30
0.0
 11
21.66657318940054
 21
-234.5841157088805
 31
0.0
  0
LINE
  5
78
330
1F
100
AcDbEntity
  8
0-0
  6
Continuous
 62
     3
370
     9
100
AcDbLine
 10
37.91446170291408
 20
-153.5729363776939
 30
0.0
 11
62.82447608741563
 21
-146.8983708820224
 31
0.0
  0
LINE
  5
79
330
1F
100
AcDbEntity
  8
0-0
  6
Continuous
 62
     3
370
     9
100
AcDbLine
 10
-16.66680413323462
 20
-217.9175590154684
 30
0.0
 11
-16.66680413323462
 21
-251.250796122204
 31
0.0
  0
LINE
  5
7A
330
1F
100
AcDbEntity
  8
0-0
  6
Continuous
 62
     3
370
     9
100
AcDbLine
 10
-16.66680413323462
 20
-217.9175590154684
 30
0.0
 11
-32.77785842483098
 21
-217.9175590154684
 31
0.0
  0
LINE
  5
7B
330
1F
100
AcDbEntity
  8
0-0
  6
Continuous
 62
     3
370
     9
100
AcDbLine
 10
-32.77785842483098
 20
-217.9175590154684
 30
0.0
 11
-29.99985153610623
 21
-201.2508786021448
 31
0.0
  0
LINE
  5
7C
330
1F
100
AcDbEntity
  8
0-0
  6
Continuous
 62
     3
370
     9
100
AcDbLine
 10
-19.69348804370753
 20
-301.2508373621745
 30
0.0
 11
-22.81840556376665
 21
-251.250796122204
 31
0.0
  0
LINE
  5
7D
330
1F
100
AcDbEntity
  8
0-0
  6
Continuous
 62
     3
370
     9
100
AcDbLine
 10
9.349513698268765
 20
-234.5841157088805
 30
0.0
 11
21.66657318940054
 21
-234.5841157088805
 31
0.0
  0
LINE
  5
7E
330
1F
100
AcDbEntity
  8
0-0
  6
JWW_PHANTOM1
 62
     3
370
     9
100
AcDbLine
 10
21.66657318940054
 20
-234.5841157088805
 30
0.0
 11
31.66660618137684
 21
-234.5841157088805
 31
0.0
  0
LINE
  5
7F
330
1F
100
AcDbEntity
  8
0-0
  6
Continuous
 62
     3
370
     9
100
AcDbLine
 10
-286.6667051573057
 20
-301.2508373621745
 30
0.0
 11
-3.33326185071769
 21
-301.2508373621745
 31
0.0
  0
LINE
  5
80
330
1F
100
AcDbEntity
  8
0-0
  6
Continuous
 62
     3
370
     9
100
AcDbLine
 10
105.5004222972974
 20
-121.6597564130613
 30
0.0
 11
113.1698195998734
 21
-119.6046449661652
 31
0.0
  0
LINE
  5
81
330
1F
100
AcDbEntity
  8
0-0
  6
Continuous
 62
     3
370
     9
100
AcDbLine
 10
103.0975341796875
 20
-124.2111084242522
 30
0.0
 11
101.8885432062925
 21
-130.118734189666
 31
0.0
  0
LINE
  5
82
330
1F
100
AcDbEntity
  8
0-0
  6
Continuous
 62
     3
370
     9
100
AcDbLine
 10
98.28433474978908
 20
-133.9461333661862
 30
0.0
 11
81.71576422614038
 21
-138.3854512240832
 31
0.0
  0
LINE
  5
83
330
1F
100
AcDbEntity
  8
0-0
  6
Continuous
 62
     3
370
     9
100
AcDbLine
 10
61.65383828652892
 20
-133.4083229116888
 30
0.0
 11
69.32298814928231
 21
-131.3534589046152
 31
0.0
  0
LINE
  5
84
330
1F
100
AcDbEntity
  8
0-0
  6
Continuous
 62
     3
370
     9
100
AcDbLine
 10
72.6800042229732
 20
-132.3614050221195
 30
0.0
 11
76.68061127533804
 21
-136.8730990281372
 31
0.0
  0
LINE
  5
85
330
1F
100
AcDbEntity
  8
0-0
  6
Continuous
 62
     3
370
     9
100
AcDbLine
 10
25.77654864337006
 20
-143.0214837409751
 30
0.0
 11
51.99452993032111
 21
-135.9965434564523
 31
0.0
  0
LINE
  5
86
330
1F
100
AcDbEntity
  8
0-0
  6
Continuous
 62
     3
370
     9
100
AcDbLine
 10
4.584070154138544
 20
-198.5535370955992
 30
0.0
 11
-29.99985153610623
 21
-201.2510023220561
 31
0.0
  0
LINE
  5
87
330
1F
100
AcDbEntity
  8
0-0
  6
Continuous
 62
     3
370
     9
100
AcDbLine
 10
13.73167295713699
 20
-189.802209168551
 30
0.0
 11
18.43946302259297
 21
-151.4619035308822
 31
0.0
  0
LINE
  5
88
330
1F
100
AcDbEntity
  8
0-0
  6
Continuous
 62
     3
370
     9
100
AcDbLine
 10
-257.2221085831924
 20
-217.9175590154684
 30
0.0
 11
-32.77785842483098
 21
-217.9175590154684
 31
0.0
  0
LINE
  5
89
330
1F
100
AcDbEntity
  8
0-0
  6
Continuous
 62
     3
370
     9
100
AcDbLine
 10
-273.3331628747888
 20
-251.250796122204
 30
0.0
 11
-16.66680413323462
 21
-251.250796122204
 31
0.0
  0
LINE
  5
8A
330
1F
100
AcDbEntity
  8
0-4
  6
Continuous
 62
     7
370
     9
100
AcDbLine
 10
-265.2176315720016
 20
-534.5843631487031
 30
0.0
 11
-24.78233543602187
 21
-534.5843631487031
 31
0.0
  0
LINE
  5
8B
330
1F
100
AcDbEntity
  8
0-4
  6
Continuous
 62
     7
370
     9
100
AcDbLine
 10
-265.2176315720016
 20
-311.2509940740621
 30
0.0
 11
-265.2176315720016
 21
-537.5841998384202
 31
0.0
  0
LINE
  5
8C
330
1F
100
AcDbEntity
  8
0-4
  6
Continuous
 62
     7
370
     9
100
AcDbLine
 10
-24.78233543602187
 20
-311.2509940740621
 30
0.0
 11
-24.78233543602187
 21
-537.5841998384202
 31
0.0
  0
LINE
  5
8D
330
1F
100
AcDbEntity
  8
0-4
  6
Continuous
 62
     7
370
     9
100
AcDbLine
 10
-265.2176315720016
 20
-534.5843631487031
 30
0.0
 11
-240.4315845386401
 21
-531.3212504877024
 31
0.0
  0
LINE
  5
8E
330
1F
100
AcDbEntity
  8
0-4
  6
Continuous
 62
     7
370
     9
100
AcDbLine
 10
-265.2176315720016
 20
-534.5843631487031
 30
0.0
 11
-240.4315845386401
 21
-537.8474758097041
 31
0.0
  0
LINE
  5
8F
330
1F
100
AcDbEntity
  8
0-4
  6
Continuous
 62
     7
370
     9
100
AcDbLine
 10
-24.78233543602187
 20
-534.5843631487031
 30
0.0
 11
-49.56838246938332
 21
-531.3212504877024
 31
0.0
  0
LINE
  5
90
330
1F
100
AcDbEntity
  8
0-4
  6
Continuous
 62
     7
370
     9
100
AcDbLine
 10
-24.78233543602187
 20
-534.5843631487031
 30
0.0
 11
-49.56838246938332
 21
-537.8474758097041
 31
0.0
  0
LINE
  5
91
330
1F
100
AcDbEntity
  8
0-0
  6
Continuous
 62
     3
370
     9
100
AcDbLine
 10
-270.3064789643159
 20
-301.2508373621745
 30
0.0
 11
-265.047887853674
 21
-295.9922462515325
 31
0.0
  0
LINE
  5
92
330
1F
100
AcDbEntity
  8
0-0
  6
Continuous
 62
     3
370
     9
100
AcDbLine
 10
-265.047887853674
 20
-295.9922462515325
 30
0.0
 11
-262.2515704180742
 21
-251.250796122204
 31
0.0
  0
LINE
  5
93
330
1F
100
AcDbEntity
  8
0-0
  6
Continuous
 62
     3
370
     9
100
AcDbLine
 10
-19.69348804370753
 20
-301.2508373621745
 30
0.0
 11
-24.95207915434946
 21
-295.9922462515325
 31
0.0
  0
LINE
  5
94
330
1F
100
AcDbEntity
  8
0-0
  6
Continuous
 62
     3
370
     9
100
AcDbLine
 10
-265.047887853674
 20
-295.9922462515325
 30
0.0
 11
-24.95207915434946
 21
-295.9922462515325
 31
0.0
  0
LINE
  5
95
330
1F
100
AcDbEntity
  8
0-0
  6
Continuous
 62
     3
370
     9
100
AcDbLine
 10
-24.95207915434946
 20
-295.9922462515325
 30
0.0
 11
-27.74839658994921
 21
-251.250796122204
 31
0.0
  0
LINE
  5
96
330
1F
100
AcDbEntity
  8
0-0
  6
Continuous
 62
     3
370
     9
100
AcDbLine
 10
-375.6727888777448
 20
-197.0395765408061
 30
0.0
 11
-382.8218202333193
 21
-152.2780837858441
 31
0.0
  0
LINE
  5
97
330
1F
100
AcDbEntity
  8
0-0
  6
JWW_CENTER1
 62
     3
370
     9
100
AcDbLine
 10
-358.3331958667651
 20
-251.250796122204
 30
0.0
 11
-358.3331958667651
 21
-164.5841322048686
 31
0.0
  0
LINE
  5
98
330
1F
100
AcDbEntity
  8
0-4
  6
Continuous
 62
     7
370
     9
100
AcDbLine
 10
195.0001484638938
 20
-101.2509198421152
 30
0.0
 11
371.3334367081927
 21
-101.2509198421152
 31
0.0
  0
LINE
  5
99
330
1F
100
AcDbEntity
  8
0-1
  6
Continuous
 62
     2
370
     9
100
AcDbLine
 10
-444.9999835040117
 20
-108.3962396003501
 30
0.0
 11
-443.3333525786529
 21
-101.729592179003
 31
0.0
  0
LINE
  5
9A
330
1F
100
AcDbEntity
  8
0-1
  6
Continuous
 62
     2
370
     9
100
AcDbLine
 10
-424.8034503008867
 20
-101.729592179003
 30
0.0
 11
-443.3333525786529
 21
-101.729592179003
 31
0.0
  0
LINE
  5
9B
330
1F
100
AcDbEntity
  8
0-1
  6
Continuous
 62
     2
370
     9
100
AcDbLine
 10
-379.9998927760768
 20
-88.3964210562199
 30
0.0
 11
-389.9999257680531
 21
-88.3964210562199
 31
0.0
  0
LINE
  5
9C
330
1F
100
AcDbEntity
  8
0-1
  6
Continuous
 62
     2
370
     9
100
AcDbLine
 10
-391.6432973500844
 20
-99.12714384443788
 30
0.0
 11
-389.9999257680531
 21
-88.3964210562199
 31
0.0
  0
LINE
  5
9D
330
1F
100
AcDbEntity
  8
0-1
  6
Continuous
 62
     2
370
     9
100
AcDbLine
 10
-379.9998927760768
 20
-88.3964210562199
 30
0.0
 11
-375.773002005912
 21
-110.9493236902993
 31
0.0
  0
LINE
  5
9E
330
1F
100
AcDbEntity
  8
0-1
  6
Continuous
 62
     2
370
     9
100
AcDbLine
 10
155.0000164959883
 20
-108.3962396003501
 30
0.0
 11
153.333261850718
 21
-101.729592179003
 31
0.0
  0
LINE
  5
9F
330
1F
100
AcDbEntity
  8
0-1
  6
Continuous
 62
     2
370
     9
100
AcDbLine
 10
134.8034832928633
 20
-101.729592179003
 30
0.0
 11
153.333261850718
 21
-101.729592179003
 31
0.0
  0
LINE
  5
A0
330
1F
100
AcDbEntity
  8
0-1
  6
Continuous
 62
     2
370
     9
100
AcDbLine
 10
101.6435777818836
 20
-99.12714384443788
 30
0.0
 11
100.0000824799409
 21
-88.3964210562199
 31
0.0
  0
LINE
  5
A1
330
1F
100
AcDbEntity
  8
0-1
  6
Continuous
 62
     2
370
     9
100
AcDbLine
 10
-308.3335257865286
 20
-126.7296746589439
 30
0.0
 11
-305.000016495988
 21
-143.3963550722673
 31
0.0
  0
LINE
  5
A2
330
1F
100
AcDbEntity
  8
0-1
  6
Continuous
 62
     2
370
     9
100
AcDbLine
 10
-268.3331463788005
 20
-126.7296746589439
 30
0.0
 11
-271.6666556693411
 21
-143.3963550722673
 31
0.0
  0
LINE
  5
A3
330
1F
100
AcDbEntity
  8
0-1
  6
Continuous
 62
     2
370
     9
100
AcDbLine
 10
-247.5293958509289
 20
-130.7492108577402
 30
0.0
 11
-244.9998185441299
 21
-143.3963550722673
 31
0.0
  0
LINE
  5
A4
330
1F
100
AcDbEntity
  8
0-1
  6
Continuous
 62
     2
370
     9
100
AcDbLine
 10
-252.4321684966216
 20
-126.7296746589439
 30
0.0
 11
-331.5015638196789
 21
-126.7296746589439
 31
0.0
  0
LINE
  5
A5
330
1F
100
AcDbEntity
  8
0-1
  6
Continuous
 62
     2
370
     9
100
AcDbLine
 10
-331.5015638196789
 20
-126.7296746589439
 30
0.0
 11
-370.9458222260346
 21
-116.1606537948181
 31
0.0
  0
LINE
  5
A6
330
1F
100
AcDbEntity
  8
0-1
  6
Continuous
 62
     2
370
     9
100
AcDbLine
 10
-404.1162439294763
 20
-107.2728628055866
 30
0.0
 11
-424.8034503008867
 21
-101.729592179003
 31
0.0
  0
LINE
  5
A7
330
1F
100
AcDbEntity
  8
0-1
  6
JWW_DASHED1
 62
     2
370
     9
100
AcDbLine
 10
-370.9458222260346
 20
-116.1606537948181
 30
0.0
 11
-404.1162439294763
 21
-107.2728628055866
 31
0.0
  0
LINE
  5
A8
330
1F
100
AcDbEntity
  8
0-1
  6
Continuous
 62
     2
370
     9
100
AcDbLine
 10
42.59973474451016
 20
-112.5205665640324
 30
0.0
 11
40.74269887563361
 21
-122.9577020026939
 31
0.0
  0
LINE
  5
A9
330
1F
100
AcDbEntity
  8
0-1
  6
JWW_DASHED1
 62
     2
370
     9
100
AcDbLine
 10
87.01617266680756
 20
-104.3174415640324
 30
0.0
 11
85.77303499788854
 21
-110.9493236902993
 31
0.0
  0
LINE
  5
AA
330
1F
100
AcDbEntity
  8
0-1
  6
Continuous
 62
     2
370
     9
100
AcDbLine
 10
22.84117002744949
 20
-131.7296911549319
 30
0.0
 11
35.9045080236487
 21
-128.2294074239353
 31
0.0
  0
LINE
  5
AB
330
1F
100
AcDbEntity
  8
0-1
  6
JWW_DASHED1
 62
     2
370
     9
100
AcDbLine
 10
35.9045080236487
 20
-128.2294074239353
 30
0.0
 11
114.1165243612755
 21
-107.2726153657639
 31
0.0
  0
LINE
  5
AC
330
1F
100
AcDbEntity
  8
0-1
  6
Continuous
 62
     2
370
     9
100
AcDbLine
 10
114.1165243612755
 20
-107.2726153657639
 30
0.0
 11
134.8034832928633
 21
-101.729592179003
 31
0.0
  0
LINE
  5
AD
330
1F
100
AcDbEntity
  8
0-1
  6
Continuous
 62
     2
370
     9
100
AcDbLine
 10
90.00004948796459
 20
-88.3964210562199
 30
0.0
 11
87.01617266680756
 21
-104.3174415640324
 31
0.0
  0
LINE
  5
AE
330
1F
100
AcDbEntity
  8
0-1
  6
Continuous
 62
     2
370
     9
100
AcDbLine
 10
90.00004948796459
 20
-88.3964210562199
 30
0.0
 11
100.0000824799409
 21
-88.3964210562199
 31
0.0
  0
LINE
  5
AF
330
1F
100
AcDbEntity
  8
0-1
  6
Continuous
 62
     4
370
     9
100
AcDbLine
 10
-274.9999175200591
 20
-163.9960914663763
 30
0.0
 11
-301.66675464527
 21
-163.9960914663763
 31
0.0
  0
LINE
  5
B0
330
1F
100
AcDbEntity
  8
0-1
  6
Continuous
 62
     4
370
     9
100
AcDbLine
 10
-301.66675464527
 20
-163.9960914663763
 30
0.0
 11
-299.4117118216849
 21
-166.2508868501389
 31
0.0
  0
LINE
  5
B1
330
1F
100
AcDbEntity
  8
0-1
  6
Continuous
 62
     4
370
     9
100
AcDbLine
 10
-299.4117118216849
 20
-166.2508868501389
 30
0.0
 11
-277.2548366237331
 21
-166.2508868501389
 31
0.0
  0
LINE
  5
B2
330
1F
100
AcDbEntity
  8
0-1
  6
Continuous
 62
     4
370
     9
100
AcDbLine
 10
-277.2548366237331
 20
-166.2508868501389
 30
0.0
 11
-274.9999175200591
 21
-163.9960914663763
 31
0.0
  0
LINE
  5
B3
330
1F
100
AcDbEntity
  8
0-1
  6
Continuous
 62
     4
370
     9
100
AcDbLine
 10
-313.3334185626055
 20
-107.4687114252022
 30
0.0
 11
-313.3334185626055
 21
-126.7296746589439
 31
0.0
  0
LINE
  5
B4
330
1F
100
AcDbEntity
  8
0-1
  6
Continuous
 62
     4
370
     9
100
AcDbLine
 10
-263.3331298828125
 20
-107.4687114252022
 30
0.0
 11
-263.3331298828125
 21
-126.7296746589439
 31
0.0
  0
LINE
  5
B5
330
1F
100
AcDbEntity
  8
0-1
  6
Continuous
 62
     4
370
     9
100
AcDbLine
 10
-313.3334185626055
 20
-126.7296746589439
 30
0.0
 11
-263.3331298828125
 21
-126.7296746589439
 31
0.0
  0
LINE
  5
B6
330
1F
100
AcDbEntity
  8
0-1
  6
Continuous
 62
     4
370
     9
100
AcDbLine
 10
-300.8240983292862
 20
-107.4687114252022
 30
0.0
 11
-300.8240983292862
 21
-126.7296746589439
 31
0.0
  0
LINE
  5
B7
330
1F
100
AcDbEntity
  8
0-1
  6
Continuous
 62
     4
370
     9
100
AcDbLine
 10
-275.8424501161318
 20
-107.4687114252022
 30
0.0
 11
-275.8424501161318
 21
-126.7296746589439
 31
0.0
  0
LINE
  5
B8
330
1F
100
AcDbEntity
  8
0-1
  6
Continuous
 62
     4
370
     9
100
AcDbLine
 10
-307.0786347260346
 20
-105.0629777496322
 30
0.0
 11
-269.5879137193833
 21
-105.0629777496322
 31
0.0
  0
LINE
  5
B9
330
1F
100
AcDbEntity
  8
0-1
  6
Continuous
 62
     4
370
     9
100
AcDbLine
 10
-299.4117118216849
 20
-126.7296746589439
 30
0.0
 11
-299.4117118216849
 21
-166.2508868501389
 31
0.0
  0
LINE
  5
BA
330
1F
100
AcDbEntity
  8
0-1
  6
Continuous
 62
     4
370
     9
100
AcDbLine
 10
-301.66675464527
 20
-126.7296746589439
 30
0.0
 11
-301.66675464527
 21
-163.9960914663763
 31
0.0
  0
LINE
  5
BB
330
1F
100
AcDbEntity
  8
0-1
  6
Continuous
 62
     4
370
     9
100
AcDbLine
 10
-277.2548366237331
 20
-126.7296746589439
 30
0.0
 11
-277.2548366237331
 21
-166.2508868501389
 31
0.0
  0
LINE
  5
BC
330
1F
100
AcDbEntity
  8
0-1
  6
Continuous
 62
     4
370
     9
100
AcDbLine
 10
-274.9999175200591
 20
-126.7296746589439
 30
0.0
 11
-274.9999175200591
 21
-163.9960914663763
 31
0.0
  0
LINE
  5
BD
330
1F
100
AcDbEntity
  8
0-1
  6
Continuous
 62
     4
370
     9
100
AcDbLine
 10
-274.9999175200591
 20
-35.17285752687044
 30
0.0
 11
-301.66675464527
 21
-35.17285752687044
 31
0.0
  0
LINE
  5
BE
330
1F
100
AcDbEntity
  8
0-1
  6
Continuous
 62
     4
370
     9
100
AcDbLine
 10
-301.66675464527
 20
-35.17285752687044
 30
0.0
 11
-299.4117118216849
 21
-32.91769098337383
 31
0.0
  0
LINE
  5
BF
330
1F
100
AcDbEntity
  8
0-1
  6
Continuous
 62
     4
370
     9
100
AcDbLine
 10
-299.4117118216849
 20
-32.91769098337383
 30
0.0
 11
-277.2548366237331
 21
-32.91769098337383
 31
0.0
  0
LINE
  5
C0
330
1F
100
AcDbEntity
  8
0-1
  6
Continuous
 62
     4
370
     9
100
AcDbLine
 10
-277.2548366237331
 20
-32.91769098337383
 30
0.0
 11
-274.9999175200591
 21
-35.17285752687044
 31
0.0
  0
LINE
  5
C1
330
1F
100
AcDbEntity
  8
0-1
  6
Continuous
 62
     4
370
     9
100
AcDbLine
 10
-299.4117118216849
 20
-105.0629777496322
 30
0.0
 11
-299.4117118216849
 21
-32.91769098337383
 31
0.0
  0
LINE
  5
C2
330
1F
100
AcDbEntity
  8
0-1
  6
Continuous
 62
     4
370
     9
100
AcDbLine
 10
-301.66675464527
 20
-105.0629777496322
 30
0.0
 11
-301.66675464527
 21
-35.17285752687044
 31
0.0
  0
LINE
  5
C3
330
1F
100
AcDbEntity
  8
0-1
  6
Continuous
 62
     4
370
     9
100
AcDbLine
 10
-277.2548366237331
 20
-105.0629777496322
 30
0.0
 11
-277.2548366237331
 21
-32.91769098337383
 31
0.0
  0
LINE
  5
C4
330
1F
100
AcDbEntity
  8
0-1
  6
Continuous
 62
     4
370
     9
100
AcDbLine
 10
-274.9999175200591
 20
-105.0629777496322
 30
0.0
 11
-274.9999175200591
 21
-35.17285752687044
 31
0.0
  0
LINE
  5
C5
330
1F
100
AcDbEntity
  8
0-1
  6
JWW_CENTER1
 62
     4
370
     9
100
AcDbLine
 10
-288.3333360826646
 20
-25.78461949635923
 30
0.0
 11
-288.3333360826646
 21
-180.3373885129345
 31
0.0
  0
LINE
  5
C6
330
1F
100
AcDbEntity
  8
0-1
  6
Continuous
 62
     2
370
     9
100
AcDbLine
 10
-301.66675464527
 20
-143.3963550722673
 30
0.0
 11
-314.3771197344805
 21
-143.3963550722673
 31
0.0
  0
LINE
  5
C7
330
1F
100
AcDbEntity
  8
0-1
  6
JWW_CENTER1
 62
     2
370
     9
100
AcDbLine
 10
66.66672165329402
 20
-63.34326273432382
 30
0.0
 11
66.66672165329402
 21
-138.0897606360342
 31
0.0
  0
LINE
  5
C8
330
1F
100
AcDbEntity
  8
0-1
  6
Continuous
 62
     2
370
     9
100
AcDbLine
 10
-323.6274100638724
 20
921.7192488128678
 30
0.0
 11
-330.7191591005068
 21
928.8111215694134
 31
0.0
  0
LINE
  5
C9
330
1F
100
AcDbEntity
  8
0-1
  6
Continuous
 62
     2
370
     9
100
AcDbLine
 10
-316.7891631255279
 20
921.9523371257902
 30
0.0
 11
-329.7730729386612
 21
934.9362469389235
 31
0.0
  0
LINE
  5
CA
330
1F
100
AcDbEntity
  8
0-1
  6
Continuous
 62
     2
370
     9
100
AcDbLine
 10
-366.5558686127534
 20
847.3653141897681
 30
0.0
 11
-376.2432613888302
 21
849.9609579292108
 31
0.0
  0
LINE
  5
CB
330
1F
100
AcDbEntity
  8
0-1
  6
Continuous
 62
     2
370
     9
100
AcDbLine
 10
-363.3384085990286
 20
841.3267927581803
 30
0.0
 11
-381.0746476456924
 21
846.0791219917108
 31
0.0
  0
LINE
  5
CC
330
1F
100
AcDbEntity
  8
0-1
  6
Continuous
 62
     2
370
     9
100
AcDbLine
 10
-381.0746476456924
 20
846.0791219917108
 30
0.0
 11
-376.2432613888302
 21
849.9609579292108
 31
0.0
  0
LINE
  5
CD
330
1F
100
AcDbEntity
  8
0-1
  6
Continuous
 62
     2
370
     9
100
AcDbLine
 10
-366.5558686127534
 20
847.3653141897681
 30
0.0
 11
-363.3384085990286
 21
841.3267927581803
 31
0.0
  0
LINE
  5
CE
330
1F
100
AcDbEntity
  8
0-1
  6
Continuous
 62
     2
370
     9
100
AcDbLine
 10
-323.6274100638724
 20
921.7192488128678
 30
0.0
 11
-316.7891631255279
 21
921.9523371257902
 31
0.0
  0
LINE
  5
CF
330
1F
100
AcDbEntity
  8
0-1
  6
Continuous
 62
     2
370
     9
100
AcDbLine
 10
-329.7730729386612
 20
934.9362469389235
 30
0.0
 11
-330.7191591005068
 21
928.8111215694134
 31
0.0
  0
LINE
  5
D0
330
1F
100
AcDbEntity
  8
0-1
  6
Continuous
 62
     2
370
     9
100
AcDbLine
 10
-223.3458647856841
 20
990.5750705770147
 30
0.0
 11
-225.9415085251266
 21
1000.262587073003
 31
0.0
  0
LINE
  5
D1
330
1F
100
AcDbEntity
  8
0-1
  6
Continuous
 62
     2
370
     9
100
AcDbLine
 10
-217.3073433540961
 20
987.3578580031129
 30
0.0
 11
-222.0596725876266
 21
1005.094097049777
 31
0.0
  0
LINE
  5
D2
330
1F
100
AcDbEntity
  8
0-1
  6
Continuous
 62
     2
370
     9
100
AcDbLine
 10
-297.7000468486062
 20
947.6467357480452
 30
0.0
 11
-304.7917958852406
 21
954.7383610647681
 31
0.0
  0
LINE
  5
D3
330
1F
100
AcDbEntity
  8
0-1
  6
Continuous
 62
     2
370
     9
100
AcDbLine
 10
-297.9331351615286
 20
940.8084888097006
 30
0.0
 11
-310.9167975348393
 21
953.792398622834
 31
0.0
  0
LINE
  5
D4
330
1F
100
AcDbEntity
  8
0-1
  6
Continuous
 62
     2
370
     9
100
AcDbLine
 10
-310.9167975348393
 20
953.792398622834
 30
0.0
 11
-304.7917958852406
 21
954.7383610647681
 31
0.0
  0
LINE
  5
D5
330
1F
100
AcDbEntity
  8
0-1
  6
Continuous
 62
     2
370
     9
100
AcDbLine
 10
-297.7000468486062
 20
947.6467357480452
 30
0.0
 11
-297.9331351615286
 21
940.8084888097006
 31
0.0
  0
LINE
  5
D6
330
1F
100
AcDbEntity
  8
0-1
  6
Continuous
 62
     2
370
     9
100
AcDbLine
 10
-223.3458647856841
 20
990.5750705770147
 30
0.0
 11
-217.3073433540961
 21
987.3578580031129
 31
0.0
  0
LINE
  5
D7
330
1F
100
AcDbEntity
  8
0-1
  6
Continuous
 62
     2
370
     9
100
AcDbLine
 10
-222.0596725876266
 20
1005.094097049777
 30
0.0
 11
-225.9415085251266
 21
1000.262587073003
 31
0.0
  0
LINE
  5
D8
330
1F
100
AcDbEntity
  8
0-1
  6
Continuous
 62
     2
370
     9
100
AcDbLine
 10
-102.0716486750422
 20
1000.06513009454
 30
0.0
 11
-99.47600493559946
 21
1009.752894030351
 31
0.0
  0
LINE
  5
D9
330
1F
100
AcDbEntity
  8
0-1
  6
Continuous
 62
     2
370
     9
100
AcDbLine
 10
-98.45061431059946
 20
994.2596969758746
 30
0.0
 11
-93.69828507706927
 21
1011.995936022538
 31
0.0
  0
LINE
  5
DA
330
1F
100
AcDbEntity
  8
0-1
  6
Continuous
 62
     2
370
     9
100
AcDbLine
 10
-187.9283183329812
 20
1000.06513009454
 30
0.0
 11
-190.5242095122466
 21
1009.752646590528
 31
0.0
  0
LINE
  5
DB
330
1F
100
AcDbEntity
  8
0-1
  6
Continuous
 62
     2
370
     9
100
AcDbLine
 10
-191.549352697424
 20
994.2596969758746
 30
0.0
 11
-196.3016819309541
 21
1011.995936022538
 31
0.0
  0
LINE
  5
DC
330
1F
100
AcDbEntity
  8
0-1
  6
Continuous
 62
     2
370
     9
100
AcDbLine
 10
-196.3016819309541
 20
1011.995936022538
 30
0.0
 11
-190.5242095122466
 21
1009.752646590528
 31
0.0
  0
LINE
  5
DD
330
1F
100
AcDbEntity
  8
0-1
  6
Continuous
 62
     2
370
     9
100
AcDbLine
 10
-187.9283183329812
 20
1000.06513009454
 30
0.0
 11
-191.549352697424
 21
994.2596969758746
 31
0.0
  0
LINE
  5
DE
330
1F
100
AcDbEntity
  8
0-1
  6
Continuous
 62
     2
370
     9
100
AcDbLine
 10
-102.0716486750422
 20
1000.06513009454
 30
0.0
 11
-98.45061431059946
 21
994.2596969758746
 31
0.0
  0
LINE
  5
DF
330
1F
100
AcDbEntity
  8
0-1
  6
Continuous
 62
     2
370
     9
100
AcDbLine
 10
-93.69828507706927
 20
1011.995936022538
 30
0.0
 11
-99.47600493559946
 21
1009.752894030351
 31
0.0
  0
LINE
  5
E0
330
1F
100
AcDbEntity
  8
0-1
  6
Continuous
 62
     2
370
     9
100
AcDbLine
 10
7.699832400760158
 20
947.6467357480452
 30
0.0
 11
14.79170515730573
 21
954.7386085045907
 31
0.0
  0
LINE
  5
E1
330
1F
100
AcDbEntity
  8
0-1
  6
Continuous
 62
     2
370
     9
100
AcDbLine
 10
7.932920713682563
 20
940.8084888097006
 30
0.0
 11
20.91683052681589
 21
953.7926460626567
 31
0.0
  0
LINE
  5
E2
330
1F
100
AcDbEntity
  8
0-1
  6
Continuous
 62
     2
370
     9
100
AcDbLine
 10
-66.6541022223393
 20
990.5750705770147
 30
0.0
 11
-64.05845848289687
 21
1000.262834512826
 31
0.0
  0
LINE
  5
E3
330
1F
100
AcDbEntity
  8
0-1
  6
Continuous
 62
     2
370
     9
100
AcDbLine
 10
-72.69262365392734
 20
987.3578580031129
 30
0.0
 11
-67.94029442039687
 21
1005.094097049777
 31
0.0
  0
LINE
  5
E4
330
1F
100
AcDbEntity
  8
0-1
  6
Continuous
 62
     2
370
     9
100
AcDbLine
 10
-67.94029442039687
 20
1005.094097049777
 30
0.0
 11
-64.05845848289687
 21
1000.262834512826
 31
0.0
  0
LINE
  5
E5
330
1F
100
AcDbEntity
  8
0-1
  6
Continuous
 62
     2
370
     9
100
AcDbLine
 10
-66.6541022223393
 20
990.5750705770147
 30
0.0
 11
-72.69262365392734
 21
987.3578580031129
 31
0.0
  0
LINE
  5
E6
330
1F
100
AcDbEntity
  8
0-1
  6
Continuous
 62
     2
370
     9
100
AcDbLine
 10
7.699832400760158
 20
947.6467357480452
 30
0.0
 11
7.932920713682563
 21
940.8084888097006
 31
0.0
  0
LINE
  5
E7
330
1F
100
AcDbEntity
  8
0-1
  6
Continuous
 62
     2
370
     9
100
AcDbLine
 10
20.91683052681589
 20
953.7926460626567
 30
0.0
 11
14.79170515730573
 21
954.7386085045907
 31
0.0
  0
LINE
  5
E8
330
1F
100
AcDbEntity
  8
0-1
  6
Continuous
 62
     2
370
     9
100
AcDbLine
 10
76.55565416490731
 20
847.3653141897681
 30
0.0
 11
86.24317066089532
 21
849.9609579292108
 31
0.0
  0
LINE
  5
E9
330
1F
100
AcDbEntity
  8
0-1
  6
Continuous
 62
     2
370
     9
100
AcDbLine
 10
73.33844159100522
 20
841.3267927581803
 30
0.0
 11
91.07468063766902
 21
846.0791219917108
 31
0.0
  0
LINE
  5
EA
330
1F
100
AcDbEntity
  8
0-1
  6
Continuous
 62
     2
370
     9
100
AcDbLine
 10
33.6273193359375
 20
921.7194962526905
 30
0.0
 11
40.7189446526607
 21
928.8111215694134
 31
0.0
  0
LINE
  5
EB
330
1F
100
AcDbEntity
  8
0-1
  6
Continuous
 62
     2
370
     9
100
AcDbLine
 10
26.78907239759297
 20
921.9523371257902
 30
0.0
 11
39.77298221072658
 21
934.9362469389235
 31
0.0
  0
LINE
  5
EC
330
1F
100
AcDbEntity
  8
0-1
  6
Continuous
 62
     2
370
     9
100
AcDbLine
 10
39.77298221072658
 20
934.9362469389235
 30
0.0
 11
40.7189446526607
 21
928.8111215694134
 31
0.0
  0
LINE
  5
ED
330
1F
100
AcDbEntity
  8
0-1
  6
Continuous
 62
     2
370
     9
100
AcDbLine
 10
33.6273193359375
 20
921.7194962526905
 30
0.0
 11
26.78907239759297
 21
921.9523371257902
 31
0.0
  0
LINE
  5
EE
330
1F
100
AcDbEntity
  8
0-1
  6
Continuous
 62
     2
370
     9
100
AcDbLine
 10
76.55565416490731
 20
847.3653141897681
 30
0.0
 11
73.33844159100522
 21
841.3267927581803
 31
0.0
  0
LINE
  5
EF
330
1F
100
AcDbEntity
  8
0-1
  6
Continuous
 62
     2
370
     9
100
AcDbLine
 10
91.07468063766902
 20
846.0791219917108
 30
0.0
 11
86.24317066089532
 21
849.9609579292108
 31
0.0
  0
LINE
  5
F0
330
1F
100
AcDbEntity
  8
0-1
  6
Continuous
 62
     2
370
     9
100
AcDbLine
 10
86.04571368243256
 20
811.9477677370655
 30
0.0
 11
95.73323017842085
 21
814.5436589163306
 31
0.0
  0
LINE
  5
F1
330
1F
100
AcDbEntity
  8
0-1
  6
Continuous
 62
     2
370
     9
100
AcDbLine
 10
80.24028056376693
 20
815.5688021015079
 30
0.0
 11
97.97651961043073
 21
820.3211313350384
 31
0.0
  0
LINE
  5
F2
330
1F
100
AcDbEntity
  8
0-1
  6
Continuous
 62
     2
370
     9
100
AcDbLine
 10
97.97651961043073
 20
820.3211313350384
 30
0.0
 11
95.73323017842085
 21
814.5436589163306
 31
0.0
  0
LINE
  5
F3
330
1F
100
AcDbEntity
  8
0-1
  6
Continuous
 62
     2
370
     9
100
AcDbLine
 10
86.04571368243256
 20
811.9477677370655
 30
0.0
 11
80.24028056376693
 21
815.5688021015079
 31
0.0
  0
LINE
  5
F4
330
1F
100
AcDbEntity
  8
0-1
  6
Continuous
 62
     2
370
     9
100
AcDbLine
 10
86.66654019742424
 20
-128.4314420391171
 30
0.0
 11
93.33331133868256
 21
-126.6450502396027
 31
0.0
  0
LINE
  5
F5
330
1F
100
AcDbEntity
  8
0-1
  6
Continuous
 62
     2
370
     9
100
AcDbLine
 10
86.66654019742424
 20
-128.4314420391171
 30
0.0
 11
83.33303090688361
 21
-127.5993019155949
 31
0.0
  0
LINE
  5
F6
330
1F
100
AcDbEntity
  8
0-1
  6
Continuous
 62
     2
370
     9
100
AcDbLine
 10
24.37702900654585
 20
-143.3963550722673
 30
0.0
 11
83.33303090688361
 21
-127.5993019155949
 31
0.0
  0
LINE
  5
F7
330
1F
100
AcDbEntity
  8
0-1
  6
Continuous
 62
     2
370
     9
100
AcDbLine
 10
93.33331133868256
 20
-126.6450502396027
 30
0.0
 11
96.66706806904585
 21
-124.0263945966551
 31
0.0
  0
LINE
  5
F8
330
1F
100
AcDbEntity
  8
0-1
  6
Continuous
 62
     2
370
     9
100
AcDbLine
 10
96.66706806904585
 20
-124.0263945966551
 30
0.0
 11
155.0000164959883
 21
-108.3962396003501
 31
0.0
  0
LINE
  5
F9
330
1F
100
AcDbEntity
  8
0-1
  6
Continuous
 62
     2
370
     9
100
AcDbLine
 10
-376.6665072054477
 20
-128.4314420391171
 30
0.0
 11
-383.333278346706
 21
-126.6450502396027
 31
0.0
  0
LINE
  5
FA
330
1F
100
AcDbEntity
  8
0-1
  6
Continuous
 62
     2
370
     9
100
AcDbLine
 10
-383.333278346706
 20
-126.6450502396027
 30
0.0
 11
-386.6667876372466
 21
-124.0265183165663
 31
0.0
  0
LINE
  5
FB
330
1F
100
AcDbEntity
  8
0-1
  6
Continuous
 62
     2
370
     9
100
AcDbLine
 10
-386.6667876372466
 20
-124.0265183165663
 30
0.0
 11
-444.9999835040117
 21
-108.3962396003501
 31
0.0
  0
LINE
  5
FC
330
1F
100
AcDbEntity
  8
0-1
  6
Continuous
 62
     2
370
     9
100
AcDbLine
 10
-376.6665072054477
 20
-128.4314420391171
 30
0.0
 11
-373.3332453547297
 21
-127.5993019155949
 31
0.0
  0
LINE
  5
FD
330
1F
100
AcDbEntity
  8
0-1
  6
Continuous
 62
     2
370
     9
100
AcDbLine
 10
-314.3771197344805
 20
-143.3963550722673
 30
0.0
 11
-373.3332453547297
 21
-127.5993019155949
 31
0.0
  0
LINE
  5
FE
330
1F
100
AcDbEntity
  8
0-1
  6
Continuous
 62
     2
370
     9
100
AcDbLine
 10
-376.045680690456
 20
811.9477677370655
 30
0.0
 11
-385.7331971864443
 21
814.5436589163306
 31
0.0
  0
LINE
  5
FF
330
1F
100
AcDbEntity
  8
0-1
  6
Continuous
 62
     2
370
     9
100
AcDbLine
 10
-370.2402475717903
 20
815.5688021015079
 30
0.0
 11
-387.9764866184544
 21
820.3211313350384
 31
0.0
  0
LINE
  5
100
330
1F
100
AcDbEntity
  8
0-1
  6
Continuous
 62
     2
370
     9
100
AcDbLine
 10
-387.9764866184544
 20
820.3211313350384
 30
0.0
 11
-385.7331971864443
 21
814.5436589163306
 31
0.0
  0
LINE
  5
101
330
1F
100
AcDbEntity
  8
0-1
  6
Continuous
 62
     2
370
     9
100
AcDbLine
 10
-376.045680690456
 20
811.9477677370655
 30
0.0
 11
-370.2402475717903
 21
815.5688021015079
 31
0.0
  0
LINE
  5
102
330
1F
100
AcDbEntity
  8
0-1
  6
Continuous
 62
     2
370
     9
100
AcDbLine
 10
-274.9999175200591
 20
-143.3963550722673
 30
0.0
 11
24.37702900654585
 21
-143.3963550722673
 31
0.0
  0
LINE
  5
103
330
1F
100
AcDbEntity
  8
0-1
  6
Continuous
 62
     2
370
     9
100
AcDbLine
 10
0.9761501002958539
 20
-134.1473019419885
 30
0.0
 11
-1.666507205447658
 21
-143.3963550722673
 31
0.0
  0
LINE
  5
104
330
1F
100
AcDbEntity
  8
0-1
  6
Continuous
 62
     2
370
     9
100
AcDbLine
 10
-247.3331760715794
 20
-131.7296911549319
 30
0.0
 11
22.84117002744949
 21
-131.7296911549319
 31
0.0
  0
LINE
  5
105
330
1F
100
AcDbEntity
  8
0-1
  6
Continuous
 62
     4
370
     9
100
AcDbLine
 10
-263.3333773226352
 20
769.019432908096
 30
0.0
 11
-263.3242220491977
 21
769.0352690567447
 31
0.0
  0
LINE
  5
106
330
1F
100
AcDbEntity
  8
0-0
  6
Continuous
 62
     3
370
     9
100
AcDbLine
 10
-475.0000824799409
 20
-101.2509198421152
 30
0.0
 11
-392.213151261613
 21
-101.2509198421152
 31
0.0
  0
LINE
  5
107
330
1F
100
AcDbEntity
  8
0-0
  6
Continuous
 62
     3
370
     9
100
AcDbLine
 10
102.2134316934122
 20
-101.2509198421152
 30
0.0
 11
185.0001154719175
 21
-101.2509198421152
 31
0.0
  0
LINE
  5
108
330
1F
100
AcDbEntity
  8
0-1
  6
Continuous
 62
     2
370
     9
100
AcDbLine
 10
76.66650720544766
 20
-108.3962396003501
 30
0.0
 11
82.10177034945104
 21
-108.3962396003501
 31
0.0
  0
LINE
  5
109
330
1F
100
AcDbEntity
  8
0-0
  6
Continuous
 62
     3
370
     9
100
AcDbLine
 10
-272.7625666437922
 20
-146.2509445860975
 30
0.0
 11
-274.9999175200591
 21
-146.2509445860975
 31
0.0
  0
LINE
  5
10A
330
1F
100
AcDbEntity
  8
0-0
  6
Continuous
 62
     3
370
     9
100
AcDbLine
 10
-301.66675464527
 20
-146.2509445860975
 30
0.0
 11
-310.7059788059544
 21
-146.2509445860975
 31
0.0
  0
LINE
  5
10B
330
1F
100
AcDbEntity
  8
0-4
  6
Continuous
 62
     7
370
     9
100
AcDbLine
 10
-444.9999835040117
 20
291.1025297989319
 30
0.0
 11
155.0000164959883
 21
291.1025297989319
 31
0.0
  0
LINE
  5
10C
330
1F
100
AcDbEntity
  8
0-4
  6
Continuous
 62
     7
370
     9
100
AcDbLine
 10
-444.9999835040117
 20
-78.39626434433242
 30
0.0
 11
-444.9999835040117
 21
294.1024902085603
 31
0.0
  0
LINE
  5
10D
330
1F
100
AcDbEntity
  8
0-4
  6
Continuous
 62
     7
370
     9
100
AcDbLine
 10
155.0000164959883
 20
-78.39626434433242
 30
0.0
 11
155.0000164959883
 21
294.1024902085603
 31
0.0
  0
LINE
  5
10E
330
1F
100
AcDbEntity
  8
0-4
  6
Continuous
 62
     7
370
     9
100
AcDbLine
 10
-444.9999835040117
 20
291.1025297989319
 30
0.0
 11
-420.2138127507391
 21
294.3656424599329
 31
0.0
  0
LINE
  5
10F
330
1F
100
AcDbEntity
  8
0-4
  6
Continuous
 62
     7
370
     9
100
AcDbLine
 10
-444.9999835040117
 20
291.1025297989319
 30
0.0
 11
-420.2138127507391
 21
287.8394171379312
 31
0.0
  0
LINE
  5
110
330
1F
100
AcDbEntity
  8
0-4
  6
Continuous
 62
     7
370
     9
100
AcDbLine
 10
155.0000164959883
 20
291.1025297989319
 30
0.0
 11
130.2139694626268
 21
294.3656424599329
 31
0.0
  0
LINE
  5
111
330
1F
100
AcDbEntity
  8
0-4
  6
Continuous
 62
     7
370
     9
100
AcDbLine
 10
155.0000164959883
 20
291.1025297989319
 30
0.0
 11
130.2139694626268
 21
287.8394171379312
 31
0.0
  0
LINE
  5
112
330
1F
100
AcDbEntity
  8
0-4
  6
Continuous
 62
     7
370
     9
100
AcDbLine
 10
-478.3333443306586
 20
371.1025462949202
 30
0.0
 11
188.3333773226352
 21
371.1025462949202
 31
0.0
  0
LINE
  5
113
330
1F
100
AcDbEntity
  8
0-4
  6
Continuous
 62
     7
370
     9
100
AcDbLine
 10
-478.3333443306586
 20
-97.91765799139725
 30
0.0
 11
-478.3333443306586
 21
374.1025067045485
 31
0.0
  0
LINE
  5
114
330
1F
100
AcDbEntity
  8
0-4
  6
Continuous
 62
     7
370
     9
100
AcDbLine
 10
188.3333773226352
 20
-97.91765799139725
 30
0.0
 11
188.3333773226352
 21
374.1025067045485
 31
0.0
  0
LINE
  5
115
330
1F
100
AcDbEntity
  8
0-4
  6
Continuous
 62
     7
370
     9
100
AcDbLine
 10
-478.3333443306586
 20
371.1025462949202
 30
0.0
 11
-453.5471735773859
 21
374.3656589559209
 31
0.0
  0
LINE
  5
116
330
1F
100
AcDbEntity
  8
0-4
  6
Continuous
 62
     7
370
     9
100
AcDbLine
 10
-478.3333443306586
 20
371.1025462949202
 30
0.0
 11
-453.5471735773859
 21
367.8394336339194
 31
0.0
  0
LINE
  5
117
330
1F
100
AcDbEntity
  8
0-4
  6
Continuous
 62
     7
370
     9
100
AcDbLine
 10
188.3333773226352
 20
371.1025462949202
 30
0.0
 11
163.5473302892737
 21
374.3656589559209
 31
0.0
  0
LINE
  5
118
330
1F
100
AcDbEntity
  8
0-4
  6
Continuous
 62
     7
370
     9
100
AcDbLine
 10
188.3333773226352
 20
371.1025462949202
 30
0.0
 11
163.5473302892737
 21
367.8394336339194
 31
0.0
  0
LINE
  5
119
330
1F
100
AcDbEntity
  8
0-0
  6
JWW_CENTER1
 62
     3
370
     9
100
AcDbLine
 10
-498.5322282120987
 20
769.019432908096
 30
0.0
 11
208.28197582348
 21
769.019432908096
 31
0.0
  0
LINE
  5
11A
330
1F
100
AcDbEntity
  8
0-0
  6
JWW_CENTER1
 62
     3
370
     9
100
AcDbLine
 10
-144.9999835040117
 20
1118.544513408518
 30
0.0
 11
-144.9999835040117
 21
754.0240847767614
 31
0.0
  0
LINE
  5
11B
330
1F
100
AcDbEntity
  8
0-E
  6
Continuous
 62
     7
370
     9
100
AcDbLine
 10
281.0619457347974
 20
318.0317768560478
 30
0.0
 11
627.5296597867401
 21
318.0317768560478
 31
0.0
  0
LINE
  5
11C
330
1F
100
AcDbEntity
  8
0-E
  6
Continuous
 62
     7
370
     9
100
AcDbLine
 10
273.997786238387
 20
425.1775502539574
 30
0.0
 11
698.8581476984797
 21
425.1775502539574
 31
0.0
  0
LINE
  5
11D
330
1F
100
AcDbEntity
  8
0-E
  6
Continuous
 62
     7
370
     9
100
AcDbLine
 10
251.070259712838
 20
193.0354472134168
 30
0.0
 11
632.8053242451438
 21
193.0354472134168
 31
0.0
  0
LINE
  5
11E
330
1F
100
AcDbEntity
  8
0-E
  6
Continuous
 62
     7
370
     9
100
AcDbLine
 10
-562.2711181640625
 20
181.8980570766981
 30
0.0
 11
-884.1493761217271
 21
181.8980570766981
 31
0.0
  0
LINE
  5
11F
330
1F
100
AcDbEntity
  8
0-E
  6
Continuous
 62
     7
370
     9
100
AcDbLine
 10
-579.9019478462835
 20
-222.0324832658906
 30
0.0
 11
-876.2971207902237
 21
-222.0324832658906
 31
0.0
  0
LINE
  5
120
330
1F
100
AcDbEntity
  8
0-4
  6
Continuous
 62
     7
370
     9
100
AcDbLine
 10
236.205559807855
 20
-301.2508373621745
 30
0.0
 11
236.205559807855
 21
-101.2509198421152
 31
0.0
  0
LINE
  5
121
330
1F
100
AcDbEntity
  8
0-4
  6
Continuous
 62
     7
370
     9
100
AcDbLine
 10
11.66678763724661
 20
-301.2508373621745
 30
0.0
 11
239.2055202174834
 21
-301.2508373621745
 31
0.0
  0
LINE
  5
122
330
1F
100
AcDbEntity
  8
0-4
  6
Continuous
 62
     7
370
     9
100
AcDbLine
 10
236.205559807855
 20
-301.2508373621745
 30
0.0
 11
232.9423234269427
 21
-276.4646666089016
 31
0.0
  0
LINE
  5
123
330
1F
100
AcDbEntity
  8
0-4
  6
Continuous
 62
     7
370
     9
100
AcDbLine
 10
236.205559807855
 20
-301.2508373621745
 30
0.0
 11
239.4687961887669
 21
-276.4646666089016
 31
0.0
  0
LINE
  5
124
330
1F
100
AcDbEntity
  8
0-4
  6
Continuous
 62
     7
370
     9
100
AcDbLine
 10
236.205559807855
 20
-101.2509198421152
 30
0.0
 11
232.9423234269427
 21
-126.0370905953882
 31
0.0
  0
LINE
  5
125
330
1F
100
AcDbEntity
  8
0-4
  6
Continuous
 62
     7
370
     9
100
AcDbLine
 10
236.205559807855
 20
-101.2509198421152
 30
0.0
 11
239.4687961887669
 21
-126.0370905953882
 31
0.0
  0
LINE
  5
126
330
1F
100
AcDbEntity
  8
0-5
  6
Continuous
 62
     2
370
     9
100
AcDbLine
 10
-475.9470346811653
 20
-377.4635399329093
 30
0.0
 11
-478.3333443306586
 21
-367.9175590154683
 31
0.0
  0
LINE
  5
127
330
1F
100
AcDbEntity
  8
0-5
  6
Continuous
 62
     2
370
     9
100
AcDbLine
 10
-425.9811401367188
 20
-381.2508538581626
 30
0.0
 11
-471.0962243982263
 21
-381.2508538581626
 31
0.0
  0
LINE
  5
128
330
1F
100
AcDbEntity
  8
0-5
  6
Continuous
 62
     2
370
     9
100
AcDbLine
 10
-419.6906012457768
 20
-390.7968347756035
 30
0.0
 11
-421.1303298537794
 21
-385.038167783416
 31
0.0
  0
LINE
  5
129
330
1F
100
AcDbEntity
  8
0-5
  6
Continuous
 62
     2
370
     9
100
AcDbLine
 10
-415.5707281989018
 20
-367.9175590154683
 30
0.0
 11
-478.3333443306586
 21
-367.9175590154683
 31
0.0
  0
LINE
  5
12A
330
1F
100
AcDbEntity
  8
0-5
  6
Continuous
 62
     2
370
     9
100
AcDbLine
 10
-409.2803130278716
 20
-377.4635399329093
 30
0.0
 11
-410.7199179159628
 21
-371.7048729407218
 31
0.0
  0
LINE
  5
12B
330
1F
100
AcDbEntity
  8
0-5
  6
Continuous
 62
     2
370
     9
100
AcDbLine
 10
5.719818940033861
 20
-390.7968347756035
 30
0.0
 11
3.333509290540633
 21
-381.2508538581626
 31
0.0
  0
LINE
  5
12C
330
1F
100
AcDbEntity
  8
0-5
  6
Continuous
 62
     2
370
     9
100
AcDbLine
 10
185.9470676731419
 20
-377.4635399329093
 30
0.0
 11
188.3333773226352
 21
-367.9175590154683
 31
0.0
  0
LINE
  5
12D
330
1F
100
AcDbEntity
  8
0-5
  6
Continuous
 62
     2
370
     9
100
AcDbLine
 10
135.9810494087839
 20
-381.2508538581626
 30
0.0
 11
181.0962573902029
 21
-381.2508538581626
 31
0.0
  0
LINE
  5
12E
330
1F
100
AcDbEntity
  8
0-5
  6
Continuous
 62
     2
370
     9
100
AcDbLine
 10
129.6906342377534
 20
-390.7968347756035
 30
0.0
 11
131.1302391258448
 21
-385.038167783416
 31
0.0
  0
LINE
  5
12F
330
1F
100
AcDbEntity
  8
0-5
  6
Continuous
 62
     2
370
     9
100
AcDbLine
 10
120.7199509079393
 20
-371.7048729407218
 30
0.0
 11
119.2803460198482
 21
-377.4635399329093
 31
0.0
  0
LINE
  5
130
330
1F
100
AcDbEntity
  8
0-5
  6
Continuous
 62
     2
370
     9
100
AcDbLine
 10
125.5707611908784
 20
-367.9175590154683
 30
0.0
 11
188.3333773226352
 21
-367.9175590154683
 31
0.0
  0
LINE
  5
131
330
1F
100
AcDbEntity
  8
0-0
  6
Continuous
 62
     4
370
     9
100
AcDbLine
 10
-333.3334845465581
 20
-413.8453593744211
 30
0.0
 11
-333.3334845465581
 21
-394.5841487008569
 31
0.0
  0
LINE
  5
132
330
1F
100
AcDbEntity
  8
0-0
  6
Continuous
 62
     4
370
     9
100
AcDbLine
 10
-383.3335257865286
 20
-413.8453593744211
 30
0.0
 11
-383.3335257865286
 21
-394.5841487008569
 31
0.0
  0
LINE
  5
133
330
1F
100
AcDbEntity
  8
0-5
  6
Continuous
 62
     4
370
     9
100
AcDbLine
 10
-333.3334845465581
 20
-394.5841487008569
 30
0.0
 11
-383.3335257865286
 21
-394.5841487008569
 31
0.0
  0
LINE
  5
134
330
1F
100
AcDbEntity
  8
0-0
  6
Continuous
 62
     4
370
     9
100
AcDbLine
 10
-345.8426810599661
 20
-413.8453593744211
 30
0.0
 11
-345.8426810599661
 21
-394.5841487008569
 31
0.0
  0
LINE
  5
135
330
1F
100
AcDbEntity
  8
0-0
  6
Continuous
 62
     4
370
     9
100
AcDbLine
 10
-370.8243292731206
 20
-413.8453593744211
 30
0.0
 11
-370.8243292731206
 21
-394.5841487008569
 31
0.0
  0
LINE
  5
136
330
1F
100
AcDbEntity
  8
0-0
  6
Continuous
 62
     4
370
     9
100
AcDbLine
 10
-339.5881446632177
 20
-416.2509693300798
 30
0.0
 11
-377.0789893897802
 21
-416.2509693300798
 31
0.0
  0
LINE
  5
137
330
1F
100
AcDbEntity
  8
0-0
  6
Continuous
 62
     4
370
     9
100
AcDbLine
 10
-371.6668618691932
 20
-167.5059016305444
 30
0.0
 11
-345.0001484638935
 21
-167.5059016305444
 31
0.0
  0
LINE
  5
138
330
1F
100
AcDbEntity
  8
0-0
  6
Continuous
 62
     4
370
     9
100
AcDbLine
 10
-345.0001484638935
 20
-167.5059016305444
 30
0.0
 11
-347.2550675675674
 21
-165.2509825268703
 31
0.0
  0
LINE
  5
139
330
1F
100
AcDbEntity
  8
0-0
  6
Continuous
 62
     4
370
     9
100
AcDbLine
 10
-347.2550675675674
 20
-165.2509825268703
 30
0.0
 11
-369.4118190456081
 21
-165.2509825268703
 31
0.0
  0
LINE
  5
13A
330
1F
100
AcDbEntity
  8
0-0
  6
Continuous
 62
     3
370
     9
100
AcDbLine
 10
-347.2550675675674
 20
-161.2508703541508
 30
0.0
 11
-369.4118190456081
 21
-161.2508703541508
 31
0.0
  0
LINE
  5
13B
330
1F
100
AcDbEntity
  8
0-0
  6
Continuous
 62
     3
370
     9
100
AcDbLine
 10
-347.2550675675674
 20
-161.2508703541508
 30
0.0
 11
-358.3334433065878
 21
-154.8547983788552
 31
0.0
  0
LINE
  5
13C
330
1F
100
AcDbEntity
  8
0-0
  6
Continuous
 62
     3
370
     9
100
AcDbLine
 10
-369.4118190456081
 20
-161.2508703541508
 30
0.0
 11
-358.3334433065878
 21
-154.8547983788552
 31
0.0
  0
LINE
  5
13D
330
1F
100
AcDbEntity
  8
0-0
  6
Continuous
 62
     4
370
     9
100
AcDbLine
 10
-369.4118190456081
 20
-165.2509825268703
 30
0.0
 11
-347.2550675675674
 21
-165.2509825268703
 31
0.0
  0
LINE
  5
13E
330
1F
100
AcDbEntity
  8
0-0
  6
Continuous
 62
     4
370
     9
100
AcDbLine
 10
-371.6668618691932
 20
-167.5059016305444
 30
0.0
 11
-345.0001484638935
 21
-167.5059016305444
 31
0.0
  0
LINE
  5
13F
330
1F
100
AcDbEntity
  8
0-0
  6
Continuous
 62
     4
370
     9
100
AcDbLine
 10
-347.2550675675674
 20
-165.2509825268703
 30
0.0
 11
-345.0001484638935
 21
-167.5059016305444
 31
0.0
  0
LINE
  5
140
330
1F
100
AcDbEntity
  8
0-0
  6
Continuous
 62
     4
370
     9
100
AcDbLine
 10
-369.4118190456081
 20
-165.2509825268703
 30
0.0
 11
-371.6668618691932
 21
-167.5059016305444
 31
0.0
  0
LINE
  5
141
330
1F
100
AcDbEntity
  8
0-0
  6
Continuous
 62
     4
370
     9
100
AcDbLine
 10
-369.4118190456081
 20
-165.2509825268703
 30
0.0
 11
-371.6668618691932
 21
-167.5059016305444
 31
0.0
  0
LINE
  5
142
330
1F
100
AcDbEntity
  8
0-0
  6
Continuous
 62
     4
370
     9
100
AcDbLine
 10
-345.0001484638935
 20
-429.6627025965495
 30
0.0
 11
-347.2550675675674
 21
-431.9173742604008
 31
0.0
  0
LINE
  5
143
330
1F
100
AcDbEntity
  8
0-0
  6
Continuous
 62
     4
370
     9
100
AcDbLine
 10
-369.4118190456081
 20
-431.9173742604008
 30
0.0
 11
-371.6668618691932
 21
-429.6627025965495
 31
0.0
  0
LINE
  5
144
330
1F
100
AcDbEntity
  8
0-0
  6
JWW_CENTER1
 62
     4
370
     9
100
AcDbLine
 10
-358.3334433065878
 20
-442.6476021689734
 30
0.0
 11
-358.3334433065878
 21
-153.885824033416
 31
0.0
  0
LINE
  5
145
330
1F
100
AcDbEntity
  8
0-0
  6
Continuous
 62
     4
370
     9
100
AcDbLine
 10
-345.0001484638935
 20
-429.6627025965495
 30
0.0
 11
-345.0001484638935
 21
-416.2509693300798
 31
0.0
  0
LINE
  5
146
330
1F
100
AcDbEntity
  8
0-0
  6
Continuous
 62
     4
370
     9
100
AcDbLine
 10
-347.2550675675674
 20
-431.9173742604008
 30
0.0
 11
-347.2550675675674
 21
-416.2509693300798
 31
0.0
  0
LINE
  5
147
330
1F
100
AcDbEntity
  8
0-0
  6
Continuous
 62
     4
370
     9
100
AcDbLine
 10
-369.4118190456081
 20
-431.9173742604008
 30
0.0
 11
-369.4118190456081
 21
-416.2509693300798
 31
0.0
  0
LINE
  5
148
330
1F
100
AcDbEntity
  8
0-0
  6
Continuous
 62
     4
370
     9
100
AcDbLine
 10
-371.6668618691932
 20
-429.6627025965495
 30
0.0
 11
-371.6668618691932
 21
-416.2509693300798
 31
0.0
  0
LINE
  5
149
330
1F
100
AcDbEntity
  8
0-5
  6
Continuous
 62
     2
370
     9
100
AcDbLine
 10
-378.7833548880911
 20
-384.4952848125544
 30
0.0
 11
-375.0002474398227
 21
-394.5841487008569
 31
0.0
  0
LINE
  5
14A
330
1F
100
AcDbEntity
  8
0-5
  6
Continuous
 62
     2
370
     9
100
AcDbLine
 10
-337.8835317250844
 20
-384.4952848125544
 30
0.0
 11
-341.6668866131755
 21
-394.5841487008569
 31
0.0
  0
LINE
  5
14B
330
1F
100
AcDbEntity
  8
0-5
  6
Continuous
 62
     2
370
     9
100
AcDbLine
 10
-404.4295027449323
 20
-381.2508538581626
 30
0.0
 11
-371.6668618691932
 21
-381.2508538581626
 31
0.0
  0
LINE
  5
14C
330
1F
100
AcDbEntity
  8
0-5
  6
Continuous
 62
     2
370
     9
100
AcDbLine
 10
-383.4651637721706
 20
-381.2508538581626
 30
0.0
 11
-371.6668618691932
 21
-381.2508538581626
 31
0.0
  0
LINE
  5
14D
330
1F
100
AcDbEntity
  8
0-5
  6
Continuous
 62
     2
370
     9
100
AcDbLine
 10
-345.0001484638935
 20
-381.2508538581626
 30
0.0
 11
-333.2017228410049
 21
-381.2508538581626
 31
0.0
  0
LINE
  5
14E
330
1F
100
AcDbEntity
  8
0-0
  6
Continuous
 62
     4
370
     9
100
AcDbLine
 10
-356.3333872202278
 20
-425.250850558965
 30
0.0
 11
-356.3333872202278
 21
-431.9173742604008
 31
0.0
  0
LINE
  5
14F
330
1F
100
AcDbEntity
  8
0-0
  6
Continuous
 62
     4
370
     9
100
AcDbLine
 10
-356.3333872202278
 20
-425.250850558965
 30
0.0
 11
-360.3333756730362
 21
-425.250850558965
 31
0.0
  0
LINE
  5
150
330
1F
100
AcDbEntity
  8
0-0
  6
Continuous
 62
     4
370
     9
100
AcDbLine
 10
-360.3333756730362
 20
-425.250850558965
 30
0.0
 11
-360.3333756730362
 21
-431.9173742604008
 31
0.0
  0
LINE
  5
151
330
1F
100
AcDbEntity
  8
0-0
  6
Continuous
 62
     4
370
     9
100
AcDbLine
 10
-371.6668618691932
 20
-429.6627025965495
 30
0.0
 11
-360.3333756730362
 21
-429.6627025965495
 31
0.0
  0
LINE
  5
152
330
1F
100
AcDbEntity
  8
0-0
  6
Continuous
 62
     4
370
     9
100
AcDbLine
 10
-356.3333872202278
 20
-429.6627025965495
 30
0.0
 11
-345.0001484638935
 21
-429.6627025965495
 31
0.0
  0
LINE
  5
153
330
1F
100
AcDbEntity
  8
0-0
  6
Continuous
 62
     4
370
     9
100
AcDbLine
 10
-347.2550675675674
 20
-431.9173742604008
 30
0.0
 11
-356.3333872202278
 21
-431.9173742604008
 31
0.0
  0
LINE
  5
154
330
1F
100
AcDbEntity
  8
0-0
  6
Continuous
 62
     4
370
     9
100
AcDbLine
 10
-360.3333756730362
 20
-431.9173742604008
 30
0.0
 11
-369.4118190456081
 21
-431.9173742604008
 31
0.0
  0
LINE
  5
155
330
1F
100
AcDbEntity
  8
0-5
  6
Continuous
 62
     2
370
     9
100
AcDbLine
 10
-295.7200333878799
 20
-390.7968347756035
 30
0.0
 11
-293.3334762985641
 21
-381.2508538581626
 31
0.0
  0
LINE
  5
156
330
1F
100
AcDbEntity
  8
0-5
  6
Continuous
 62
     2
370
     9
100
AcDbLine
 10
-345.0001484638935
 20
-381.2508538581626
 30
0.0
 11
114.4295357369089
 21
-381.2508538581626
 31
0.0
  0
LINE
  5
157
330
1F
100
AcDbEntity
  8
0-5
  6
Continuous
 62
     2
370
     9
100
AcDbLine
 10
124.8398239548143
 20
-394.5841487008569
 30
0.0
 11
-414.8399146827489
 21
-394.5841487008569
 31
0.0
  0
LINE
  5
158
330
1F
100
AcDbEntity
  8
0-0
  6
Continuous
 62
     3
370
     9
100
AcDbLine
 10
-369.4118190456081
 20
-161.2508703541508
 30
0.0
 11
-369.4118190456081
 21
-165.2509825268703
 31
0.0
  0
LINE
  5
159
330
1F
100
AcDbEntity
  8
0-0
  6
Continuous
 62
     3
370
     9
100
AcDbLine
 10
-347.2550675675674
 20
-161.2508703541508
 30
0.0
 11
-347.2550675675674
 21
-165.2509825268703
 31
0.0
  0
LINE
  5
15A
330
1F
100
AcDbEntity
  8
0-0
  6
Continuous
 62
     7
370
     9
100
AcDbLine
 10
-381.6667711412583
 20
-277.2625363169886
 30
0.0
 11
-335.0001154719172
 21
-269.0338012953458
 31
0.0
  0
LINE
  5
15B
330
1F
100
AcDbEntity
  8
0-0
  6
Continuous
 62
     7
370
     9
100
AcDbLine
 10
-381.6667711412583
 20
-290.8014536522927
 30
0.0
 11
-335.0001154719172
 21
-282.5728423505612
 31
0.0
  0
LINE
  5
15C
330
1F
100
AcDbEntity
  8
0-0
  6
Continuous
 62
     4
370
     9
100
AcDbLine
 10
-345.0001484638935
 20
-394.5841487008569
 30
0.0
 11
-345.0001484638935
 21
-284.3360985266593
 31
0.0
  0
LINE
  5
15D
330
1F
100
AcDbEntity
  8
0-0
  6
Continuous
 62
     4
370
     9
100
AcDbLine
 10
-345.0001484638935
 20
-270.7970574714438
 30
0.0
 11
-345.0001484638935
 21
-167.5059016305444
 31
0.0
  0
LINE
  5
15E
330
1F
100
AcDbEntity
  8
0-0
  6
Continuous
 62
     4
370
     9
100
AcDbLine
 10
-347.2550675675674
 20
-394.5841487008569
 30
0.0
 11
-347.2550675675674
 21
-284.7337343216338
 31
0.0
  0
LINE
  5
15F
330
1F
100
AcDbEntity
  8
0-0
  6
Continuous
 62
     4
370
     9
100
AcDbLine
 10
-347.2550675675674
 20
-271.1946932664185
 30
0.0
 11
-347.2550675675674
 21
-165.2509825268703
 31
0.0
  0
LINE
  5
160
330
1F
100
AcDbEntity
  8
0-0
  6
Continuous
 62
     4
370
     9
100
AcDbLine
 10
-371.6668618691932
 20
-394.5841487008569
 30
0.0
 11
-371.6668618691932
 21
-289.0381974761947
 31
0.0
  0
LINE
  5
161
330
1F
100
AcDbEntity
  8
0-0
  6
Continuous
 62
     4
370
     9
100
AcDbLine
 10
-371.6668618691932
 20
-275.4992801408906
 30
0.0
 11
-371.6668618691932
 21
-167.5059016305444
 31
0.0
  0
LINE
  5
162
330
1F
100
AcDbEntity
  8
0-0
  6
Continuous
 62
     4
370
     9
100
AcDbLine
 10
-369.4118190456081
 20
-394.5841487008569
 30
0.0
 11
-369.4118190456081
 21
-288.64056168122
 31
0.0
  0
LINE
  5
163
330
1F
100
AcDbEntity
  8
0-0
  6
Continuous
 62
     4
370
     9
100
AcDbLine
 10
-369.4118190456081
 20
-275.101644345916
 30
0.0
 11
-369.4118190456081
 21
-165.2509825268703
 31
0.0
  0
LINE
  5
164
330
1F
100
AcDbEntity
  8
0-0
  6
Continuous
 62
     3
370
     9
100
AcDbLine
 10
-345.0001484638935
 20
-201.2510023220561
 30
0.0
 11
-330.9727849187075
 21
-201.2510023220561
 31
0.0
  0
LINE
  5
165
330
1F
100
AcDbEntity
  8
0-4
  6
Continuous
 62
     7
370
     9
100
AcDbLine
 10
368.3334762985643
 20
-367.9175590154683
 30
0.0
 11
368.3334762985643
 21
-101.2509198421152
 31
0.0
  0
LINE
  5
166
330
1F
100
AcDbEntity
  8
0-4
  6
Continuous
 62
     7
370
     9
100
AcDbLine
 10
203.3334268105997
 20
-367.9175590154683
 30
0.0
 11
371.3334367081927
 21
-367.9175590154683
 31
0.0
  0
LINE
  5
167
330
1F
100
AcDbEntity
  8
0-4
  6
Continuous
 62
     7
370
     9
100
AcDbLine
 10
368.3334762985643
 20
-367.9175590154683
 30
0.0
 11
365.0702399176521
 21
-343.1313882621956
 31
0.0
  0
LINE
  5
168
330
1F
100
AcDbEntity
  8
0-4
  6
Continuous
 62
     7
370
     9
100
AcDbLine
 10
368.3334762985643
 20
-367.9175590154683
 30
0.0
 11
371.5967126794766
 21
-343.1313882621956
 31
0.0
  0
LINE
  5
169
330
1F
100
AcDbEntity
  8
0-4
  6
Continuous
 62
     7
370
     9
100
AcDbLine
 10
368.3334762985643
 20
-101.2509198421152
 30
0.0
 11
365.0702399176521
 21
-126.0370905953882
 31
0.0
  0
LINE
  5
16A
330
1F
100
AcDbEntity
  8
0-4
  6
Continuous
 62
     7
370
     9
100
AcDbLine
 10
368.3334762985643
 20
-101.2509198421152
 30
0.0
 11
371.5967126794766
 21
-126.0370905953882
 31
0.0
  0
LINE
  5
16B
330
1F
100
AcDbEntity
  8
0-E
  6
Continuous
 62
     7
370
     9
100
AcDbLine
 10
224.8042751002959
 20
-513.9321695121955
 30
0.0
 11
649.6646365603885
 21
-513.9321695121955
 31
0.0
  0
LINE
  5
16C
330
1F
100
AcDbEntity
  8
0-E
  6
Continuous
 62
     7
370
     9
100
AcDbLine
 10
224.8042751002959
 20
-513.9321695121955
 30
0.0
 11
124.8398239548143
 21
-394.5841487008569
 31
0.0
  0
LINE
  5
16D
330
1F
100
AcDbEntity
  8
0-E
  6
Continuous
 62
     7
370
     9
100
AcDbLine
 10
124.8398239548143
 20
-394.5841487008569
 30
0.0
 11
143.2567699535474
 21
-411.4902890025355
 31
0.0
  0
LINE
  5
16E
330
1F
100
AcDbEntity
  8
0-E
  6
Continuous
 62
     7
370
     9
100
AcDbLine
 10
124.8398239548143
 20
-394.5841487008569
 30
0.0
 11
138.2535367398651
 21
-415.6808679787285
 31
0.0
  0
LINE
  5
16F
330
1F
100
AcDbEntity
  8
0-E
  6
Continuous
 62
     7
370
     9
100
AcDbLine
 10
-579.9019478462835
 20
-222.0324832658906
 30
0.0
 11
-468.3333113386823
 21
-127.9176332474152
 31
0.0
  0
LINE
  5
170
330
1F
100
AcDbEntity
  8
0-E
  6
Continuous
 62
     7
370
     9
100
AcDbLine
 10
-468.3333113386823
 20
-127.9176332474152
 30
0.0
 11
-485.1748079866977
 21
-146.3935936438467
 31
0.0
  0
LINE
  5
171
330
1F
100
AcDbEntity
  8
0-E
  6
Continuous
 62
     7
370
     9
100
AcDbLine
 10
-468.3333113386823
 20
-127.9176332474152
 30
0.0
 11
-489.3828933303419
 21
-141.4052068195224
 31
0.0
  0
LINE
  5
172
330
1F
100
AcDbEntity
  8
0-E
  6
Continuous
 62
     7
370
     9
100
AcDbLine
 10
-562.2711181640625
 20
181.8980570766981
 30
0.0
 11
-301.66675464527
 21
-35.17285752687044
 31
0.0
  0
LINE
  5
173
330
1F
100
AcDbEntity
  8
0-E
  6
Continuous
 62
     7
370
     9
100
AcDbLine
 10
-301.66675464527
 20
-35.17285752687044
 30
0.0
 11
-322.7999712969805
 21
-21.81679822049361
 31
0.0
  0
LINE
  5
174
330
1F
100
AcDbEntity
  8
0-E
  6
Continuous
 62
     7
370
     9
100
AcDbLine
 10
-301.66675464527
 20
-35.17285752687044
 30
0.0
 11
-318.623063370988
 21
-16.80218277496991
 31
0.0
  0
LINE
  5
175
330
1F
100
AcDbEntity
  8
0-4
  6
Continuous
 62
     7
370
     9
100
AcDbLine
 10
-286.6667051573057
 20
-607.1884033461271
 30
0.0
 11
-3.33326185071769
 21
-607.1884033461271
 31
0.0
  0
LINE
  5
176
330
1F
100
AcDbEntity
  8
0-4
  6
Continuous
 62
     7
370
     9
100
AcDbLine
 10
-286.6667051573057
 20
-316.250886850139
 30
0.0
 11
-286.6667051573057
 21
-610.1884256157111
 31
0.0
  0
LINE
  5
177
330
1F
100
AcDbEntity
  8
0-4
  6
Continuous
 62
     7
370
     9
100
AcDbLine
 10
-3.33326185071769
 20
-316.250886850139
 30
0.0
 11
-3.33326185071769
 21
-610.1884256157111
 31
0.0
  0
LINE
  5
178
330
1F
100
AcDbEntity
  8
0-4
  6
Continuous
 62
     7
370
     9
100
AcDbLine
 10
-286.6667051573057
 20
-607.1884033461271
 30
0.0
 11
-261.8805344040328
 21
-603.9252288251705
 31
0.0
  0
LINE
  5
179
330
1F
100
AcDbEntity
  8
0-4
  6
Continuous
 62
     7
370
     9
100
AcDbLine
 10
-286.6667051573057
 20
-607.1884033461271
 30
0.0
 11
-261.8805344040328
 21
-610.4515778670836
 31
0.0
  0
LINE
  5
17A
330
1F
100
AcDbEntity
  8
0-4
  6
Continuous
 62
     7
370
     9
100
AcDbLine
 10
-3.33326185071769
 20
-607.1884033461271
 30
0.0
 11
-28.11943260399062
 21
-603.9252288251705
 31
0.0
  0
LINE
  5
17B
330
1F
100
AcDbEntity
  8
0-4
  6
Continuous
 62
     7
370
     9
100
AcDbLine
 10
-3.33326185071769
 20
-607.1884033461271
 30
0.0
 11
-28.11943260399062
 21
-610.4515778670836
 31
0.0
  0
LINE
  5
17C
330
1F
100
AcDbEntity
  8
0-4
  6
Continuous
 62
     7
370
     9
100
AcDbLine
 10
-478.3333443306586
 20
-686.8938427332682
 30
0.0
 11
188.3333773226352
 21
-686.8938427332682
 31
0.0
  0
LINE
  5
17D
330
1F
100
AcDbEntity
  8
0-4
  6
Continuous
 62
     7
370
     9
100
AcDbLine
 10
-478.3333443306586
 20
-382.9175466434772
 30
0.0
 11
-478.3333443306586
 21
-689.8938650028522
 31
0.0
  0
LINE
  5
17E
330
1F
100
AcDbEntity
  8
0-4
  6
Continuous
 62
     7
370
     9
100
AcDbLine
 10
188.3333773226352
 20
-382.9175466434772
 30
0.0
 11
188.3333773226352
 21
-689.8938650028522
 31
0.0
  0
LINE
  5
17F
330
1F
100
AcDbEntity
  8
0-4
  6
Continuous
 62
     7
370
     9
100
AcDbLine
 10
-478.3333443306586
 20
-686.8938427332682
 30
0.0
 11
-453.5471735773859
 21
-683.6306682123118
 31
0.0
  0
LINE
  5
180
330
1F
100
AcDbEntity
  8
0-4
  6
Continuous
 62
     7
370
     9
100
AcDbLine
 10
-478.3333443306586
 20
-686.8938427332682
 30
0.0
 11
-453.5471735773859
 21
-690.1570172542247
 31
0.0
  0
LINE
  5
181
330
1F
100
AcDbEntity
  8
0-4
  6
Continuous
 62
     7
370
     9
100
AcDbLine
 10
188.3333773226352
 20
-686.8938427332682
 30
0.0
 11
163.5473302892737
 21
-683.6306682123118
 31
0.0
  0
LINE
  5
182
330
1F
100
AcDbEntity
  8
0-4
  6
Continuous
 62
     7
370
     9
100
AcDbLine
 10
188.3333773226352
 20
-686.8938427332682
 30
0.0
 11
163.5473302892737
 21
-690.1570172542247
 31
0.0
  0
LINE
  5
183
330
1F
100
AcDbEntity
  8
0-2
  6
Continuous
 62
     6
370
     9
100
AcDbLine
 10
83.33327834670627
 20
-90.06292826166757
 30
0.0
 11
80.00026393581095
 21
-108.3962396003501
 31
0.0
  0
LINE
  5
184
330
1F
100
AcDbEntity
  8
0-2
  6
Continuous
 62
     6
370
     9
100
AcDbLine
 10
-373.3332453547297
 20
-90.06292826166757
 30
0.0
 11
-369.9999835040117
 21
-108.3962396003501
 31
0.0
  0
LINE
  5
185
330
1F
100
AcDbEntity
  8
0-2
  6
Continuous
 62
     6
370
     9
100
AcDbLine
 10
80.00026393581095
 20
-86.578233239497
 30
0.0
 11
83.33327834670627
 21
-90.06292826166757
 31
0.0
  0
LINE
  5
186
330
1F
100
AcDbEntity
  8
0-2
  6
Continuous
 62
     6
370
     9
100
AcDbLine
 10
54.16655669341225
 20
-88.76646731097097
 30
0.0
 11
49.16678763724661
 21
-108.3962396003501
 31
0.0
  0
LINE
  5
187
330
1F
100
AcDbEntity
  8
0-2
  6
Continuous
 62
     6
370
     9
100
AcDbLine
 10
76.66675464527032
 20
-108.3962396003501
 30
0.0
 11
80.00026393581095
 21
-108.3962396003501
 31
0.0
  0
LINE
  5
188
330
1F
100
AcDbEntity
  8
0-2
  6
Continuous
 62
     6
370
     9
100
AcDbLine
 10
49.16678763724661
 20
-85.08617110900715
 30
0.0
 11
84.16665566934142
 21
-85.08617110900715
 31
0.0
  0
LINE
  5
189
330
1F
100
AcDbEntity
  8
0-2
  6
Continuous
 62
     6
370
     9
100
AcDbLine
 10
64.9999670080237
 20
-81.75290925828918
 30
0.0
 11
68.33347629856434
 21
-81.75290925828918
 31
0.0
  0
LINE
  5
18A
330
1F
100
AcDbEntity
  8
0-2
  6
Continuous
 62
     6
370
     9
100
AcDbLine
 10
68.33347629856434
 20
-72.14630558430272
 30
0.0
 11
68.33347629856434
 21
-81.75290925828918
 31
0.0
  0
LINE
  5
18B
330
1F
100
AcDbEntity
  8
0-2
  6
Continuous
 62
     6
370
     9
100
AcDbLine
 10
64.9999670080237
 20
-72.14630558430272
 30
0.0
 11
64.9999670080237
 21
-81.75290925828918
 31
0.0
  0
LINE
  5
18C
330
1F
100
AcDbEntity
  8
0-2
  6
Continuous
 62
     6
370
     9
100
AcDbLine
 10
58.33344330658804
 20
-125.0861793570012
 30
0.0
 11
75.0
 21
-125.0861793570012
 31
0.0
  0
LINE
  5
18D
330
1F
100
AcDbEntity
  8
0-2
  6
Continuous
 62
     6
370
     9
100
AcDbLine
 10
56.66668866131772
 20
-123.4193009918197
 30
0.0
 11
76.66675464527032
 21
-123.4193009918197
 31
0.0
  0
LINE
  5
18E
330
1F
100
AcDbEntity
  8
0-2
  6
Continuous
 62
     6
370
     9
100
AcDbLine
 10
56.66668866131772
 20
-123.4193009918197
 30
0.0
 11
58.33344330658804
 21
-125.0861793570012
 31
0.0
  0
LINE
  5
18F
330
1F
100
AcDbEntity
  8
0-2
  6
Continuous
 62
     6
370
     9
100
AcDbLine
 10
76.66675464527032
 20
-123.4193009918197
 30
0.0
 11
75.0
 21
-125.0861793570012
 31
0.0
  0
LINE
  5
190
330
1F
100
AcDbEntity
  8
0-2
  6
Continuous
 62
     6
370
     9
100
AcDbLine
 10
76.66675464527032
 20
-85.08617110900715
 30
0.0
 11
76.66675464527032
 21
-123.4193009918197
 31
0.0
  0
LINE
  5
191
330
1F
100
AcDbEntity
  8
0-2
  6
Continuous
 62
     6
370
     9
100
AcDbLine
 10
75.0
 20
-85.08617110900715
 30
0.0
 11
75.0
 21
-125.0861793570012
 31
0.0
  0
LINE
  5
192
330
1F
100
AcDbEntity
  8
0-2
  6
Continuous
 62
     6
370
     9
100
AcDbLine
 10
58.33344330658804
 20
-85.08617110900715
 30
0.0
 11
58.33344330658804
 21
-125.0861793570012
 31
0.0
  0
LINE
  5
193
330
1F
100
AcDbEntity
  8
0-2
  6
Continuous
 62
     6
370
     9
100
AcDbLine
 10
56.66668866131772
 20
-85.08617110900715
 30
0.0
 11
56.66668866131772
 21
-123.4193009918197
 31
0.0
  0
LINE
  5
194
330
1F
100
AcDbEntity
  8
0-2
  6
Continuous
 62
     6
370
     9
100
AcDbLine
 10
76.66675464527032
 20
-89.7666190740621
 30
0.0
 11
83.33327834670627
 21
-90.06292826166757
 31
0.0
  0
LINE
  5
195
330
1F
100
AcDbEntity
  8
0-2
  6
Continuous
 62
     6
370
     9
100
AcDbLine
 10
76.66675464527032
 20
-86.43001678573867
 30
0.0
 11
80.00026393581095
 21
-86.578233239497
 31
0.0
  0
LINE
  5
196
330
1F
100
AcDbEntity
  8
0-2
  6
Continuous
 62
     6
370
     9
100
AcDbLine
 10
-317.8071305558487
 20
87.22523025818035
 30
0.0
 11
-311.2737294789906
 21
121.609962891204
 31
0.0
  0
LINE
  5
197
330
1F
100
AcDbEntity
  8
0-2
  6
Continuous
 62
     6
370
     9
100
AcDbLine
 10
-318.1264516469594
 20
103.4024747023317
 30
0.0
 11
-317.5040167731206
 21
106.6773407549074
 31
0.0
  0
LINE
  5
198
330
1F
100
AcDbEntity
  8
0-2
  6
Continuous
 62
     6
370
     9
100
AcDbLine
 10
-326.9417427681586
 20
108.4705371495444
 30
0.0
 11
-317.5040167731206
 21
106.6773407549074
 31
0.0
  0
LINE
  5
199
330
1F
100
AcDbEntity
  8
0-2
  6
Continuous
 62
     6
370
     9
100
AcDbLine
 10
-327.5639302021747
 20
105.1956710969684
 30
0.0
 11
-318.1264516469594
 21
103.4024747023317
 31
0.0
  0
LINE
  5
19A
330
1F
100
AcDbEntity
  8
0-2
  6
Continuous
 62
     6
370
     9
100
AcDbLine
 10
-276.7990524704391
 20
88.76405851514832
 30
0.0
 11
-273.6878678605362
 21
105.1377701784718
 31
0.0
  0
LINE
  5
19B
330
1F
100
AcDbEntity
  8
0-2
  6
Continuous
 62
     6
370
     9
100
AcDbLine
 10
-278.7476410736909
 20
87.43778106582383
 30
0.0
 11
-275.0143927496831
 21
107.0862350618121
 31
0.0
  0
LINE
  5
19C
330
1F
100
AcDbEntity
  8
0-2
  6
Continuous
 62
     6
370
     9
100
AcDbLine
 10
-278.7476410736909
 20
87.43778106582383
 30
0.0
 11
-276.7990524704391
 21
88.76405851514832
 31
0.0
  0
LINE
  5
19D
330
1F
100
AcDbEntity
  8
0-2
  6
Continuous
 62
     6
370
     9
100
AcDbLine
 10
-275.0143927496831
 20
107.0862350618121
 30
0.0
 11
-273.6878678605362
 21
105.1377701784718
 31
0.0
  0
LINE
  5
19E
330
1F
100
AcDbEntity
  8
0-2
  6
Continuous
 62
     6
370
     9
100
AcDbLine
 10
-312.6738677153716
 20
114.2419472925975
 30
0.0
 11
-275.0143927496831
 21
107.0862350618121
 31
0.0
  0
LINE
  5
19F
330
1F
100
AcDbEntity
  8
0-2
  6
Continuous
 62
     6
370
     9
100
AcDbLine
 10
-312.984899572424
 20
112.6043905463983
 30
0.0
 11
-273.6878678605362
 21
105.1377701784718
 31
0.0
  0
LINE
  5
1A0
330
1F
100
AcDbEntity
  8
0-2
  6
Continuous
 62
     6
370
     9
100
AcDbLine
 10
-316.0958367425042
 20
96.23092632289726
 30
0.0
 11
-276.7990524704391
 21
88.76405851514832
 31
0.0
  0
LINE
  5
1A1
330
1F
100
AcDbEntity
  8
0-2
  6
Continuous
 62
     6
370
     9
100
AcDbLine
 10
-316.4071160393792
 20
94.59336957669805
 30
0.0
 11
-278.7476410736909
 21
87.43778106582383
 31
0.0
  0
LINE
  5
1A2
330
1F
100
AcDbEntity
  8
0-2
  6
JWW_CENTER1
 62
     6
370
     9
100
AcDbLine
 10
-333.8741405590159
 20
108.0912119014447
 30
0.0
 11
-267.9702758789062
 21
95.56890107743712
 31
0.0
  0
LINE
  5
1A3
330
1F
100
AcDbEntity
  8
0-2
  6
Continuous
 62
     6
370
     9
100
AcDbLine
 10
-287.8338788006755
 20
74.93712122629702
 30
0.0
 11
-305.4320464263091
 21
71.60373565566758
 31
0.0
  0
LINE
  5
1A4
330
1F
100
AcDbEntity
  8
0-2
  6
Continuous
 62
     6
370
     9
100
AcDbLine
 10
-295.298148490287
 20
124.9371624662673
 30
0.0
 11
-298.1761210673562
 21
109.7906286033027
 31
0.0
  0
LINE
  5
1A5
330
1F
100
AcDbEntity
  8
0-2
  6
Continuous
 62
     6
370
     9
100
AcDbLine
 10
-321.1231953388935
 20
-100.2628926303332
 30
0.0
 11
-284.9135940139357
 21
90.30585604998791
 31
0.0
  0
LINE
  5
1A6
330
1F
100
AcDbEntity
  8
0-2
  6
Continuous
 62
     6
370
     9
100
AcDbLine
 10
-281.8024094040328
 20
106.6795677133113
 30
0.0
 11
-278.3331793707768
 21
124.9371624662673
 31
0.0
  0
LINE
  5
1A7
330
1F
100
AcDbEntity
  8
0-2
  6
JWW_DASHED1
 62
     6
370
     9
100
AcDbLine
 10
-2.16633564717057
 20
74.93712122629702
 30
0.0
 11
15.4320794182857
 21
71.60373565566758
 31
0.0
  0
LINE
  5
1A8
330
1F
100
AcDbEntity
  8
0-2
  6
Continuous
 62
     6
370
     9
100
AcDbLine
 10
-341.1023526578336
 20
-88.63037540852147
 30
0.0
 11
-373.3332453547297
 21
-90.06292826166757
 31
0.0
  0
LINE
  5
1A9
330
1F
100
AcDbEntity
  8
0-2
  6
Continuous
 62
     6
370
     9
100
AcDbLine
 10
-338.6032104492188
 20
-102.9740907669465
 30
0.0
 11
-301.2871819573479
 21
93.41716437980196
 31
0.0
  0
LINE
  5
1AA
330
1F
100
AcDbEntity
  8
0-2
  6
Continuous
 62
     6
370
     9
100
AcDbLine
 10
5.298181482263544
 20
124.9371624662673
 30
0.0
 11
-295.298148490287
 21
124.9371624662673
 31
0.0
  0
LINE
  5
1AB
330
1F
100
AcDbEntity
  8
0-2
  6
Continuous
 62
     6
370
     9
100
AcDbLine
 10
51.10250936972136
 20
-88.63037540852147
 30
0.0
 11
56.66668866131772
 21
-88.87756779133397
 31
0.0
  0
LINE
  5
1AC
330
1F
100
AcDbEntity
  8
0-2
  6
Continuous
 62
     6
370
     9
100
AcDbLine
 10
50.46312486803231
 20
-85.2653175405949
 30
0.0
 11
56.66668866131772
 21
-85.54108922292173
 31
0.0
  0
LINE
  5
1AD
330
1F
100
AcDbEntity
  8
0-2
  6
Continuous
 62
     6
370
     9
100
AcDbLine
 10
44.84871529244089
 20
-83.21478373041757
 30
0.0
 11
5.298181482263544
 21
124.9371624662673
 31
0.0
  0
LINE
  5
1AE
330
1F
100
AcDbEntity
  8
0-2
  6
Continuous
 62
     6
370
     9
100
AcDbLine
 10
31.12322833087006
 20
-100.2628926303332
 30
0.0
 11
-11.66654019742396
 21
124.9371624662673
 31
0.0
  0
LINE
  5
1AF
330
1F
100
AcDbEntity
  8
0-2
  6
Continuous
 62
     6
370
     9
100
AcDbLine
 10
56.66668866131772
 20
-108.3962396003501
 30
0.0
 11
-263.3332536027237
 21
-108.3962396003501
 31
0.0
  0
LINE
  5
1B0
330
1F
100
AcDbEntity
  8
0-2
  6
Continuous
 62
     6
370
     9
100
AcDbLine
 10
-313.3332948426943
 20
-108.3962396003501
 30
0.0
 11
-369.9999835040117
 21
-108.3962396003501
 31
0.0
  0
LINE
  5
1B1
330
1F
100
AcDbEntity
  8
0-2
  6
JWW_CENTER1
 62
     6
370
     9
100
AcDbLine
 10
66.66672165329402
 20
-62.45297425248268
 30
0.0
 11
66.66672165329402
 21
-134.4507868844507
 31
0.0
  0
LINE
  5
1B2
330
1F
100
AcDbEntity
  8
0-4
  6
Continuous
 62
     7
370
     9
100
AcDbLine
 10
-278.3331793707768
 20
216.8463339057733
 30
0.0
 11
-11.66654019742396
 21
216.8463339057733
 31
0.0
  0
LINE
  5
1B3
330
1F
100
AcDbEntity
  8
0-4
  6
Continuous
 62
     7
370
     9
100
AcDbLine
 10
-278.3331793707768
 20
139.9372119542319
 30
0.0
 11
-278.3331793707768
 21
219.8462943154017
 31
0.0
  0
LINE
  5
1B4
330
1F
100
AcDbEntity
  8
0-4
  6
Continuous
 62
     7
370
     9
100
AcDbLine
 10
-11.66654019742396
 20
139.9372119542319
 30
0.0
 11
-11.66654019742396
 21
219.8462943154017
 31
0.0
  0
LINE
  5
1B5
330
1F
100
AcDbEntity
  8
0-4
  6
Continuous
 62
     7
370
     9
100
AcDbLine
 10
-278.3331793707768
 20
216.8463339057733
 30
0.0
 11
-253.5470086175042
 21
220.1094465667741
 31
0.0
  0
LINE
  5
1B6
330
1F
100
AcDbEntity
  8
0-4
  6
Continuous
 62
     7
370
     9
100
AcDbLine
 10
-278.3331793707768
 20
216.8463339057733
 30
0.0
 11
-253.5470086175042
 21
213.5832212447725
 31
0.0
  0
LINE
  5
1B7
330
1F
100
AcDbEntity
  8
0-4
  6
Continuous
 62
     7
370
     9
100
AcDbLine
 10
-11.66654019742396
 20
216.8463339057733
 30
0.0
 11
-36.4527109506966
 21
220.1094465667741
 31
0.0
  0
LINE
  5
1B8
330
1F
100
AcDbEntity
  8
0-4
  6
Continuous
 62
     7
370
     9
100
AcDbLine
 10
-11.66654019742396
 20
216.8463339057733
 30
0.0
 11
-36.4527109506966
 21
213.5832212447725
 31
0.0
  0
LINE
  5
1B9
330
1F
100
AcDbEntity
  8
0-4
  6
Continuous
 62
     7
370
     9
100
AcDbLine
 10
368.3334762985643
 20
-101.2509198421152
 30
0.0
 11
368.3334762985643
 21
124.9371624662673
 31
0.0
  0
LINE
  5
1BA
330
1F
100
AcDbEntity
  8
0-4
  6
Continuous
 62
     7
370
     9
100
AcDbLine
 10
383.3335257865289
 20
-101.2509198421152
 30
0.0
 11
371.3334367081927
 21
-101.2509198421152
 31
0.0
  0
LINE
  5
1BB
330
1F
100
AcDbEntity
  8
0-4
  6
Continuous
 62
     7
370
     9
100
AcDbLine
 10
20.29823097022813
 20
124.9371624662673
 30
0.0
 11
371.3334367081927
 21
124.9371624662673
 31
0.0
  0
LINE
  5
1BC
330
1F
100
AcDbEntity
  8
0-4
  6
Continuous
 62
     7
370
     9
100
AcDbLine
 10
368.3334762985643
 20
-101.2509198421152
 30
0.0
 11
365.0702399176521
 21
-76.46474908884258
 31
0.0
  0
LINE
  5
1BD
330
1F
100
AcDbEntity
  8
0-4
  6
Continuous
 62
     7
370
     9
100
AcDbLine
 10
368.3334762985643
 20
-101.2509198421152
 30
0.0
 11
371.5967126794766
 21
-76.46474908884258
 31
0.0
  0
LINE
  5
1BE
330
1F
100
AcDbEntity
  8
0-4
  6
Continuous
 62
     7
370
     9
100
AcDbLine
 10
368.3334762985643
 20
124.9371624662673
 30
0.0
 11
365.0702399176521
 21
100.1509917129944
 31
0.0
  0
LINE
  5
1BF
330
1F
100
AcDbEntity
  8
0-4
  6
Continuous
 62
     7
370
     9
100
AcDbLine
 10
368.3334762985643
 20
124.9371624662673
 30
0.0
 11
371.5967126794766
 21
100.1509917129944
 31
0.0
  0
LINE
  5
1C0
330
1F
100
AcDbEntity
  8
0-4
  6
Continuous
 62
     7
370
     9
100
AcDbLine
 10
-581.6550589896536
 20
-108.3962396003501
 30
0.0
 11
-581.6550589896536
 21
124.9371624662673
 31
0.0
  0
LINE
  5
1C1
330
1F
100
AcDbEntity
  8
0-4
  6
Continuous
 62
     7
370
     9
100
AcDbLine
 10
-385.0000329919763
 20
-108.3962396003501
 30
0.0
 11
-584.6550193992821
 21
-108.3962396003501
 31
0.0
  0
LINE
  5
1C2
330
1F
100
AcDbEntity
  8
0-4
  6
Continuous
 62
     7
370
     9
100
AcDbLine
 10
-310.2981979782516
 20
124.9371624662673
 30
0.0
 11
-584.6550193992821
 21
124.9371624662673
 31
0.0
  0
LINE
  5
1C3
330
1F
100
AcDbEntity
  8
0-4
  6
Continuous
 62
     7
370
     9
100
AcDbLine
 10
-581.6550589896536
 20
-108.3962396003501
 30
0.0
 11
-584.9181716506544
 21
-83.6100688470772
 31
0.0
  0
LINE
  5
1C4
330
1F
100
AcDbEntity
  8
0-4
  6
Continuous
 62
     7
370
     9
100
AcDbLine
 10
-581.6550589896536
 20
-108.3962396003501
 30
0.0
 11
-578.3919463286529
 21
-83.6100688470772
 31
0.0
  0
LINE
  5
1C5
330
1F
100
AcDbEntity
  8
0-4
  6
Continuous
 62
     7
370
     9
100
AcDbLine
 10
-581.6550589896536
 20
124.9371624662673
 30
0.0
 11
-584.9181716506544
 21
100.1509917129944
 31
0.0
  0
LINE
  5
1C6
330
1F
100
AcDbEntity
  8
0-4
  6
Continuous
 62
     7
370
     9
100
AcDbLine
 10
-581.6550589896536
 20
124.9371624662673
 30
0.0
 11
-578.3919463286529
 21
100.1509917129944
 31
0.0
  0
LINE
  5
1C7
330
1F
100
AcDbEntity
  8
0-E
  6
Continuous
 62
     7
370
     9
100
AcDbLine
 10
251.070259712838
 20
193.0354472134168
 30
0.0
 11
100.0000824799409
 21
-88.3964210562199
 31
0.0
  0
LINE
  5
1C8
330
1F
100
AcDbEntity
  8
0-E
  6
Continuous
 62
     7
370
     9
100
AcDbLine
 10
100.0000824799409
 20
-88.3964210562199
 30
0.0
 11
108.4254084406675
 21
-64.85895536787538
 31
0.0
  0
LINE
  5
1C9
330
1F
100
AcDbEntity
  8
0-E
  6
Continuous
 62
     7
370
     9
100
AcDbLine
 10
100.0000824799409
 20
-88.3964210562199
 30
0.0
 11
114.2303466796875
 21
-67.8415949899194
 31
0.0
  0
LINE
  5
1CA
330
1F
100
AcDbEntity
  8
0-E
  6
Continuous
 62
     7
370
     9
100
AcDbLine
 10
281.0619457347974
 20
318.0317768560478
 30
0.0
 11
68.33347629856434
 21
-72.14630558430272
 31
0.0
  0
LINE
  5
1CB
330
1F
100
AcDbEntity
  8
0-E
  6
Continuous
 62
     7
370
     9
100
AcDbLine
 10
68.33347629856434
 20
-72.14630558430272
 30
0.0
 11
77.33311008762684
 21
-48.82238046289231
 31
0.0
  0
LINE
  5
1CC
330
1F
100
AcDbEntity
  8
0-E
  6
Continuous
 62
     7
370
     9
100
AcDbLine
 10
68.33347629856434
 20
-72.14630558430272
 30
0.0
 11
83.0633215002112
 21
-51.94643194357226
 31
0.0
  0
LINE
  5
1CD
330
1F
100
AcDbEntity
  8
0-E
  6
Continuous
 62
     7
370
     9
100
AcDbLine
 10
273.997786238387
 20
425.1775502539574
 30
0.0
 11
29.52352987753386
 21
-2.558927984535018
 31
0.0
  0
LINE
  5
1CE
330
1F
100
AcDbEntity
  8
0-E
  6
Continuous
 62
     7
370
     9
100
AcDbLine
 10
29.52352987753386
 20
-2.558927984535018
 30
0.0
 11
38.9898351720862
 21
20.57954098981028
 31
0.0
  0
LINE
  5
1CF
330
1F
100
AcDbEntity
  8
0-E
  6
Continuous
 62
     7
370
     9
100
AcDbLine
 10
29.52352987753386
 20
-2.558927984535018
 30
0.0
 11
44.65595967060835
 21
17.34104859116187
 31
0.0
  0
LINE
  5
1D0
330
1F
100
AcDbEntity
  8
0-2
  6
Continuous
 62
     6
370
     9
100
AcDbLine
 10
79.38215925886823
 20
785.6859896015079
 30
0.0
 11
82.94380806587839
 21
782.3524803109676
 31
0.0
  0
LINE
  5
1D1
330
1F
100
AcDbEntity
  8
0-2
  6
Continuous
 62
     6
370
     9
100
AcDbLine
 10
42.27756809543934
 20
805.6860555854608
 30
0.0
 11
80.3704339104732
 21
805.6860555854608
 31
0.0
  0
LINE
  5
1D2
330
1F
100
AcDbEntity
  8
0-2
  6
Continuous
 62
     6
370
     9
100
AcDbLine
 10
42.89963180954402
 20
802.3525462949202
 30
0.0
 11
77.51745275549013
 21
802.3525462949202
 31
0.0
  0
LINE
  5
1D3
330
1F
100
AcDbEntity
  8
0-2
  6
Continuous
 62
     6
370
     9
100
AcDbLine
 10
80.3704339104732
 20
805.6860555854608
 30
0.0
 11
77.51745275549013
 21
802.3525462949202
 31
0.0
  0
LINE
  5
1D4
330
1F
100
AcDbEntity
  8
0-2
  6
Continuous
 62
     6
370
     9
100
AcDbLine
 10
-369.3818788270693
 20
785.6859896015079
 30
0.0
 11
-372.9437750739018
 21
782.3524803109676
 31
0.0
  0
LINE
  5
1D5
330
1F
100
AcDbEntity
  8
0-2
  6
Continuous
 62
     6
370
     9
100
AcDbLine
 10
-332.2775351034628
 20
805.6860555854608
 30
0.0
 11
-370.370153478674
 21
805.6860555854608
 31
0.0
  0
LINE
  5
1D6
330
1F
100
AcDbEntity
  8
0-2
  6
Continuous
 62
     6
370
     9
100
AcDbLine
 10
-332.8995988175674
 20
802.3525462949202
 30
0.0
 11
-367.5171723236909
 21
802.3525462949202
 31
0.0
  0
LINE
  5
1D7
330
1F
100
AcDbEntity
  8
0-2
  6
Continuous
 62
     6
370
     9
100
AcDbLine
 10
-370.370153478674
 20
805.6860555854608
 30
0.0
 11
-367.5171723236909
 21
802.3525462949202
 31
0.0
  0
LINE
  5
1D8
330
1F
100
AcDbEntity
  8
0-2
  6
Continuous
 62
     6
370
     9
100
AcDbLine
 10
72.0025139885982
 20
785.6859896015079
 30
0.0
 11
79.38215925886823
 21
785.6859896015079
 31
0.0
  0
LINE
  5
1D9
330
1F
100
AcDbEntity
  8
0-2
  6
Continuous
 62
     6
370
     9
100
AcDbLine
 10
78.00144504856434
 20
782.3524803109676
 30
0.0
 11
82.94380806587839
 21
782.3524803109676
 31
0.0
  0
LINE
  5
1DA
330
1F
100
AcDbEntity
  8
0-2
  6
Continuous
 62
     6
370
     9
100
AcDbLine
 10
-362.0024809966216
 20
785.6859896015079
 30
0.0
 11
-369.3818788270693
 21
785.6859896015079
 31
0.0
  0
LINE
  5
1DB
330
1F
100
AcDbEntity
  8
0-2
  6
Continuous
 62
     6
370
     9
100
AcDbLine
 10
-368.0011646167651
 20
782.3524803109676
 30
0.0
 11
-372.9437750739018
 21
782.3524803109676
 31
0.0
  0
LINE
  5
1DC
330
1F
100
AcDbEntity
  8
0-2
  6
Continuous
 62
     6
370
     9
100
AcDbLine
 10
-153.3332618507177
 20
895.6858576336027
 30
0.0
 11
-136.6664577174831
 21
895.6858576336027
 31
0.0
  0
LINE
  5
1DD
330
1F
100
AcDbEntity
  8
0-2
  6
Continuous
 62
     6
370
     9
100
AcDbLine
 10
-155.000016495988
 20
897.352612278873
 30
0.0
 11
-134.9999505120354
 21
897.352612278873
 31
0.0
  0
LINE
  5
1DE
330
1F
100
AcDbEntity
  8
0-2
  6
Continuous
 62
     6
370
     9
100
AcDbLine
 10
-155.000016495988
 20
897.352612278873
 30
0.0
 11
-153.3332618507177
 21
895.6858576336027
 31
0.0
  0
LINE
  5
1DF
330
1F
100
AcDbEntity
  8
0-2
  6
Continuous
 62
     6
370
     9
100
AcDbLine
 10
-134.9999505120354
 20
897.352612278873
 30
0.0
 11
-136.6664577174831
 21
895.6858576336027
 31
0.0
  0
LINE
  5
1E0
330
1F
100
AcDbEntity
  8
0-2
  6
Continuous
 62
     6
370
     9
100
AcDbLine
 10
-146.6664907094594
 20
938.042606472285
 30
0.0
 11
-143.3332288587414
 21
938.042606472285
 31
0.0
  0
LINE
  5
1E1
330
1F
100
AcDbEntity
  8
0-2
  6
JWW_CENTER1
 62
     6
370
     9
100
AcDbLine
 10
66.66672165329402
 20
792.2475988181465
 30
0.0
 11
66.66672165329402
 21
762.8898536217782
 31
0.0
  0
LINE
  5
1E2
330
1F
100
AcDbEntity
  8
0-2
  6
JWW_CENTER1
 62
     6
370
     9
100
AcDbLine
 10
-356.6664412214948
 20
792.2475988181465
 30
0.0
 11
-356.6664412214948
 21
762.8898536217782
 31
0.0
  0
LINE
  5
1E3
330
1F
100
AcDbEntity
  8
0-2
  6
Continuous
 62
     6
370
     9
100
AcDbLine
 10
-304.6571886217271
 20
815.3075056488053
 30
0.0
 11
-327.5073902027026
 21
824.7725737442447
 31
0.0
  0
LINE
  5
1E4
330
1F
100
AcDbEntity
  8
0-2
  6
Continuous
 62
     6
370
     9
100
AcDbLine
 10
-310.2179037558065
 20
787.3527442467782
 30
0.0
 11
-334.9506275073901
 21
787.3527442467782
 31
0.0
  0
LINE
  5
1E5
330
1F
100
AcDbEntity
  8
0-2
  6
Continuous
 62
     6
370
     9
100
AcDbLine
 10
-274.7900885504643
 20
872.8822984591939
 30
0.0
 11
-292.2790114944044
 21
890.3708502433999
 31
0.0
  0
LINE
  5
1E6
330
1F
100
AcDbEntity
  8
0-2
  6
Continuous
 62
     6
370
     9
100
AcDbLine
 10
-290.6256185995565
 20
849.1835020064913
 30
0.0
 11
-313.4755727407094
 21
858.648075222285
 31
0.0
  0
LINE
  5
1E7
330
1F
100
AcDbEntity
  8
0-2
  6
Continuous
 62
     6
370
     9
100
AcDbLine
 10
-225.1638051625844
 20
914.6446968439067
 30
0.0
 11
-234.628625818201
 21
937.494774704971
 31
0.0
  0
LINE
  5
1E8
330
1F
100
AcDbEntity
  8
0-2
  6
Continuous
 62
     6
370
     9
100
AcDbLine
 10
-248.8630964949323
 20
898.8095379545485
 30
0.0
 11
-266.3516482791385
 21
916.2980897387548
 31
0.0
  0
LINE
  5
1E9
330
1F
100
AcDbEntity
  8
0-2
  6
Continuous
 62
     6
370
     9
100
AcDbLine
 10
-163.3332948426943
 20
934.2369820001567
 30
0.0
 11
-163.3332948426943
 21
958.9700769114744
 31
0.0
  0
LINE
  5
1EA
330
1F
100
AcDbEntity
  8
0-2
  6
Continuous
 62
     6
370
     9
100
AcDbLine
 10
-191.2885511243664
 20
928.6765143058999
 30
0.0
 11
-200.7531243401604
 21
951.5265921669642
 31
0.0
  0
LINE
  5
1EB
330
1F
100
AcDbEntity
  8
0-2
  6
Continuous
 62
     6
370
     9
100
AcDbLine
 10
-98.71166332347968
 20
928.6765143058999
 30
0.0
 11
-89.246842667863
 21
951.5265921669642
 31
0.0
  0
LINE
  5
1EC
330
1F
100
AcDbEntity
  8
0-2
  6
Continuous
 62
     6
370
     9
100
AcDbLine
 10
-126.6666721653291
 20
934.237476879802
 30
0.0
 11
-126.6666721653291
 21
958.9700769114744
 31
0.0
  0
LINE
  5
1ED
330
1F
100
AcDbEntity
  8
0-2
  6
Continuous
 62
     6
370
     9
100
AcDbLine
 10
-41.1371179529138
 20
898.8095379545485
 30
0.0
 11
-23.64831872888516
 21
916.2985846183999
 31
0.0
  0
LINE
  5
1EE
330
1F
100
AcDbEntity
  8
0-2
  6
Continuous
 62
     6
370
     9
100
AcDbLine
 10
-64.83591440561639
 20
914.645191723552
 30
0.0
 11
-55.37134118982266
 21
937.494774704971
 31
0.0
  0
LINE
  5
1EF
330
1F
100
AcDbEntity
  8
0-2
  6
Continuous
 62
     6
370
     9
100
AcDbLine
 10
0.6255278716216139
 20
849.1835020064913
 30
0.0
 11
23.47560573268595
 21
858.648075222285
 31
0.0
  0
LINE
  5
1F0
330
1F
100
AcDbEntity
  8
0-2
  6
Continuous
 62
     6
370
     9
100
AcDbLine
 10
-15.20963101773646
 20
872.8822984591939
 30
0.0
 11
2.279168206292468
 21
890.3708502433999
 31
0.0
  0
LINE
  5
1F1
330
1F
100
AcDbEntity
  8
0-2
  6
Continuous
 62
     6
370
     9
100
AcDbLine
 10
20.21781302787161
 20
787.3527442467782
 30
0.0
 11
44.95066049936668
 21
787.3527442467782
 31
0.0
  0
LINE
  5
1F2
330
1F
100
AcDbEntity
  8
0-2
  6
Continuous
 62
     6
370
     9
100
AcDbLine
 10
14.65734533361484
 20
815.3080005284506
 30
0.0
 11
37.50717575485652
 21
824.7725737442447
 31
0.0
  0
LINE
  5
1F3
330
1F
100
AcDbEntity
  8
0-2
  6
Continuous
 62
     6
370
     9
100
AcDbLine
 10
-162.4999175200591
 20
934.7090971817447
 30
0.0
 11
-127.4998020481416
 21
934.7090971817447
 31
0.0
  0
LINE
  5
1F4
330
1F
100
AcDbEntity
  8
0-2
  6
Continuous
 62
     6
370
     9
100
AcDbLine
 10
-155.000016495988
 20
897.352612278873
 30
0.0
 11
-155.000016495988
 21
901.9772625639235
 31
0.0
  0
LINE
  5
1F5
330
1F
100
AcDbEntity
  8
0-2
  6
Continuous
 62
     6
370
     9
100
AcDbLine
 10
-153.3332618507177
 20
895.6858576336027
 30
0.0
 11
-153.3332618507177
 21
902.0920746416265
 31
0.0
  0
LINE
  5
1F6
330
1F
100
AcDbEntity
  8
0-2
  6
Continuous
 62
     6
370
     9
100
AcDbLine
 10
-136.6664577174831
 20
895.6858576336027
 30
0.0
 11
-136.6664577174831
 21
902.0920746416265
 31
0.0
  0
LINE
  5
1F7
330
1F
100
AcDbEntity
  8
0-2
  6
Continuous
 62
     6
370
     9
100
AcDbLine
 10
-134.9999505120354
 20
897.352612278873
 30
0.0
 11
-134.9999505120354
 21
901.9772625639235
 31
0.0
  0
LINE
  5
1F8
330
1F
100
AcDbEntity
  8
0-2
  6
Continuous
 62
     6
370
     9
100
AcDbLine
 10
-153.3332618507177
 20
919.0862416602074
 30
0.0
 11
-153.3332618507177
 21
934.7090971817447
 31
0.0
  0
LINE
  5
1F9
330
1F
100
AcDbEntity
  8
0-2
  6
Continuous
 62
     6
370
     9
100
AcDbLine
 10
-155.000016495988
 20
918.9842964532817
 30
0.0
 11
-155.000016495988
 21
934.7090971817447
 31
0.0
  0
LINE
  5
1FA
330
1F
100
AcDbEntity
  8
0-2
  6
Continuous
 62
     6
370
     9
100
AcDbLine
 10
-136.6664577174831
 20
919.0862416602074
 30
0.0
 11
-136.6664577174831
 21
934.7090971817447
 31
0.0
  0
LINE
  5
1FB
330
1F
100
AcDbEntity
  8
0-2
  6
Continuous
 62
     6
370
     9
100
AcDbLine
 10
-134.9999505120354
 20
918.9842964532817
 30
0.0
 11
-134.9999505120354
 21
934.7090971817447
 31
0.0
  0
LINE
  5
1FC
330
1F
100
AcDbEntity
  8
0-2
  6
Continuous
 62
     6
370
     9
100
AcDbLine
 10
-146.6664907094594
 20
938.042606472285
 30
0.0
 11
-146.6664907094594
 21
947.6492101462715
 31
0.0
  0
LINE
  5
1FD
330
1F
100
AcDbEntity
  8
0-2
  6
Continuous
 62
     6
370
     9
100
AcDbLine
 10
-143.3332288587414
 20
938.042606472285
 30
0.0
 11
-143.3332288587414
 21
947.6492101462715
 31
0.0
  0
LINE
  5
1FE
330
1F
100
AcDbEntity
  8
0-2
  6
Continuous
 62
     6
370
     9
100
AcDbLine
 10
-369.9999835040117
 20
769.019432908096
 30
0.0
 11
-369.9999835040117
 21
771.0192415546329
 31
0.0
  0
LINE
  5
1FF
330
1F
100
AcDbEntity
  8
0-2
  6
Continuous
 62
     6
370
     9
100
AcDbLine
 10
-369.9999835040117
 20
771.0192415546329
 30
0.0
 11
-343.3333938186232
 21
771.0192415546329
 31
0.0
  0
LINE
  5
200
330
1F
100
AcDbEntity
  8
0-2
  6
Continuous
 62
     6
370
     9
100
AcDbLine
 10
-343.3333938186232
 20
769.019432908096
 30
0.0
 11
-343.3333938186232
 21
771.0192415546329
 31
0.0
  0
LINE
  5
201
330
1F
100
AcDbEntity
  8
0-2
  6
Continuous
 62
     6
370
     9
100
AcDbLine
 10
80.00001649598829
 20
769.019432908096
 30
0.0
 11
80.00001649598829
 21
771.0192415546329
 31
0.0
  0
LINE
  5
202
330
1F
100
AcDbEntity
  8
0-2
  6
Continuous
 62
     6
370
     9
100
AcDbLine
 10
80.00001649598829
 20
771.0192415546329
 30
0.0
 11
53.33342681059975
 21
771.0192415546329
 31
0.0
  0
LINE
  5
203
330
1F
100
AcDbEntity
  8
0-2
  6
Continuous
 62
     6
370
     9
100
AcDbLine
 10
53.33342681059975
 20
769.019432908096
 30
0.0
 11
53.33342681059975
 21
771.0192415546329
 31
0.0
  0
LINE
  5
204
330
1F
100
AcDbEntity
  8
0-1
  6
Continuous
 62
     4
370
     9
100
AcDbLine
 10
-98.33332783467057
 20
893.1495994515926
 30
0.0
 11
-85.8240076013513
 21
871.4832737020147
 31
0.0
  0
LINE
  5
205
330
1F
100
AcDbEntity
  8
0-1
  6
Continuous
 62
     4
370
     9
100
AcDbLine
 10
-85.8240076013513
 20
871.4832737020147
 30
0.0
 11
-60.84248310810807
 21
871.4832737020147
 31
0.0
  0
LINE
  5
206
330
1F
100
AcDbEntity
  8
0-1
  6
Continuous
 62
     4
370
     9
100
AcDbLine
 10
-263.3242220491977
 20
769.0352690567447
 30
0.0
 11
-275.8149842958193
 21
790.6699225090249
 31
0.0
  0
LINE
  5
207
330
1F
100
AcDbEntity
  8
0-1
  6
Continuous
 62
     4
370
     9
100
AcDbLine
 10
-263.3333773226352
 20
769.019432908096
 30
0.0
 11
-263.3242220491977
 21
769.0352690567447
 31
0.0
  0
LINE
  5
208
330
1F
100
AcDbEntity
  8
0-1
  6
Continuous
 62
     4
370
     9
100
AcDbLine
 10
-276.563737199113
 20
790.6699225090249
 30
0.0
 11
-275.8149842958193
 21
790.6699225090249
 31
0.0
  0
LINE
  5
209
330
1F
100
AcDbEntity
  8
0-0
  6
JWW_CENTER1
 62
     3
370
     9
100
AcDbLine
 10
-144.9999835040117
 20
152.9483401478551
 30
0.0
 11
-144.9999835040117
 21
-461.1891341184032
 31
0.0
  0
ARC
  5
20A
330
1F
100
AcDbEntity
  8
0-0
  6
Continuous
 62
     3
370
     9
100
AcDbCircle
 10
-449.0169215846706
 20
-159.0836686676009
 30
0.0
 40
36.66666520608438
100
AcDbArc
 50
74.99996948242188
 51
121.7902069091797
  0
ARC
  5
20B
330
1F
100
AcDbEntity
  8
0-0
  6
Continuous
 62
     3
370
     9
100
AcDbCircle
 10
-370.421620961782
 20
-133.5559207658906
 30
0.0
 40
5.000000064437454
100
AcDbArc
 50
254.9999084472656
 51
318.4355773925781
  0
ARC
  5
20C
330
1F
100
AcDbEntity
  8
0-0
  6
Continuous
 62
     3
370
     9
100
AcDbCircle
 10
-386.9901914854307
 20
-129.116355468171
 30
0.0
 40
5.000000064437454
100
AcDbArc
 50
191.5648956298828
 51
254.9999084472656
  0
ARC
  5
20D
330
1F
100
AcDbEntity
  8
0-0
  6
Continuous
 62
     3
370
     9
100
AcDbCircle
 10
-407.4603931323901
 20
-116.2982303362033
 30
0.0
 40
5.416692108721347
100
AcDbArc
 50
187.6205902099609
 51
322.37890625
  0
ARC
  5
20E
330
1F
100
AcDbEntity
  8
0-0
  6
Continuous
 62
     3
370
     9
100
AcDbCircle
 10
-396.3632119668495
 20
-124.8794433851897
 30
0.0
 40
3.333333376291636
100
AcDbArc
 50
11.56642150878906
 51
75.00077819824219
  0
ARC
  5
20F
330
1F
100
AcDbEntity
  8
0-0
  6
Continuous
 62
     3
370
     9
100
AcDbCircle
 10
-360.1857778188344
 20
-134.5730221568323
 30
0.0
 40
3.333333376291636
100
AcDbArc
 50
75.00022888183594
 51
138.4349822998047
  0
ARC
  5
210
330
1F
100
AcDbEntity
  8
0-0
  6
Continuous
 62
     3
370
     9
100
AcDbCircle
 10
-346.2848560230151
 20
-132.6901288264902
 30
0.0
 40
5.416692108721347
100
AcDbArc
 50
187.6205902099609
 51
322.37890625
  0
ARC
  5
211
330
1F
100
AcDbEntity
  8
0-0
  6
Continuous
 62
     3
370
     9
100
AcDbCircle
 10
-426.7790098448057
 20
-111.1217892466762
 30
0.0
 40
5.416692108721347
100
AcDbArc
 50
187.6179962158203
 51
322.3796997070312
  0
ARC
  5
212
330
1F
100
AcDbEntity
  8
0-0
  6
Continuous
 62
     3
370
     9
100
AcDbCircle
 10
-410.6263856630068
 20
-138.3120853166719
 30
0.0
 40
6.666666752583272
100
AcDbArc
 50
11.56620788574219
 51
75.00050354003906
  0
ARC
  5
213
330
1F
100
AcDbEntity
  8
0-0
  6
JWW_DASHED1
 62
     3
370
     9
100
AcDbCircle
 10
-354.549840978674
 20
-153.3378685461905
 30
0.0
 40
6.666666752583272
100
AcDbArc
 50
74.99948120117188
 51
138.4350738525391
  0
ARC
  5
214
330
1F
100
AcDbEntity
  8
0-0
  6
JWW_DASHED1
 62
     3
370
     9
100
AcDbCircle
 10
-365.9127725137245
 20
-148.567599925519
 30
0.0
 40
5.000000064437454
100
AcDbArc
 50
255.0012817382812
 51
318.4365081787109
  0
ARC
  5
215
330
1F
100
AcDbEntity
  8
0-0
  6
Continuous
 62
     3
370
     9
100
AcDbCircle
 10
-398.4006314664273
 20
-139.862666965215
 30
0.0
 40
5.000000064437454
100
AcDbArc
 50
191.5646057128906
 51
254.9999084472656
  0
ARC
  5
216
330
1F
100
AcDbEntity
  8
0-0
  6
JWW_DASHED1
 62
     3
370
     9
100
AcDbCircle
 10
-293.8063337996198
 20
-188.583568042073
 30
0.0
 40
10.00000012887491
100
AcDbArc
 50
186.999984741211
 51
265.5395812988281
  0
ARC
  5
217
330
1F
100
AcDbEntity
  8
0-0
  6
Continuous
 62
     3
370
     9
100
AcDbCircle
 10
-297.8789458403716
 20
-247.9175342714861
 30
0.0
 40
3.333333376291636
100
AcDbArc
 50
8.365890502929688
 51
89.99999999999999
  0
ARC
  5
218
330
1F
100
AcDbEntity
  8
0-0
  6
Continuous
 62
     3
370
     9
100
AcDbCircle
 10
-310.0101780247044
 20
-237.9177487193323
 30
0.0
 40
3.333333376291636
100
AcDbArc
 50
6.999984741210938
 51
90.0
  0
ARC
  5
219
330
1F
100
AcDbEntity
  8
0-0
  6
Continuous
 62
     3
370
     9
100
AcDbCircle
 10
-299.3494807062922
 20
-237.9177487193323
 30
0.0
 40
3.333333376291636
100
AcDbArc
 50
8.365890502929688
 51
89.99999999999999
  0
ARC
  5
21A
330
1F
100
AcDbEntity
  8
0-0
  6
JWW_DASHED1
 62
     3
370
     9
100
AcDbCircle
 10
-320.1829240128799
 20
-206.2510188180444
 30
0.0
 40
5.000000064437454
100
AcDbArc
 50
7.000518798828125
 51
90.0
  0
ARC
  5
21B
330
1F
100
AcDbEntity
  8
0-0
  6
Continuous
 62
     3
370
     9
100
AcDbCircle
 10
-330.9727849187075
 20
-206.2510188180444
 30
0.0
 40
5.000000064437454
100
AcDbArc
 50
8.53070068359375
 51
90.0
  0
ARC
  5
21C
330
1F
100
AcDbEntity
  8
0-0
  6
Continuous
 62
     3
370
     9
100
AcDbCircle
 10
-387.7592344541807
 20
-153.0666745005823
 30
0.0
 40
5.000000064437454
100
AcDbArc
 50
9.074493408203127
 51
74.99990844726562
  0
ARC
  5
21D
330
1F
100
AcDbEntity
  8
0-0
  6
Continuous
 62
     3
370
     9
100
AcDbCircle
 10
-272.7625666437922
 20
-151.2509610820857
 30
0.0
 40
5.000000064437454
100
AcDbArc
 50
6.928237915039062
 51
90.0
  0
ARC
  5
21E
330
1F
100
AcDbEntity
  8
0-0
  6
Continuous
 62
     3
370
     9
100
AcDbCircle
 10
-318.364736196157
 20
-152.6806683772715
 30
0.0
 40
10.00000012887491
100
AcDbArc
 50
40.01387023925781
 51
75.00041198730469
  0
ARC
  5
21F
330
1F
100
AcDbEntity
  8
0-0
  6
JWW_DASHED1
 62
     3
370
     9
100
AcDbCircle
 10
-318.364736196157
 20
-152.6806683772715
 30
0.0
 40
10.00000012887491
100
AcDbArc
 50
6.999725341796875
 51
40.01387023925781
  0
ARC
  5
220
330
1F
100
AcDbEntity
  8
0-0
  6
JWW_DASHED1
 62
     3
370
     9
100
AcDbCircle
 10
-330.502649255701
 20
-163.2322447339016
 30
0.0
 40
10.00000012887491
100
AcDbArc
 50
7.000076293945312
 51
74.99990844726562
  0
ARC
  5
221
330
1F
100
AcDbEntity
  8
0-0
  6
Continuous
 62
     3
370
     9
100
AcDbCircle
 10
159.0169545766472
 20
-159.0836686676009
 30
0.0
 40
36.66666520608438
100
AcDbArc
 50
58.20979309082031
 51
105.0000305175781
  0
ARC
  5
222
330
1F
100
AcDbEntity
  8
0-0
  6
Continuous
 62
     3
370
     9
100
AcDbCircle
 10
80.42165395375861
 20
-133.5559207658906
 30
0.0
 40
5.000000064437454
100
AcDbArc
 50
221.5644226074219
 51
285.0000915527344
  0
ARC
  5
223
330
1F
100
AcDbEntity
  8
0-0
  6
Continuous
 62
     3
370
     9
100
AcDbCircle
 10
96.99022447740731
 20
-129.116355468171
 30
0.0
 40
5.000000064437454
100
AcDbArc
 50
285.0000915527344
 51
348.4351043701172
  0
ARC
  5
224
330
1F
100
AcDbEntity
  8
0-0
  6
Continuous
 62
     3
370
     9
100
AcDbCircle
 10
117.4604261243667
 20
-116.2982303362033
 30
0.0
 40
5.416692108721347
100
AcDbArc
 50
217.62109375
 51
352.3794097900391
  0
ARC
  5
225
330
1F
100
AcDbEntity
  8
0-0
  6
Continuous
 62
     3
370
     9
100
AcDbCircle
 10
106.363244958826
 20
-124.8794433851897
 30
0.0
 40
3.333333376291636
100
AcDbArc
 50
104.9992218017578
 51
168.4335784912109
  0
ARC
  5
226
330
1F
100
AcDbEntity
  8
0-0
  6
Continuous
 62
     3
370
     9
100
AcDbCircle
 10
70.18581081081095
 20
-134.5730221568323
 30
0.0
 40
3.333333376291636
100
AcDbArc
 50
41.56501770019531
 51
104.9997711181641
  0
ARC
  5
227
330
1F
100
AcDbEntity
  8
0-0
  6
Continuous
 62
     3
370
     9
100
AcDbCircle
 10
56.28488901499168
 20
-132.6901288264902
 30
0.0
 40
5.416692108721347
100
AcDbArc
 50
217.62109375
 51
352.3794097900391
  0
ARC
  5
228
330
1F
100
AcDbEntity
  8
0-0
  6
Continuous
 62
     3
370
     9
100
AcDbCircle
 10
136.7790428367823
 20
-111.1217892466762
 30
0.0
 40
5.416692108721347
100
AcDbArc
 50
217.6203002929688
 51
352.3820037841797
  0
ARC
  5
229
330
1F
100
AcDbEntity
  8
0-0
  6
Continuous
 62
     3
370
     9
100
AcDbCircle
 10
120.6264186549834
 20
-138.3120853166719
 30
0.0
 40
6.666666752583272
100
AcDbArc
 50
104.9994964599609
 51
168.4337921142578
  0
ARC
  5
22A
330
1F
100
AcDbEntity
  8
0-0
  6
Continuous
 62
     3
370
     9
100
AcDbCircle
 10
64.54987397065054
 20
-153.3378685461905
 30
0.0
 40
6.666666752583272
100
AcDbArc
 50
41.56492614746094
 51
105.0005187988281
  0
ARC
  5
22B
330
1F
100
AcDbEntity
  8
0-0
  6
Continuous
 62
     3
370
     9
100
AcDbCircle
 10
75.91280550570104
 20
-148.567599925519
 30
0.0
 40
5.000000064437454
100
AcDbArc
 50
221.5634918212891
 51
284.9987182617188
  0
ARC
  5
22C
330
1F
100
AcDbEntity
  8
0-0
  6
Continuous
 62
     3
370
     9
100
AcDbCircle
 10
108.4006644584039
 20
-139.862666965215
 30
0.0
 40
5.000000064437454
100
AcDbArc
 50
285.0000915527344
 51
348.4353942871094
  0
ARC
  5
22D
330
1F
100
AcDbEntity
  8
0-0
  6
Continuous
 62
     3
370
     9
100
AcDbCircle
 10
3.806366791596361
 20
-188.583568042073
 30
0.0
 40
10.00000012887491
100
AcDbArc
 50
274.4604187011719
 51
353.0000152587891
  0
ARC
  5
22E
330
1F
100
AcDbEntity
  8
0-0
  6
Continuous
 62
     3
370
     9
100
AcDbCircle
 10
7.878978832348196
 20
-247.9175342714861
 30
0.0
 40
3.333333376291636
100
AcDbArc
 50
90.0
 51
171.6341094970703
  0
ARC
  5
22F
330
1F
100
AcDbEntity
  8
0-0
  6
Continuous
 62
     3
370
     9
100
AcDbCircle
 10
20.01021101668073
 20
-237.9177487193323
 30
0.0
 40
3.333333376291636
100
AcDbArc
 50
90.0
 51
173.0000152587891
  0
ARC
  5
230
330
1F
100
AcDbEntity
  8
0-0
  6
Continuous
 62
     3
370
     9
100
AcDbCircle
 10
9.349513698268765
 20
-237.9177487193323
 30
0.0
 40
3.333333376291636
100
AcDbArc
 50
90.0
 51
171.6341094970703
  0
ARC
  5
231
330
1F
100
AcDbEntity
  8
0-0
  6
JWW_PHANTOM1
 62
     3
370
     9
100
AcDbCircle
 10
40.97281791068411
 20
-206.2510188180444
 30
0.0
 40
5.000000064437454
100
AcDbArc
 50
90.0
 51
171.4692993164062
  0
ARC
  5
232
330
1F
100
AcDbEntity
  8
0-0
  6
JWW_PHANTOM1
 62
     3
370
     9
100
AcDbCircle
 10
80.7354076488599
 20
-196.250985826068
 30
0.0
 40
5.000000064437454
100
AcDbArc
 50
270.0
 51
350.9255065917969
  0
ARC
  5
233
330
1F
100
AcDbEntity
  8
0-0
  6
JWW_PHANTOM1
 62
     3
370
     9
100
AcDbCircle
 10
97.75926744615731
 20
-153.0666745005823
 30
0.0
 40
5.000000064437454
100
AcDbArc
 50
105.0000915527344
 51
170.9255065917969
  0
ARC
  5
234
330
1F
100
AcDbEntity
  8
0-0
  6
Continuous
 62
     3
370
     9
100
AcDbCircle
 10
28.36476918813361
 20
-152.6806683772715
 30
0.0
 40
10.00000012887491
100
AcDbArc
 50
104.9995880126953
 51
173.0002746582031
  0
ARC
  5
235
330
1F
100
AcDbEntity
  8
0-0
  6
Continuous
 62
     3
370
     9
100
AcDbCircle
 10
40.50268224767734
 20
-163.2322447339016
 30
0.0
 40
10.00000012887491
100
AcDbArc
 50
105.0000915527344
 51
172.9999237060547
  0
ARC
  5
236
330
1F
100
AcDbEntity
  8
0-0
  6
Continuous
 62
     3
370
     9
100
AcDbCircle
 10
-144.9999835040117
 20
769.019432908096
 30
0.0
 40
330.0000061859956
100
AcDbArc
 50
0.0
 51
180.0
  0
ARC
  5
237
330
1F
100
AcDbEntity
  8
0-0
  6
Continuous
 62
     3
370
     9
100
AcDbCircle
 10
-144.9999835040117
 20
769.019432908096
 30
0.0
 40
333.3333298966692
100
AcDbArc
 50
0.0
 51
180.0
  0
ARC
  5
238
330
1F
100
AcDbEntity
  8
0-1
  6
Continuous
 62
     2
370
     9
100
AcDbCircle
 10
-369.2203006228885
 20
-109.7212798505613
 30
0.0
 40
6.666666752583272
100
AcDbArc
 50
190.6148834228516
 51
255.0005035400391
  0
ARC
  5
239
330
1F
100
AcDbEntity
  8
0-1
  6
JWW_DASHED1
 62
     2
370
     9
100
AcDbCircle
 10
79.2205810546875
 20
-109.7212798505613
 30
0.0
 40
6.666666752583272
100
AcDbArc
 50
284.9994964599609
 51
349.3851165771484
  0
ARC
  5
23A
330
1F
100
AcDbEntity
  8
0-1
  6
Continuous
 62
     2
370
     9
100
AcDbCircle
 10
-252.4321684966216
 20
-131.7296911549319
 30
0.0
 40
5.000000064437454
100
AcDbArc
 50
11.31021118164062
 51
90.0
  0
ARC
  5
23B
330
1F
100
AcDbEntity
  8
0-1
  6
Continuous
 62
     2
370
     9
100
AcDbCircle
 10
47.52230257601354
 20
-113.3962560963381
 30
0.0
 40
5.000000064437454
100
AcDbArc
 50
90.0
 51
169.91162109375
  0
ARC
  5
23C
330
1F
100
AcDbEntity
  8
0-1
  6
Continuous
 62
     2
370
     9
100
AcDbCircle
 10
34.17911014041408
 20
-121.7899097597673
 30
0.0
 40
6.666666752583272
100
AcDbArc
 50
284.9994964599609
 51
349.9115142822265
  0
ARC
  5
23D
330
1F
100
AcDbEntity
  8
0-1
  6
Continuous
 62
     2
370
     9
100
AcDbCircle
 10
82.10177034945104
 20
-103.3962231043618
 30
0.0
 40
5.000000064437454
100
AcDbArc
 50
270.0
 51
349.3838348388672
  0
ARC
  5
23E
330
1F
100
AcDbEntity
  8
0-1
  6
Continuous
 62
     2
370
     9
100
AcDbCircle
 10
111.528303816512
 20
-97.61343072946758
 30
0.0
 40
10.00000012887491
100
AcDbArc
 50
188.7071380615234
 51
285.0002746582031
  0
ARC
  5
23F
330
1F
100
AcDbEntity
  8
0-1
  6
Continuous
 62
     2
370
     9
100
AcDbCircle
 10
-401.5281471046239
 20
-97.61343072946758
 30
0.0
 40
10.00000012887491
100
AcDbArc
 50
254.9997253417969
 51
351.2928619384766
  0
ARC
  5
240
330
1F
100
AcDbEntity
  8
0-1
  6
Continuous
 62
     4
370
     9
100
AcDbCircle
 10
-307.0786347260346
 20
-114.3970264589861
 30
0.0
 40
9.333911457577267
100
AcDbArc
 50
47.92556762695312
 51
132.0746307373047
  0
ARC
  5
241
330
1F
100
AcDbEntity
  8
0-1
  6
Continuous
 62
     4
370
     9
100
AcDbCircle
 10
-288.3333360826646
 20
-138.6943798426431
 30
0.0
 40
33.63136729678592
100
AcDbArc
 50
68.19786071777344
 51
111.8021392822266
  0
ARC
  5
242
330
1F
100
AcDbEntity
  8
0-1
  6
Continuous
 62
     4
370
     9
100
AcDbCircle
 10
-269.5879137193833
 20
-114.3970264589861
 30
0.0
 40
9.33396558503847
100
AcDbArc
 50
47.92572021484375
 51
132.0742797851562
  0
ARC
  5
243
330
1F
100
AcDbEntity
  8
0-1
  6
Continuous
 62
     2
370
     9
100
AcDbCircle
 10
-144.9999835040117
 20
769.019432908096
 30
0.0
 40
300.0
100
AcDbArc
 50
0.0
 51
180.0
  0
ARC
  5
244
330
1F
100
AcDbEntity
  8
0-1
  6
Continuous
 62
     2
370
     9
100
AcDbCircle
 10
-144.9999835040117
 20
769.019432908096
 30
0.0
 40
279.803466796875
100
AcDbArc
 50
0.0
 51
180.0
  0
ARC
  5
245
330
1F
100
AcDbEntity
  8
0-1
  6
Continuous
 62
     2
370
     9
100
AcDbCircle
 10
-144.9999835040117
 20
769.019432908096
 30
0.0
 40
298.3333381446632
100
AcDbArc
 50
0.0
 51
180.0
  0
ARC
  5
246
330
1F
100
AcDbEntity
  8
0-1
  6
Continuous
 62
     2
370
     9
100
AcDbCircle
 10
-144.9999835040117
 20
769.019432908096
 30
0.0
 40
244.9999731940192
100
AcDbArc
 50
139.2914886474609
 51
160.7085418701172
  0
ARC
  5
247
330
1F
100
AcDbEntity
  8
0-1
  6
Continuous
 62
     2
370
     9
100
AcDbCircle
 10
-144.9999835040117
 20
769.019432908096
 30
0.0
 40
248.3333432996595
100
AcDbArc
 50
138.0777740478516
 51
161.9222412109375
  0
ARC
  5
248
330
1F
100
AcDbEntity
  8
0-1
  6
Continuous
 62
     2
370
     9
100
AcDbCircle
 10
-144.9999835040117
 20
769.019432908096
 30
0.0
 40
234.9999711320207
100
AcDbArc
 50
139.4744873046875
 51
160.5255737304688
  0
ARC
  5
249
330
1F
100
AcDbEntity
  8
0-1
  6
Continuous
 62
     2
370
     9
100
AcDbCircle
 10
-144.9999835040117
 20
769.019432908096
 30
0.0
 40
229.9999701010215
100
AcDbArc
 50
138.3233795166016
 51
161.6766510009766
  0
ARC
  5
24A
330
1F
100
AcDbEntity
  8
0-1
  6
Continuous
 62
     2
370
     9
100
AcDbCircle
 10
-144.9999835040117
 20
769.019432908096
 30
0.0
 40
244.9999731940192
100
AcDbArc
 50
109.2914886474609
 51
130.7085418701172
  0
ARC
  5
24B
330
1F
100
AcDbEntity
  8
0-1
  6
Continuous
 62
     2
370
     9
100
AcDbCircle
 10
-144.9999835040117
 20
769.019432908096
 30
0.0
 40
248.3333432996595
100
AcDbArc
 50
108.0777740478515
 51
131.9222412109375
  0
ARC
  5
24C
330
1F
100
AcDbEntity
  8
0-1
  6
Continuous
 62
     2
370
     9
100
AcDbCircle
 10
-144.9999835040117
 20
769.019432908096
 30
0.0
 40
234.9999711320207
100
AcDbArc
 50
109.4744873046875
 51
130.5255737304687
  0
ARC
  5
24D
330
1F
100
AcDbEntity
  8
0-1
  6
Continuous
 62
     2
370
     9
100
AcDbCircle
 10
-144.9999835040117
 20
769.019432908096
 30
0.0
 40
229.9999701010215
100
AcDbArc
 50
108.3233795166015
 51
131.6766510009766
  0
ARC
  5
24E
330
1F
100
AcDbEntity
  8
0-1
  6
Continuous
 62
     2
370
     9
100
AcDbCircle
 10
-144.9999835040117
 20
769.019432908096
 30
0.0
 40
244.9999731940192
100
AcDbArc
 50
79.29148864746095
 51
100.7085418701172
  0
ARC
  5
24F
330
1F
100
AcDbEntity
  8
0-1
  6
Continuous
 62
     2
370
     9
100
AcDbCircle
 10
-144.9999835040117
 20
769.019432908096
 30
0.0
 40
248.3333432996595
100
AcDbArc
 50
78.07777404785158
 51
101.9222412109375
  0
ARC
  5
250
330
1F
100
AcDbEntity
  8
0-1
  6
Continuous
 62
     2
370
     9
100
AcDbCircle
 10
-144.9999835040117
 20
769.019432908096
 30
0.0
 40
234.9999711320207
100
AcDbArc
 50
79.47448730468751
 51
100.5255737304688
  0
ARC
  5
251
330
1F
100
AcDbEntity
  8
0-1
  6
Continuous
 62
     2
370
     9
100
AcDbCircle
 10
-144.9999835040117
 20
769.019432908096
 30
0.0
 40
244.9999731940192
100
AcDbArc
 50
49.29148864746093
 51
70.70854187011717
  0
ARC
  5
252
330
1F
100
AcDbEntity
  8
0-1
  6
Continuous
 62
     2
370
     9
100
AcDbCircle
 10
-144.9999835040117
 20
769.019432908096
 30
0.0
 40
248.3333432996595
100
AcDbArc
 50
48.07777404785156
 51
71.9222412109375
  0
ARC
  5
253
330
1F
100
AcDbEntity
  8
0-1
  6
Continuous
 62
     2
370
     9
100
AcDbCircle
 10
-144.9999835040117
 20
769.019432908096
 30
0.0
 40
234.9999711320207
100
AcDbArc
 50
49.4744873046875
 51
70.52557373046875
  0
ARC
  5
254
330
1F
100
AcDbEntity
  8
0-1
  6
Continuous
 62
     2
370
     9
100
AcDbCircle
 10
-144.9999835040117
 20
769.019432908096
 30
0.0
 40
229.9999701010215
100
AcDbArc
 50
48.32337951660157
 51
71.67665100097656
  0
ARC
  5
255
330
1F
100
AcDbEntity
  8
0-1
  6
Continuous
 62
     2
370
     9
100
AcDbCircle
 10
-144.9999835040117
 20
769.019432908096
 30
0.0
 40
244.9999731940192
100
AcDbArc
 50
19.29148864746091
 51
40.70854187011716
  0
ARC
  5
256
330
1F
100
AcDbEntity
  8
0-1
  6
Continuous
 62
     2
370
     9
100
AcDbCircle
 10
-144.9999835040117
 20
769.019432908096
 30
0.0
 40
248.3333432996595
100
AcDbArc
 50
18.07777404785154
 51
41.92224121093749
  0
ARC
  5
257
330
1F
100
AcDbEntity
  8
0-1
  6
Continuous
 62
     2
370
     9
100
AcDbCircle
 10
-144.9999835040117
 20
769.019432908096
 30
0.0
 40
234.9999711320207
100
AcDbArc
 50
19.47448730468749
 51
40.52557373046873
  0
ARC
  5
258
330
1F
100
AcDbEntity
  8
0-1
  6
Continuous
 62
     2
370
     9
100
AcDbCircle
 10
-144.9999835040117
 20
769.019432908096
 30
0.0
 40
229.9999701010215
100
AcDbArc
 50
18.32337951660155
 51
41.67665100097655
  0
ARC
  5
259
330
1F
100
AcDbEntity
  8
0-1
  6
Continuous
 62
     2
370
     9
100
AcDbCircle
 10
-144.9999835040117
 20
769.019432908096
 30
0.0
 40
234.9999711320207
100
AcDbArc
 50
0.0000000000000254
 51
10.52557373046877
  0
ARC
  5
25A
330
1F
100
AcDbEntity
  8
0-1
  6
Continuous
 62
     2
370
     9
100
AcDbCircle
 10
-144.9999835040117
 20
769.019432908096
 30
0.0
 40
244.9999731940192
100
AcDbArc
 50
0.0000000000000254
 51
10.70854187011721
  0
ARC
  5
25B
330
1F
100
AcDbEntity
  8
0-1
  6
Continuous
 62
     2
370
     9
100
AcDbCircle
 10
-144.9999835040117
 20
769.019432908096
 30
0.0
 40
248.3333432996595
100
AcDbArc
 50
0.0000000000000254
 51
11.92224121093752
  0
ARC
  5
25C
330
1F
100
AcDbEntity
  8
0-1
  6
Continuous
 62
     2
370
     9
100
AcDbCircle
 10
-144.9999835040117
 20
769.019432908096
 30
0.0
 40
229.9999701010215
100
AcDbArc
 50
8.583679199218768
 51
11.67665100097658
  0
ARC
  5
25D
330
1F
100
AcDbEntity
  8
0-1
  6
Continuous
 62
     2
370
     9
100
AcDbCircle
 10
-144.9999835040117
 20
769.019432908096
 30
0.0
 40
231.2515825838656
100
AcDbArc
 50
0.0
 51
7.676528930664062
  0
ARC
  5
25E
330
1F
100
AcDbEntity
  8
0-1
  6
Continuous
 62
     2
370
     9
100
AcDbCircle
 10
-144.9999835040117
 20
769.019432908096
 30
0.0
 40
234.9999711320207
100
AcDbArc
 50
169.4744110107422
 51
179.9999847412109
  0
ARC
  5
25F
330
1F
100
AcDbEntity
  8
0-1
  6
Continuous
 62
     2
370
     9
100
AcDbCircle
 10
-144.9999835040117
 20
769.019432908096
 30
0.0
 40
244.9999731940192
100
AcDbArc
 50
169.2914428710938
 51
179.999984741211
  0
ARC
  5
260
330
1F
100
AcDbEntity
  8
0-1
  6
Continuous
 62
     2
370
     9
100
AcDbCircle
 10
-144.9999835040117
 20
769.019432908096
 30
0.0
 40
248.3333432996595
100
AcDbArc
 50
168.0777740478516
 51
180.0000152587891
  0
ARC
  5
261
330
1F
100
AcDbEntity
  8
0-1
  6
Continuous
 62
     2
370
     9
100
AcDbCircle
 10
-144.9999835040117
 20
769.019432908096
 30
0.0
 40
229.9999701010215
100
AcDbArc
 50
168.3233489990234
 51
171.4163208007812
  0
ARC
  5
262
330
1F
100
AcDbEntity
  8
0-1
  6
Continuous
 62
     2
370
     9
100
AcDbCircle
 10
-144.9999835040117
 20
769.019432908096
 30
0.0
 40
231.2515825838656
100
AcDbArc
 50
172.3234710693359
 51
180.0
  0
ARC
  5
263
330
1F
100
AcDbEntity
  8
0-1
  6
Continuous
 62
     2
370
     9
100
AcDbCircle
 10
-144.9999835040117
 20
769.019432908096
 30
0.0
 40
229.9999701010215
100
AcDbArc
 50
95.13783264160158
 51
101.6766510009766
  0
ARC
  5
264
330
1F
100
AcDbEntity
  8
0-1
  6
Continuous
 62
     2
370
     9
100
AcDbCircle
 10
-144.9999835040117
 20
769.019432908096
 30
0.0
 40
229.9999701010215
100
AcDbArc
 50
78.32337951660159
 51
84.86216735839845
  0
ARC
  5
265
330
1F
100
AcDbEntity
  8
0-1
  6
Continuous
 62
     2
370
     9
100
AcDbCircle
 10
-144.9999835040117
 20
769.019432908096
 30
0.0
 40
231.2515825838656
100
AcDbArc
 50
86.596435546875
 51
93.403564453125
  0
ARC
  5
266
330
1F
100
AcDbEntity
  8
0-1
  6
Continuous
 62
     2
370
     9
100
AcDbCircle
 10
4.180990683065886
 20
-135.0630767255612
 30
0.0
 40
3.333333376291636
100
AcDbArc
 50
90.0
 51
164.0540161132812
  0
ARC
  5
267
330
1F
100
AcDbEntity
  8
0-1
  6
Continuous
 62
     2
370
     9
100
AcDbCircle
 10
75.83164524387684
 20
802.3527937347428
 30
0.0
 40
6.666666752583272
100
AcDbArc
 50
326.6130981445312
 51
8.583190917968754
  0
ARC
  5
268
330
1F
100
AcDbEntity
  8
0-1
  6
Continuous
 62
     2
370
     9
100
AcDbCircle
 10
77.57238439611513
 20
799.0195318840249
 30
0.0
 40
6.666666752583272
100
AcDbArc
 50
311.1853179931641
 51
7.676574707031278
  0
ARC
  5
269
330
1F
100
AcDbEntity
  8
0-1
  6
Continuous
 62
     2
370
     9
100
AcDbCircle
 10
-164.9998020481416
 20
991.4554614659506
 30
0.0
 40
6.666666752583272
100
AcDbArc
 50
53.16412353515625
 51
95.13787841796874
  0
ARC
  5
26A
330
1F
100
AcDbEntity
  8
0-1
  6
Continuous
 62
     2
370
     9
100
AcDbCircle
 10
-158.333278346706
 20
993.2080777296754
 30
0.0
 40
6.666666752583272
100
AcDbArc
 50
36.91690063476562
 51
93.40336608886719
  0
ARC
  5
26B
330
1F
100
AcDbEntity
  8
0-1
  6
Continuous
 62
     2
370
     9
100
AcDbCircle
 10
-131.6666886613174
 20
993.2080777296754
 30
0.0
 40
6.666666752583272
100
AcDbArc
 50
86.59663391113284
 51
143.0830993652344
  0
ARC
  5
26C
330
1F
100
AcDbEntity
  8
0-1
  6
Continuous
 62
     2
370
     9
100
AcDbCircle
 10
-124.9999175200591
 20
991.4554614659506
 30
0.0
 40
6.666666752583272
100
AcDbArc
 50
84.86212158203125
 51
126.8358764648437
  0
ARC
  5
26D
330
1F
100
AcDbEntity
  8
0-1
  6
Continuous
 62
     2
370
     9
100
AcDbCircle
 10
-365.8317359718114
 20
802.3527937347428
 30
0.0
 40
6.666666752583272
100
AcDbArc
 50
171.4168090820312
 51
213.388671875
  0
ARC
  5
26E
330
1F
100
AcDbEntity
  8
0-1
  6
Continuous
 62
     2
370
     9
100
AcDbCircle
 10
-367.5722276842271
 20
799.0195318840249
 30
0.0
 40
6.666666752583272
100
AcDbArc
 50
172.3234252929687
 51
228.8124694824218
  0
ARC
  5
26F
330
1F
100
AcDbEntity
  8
0-5
  6
Continuous
 62
     2
370
     9
100
AcDbCircle
 10
-471.0962243982263
 20
-376.2508373621745
 30
0.0
 40
5.000000064437454
100
AcDbArc
 50
194.0364074707031
 51
270.0
  0
ARC
  5
270
330
1F
100
AcDbEntity
  8
0-5
  6
Continuous
 62
     2
370
     9
100
AcDbCircle
 10
-425.9811401367188
 20
-386.2508703541508
 30
0.0
 40
5.000000064437454
100
AcDbArc
 50
14.03511047363282
 51
90.0
  0
ARC
  5
271
330
1F
100
AcDbEntity
  8
0-5
  6
Continuous
 62
     2
370
     9
100
AcDbCircle
 10
-414.8399146827489
 20
-389.5843796446912
 30
0.0
 40
5.000000064437454
100
AcDbArc
 50
194.0364074707031
 51
270.0
  0
ARC
  5
272
330
1F
100
AcDbEntity
  8
0-5
  6
Continuous
 62
     2
370
     9
100
AcDbCircle
 10
-415.5707281989018
 20
-372.9175755114565
 30
0.0
 40
5.000000064437454
100
AcDbArc
 50
14.03640747070312
 51
90.0
  0
ARC
  5
273
330
1F
100
AcDbEntity
  8
0-5
  6
Continuous
 62
     2
370
     9
100
AcDbCircle
 10
-404.4295027449323
 20
-376.2508373621745
 30
0.0
 40
5.000000064437454
100
AcDbArc
 50
194.0364074707031
 51
270.0
  0
ARC
  5
274
330
1F
100
AcDbEntity
  8
0-5
  6
Continuous
 62
     2
370
     9
100
AcDbCircle
 10
10.5706292229732
 20
-389.5843796446912
 30
0.0
 40
5.000000064437454
100
AcDbArc
 50
194.0352783203125
 51
270.0
  0
ARC
  5
275
330
1F
100
AcDbEntity
  8
0-5
  6
Continuous
 62
     2
370
     9
100
AcDbCircle
 10
181.0962573902029
 20
-376.2508373621745
 30
0.0
 40
5.000000064437454
100
AcDbArc
 50
270.0
 51
345.9650573730469
  0
ARC
  5
276
330
1F
100
AcDbEntity
  8
0-5
  6
Continuous
 62
     2
370
     9
100
AcDbCircle
 10
135.9810494087839
 20
-386.2508703541508
 30
0.0
 40
5.000000064437454
100
AcDbArc
 50
90.0
 51
165.9650573730469
  0
ARC
  5
277
330
1F
100
AcDbEntity
  8
0-5
  6
Continuous
 62
     2
370
     9
100
AcDbCircle
 10
124.8398239548143
 20
-389.5843796446912
 30
0.0
 40
5.000000064437454
100
AcDbArc
 50
270.0
 51
345.9650573730469
  0
ARC
  5
278
330
1F
100
AcDbEntity
  8
0-5
  6
Continuous
 62
     2
370
     9
100
AcDbCircle
 10
114.4295357369089
 20
-376.2508373621745
 30
0.0
 40
5.000000064437454
100
AcDbArc
 50
270.0
 51
345.9650573730469
  0
ARC
  5
279
330
1F
100
AcDbEntity
  8
0-5
  6
Continuous
 62
     2
370
     9
100
AcDbCircle
 10
125.5707611908784
 20
-372.9175755114565
 30
0.0
 40
5.000000064437454
100
AcDbArc
 50
90.0
 51
165.9650573730469
  0
ARC
  5
27A
330
1F
100
AcDbEntity
  8
0-0
  6
Continuous
 62
     4
370
     9
100
AcDbCircle
 10
-339.5881446632177
 20
-406.9170443406372
 30
0.0
 40
9.333911457577267
100
AcDbArc
 50
227.9255676269531
 51
312.0746307373047
  0
ARC
  5
27B
330
1F
100
AcDbEntity
  8
0-0
  6
Continuous
 62
     4
370
     9
100
AcDbCircle
 10
-358.3334433065878
 20
-382.6194435171575
 30
0.0
 40
33.63136729678592
100
AcDbArc
 50
248.1978607177734
 51
291.8021392822266
  0
ARC
  5
27C
330
1F
100
AcDbEntity
  8
0-0
  6
Continuous
 62
     4
370
     9
100
AcDbCircle
 10
-377.0789893897802
 20
-406.9170443406372
 30
0.0
 40
9.33396558503847
100
AcDbArc
 50
227.9257202148438
 51
312.0742797851562
  0
ARC
  5
27D
330
1F
100
AcDbEntity
  8
0-5
  6
Continuous
 62
     2
370
     9
100
AcDbCircle
 10
-383.4651637721706
 20
-386.2508703541508
 30
0.0
 40
5.000000064437454
100
AcDbArc
 50
20.55572509765625
 51
90.0
  0
ARC
  5
27E
330
1F
100
AcDbEntity
  8
0-5
  6
Continuous
 62
     2
370
     9
100
AcDbCircle
 10
-333.2017228410049
 20
-386.2508703541508
 30
0.0
 40
5.000000064437454
100
AcDbArc
 50
90.0
 51
159.4445037841797
  0
ARC
  5
27F
330
1F
100
AcDbEntity
  8
0-5
  6
Continuous
 62
     2
370
     9
100
AcDbCircle
 10
-300.5705962309966
 20
-389.5843796446912
 30
0.0
 40
5.000000064437454
100
AcDbArc
 50
270.0
 51
345.9647216796875
  0
ARC
  5
280
330
1F
100
AcDbEntity
  8
0-0
  6
Continuous
 62
     3
370
     9
100
AcDbCircle
 10
-370.7353746568833
 20
-196.250985826068
 30
0.0
 40
5.000000064437454
100
AcDbArc
 50
189.0746765136718
 51
259.2631225585938
  0
ARC
  5
281
330
1F
100
AcDbEntity
  8
0-0
  6
Continuous
 62
     3
370
     9
100
AcDbCircle
 10
-370.7353746568833
 20
-196.250985826068
 30
0.0
 40
5.000000064437454
100
AcDbArc
 50
189.0744934082031
 51
259.2631225585938
  0
ELLIPSE
  5
282
330
1F
100
AcDbEntity
  8
0-2
  6
Continuous
 62
     6
370
     9
100
AcDbEllipse
 10
66.66672165329402
 20
-85.08617110900715
 30
0.0
 11
17.4999340160473
 21
0.0
 31
0.0
210
0.0
220
0.0
230
1.0
 40
0.7428
 41
0.0
 42
1.475408288134874
  0
ELLIPSE
  5
283
330
1F
100
AcDbEntity
  8
0-2
  6
Continuous
 62
     6
370
     9
100
AcDbEllipse
 10
66.66672165329402
 20
-85.08617110900715
 30
0.0
 11
17.4999340160473
 21
0.0
 31
0.0
210
0.0
220
0.0
230
1.0
 40
0.7428
 41
1.666184365454919
 42
3.141592653589793
  0
ELLIPSE
  5
284
330
1F
100
AcDbEntity
  8
0-2
  6
Continuous
 62
     6
370
     9
100
AcDbEllipse
 10
-314.5404300174198
 20
104.4178440145147
 30
0.0
 11
3.266704057400761
 21
17.19233361610258
 31
0.0
210
0.0
220
0.0
230
0.9999999999999998
 40
0.7428
 41
0.0
 42
1.475408288134874
  0
ELLIPSE
  5
285
330
1F
100
AcDbEntity
  8
0-2
  6
Continuous
 62
     6
370
     9
100
AcDbEllipse
 10
-314.5404300174198
 20
104.4178440145147
 30
0.0
 11
3.266704057400761
 21
17.19233361610258
 31
0.0
210
0.0
220
0.0
230
0.9999999999999998
 40
0.7428
 41
1.666184365454919
 42
3.141592653589793
  0
ARC
  5
286
330
1F
100
AcDbEntity
  8
0-2
  6
Continuous
 62
     6
370
     9
100
AcDbCircle
 10
-330.947546056799
 20
-98.39620660837383
 30
0.0
 40
10.00000012887491
100
AcDbArc
 50
270.0
 51
349.2415618896485
  0
ARC
  5
287
330
1F
100
AcDbEntity
  8
0-2
  6
Continuous
 62
     6
370
     9
100
AcDbCircle
 10
40.94757904877554
 20
-98.39620660837383
 30
0.0
 40
10.00000012887491
100
AcDbArc
 50
190.7584381103516
 51
270.0
  0
ARC
  5
288
330
1F
100
AcDbEntity
  8
0-2
  6
Continuous
 62
     6
370
     9
100
AcDbCircle
 10
-341.3981669657937
 20
-81.97016142256288
 30
0.0
 40
6.666666752583272
100
AcDbArc
 50
272.5442352294922
 51
349.2417449951172
  0
ARC
  5
289
330
1F
100
AcDbEntity
  8
0-2
  6
Continuous
 62
     6
370
     9
100
AcDbCircle
 10
-345.1528188344594
 20
-101.7297158989142
 30
0.0
 40
6.666666752583272
100
AcDbArc
 50
270.0
 51
349.241943359375
  0
ARC
  5
28A
330
1F
100
AcDbEntity
  8
0-2
  6
Continuous
 62
     6
370
     9
100
AcDbCircle
 10
51.39844739759297
 20
-81.97028514247435
 30
0.0
 40
6.666666752583272
100
AcDbArc
 50
190.7582550048828
 51
267.4557342529297
  0
ARC
  5
28B
330
1F
100
AcDbEntity
  8
0-2
  6
Continuous
 62
     6
370
     9
100
AcDbCircle
 10
50.75906289590392
 20
-78.60535099445897
 30
0.0
 40
6.666666752583272
100
AcDbArc
 50
190.7577362060547
 51
267.4557342529297
  0
ARC
  5
28C
330
1F
100
AcDbEntity
  8
0-2
  6
Continuous
 62
     6
370
     9
100
AcDbCircle
 10
-144.9999835040117
 20
769.019432908096
 30
0.0
 40
225.0
100
AcDbArc
 50
4.248031616210938
 51
8.519622802734373
  0
ARC
  5
28D
330
1F
100
AcDbEntity
  8
0-2
  6
Continuous
 62
     6
370
     9
100
AcDbCircle
 10
-144.9999835040117
 20
769.019432908096
 30
0.0
 40
225.0
100
AcDbArc
 50
171.4803771972657
 51
175.7519683837891
  0
ARC
  5
28E
330
1F
100
AcDbEntity
  8
0-2
  6
Continuous
 62
     6
370
     9
100
AcDbCircle
 10
-144.9999835040117
 20
769.019432908096
 30
0.0
 40
228.3333546406514
100
AcDbArc
 50
3.347625732421875
 51
176.6523590087891
  0
ARC
  5
28F
330
1F
100
AcDbEntity
  8
0-2
  6
Continuous
 62
     6
370
     9
100
AcDbCircle
 10
66.66672165329402
 20
769.019432908096
 30
0.0
 40
17.49999974225019
100
AcDbArc
 50
0.0
 51
180.0
  0
ARC
  5
290
330
1F
100
AcDbEntity
  8
0-2
  6
Continuous
 62
     6
370
     9
100
AcDbCircle
 10
-356.6666886613174
 20
769.019432908096
 30
0.0
 40
17.49999974225019
100
AcDbArc
 50
0.0
 51
180.0
  0
ARC
  5
291
330
1F
100
AcDbEntity
  8
0-2
  6
Continuous
 62
     6
370
     9
100
AcDbCircle
 10
-310.2179037558065
 20
794.0192679482142
 30
0.0
 40
6.666666752583272
100
AcDbArc
 50
270.0
 51
351.3954620361328
  0
ARC
  5
292
330
1F
100
AcDbEntity
  8
0-2
  6
Continuous
 62
     6
370
     9
100
AcDbCircle
 10
-307.2084169130068
 20
809.1487284634168
 30
0.0
 40
6.666666752583272
100
AcDbArc
 50
346.1040496826172
 51
67.49980163574222
  0
ARC
  5
293
330
1F
100
AcDbEntity
  8
0-2
  6
Continuous
 62
     6
370
     9
100
AcDbCircle
 10
-144.9999835040117
 20
769.019432908096
 30
0.0
 40
160.431939202386
100
AcDbArc
 50
166.1044616699219
 51
171.3955688476563
  0
ARC
  5
294
330
1F
100
AcDbEntity
  8
0-2
  6
Continuous
 62
     6
370
     9
100
AcDbCircle
 10
-288.0743903082768
 20
855.3422791918798
 30
0.0
 40
6.666666752583272
100
AcDbArc
 50
247.5
 51
328.8954620361328
  0
ARC
  5
295
330
1F
100
AcDbEntity
  8
0-2
  6
Continuous
 62
     6
370
     9
100
AcDbCircle
 10
-279.5043120513091
 20
868.1685698379947
 30
0.0
 40
6.666666752583272
100
AcDbArc
 50
323.6040496826172
 51
44.99980163574219
  0
ARC
  5
296
330
1F
100
AcDbEntity
  8
0-2
  6
Continuous
 62
     6
370
     9
100
AcDbCircle
 10
-144.9999835040117
 20
769.019432908096
 30
0.0
 40
160.431939202386
100
AcDbArc
 50
143.6044616699219
 51
148.8955688476562
  0
ARC
  5
297
330
1F
100
AcDbEntity
  8
0-2
  6
Continuous
 62
     6
370
     9
100
AcDbCircle
 10
-244.1491204339104
 20
903.5237614553931
 30
0.0
 40
6.666666752583272
100
AcDbArc
 50
225.0
 51
306.3954620361328
  0
ARC
  5
298
330
1F
100
AcDbEntity
  8
0-2
  6
Continuous
 62
     6
370
     9
100
AcDbCircle
 10
-231.3230772276182
 20
912.0935922725384
 30
0.0
 40
6.666666752583272
100
AcDbArc
 50
301.1040496826172
 51
22.49980163574221
  0
ARC
  5
299
330
1F
100
AcDbEntity
  8
0-2
  6
Continuous
 62
     6
370
     9
100
AcDbCircle
 10
-144.9999835040117
 20
769.019432908096
 30
0.0
 40
160.431939202386
100
AcDbArc
 50
121.1044616699219
 51
126.3955688476563
  0
ARC
  5
29A
330
1F
100
AcDbEntity
  8
0-2
  6
Continuous
 62
     6
370
     9
100
AcDbCircle
 10
-185.1292790593325
 20
931.2276188772681
 30
0.0
 40
6.666666752583272
100
AcDbArc
 50
202.5
 51
283.8954620361328
  0
ARC
  5
29B
330
1F
100
AcDbEntity
  8
0-2
  6
Continuous
 62
     6
370
     9
100
AcDbCircle
 10
-169.9998185441299
 20
934.2369820001567
 30
0.0
 40
6.666666752583272
100
AcDbArc
 50
278.6040496826172
 51
359.9998016357422
  0
ARC
  5
29C
330
1F
100
AcDbEntity
  8
0-2
  6
Continuous
 62
     6
370
     9
100
AcDbCircle
 10
-144.9999835040117
 20
769.019432908096
 30
0.0
 40
160.431939202386
100
AcDbArc
 50
98.60446166992192
 51
103.8955688476563
  0
ARC
  5
29D
330
1F
100
AcDbEntity
  8
0-2
  6
Continuous
 62
     6
370
     9
100
AcDbCircle
 10
-119.9999010240708
 20
934.237476879802
 30
0.0
 40
6.666666752583272
100
AcDbArc
 50
180.0
 51
261.3954620361328
  0
ARC
  5
29E
330
1F
100
AcDbEntity
  8
0-2
  6
Continuous
 62
     6
370
     9
100
AcDbCircle
 10
-104.8706879486909
 20
931.2276188772681
 30
0.0
 40
6.666666752583272
100
AcDbArc
 50
256.1040496826172
 51
337.4998016357422
  0
ARC
  5
29F
330
1F
100
AcDbEntity
  8
0-2
  6
Continuous
 62
     6
370
     9
100
AcDbCircle
 10
-144.9999835040117
 20
769.019432908096
 30
0.0
 40
160.431939202386
100
AcDbArc
 50
76.10446166992189
 51
81.39556884765626
  0
ARC
  5
2A0
330
1F
100
AcDbEntity
  8
0-2
  6
Continuous
 62
     6
370
     9
100
AcDbCircle
 10
-58.67688978040519
 20
912.0935922725384
 30
0.0
 40
6.666666752583272
100
AcDbArc
 50
157.5
 51
238.8954620361328
  0
ARC
  5
2A1
330
1F
100
AcDbEntity
  8
0-2
  6
Continuous
 62
     6
370
     9
100
AcDbCircle
 10
-45.85084657411301
 20
903.5237614553931
 30
0.0
 40
6.666666752583272
100
AcDbArc
 50
233.6040496826172
 51
314.9998016357422
  0
ARC
  5
2A2
330
1F
100
AcDbEntity
  8
0-2
  6
Continuous
 62
     6
370
     9
100
AcDbCircle
 10
-144.9999835040117
 20
769.019432908096
 30
0.0
 40
160.431939202386
100
AcDbArc
 50
53.60446166992187
 51
58.89556884765624
  0
ARC
  5
2A3
330
1F
100
AcDbEntity
  8
0-2
  6
Continuous
 62
     6
370
     9
100
AcDbCircle
 10
-10.4956549567143
 20
868.1685698379947
 30
0.0
 40
6.666666752583272
100
AcDbArc
 50
135.0
 51
216.3954620361328
  0
ARC
  5
2A4
330
1F
100
AcDbEntity
  8
0-2
  6
Continuous
 62
     6
370
     9
100
AcDbCircle
 10
-1.925824139569272
 20
855.3422791918798
 30
0.0
 40
6.666666752583272
100
AcDbArc
 50
211.1040496826172
 51
292.4998016357422
  0
ARC
  5
2A5
330
1F
100
AcDbEntity
  8
0-2
  6
Continuous
 62
     6
370
     9
100
AcDbCircle
 10
-144.9999835040117
 20
769.019432908096
 30
0.0
 40
160.431939202386
100
AcDbArc
 50
31.10446166992189
 51
36.39556884765626
  0
ARC
  5
2A6
330
1F
100
AcDbEntity
  8
0-2
  6
Continuous
 62
     6
370
     9
100
AcDbCircle
 10
17.20869734480573
 20
809.1487284634168
 30
0.0
 40
6.666666752583272
100
AcDbArc
 50
112.5
 51
193.8954620361328
  0
ARC
  5
2A7
330
1F
100
AcDbEntity
  8
0-2
  6
Continuous
 62
     6
370
     9
100
AcDbCircle
 10
20.21781302787161
 20
794.0192679482142
 30
0.0
 40
6.666666752583272
100
AcDbArc
 50
188.6040496826172
 51
269.9998016357422
  0
ARC
  5
2A8
330
1F
100
AcDbEntity
  8
0-2
  6
Continuous
 62
     6
370
     9
100
AcDbCircle
 10
-144.9999835040117
 20
769.019432908096
 30
0.0
 40
160.431939202386
100
AcDbArc
 50
8.604461669921891
 51
13.89556884765627
  0
ARC
  5
2A9
330
1F
100
AcDbEntity
  8
0-2
  6
Continuous
 62
     6
370
     9
100
AcDbCircle
 10
-144.9999835040117
 20
769.019432908096
 30
0.0
 40
150.2981649862753
100
AcDbArc
 50
0.0
 51
180.0
  0
ARC
  5
2AA
330
1F
100
AcDbEntity
  8
0-2
  6
Continuous
 62
     6
370
     9
100
AcDbCircle
 10
-144.9999835040117
 20
769.019432908096
 30
0.0
 40
133.3333350516654
100
AcDbArc
 50
0.0
 51
180.0
  0
ARC
  5
2AB
330
1F
100
AcDbEntity
  8
0-2
  6
Continuous
 62
     6
370
     9
100
AcDbCircle
 10
-144.9999835040117
 20
769.019432908096
 30
0.0
 40
190.8333546406514
100
AcDbArc
 50
0.0
 51
180.0
  0
ELLIPSE
  5
2AC
330
1F
100
AcDbEntity
  8
0-2
  6
Continuous
 62
     6
370
     9
100
AcDbEllipse
 10
-144.9999835040117
 20
934.7090971817447
 30
0.0
 11
17.50005773595862
 21
0.0
 31
0.0
210
0.0
220
0.0
230
1.0
 40
0.7428
 41
1.666170250701141
 42
3.141592653589793
  0
ELLIPSE
  5
2AD
330
1F
100
AcDbEntity
  8
0-2
  6
Continuous
 62
     6
370
     9
100
AcDbEllipse
 10
-144.9999835040117
 20
934.7090971817447
 30
0.0
 11
17.50005773595862
 21
0.0
 31
0.0
210
0.0
220
0.0
230
1.0
 40
0.7428
 41
0.0
 42
1.475408288134874
  0
ARC
  5
2AE
330
1F
100
AcDbEntity
  8
0-2
  6
Continuous
 62
     6
370
     9
100
AcDbCircle
 10
-45.85084657411301
 20
903.5237614553931
 30
0.0
 40
6.666666752583272
100
AcDbArc
 50
233.6040496826172
 51
314.9998016357422
  0
ARC
  5
2AF
330
1F
100
AcDbEntity
  8
0-0
  6
Continuous
 62
     3
370
     9
100
AcDbCircle
 10
-144.9999835040117
 20
769.019432908096
 30
0.0
 40
112.2221250791807
100
AcDbArc
 50
0.0
 51
46.34069824218751
  0
ARC
  5
2B0
330
1F
100
AcDbEntity
  8
0-0
  6
Continuous
 62
     3
370
     9
100
AcDbCircle
 10
-144.9999835040117
 20
769.019432908096
 30
0.0
 40
115.0001319679054
100
AcDbArc
 50
0.0
 51
45.32794189453125
  0
ARC
  5
2B1
330
1F
100
AcDbEntity
  8
0-0
  6
Continuous
 62
     3
370
     9
100
AcDbCircle
 10
-144.9999835040117
 20
769.019432908096
 30
0.0
 40
112.2221250791807
100
AcDbArc
 50
73.65922546386719
 51
166.3408203125
  0
ARC
  5
2B2
330
1F
100
AcDbEntity
  8
0-0
  6
Continuous
 62
     3
370
     9
100
AcDbCircle
 10
-144.9999835040117
 20
769.019432908096
 30
0.0
 40
115.0001319679054
100
AcDbArc
 50
74.67202758789062
 51
165.3279876708984
  0
ARC
  5
2B3
330
1F
100
AcDbEntity
  8
0-1
  6
Continuous
 62
     2
370
     9
100
AcDbCircle
 10
-73.33324535472968
 20
893.1495994515926
 30
0.0
 40
43.33333195866765
100
AcDbArc
 50
171.9553833007812
 51
308.0445098876953
  0
ARC
  5
2B4
330
1F
100
AcDbEntity
  8
0-1
  6
Continuous
 62
     2
370
     9
100
AcDbCircle
 10
-73.33324535472968
 20
893.1495994515926
 30
0.0
 40
40.00000051549964
100
AcDbArc
 50
172.3842468261719
 51
307.6155700683594
  0
ARC
  5
2B5
330
1F
100
AcDbEntity
  8
0-1
  6
Continuous
 62
     4
370
     9
100
AcDbCircle
 10
-73.31716176625832
 20
893.1406916179777
 30
0.0
 40
21.66667177870467
100
AcDbArc
 50
181.3938751220703
 51
298.5910339355469
  0
ARC
  5
2B6
330
1F
100
AcDbEntity
  8
0-1
  6
Continuous
 62
     4
370
     9
100
AcDbCircle
 10
-73.33324535472968
 20
893.1495994515926
 30
0.0
 40
13.33333350516654
100
AcDbArc
 50
200.3865509033203
 51
279.6137084960937
  0
ARC
  5
2B7
330
1F
100
AcDbEntity
  8
0-1
  6
Continuous
 62
     2
370
     9
100
AcDbCircle
 10
-288.333459802576
 20
769.019432908096
 30
0.0
 40
43.33333195866765
100
AcDbArc
 50
0.0
 51
68.04469299316403
  0
ARC
  5
2B8
330
1F
100
AcDbEntity
  8
0-1
  6
Continuous
 62
     2
370
     9
100
AcDbCircle
 10
-288.333459802576
 20
769.019432908096
 30
0.0
 40
40.00000051549964
100
AcDbArc
 50
0.0
 51
67.61578369140622
  0
ARC
  5
2B9
330
1F
100
AcDbEntity
  8
0-1
  6
Continuous
 62
     4
370
     9
100
AcDbCircle
 10
-288.333459802576
 20
769.037743454971
 30
0.0
 40
21.66667177870467
100
AcDbArc
 50
359.950927734375
 51
58.59146118164061
  0
TEXT
  5
2BA
330
1F
100
AcDbEntity
  8
0-4
  6
Continuous
 62
     2
370
     9
100
AcDbText
 10
-222.4998597841004
 20
-518.9443301567268
 30
0.0
 40
30.48
  1
Rc2 1/2
 41
1.107142857142857
  7
ＭＳ ゴシック
100
AcDbText
  0
TEXT
  5
2BB
330
1F
100
AcDbEntity
  8
0-E
  6
Continuous
 62
     7
370
     9
100
AcDbText
 10
-863.2184209050358
 20
-210.0831031191423
 30
0.0
 40
22.86
  1
本体：ＦＣ１５０
 41
1.145833333333333
  7
ＭＳ ゴシック
100
AcDbText
  0
TEXT
  5
2BC
330
1F
100
AcDbEntity
  8
0-E
  6
Continuous
 62
     7
370
     9
100
AcDbText
 10
-828.3420748324006
 20
-256.9483292461481
 30
0.0
 40
22.86
  1
樹脂系塗装
 41
1.133333333333333
  7
ＭＳ ゴシック
100
AcDbText
  0
TEXT
  5
2BD
330
1F
100
AcDbEntity
  8
0-E
  6
Continuous
 62
     7
370
     9
100
AcDbText
 10
353.9753187024918
 20
159.8885485251777
 30
0.0
 40
22.86
  1
樹脂系塗装
 41
1.133333333333333
  7
ＭＳ ゴシック
100
AcDbText
  0
TEXT
  5
2BE
330
1F
100
AcDbEntity
  8
0-E
  6
Continuous
 62
     7
370
     9
100
AcDbText
 10
256.7643531593117
 20
206.5553279144303
 30
0.0
 40
22.86
  1
防水層押え：ＦＣ１５０
 41
1.151515151515152
  7
ＭＳ ゴシック
100
AcDbText
  0
TEXT
  5
2BF
330
1F
100
AcDbEntity
  8
0-E
  6
Continuous
 62
     7
370
     9
100
AcDbText
 10
-879.0152307458825
 20
197.4401397281973
 30
0.0
 40
22.86
  1
ボルト：Ｃ３６０２
 41
1.148148148148148
  7
ＭＳ ゴシック
100
AcDbText
  0
TEXT
  5
2C0
330
1F
100
AcDbEntity
  8
0-E
  6
Continuous
 62
     7
370
     9
100
AcDbText
 10
-817.4062244312183
 20
148.6662865292952
 30
0.0
 40
22.86
  1
Ｍ８×４０
 41
1.133333333333333
  7
ＭＳ ゴシック
100
AcDbText
  0
TEXT
  5
2C1
330
1F
100
AcDbEntity
  8
0-E
  6
Continuous
 62
     7
370
     9
100
AcDbText
 10
282.7150334538642
 20
441.4396827893249
 30
0.0
 40
22.86
  1
ストレーナー：ＦＣ１５０
 41
1.152777777777778
  7
ＭＳ ゴシック
100
AcDbText
  0
TEXT
  5
2C2
330
1F
100
AcDbEntity
  8
0-E
  6
Continuous
 62
     7
370
     9
100
AcDbText
 10
284.3595267630916
 20
335.9594268375723
 30
0.0
 40
22.86
  1
丸小ネジ：Ｃ２７００
 41
1.15
  7
ＭＳ ゴシック
100
AcDbText
  0
TEXT
  5
2C3
330
1F
100
AcDbEntity
  8
0-E
  6
Continuous
 62
     7
370
     9
100
AcDbText
 10
365.2214586412586
 20
284.6811114738687
 30
0.0
 40
22.86
  1
Ｍ６×１２
 41
1.133333333333333
  7
ＭＳ ゴシック
100
AcDbText
  0
TEXT
  5
2C4
330
1F
100
AcDbEntity
  8
0-E
  6
Continuous
 62
     7
370
     9
100
AcDbText
 10
401.0497551995357
 20
388.1891483193079
 30
0.0
 40
22.86
  1
樹脂系塗装
 41
1.133333333333333
  7
ＭＳ ゴシック
100
AcDbText
  0
TEXT
  5
2C5
330
1F
100
AcDbEntity
  8
0-4
  6
Continuous
 62
     2
370
     9
100
AcDbText
 10
-199.9999216440561
 20
306.7425627909084
 30
0.0
 40
30.48
  1
φ180
 41
1.1
  7
ＭＳ ゴシック
100
AcDbText
  0
TEXT
  5
2C6
330
1F
100
AcDbEntity
  8
0-4
  6
Continuous
 62
     2
370
     9
100
AcDbText
 10
-199.9999216440561
 20
386.7425792868964
 30
0.0
 40
30.48
  1
φ200
 41
1.1
  7
ＭＳ ゴシック
100
AcDbText
  0
TEXT
  5
2C7
330
1F
100
AcDbEntity
  8
0-4
  6
Continuous
 62
     2
370
     9
100
AcDbText
 10
220.5655277447455
 20
-222.500878848677
 30
0.0
 40
30.48
  1
60
 50
90.00000250447816
 41
1.0625
  7
ＭＳ ゴシック
100
AcDbText
  0
TEXT
  5
2C8
330
1F
100
AcDbEntity
  8
0-4
  6
Continuous
 62
     2
370
     9
100
AcDbText
 10
352.6934447272083
 20
-255.8342644193063
 30
0.0
 40
30.48
  1
100
 50
90.00000250447816
 41
1.083333333333333
  7
ＭＳ ゴシック
100
AcDbText
  0
TEXT
  5
2C9
330
1F
100
AcDbEntity
  8
0-E
  6
Continuous
 62
     7
370
     9
100
AcDbText
 10
351.8562440614444
 20
-550.9205714468451
 30
0.0
 40
22.86
  1
樹脂系塗装
 41
1.133333333333333
  7
ＭＳ ゴシック
100
AcDbText
  0
TEXT
  5
2CA
330
1F
100
AcDbEntity
  8
0-E
  6
Continuous
 62
     7
370
     9
100
AcDbText
 10
233.5215882997257
 20
-497.6700369768281
 30
0.0
 40
22.86
  1
クランプ板：ＦＣ１５０
 41
1.151515151515152
  7
ＭＳ ゴシック
100
AcDbText
  0
TEXT
  5
2CB
330
1F
100
AcDbEntity
  8
0-4
  6
Continuous
 62
     2
370
     9
100
AcDbText
 10
-200.0000453639673
 20
-671.2538716012475
 30
0.0
 40
30.48
  1
φ200
 41
1.1
  7
ＭＳ ゴシック
100
AcDbText
  0
TEXT
  5
2CC
330
1F
100
AcDbEntity
  8
0-4
  6
Continuous
 62
     2
370
     9
100
AcDbText
 10
-188.7500453639674
 20
-591.5484322141064
 30
0.0
 40
30.48
  1
φ85
 41
1.09375
  7
ＭＳ ゴシック
100
AcDbText
  0
TEXT
  5
2CD
330
1F
100
AcDbEntity
  8
0-4
  6
Continuous
 62
     2
370
     9
100
AcDbText
 10
-188.7497979241448
 20
232.4863668977496
 30
0.0
 40
30.48
  1
φ80
 41
1.09375
  7
ＭＳ ゴシック
100
AcDbText
  0
TEXT
  5
2CE
330
1F
100
AcDbEntity
  8
0-4
  6
Continuous
 62
     2
370
     9
100
AcDbText
 10
352.693444235455
 20
-9.406817074500578
 30
0.0
 40
30.48
  1
68
 50
90.00000250447816
 41
1.0625
  7
ＭＳ ゴシック
100
AcDbText
  0
TEXT
  5
2CF
330
1F
100
AcDbEntity
  8
0-4
  6
Continuous
 62
     2
370
     9
100
AcDbText
 10
-597.2950910527629
 20
-12.97947695361789
 30
0.0
 40
30.48
  1
70
 50
90.00000250447816
 41
1.0625
  7
ＭＳ ゴシック
100
AcDbText
  0
TEXT
  5
2D0
330
1F
100
AcDbEntity
  8
F-4
  6
Continuous
 62
     6
370
     0
100
AcDbText
 10
-137.5075053204083
 20
-1175.751139899029
 30
0.0
 40
30.48
  1
鋳鉄製　たて引き用　シート防水用　　　ＡＬＣ＝１００
 41
0.7980769230769229
  7
ＭＳ ゴシック
100
AcDbText
  0
TEXT
  5
2D1
330
1F
100
AcDbEntity
  8
F-4
  6
Continuous
 62
     6
370
     0
100
AcDbText
 10
-203.0265054571436
 20
-1219.83976508704
 30
0.0
 40
30.48
  1
ねじ込み式　ＡＬＣ用　ルーフドレイン　　ＥＡＳＢ－２－６５
 41
0.7982758620689654
  7
ＭＳ ゴシック
100
AcDbText
  0
LINE
  5
2D2
330
1F
100
AcDbEntity
  8
0-E
  6
Continuous
 62
     7
370
     9
100
AcDbLine
 10
-546.492622994088
 20
-611.4796903301327
 30
0.0
 11
-867.1225470465583
 21
-611.4796903301327
 31
0.0
  0
LINE
  5
2D3
330
1F
100
AcDbEntity
  8
0-E
  6
Continuous
 62
     7
370
     9
100
AcDbLine
 10
-546.492622994088
 20
-611.4796903301327
 30
0.0
 11
-369.4118190456081
 21
-431.9173742604008
 31
0.0
  0
TEXT
  5
2D4
330
1F
100
AcDbEntity
  8
0-E
  6
Continuous
 62
     7
370
     9
100
AcDbText
 10
-861.9884016707138
 20
-595.9376076786334
 30
0.0
 40
22.86
  1
ボルト：Ｃ３６０２
 41
1.148148148148148
  7
ＭＳ ゴシック
100
AcDbText
  0
TEXT
  5
2D5
330
1F
100
AcDbEntity
  8
0-E
  6
Continuous
 62
     7
370
     9
100
AcDbText
 10
-800.3793994800467
 20
-644.7114608775355
 30
0.0
 40
22.86
  1
Ｍ８×１００
 41
1.138888888888889
  7
ＭＳ ゴシック
100
AcDbText
  0
LINE
  5
2D6
330
1F
100
AcDbEntity
  8
0-E
  6
Continuous
 62
     7
370
     9
100
AcDbLine
 10
-369.4118190456081
 20
-431.9173742604008
 30
0.0
 11
-389.1393300649284
 21
-447.2739845327825
 31
0.0
  0
LINE
  5
2D7
330
1F
100
AcDbEntity
  8
0-E
  6
Continuous
 62
     7
370
     9
100
AcDbLine
 10
-369.4118190456081
 20
-431.9173742604008
 30
0.0
 11
-384.4925339157518
 21
-451.8565700479853
 31
0.0
  0
ENDSEC
  0
SECTION
  2
OBJECTS
  0
DICTIONARY
  5
C
330
0
100
AcDbDictionary
281
     1
  3
ACAD_GROUP
350
D
  3
ACAD_LAYOUT
350
1A
  3
ACAD_MLEADERSTYLE
350
2D9
  3
ACAD_MLINESTYLE
350
17
  3
ACAD_PLOTSETTINGS
350
19
  3
ACAD_PLOTSTYLENAME
350
E
  3
ACAD_TABLESTYLE
350
2D8
  3
ACAD_VISUALSTYLE
350
2A
  3
AcDbVariableDictionary
350
2DA
  0
DICTIONARY
  5
D
102
{ACAD_REACTORS
330
C
102
}
330
C
100
AcDbDictionary
281
     1
  0
DICTIONARY
  5
1A
102
{ACAD_REACTORS
330
C
102
}
330
C
100
AcDbDictionary
281
     1
  3
Layout1
350
1E
  3
Layout2
350
26
  3
Model
350
22
  0
DICTIONARY
  5
2D9
102
{ACAD_REACTORS
330
C
102
}
330
C
100
AcDbDictionary
281
     1
  0
DICTIONARY
  5
17
102
{ACAD_REACTORS
330
C
102
}
330
C
100
AcDbDictionary
281
     1
  3
Standard
350
18
  0
DICTIONARY
  5
19
102
{ACAD_REACTORS
330
C
102
}
330
C
100
AcDbDictionary
281
     1
  0
ACDBDICTIONARYWDFLT
  5
E
102
{ACAD_REACTORS
330
C
102
}
330
C
100
AcDbDictionary
281
     1
  3
Normal
350
F
100
AcDbDictionaryWithDefault
340
F
  0
DICTIONARY
  5
2D8
102
{ACAD_REACTORS
330
C
102
}
330
C
100
AcDbDictionary
281
     1
  0
DICTIONARY
  5
2A
102
{ACAD_REACTORS
330
C
102
}
330
C
100
AcDbDictionary
281
     1
  3
2dWireframe
350
2F
  3
3D Hidden
350
31
  3
3dWireframe
350
30
  3
Basic
350
32
  3
Brighten
350
36
  3
ColorChange
350
3A
  3
Conceptual
350
34
  3
Dim
350
35
  3
Facepattern
350
39
  3
Flat
350
2B
  3
FlatWithEdges
350
2C
  3
Gouraud
350
2D
  3
GouraudWithEdges
350
2E
  3
Linepattern
350
38
  3
Realistic
350
33
  3
Thicken
350
37
  0
DICTIONARY
  5
2DA
102
{ACAD_REACTORS
330
C
102
}
330
C
100
AcDbDictionary
281
     1
  3
PSOLHEIGHT
350
2DC
  3
PSOLWIDTH
350
2DB
  0
LAYOUT
  5
1E
102
{ACAD_REACTORS
330
1A
102
}
102
{ACAD_XDICTIONARY
360
2DD
102
}
330
1A
100
AcDbPlotSettings
  1

  2
none_device
  4

  6

 40
0.0
 41
0.0
 42
0.0
 43
0.0
 44
0.0
 45
0.0
 46
0.0
 47
0.0
 48
0.0
 49
0.0
140
0.0
141
0.0
142
1.0
143
1.0
 70
   688
 72
     0
 73
     0
 74
     5
  7

 75
    16
147
1.0
148
0.0
149
0.0
100
AcDbLayout
  1
Layout1
 70
     1
 71
     1
 10
0.0
 20
0.0
 11
420.0
 21
297.0
 12
0.0
 22
0.0
 32
0.0
 14
1.000000000000000E+20
 24
1.000000000000000E+20
 34
1.000000000000000E+20
 15
-1.000000000000000E+20
 25
-1.000000000000000E+20
 35
-1.000000000000000E+20
146
0.0
 13
0.0
 23
0.0
 33
0.0
 16
1.0
 26
0.0
 36
0.0
 17
0.0
 27
1.0
 37
0.0
 76
     0
330
1B
  0
LAYOUT
  5
26
102
{ACAD_REACTORS
330
1A
102
}
102
{ACAD_XDICTIONARY
360
2E1
102
}
330
1A
100
AcDbPlotSettings
  1

  2
none_device
  4

  6

 40
0.0
 41
0.0
 42
0.0
 43
0.0
 44
0.0
 45
0.0
 46
0.0
 47
0.0
 48
0.0
 49
0.0
140
0.0
141
0.0
142
1.0
143
1.0
 70
   688
 72
     0
 73
     0
 74
     5
  7

 75
    16
147
1.0
148
0.0
149
0.0
100
AcDbLayout
  1
Layout2
 70
     1
 71
     2
 10
0.0
 20
0.0
 11
0.0
 21
0.0
 12
0.0
 22
0.0
 32
0.0
 14
0.0
 24
0.0
 34
0.0
 15
0.0
 25
0.0
 35
0.0
146
0.0
 13
0.0
 23
0.0
 33
0.0
 16
1.0
 26
0.0
 36
0.0
 17
0.0
 27
1.0
 37
0.0
 76
     0
330
23
  0
LAYOUT
  5
22
102
{ACAD_REACTORS
330
1A
102
}
102
{ACAD_XDICTIONARY
360
2DF
102
}
330
1A
100
AcDbPlotSettings
  1

  2
none_device
  4

  6

 40
0.0
 41
0.0
 42
0.0
 43
0.0
 44
0.0
 45
0.0
 46
0.0
 47
0.0
 48
0.0
 49
0.0
140
0.0
141
0.0
142
1.0
143
1.0
 70
  1712
 72
     0
 73
     0
 74
     0
  7

 75
     0
147
1.0
148
0.0
149
0.0
100
AcDbLayout
  1
Model
 70
     1
 71
     0
 10
-2100.0
 20
-1485.0
 11
2100.0
 21
1485.0
 12
0.0
 22
0.0
 32
0.0
 14
-2100.0
 24
-1485.0
 34
0.0
 15
2100.0
 25
1485.0
 35
0.0
146
0.0
 13
0.0
 23
0.0
 33
0.0
 16
1.0
 26
0.0
 36
0.0
 17
0.0
 27
1.0
 37
0.0
 76
     0
330
1F
331
29
  0
MLINESTYLE
  5
18
102
{ACAD_REACTORS
330
17
102
}
330
17
100
AcDbMlineStyle
  2
Standard
 70
     0
  3

 62
   256
 51
90.0
 52
90.0
 71
     2
 49
0.5
 62
   256
  6
BYLAYER
 49
-0.5
 62
   256
  6
BYLAYER
  0
ACDBPLACEHOLDER
  5
F
102
{ACAD_REACTORS
330
E
102
}
330
E
  0
VISUALSTYLE
  5
2F
102
{ACAD_REACTORS
330
2A
102
}
330
2A
100
AcDbVisualStyle
  2
2dWireframe
 70
     4
 71
     0
 72
     2
 73
     0
 90
        0
 40
-0.6
 41
-30.0
 62
     5
 63
     7
 74
     1
 91
        4
 64
     7
 65
   257
 75
     1
175
     1
 42
1.0
 92
        0
 66
   257
 43
1.0
 76
     1
 77
     6
 78
     2
 67
     7
 79
     5
170
     0
171
     0
290
     0
174
     0
 93
        1
 44
0.0
173
     0
291
     0
 45
0.0
1001
ACAD
1000
AcDbSavedByObjectVersion
1070
     0
  0
VISUALSTYLE
  5
31
102
{ACAD_REACTORS
330
2A
102
}
330
2A
100
AcDbVisualStyle
  2
3D Hidden
 70
     6
 71
     1
 72
     2
 73
     2
 90
        0
 40
-0.6
 41
-30.0
 62
     5
 63
     7
 74
     2
 91
        2
 64
     7
 65
   257
 75
     2
175
     1
 42
40.0
 92
        0
 66
   257
 43
1.0
 76
     1
 77
     6
 78
     2
 67
     7
 79
     3
170
     0
171
     0
290
     0
174
     0
 93
        1
 44
0.0
173
     0
291
     0
 45
0.0
1001
ACAD
1000
AcDbSavedByObjectVersion
1070
     0
  0
VISUALSTYLE
  5
30
102
{ACAD_REACTORS
330
2A
102
}
330
2A
100
AcDbVisualStyle
  2
3dWireframe
 70
     5
 71
     0
 72
     2
 73
     0
 90
        0
 40
-0.6
 41
-30.0
 62
     5
 63
     7
 74
     1
 91
        4
 64
     7
 65
   257
 75
     1
175
     1
 42
1.0
 92
        0
 66
   257
 43
1.0
 76
     1
 77
     6
 78
     2
 67
     7
 79
     5
170
     0
171
     0
290
     0
174
     0
 93
        1
 44
0.0
173
     0
291
     0
 45
0.0
1001
ACAD
1000
AcDbSavedByObjectVersion
1070
     0
  0
VISUALSTYLE
  5
32
102
{ACAD_REACTORS
330
2A
102
}
330
2A
100
AcDbVisualStyle
  2
Basic
 70
     7
 71
     1
 72
     0
 73
     1
 90
        0
 40
-0.6
 41
-30.0
 62
     5
 63
     7
 74
     0
 91
        4
 64
     7
 65
   257
 75
     1
175
     1
 42
1.0
 92
        8
 66
     7
 43
1.0
 76
     1
 77
     6
 78
     2
 67
     7
 79
     5
170
     0
171
     0
290
     0
174
     0
 93
        1
 44
0.0
173
     0
291
     1
 45
0.0
1001
ACAD
1000
AcDbSavedByObjectVersion
1070
     0
  0
VISUALSTYLE
  5
36
102
{ACAD_REACTORS
330
2A
102
}
330
2A
100
AcDbVisualStyle
  2
Brighten
 70
    12
 71
     2
 72
     2
 73
     0
 90
        0
 40
-0.6
 41
-30.0
 62
     5
 63
     7
 74
     1
 91
        4
 64
     7
 65
   257
 75
     1
175
     1
 42
1.0
 92
        8
 66
     7
 43
1.0
 76
     1
 77
     6
 78
     2
 67
     7
 79
     5
170
     0
171
     0
290
     0
174
     0
 93
        1
 44
50.0
173
     0
291
     1
 45
0.0
1001
ACAD
1000
AcDbSavedByObjectVersion
1070
     0
  0
VISUALSTYLE
  5
3A
102
{ACAD_REACTORS
330
2A
102
}
330
2A
100
AcDbVisualStyle
  2
ColorChange
 70
    16
 71
     2
 72
     2
 73
     3
 90
        0
 40
-0.6
 41
-30.0
 62
     5
 63
     8
 74
     1
 91
        4
 64
     7
 65
   257
 75
     1
175
     1
 42
1.0
 92
        8
 66
     8
 43
1.0
 76
     1
 77
     6
 78
     2
 67
     7
 79
     5
170
     0
171
     0
290
     0
174
     0
 93
        1
 44
0.0
173
     0
291
     1
 45
0.0
1001
ACAD
1000
AcDbSavedByObjectVersion
1070
     0
  0
VISUALSTYLE
  5
34
102
{ACAD_REACTORS
330
2A
102
}
330
2A
100
AcDbVisualStyle
  2
Conceptual
 70
     9
 71
     3
 72
     2
 73
     0
 90
        0
 40
-0.6
 41
-30.0
 62
     5
 63
     7
 74
     2
 91
        2
 64
     7
 65
   257
 75
     1
175
     1
 42
40.0
 92
        8
 66
     7
 43
1.0
 76
     1
 77
     6
 78
     2
 67
     7
 79
     3
170
     0
171
     0
290
     0
174
     0
 93
        1
 44
0.0
173
     0
291
     0
 45
0.0
1001
ACAD
1000
AcDbSavedByObjectVersion
1070
     0
  0
VISUALSTYLE
  5
35
102
{ACAD_REACTORS
330
2A
102
}
330
2A
100
AcDbVisualStyle
  2
Dim
 70
    11
 71
     2
 72
     2
 73
     0
 90
        0
 40
-0.6
 41
-30.0
 62
     5
 63
     7
 74
     1
 91
        4
 64
     7
 65
   257
 75
     1
175
     1
 42
1.0
 92
        8
 66
     7
 43
1.0
 76
     1
 77
     6
 78
     2
 67
     7
 79
     5
170
     0
171
     0
290
     0
174
     0
 93
        1
 44
-50.0
173
     0
291
     1
 45
0.0
1001
ACAD
1000
AcDbSavedByObjectVersion
1070
     0
  0
VISUALSTYLE
  5
39
102
{ACAD_REACTORS
330
2A
102
}
330
2A
100
AcDbVisualStyle
  2
Facepattern
 70
    15
 71
     2
 72
     2
 73
     0
 90
        0
 40
-0.6
 41
-30.0
 62
     5
 63
     7
 74
     1
 91
        4
 64
     7
 65
   257
 75
     1
175
     1
 42
1.0
 92
        8
 66
     7
 43
1.0
 76
     1
 77
     6
 78
     2
 67
     7
 79
     5
170
     0
171
     0
290
     0
174
     0
 93
        1
 44
0.0
173
     0
291
     1
 45
0.0
1001
ACAD
1000
AcDbSavedByObjectVersion
1070
     0
  0
VISUALSTYLE
  5
2B
102
{ACAD_REACTORS
330
2A
102
}
330
2A
100
AcDbVisualStyle
  2
Flat
 70
     0
 71
     2
 72
     1
 73
     1
 90
        2
 40
-0.6
 41
30.0
 62
     5
 63
     7
 74
     0
 91
        4
 64
     7
 65
   257
 75
     1
175
     1
 42
1.0
 92
        8
 66
     7
 43
1.0
 76
     1
 77
     6
 78
     2
 67
     7
 79
     5
170
     0
171
     0
290
     0
174
     0
 93
       13
 44
0.0
173
     0
291
     1
 45
0.0
1001
ACAD
1000
AcDbSavedByObjectVersion
1070
     0
  0
VISUALSTYLE
  5
2C
102
{ACAD_REACTORS
330
2A
102
}
330
2A
100
AcDbVisualStyle
  2
FlatWithEdges
 70
     1
 71
     2
 72
     1
 73
     1
 90
        2
 40
-0.6
 41
30.0
 62
     5
 63
     7
 74
     1
 91
        4
 64
     7
 65
   257
 75
     1
175
     1
 42
1.0
 92
        0
 66
   257
 43
1.0
 76
     1
 77
     6
 78
     2
 67
     7
 79
     5
170
     0
171
     0
290
     0
174
     0
 93
       13
 44
0.0
173
     0
291
     1
 45
0.0
1001
ACAD
1000
AcDbSavedByObjectVersion
1070
     0
  0
VISUALSTYLE
  5
2D
102
{ACAD_REACTORS
330
2A
102
}
330
2A
100
AcDbVisualStyle
  2
Gouraud
 70
     2
 71
     2
 72
     2
 73
     1
 90
        2
 40
-0.6
 41
30.0
 62
     5
 63
     7
 74
     0
 91
        4
 64
     7
 65
   257
 75
     1
175
     1
 42
1.0
 92
        0
 66
     7
 43
1.0
 76
     1
 77
     6
 78
     2
 67
     7
 79
     5
170
     0
171
     0
290
     0
174
     0
 93
       13
 44
0.0
173
     0
291
     1
 45
0.0
1001
ACAD
1000
AcDbSavedByObjectVersion
1070
     0
  0
VISUALSTYLE
  5
2E
102
{ACAD_REACTORS
330
2A
102
}
330
2A
100
AcDbVisualStyle
  2
GouraudWithEdges
 70
     3
 71
     2
 72
     2
 73
     1
 90
        2
 40
-0.6
 41
30.0
 62
     5
 63
     7
 74
     1
 91
        4
 64
     7
 65
   257
 75
     1
175
     1
 42
1.0
 92
        0
 66
   257
 43
1.0
 76
     1
 77
     6
 78
     2
 67
     7
 79
     5
170
     0
171
     0
290
     0
174
     0
 93
       13
 44
0.0
173
     0
291
     1
 45
0.0
1001
ACAD
1000
AcDbSavedByObjectVersion
1070
     0
  0
VISUALSTYLE
  5
38
102
{ACAD_REACTORS
330
2A
102
}
330
2A
100
AcDbVisualStyle
  2
Linepattern
 70
    14
 71
     2
 72
     2
 73
     0
 90
        0
 40
-0.6
 41
-30.0
 62
     5
 63
     7
 74
     1
 91
        4
 64
     7
 65
   257
 75
     7
175
     7
 42
1.0
 92
        8
 66
     7
 43
1.0
 76
     1
 77
     6
 78
     2
 67
     7
 79
     5
170
     0
171
     0
290
     0
174
     0
 93
        1
 44
0.0
173
     0
291
     1
 45
0.0
1001
ACAD
1000
AcDbSavedByObjectVersion
1070
     0
  0
VISUALSTYLE
  5
33
102
{ACAD_REACTORS
330
2A
102
}
330
2A
100
AcDbVisualStyle
  2
Realistic
 70
     8
 71
     2
 72
     2
 73
     0
 90
        0
 40
-0.6
 41
-30.0
 62
     5
 63
     7
 74
     1
 91
        0
 64
     7
 65
   257
 75
     1
175
     1
 42
1.0
 92
        8
 66
     8
 43
1.0
 76
     1
 77
     6
 78
     2
 67
     7
 79
     5
170
     0
171
     0
290
     0
174
     0
 93
       13
 44
0.0
173
     0
291
     0
 45
0.0
1001
ACAD
1000
AcDbSavedByObjectVersion
1070
     0
  0
VISUALSTYLE
  5
37
102
{ACAD_REACTORS
330
2A
102
}
330
2A
100
AcDbVisualStyle
  2
Thicken
 70
    13
 71
     2
 72
     2
 73
     0
 90
        0
 40
-0.6
 41
-30.0
 62
     5
 63
     7
 74
     1
 91
        4
 64
     7
 65
   257
 75
     1
175
     1
 42
1.0
 92
       12
 66
     7
 43
1.0
 76
     1
 77
     6
 78
     2
 67
     7
 79
     5
170
     0
171
     0
290
     0
174
     0
 93
        1
 44
0.0
173
     0
291
     1
 45
0.0
1001
ACAD
1000
AcDbSavedByObjectVersion
1070
     0
  0
DICTIONARYVAR
  5
2DC
102
{ACAD_REACTORS
330
2DA
102
}
330
2DA
100
DictionaryVariables
280
     0
  1
80.000000
  0
DICTIONARYVAR
  5
2DB
102
{ACAD_REACTORS
330
2DA
102
}
330
2DA
100
DictionaryVariables
280
     0
  1
5.000000
  0
DICTIONARY
  5
2DD
330
1E
100
AcDbDictionary
280
     1
281
     1
  3
ACAD_XREC_ROUNDTRIP
360
2DE
  0
DICTIONARY
  5
2E1
330
26
100
AcDbDictionary
280
     1
281
     1
  3
ACAD_XREC_ROUNDTRIP
360
2E2
  0
DICTIONARY
  5
2DF
330
22
100
AcDbDictionary
280
     1
281
     1
  3
ACAD_XREC_ROUNDTRIP
360
2E0
  0
XRECORD
  5
2DE
102
{ACAD_REACTORS
330
2DD
102
}
330
2DD
100
AcDbXrecord
280
     1
102
SHADEPLOT
 70
     0
102
SHADEPLOTRESLEVEL
 70
     5
102
SHADEPLOTCUSTOMDPI
 70
   300
  0
XRECORD
  5
2E2
102
{ACAD_REACTORS
330
2E1
102
}
330
2E1
100
AcDbXrecord
280
     1
102
SHADEPLOT
 70
     0
102
SHADEPLOTRESLEVEL
 70
     5
102
SHADEPLOTCUSTOMDPI
 70
   300
  0
XRECORD
  5
2E0
102
{ACAD_REACTORS
330
2DF
102
}
330
2DF
100
AcDbXrecord
280
     1
102
SHADEPLOT
 70
     0
102
SHADEPLOTRESLEVEL
 70
     5
102
SHADEPLOTCUSTOMDPI
 70
   300
  0
ENDSEC
  0
EOF
