  0
SECTION
  2
HEADER
  9
$ACADVER
  1
AC1015
  9
$ACADMAINTVER
 70
     6
  9
$DWGCODEPAGE
  3
ANSI_932
  9
$INSBASE
 10
0.0
 20
0.0
 30
0.0
  9
$EXTMIN
 10
-2100.0
 20
-1485.0
 30
0.0
  9
$EXTMAX
 10
2100.0
 20
1485.0
 30
0.0
  9
$LIMMIN
 10
-2100.0
 20
-1485.0
  9
$LIMMAX
 10
2100.0
 20
1485.0
  9
$ORTHOMODE
 70
     0
  9
$REGENMODE
 70
     1
  9
$FILLMODE
 70
     1
  9
$QTEXTMODE
 70
     0
  9
$MIRRTEXT
 70
     1
  9
$LTSCALE
 40
10.0
  9
$ATTMODE
 70
     1
  9
$TEXTSIZE
 40
2.5
  9
$TRACEWID
 40
1.0
  9
$TEXTSTYLE
  7
Standard
  9
$CLAYER
  8
0
  9
$CELTYPE
  6
ByLayer
  9
$CECOLOR
 62
   256
  9
$CELTSCALE
 40
1.0
  9
$DISPSILH
 70
     0
  9
$DIMSCALE
 40
1.0
  9
$DIMASZ
 40
2.5
  9
$DIMEXO
 40
0.625
  9
$DIMDLI
 40
3.75
  9
$DIMRND
 40
0.0
  9
$DIMDLE
 40
0.0
  9
$DIMEXE
 40
1.25
  9
$DIMTP
 40
0.0
  9
$DIMTM
 40
0.0
  9
$DIMTXT
 40
2.5
  9
$DIMCEN
 40
2.5
  9
$DIMTSZ
 40
0.0
  9
$DIMTOL
 70
     0
  9
$DIMLIM
 70
     0
  9
$DIMTIH
 70
     0
  9
$DIMTOH
 70
     0
  9
$DIMSE1
 70
     0
  9
$DIMSE2
 70
     0
  9
$DIMTAD
 70
     1
  9
$DIMZIN
 70
     8
  9
$DIMBLK
  1

  9
$DIMASO
 70
     1
  9
$DIMSHO
 70
     1
  9
$DIMPOST
  1

  9
$DIMAPOST
  1

  9
$DIMALT
 70
     0
  9
$DIMALTD
 70
     3
  9
$DIMALTF
 40
0.03937007874016
  9
$DIMLFAC
 40
1.0
  9
$DIMTOFL
 70
     1
  9
$DIMTVP
 40
0.0
  9
$DIMTIX
 70
     0
  9
$DIMSOXD
 70
     0
  9
$DIMSAH
 70
     0
  9
$DIMBLK1
  1

  9
$DIMBLK2
  1

  9
$DIMSTYLE
  2
ISO-25
  9
$DIMCLRD
 70
     0
  9
$DIMCLRE
 70
     0
  9
$DIMCLRT
 70
     0
  9
$DIMTFAC
 40
1.0
  9
$DIMGAP
 40
0.625
  9
$DIMJUST
 70
     0
  9
$DIMSD1
 70
     0
  9
$DIMSD2
 70
     0
  9
$DIMTOLJ
 70
     0
  9
$DIMTZIN
 70
     8
  9
$DIMALTZ
 70
     0
  9
$DIMALTTZ
 70
     0
  9
$DIMUPT
 70
     0
  9
$DIMDEC
 70
     2
  9
$DIMTDEC
 70
     2
  9
$DIMALTU
 70
     2
  9
$DIMALTTD
 70
     3
  9
$DIMTXSTY
  7
Standard
  9
$DIMAUNIT
 70
     0
  9
$DIMADEC
 70
     0
  9
$DIMALTRND
 40
0.0
  9
$DIMAZIN
 70
     0
  9
$DIMDSEP
 70
    44
  9
$DIMATFIT
 70
     3
  9
$DIMFRAC
 70
     0
  9
$DIMLDRBLK
  1

  9
$DIMLUNIT
 70
     2
  9
$DIMLWD
 70
    -2
  9
$DIMLWE
 70
    -2
  9
$DIMTMOVE
 70
     0
  9
$LUNITS
 70
     2
  9
$LUPREC
 70
     4
  9
$SKETCHINC
 40
1.0
  9
$FILLETRAD
 40
10.0
  9
$AUNITS
 70
     0
  9
$AUPREC
 70
     0
  9
$MENU
  1
.
  9
$ELEVATION
 40
0.0
  9
$PELEVATION
 40
0.0
  9
$THICKNESS
 40
0.0
  9
$LIMCHECK
 70
     0
  9
$CHAMFERA
 40
10.0
  9
$CHAMFERB
 40
10.0
  9
$CHAMFERC
 40
20.0
  9
$CHAMFERD
 40
0.0
  9
$SKPOLY
 70
     0
  9
$TDCREATE
 40
2456902.409377743
  9
$TDUCREATE
 40
2456902.034377743
  9
$TDUPDATE
 40
2456902.409377755
  9
$TDUUPDATE
 40
2456902.034377755
  9
$TDINDWG
 40
0.0000000116
  9
$TDUSRTIMER
 40
0.0000000116
  9
$USRTIMER
 70
     1
  9
$ANGBASE
 50
0.0
  9
$ANGDIR
 70
     0
  9
$PDMODE
 70
     0
  9
$PDSIZE
 40
0.0
  9
$PLINEWID
 40
0.0
  9
$SPLFRAME
 70
     0
  9
$SPLINETYPE
 70
     6
  9
$SPLINESEGS
 70
     8
  9
$HANDSEED
  5
2F9
  9
$SURFTAB1
 70
     6
  9
$SURFTAB2
 70
     6
  9
$SURFTYPE
 70
     6
  9
$SURFU
 70
     6
  9
$SURFV
 70
     6
  9
$UCSBASE
  2

  9
$UCSNAME
  2

  9
$UCSORG
 10
0.0
 20
0.0
 30
0.0
  9
$UCSXDIR
 10
1.0
 20
0.0
 30
0.0
  9
$UCSYDIR
 10
0.0
 20
1.0
 30
0.0
  9
$UCSORTHOREF
  2

  9
$UCSORTHOVIEW
 70
     0
  9
$UCSORGTOP
 10
0.0
 20
0.0
 30
0.0
  9
$UCSORGBOTTOM
 10
0.0
 20
0.0
 30
0.0
  9
$UCSORGLEFT
 10
0.0
 20
0.0
 30
0.0
  9
$UCSORGRIGHT
 10
0.0
 20
0.0
 30
0.0
  9
$UCSORGFRONT
 10
0.0
 20
0.0
 30
0.0
  9
$UCSORGBACK
 10
0.0
 20
0.0
 30
0.0
  9
$PUCSBASE
  2

  9
$PUCSNAME
  2

  9
$PUCSORG
 10
0.0
 20
0.0
 30
0.0
  9
$PUCSXDIR
 10
1.0
 20
0.0
 30
0.0
  9
$PUCSYDIR
 10
0.0
 20
1.0
 30
0.0
  9
$PUCSORTHOREF
  2

  9
$PUCSORTHOVIEW
 70
     0
  9
$PUCSORGTOP
 10
0.0
 20
0.0
 30
0.0
  9
$PUCSORGBOTTOM
 10
0.0
 20
0.0
 30
0.0
  9
$PUCSORGLEFT
 10
0.0
 20
0.0
 30
0.0
  9
$PUCSORGRIGHT
 10
0.0
 20
0.0
 30
0.0
  9
$PUCSORGFRONT
 10
0.0
 20
0.0
 30
0.0
  9
$PUCSORGBACK
 10
0.0
 20
0.0
 30
0.0
  9
$USERI1
 70
     0
  9
$USERI2
 70
     0
  9
$USERI3
 70
     0
  9
$USERI4
 70
     0
  9
$USERI5
 70
     0
  9
$USERR1
 40
0.0
  9
$USERR2
 40
0.0
  9
$USERR3
 40
0.0
  9
$USERR4
 40
0.0
  9
$USERR5
 40
0.0
  9
$WORLDVIEW
 70
     1
  9
$SHADEDGE
 70
     3
  9
$SHADEDIF
 70
    70
  9
$TILEMODE
 70
     1
  9
$MAXACTVP
 70
    64
  9
$PINSBASE
 10
0.0
 20
0.0
 30
0.0
  9
$PLIMCHECK
 70
     0
  9
$PEXTMIN
 10
1.000000000000000E+20
 20
1.000000000000000E+20
 30
1.000000000000000E+20
  9
$PEXTMAX
 10
-1.000000000000000E+20
 20
-1.000000000000000E+20
 30
-1.000000000000000E+20
  9
$PLIMMIN
 10
0.0
 20
0.0
  9
$PLIMMAX
 10
420.0
 20
297.0
  9
$UNITMODE
 70
     0
  9
$VISRETAIN
 70
     1
  9
$PLINEGEN
 70
     0
  9
$PSLTSCALE
 70
     1
  9
$TREEDEPTH
 70
  3020
  9
$CMLSTYLE
  2
Standard
  9
$CMLJUST
 70
     0
  9
$CMLSCALE
 40
20.0
  9
$PROXYGRAPHICS
 70
     1
  9
$MEASUREMENT
 70
     1
  9
$CELWEIGHT
370
    -1
  9
$ENDCAPS
280
     0
  9
$JOINSTYLE
280
     0
  9
$LWDISPLAY
290
     0
  9
$INSUNITS
 70
     4
  9
$HYPERLINKBASE
  1

  9
$STYLESHEET
  1

  9
$XEDIT
290
     1
  9
$CEPSNTYPE
380
     0
  9
$PSTYLEMODE
290
     1
  9
$FINGERPRINTGUID
  2
{E9E6078C-2F00-4A76-9F73-6CF9A13978FE}
  9
$VERSIONGUID
  2
{FAEB1C32-E019-11D5-929B-00C0DF256EC4}
  9
$EXTNAMES
290
     1
  9
$PSVPSCALE
 40
0.0
  9
$OLESTARTUP
290
     0
  0
ENDSEC
  0
SECTION
  2
CLASSES
  0
CLASS
  1
ACDBDICTIONARYWDFLT
  2
AcDbDictionaryWithDefault
  3
ObjectDBX Classes
 90
        0
280
     0
281
     0
  0
CLASS
  1
VISUALSTYLE
  2
AcDbVisualStyle
  3
ObjectDBX Classes
 90
     4095
280
     0
281
     0
  0
CLASS
  1
DICTIONARYVAR
  2
AcDbDictionaryVar
  3
ObjectDBX Classes
 90
        0
280
     0
281
     0
  0
CLASS
  1
ACDBPLACEHOLDER
  2
AcDbPlaceHolder
  3
ObjectDBX Classes
 90
        0
280
     0
281
     0
  0
CLASS
  1
LAYOUT
  2
AcDbLayout
  3
ObjectDBX Classes
 90
        0
280
     0
281
     0
  0
ENDSEC
  0
SECTION
  2
TABLES
  0
TABLE
  2
VPORT
  5
8
330
0
100
AcDbSymbolTable
 70
     1
  0
VPORT
  5
29
330
8
100
AcDbSymbolTableRecord
100
AcDbViewportTableRecord
  2
*Active
 70
     0
 10
0.0
 20
0.0
 11
1.0
 21
1.0
 12
0.0
 22
0.0
 13
0.0
 23
0.0
 14
10.0
 24
10.0
 15
10.0
 25
10.0
 16
0.0
 26
0.0
 36
1.0
 17
0.0
 27
0.0
 37
0.0
 40
3267.0
 41
1.414141414141414
 42
50.0
 43
0.0
 44
0.0
 50
0.0
 51
0.0
 71
     0
 72
 10000
 73
     1
 74
     3
 75
     0
 76
     0
 77
     0
 78
     0
281
     0
 65
     1
110
0.0
120
0.0
130
0.0
111
1.0
121
0.0
131
0.0
112
0.0
122
1.0
132
0.0
 79
     0
146
0.0
  0
ENDTAB
  0
TABLE
  2
LTYPE
  5
5
330
0
100
AcDbSymbolTable
 70
     4
  0
LTYPE
  5
14
330
5
100
AcDbSymbolTableRecord
100
AcDbLinetypeTableRecord
  2
ByBlock
 70
     0
  3

 72
    65
 73
     0
 40
0.0
  0
LTYPE
  5
15
330
5
100
AcDbSymbolTableRecord
100
AcDbLinetypeTableRecord
  2
ByLayer
 70
     0
  3

 72
    65
 73
     0
 40
0.0
  0
LTYPE
  5
16
330
5
100
AcDbSymbolTableRecord
100
AcDbLinetypeTableRecord
  2
Continuous
 70
     0
  3
Solid line
 72
    65
 73
     0
 40
0.0
  0
LTYPE
  5
3C
330
5
100
AcDbSymbolTableRecord
100
AcDbLinetypeTableRecord
  2
JWW_DASHED1
 70
     0
  3
-  --  --  --  --  --  --  --  -
 72
    65
 73
     2
 40
1.693333333333333
 49
0.8466666666666667
 74
     0
 49
-0.8466666666666667
 74
     0
  0
LTYPE
  5
3D
330
5
100
AcDbSymbolTableRecord
100
AcDbLinetypeTableRecord
  2
JWW_CENTER1
 70
     0
  3
-----  --  ----------  --  -----
 72
    65
 73
     4
 40
6.773333333333333
 49
4.233333333333333
 74
     0
 49
-0.8466666666666667
 74
     0
 49
0.8466666666666667
 74
     0
 49
-0.8466666666666667
 74
     0
  0
LTYPE
  5
3E
330
5
100
AcDbSymbolTableRecord
100
AcDbLinetypeTableRecord
  2
JWW_PHANTOM1
 70
     0
  3
----  -  -  --------  -  -  ----
 72
    65
 73
     6
 40
6.773333333333333
 49
3.386666666666667
 74
     0
 49
-0.8466666666666667
 74
     0
 49
0.4233333333333333
 74
     0
 49
-0.8466666666666667
 74
     0
 49
0.4233333333333333
 74
     0
 49
-0.8466666666666667
 74
     0
  0
ENDTAB
  0
TABLE
  2
LAYER
  5
2
330
0
100
AcDbSymbolTable
 70
    10
  0
LAYER
  5
10
330
2
100
AcDbSymbolTableRecord
100
AcDbLayerTableRecord
  2
0
 70
     0
 62
     7
  6
Continuous
370
    -3
390
F
  0
LAYER
  5
3F
330
2
100
AcDbSymbolTableRecord
100
AcDbLayerTableRecord
  2
F-5
 70
     0
 62
     7
  6
Continuous
370
    -3
390
F
  0
LAYER
  5
40
330
2
100
AcDbSymbolTableRecord
100
AcDbLayerTableRecord
  2
F-1
 70
     0
 62
     7
  6
Continuous
370
    -3
390
F
  0
LAYER
  5
41
330
2
100
AcDbSymbolTableRecord
100
AcDbLayerTableRecord
  2
F-4
 70
     0
 62
     7
  6
Continuous
370
    -3
390
F
  0
LAYER
  5
42
330
2
100
AcDbSymbolTableRecord
100
AcDbLayerTableRecord
  2
0-1
 70
     0
 62
     7
  6
Continuous
370
    -3
390
F
  0
LAYER
  5
43
330
2
100
AcDbSymbolTableRecord
100
AcDbLayerTableRecord
  2
0-5
 70
     0
 62
     7
  6
Continuous
370
    -3
390
F
  0
LAYER
  5
44
330
2
100
AcDbSymbolTableRecord
100
AcDbLayerTableRecord
  2
0-4
 70
     0
 62
     7
  6
Continuous
370
    -3
390
F
  0
LAYER
  5
45
330
2
100
AcDbSymbolTableRecord
100
AcDbLayerTableRecord
  2
0-E
 70
     0
 62
     7
  6
Continuous
370
    -3
390
F
  0
LAYER
  5
46
330
2
100
AcDbSymbolTableRecord
100
AcDbLayerTableRecord
  2
0-0
 70
     0
 62
     7
  6
Continuous
370
    -3
390
F
  0
LAYER
  5
47
330
2
100
AcDbSymbolTableRecord
100
AcDbLayerTableRecord
  2
0-2
 70
     0
 62
     7
  6
Continuous
370
    -3
390
F
  0
ENDTAB
  0
TABLE
  2
STYLE
  5
3
330
0
100
AcDbSymbolTable
 70
     2
  0
STYLE
  5
11
330
3
100
AcDbSymbolTableRecord
100
AcDbTextStyleTableRecord
  2
Standard
 70
     0
 40
0.0
 41
1.0
 50
0.0
 71
     0
 42
2.5
  3
txt
  4

1001
ACAD
1000

1071
        0
  0
STYLE
  5
3B
330
3
100
AcDbSymbolTableRecord
100
AcDbTextStyleTableRecord
  2
ＭＳ ゴシック
 70
     0
 40
1.0
 41
1.0
 50
0.0
 71
     0
 42
10.0
  3

  4

1001
ACAD
1000
MS Gothic
1071
    32817
  0
ENDTAB
  0
TABLE
  2
VIEW
  5
6
330
0
100
AcDbSymbolTable
 70
     0
  0
ENDTAB
  0
TABLE
  2
UCS
  5
7
330
0
100
AcDbSymbolTable
 70
     0
  0
ENDTAB
  0
TABLE
  2
APPID
  5
9
330
0
100
AcDbSymbolTable
 70
     1
  0
APPID
  5
12
330
9
100
AcDbSymbolTableRecord
100
AcDbRegAppTableRecord
  2
ACAD
 70
     0
  0
ENDTAB
  0
TABLE
  2
DIMSTYLE
  5
A
330
0
100
AcDbSymbolTable
 70
     1
100
AcDbDimStyleTable
  0
DIMSTYLE
105
27
330
A
100
AcDbSymbolTableRecord
100
AcDbDimStyleTableRecord
  2
ISO-25
 70
     0
 41
2.5
 42
0.625
 43
3.75
 44
1.25
 73
     0
 74
     0
 77
     1
 78
     8
140
2.5
141
2.5
143
0.03937007874016
147
0.625
171
     3
172
     1
271
     2
272
     2
274
     3
278
    44
283
     0
284
     8
340
11
  0
ENDTAB
  0
TABLE
  2
BLOCK_RECORD
  5
1
330
0
100
AcDbSymbolTable
 70
     1
  0
BLOCK_RECORD
  5
1F
330
1
100
AcDbSymbolTableRecord
100
AcDbBlockTableRecord
  2
*Model_Space
340
22
  0
BLOCK_RECORD
  5
1B
330
1
100
AcDbSymbolTableRecord
100
AcDbBlockTableRecord
  2
*Paper_Space
340
1E
  0
BLOCK_RECORD
  5
23
330
1
100
AcDbSymbolTableRecord
100
AcDbBlockTableRecord
  2
*Paper_Space0
340
26
  0
ENDTAB
  0
ENDSEC
  0
SECTION
  2
BLOCKS
  0
BLOCK
  5
20
330
1F
100
AcDbEntity
  8
0
100
AcDbBlockBegin
  2
*Model_Space
 70
     0
 10
0.0
 20
0.0
 30
0.0
  3
*Model_Space
  1

  0
ENDBLK
  5
21
330
1F
100
AcDbEntity
  8
0
100
AcDbBlockEnd
  0
BLOCK
  5
1C
330
1B
100
AcDbEntity
 67
     1
  8
0
100
AcDbBlockBegin
  2
*Paper_Space
 70
     0
 10
0.0
 20
0.0
 30
0.0
  3
*Paper_Space
  1

  0
ENDBLK
  5
1D
330
1B
100
AcDbEntity
 67
     1
  8
0
100
AcDbBlockEnd
  0
BLOCK
  5
24
330
23
100
AcDbEntity
  8
0
100
AcDbBlockBegin
  2
*Paper_Space0
 70
     0
 10
0.0
 20
0.0
 30
0.0
  3
*Paper_Space0
  1

  0
ENDBLK
  5
25
330
23
100
AcDbEntity
  8
0
100
AcDbBlockEnd
  0
ENDSEC
  0
SECTION
  2
ENTITIES
  0
LWPOLYLINE
  5
48
330
1F
100
AcDbEntity
  8
F-5
  6
Continuous
 62
     7
370
     9
100
AcDbPolyline
 90
        4
 70
     1
 43
1.0
 10
-2099.5
 20
-1485.0
 42
0.4142135623731
 10
-2100.0
 20
-1484.5
 42
0.4142135623731
 10
-2100.5
 20
-1485.0
 42
0.4142135623731
 10
-2100.0
 20
-1485.5
 42
0.4142135623731
  0
LWPOLYLINE
  5
49
330
1F
100
AcDbEntity
  8
F-1
  6
Continuous
 62
     7
370
     9
100
AcDbPolyline
 90
        4
 70
     1
 43
1.0
 10
1860.499703072213
 20
-1504.999998324626
 42
0.4142135623731
 10
1859.999703072213
 20
-1504.499998324626
 42
0.4142135623731
 10
1859.499703072213
 20
-1504.999998324626
 42
0.4142135623731
 10
1859.999703072213
 20
-1505.499998324626
 42
0.4142135623731
  0
TEXT
  5
4A
330
1F
100
AcDbEntity
  8
F-4
  6
Continuous
 62
     6
370
     0
100
AcDbText
 10
-137.5075053204083
 20
-1175.751139899029
 30
0.0
 40
30.48
  1
鋳鉄製　たて引き用　シート防水用　　　ＡＬＣ＝１００
 41
0.7980769230769229
  7
ＭＳ ゴシック
100
AcDbText
  0
LINE
  5
4B
330
1F
100
AcDbEntity
  8
0-1
  6
Continuous
 62
     2
370
     9
100
AcDbLine
 10
-461.4356896397936
 20
-49.13411202416029
 30
0.0
 11
-459.7690587144348
 21
-42.46734088290196
 31
0.0
  0
LINE
  5
4C
330
1F
100
AcDbEntity
  8
0-1
  6
Continuous
 62
     2
370
     9
100
AcDbLine
 10
-441.2391564366686
 20
-42.46734088290196
 30
0.0
 11
-459.7690587144348
 21
-42.46734088290196
 31
0.0
  0
LINE
  5
4D
330
1F
100
AcDbEntity
  8
0-1
  6
Continuous
 62
     2
370
     9
100
AcDbLine
 10
-396.4355989118587
 20
-29.13404604020741
 30
0.0
 11
-406.435631903835
 21
-29.13404604020741
 31
0.0
  0
LINE
  5
4E
330
1F
100
AcDbEntity
  8
0-1
  6
Continuous
 62
     2
370
     9
100
AcDbLine
 10
-408.0792509256889
 20
-39.86476882842553
 30
0.0
 11
-406.435631903835
 21
-29.13404604020741
 31
0.0
  0
LINE
  5
4F
330
1F
100
AcDbEntity
  8
0-1
  6
Continuous
 62
     2
370
     9
100
AcDbLine
 10
-396.4355989118587
 20
-29.13404604020741
 30
0.0
 11
-392.2087081416939
 21
-51.68694867428698
 31
0.0
  0
LINE
  5
50
330
1F
100
AcDbEntity
  8
0-1
  6
Continuous
 62
     2
370
     9
100
AcDbLine
 10
138.5643103602064
 20
-49.13411202416029
 30
0.0
 11
136.8975557149361
 21
-42.46734088290196
 31
0.0
  0
LINE
  5
51
330
1F
100
AcDbEntity
  8
0-1
  6
Continuous
 62
     2
370
     9
100
AcDbLine
 10
118.3677771570814
 20
-42.46734088290196
 30
0.0
 11
136.8975557149361
 21
-42.46734088290196
 31
0.0
  0
LINE
  5
52
330
1F
100
AcDbEntity
  8
0-1
  6
Continuous
 62
     2
370
     9
100
AcDbLine
 10
85.2078716461017
 20
-39.86476882842553
 30
0.0
 11
83.56437634415897
 21
-29.13404604020741
 31
0.0
  0
LINE
  5
53
330
1F
100
AcDbEntity
  8
0-1
  6
Continuous
 62
     2
370
     9
100
AcDbLine
 10
-324.7691082023991
 20
-67.46742336284271
 30
0.0
 11
-321.4357226317699
 21
-84.13398005625481
 31
0.0
  0
LINE
  5
54
330
1F
100
AcDbEntity
  8
0-1
  6
Continuous
 62
     2
370
     9
100
AcDbLine
 10
-284.7689762344939
 20
-67.46742336284271
 30
0.0
 11
-288.1023618051231
 21
-84.13398005625481
 31
0.0
  0
LINE
  5
55
330
1F
100
AcDbEntity
  8
0-1
  6
Continuous
 62
     2
370
     9
100
AcDbLine
 10
-263.9651019867108
 20
-71.48683584172772
 30
0.0
 11
-261.4356483998233
 21
-84.13398005625481
 31
0.0
  0
LINE
  5
56
330
1F
100
AcDbEntity
  8
0-1
  6
Continuous
 62
     2
370
     9
100
AcDbLine
 10
-268.8679983523147
 20
-67.46742336284271
 30
0.0
 11
-347.9372699554608
 21
-67.46742336284271
 31
0.0
  0
LINE
  5
57
330
1F
100
AcDbEntity
  8
0-1
  6
Continuous
 62
     2
370
     9
100
AcDbLine
 10
-347.9372699554608
 20
-67.46742336284271
 30
0.0
 11
-387.3815283618165
 21
-56.8982787788056
 31
0.0
  0
LINE
  5
58
330
1F
100
AcDbEntity
  8
0-1
  6
Continuous
 62
     2
370
     9
100
AcDbLine
 10
-420.5520737851694
 20
-48.01073522939674
 30
0.0
 11
-441.2391564366686
 21
-42.46734088290196
 31
0.0
  0
LINE
  5
59
330
1F
100
AcDbEntity
  8
0-1
  6
JWW_DASHED1
 62
     2
370
     9
100
AcDbLine
 10
-387.3815283618165
 20
-56.8982787788056
 30
0.0
 11
-420.5520737851694
 21
-48.01073522939674
 31
0.0
  0
LINE
  5
5A
330
1F
100
AcDbEntity
  8
0-1
  6
Continuous
 62
     2
370
     9
100
AcDbLine
 10
26.16402860872824
 20
-53.25819154802019
 30
0.0
 11
24.30699273985169
 21
-63.69545070659271
 31
0.0
  0
LINE
  5
5B
330
1F
100
AcDbEntity
  8
0-1
  6
JWW_DASHED1
 62
     2
370
     9
100
AcDbLine
 10
70.58046653102565
 20
-45.05506654802019
 30
0.0
 11
69.33732886210656
 21
-51.68694867428698
 31
0.0
  0
LINE
  5
5C
330
1F
100
AcDbEntity
  8
0-1
  6
Continuous
 62
     2
370
     9
100
AcDbLine
 10
6.40546389166758
 20
-72.46743985883086
 30
0.0
 11
19.46880188786679
 21
-68.96715612783424
 31
0.0
  0
LINE
  5
5D
330
1F
100
AcDbEntity
  8
0-1
  6
JWW_DASHED1
 62
     2
370
     9
100
AcDbLine
 10
19.46880188786679
 20
-68.96715612783424
 30
0.0
 11
97.68081822549355
 21
-48.01024034975157
 31
0.0
  0
LINE
  5
5E
330
1F
100
AcDbEntity
  8
0-1
  6
Continuous
 62
     2
370
     9
100
AcDbLine
 10
97.68081822549355
 20
-48.01024034975157
 30
0.0
 11
118.3677771570814
 21
-42.46734088290196
 31
0.0
  0
LINE
  5
5F
330
1F
100
AcDbEntity
  8
0-1
  6
Continuous
 62
     2
370
     9
100
AcDbLine
 10
73.5643433521826
 20
-29.13404604020741
 30
0.0
 11
70.58046653102565
 21
-45.05506654802019
 31
0.0
  0
LINE
  5
60
330
1F
100
AcDbEntity
  8
0-1
  6
Continuous
 62
     2
370
     9
100
AcDbLine
 10
73.5643433521826
 20
-29.13404604020741
 30
0.0
 11
83.56437634415897
 21
-29.13404604020741
 31
0.0
  0
LINE
  5
61
330
1F
100
AcDbEntity
  8
0-1
  6
Continuous
 62
     4
370
     9
100
AcDbLine
 10
-291.4357473757522
 20
-104.734211330009
 30
0.0
 11
-318.1023370611408
 21
-104.734211330009
 31
0.0
  0
LINE
  5
62
330
1F
100
AcDbEntity
  8
0-1
  6
Continuous
 62
     4
370
     9
100
AcDbLine
 10
-318.1023370611408
 20
-104.734211330009
 30
0.0
 11
-315.8474179574668
 21
-106.9888829938604
 31
0.0
  0
LINE
  5
63
330
1F
100
AcDbEntity
  8
0-1
  6
Continuous
 62
     4
370
     9
100
AcDbLine
 10
-315.8474179574668
 20
-106.9888829938604
 30
0.0
 11
-293.6906664794262
 21
-106.9888829938604
 31
0.0
  0
LINE
  5
64
330
1F
100
AcDbEntity
  8
0-1
  6
Continuous
 62
     4
370
     9
100
AcDbLine
 10
-293.6906664794262
 20
-106.9888829938604
 30
0.0
 11
-291.4357473757522
 21
-104.734211330009
 31
0.0
  0
LINE
  5
65
330
1F
100
AcDbEntity
  8
0-1
  6
Continuous
 62
     4
370
     9
100
AcDbLine
 10
-329.7691246983874
 20
-48.20646012910103
 30
0.0
 11
-329.7691246983874
 21
-67.46742336284271
 31
0.0
  0
LINE
  5
66
330
1F
100
AcDbEntity
  8
0-1
  6
Continuous
 62
     4
370
     9
100
AcDbLine
 10
-279.7689597385056
 20
-48.20646012910103
 30
0.0
 11
-279.7689597385056
 21
-67.46742336284271
 31
0.0
  0
LINE
  5
67
330
1F
100
AcDbEntity
  8
0-1
  6
Continuous
 62
     4
370
     9
100
AcDbLine
 10
-317.2598044650681
 20
-48.20646012910103
 30
0.0
 11
-317.2598044650681
 21
-67.46742336284271
 31
0.0
  0
LINE
  5
68
330
1F
100
AcDbEntity
  8
0-1
  6
Continuous
 62
     4
370
     9
100
AcDbLine
 10
-292.2782799718249
 20
-48.20646012910103
 30
0.0
 11
-292.2782799718249
 21
-67.46742336284271
 31
0.0
  0
LINE
  5
69
330
1F
100
AcDbEntity
  8
0-1
  6
Continuous
 62
     4
370
     9
100
AcDbLine
 10
-323.5143408618165
 20
-45.80060273361966
 30
0.0
 11
-286.0237435750767
 21
-45.80060273361966
 31
0.0
  0
LINE
  5
6A
330
1F
100
AcDbEntity
  8
0-1
  6
Continuous
 62
     4
370
     9
100
AcDbLine
 10
-318.1023370611408
 20
24.08927004931925
 30
0.0
 11
-315.8474179574668
 21
26.34443659281601
 31
0.0
  0
LINE
  5
6B
330
1F
100
AcDbEntity
  8
0-1
  6
Continuous
 62
     4
370
     9
100
AcDbLine
 10
-293.6906664794262
 20
26.34443659281601
 30
0.0
 11
-291.4357473757522
 21
24.08927004931925
 31
0.0
  0
LINE
  5
6C
330
1F
100
AcDbEntity
  8
0-1
  6
Continuous
 62
     2
370
     9
100
AcDbLine
 10
-318.1023370611408
 20
-84.13398005625481
 30
0.0
 11
-330.8128258702624
 21
-84.13398005625481
 31
0.0
  0
LINE
  5
6D
330
1F
100
AcDbEntity
  8
0-1
  6
Continuous
 62
     2
370
     9
100
AcDbLine
 10
70.23083406164233
 20
-69.16906702310456
 30
0.0
 11
76.89760520290065
 21
-67.38279894350157
 31
0.0
  0
LINE
  5
6E
330
1F
100
AcDbEntity
  8
0-1
  6
Continuous
 62
     2
370
     9
100
AcDbLine
 10
70.23083406164233
 20
-69.16906702310456
 30
0.0
 11
66.8973247711017
 21
-68.33692689958269
 31
0.0
  0
LINE
  5
6F
330
1F
100
AcDbEntity
  8
0-1
  6
Continuous
 62
     2
370
     9
100
AcDbLine
 10
7.941322870763941
 20
-84.13398005625481
 30
0.0
 11
66.8973247711017
 21
-68.33692689958269
 31
0.0
  0
LINE
  5
70
330
1F
100
AcDbEntity
  8
0-1
  6
Continuous
 62
     2
370
     9
100
AcDbLine
 10
76.89760520290065
 20
-67.38279894350157
 30
0.0
 11
80.23136193326387
 21
-64.76414330055377
 31
0.0
  0
LINE
  5
71
330
1F
100
AcDbEntity
  8
0-1
  6
Continuous
 62
     2
370
     9
100
AcDbLine
 10
80.23136193326387
 20
-64.76414330055377
 30
0.0
 11
138.5643103602064
 21
-49.13411202416029
 31
0.0
  0
LINE
  5
72
330
1F
100
AcDbEntity
  8
0-1
  6
Continuous
 62
     2
370
     9
100
AcDbLine
 10
-393.1022133412296
 20
-69.16906702310456
 30
0.0
 11
-399.7689844824879
 21
-67.38279894350157
 31
0.0
  0
LINE
  5
73
330
1F
100
AcDbEntity
  8
0-1
  6
Continuous
 62
     2
370
     9
100
AcDbLine
 10
-399.7689844824879
 20
-67.38279894350157
 30
0.0
 11
-403.1024937730285
 21
-64.76414330055377
 31
0.0
  0
LINE
  5
74
330
1F
100
AcDbEntity
  8
0-1
  6
Continuous
 62
     2
370
     9
100
AcDbLine
 10
-403.1024937730285
 20
-64.76414330055377
 30
0.0
 11
-461.4356896397936
 21
-49.13411202416029
 31
0.0
  0
LINE
  5
75
330
1F
100
AcDbEntity
  8
0-1
  6
Continuous
 62
     2
370
     9
100
AcDbLine
 10
-393.1022133412296
 20
-69.16906702310456
 30
0.0
 11
-389.7690752104228
 21
-68.33692689958269
 31
0.0
  0
LINE
  5
76
330
1F
100
AcDbEntity
  8
0-1
  6
Continuous
 62
     2
370
     9
100
AcDbLine
 10
-330.8128258702624
 20
-84.13398005625481
 30
0.0
 11
-389.7690752104228
 21
-68.33692689958269
 31
0.0
  0
LINE
  5
77
330
1F
100
AcDbEntity
  8
0-1
  6
Continuous
 62
     2
370
     9
100
AcDbLine
 10
-291.4357473757522
 20
-84.13398005625481
 30
0.0
 11
7.941322870763941
 21
-84.13398005625481
 31
0.0
  0
LINE
  5
78
330
1F
100
AcDbEntity
  8
0-1
  6
Continuous
 62
     2
370
     9
100
AcDbLine
 10
-15.45955603548606
 20
-74.88492692597603
 30
0.0
 11
-18.10221334122957
 21
-84.13398005625481
 31
0.0
  0
LINE
  5
79
330
1F
100
AcDbEntity
  8
0-1
  6
Continuous
 62
     2
370
     9
100
AcDbLine
 10
-263.7690059272725
 20
-72.46743985883086
 30
0.0
 11
6.40546389166758
 21
-72.46743985883086
 31
0.0
  0
LINE
  5
7A
330
1F
100
AcDbEntity
  8
0-1
  6
Continuous
 62
     4
370
     9
100
AcDbLine
 10
-291.4357473757522
 20
-45.80060273361966
 30
0.0
 11
-291.4357473757522
 21
24.08927004931925
 31
0.0
  0
LINE
  5
7B
330
1F
100
AcDbEntity
  8
0-1
  6
Continuous
 62
     4
370
     9
100
AcDbLine
 10
-293.6906664794262
 20
-45.80060273361966
 30
0.0
 11
-293.6906664794262
 21
26.34443659281601
 31
0.0
  0
LINE
  5
7C
330
1F
100
AcDbEntity
  8
0-1
  6
Continuous
 62
     4
370
     9
100
AcDbLine
 10
-315.8474179574668
 20
-45.80060273361966
 30
0.0
 11
-315.8474179574668
 21
26.34443659281601
 31
0.0
  0
LINE
  5
7D
330
1F
100
AcDbEntity
  8
0-1
  6
Continuous
 62
     4
370
     9
100
AcDbLine
 10
-318.1023370611408
 20
-45.80060273361966
 30
0.0
 11
-318.1023370611408
 21
24.08927004931925
 31
0.0
  0
LINE
  5
7E
330
1F
100
AcDbEntity
  8
0-1
  6
Continuous
 62
     4
370
     9
100
AcDbLine
 10
-293.6906664794262
 20
-67.46742336284271
 30
0.0
 11
-293.6906664794262
 21
-106.9888829938604
 31
0.0
  0
LINE
  5
7F
330
1F
100
AcDbEntity
  8
0-1
  6
Continuous
 62
     4
370
     9
100
AcDbLine
 10
-291.4357473757522
 20
-67.46742336284271
 30
0.0
 11
-291.4357473757522
 21
-104.734211330009
 31
0.0
  0
LINE
  5
80
330
1F
100
AcDbEntity
  8
0-1
  6
Continuous
 62
     4
370
     9
100
AcDbLine
 10
-315.8474179574668
 20
-67.46742336284271
 30
0.0
 11
-315.8474179574668
 21
-106.9888829938604
 31
0.0
  0
LINE
  5
81
330
1F
100
AcDbEntity
  8
0-1
  6
Continuous
 62
     4
370
     9
100
AcDbLine
 10
-318.1023370611408
 20
-67.46742336284271
 30
0.0
 11
-318.1023370611408
 21
-104.734211330009
 31
0.0
  0
LINE
  5
82
330
1F
100
AcDbEntity
  8
0-5
  6
Continuous
 62
     2
370
     9
100
AcDbLine
 10
-492.3824933771246
 20
-318.2014123567194
 30
0.0
 11
-494.7689267465293
 21
-308.6556788791012
 31
0.0
  0
LINE
  5
83
330
1F
100
AcDbEntity
  8
0-5
  6
Continuous
 62
     2
370
     9
100
AcDbLine
 10
-442.416598832678
 20
-321.9887262819728
 30
0.0
 11
-487.5318068140967
 21
-321.9887262819728
 31
0.0
  0
LINE
  5
84
330
1F
100
AcDbEntity
  8
0-5
  6
Continuous
 62
     2
370
     9
100
AcDbLine
 10
-436.1261836616475
 20
-331.5349546392363
 30
0.0
 11
-437.5659122696501
 21
-325.7762876470488
 31
0.0
  0
LINE
  5
85
330
1F
100
AcDbEntity
  8
0-5
  6
Continuous
 62
     2
370
     9
100
AcDbLine
 10
-432.0063106147725
 20
-308.6556788791012
 30
0.0
 11
-494.7689267465293
 21
-308.6556788791012
 31
0.0
  0
LINE
  5
86
330
1F
100
AcDbEntity
  8
0-5
  6
Continuous
 62
     2
370
     9
100
AcDbLine
 10
-425.7158954437421
 20
-318.2014123567194
 30
0.0
 11
-427.1555003318335
 21
-312.4427453645319
 31
0.0
  0
LINE
  5
87
330
1F
100
AcDbEntity
  8
0-5
  6
Continuous
 62
     2
370
     9
100
AcDbLine
 10
12.61719319909986
 20
-331.5349546392363
 30
0.0
 11
10.23088354960663
 21
-321.9887262819728
 31
0.0
  0
LINE
  5
88
330
1F
100
AcDbEntity
  8
0-5
  6
Continuous
 62
     2
370
     9
100
AcDbLine
 10
169.51136153736
 20
-318.2014123567194
 30
0.0
 11
171.8976711868532
 21
-308.6554314392785
 31
0.0
  0
LINE
  5
89
330
1F
100
AcDbEntity
  8
0-5
  6
Continuous
 62
     2
370
     9
100
AcDbLine
 10
119.5453432730019
 20
-321.9887262819728
 30
0.0
 11
164.660551254421
 21
-321.9887262819728
 31
0.0
  0
LINE
  5
8A
330
1F
100
AcDbEntity
  8
0-5
  6
Continuous
 62
     2
370
     9
100
AcDbLine
 10
113.2549281019715
 20
-331.5349546392363
 30
0.0
 11
114.6945329900628
 21
-325.7762876470488
 31
0.0
  0
LINE
  5
8B
330
1F
100
AcDbEntity
  8
0-5
  6
Continuous
 62
     2
370
     9
100
AcDbLine
 10
104.2842447721574
 20
-312.4427453645319
 30
0.0
 11
102.8446398840663
 21
-318.2014123567194
 31
0.0
  0
LINE
  5
8C
330
1F
100
AcDbEntity
  8
0-5
  6
Continuous
 62
     2
370
     9
100
AcDbLine
 10
109.1350550550965
 20
-308.6554314392785
 30
0.0
 11
171.8976711868532
 21
-308.6554314392785
 31
0.0
  0
LINE
  5
8D
330
1F
100
AcDbEntity
  8
0-5
  6
Continuous
 62
     2
370
     9
100
AcDbLine
 10
-408.5522321466559
 20
-325.2331572363646
 30
0.0
 11
-404.7690009784762
 21
-335.3220211246671
 31
0.0
  0
LINE
  5
8E
330
1F
100
AcDbEntity
  8
0-5
  6
Continuous
 62
     2
370
     9
100
AcDbLine
 10
-367.6522852637379
 20
-325.2331572363646
 30
0.0
 11
-371.435640151829
 21
-335.3220211246671
 31
0.0
  0
LINE
  5
8F
330
1F
100
AcDbEntity
  8
0-5
  6
Continuous
 62
     2
370
     9
100
AcDbLine
 10
-335.4888199185098
 20
-331.5349546392363
 30
0.0
 11
-333.1023865491053
 21
-321.9887262819728
 31
0.0
  0
LINE
  5
90
330
1F
100
AcDbEntity
  8
0-5
  6
Continuous
 62
     2
370
     9
100
AcDbLine
 10
-420.865085160803
 20
-321.9887262819728
 30
0.0
 11
-401.4357391277582
 21
-321.9887262819728
 31
0.0
  0
LINE
  5
91
330
1F
100
AcDbEntity
  8
0-1
  6
Continuous
 62
     2
370
     9
100
AcDbLine
 10
58.56404642439564
 20
-49.13411202416029
 30
0.0
 11
65.66606421366906
 21
-49.13411202416029
 31
0.0
  0
LINE
  5
92
330
1F
100
AcDbEntity
  8
0-1
  6
Continuous
 62
     2
370
     9
100
AcDbLine
 10
31.08659644023163
 20
-49.13411202416029
 30
0.0
 11
41.89748973098347
 21
-49.13411202416029
 31
0.0
  0
LINE
  5
93
330
1F
100
AcDbEntity
  8
0-1
  6
Continuous
 62
     4
370
     9
100
AcDbLine
 10
-302.7689861320866
 20
19.67791289138034
 30
0.0
 11
-302.7689861320866
 21
26.34443659281601
 31
0.0
  0
LINE
  5
94
330
1F
100
AcDbEntity
  8
0-1
  6
Continuous
 62
     4
370
     9
100
AcDbLine
 10
-302.7689861320866
 20
19.67791289138034
 30
0.0
 11
-306.7689745848949
 21
19.67791289138034
 31
0.0
  0
LINE
  5
95
330
1F
100
AcDbEntity
  8
0-1
  6
Continuous
 62
     4
370
     9
100
AcDbLine
 10
-306.7689745848949
 20
19.67791289138034
 30
0.0
 11
-306.7689745848949
 21
26.34443659281601
 31
0.0
  0
LINE
  5
96
330
1F
100
AcDbEntity
  8
0-1
  6
Continuous
 62
     4
370
     9
100
AcDbLine
 10
-315.8474179574668
 20
26.34443659281601
 30
0.0
 11
-306.7689745848949
 21
26.34443659281601
 31
0.0
  0
LINE
  5
97
330
1F
100
AcDbEntity
  8
0-1
  6
Continuous
 62
     4
370
     9
100
AcDbLine
 10
-302.7689861320866
 20
26.34443659281601
 30
0.0
 11
-293.6906664794262
 21
26.34443659281601
 31
0.0
  0
LINE
  5
98
330
1F
100
AcDbEntity
  8
0-1
  6
Continuous
 62
     4
370
     9
100
AcDbLine
 10
-291.4357473757522
 20
24.08927004931925
 30
0.0
 11
-302.7689861320866
 21
24.08927004931925
 31
0.0
  0
LINE
  5
99
330
1F
100
AcDbEntity
  8
0-1
  6
Continuous
 62
     4
370
     9
100
AcDbLine
 10
-306.7689745848949
 20
24.08927004931925
 30
0.0
 11
-318.1023370611408
 21
24.08927004931925
 31
0.0
  0
LINE
  5
9A
330
1F
100
AcDbEntity
  8
0-1
  6
JWW_CENTER1
 62
     4
370
     9
100
AcDbLine
 10
-304.7690422184465
 20
33.4776317997418
 30
0.0
 11
-304.7690422184465
 21
-112.2221115226822
 31
0.0
  0
LINE
  5
9B
330
1F
100
AcDbEntity
  8
0-5
  6
Continuous
 62
     2
370
     9
100
AcDbLine
 10
97.99382960112688
 20
-321.9887262819728
 30
0.0
 11
-374.7690257224582
 21
-321.9887262819728
 31
0.0
  0
LINE
  5
9C
330
1F
100
AcDbEntity
  8
0-5
  6
Continuous
 62
     2
370
     9
100
AcDbLine
 10
108.4041178190324
 20
-335.3220211246671
 30
0.0
 11
-431.2754970986197
 21
-335.3220211246671
 31
0.0
  0
LINE
  5
9D
330
1F
100
AcDbEntity
  8
0-4
  6
Continuous
 62
     7
370
     9
100
AcDbLine
 10
-461.4356896397936
 20
364.1992652984749
 30
0.0
 11
138.5643103602064
 21
364.1992652984749
 31
0.0
  0
LINE
  5
9E
330
1F
100
AcDbEntity
  8
0-4
  6
Continuous
 62
     7
370
     9
100
AcDbLine
 10
-461.4356896397936
 20
-24.13415326413073
 30
0.0
 11
-461.4356896397936
 21
367.1992257081033
 31
0.0
  0
LINE
  5
9F
330
1F
100
AcDbEntity
  8
0-4
  6
Continuous
 62
     7
370
     9
100
AcDbLine
 10
138.5643103602064
 20
-24.13415326413073
 30
0.0
 11
138.5643103602064
 21
367.1992257081033
 31
0.0
  0
LINE
  5
A0
330
1F
100
AcDbEntity
  8
0-4
  6
Continuous
 62
     7
370
     9
100
AcDbLine
 10
-461.4356896397936
 20
364.1992652984749
 30
0.0
 11
-436.649518886521
 21
367.4623779594754
 31
0.0
  0
LINE
  5
A1
330
1F
100
AcDbEntity
  8
0-4
  6
Continuous
 62
     7
370
     9
100
AcDbLine
 10
-461.4356896397936
 20
364.1992652984749
 30
0.0
 11
-436.649518886521
 21
360.9361526374741
 31
0.0
  0
LINE
  5
A2
330
1F
100
AcDbEntity
  8
0-4
  6
Continuous
 62
     7
370
     9
100
AcDbLine
 10
138.5643103602064
 20
364.1992652984749
 30
0.0
 11
113.7782633268449
 21
367.4623779594754
 31
0.0
  0
LINE
  5
A3
330
1F
100
AcDbEntity
  8
0-4
  6
Continuous
 62
     7
370
     9
100
AcDbLine
 10
138.5643103602064
 20
364.1992652984749
 30
0.0
 11
113.7782633268449
 21
360.9361526374741
 31
0.0
  0
LINE
  5
A4
330
1F
100
AcDbEntity
  8
0-4
  6
Continuous
 62
     7
370
     9
100
AcDbLine
 10
-494.7690504664405
 20
444.1992817944629
 30
0.0
 11
171.8976711868532
 21
444.1992817944629
 31
0.0
  0
LINE
  5
A5
330
1F
100
AcDbEntity
  8
0-4
  6
Continuous
 62
     7
370
     9
100
AcDbLine
 10
-494.7690504664405
 20
-43.65542319128437
 30
0.0
 11
-494.7690504664405
 21
447.1992422040915
 31
0.0
  0
LINE
  5
A6
330
1F
100
AcDbEntity
  8
0-4
  6
Continuous
 62
     7
370
     9
100
AcDbLine
 10
171.8976711868532
 20
-43.65542319128437
 30
0.0
 11
171.8976711868532
 21
447.1992422040915
 31
0.0
  0
LINE
  5
A7
330
1F
100
AcDbEntity
  8
0-4
  6
Continuous
 62
     7
370
     9
100
AcDbLine
 10
-494.7690504664405
 20
444.1992817944629
 30
0.0
 11
-469.9828797131678
 21
447.4623944554639
 31
0.0
  0
LINE
  5
A8
330
1F
100
AcDbEntity
  8
0-4
  6
Continuous
 62
     7
370
     9
100
AcDbLine
 10
-494.7690504664405
 20
444.1992817944629
 30
0.0
 11
-469.9828797131678
 21
440.9361691334624
 31
0.0
  0
LINE
  5
A9
330
1F
100
AcDbEntity
  8
0-4
  6
Continuous
 62
     7
370
     9
100
AcDbLine
 10
171.8976711868532
 20
444.1992817944629
 30
0.0
 11
147.1116241534918
 21
447.4623944554639
 31
0.0
  0
LINE
  5
AA
330
1F
100
AcDbEntity
  8
0-4
  6
Continuous
 62
     7
370
     9
100
AcDbLine
 10
171.8976711868532
 20
444.1992817944629
 30
0.0
 11
147.1116241534918
 21
440.9361691334624
 31
0.0
  0
LINE
  5
AB
330
1F
100
AcDbEntity
  8
0-4
  6
Continuous
 62
     7
370
     9
100
AcDbLine
 10
271.897753666794
 20
-241.9887097859845
 30
0.0
 11
271.897753666794
 21
-41.98879226592553
 31
0.0
  0
LINE
  5
AC
330
1F
100
AcDbEntity
  8
0-4
  6
Continuous
 62
     7
370
     9
100
AcDbLine
 10
193.5644918160764
 20
-41.98879226592553
 30
0.0
 11
274.8977140764225
 21
-41.98879226592553
 31
0.0
  0
LINE
  5
AD
330
1F
100
AcDbEntity
  8
0-4
  6
Continuous
 62
     7
370
     9
100
AcDbLine
 10
271.897753666794
 20
-241.9887097859845
 30
0.0
 11
268.634517285882
 21
-217.2025390327119
 31
0.0
  0
LINE
  5
AE
330
1F
100
AcDbEntity
  8
0-4
  6
Continuous
 62
     7
370
     9
100
AcDbLine
 10
271.897753666794
 20
-241.9887097859845
 30
0.0
 11
275.1609900477064
 21
-217.2025390327119
 31
0.0
  0
LINE
  5
AF
330
1F
100
AcDbEntity
  8
0-4
  6
Continuous
 62
     7
370
     9
100
AcDbLine
 10
271.897753666794
 20
-41.98879226592553
 30
0.0
 11
268.634517285882
 21
-66.77496301919831
 31
0.0
  0
LINE
  5
B0
330
1F
100
AcDbEntity
  8
0-4
  6
Continuous
 62
     7
370
     9
100
AcDbLine
 10
271.897753666794
 20
-41.98879226592553
 30
0.0
 11
275.1609900477064
 21
-66.77496301919831
 31
0.0
  0
LINE
  5
B1
330
1F
100
AcDbEntity
  8
0-4
  6
Continuous
 62
     7
370
     9
100
AcDbLine
 10
351.8977701627824
 20
-308.6554314392785
 30
0.0
 11
351.8977701627824
 21
-41.98879226592553
 31
0.0
  0
LINE
  5
B2
330
1F
100
AcDbEntity
  8
0-4
  6
Continuous
 62
     7
370
     9
100
AcDbLine
 10
196.8977536667941
 20
-308.6554314392785
 30
0.0
 11
354.8977305724106
 21
-308.6554314392785
 31
0.0
  0
LINE
  5
B3
330
1F
100
AcDbEntity
  8
0-4
  6
Continuous
 62
     7
370
     9
100
AcDbLine
 10
193.5644918160764
 20
-41.98879226592553
 30
0.0
 11
354.8977305724106
 21
-41.98879226592553
 31
0.0
  0
LINE
  5
B4
330
1F
100
AcDbEntity
  8
0-4
  6
Continuous
 62
     7
370
     9
100
AcDbLine
 10
351.8977701627824
 20
-308.6554314392785
 30
0.0
 11
348.63453378187
 21
-283.8692606860058
 31
0.0
  0
LINE
  5
B5
330
1F
100
AcDbEntity
  8
0-4
  6
Continuous
 62
     7
370
     9
100
AcDbLine
 10
351.8977701627824
 20
-308.6554314392785
 30
0.0
 11
355.1610065436945
 21
-283.8692606860058
 31
0.0
  0
LINE
  5
B6
330
1F
100
AcDbEntity
  8
0-4
  6
Continuous
 62
     7
370
     9
100
AcDbLine
 10
351.8977701627824
 20
-41.98879226592553
 30
0.0
 11
348.63453378187
 21
-66.77496301919831
 31
0.0
  0
LINE
  5
B7
330
1F
100
AcDbEntity
  8
0-4
  6
Continuous
 62
     7
370
     9
100
AcDbLine
 10
351.8977701627824
 20
-41.98879226592553
 30
0.0
 11
355.1610065436945
 21
-66.77496301919831
 31
0.0
  0
LINE
  5
B8
330
1F
100
AcDbEntity
  8
0-4
  6
Continuous
 62
     7
370
     9
100
AcDbLine
 10
351.8977701627824
 20
-41.98879226592553
 30
0.0
 11
351.8977701627824
 21
184.1992900424572
 31
0.0
  0
LINE
  5
B9
330
1F
100
AcDbEntity
  8
0-4
  6
Continuous
 62
     7
370
     9
100
AcDbLine
 10
351.8977701627824
 20
-41.98879226592553
 30
0.0
 11
348.63453378187
 21
-17.20262151265274
 31
0.0
  0
LINE
  5
BA
330
1F
100
AcDbEntity
  8
0-4
  6
Continuous
 62
     7
370
     9
100
AcDbLine
 10
351.8977701627824
 20
-41.98879226592553
 30
0.0
 11
355.1610065436945
 21
-17.20262151265274
 31
0.0
  0
LINE
  5
BB
330
1F
100
AcDbEntity
  8
0-4
  6
Continuous
 62
     7
370
     9
100
AcDbLine
 10
351.8977701627824
 20
184.1992900424572
 30
0.0
 11
348.63453378187
 21
159.4131192891845
 31
0.0
  0
LINE
  5
BC
330
1F
100
AcDbEntity
  8
0-4
  6
Continuous
 62
     7
370
     9
100
AcDbLine
 10
351.8977701627824
 20
184.1992900424572
 30
0.0
 11
355.1610065436945
 21
159.4131192891845
 31
0.0
  0
LINE
  5
BD
330
1F
100
AcDbEntity
  8
0-4
  6
Continuous
 62
     7
370
     9
100
AcDbLine
 10
-594.7690092264702
 20
-49.13398830424896
 30
0.0
 11
-594.7690092264702
 21
184.1992900424572
 31
0.0
  0
LINE
  5
BE
330
1F
100
AcDbEntity
  8
0-4
  6
Continuous
 62
     7
370
     9
100
AcDbLine
 10
-408.6536824739363
 20
-49.13398830424896
 30
0.0
 11
-597.7689696360985
 21
-49.13398830424896
 31
0.0
  0
LINE
  5
BF
330
1F
100
AcDbEntity
  8
0-4
  6
Continuous
 62
     7
370
     9
100
AcDbLine
 10
-594.7690092264702
 20
-49.13398830424896
 30
0.0
 11
-598.032121887471
 21
-24.34781755097617
 31
0.0
  0
LINE
  5
C0
330
1F
100
AcDbEntity
  8
0-4
  6
Continuous
 62
     7
370
     9
100
AcDbLine
 10
-594.7690092264702
 20
-49.13398830424896
 30
0.0
 11
-591.5058965654694
 21
-24.34781755097617
 31
0.0
  0
LINE
  5
C1
330
1F
100
AcDbEntity
  8
0-4
  6
Continuous
 62
     7
370
     9
100
AcDbLine
 10
-594.7690092264702
 20
184.1992900424572
 30
0.0
 11
-598.032121887471
 21
159.4131192891845
 31
0.0
  0
LINE
  5
C2
330
1F
100
AcDbEntity
  8
0-4
  6
Continuous
 62
     7
370
     9
100
AcDbLine
 10
-594.7690092264702
 20
184.1992900424572
 30
0.0
 11
-591.5058965654694
 21
159.4131192891845
 31
0.0
  0
LINE
  5
C3
330
1F
100
AcDbEntity
  8
0-4
  6
Continuous
 62
     7
370
     9
100
AcDbLine
 10
-494.7689267465293
 20
-595.3221365965842
 30
0.0
 11
171.8976711868532
 21
-595.3221365965842
 31
0.0
  0
LINE
  5
C4
330
1F
100
AcDbEntity
  8
0-4
  6
Continuous
 62
     7
370
     9
100
AcDbLine
 10
-494.7689267465293
 20
-333.6556376391308
 30
0.0
 11
-494.7689267465293
 21
-598.3220970062126
 31
0.0
  0
LINE
  5
C5
330
1F
100
AcDbEntity
  8
0-4
  6
Continuous
 62
     7
370
     9
100
AcDbLine
 10
171.8976711868532
 20
-333.6553901993082
 30
0.0
 11
171.8976711868532
 21
-598.3220970062126
 31
0.0
  0
LINE
  5
C6
330
1F
100
AcDbEntity
  8
0-4
  6
Continuous
 62
     7
370
     9
100
AcDbLine
 10
-494.7689267465293
 20
-595.3221365965842
 30
0.0
 11
-469.9827559932564
 21
-592.0589002156721
 31
0.0
  0
LINE
  5
C7
330
1F
100
AcDbEntity
  8
0-4
  6
Continuous
 62
     7
370
     9
100
AcDbLine
 10
-494.7689267465293
 20
-595.3221365965842
 30
0.0
 11
-469.9827559932564
 21
-598.585249257585
 31
0.0
  0
LINE
  5
C8
330
1F
100
AcDbEntity
  8
0-4
  6
Continuous
 62
     7
370
     9
100
AcDbLine
 10
171.8976711868532
 20
-595.3221365965842
 30
0.0
 11
147.1116241534918
 21
-592.0589002156721
 31
0.0
  0
LINE
  5
C9
330
1F
100
AcDbEntity
  8
0-4
  6
Continuous
 62
     7
370
     9
100
AcDbLine
 10
171.8976711868532
 20
-595.3221365965842
 30
0.0
 11
147.1116241534918
 21
-598.585249257585
 31
0.0
  0
LINE
  5
CA
330
1F
100
AcDbEntity
  8
0-E
  6
Continuous
 62
     7
370
     9
100
AcDbLine
 10
167.1604357825038
 20
-321.319154121922
 30
0.0
 11
182.3794695135003
 21
-341.1529405450639
 31
0.0
  0
LINE
  5
CB
330
1F
100
AcDbEntity
  8
0-E
  6
Continuous
 62
     7
370
     9
100
AcDbLine
 10
167.1604357825038
 20
-321.319154121922
 30
0.0
 11
176.7274490848686
 21
-344.416053206065
 31
0.0
  0
LINE
  5
CC
330
1F
100
AcDbEntity
  8
0-E
  6
Continuous
 62
     7
370
     9
100
AcDbLine
 10
-491.4356648958113
 20
-71.98876752194323
 30
0.0
 11
-501.0028019180876
 21
-95.08579032599741
 31
0.0
  0
LINE
  5
CD
330
1F
100
AcDbEntity
  8
0-E
  6
Continuous
 62
     7
370
     9
100
AcDbLine
 10
-491.4356648958113
 20
-71.98876752194323
 30
0.0
 11
-506.6546986268079
 21
-91.82255394508502
 31
0.0
  0
LINE
  5
CE
330
1F
100
AcDbEntity
  8
0-E
  6
Continuous
 62
     7
370
     9
100
AcDbLine
 10
167.1604357825038
 20
-321.319154121922
 30
0.0
 11
232.9801709229175
 21
-435.3221036046078
 31
0.0
  0
LINE
  5
CF
330
1F
100
AcDbEntity
  8
0-E
  6
Continuous
 62
     7
370
     9
100
AcDbLine
 10
-491.4356648958113
 20
-71.98876752194323
 30
0.0
 11
-549.1706749913561
 21
-171.9887262819728
 31
0.0
  0
LINE
  5
D0
330
1F
100
AcDbEntity
  8
0-E
  6
Continuous
 62
     7
370
     9
100
AcDbLine
 10
232.9801709229175
 20
-435.3221036046078
 30
0.0
 11
616.793977405181
 21
-435.3221036046078
 31
0.0
  0
LINE
  5
D1
330
1F
100
AcDbEntity
  8
0-E
  6
Continuous
 62
     7
370
     9
100
AcDbLine
 10
-835.8242658380624
 20
-171.9887262819728
 30
0.0
 11
-549.1706749913561
 21
-171.9887262819728
 31
0.0
  0
LINE
  5
D2
330
1F
100
AcDbEntity
  8
0-E
  6
Continuous
 62
     7
370
     9
100
AcDbLine
 10
-399.1806963041728
 20
-375.3221530925724
 30
0.0
 11
-408.7478333264491
 21
-398.4191140366709
 31
0.0
  0
LINE
  5
D3
330
1F
100
AcDbEntity
  8
0-E
  6
Continuous
 62
     7
370
     9
100
AcDbLine
 10
-399.1806963041728
 20
-375.3221530925724
 30
0.0
 11
-414.3997300351694
 21
-395.1560013756699
 31
0.0
  0
LINE
  5
D4
330
1F
100
AcDbEntity
  8
0-E
  6
Continuous
 62
     7
370
     9
100
AcDbLine
 10
-399.1806963041728
 20
-375.3221530925724
 30
0.0
 11
-526.1977432583535
 21
-595.3221365965842
 31
0.0
  0
LINE
  5
D5
330
1F
100
AcDbEntity
  8
0-E
  6
Continuous
 62
     7
370
     9
100
AcDbLine
 10
-526.1977432583535
 20
-595.3221365965842
 30
0.0
 11
-855.2335692454735
 21
-595.3221365965842
 31
0.0
  0
LINE
  5
D6
330
1F
100
AcDbEntity
  8
0-0
  6
Continuous
 62
     3
370
     9
100
AcDbLine
 10
-494.7690504664405
 20
-68.6555056712254
 30
0.0
 11
-491.4357886157228
 21
-41.98879226592553
 31
0.0
  0
LINE
  5
D7
330
1F
100
AcDbEntity
  8
0-0
  6
Continuous
 62
     3
370
     9
100
AcDbLine
 10
-494.7690504664405
 20
-68.6555056712254
 30
0.0
 11
-484.7690174744642
 21
-68.6555056712254
 31
0.0
  0
LINE
  5
D8
330
1F
100
AcDbEntity
  8
0-0
  6
Continuous
 62
     3
370
     9
100
AcDbLine
 10
-404.7200078935944
 20
-74.68400578999635
 30
0.0
 11
-388.1514373699457
 21
-79.12332364789336
 31
0.0
  0
LINE
  5
D9
330
1F
100
AcDbEntity
  8
0-0
  6
Continuous
 62
     3
370
     9
100
AcDbLine
 10
-438.9241094560944
 20
-55.1662000203595
 30
0.0
 11
-429.2650485397093
 21
-57.75429684521185
 31
0.0
  0
LINE
  5
DA
330
1F
100
AcDbEntity
  8
0-0
  6
Continuous
 62
     3
370
     9
100
AcDbLine
 10
-411.9363428809254
 20
-62.39762883687135
 30
0.0
 11
-419.6054927436788
 21
-60.3425173899754
 31
0.0
  0
LINE
  5
DB
330
1F
100
AcDbEntity
  8
0-0
  6
Continuous
 62
     3
370
     9
100
AcDbLine
 10
-409.5332073234928
 20
-64.94898084806238
 30
0.0
 11
-408.3242163500978
 21
-70.85660661347603
 31
0.0
  0
LINE
  5
DC
330
1F
100
AcDbEntity
  8
0-0
  6
Continuous
 62
     3
370
     9
100
AcDbLine
 10
-379.1156773667785
 20
-73.09927744592969
 30
0.0
 11
-383.116531858966
 21
-77.61109517185886
 31
0.0
  0
LINE
  5
DD
330
1F
100
AcDbEntity
  8
0-0
  6
Continuous
 62
     3
370
     9
100
AcDbLine
 10
-488.1022793251822
 20
-41.98879226592553
 30
0.0
 11
-448.5836652521246
 21
-52.57773203577344
 31
0.0
  0
LINE
  5
DE
330
1F
100
AcDbEntity
  8
0-0
  6
Continuous
 62
     3
370
     9
100
AcDbLine
 10
-425.3366939155538
 20
-72.61046007631407
 30
0.0
 11
-455.9625682029272
 21
-64.40436579844231
 31
0.0
  0
LINE
  5
DF
330
1F
100
AcDbEntity
  8
0-0
  6
JWW_DASHED1
 62
     3
370
     9
100
AcDbLine
 10
-378.6071885312631
 20
-92.62277433148711
 30
0.0
 11
-375.9736864989574
 21
-89.65263042048633
 31
0.0
  0
LINE
  5
E0
330
1F
100
AcDbEntity
  8
0-0
  6
Continuous
 62
     3
370
     9
100
AcDbLine
 10
-419.7346563310944
 20
-81.60291811052019
 30
0.0
 11
-420.5309176803343
 21
-77.71328781860717
 31
0.0
  0
LINE
  5
E1
330
1F
100
AcDbEntity
  8
0-0
  6
Continuous
 62
     3
370
     9
100
AcDbLine
 10
-368.0895114303343
 20
-74.14619533549896
 30
0.0
 11
-375.7586612930876
 21
-72.09133132842553
 31
0.0
  0
LINE
  5
E2
330
1F
100
AcDbEntity
  8
0-0
  6
Continuous
 62
     3
370
     9
100
AcDbLine
 10
-284.3086144444811
 20
-91.47861259162241
 30
0.0
 11
-278.1025762529694
 21
-151.9887840179314
 31
0.0
  0
LINE
  5
E3
330
1F
100
AcDbEntity
  8
0-0
  6
Continuous
 62
     3
370
     9
100
AcDbLine
 10
-339.045025049422
 20
-175.3221118526019
 30
0.0
 11
-351.4358216076991
 21
-175.3221118526019
 31
0.0
  0
LINE
  5
E4
330
1F
100
AcDbEntity
  8
0-0
  6
Continuous
 62
     3
370
     9
100
AcDbLine
 10
-355.7969484816434
 20
-146.2470666535944
 30
0.0
 11
-351.4358216076991
 21
-175.3221118526019
 31
0.0
  0
LINE
  5
E5
330
1F
100
AcDbEntity
  8
0-0
  6
JWW_DASHED1
 62
     3
370
     9
100
AcDbLine
 10
-359.772564111922
 20
-90.17844004358594
 30
0.0
 11
-369.260149231221
 21
-87.63624330583269
 31
0.0
  0
LINE
  5
E6
330
1F
100
AcDbEntity
  8
0-0
  6
Continuous
 62
     3
370
     9
100
AcDbLine
 10
-414.7009880192277
 20
-85.8131066926569
 30
0.0
 11
-416.130447874591
 21
-85.43019356712904
 31
0.0
  0
LINE
  5
E7
330
1F
100
AcDbEntity
  8
0-0
  6
JWW_DASHED1
 62
     3
370
     9
100
AcDbLine
 10
-414.7009880192277
 20
-85.8131066926569
 30
0.0
 11
-383.6425889218881
 21
-94.13512652743321
 31
0.0
  0
LINE
  5
E8
330
1F
100
AcDbEntity
  8
0-0
  6
Continuous
 62
     3
370
     9
100
AcDbLine
 10
-338.9529774354017
 20
-81.95316917946002
 30
0.0
 11
-358.4302030741264
 21
-76.73441588026236
 31
0.0
  0
LINE
  5
E9
330
1F
100
AcDbEntity
  8
0-0
  6
JWW_DASHED1
 62
     3
370
     9
100
AcDbLine
 10
-298.9461645922853
 20
-131.7141835507651
 30
0.0
 11
-319.0447116256468
 21
-129.5164230461197
 31
0.0
  0
LINE
  5
EA
330
1F
100
AcDbEntity
  8
0-0
  6
JWW_DASHED1
 62
     3
370
     9
100
AcDbLine
 10
-296.0206835692699
 20
-134.4798184483578
 30
0.0
 11
-293.1023783011113
 21
-151.9887840179314
 31
0.0
  0
LINE
  5
EB
330
1F
100
AcDbEntity
  8
0-0
  6
JWW_DASHED1
 62
     3
370
     9
100
AcDbLine
 10
-360.7415384573613
 20
-141.9888747458663
 30
0.0
 11
-351.5338077774626
 21
-141.9888747458663
 31
0.0
  0
LINE
  5
EC
330
1F
100
AcDbEntity
  8
0-0
  6
JWW_DASHED1
 62
     3
370
     9
100
AcDbLine
 10
-352.4354784911449
 20
-98.6188598334931
 30
0.0
 11
-343.0174239620064
 21
-175.3221118526019
 31
0.0
  0
LINE
  5
ED
330
1F
100
AcDbEntity
  8
0-0
  6
JWW_DASHED1
 62
     3
370
     9
100
AcDbLine
 10
-327.8830146503512
 20
-120.7944167380538
 30
0.0
 11
-331.6158918146246
 21
-90.39383640918999
 31
0.0
  0
LINE
  5
EE
330
1F
100
AcDbEntity
  8
0-0
  6
Continuous
 62
     3
370
     9
100
AcDbLine
 10
-334.0823719666517
 20
-179.7128077853512
 30
0.0
 11
-326.4357391277582
 21
-241.9887097859845
 31
0.0
  0
LINE
  5
EF
330
1F
100
AcDbEntity
  8
0-0
  6
Continuous
 62
     3
370
     9
100
AcDbLine
 10
-311.4356896397936
 20
-158.6554314392785
 30
0.0
 11
-311.4356896397936
 21
-191.9887922659254
 31
0.0
  0
LINE
  5
F0
330
1F
100
AcDbEntity
  8
0-0
  6
Continuous
 62
     3
370
     9
100
AcDbLine
 10
-293.596268187091
 20
-158.6554314392785
 30
0.0
 11
-293.1023783011113
 21
-151.9887840179314
 31
0.0
  0
LINE
  5
F1
330
1F
100
AcDbEntity
  8
0-0
  6
Continuous
 62
     3
370
     9
100
AcDbLine
 10
-307.9091772875978
 20
-241.9887097859845
 30
0.0
 11
-304.784012327716
 21
-191.9887922659254
 31
0.0
  0
LINE
  5
F2
330
1F
100
AcDbEntity
  8
0-0
  6
Continuous
 62
     3
370
     9
100
AcDbLine
 10
171.8976711868532
 20
-68.6555056712254
 30
0.0
 11
168.5644093361356
 21
-41.98879226592553
 31
0.0
  0
LINE
  5
F3
330
1F
100
AcDbEntity
  8
0-0
  6
Continuous
 62
     3
370
     9
100
AcDbLine
 10
171.8976711868532
 20
-68.6555056712254
 30
0.0
 11
161.8976381948769
 21
-68.6555056712254
 31
0.0
  0
LINE
  5
F4
330
1F
100
AcDbEntity
  8
0-0
  6
Continuous
 62
     3
370
     9
100
AcDbLine
 10
116.0527301765071
 20
-55.1662000203595
 30
0.0
 11
106.393669260122
 21
-57.75429684521185
 31
0.0
  0
LINE
  5
F5
330
1F
100
AcDbEntity
  8
0-0
  6
Continuous
 62
     3
370
     9
100
AcDbLine
 10
165.2309000455949
 20
-41.98879226592553
 30
0.0
 11
125.7122859725373
 21
-52.57773203577344
 31
0.0
  0
LINE
  5
F6
330
1F
100
AcDbEntity
  8
0-0
  6
Continuous
 62
     3
370
     9
100
AcDbLine
 10
102.4653146359665
 20
-72.61046007631407
 30
0.0
 11
133.0911889233397
 21
-64.40436579844231
 31
0.0
  0
LINE
  5
F7
330
1F
100
AcDbEntity
  8
0-0
  6
Continuous
 62
     3
370
     9
100
AcDbLine
 10
55.73580925167583
 20
-92.62277433148711
 30
0.0
 11
53.1023072193701
 21
-89.65263042048633
 31
0.0
  0
LINE
  5
F8
330
1F
100
AcDbEntity
  8
0-0
  6
Continuous
 62
     3
370
     9
100
AcDbLine
 10
96.8632770515071
 20
-81.60291811052019
 30
0.0
 11
97.65953840074701
 21
-77.71328781860717
 31
0.0
  0
LINE
  5
F9
330
1F
100
AcDbEntity
  8
0-0
  6
JWW_PHANTOM1
 62
     3
370
     9
100
AcDbLine
 10
32.92556920205612
 20
-146.2470666535944
 30
0.0
 11
28.56444232811185
 21
-175.3221118526019
 31
0.0
  0
LINE
  5
FA
330
1F
100
AcDbEntity
  8
0-0
  6
Continuous
 62
     3
370
     9
100
AcDbLine
 10
36.90118483233469
 20
-90.17844004358594
 30
0.0
 11
46.38876995163365
 21
-87.63624330583269
 31
0.0
  0
LINE
  5
FB
330
1F
100
AcDbEntity
  8
0-0
  6
Continuous
 62
     3
370
     9
100
AcDbLine
 10
91.82960873964042
 20
-85.8131066926569
 30
0.0
 11
93.25906859500378
 21
-85.43019356712904
 31
0.0
  0
LINE
  5
FC
330
1F
100
AcDbEntity
  8
0-0
  6
JWW_PHANTOM1
 62
     3
370
     9
100
AcDbLine
 10
88.15982873013887
 20
-90.04432765971771
 30
0.0
 11
82.42813267861855
 21
-137.5871677410099
 31
0.0
  0
LINE
  5
FD
330
1F
100
AcDbEntity
  8
0-0
  6
Continuous
 62
     3
370
     9
100
AcDbLine
 10
91.82960873964042
 20
-85.8131066926569
 30
0.0
 11
60.77120964230083
 21
-94.13512652743321
 31
0.0
  0
LINE
  5
FE
330
1F
100
AcDbEntity
  8
0-0
  6
JWW_PHANTOM1
 62
     3
370
     9
100
AcDbLine
 10
77.46424239673502
 20
-141.9888747458663
 30
0.0
 11
37.87015917777374
 21
-141.9888747458663
 31
0.0
  0
LINE
  5
FF
330
1F
100
AcDbEntity
  8
0-0
  6
Continuous
 62
     3
370
     9
100
AcDbLine
 10
29.56409921155768
 20
-98.6188598334931
 30
0.0
 11
20.14604468241913
 21
-175.3221118526019
 31
0.0
  0
LINE
  5
100
330
1F
100
AcDbEntity
  8
0-0
  6
Continuous
 62
     3
370
     9
100
AcDbLine
 10
-11.43568963979362
 20
-158.6554314392785
 30
0.0
 11
-11.43568963979362
 21
-191.9887922659254
 31
0.0
  0
LINE
  5
101
330
1F
100
AcDbEntity
  8
0-0
  6
Continuous
 62
     3
370
     9
100
AcDbLine
 10
-29.27511109249622
 20
-158.6554314392785
 30
0.0
 11
-29.76900097847619
 21
-151.9887840179314
 31
0.0
  0
LINE
  5
102
330
1F
100
AcDbEntity
  8
0-0
  6
Continuous
 62
     3
370
     9
100
AcDbLine
 10
-14.96220199198945
 20
-241.9887097859845
 30
0.0
 11
-18.08736695187122
 21
-191.9887922659254
 31
0.0
  0
LINE
  5
103
330
1F
100
AcDbEntity
  8
0-0
  6
Continuous
 62
     3
370
     9
100
AcDbLine
 10
-293.1023783011113
 20
-151.9887840179314
 30
0.0
 11
-29.76900097847619
 21
-151.9887840179314
 31
0.0
  0
LINE
  5
104
330
1F
100
AcDbEntity
  8
0-0
  6
Continuous
 62
     3
370
     9
100
AcDbLine
 10
16.17364576983476
 20
-175.3221118526019
 30
0.0
 11
20.14604468241913
 21
-175.3221118526019
 31
0.0
  0
LINE
  5
105
330
1F
100
AcDbEntity
  8
0-0
  6
JWW_PHANTOM1
 62
     3
370
     9
100
AcDbLine
 10
20.14604468241913
 20
-175.3221118526019
 30
0.0
 11
28.56444232811185
 21
-175.3221118526019
 31
0.0
  0
LINE
  5
106
330
1F
100
AcDbEntity
  8
0-0
  6
Continuous
 62
     3
370
     9
100
AcDbLine
 10
-326.4357391277582
 20
-241.9887097859845
 30
0.0
 11
3.564359848170966
 21
-241.9887097859845
 31
0.0
  0
LINE
  5
107
330
1F
100
AcDbEntity
  8
0-0
  6
Continuous
 62
     3
370
     9
100
AcDbLine
 10
11.21099268706445
 20
-179.7128077853512
 30
0.0
 11
3.564359848170966
 21
-241.9887097859845
 31
0.0
  0
LINE
  5
108
330
1F
100
AcDbEntity
  8
0-0
  6
Continuous
 62
     3
370
     9
100
AcDbLine
 10
89.06471616151542
 20
-62.39762883687135
 30
0.0
 11
96.73411346409146
 21
-60.3425173899754
 31
0.0
  0
LINE
  5
109
330
1F
100
AcDbEntity
  8
0-0
  6
Continuous
 62
     3
370
     9
100
AcDbLine
 10
86.66182804390552
 20
-64.94898084806238
 30
0.0
 11
85.45283707051055
 21
-70.85660661347603
 31
0.0
  0
LINE
  5
10A
330
1F
100
AcDbEntity
  8
0-0
  6
Continuous
 62
     3
370
     9
100
AcDbLine
 10
81.8486286140071
 20
-74.68400578999635
 30
0.0
 11
65.28005809035847
 21
-79.12332364789336
 31
0.0
  0
LINE
  5
10B
330
1F
100
AcDbEntity
  8
0-0
  6
Continuous
 62
     3
370
     9
100
AcDbLine
 10
45.21813215074701
 20
-74.14619533549896
 30
0.0
 11
52.88728201350033
 21
-72.09133132842553
 31
0.0
  0
LINE
  5
10C
330
1F
100
AcDbEntity
  8
0-0
  6
Continuous
 62
     3
370
     9
100
AcDbLine
 10
56.24429808719128
 20
-73.09927744592969
 30
0.0
 11
60.24490513955605
 21
-77.61097145194739
 31
0.0
  0
LINE
  5
10D
330
1F
100
AcDbEntity
  8
0-0
  6
Continuous
 62
     3
370
     9
100
AcDbLine
 10
16.08159815581445
 20
-81.95316917946002
 30
0.0
 11
35.55882379453919
 21
-76.73441588026236
 31
0.0
  0
LINE
  5
10E
330
1F
100
AcDbEntity
  8
0-0
  6
Continuous
 62
     3
370
     9
100
AcDbLine
 10
5.011635370763941
 20
-120.7944167380538
 30
0.0
 11
8.744512535037359
 21
-90.39371268927866
 31
0.0
  0
LINE
  5
10F
330
1F
100
AcDbEntity
  8
0-0
  6
Continuous
 62
     3
370
     9
100
AcDbLine
 10
-23.92496724747957
 20
-131.7141835507651
 30
0.0
 11
-3.82666765394049
 21
-129.5164230461197
 31
0.0
  0
LINE
  5
110
330
1F
100
AcDbEntity
  8
0-0
  6
Continuous
 62
     3
370
     9
100
AcDbLine
 10
-26.85069571031732
 20
-134.4798184483578
 30
0.0
 11
-29.76900097847619
 21
-151.9887840179314
 31
0.0
  0
LINE
  5
111
330
1F
100
AcDbEntity
  8
0-0
  6
Continuous
 62
     3
370
     9
100
AcDbLine
 10
-311.4356896397936
 20
-158.6554314392785
 30
0.0
 11
-11.43568963979362
 21
-158.6554314392785
 31
0.0
  0
LINE
  5
112
330
1F
100
AcDbEntity
  8
0-0
  6
Continuous
 62
     3
370
     9
100
AcDbLine
 10
-11.43568963979362
 20
-191.9887922659254
 30
0.0
 11
-311.4356896397936
 21
-191.9887922659254
 31
0.0
  0
LINE
  5
113
330
1F
100
AcDbEntity
  8
0-0
  6
Continuous
 62
     3
370
     9
100
AcDbLine
 10
-302.6504624570444
 20
-236.7301186753427
 30
0.0
 11
-299.8540213015335
 21
-191.9887922659254
 31
0.0
  0
LINE
  5
114
330
1F
100
AcDbEntity
  8
0-0
  6
Continuous
 62
     3
370
     9
100
AcDbLine
 10
-307.9091772875978
 20
-241.9887097859845
 30
0.0
 11
-302.6504624570444
 21
-236.7301186753427
 31
0.0
  0
LINE
  5
115
330
1F
100
AcDbEntity
  8
0-0
  6
Continuous
 62
     3
370
     9
100
AcDbLine
 10
-14.96220199198945
 20
-241.9887097859845
 30
0.0
 11
-20.22079310263138
 21
-236.7301186753427
 31
0.0
  0
LINE
  5
116
330
1F
100
AcDbEntity
  8
0-0
  6
Continuous
 62
     3
370
     9
100
AcDbLine
 10
-20.22079310263138
 20
-236.7301186753427
 30
0.0
 11
-23.01735797805378
 21
-191.9887922659254
 31
0.0
  0
LINE
  5
117
330
1F
100
AcDbEntity
  8
0-0
  6
Continuous
 62
     3
370
     9
100
AcDbLine
 10
-302.6504624570444
 20
-236.7301186753427
 30
0.0
 11
-20.22079310263138
 21
-236.7301186753427
 31
0.0
  0
LINE
  5
118
330
1F
100
AcDbEntity
  8
0-0
  6
Continuous
 62
     3
370
     9
100
AcDbLine
 10
-405.2996356781171
 20
-137.5874151808327
 30
0.0
 11
-411.0312080097262
 21
-90.04432765971771
 31
0.0
  0
LINE
  5
119
330
1F
100
AcDbEntity
  8
0-0
  6
Continuous
 62
     3
370
     9
100
AcDbLine
 10
-289.2824023192699
 20
-86.98881700990782
 30
0.0
 11
-291.4357473757522
 21
-86.98881700990782
 31
0.0
  0
LINE
  5
11A
330
1F
100
AcDbEntity
  8
0-0
  6
Continuous
 62
     3
370
     9
100
AcDbLine
 10
-318.1023370611408
 20
-86.98881700990782
 30
0.0
 11
-332.674439375858
 21
-86.98881700990782
 31
0.0
  0
LINE
  5
11B
330
1F
100
AcDbEntity
  8
0-0
  6
Continuous
 62
     3
370
     9
100
AcDbLine
 10
-491.4357886157228
 20
-41.98879226592553
 30
0.0
 11
-408.6488573973949
 21
-41.98879226592553
 31
0.0
  0
LINE
  5
11C
330
1F
100
AcDbEntity
  8
0-0
  6
Continuous
 62
     3
370
     9
100
AcDbLine
 10
85.77772555763033
 20
-41.98879226592553
 30
0.0
 11
168.5644093361356
 21
-41.98879226592553
 31
0.0
  0
LINE
  5
11D
330
1F
100
AcDbEntity
  8
0-0
  6
Continuous
 62
     4
370
     9
100
AcDbLine
 10
-399.1808200240843
 20
-108.6555139192194
 30
0.0
 11
-377.0240685460436
 21
-108.6555139192194
 31
0.0
  0
LINE
  5
11E
330
1F
100
AcDbEntity
  8
0-0
  6
Continuous
 62
     4
370
     9
100
AcDbLine
 10
-401.4357391277582
 20
-110.9104330228934
 30
0.0
 11
-374.7691494423697
 21
-110.9104330228934
 31
0.0
  0
LINE
  5
11F
330
1F
100
AcDbEntity
  8
0-0
  6
Continuous
 62
     4
370
     9
100
AcDbLine
 10
-377.0240685460436
 20
-108.6555139192194
 30
0.0
 11
-374.7691494423697
 21
-110.9104330228934
 31
0.0
  0
LINE
  5
120
330
1F
100
AcDbEntity
  8
0-0
  6
Continuous
 62
     4
370
     9
100
AcDbLine
 10
-399.1808200240843
 20
-108.6555139192194
 30
0.0
 11
-401.4357391277582
 21
-110.9104330228934
 31
0.0
  0
LINE
  5
121
330
1F
100
AcDbEntity
  8
0-0
  6
Continuous
 62
     4
370
     9
100
AcDbLine
 10
-377.0240685460436
 20
-375.3221530925724
 30
0.0
 11
-374.7691494423697
 21
-373.0672339888985
 31
0.0
  0
LINE
  5
122
330
1F
100
AcDbEntity
  8
0-0
  6
Continuous
 62
     4
370
     9
100
AcDbLine
 10
-399.1808200240843
 20
-375.3221530925724
 30
0.0
 11
-401.4357391277582
 21
-373.0672339888985
 31
0.0
  0
LINE
  5
123
330
1F
100
AcDbEntity
  8
0-0
  6
Continuous
 62
     4
370
     9
100
AcDbLine
 10
-363.1023618051231
 20
-354.5832317982311
 30
0.0
 11
-363.1023618051231
 21
-335.3220211246671
 31
0.0
  0
LINE
  5
124
330
1F
100
AcDbEntity
  8
0-0
  6
Continuous
 62
     4
370
     9
100
AcDbLine
 10
-413.1025267650048
 20
-354.5832317982311
 30
0.0
 11
-413.1025267650048
 21
-335.3220211246671
 31
0.0
  0
LINE
  5
125
330
1F
100
AcDbEntity
  8
0-0
  6
Continuous
 62
     4
370
     9
100
AcDbLine
 10
-375.6116820384423
 20
-354.5832317982311
 30
0.0
 11
-375.6116820384423
 21
-335.3220211246671
 31
0.0
  0
LINE
  5
126
330
1F
100
AcDbEntity
  8
0-0
  6
Continuous
 62
     4
370
     9
100
AcDbLine
 10
-400.5934539715082
 20
-354.5832317982311
 30
0.0
 11
-400.5934539715082
 21
-335.3220211246671
 31
0.0
  0
LINE
  5
127
330
1F
100
AcDbEntity
  8
0-0
  6
Continuous
 62
     4
370
     9
100
AcDbLine
 10
-369.3571456416939
 20
-356.98884175389
 30
0.0
 11
-406.848237808079
 21
-356.98884175389
 31
0.0
  0
LINE
  5
128
330
1F
100
AcDbEntity
  8
0-0
  6
Continuous
 62
     4
370
     9
100
AcDbLine
 10
-374.7691494423697
 20
-373.0672339888985
 30
0.0
 11
-374.7691494423697
 21
-356.98884175389
 31
0.0
  0
LINE
  5
129
330
1F
100
AcDbEntity
  8
0-0
  6
Continuous
 62
     4
370
     9
100
AcDbLine
 10
-377.0240685460436
 20
-356.98884175389
 30
0.0
 11
-377.0240685460436
 21
-375.3221530925724
 31
0.0
  0
LINE
  5
12A
330
1F
100
AcDbEntity
  8
0-0
  6
Continuous
 62
     4
370
     9
100
AcDbLine
 10
-399.1808200240843
 20
-375.3221530925724
 30
0.0
 11
-399.1808200240843
 21
-356.98884175389
 31
0.0
  0
LINE
  5
12B
330
1F
100
AcDbEntity
  8
0-0
  6
Continuous
 62
     4
370
     9
100
AcDbLine
 10
-401.4357391277582
 20
-356.98884175389
 30
0.0
 11
-401.4357391277582
 21
-373.0672339888985
 31
0.0
  0
LINE
  5
12C
330
1F
100
AcDbEntity
  8
0-0
  6
Continuous
 62
     4
370
     9
100
AcDbLine
 10
-386.102388198704
 20
-368.6553819513139
 30
0.0
 11
-386.102388198704
 21
-375.3221530925724
 31
0.0
  0
LINE
  5
12D
330
1F
100
AcDbEntity
  8
0-0
  6
Continuous
 62
     4
370
     9
100
AcDbLine
 10
-386.102388198704
 20
-368.6553819513139
 30
0.0
 11
-390.1025003714238
 21
-368.6553819513139
 31
0.0
  0
LINE
  5
12E
330
1F
100
AcDbEntity
  8
0-0
  6
Continuous
 62
     4
370
     9
100
AcDbLine
 10
-390.1025003714238
 20
-368.6553819513139
 30
0.0
 11
-390.1025003714238
 21
-375.3221530925724
 31
0.0
  0
LINE
  5
12F
330
1F
100
AcDbEntity
  8
0-0
  6
Continuous
 62
     4
370
     9
100
AcDbLine
 10
-401.4357391277582
 20
-373.0672339888985
 30
0.0
 11
-390.1025003714238
 21
-373.0672339888985
 31
0.0
  0
LINE
  5
130
330
1F
100
AcDbEntity
  8
0-0
  6
Continuous
 62
     4
370
     9
100
AcDbLine
 10
-386.102388198704
 20
-373.0672339888985
 30
0.0
 11
-374.7691494423697
 21
-373.0672339888985
 31
0.0
  0
LINE
  5
131
330
1F
100
AcDbEntity
  8
0-0
  6
Continuous
 62
     4
370
     9
100
AcDbLine
 10
-399.1808200240843
 20
-375.3221530925724
 30
0.0
 11
-390.1025003714238
 21
-375.3221530925724
 31
0.0
  0
LINE
  5
132
330
1F
100
AcDbEntity
  8
0-0
  6
Continuous
 62
     4
370
     9
100
AcDbLine
 10
-386.102388198704
 20
-375.3221530925724
 30
0.0
 11
-377.0240685460436
 21
-375.3221530925724
 31
0.0
  0
LINE
  5
133
330
1F
100
AcDbEntity
  8
0-0
  6
JWW_CENTER1
 62
     4
370
     9
100
AcDbLine
 10
-388.1024442850639
 20
-384.4920254796078
 30
0.0
 11
-388.1024442850639
 21
-103.2676355012507
 31
0.0
  0
LINE
  5
134
330
1F
100
AcDbEntity
  8
0-0
  6
Continuous
 62
     7
370
     9
100
AcDbLine
 10
-411.4357721197345
 20
-229.3336474971332
 30
0.0
 11
-364.7691164503934
 21
-221.1049124754905
 31
0.0
  0
LINE
  5
135
330
1F
100
AcDbEntity
  8
0-0
  6
Continuous
 62
     7
370
     9
100
AcDbLine
 10
-411.4357721197345
 20
-242.8725648324374
 30
0.0
 11
-364.7691164503934
 21
-234.6439535307059
 31
0.0
  0
LINE
  5
136
330
1F
100
AcDbEntity
  8
0-0
  6
Continuous
 62
     4
370
     9
100
AcDbLine
 10
-401.4357391277582
 20
-110.9104330228934
 30
0.0
 11
-401.4357391277582
 21
-227.5703913210353
 31
0.0
  0
LINE
  5
137
330
1F
100
AcDbEntity
  8
0-0
  6
Continuous
 62
     4
370
     9
100
AcDbLine
 10
-401.4357391277582
 20
-241.1093086563395
 30
0.0
 11
-401.4357391277582
 21
-335.3220211246671
 31
0.0
  0
LINE
  5
138
330
1F
100
AcDbEntity
  8
0-0
  6
Continuous
 62
     4
370
     9
100
AcDbLine
 10
-374.7691494423697
 20
-110.9104330228934
 30
0.0
 11
-374.7691494423697
 21
-222.8681686515884
 31
0.0
  0
LINE
  5
139
330
1F
100
AcDbEntity
  8
0-0
  6
Continuous
 62
     4
370
     9
100
AcDbLine
 10
-374.7691494423697
 20
-236.4072097068038
 30
0.0
 11
-374.7691494423697
 21
-335.3220211246671
 31
0.0
  0
LINE
  5
13A
330
1F
100
AcDbEntity
  8
0-0
  6
Continuous
 62
     4
370
     9
100
AcDbLine
 10
-399.1808200240843
 20
-335.3220211246671
 30
0.0
 11
-399.1808200240843
 21
-240.7116728613646
 31
0.0
  0
LINE
  5
13B
330
1F
100
AcDbEntity
  8
0-0
  6
Continuous
 62
     4
370
     9
100
AcDbLine
 10
-399.1808200240843
 20
-227.1727555260605
 30
0.0
 11
-399.1808200240843
 21
-108.6555139192194
 31
0.0
  0
LINE
  5
13C
330
1F
100
AcDbEntity
  8
0-0
  6
Continuous
 62
     4
370
     9
100
AcDbLine
 10
-377.0240685460436
 20
-108.6555139192194
 30
0.0
 11
-377.0240685460436
 21
-223.2658044465632
 31
0.0
  0
LINE
  5
13D
330
1F
100
AcDbEntity
  8
0-0
  6
Continuous
 62
     4
370
     9
100
AcDbLine
 10
-377.0240685460436
 20
-236.8048455017785
 30
0.0
 11
-377.0240685460436
 21
-335.3220211246671
 31
0.0
  0
LINE
  5
13E
330
1F
100
AcDbEntity
  8
0-0
  6
Continuous
 62
     3
370
     9
100
AcDbLine
 10
-374.7691494423697
 20
-141.9888747458663
 30
0.0
 11
-360.7415384573613
 21
-141.9888747458663
 31
0.0
  0
LINE
  5
13F
330
1F
100
AcDbEntity
  8
0-4
  6
Continuous
 62
     7
370
     9
100
AcDbLine
 10
28.56444232811185
 20
-241.9887097859845
 30
0.0
 11
274.8977140764225
 21
-241.9887097859845
 31
0.0
  0
LINE
  5
140
330
1F
100
AcDbEntity
  8
0-4
  6
Continuous
 62
     7
370
     9
100
AcDbLine
 10
-302.6504624570444
 20
-435.3221036046078
 30
0.0
 11
-20.22079310263138
 21
-435.3221036046078
 31
0.0
  0
LINE
  5
141
330
1F
100
AcDbEntity
  8
0-4
  6
Continuous
 62
     7
370
     9
100
AcDbLine
 10
-302.6504624570444
 20
-261.7300774353723
 30
0.0
 11
-302.6504624570444
 21
-438.322125874192
 31
0.0
  0
LINE
  5
142
330
1F
100
AcDbEntity
  8
0-4
  6
Continuous
 62
     7
370
     9
100
AcDbLine
 10
-20.22079310263138
 20
-261.7300774353723
 30
0.0
 11
-20.22079310263138
 21
-438.322125874192
 31
0.0
  0
LINE
  5
143
330
1F
100
AcDbEntity
  8
0-4
  6
Continuous
 62
     7
370
     9
100
AcDbLine
 10
-302.6504624570444
 20
-435.3221036046078
 30
0.0
 11
-277.8642917037718
 21
-432.0589290836514
 31
0.0
  0
LINE
  5
144
330
1F
100
AcDbEntity
  8
0-4
  6
Continuous
 62
     7
370
     9
100
AcDbLine
 10
-302.6504624570444
 20
-435.3221036046078
 30
0.0
 11
-277.8642917037718
 21
-438.5852781255644
 31
0.0
  0
LINE
  5
145
330
1F
100
AcDbEntity
  8
0-4
  6
Continuous
 62
     7
370
     9
100
AcDbLine
 10
-20.22079310263138
 20
-435.3221036046078
 30
0.0
 11
-45.0069638559043
 21
-432.0589290836514
 31
0.0
  0
LINE
  5
146
330
1F
100
AcDbEntity
  8
0-4
  6
Continuous
 62
     7
370
     9
100
AcDbLine
 10
-20.22079310263138
 20
-435.3221036046078
 30
0.0
 11
-45.0069638559043
 21
-438.5852781255644
 31
0.0
  0
LINE
  5
147
330
1F
100
AcDbEntity
  8
0-4
  6
Continuous
 62
     7
370
     9
100
AcDbLine
 10
-326.4357391277582
 20
-515.3221201005962
 30
0.0
 11
3.564359848170966
 21
-515.3221201005962
 31
0.0
  0
LINE
  5
148
330
1F
100
AcDbEntity
  8
0-4
  6
Continuous
 62
     7
370
     9
100
AcDbLine
 10
-326.4357391277582
 20
-266.9886685460141
 30
0.0
 11
-326.4357391277582
 21
-518.32214237018
 31
0.0
  0
LINE
  5
149
330
1F
100
AcDbEntity
  8
0-4
  6
Continuous
 62
     7
370
     9
100
AcDbLine
 10
3.564359848170966
 20
-266.9886685460141
 30
0.0
 11
3.564359848170966
 21
-518.32214237018
 31
0.0
  0
LINE
  5
14A
330
1F
100
AcDbEntity
  8
0-4
  6
Continuous
 62
     7
370
     9
100
AcDbLine
 10
-326.4357391277582
 20
-515.3221201005962
 30
0.0
 11
-301.6495683744853
 21
-512.0589455796396
 31
0.0
  0
LINE
  5
14B
330
1F
100
AcDbEntity
  8
0-4
  6
Continuous
 62
     7
370
     9
100
AcDbLine
 10
-326.4357391277582
 20
-515.3221201005962
 30
0.0
 11
-301.6495683744853
 21
-518.5852946215526
 31
0.0
  0
LINE
  5
14C
330
1F
100
AcDbEntity
  8
0-4
  6
Continuous
 62
     7
370
     9
100
AcDbLine
 10
3.564359848170966
 20
-515.3221201005962
 30
0.0
 11
-21.22168718519049
 21
-512.0589455796396
 31
0.0
  0
LINE
  5
14D
330
1F
100
AcDbEntity
  8
0-4
  6
Continuous
 62
     7
370
     9
100
AcDbLine
 10
3.564359848170966
 20
-515.3221201005962
 30
0.0
 11
-21.22168718519049
 21
-518.5852946215526
 31
0.0
  0
LINE
  5
14E
330
1F
100
AcDbEntity
  8
0-1
  6
Continuous
 62
     2
370
     9
100
AcDbLine
 10
-340.0632399195655
 20
964.59789085274
 30
0.0
 11
-347.1548652362887
 21
971.6897636092856
 31
0.0
  0
LINE
  5
14F
330
1F
100
AcDbEntity
  8
0-1
  6
Continuous
 62
     2
370
     9
100
AcDbLine
 10
-333.2248692613098
 20
964.8309791656624
 30
0.0
 11
-346.2087790744431
 21
977.814888978796
 31
0.0
  0
LINE
  5
150
330
1F
100
AcDbEntity
  8
0-1
  6
Continuous
 62
     2
370
     9
100
AcDbLine
 10
-382.9914510286238
 20
890.2439562296405
 30
0.0
 11
-392.6788438047006
 21
892.8395999690827
 31
0.0
  0
LINE
  5
151
330
1F
100
AcDbEntity
  8
0-1
  6
Continuous
 62
     2
370
     9
100
AcDbLine
 10
-379.7741147348106
 20
884.2054347980525
 30
0.0
 11
-397.5103537814744
 21
888.9577640315827
 31
0.0
  0
LINE
  5
152
330
1F
100
AcDbEntity
  8
0-1
  6
Continuous
 62
     2
370
     9
100
AcDbLine
 10
-397.5103537814744
 20
888.9577640315827
 30
0.0
 11
-392.6788438047006
 21
892.8395999690827
 31
0.0
  0
LINE
  5
153
330
1F
100
AcDbEntity
  8
0-1
  6
Continuous
 62
     2
370
     9
100
AcDbLine
 10
-382.9914510286238
 20
890.2439562296405
 30
0.0
 11
-379.7741147348106
 21
884.2054347980525
 31
0.0
  0
LINE
  5
154
330
1F
100
AcDbEntity
  8
0-1
  6
Continuous
 62
     2
370
     9
100
AcDbLine
 10
-340.0632399195655
 20
964.59789085274
 30
0.0
 11
-333.2248692613098
 21
964.8309791656624
 31
0.0
  0
LINE
  5
155
330
1F
100
AcDbEntity
  8
0-1
  6
Continuous
 62
     2
370
     9
100
AcDbLine
 10
-346.2087790744431
 20
977.814888978796
 30
0.0
 11
-347.1548652362887
 21
971.6897636092856
 31
0.0
  0
LINE
  5
156
330
1F
100
AcDbEntity
  8
0-1
  6
Continuous
 62
     2
370
     9
100
AcDbLine
 10
-239.781570921466
 20
1033.453712616887
 30
0.0
 11
-242.3772146609085
 21
1043.141229112875
 31
0.0
  0
LINE
  5
157
330
1F
100
AcDbEntity
  8
0-1
  6
Continuous
 62
     2
370
     9
100
AcDbLine
 10
-233.743049489878
 20
1030.236500042985
 30
0.0
 11
-238.4953787234085
 21
1047.972739089649
 31
0.0
  0
LINE
  5
158
330
1F
100
AcDbEntity
  8
0-1
  6
Continuous
 62
     2
370
     9
100
AcDbLine
 10
-314.1357529843881
 20
990.5253777879176
 30
0.0
 11
-321.2275020210225
 21
997.6170031046405
 31
0.0
  0
LINE
  5
159
330
1F
100
AcDbEntity
  8
0-1
  6
Continuous
 62
     2
370
     9
100
AcDbLine
 10
-314.3685938574879
 20
983.6871308495731
 30
0.0
 11
-327.3525036706212
 21
996.6710406627064
 31
0.0
  0
LINE
  5
15A
330
1F
100
AcDbEntity
  8
0-1
  6
Continuous
 62
     2
370
     9
100
AcDbLine
 10
-327.3525036706212
 20
996.6710406627064
 30
0.0
 11
-321.2275020210225
 21
997.6170031046405
 31
0.0
  0
LINE
  5
15B
330
1F
100
AcDbEntity
  8
0-1
  6
Continuous
 62
     2
370
     9
100
AcDbLine
 10
-314.1357529843881
 20
990.5253777879176
 30
0.0
 11
-314.3685938574879
 21
983.6871308495731
 31
0.0
  0
LINE
  5
15C
330
1F
100
AcDbEntity
  8
0-1
  6
Continuous
 62
     2
370
     9
100
AcDbLine
 10
-239.781570921466
 20
1033.453712616887
 30
0.0
 11
-233.743049489878
 21
1030.236500042985
 31
0.0
  0
LINE
  5
15D
330
1F
100
AcDbEntity
  8
0-1
  6
Continuous
 62
     2
370
     9
100
AcDbLine
 10
-238.4953787234085
 20
1047.972739089649
 30
0.0
 11
-242.3772146609085
 21
1043.141229112875
 31
0.0
  0
LINE
  5
15E
330
1F
100
AcDbEntity
  8
0-1
  6
Continuous
 62
     2
370
     9
100
AcDbLine
 10
-118.5073548108241
 20
1042.943772134412
 30
0.0
 11
-115.9117110713814
 21
1052.631536070223
 31
0.0
  0
LINE
  5
15F
330
1F
100
AcDbEntity
  8
0-1
  6
Continuous
 62
     2
370
     9
100
AcDbLine
 10
-114.8863204463814
 20
1037.138339015747
 30
0.0
 11
-110.1339912128512
 21
1054.874578062411
 31
0.0
  0
LINE
  5
160
330
1F
100
AcDbEntity
  8
0-1
  6
Continuous
 62
     2
370
     9
100
AcDbLine
 10
-204.3640244687631
 20
1042.943772134412
 30
0.0
 11
-206.9599156480285
 21
1052.6312886304
 31
0.0
  0
LINE
  5
161
330
1F
100
AcDbEntity
  8
0-1
  6
Continuous
 62
     2
370
     9
100
AcDbLine
 10
-207.9850588332059
 20
1037.138339015747
 30
0.0
 11
-212.7373880667361
 21
1054.874578062411
 31
0.0
  0
LINE
  5
162
330
1F
100
AcDbEntity
  8
0-1
  6
Continuous
 62
     2
370
     9
100
AcDbLine
 10
-212.7373880667361
 20
1054.874578062411
 30
0.0
 11
-206.9599156480285
 21
1052.6312886304
 31
0.0
  0
LINE
  5
163
330
1F
100
AcDbEntity
  8
0-1
  6
Continuous
 62
     2
370
     9
100
AcDbLine
 10
-204.3640244687631
 20
1042.943772134412
 30
0.0
 11
-207.9850588332059
 21
1037.138339015747
 31
0.0
  0
LINE
  5
164
330
1F
100
AcDbEntity
  8
0-1
  6
Continuous
 62
     2
370
     9
100
AcDbLine
 10
-118.5073548108241
 20
1042.943772134412
 30
0.0
 11
-114.8863204463814
 21
1037.138339015747
 31
0.0
  0
LINE
  5
165
330
1F
100
AcDbEntity
  8
0-1
  6
Continuous
 62
     2
370
     9
100
AcDbLine
 10
-110.1339912128512
 20
1054.874578062411
 30
0.0
 11
-115.9117110713814
 21
1052.631536070223
 31
0.0
  0
LINE
  5
166
330
1F
100
AcDbEntity
  8
0-1
  6
Continuous
 62
     2
370
     9
100
AcDbLine
 10
-8.735873735021755
 20
990.5253777879176
 30
0.0
 11
-1.644000978476186
 21
997.6172505444629
 31
0.0
  0
LINE
  5
167
330
1F
100
AcDbEntity
  8
0-1
  6
Continuous
 62
     2
370
     9
100
AcDbLine
 10
-8.50278542209935
 20
983.6871308495731
 30
0.0
 11
4.481124391033973
 21
996.671288102529
 31
0.0
  0
LINE
  5
168
330
1F
100
AcDbEntity
  8
0-1
  6
Continuous
 62
     2
370
     9
100
AcDbLine
 10
-83.08980835812122
 20
1033.453712616887
 30
0.0
 11
-80.49416461867878
 21
1043.141476552698
 31
0.0
  0
LINE
  5
169
330
1F
100
AcDbEntity
  8
0-1
  6
Continuous
 62
     2
370
     9
100
AcDbLine
 10
-89.12832978970926
 20
1030.236500042985
 30
0.0
 11
-84.37600055617878
 21
1047.972739089649
 31
0.0
  0
LINE
  5
16A
330
1F
100
AcDbEntity
  8
0-1
  6
Continuous
 62
     2
370
     9
100
AcDbLine
 10
-84.37600055617878
 20
1047.972739089649
 30
0.0
 11
-80.49416461867878
 21
1043.141476552698
 31
0.0
  0
LINE
  5
16B
330
1F
100
AcDbEntity
  8
0-1
  6
Continuous
 62
     2
370
     9
100
AcDbLine
 10
-83.08980835812122
 20
1033.453712616887
 30
0.0
 11
-89.12832978970926
 21
1030.236500042985
 31
0.0
  0
LINE
  5
16C
330
1F
100
AcDbEntity
  8
0-1
  6
Continuous
 62
     2
370
     9
100
AcDbLine
 10
-8.735873735021755
 20
990.5253777879176
 30
0.0
 11
-8.50278542209935
 21
983.6871308495731
 31
0.0
  0
LINE
  5
16D
330
1F
100
AcDbEntity
  8
0-1
  6
Continuous
 62
     2
370
     9
100
AcDbLine
 10
4.481124391033973
 20
996.671288102529
 30
0.0
 11
-1.644000978476186
 21
997.6172505444629
 31
0.0
  0
LINE
  5
16E
330
1F
100
AcDbEntity
  8
0-1
  6
Continuous
 62
     2
370
     9
100
AcDbLine
 10
60.11994802912533
 20
890.2439562296405
 30
0.0
 11
69.80746452511333
 21
892.8395999690827
 31
0.0
  0
LINE
  5
16F
330
1F
100
AcDbEntity
  8
0-1
  6
Continuous
 62
     2
370
     9
100
AcDbLine
 10
56.90273545522324
 20
884.2054347980525
 30
0.0
 11
74.6389745018871
 21
888.9577640315827
 31
0.0
  0
LINE
  5
170
330
1F
100
AcDbEntity
  8
0-1
  6
Continuous
 62
     2
370
     9
100
AcDbLine
 10
17.19161320015559
 20
964.5981382925627
 30
0.0
 11
24.28323851687878
 21
971.6897636092856
 31
0.0
  0
LINE
  5
171
330
1F
100
AcDbEntity
  8
0-1
  6
Continuous
 62
     2
370
     9
100
AcDbLine
 10
10.35336626181106
 20
964.8309791656624
 30
0.0
 11
23.33727607494467
 21
977.814888978796
 31
0.0
  0
LINE
  5
172
330
1F
100
AcDbEntity
  8
0-1
  6
Continuous
 62
     2
370
     9
100
AcDbLine
 10
23.33727607494467
 20
977.814888978796
 30
0.0
 11
24.28323851687878
 21
971.6897636092856
 31
0.0
  0
LINE
  5
173
330
1F
100
AcDbEntity
  8
0-1
  6
Continuous
 62
     2
370
     9
100
AcDbLine
 10
17.19161320015559
 20
964.5981382925627
 30
0.0
 11
10.35336626181106
 21
964.8309791656624
 31
0.0
  0
LINE
  5
174
330
1F
100
AcDbEntity
  8
0-1
  6
Continuous
 62
     2
370
     9
100
AcDbLine
 10
60.11994802912533
 20
890.2439562296405
 30
0.0
 11
56.90273545522324
 21
884.2054347980525
 31
0.0
  0
LINE
  5
175
330
1F
100
AcDbEntity
  8
0-1
  6
Continuous
 62
     2
370
     9
100
AcDbLine
 10
74.6389745018871
 20
888.9577640315827
 30
0.0
 11
69.80746452511333
 21
892.8395999690827
 31
0.0
  0
LINE
  5
176
330
1F
100
AcDbEntity
  8
0-1
  6
Continuous
 62
     2
370
     9
100
AcDbLine
 10
69.61000754665065
 20
854.8264097769377
 30
0.0
 11
79.29752404263887
 21
857.422300956203
 31
0.0
  0
LINE
  5
177
330
1F
100
AcDbEntity
  8
0-1
  6
Continuous
 62
     2
370
     9
100
AcDbLine
 10
63.80457442798502
 20
858.4474441413804
 30
0.0
 11
81.54081347464874
 21
863.1997733749106
 31
0.0
  0
LINE
  5
178
330
1F
100
AcDbEntity
  8
0-1
  6
Continuous
 62
     2
370
     9
100
AcDbLine
 10
81.54081347464874
 20
863.1997733749106
 30
0.0
 11
79.29752404263887
 21
857.422300956203
 31
0.0
  0
LINE
  5
179
330
1F
100
AcDbEntity
  8
0-1
  6
Continuous
 62
     2
370
     9
100
AcDbLine
 10
69.61000754665065
 20
854.8264097769377
 30
0.0
 11
63.80457442798502
 21
858.4474441413804
 31
0.0
  0
LINE
  5
17A
330
1F
100
AcDbEntity
  8
0-1
  6
Continuous
 62
     2
370
     9
100
AcDbLine
 10
-392.4813868262379
 20
854.8264097769377
 30
0.0
 11
-402.1689033222262
 21
857.422300956203
 31
0.0
  0
LINE
  5
17B
330
1F
100
AcDbEntity
  8
0-1
  6
Continuous
 62
     2
370
     9
100
AcDbLine
 10
-386.6759537075723
 20
858.4474441413804
 30
0.0
 11
-404.4121927542363
 21
863.1997733749106
 31
0.0
  0
LINE
  5
17C
330
1F
100
AcDbEntity
  8
0-1
  6
Continuous
 62
     2
370
     9
100
AcDbLine
 10
-404.4121927542363
 20
863.1997733749106
 30
0.0
 11
-402.1689033222262
 21
857.422300956203
 31
0.0
  0
LINE
  5
17D
330
1F
100
AcDbEntity
  8
0-1
  6
Continuous
 62
     2
370
     9
100
AcDbLine
 10
-392.4813868262379
 20
854.8264097769377
 30
0.0
 11
-386.6759537075723
 21
858.4474441413804
 31
0.0
  0
LINE
  5
17E
330
1F
100
AcDbEntity
  8
0-1
  6
Continuous
 62
     4
370
     9
100
AcDbLine
 10
-114.7687865306298
 20
936.0284889312874
 30
0.0
 11
-102.2597137371332
 21
914.3619157418868
 31
0.0
  0
LINE
  5
17F
330
1F
100
AcDbEntity
  8
0-1
  6
Continuous
 62
     4
370
     9
100
AcDbLine
 10
-102.2597137371332
 20
914.3619157418868
 30
0.0
 11
-77.27818924388998
 21
914.3619157418868
 31
0.0
  0
LINE
  5
180
330
1F
100
AcDbEntity
  8
0-1
  6
Continuous
 62
     4
370
     9
100
AcDbLine
 10
-100.0871920943968
 20
931.9957147019801
 30
0.0
 11
-81.1172180920741
 21
942.9478961314564
 31
0.0
  0
LINE
  5
181
330
1F
100
AcDbEntity
  8
0-1
  6
Continuous
 62
     4
370
     9
100
AcDbLine
 10
-98.42043744912644
 20
929.1090817311186
 30
0.0
 11
-79.45071088662644
 21
940.061263160595
 31
0.0
  0
LINE
  5
182
330
1F
100
AcDbEntity
  8
0-1
  6
JWW_CENTER1
 62
     4
370
     9
100
AcDbLine
 10
-117.1790978429186
 20
951.8539976675627
 30
0.0
 11
-62.35880513810457
 21
920.2032276348348
 31
0.0
  0
LINE
  5
183
330
1F
100
AcDbEntity
  8
0-1
  6
Continuous
 62
     4
370
     9
100
AcDbLine
 10
-301.43590408764
 20
811.8980749479681
 30
0.0
 11
-313.4206518969728
 21
818.8174821481368
 31
0.0
  0
LINE
  5
184
330
1F
100
AcDbEntity
  8
0-1
  6
Continuous
 62
     4
370
     9
100
AcDbLine
 10
-308.1023040691645
 20
811.8980749479681
 30
0.0
 11
-315.0872828223316
 21
815.9308491772754
 31
0.0
  0
LINE
  5
185
330
1F
100
AcDbEntity
  8
0-1
  6
Continuous
 62
     4
370
     9
100
AcDbLine
 10
-279.7690834584171
 20
811.8980749479681
 30
0.0
 11
-279.7599281849796
 21
811.9139110966169
 31
0.0
  0
LINE
  5
186
330
1F
100
AcDbEntity
  8
0-2
  6
Continuous
 62
     6
370
     9
100
AcDbLine
 10
-161.4356896397936
 20
184.1992900424572
 30
0.0
 11
10.29769230171809
 21
184.1992900424572
 31
0.0
  0
LINE
  5
187
330
1F
100
AcDbEntity
  8
0-2
  6
Continuous
 62
     6
370
     9
100
AcDbLine
 10
13.63961454622824
 20
-40.02585215296094
 30
0.0
 11
-6.435673143805332
 21
184.1992900424572
 31
0.0
  0
LINE
  5
188
330
1F
100
AcDbEntity
  8
0-2
  6
Continuous
 62
     6
370
     9
100
AcDbLine
 10
66.89757221092428
 20
-30.80080068547772
 30
0.0
 11
63.56455780002896
 21
-49.13411202416029
 31
0.0
  0
LINE
  5
189
330
1F
100
AcDbEntity
  8
0-2
  6
JWW_DASHED1
 62
     6
370
     9
100
AcDbLine
 10
15.07278599893112
 20
130.8658632318574
 30
0.0
 11
-1.95899187269049
 21
134.1991250825754
 31
0.0
  0
LINE
  5
18A
330
1F
100
AcDbEntity
  8
0-2
  6
Continuous
 62
     6
370
     9
100
AcDbLine
 10
-161.4356896397936
 20
184.1992900424572
 30
0.0
 11
-333.1690715813053
 21
184.1992900424572
 31
0.0
  0
LINE
  5
18B
330
1F
100
AcDbEntity
  8
0-2
  6
Continuous
 62
     6
370
     9
100
AcDbLine
 10
-358.0931900356973
 20
-29.39286809468399
 30
0.0
 11
-389.7689514905116
 21
-30.80080068547772
 31
0.0
  0
LINE
  5
18C
330
1F
100
AcDbEntity
  8
0-2
  6
Continuous
 62
     6
370
     9
100
AcDbLine
 10
-389.7689514905116
 20
-30.80080068547772
 30
0.0
 11
-386.4356896397936
 21
-49.13411202416029
 31
0.0
  0
LINE
  5
18D
330
1F
100
AcDbEntity
  8
0-2
  6
Continuous
 62
     6
370
     9
100
AcDbLine
 10
-337.9439178386957
 20
130.8658632318574
 30
0.0
 11
-320.9121399670741
 21
134.1991250825754
 31
0.0
  0
LINE
  5
18E
330
1F
100
AcDbEntity
  8
0-2
  6
Continuous
 62
     6
370
     9
100
AcDbLine
 10
63.56455780002896
 20
-27.31610566330716
 30
0.0
 11
66.89757221092428
 21
-30.80080068547772
 31
0.0
  0
LINE
  5
18F
330
1F
100
AcDbEntity
  8
0-2
  6
Continuous
 62
     6
370
     9
100
AcDbLine
 10
37.73085055763033
 20
-29.50433973478113
 30
0.0
 11
32.7310815014647
 21
-49.13411202416029
 31
0.0
  0
LINE
  5
190
330
1F
100
AcDbEntity
  8
0-2
  6
Continuous
 62
     6
370
     9
100
AcDbLine
 10
11.8808122869379
 20
863.8443541128752
 30
0.0
 11
21.07171705889726
 21
867.6512157841169
 31
0.0
  0
LINE
  5
191
330
1F
100
AcDbEntity
  8
0-2
  6
Continuous
 62
     6
370
     9
100
AcDbLine
 10
18.56713117418451
 20
830.2313862866504
 30
0.0
 11
28.51520180340742
 21
830.2313862866504
 31
0.0
  0
LINE
  5
192
330
1F
100
AcDbEntity
  8
0-2
  6
Continuous
 62
     6
370
     9
100
AcDbLine
 10
-21.19075720736106
 20
926.2155204452231
 30
0.0
 11
-14.1567853693121
 21
933.2499871629176
 31
0.0
  0
LINE
  5
193
330
1F
100
AcDbEntity
  8
0-2
  6
Continuous
 62
     6
370
     9
100
AcDbLine
 10
-2.150510295410299
 20
897.7198555909158
 30
0.0
 11
7.039899596904036
 21
901.5267172621575
 31
0.0
  0
LINE
  5
194
330
1F
100
AcDbEntity
  8
0-2
  6
Continuous
 62
     6
370
     9
100
AcDbLine
 10
-75.61415643666862
 20
971.183006852529
 30
0.0
 11
-71.80704732560457
 21
980.3739116244884
 31
0.0
  0
LINE
  5
195
330
1F
100
AcDbEntity
  8
0-2
  6
Continuous
 62
     6
370
     9
100
AcDbLine
 10
-47.11799670271603
 20
952.142759940578
 30
0.0
 11
-40.08377742484441
 21
959.1772266582723
 31
0.0
  0
LINE
  5
196
330
1F
100
AcDbEntity
  8
0-2
  6
Continuous
 62
     6
370
     9
100
AcDbLine
 10
-109.4894104748866
 20
985.2148243145223
 30
0.0
 11
-105.6825488036449
 21
994.4054816466587
 31
0.0
  0
LINE
  5
197
330
1F
100
AcDbEntity
  8
0-2
  6
Continuous
 62
     6
370
     9
100
AcDbLine
 10
-213.3819688047006
 20
985.2145768746993
 30
0.0
 11
-217.1888304759423
 21
994.4054816466587
 31
0.0
  0
LINE
  5
198
330
1F
100
AcDbEntity
  8
0-2
  6
Continuous
 62
     6
370
     9
100
AcDbLine
 10
-275.7531351370488
 20
952.1425125007554
 30
0.0
 11
-282.7876018547428
 21
959.1772266582723
 31
0.0
  0
LINE
  5
199
330
1F
100
AcDbEntity
  8
0-2
  6
Continuous
 62
     6
370
     9
100
AcDbLine
 10
-247.2574702827413
 20
971.183006852529
 30
0.0
 11
-251.064331953983
 21
980.3736641846658
 31
0.0
  0
LINE
  5
19A
330
1F
100
AcDbEntity
  8
0-2
  6
Continuous
 62
     6
370
     9
100
AcDbLine
 10
-320.7206215443546
 20
897.7196081510931
 30
0.0
 11
-329.9115263163139
 21
901.5267172621575
 31
0.0
  0
LINE
  5
19B
330
1F
100
AcDbEntity
  8
0-2
  6
Continuous
 62
     6
370
     9
100
AcDbLine
 10
-301.6803746324035
 20
926.2155204452231
 30
0.0
 11
-308.7148413500978
 21
933.249739723095
 31
0.0
  0
LINE
  5
19C
330
1F
100
AcDbEntity
  8
0-2
  6
Continuous
 62
     6
370
     9
100
AcDbLine
 10
-341.4382630139491
 20
830.2313862866504
 30
0.0
 11
-351.386333643172
 21
830.2313862866504
 31
0.0
  0
LINE
  5
19D
330
1F
100
AcDbEntity
  8
0-2
  6
Continuous
 62
     6
370
     9
100
AcDbLine
 10
-334.7524390063478
 20
863.8443541128752
 30
0.0
 11
-343.9430963384845
 21
867.6512157841169
 31
0.0
  0
LINE
  5
19E
330
1F
100
AcDbEntity
  8
0-2
  6
Continuous
 62
     6
370
     9
100
AcDbLine
 10
60.23104850948833
 20
-49.13411202416029
 30
0.0
 11
63.56455780002896
 21
-49.13411202416029
 31
0.0
  0
LINE
  5
19F
330
1F
100
AcDbEntity
  8
0-2
  6
Continuous
 62
     6
370
     9
100
AcDbLine
 10
62.94645312308624
 20
828.5646316413804
 30
0.0
 11
66.50810193009647
 21
825.2313697906624
 31
0.0
  0
LINE
  5
1A0
330
1F
100
AcDbEntity
  8
0-2
  6
Continuous
 62
     6
370
     9
100
AcDbLine
 10
25.84186195965742
 20
848.5646976253327
 30
0.0
 11
63.93472777469128
 21
848.5646976253327
 31
0.0
  0
LINE
  5
1A1
330
1F
100
AcDbEntity
  8
0-2
  6
Continuous
 62
     6
370
     9
100
AcDbLine
 10
26.46392567376211
 20
845.231435774615
 30
0.0
 11
61.08174661970814
 21
845.231435774615
 31
0.0
  0
LINE
  5
1A2
330
1F
100
AcDbEntity
  8
0-2
  6
Continuous
 62
     6
370
     9
100
AcDbLine
 10
63.93472777469128
 20
848.5646976253327
 30
0.0
 11
61.08174661970814
 21
845.231435774615
 31
0.0
  0
LINE
  5
1A3
330
1F
100
AcDbEntity
  8
0-2
  6
Continuous
 62
     6
370
     9
100
AcDbLine
 10
-385.8175849628512
 20
828.5646316413804
 30
0.0
 11
-389.3794812096837
 21
825.2313697906624
 31
0.0
  0
LINE
  5
1A4
330
1F
100
AcDbEntity
  8
0-2
  6
Continuous
 62
     6
370
     9
100
AcDbLine
 10
-348.7132412392447
 20
848.5646976253327
 30
0.0
 11
-386.8058596144559
 21
848.5646976253327
 31
0.0
  0
LINE
  5
1A5
330
1F
100
AcDbEntity
  8
0-2
  6
Continuous
 62
     6
370
     9
100
AcDbLine
 10
-349.3353049533494
 20
845.231435774615
 30
0.0
 11
-383.9528784594728
 21
845.231435774615
 31
0.0
  0
LINE
  5
1A6
330
1F
100
AcDbEntity
  8
0-2
  6
Continuous
 62
     6
370
     9
100
AcDbLine
 10
-386.8058596144559
 20
848.5646976253327
 30
0.0
 11
-383.9528784594728
 21
845.231435774615
 31
0.0
  0
LINE
  5
1A7
330
1F
100
AcDbEntity
  8
0-2
  6
Continuous
 62
     6
370
     9
100
AcDbLine
 10
32.7310815014647
 20
-25.56843819603529
 30
0.0
 11
67.73094953355951
 21
-25.56843819603529
 31
0.0
  0
LINE
  5
1A8
330
1F
100
AcDbEntity
  8
0-2
  6
Continuous
 62
     6
370
     9
100
AcDbLine
 10
48.56426087224179
 20
-22.23505262540613
 30
0.0
 11
51.89777016278242
 21
-22.23505262540613
 31
0.0
  0
LINE
  5
1A9
330
1F
100
AcDbEntity
  8
0-2
  6
Continuous
 62
     6
370
     9
100
AcDbLine
 10
51.89777016278242
 20
-12.62857267133086
 30
0.0
 11
51.89777016278242
 21
-22.23505262540613
 31
0.0
  0
LINE
  5
1AA
330
1F
100
AcDbEntity
  8
0-2
  6
Continuous
 62
     6
370
     9
100
AcDbLine
 10
48.56426087224179
 20
-12.62857267133086
 30
0.0
 11
48.56426087224179
 21
-22.23505262540613
 31
0.0
  0
LINE
  5
1AB
330
1F
100
AcDbEntity
  8
0-2
  6
Continuous
 62
     6
370
     9
100
AcDbLine
 10
41.89773717080605
 20
-65.56869388385195
 30
0.0
 11
58.56429386421802
 21
-65.56869388385195
 31
0.0
  0
LINE
  5
1AC
330
1F
100
AcDbEntity
  8
0-2
  6
Continuous
 62
     6
370
     9
100
AcDbLine
 10
40.23098252553574
 20
-63.9018155186703
 30
0.0
 11
60.23104850948833
 21
-63.9018155186703
 31
0.0
  0
LINE
  5
1AD
330
1F
100
AcDbEntity
  8
0-2
  6
Continuous
 62
     6
370
     9
100
AcDbLine
 10
40.23098252553574
 20
-63.9018155186703
 30
0.0
 11
41.89773717080605
 21
-65.56869388385195
 31
0.0
  0
LINE
  5
1AE
330
1F
100
AcDbEntity
  8
0-2
  6
Continuous
 62
     6
370
     9
100
AcDbLine
 10
60.23104850948833
 20
-63.9018155186703
 30
0.0
 11
58.56429386421802
 21
-65.56869388385195
 31
0.0
  0
LINE
  5
1AF
330
1F
100
AcDbEntity
  8
0-2
  6
Continuous
 62
     6
370
     9
100
AcDbLine
 10
60.23104850948833
 20
-25.56843819603529
 30
0.0
 11
60.23104850948833
 21
-63.9018155186703
 31
0.0
  0
LINE
  5
1B0
330
1F
100
AcDbEntity
  8
0-2
  6
Continuous
 62
     6
370
     9
100
AcDbLine
 10
58.56429386421802
 20
-25.56843819603529
 30
0.0
 11
58.56429386421802
 21
-65.56869388385195
 31
0.0
  0
LINE
  5
1B1
330
1F
100
AcDbEntity
  8
0-2
  6
Continuous
 62
     6
370
     9
100
AcDbLine
 10
41.89773717080605
 20
-25.56843819603529
 30
0.0
 11
41.89773717080605
 21
-65.56869388385195
 31
0.0
  0
LINE
  5
1B2
330
1F
100
AcDbEntity
  8
0-2
  6
Continuous
 62
     6
370
     9
100
AcDbLine
 10
40.23098252553574
 20
-25.56843819603529
 30
0.0
 11
40.23098252553574
 21
-63.9018155186703
 31
0.0
  0
LINE
  5
1B3
330
1F
100
AcDbEntity
  8
0-2
  6
Continuous
 62
     6
370
     9
100
AcDbLine
 10
35.22181075611002
 20
-29.39286809468399
 30
0.0
 11
40.23098252553574
 21
-29.61544021514428
 31
0.0
  0
LINE
  5
1B4
330
1F
100
AcDbEntity
  8
0-2
  6
Continuous
 62
     6
370
     9
100
AcDbLine
 10
34.92191369107644
 20
-26.04302777584948
 30
0.0
 11
40.23098252553574
 21
-26.27896164673189
 31
0.0
  0
LINE
  5
1B5
330
1F
100
AcDbEntity
  8
0-2
  6
Continuous
 62
     6
370
     9
100
AcDbLine
 10
60.23104850948833
 20
-30.50449149787241
 30
0.0
 11
66.89757221092428
 21
-30.80080068547772
 31
0.0
  0
LINE
  5
1B6
330
1F
100
AcDbEntity
  8
0-2
  6
Continuous
 62
     6
370
     9
100
AcDbLine
 10
60.23104850948833
 20
-27.16788920954883
 30
0.0
 11
63.56455780002896
 21
-27.31610566330716
 31
0.0
  0
LINE
  5
1B7
330
1F
100
AcDbEntity
  8
0-2
  6
Continuous
 62
     6
370
     9
100
AcDbLine
 10
-351.9133804653848
 20
144.7870750931328
 30
0.0
 11
-348.7921745426652
 21
179.6475107851724
 31
0.0
  0
LINE
  5
1B8
330
1F
100
AcDbEntity
  8
0-2
  6
Continuous
 62
     6
370
     9
100
AcDbLine
 10
-353.821636377547
 20
160.8544562560338
 30
0.0
 11
-353.5242137107394
 21
164.1747275160637
 31
0.0
  0
LINE
  5
1B9
330
1F
100
AcDbEntity
  8
0-2
  6
Continuous
 62
     6
370
     9
100
AcDbLine
 10
-363.0924642122176
 20
165.0313641820264
 30
0.0
 11
-353.5242137107394
 21
164.1747275160637
 31
0.0
  0
LINE
  5
1BA
330
1F
100
AcDbEntity
  8
0-2
  6
Continuous
 62
     6
370
     9
100
AcDbLine
 10
-363.3896394392025
 20
161.7112166419082
 30
0.0
 11
-353.821636377547
 21
160.8544562560338
 31
0.0
  0
LINE
  5
1BB
330
1F
100
AcDbEntity
  8
0-2
  6
Continuous
 62
     6
370
     9
100
AcDbLine
 10
-311.2553060090926
 20
150.350017185616
 30
0.0
 11
-309.7689349945233
 21
166.9502600065618
 31
0.0
  0
LINE
  5
1BC
330
1F
100
AcDbEntity
  8
0-2
  6
Continuous
 62
     6
370
     9
100
AcDbLine
 10
-313.0640911125553
 20
148.8385310290494
 30
0.0
 11
-311.2805448710014
 21
168.7589213901134
 31
0.0
  0
LINE
  5
1BD
330
1F
100
AcDbEntity
  8
0-2
  6
Continuous
 62
     6
370
     9
100
AcDbLine
 10
-313.0640911125553
 20
148.8385310290494
 30
0.0
 11
-311.2553060090926
 21
150.350017185616
 31
0.0
  0
LINE
  5
1BE
330
1F
100
AcDbEntity
  8
0-2
  6
Continuous
 62
     6
370
     9
100
AcDbLine
 10
-311.2805448710014
 20
168.7589213901134
 30
0.0
 11
-309.7689349945233
 21
166.9502600065618
 31
0.0
  0
LINE
  5
1BF
330
1F
100
AcDbEntity
  8
0-2
  6
Continuous
 62
     6
370
     9
100
AcDbLine
 10
-349.4610043832481
 20
172.1775499796405
 30
0.0
 11
-311.2805448710014
 21
168.7589213901134
 31
0.0
  0
LINE
  5
1C0
330
1F
100
AcDbEntity
  8
0-2
  6
Continuous
 62
     6
370
     9
100
AcDbLine
 10
-349.6097157166517
 20
170.5173524896699
 30
0.0
 11
-309.7689349945233
 21
166.9502600065618
 31
0.0
  0
LINE
  5
1C1
330
1F
100
AcDbEntity
  8
0-2
  6
Continuous
 62
     6
370
     9
100
AcDbLine
 10
-351.0958392913983
 20
153.9173571085468
 30
0.0
 11
-311.2553060090926
 21
150.350017185616
 31
0.0
  0
LINE
  5
1C2
330
1F
100
AcDbEntity
  8
0-2
  6
Continuous
 62
     6
370
     9
100
AcDbLine
 10
-351.2445506248019
 20
152.2571596185762
 30
0.0
 11
-313.0640911125553
 21
148.8385310290494
 31
0.0
  0
LINE
  5
1C3
330
1F
100
AcDbEntity
  8
0-2
  6
Continuous
 62
     6
370
     9
100
AcDbLine
 10
-334.3664328830369
 20
170.8260336684074
 30
0.0
 11
-333.1690715813053
 21
184.1992900424572
 31
0.0
  0
LINE
  5
1C4
330
1F
100
AcDbEntity
  8
0-2
  6
Continuous
 62
     6
370
     9
100
AcDbLine
 10
-317.766190062091
 20
169.339662653838
 30
0.0
 11
-316.4357061357819
 21
184.1992900424572
 31
0.0
  0
LINE
  5
1C5
330
1F
100
AcDbEntity
  8
0-2
  6
Continuous
 62
     6
370
     9
100
AcDbLine
 10
-336.5107463859928
 20
-40.02585215296094
 30
0.0
 11
-319.5497363036449
 21
149.4192722927738
 31
0.0
  0
LINE
  5
1C6
330
1F
100
AcDbEntity
  8
0-2
  6
JWW_CENTER1
 62
     6
370
     9
100
AcDbLine
 10
-369.95397049389
 20
163.9723217411481
 30
0.0
 11
-303.1382900673697
 21
157.989845429387
 31
0.0
  0
LINE
  5
1C7
330
1F
100
AcDbEntity
  8
0-2
  6
Continuous
 62
     6
370
     9
100
AcDbLine
 10
55.56680785281628
 20
828.5646316413804
 30
0.0
 11
62.94645312308624
 21
828.5646316413804
 31
0.0
  0
LINE
  5
1C8
330
1F
100
AcDbEntity
  8
0-2
  6
Continuous
 62
     6
370
     9
100
AcDbLine
 10
61.56573891278242
 20
825.2313697906624
 30
0.0
 11
66.50810193009647
 21
825.2313697906624
 31
0.0
  0
LINE
  5
1C9
330
1F
100
AcDbEntity
  8
0-2
  6
Continuous
 62
     6
370
     9
100
AcDbLine
 10
-378.4381871324035
 20
828.5646316413804
 30
0.0
 11
-385.8175849628512
 21
828.5646316413804
 31
0.0
  0
LINE
  5
1CA
330
1F
100
AcDbEntity
  8
0-2
  6
Continuous
 62
     6
370
     9
100
AcDbLine
 10
-384.436870752547
 20
825.2313697906624
 30
0.0
 11
-389.3794812096837
 21
825.2313697906624
 31
0.0
  0
LINE
  5
1CB
330
1F
100
AcDbEntity
  8
0-2
  6
Continuous
 62
     6
370
     9
100
AcDbLine
 10
-169.7689679864996
 20
960.2313203026981
 30
0.0
 11
-153.102163853265
 21
960.2313203026981
 31
0.0
  0
LINE
  5
1CC
330
1F
100
AcDbEntity
  8
0-2
  6
Continuous
 62
     6
370
     9
100
AcDbLine
 10
-171.4357226317699
 20
961.8980749479681
 30
0.0
 11
-151.4356566478173
 21
961.8980749479681
 31
0.0
  0
LINE
  5
1CD
330
1F
100
AcDbEntity
  8
0-2
  6
Continuous
 62
     6
370
     9
100
AcDbLine
 10
-171.4357226317699
 20
961.8980749479681
 30
0.0
 11
-169.7689679864996
 21
960.2313203026981
 31
0.0
  0
LINE
  5
1CE
330
1F
100
AcDbEntity
  8
0-2
  6
Continuous
 62
     6
370
     9
100
AcDbLine
 10
-151.4356566478173
 20
961.8980749479681
 30
0.0
 11
-153.102163853265
 21
960.2313203026981
 31
0.0
  0
LINE
  5
1CF
330
1F
100
AcDbEntity
  8
0-2
  6
Continuous
 62
     6
370
     9
100
AcDbLine
 10
-178.935623655841
 20
999.2545598508398
 30
0.0
 11
-143.9355081839236
 21
999.2545598508398
 31
0.0
  0
LINE
  5
1D0
330
1F
100
AcDbEntity
  8
0-2
  6
Continuous
 62
     6
370
     9
100
AcDbLine
 10
-163.1021968452413
 20
1002.58806914138
 30
0.0
 11
-159.7689349945233
 21
1002.58806914138
 31
0.0
  0
LINE
  5
1D1
330
1F
100
AcDbEntity
  8
0-2
  6
Continuous
 62
     6
370
     9
100
AcDbLine
 10
-169.7689679864996
 20
960.2313203026981
 30
0.0
 11
-169.7689679864996
 21
966.6739109646488
 31
0.0
  0
LINE
  5
1D2
330
1F
100
AcDbEntity
  8
0-2
  6
Continuous
 62
     6
370
     9
100
AcDbLine
 10
-169.7689679864996
 20
983.4292985543868
 30
0.0
 11
-169.7689679864996
 21
999.2545598508398
 31
0.0
  0
LINE
  5
1D3
330
1F
100
AcDbEntity
  8
0-2
  6
Continuous
 62
     6
370
     9
100
AcDbLine
 10
-171.4357226317699
 20
961.8980749479681
 30
0.0
 11
-171.4357226317699
 21
966.5751824754176
 31
0.0
  0
LINE
  5
1D4
330
1F
100
AcDbEntity
  8
0-2
  6
Continuous
 62
     6
370
     9
100
AcDbLine
 10
-171.4357226317699
 20
983.3402202182384
 30
0.0
 11
-171.4357226317699
 21
999.2545598508398
 31
0.0
  0
LINE
  5
1D5
330
1F
100
AcDbEntity
  8
0-2
  6
Continuous
 62
     6
370
     9
100
AcDbLine
 10
-153.102163853265
 20
960.2313203026981
 30
0.0
 11
-153.102163853265
 21
966.6739109646488
 31
0.0
  0
LINE
  5
1D6
330
1F
100
AcDbEntity
  8
0-2
  6
Continuous
 62
     6
370
     9
100
AcDbLine
 10
-153.102163853265
 20
983.4292985543868
 30
0.0
 11
-153.102163853265
 21
999.2545598508398
 31
0.0
  0
LINE
  5
1D7
330
1F
100
AcDbEntity
  8
0-2
  6
Continuous
 62
     6
370
     9
100
AcDbLine
 10
-151.4356566478173
 20
961.8980749479681
 30
0.0
 11
-151.4356566478173
 21
966.5751824754176
 31
0.0
  0
LINE
  5
1D8
330
1F
100
AcDbEntity
  8
0-2
  6
Continuous
 62
     6
370
     9
100
AcDbLine
 10
-151.4356566478173
 20
983.3402202182384
 30
0.0
 11
-151.4356566478173
 21
999.2545598508398
 31
0.0
  0
LINE
  5
1D9
330
1F
100
AcDbEntity
  8
0-2
  6
JWW_CENTER1
 62
     6
370
     9
100
AcDbLine
 10
50.23101551751211
 20
835.1264882978415
 30
0.0
 11
50.23101551751211
 21
805.7684956616504
 31
0.0
  0
LINE
  5
1DA
330
1F
100
AcDbEntity
  8
0-2
  6
JWW_CENTER1
 62
     6
370
     9
100
AcDbLine
 10
-373.1021473572767
 20
835.1264882978415
 30
0.0
 11
-373.1021473572767
 21
805.7684956616504
 31
0.0
  0
LINE
  5
1DB
330
1F
100
AcDbEntity
  8
0-2
  6
JWW_CENTER1
 62
     6
370
     9
100
AcDbLine
 10
50.23101551751211
 20
2.714799570539981
 30
0.0
 11
50.23101551751211
 21
-74.93293025156731
 31
0.0
  0
LINE
  5
1DC
330
1F
100
AcDbEntity
  8
0-2
  6
Continuous
 62
     6
370
     9
100
AcDbLine
 10
-353.5159244766814
 20
-43.06193877669415
 30
0.0
 11
-336.149979124591
 21
150.9056433073431
 31
0.0
  0
LINE
  5
1DD
330
1F
100
AcDbEntity
  8
0-2
  6
Continuous
 62
     6
370
     9
100
AcDbLine
 10
-143.1023783011111
 20
991.9006483221233
 30
0.0
 11
-143.1023783011111
 21
1001.848718951346
 31
0.0
  0
LINE
  5
1DE
330
1F
100
AcDbEntity
  8
0-2
  6
Continuous
 62
     6
370
     9
100
AcDbLine
 10
-179.7690009784762
 20
991.9006483221233
 30
0.0
 11
-179.7690009784762
 21
1001.848718951346
 31
0.0
  0
LINE
  5
1DF
330
1F
100
AcDbEntity
  8
0-2
  6
Continuous
 62
     6
370
     9
100
AcDbLine
 10
-163.1021968452413
 20
1002.58806914138
 30
0.0
 11
-163.1021968452413
 21
1012.194425375544
 31
0.0
  0
LINE
  5
1E0
330
1F
100
AcDbEntity
  8
0-2
  6
Continuous
 62
     6
370
     9
100
AcDbLine
 10
-159.7689349945233
 20
1002.58806914138
 30
0.0
 11
-159.7689349945233
 21
1012.194425375544
 31
0.0
  0
LINE
  5
1E1
330
1F
100
AcDbEntity
  8
0-2
  6
Continuous
 62
     6
370
     9
100
AcDbLine
 10
36.89796811464042
 20
811.8980749479681
 30
0.0
 11
36.89796811464042
 21
813.898131034328
 31
0.0
  0
LINE
  5
1E2
330
1F
100
AcDbEntity
  8
0-2
  6
Continuous
 62
     6
370
     9
100
AcDbLine
 10
63.56455780002896
 20
813.898131034328
 30
0.0
 11
36.89796811464042
 21
813.898131034328
 31
0.0
  0
LINE
  5
1E3
330
1F
100
AcDbEntity
  8
0-2
  6
Continuous
 62
     6
370
     9
100
AcDbLine
 10
63.56455780002896
 20
811.8980749479681
 30
0.0
 11
63.56455780002896
 21
813.898131034328
 31
0.0
  0
LINE
  5
1E4
330
1F
100
AcDbEntity
  8
0-2
  6
Continuous
 62
     6
370
     9
100
AcDbLine
 10
-386.4356896397936
 20
811.8980749479681
 30
0.0
 11
-386.4356896397936
 21
813.898131034328
 31
0.0
  0
LINE
  5
1E5
330
1F
100
AcDbEntity
  8
0-2
  6
Continuous
 62
     6
370
     9
100
AcDbLine
 10
-359.7690999544051
 20
813.898131034328
 30
0.0
 11
-386.4356896397936
 21
813.898131034328
 31
0.0
  0
LINE
  5
1E6
330
1F
100
AcDbEntity
  8
0-2
  6
Continuous
 62
     6
370
     9
100
AcDbLine
 10
-359.7690999544051
 20
811.8980749479681
 30
0.0
 11
-359.7690999544051
 21
813.898131034328
 31
0.0
  0
LINE
  5
1E7
330
1F
100
AcDbEntity
  8
0-2
  6
Continuous
 62
     6
370
     9
100
AcDbLine
 10
28.87794858339049
 20
-23.32725200251758
 30
0.0
 11
10.29769230171809
 21
184.1992900424572
 31
0.0
  0
LINE
  5
1E8
330
1F
100
AcDbEntity
  8
0-2
  6
Continuous
 62
     6
370
     9
100
AcDbLine
 10
-329.7690009784762
 20
-49.13411202416029
 30
0.0
 11
-386.4356896397936
 21
-49.13411202416029
 31
0.0
  0
LINE
  5
1E9
330
1F
100
AcDbEntity
  8
0-2
  6
Continuous
 62
     6
370
     9
100
AcDbLine
 10
40.23098252553574
 20
-49.13411202416029
 30
0.0
 11
-279.7689597385056
 21
-49.13411202416029
 31
0.0
  0
LINE
  5
1EA
330
1F
100
AcDbEntity
  8
0-1
  6
Continuous
 62
     4
370
     9
100
AcDbLine
 10
-279.7599281849796
 20
811.9139110966169
 30
0.0
 11
-292.2506904316012
 21
833.5485645488973
 31
0.0
  0
LINE
  5
1EB
330
1F
100
AcDbEntity
  8
0-1
  6
JWW_CENTER1
 62
     4
370
     9
100
AcDbLine
 10
-72.26431611783426
 20
966.3472903987707
 30
0.0
 11
-107.2780407799962
 21
905.7017693894801
 31
0.0
  0
LINE
  5
1EC
330
1F
100
AcDbEntity
  8
0-1
  6
Continuous
 62
     2
370
     9
100
AcDbLine
 10
-124.4100317797853
 20
956.02855491524
 30
0.0
 11
-121.2017270394981
 21
961.5853110121575
 31
0.0
  0
LINE
  5
1ED
330
1F
100
AcDbEntity
  8
0-1
  6
Continuous
 62
     2
370
     9
100
AcDbLine
 10
-127.2966647506468
 20
957.6953095605106
 30
0.0
 11
-124.5537943167361
 21
962.4461541551051
 31
0.0
  0
LINE
  5
1EE
330
1F
100
AcDbEntity
  8
0-1
  6
Continuous
 62
     4
370
     9
100
AcDbLine
 10
-65.94544536720065
 20
933.9908219918868
 30
0.0
 11
-77.27818924388998
 21
914.3619157418868
 31
0.0
  0
LINE
  5
1EF
330
1F
100
AcDbEntity
  8
0-1
  6
Continuous
 62
     4
370
     9
100
AcDbLine
 10
-114.7687865306298
 20
936.0284889312874
 30
0.0
 11
-103.4454453672006
 21
955.641311592816
 31
0.0
  0
LINE
  5
1F0
330
1F
100
AcDbEntity
  8
0-1
  6
Continuous
 62
     2
370
     9
100
AcDbLine
 10
-304.7690422184465
 20
855.2314687665915
 30
0.0
 11
-310.2551542460014
 21
855.2314687665915
 31
0.0
  0
LINE
  5
1F1
330
1F
100
AcDbEntity
  8
0-1
  6
Continuous
 62
     2
370
     9
100
AcDbLine
 10
-304.769165938358
 20
851.8982069158733
 30
0.0
 11
-311.1854042591983
 21
851.8982069158733
 31
0.0
  0
LINE
  5
1F2
330
1F
100
AcDbEntity
  8
0-1
  6
Continuous
 62
     4
370
     9
100
AcDbLine
 10
-314.9161781849796
 20
833.54881198872
 30
0.0
 11
-292.2506904316012
 21
833.5485645488973
 31
0.0
  0
LINE
  5
1F3
330
1F
100
AcDbEntity
  8
0-1
  6
JWW_CENTER1
 62
     4
370
     9
100
AcDbLine
 10
-304.769165938358
 20
802.3253705296827
 30
0.0
 11
-304.7690422184465
 21
843.5485975408733
 31
0.0
  0
LINE
  5
1F4
330
1F
100
AcDbEntity
  8
0-0
  6
JWW_CENTER1
 62
     3
370
     9
100
AcDbLine
 10
-513.559259437619
 20
811.8980749479681
 30
0.0
 11
199.9541303559835
 21
811.8980749479681
 31
0.0
  0
LINE
  5
1F5
330
1F
100
AcDbEntity
  8
0-0
  6
JWW_CENTER1
 62
     3
370
     9
100
AcDbLine
 10
-161.4356896397936
 20
1170.971363324235
 30
0.0
 11
-161.4356896397936
 21
791.0487954927314
 31
0.0
  0
LINE
  5
1F6
330
1F
100
AcDbEntity
  8
0-E
  6
Continuous
 62
     7
370
     9
100
AcDbLine
 10
83.56437634415897
 20
-29.13416976011888
 30
0.0
 11
93.13138964652374
 21
-6.037146956064703
 31
0.0
  0
LINE
  5
1F7
330
1F
100
AcDbEntity
  8
0-E
  6
Continuous
 62
     7
370
     9
100
AcDbLine
 10
83.56437634415897
 20
-29.13416976011888
 30
0.0
 11
98.78341007515552
 21
-9.30038333697695
 31
0.0
  0
LINE
  5
1F8
330
1F
100
AcDbEntity
  8
0-E
  6
Continuous
 62
     7
370
     9
100
AcDbLine
 10
57.12840057346646
 20
-13.62167239947695
 30
0.0
 11
66.69541387583138
 21
9.475350404577227
 31
0.0
  0
LINE
  5
1F9
330
1F
100
AcDbEntity
  8
0-E
  6
Continuous
 62
     7
370
     9
100
AcDbLine
 10
57.12840057346646
 20
-13.62167239947695
 30
0.0
 11
72.34743430446315
 21
6.212114023664981
 31
0.0
  0
LINE
  5
1FA
330
1F
100
AcDbEntity
  8
0-E
  6
Continuous
 62
     7
370
     9
100
AcDbLine
 10
-358.1206558560098
 20
175.6720188748051
 30
0.0
 11
-373.3396895870064
 21
195.505805297947
 31
0.0
  0
LINE
  5
1FB
330
1F
100
AcDbEntity
  8
0-E
  6
Continuous
 62
     7
370
     9
100
AcDbLine
 10
-358.1206558560098
 20
175.6720188748051
 30
0.0
 11
-367.6877928782861
 21
198.7690416788593
 31
0.0
  0
LINE
  5
1FC
330
1F
100
AcDbEntity
  8
0-E
  6
Continuous
 62
     7
370
     9
100
AcDbLine
 10
-304.7690422184465
 20
26.34456031272748
 30
0.0
 11
-319.9880759494431
 21
46.17834673586927
 31
0.0
  0
LINE
  5
1FD
330
1F
100
AcDbEntity
  8
0-E
  6
Continuous
 62
     7
370
     9
100
AcDbLine
 10
-304.7690422184465
 20
26.34456031272748
 30
0.0
 11
-314.3361792407228
 21
49.44158311678137
 31
0.0
  0
LINE
  5
1FE
330
1F
100
AcDbEntity
  8
0-E
  6
Continuous
 62
     7
370
     9
100
AcDbLine
 10
10.29769230171809
 20
184.1994137623686
 30
0.0
 11
19.86470560408293
 21
207.2964365664224
 31
0.0
  0
LINE
  5
1FF
330
1F
100
AcDbEntity
  8
0-E
  6
Continuous
 62
     7
370
     9
100
AcDbLine
 10
10.29769230171809
 20
184.1994137623686
 30
0.0
 11
25.5167260327147
 21
204.0332001855103
 31
0.0
  0
LINE
  5
200
330
1F
100
AcDbEntity
  8
0-E
  6
Continuous
 62
     7
370
     9
100
AcDbLine
 10
83.56437634415897
 20
-29.13416976011888
 30
0.0
 11
264.4676306727064
 21
284.1993725223981
 31
0.0
  0
LINE
  5
201
330
1F
100
AcDbEntity
  8
0-E
  6
Continuous
 62
     7
370
     9
100
AcDbLine
 10
57.12840057346646
 20
-13.62167239947695
 30
0.0
 11
298.3574836604596
 21
404.1993972663803
 31
0.0
  0
LINE
  5
202
330
1F
100
AcDbEntity
  8
0-E
  6
Continuous
 62
     7
370
     9
100
AcDbLine
 10
298.3574836604596
 20
404.1993972663803
 30
0.0
 11
661.9443218414137
 21
404.1993972663803
 31
0.0
  0
LINE
  5
203
330
1F
100
AcDbEntity
  8
0-E
  6
Continuous
 62
     7
370
     9
100
AcDbLine
 10
165.1992277482975
 20
452.4968050867983
 30
0.0
 11
206.5966523946236
 21
524.1994220103627
 31
0.0
  0
LINE
  5
204
330
1F
100
AcDbEntity
  8
0-E
  6
Continuous
 62
     7
370
     9
100
AcDbLine
 10
10.29769230171809
 20
184.1994137623686
 30
0.0
 11
109.8954376300543
 21
356.7079009482848
 31
0.0
  0
LINE
  5
205
330
1F
100
AcDbEntity
  8
0-E
  6
Continuous
 62
     7
370
     9
100
AcDbLine
 10
120.7201875508736
 20
375.4567874690827
 30
0.0
 11
154.0582497341506
 21
433.2000867986858
 31
0.0
  0
LINE
  5
206
330
1F
100
AcDbEntity
  8
0-E
  6
Continuous
 62
     7
370
     9
100
AcDbLine
 10
-304.7690422184465
 20
26.34456031272748
 30
0.0
 11
-522.9234958053343
 21
404.1993972663803
 31
0.0
  0
LINE
  5
207
330
1F
100
AcDbEntity
  8
0-E
  6
Continuous
 62
     7
370
     9
100
AcDbLine
 10
-358.1206558560098
 20
175.6720188748051
 30
0.0
 11
-559.3431735397093
 21
524.1994220103627
 31
0.0
  0
LINE
  5
208
330
1F
100
AcDbEntity
  8
0-E
  6
Continuous
 62
     7
370
     9
100
AcDbLine
 10
264.4676306727064
 20
284.1993725223981
 30
0.0
 11
651.2398276743955
 21
284.1993725223981
 31
0.0
  0
LINE
  5
209
330
1F
100
AcDbEntity
  8
0-E
  6
Continuous
 62
     7
370
     9
100
AcDbLine
 10
-914.6270447522304
 20
524.1994220103627
 30
0.0
 11
-559.3431735397093
 21
524.1994220103627
 31
0.0
  0
LINE
  5
20A
330
1F
100
AcDbEntity
  8
0-E
  6
Continuous
 62
     7
370
     9
100
AcDbLine
 10
-854.0937377025048
 20
404.1993972663803
 30
0.0
 11
-522.9234958053343
 21
404.1993972663803
 31
0.0
  0
LINE
  5
20B
330
1F
100
AcDbEntity
  8
0-E
  6
Continuous
 62
     7
370
     9
100
AcDbLine
 10
206.5966523946236
 20
524.1994220103627
 30
0.0
 11
630.6788156125289
 21
524.1994220103627
 31
0.0
  0
LINE
  5
20C
330
1F
100
AcDbEntity
  8
0-4
  6
Continuous
 62
     7
370
     9
100
AcDbLine
 10
-358.269119749591
 20
184.1992900424572
 30
0.0
 11
-597.7689696360985
 21
184.1992900424572
 31
0.0
  0
LINE
  5
20D
330
1F
100
AcDbEntity
  8
0-4
  6
Continuous
 62
     7
370
     9
100
AcDbLine
 10
35.39774047000378
 20
184.1992900424572
 30
0.0
 11
354.8977305724106
 21
184.1992900424572
 31
0.0
  0
LINE
  5
20E
330
1F
100
AcDbEntity
  8
0-4
  6
Continuous
 62
     7
370
     9
100
AcDbLine
 10
-316.4357061357819
 20
284.1992488024869
 30
0.0
 11
-6.435673143805332
 21
284.1992488024869
 31
0.0
  0
LINE
  5
20F
330
1F
100
AcDbEntity
  8
0-4
  6
Continuous
 62
     7
370
     9
100
AcDbLine
 10
-316.4357061357819
 20
209.1992488024869
 30
0.0
 11
-316.4357061357819
 21
287.1992092121151
 31
0.0
  0
LINE
  5
210
330
1F
100
AcDbEntity
  8
0-4
  6
Continuous
 62
     7
370
     9
100
AcDbLine
 10
-6.435673143805332
 20
209.1992488024869
 30
0.0
 11
-6.435673143805332
 21
287.1992092121151
 31
0.0
  0
LINE
  5
211
330
1F
100
AcDbEntity
  8
0-4
  6
Continuous
 62
     7
370
     9
100
AcDbLine
 10
-316.4357061357819
 20
284.1992488024869
 30
0.0
 11
-291.649535382509
 21
287.4623614634876
 31
0.0
  0
LINE
  5
212
330
1F
100
AcDbEntity
  8
0-4
  6
Continuous
 62
     7
370
     9
100
AcDbLine
 10
-316.4357061357819
 20
284.1992488024869
 30
0.0
 11
-291.649535382509
 21
280.9361361414858
 31
0.0
  0
LINE
  5
213
330
1F
100
AcDbEntity
  8
0-4
  6
Continuous
 62
     7
370
     9
100
AcDbLine
 10
-6.435673143805332
 20
284.1992488024869
 30
0.0
 11
-31.22172017716707
 21
287.4623614634876
 31
0.0
  0
LINE
  5
214
330
1F
100
AcDbEntity
  8
0-4
  6
Continuous
 62
     7
370
     9
100
AcDbLine
 10
-6.435673143805332
 20
284.1992488024869
 30
0.0
 11
-31.22172017716707
 21
280.9361361414858
 31
0.0
  0
LINE
  5
215
330
1F
100
AcDbEntity
  8
0-0
  6
JWW_CENTER1
 62
     3
370
     9
100
AcDbLine
 10
-161.4356896397936
 20
206.2542200334835
 30
0.0
 11
-161.4356896397936
 21
-362.029314660879
 31
0.0
  0
ARC
  5
216
330
1F
100
AcDbEntity
  8
0-1
  6
Continuous
 62
     2
370
     9
100
AcDbCircle
 10
-385.6561304785816
 20
-50.45890483454883
 30
0.0
 40
6.666666752583272
100
AcDbArc
 50
190.6148834228516
 51
255.0005035400391
  0
ARC
  5
217
330
1F
100
AcDbEntity
  8
0-1
  6
JWW_DASHED1
 62
     2
370
     9
100
AcDbCircle
 10
62.78487491890552
 20
-50.45890483454883
 30
0.0
 40
6.666666752583272
100
AcDbArc
 50
284.9994964599609
 51
349.3851165771484
  0
ARC
  5
218
330
1F
100
AcDbEntity
  8
0-1
  6
Continuous
 62
     2
370
     9
100
AcDbCircle
 10
-268.8679983523147
 20
-72.46743985883086
 30
0.0
 40
5.000000064437453
100
AcDbArc
 50
11.31021118164062
 51
90.0
  0
ARC
  5
219
330
1F
100
AcDbEntity
  8
0-1
  6
Continuous
 62
     2
370
     9
100
AcDbCircle
 10
31.08659644023163
 20
-54.13388108032592
 30
0.0
 40
5.000000064437453
100
AcDbArc
 50
90.0
 51
169.91162109375
  0
ARC
  5
21A
330
1F
100
AcDbEntity
  8
0-1
  6
Continuous
 62
     2
370
     9
100
AcDbCircle
 10
17.74340400463217
 20
-62.52753474375481
 30
0.0
 40
6.666666752583272
100
AcDbArc
 50
284.9994964599609
 51
349.9115142822265
  0
ARC
  5
21B
330
1F
100
AcDbEntity
  8
0-1
  6
Continuous
 62
     2
370
     9
100
AcDbCircle
 10
65.66606421366906
 20
-44.13384808834948
 30
0.0
 40
5.000000064437453
100
AcDbArc
 50
270.0
 51
349.3838348388672
  0
ARC
  5
21C
330
1F
100
AcDbEntity
  8
0-1
  6
Continuous
 62
     2
370
     9
100
AcDbCircle
 10
95.09235024090742
 20
-38.35117943336627
 30
0.0
 40
10.00000012887491
100
AcDbArc
 50
188.7071380615235
 51
285.0002746582031
  0
ARC
  5
21D
330
1F
100
AcDbEntity
  8
0-1
  6
Continuous
 62
     2
370
     9
100
AcDbCircle
 10
-417.9638532404059
 20
-38.35117943336627
 30
0.0
 40
10.00000012887491
100
AcDbArc
 50
254.9997253417969
 51
351.2928619384766
  0
ARC
  5
21E
330
1F
100
AcDbEntity
  8
0-1
  6
Continuous
 62
     4
370
     9
100
AcDbCircle
 10
-323.5143408618165
 20
-55.13477516288489
 30
0.0
 40
9.333911457577267
100
AcDbArc
 50
47.92556762695312
 51
132.0746307373047
  0
ARC
  5
21F
330
1F
100
AcDbEntity
  8
0-1
  6
Continuous
 62
     4
370
     9
100
AcDbCircle
 10
-304.7690422184465
 20
-79.43212854654206
 30
0.0
 40
33.63136729678592
100
AcDbArc
 50
68.19786071777344
 51
111.8021392822266
  0
ARC
  5
220
330
1F
100
AcDbEntity
  8
0-1
  6
Continuous
 62
     4
370
     9
100
AcDbCircle
 10
-286.0237435750767
 20
-55.13477516288489
 30
0.0
 40
9.33396558503847
100
AcDbArc
 50
47.92572021484375
 51
132.0742797851562
  0
ARC
  5
221
330
1F
100
AcDbEntity
  8
0-1
  6
Continuous
 62
     2
370
     9
100
AcDbCircle
 10
-12.25471545271603
 20
-75.80070170954883
 30
0.0
 40
3.333333376291636
100
AcDbArc
 50
90.0
 51
164.0540161132812
  0
ARC
  5
222
330
1F
100
AcDbEntity
  8
0-5
  6
Continuous
 62
     2
370
     9
100
AcDbCircle
 10
-487.5318068140967
 20
-316.9889572258072
 30
0.0
 40
5.000000064437453
100
AcDbArc
 50
194.0364074707031
 51
270.0
  0
ARC
  5
223
330
1F
100
AcDbEntity
  8
0-5
  6
Continuous
 62
     2
370
     9
100
AcDbCircle
 10
-442.416598832678
 20
-326.988742777961
 30
0.0
 40
5.000000064437453
100
AcDbArc
 50
14.03511047363281
 51
90.0
  0
ARC
  5
224
330
1F
100
AcDbEntity
  8
0-5
  6
Continuous
 62
     2
370
     9
100
AcDbCircle
 10
-431.2754970986197
 20
-330.3222520685014
 30
0.0
 40
5.000000064437453
100
AcDbArc
 50
194.0364074707031
 51
270.0
  0
ARC
  5
225
330
1F
100
AcDbEntity
  8
0-5
  6
Continuous
 62
     2
370
     9
100
AcDbCircle
 10
-432.0063106147725
 20
-313.6554479352667
 30
0.0
 40
5.000000064437453
100
AcDbArc
 50
14.03640747070312
 51
90.0
  0
ARC
  5
226
330
1F
100
AcDbEntity
  8
0-5
  6
Continuous
 62
     2
370
     9
100
AcDbCircle
 10
-420.865085160803
 20
-316.9889572258072
 30
0.0
 40
5.000000064437453
100
AcDbArc
 50
194.0364074707031
 51
270.0
  0
ARC
  5
227
330
1F
100
AcDbEntity
  8
0-5
  6
Continuous
 62
     2
370
     9
100
AcDbCircle
 10
17.46800348203919
 20
-330.3222520685014
 30
0.0
 40
5.000000064437453
100
AcDbArc
 50
194.0352783203125
 51
270.0
  0
ARC
  5
228
330
1F
100
AcDbEntity
  8
0-5
  6
Continuous
 62
     2
370
     9
100
AcDbCircle
 10
164.660551254421
 20
-316.9889572258072
 30
0.0
 40
5.000000064437453
100
AcDbArc
 50
270.0
 51
345.9650573730469
  0
ARC
  5
229
330
1F
100
AcDbEntity
  8
0-5
  6
Continuous
 62
     2
370
     9
100
AcDbCircle
 10
119.5453432730019
 20
-326.988742777961
 30
0.0
 40
5.000000064437453
100
AcDbArc
 50
90.0
 51
165.9650573730469
  0
ARC
  5
22A
330
1F
100
AcDbEntity
  8
0-5
  6
Continuous
 62
     2
370
     9
100
AcDbCircle
 10
108.4041178190324
 20
-330.3222520685014
 30
0.0
 40
5.000000064437453
100
AcDbArc
 50
270.0
 51
345.9650573730469
  0
ARC
  5
22B
330
1F
100
AcDbEntity
  8
0-5
  6
Continuous
 62
     2
370
     9
100
AcDbCircle
 10
97.99382960112688
 20
-316.9889572258072
 30
0.0
 40
5.000000064437453
100
AcDbArc
 50
270.0
 51
345.9650573730469
  0
ARC
  5
22C
330
1F
100
AcDbEntity
  8
0-5
  6
Continuous
 62
     2
370
     9
100
AcDbCircle
 10
109.1350550550965
 20
-313.6554479352667
 30
0.0
 40
5.000000064437453
100
AcDbArc
 50
90.0
 51
165.9650573730469
  0
ARC
  5
22D
330
1F
100
AcDbEntity
  8
0-5
  6
Continuous
 62
     2
370
     9
100
AcDbCircle
 10
-413.2339173108241
 20
-326.988742777961
 30
0.0
 40
5.000000064437453
100
AcDbArc
 50
20.55572509765625
 51
90.0
  0
ARC
  5
22E
330
1F
100
AcDbEntity
  8
0-5
  6
Continuous
 62
     2
370
     9
100
AcDbCircle
 10
-362.9706000995699
 20
-326.988742777961
 30
0.0
 40
5.000000064437453
100
AcDbArc
 50
90.0
 51
159.4445037841797
  0
ARC
  5
22F
330
1F
100
AcDbEntity
  8
0-5
  6
Continuous
 62
     2
370
     9
100
AcDbCircle
 10
-340.3395064815376
 20
-330.3222520685014
 30
0.0
 40
5.000000064437453
100
AcDbArc
 50
270.0
 51
345.9647216796875
  0
ARC
  5
230
330
1F
100
AcDbEntity
  8
0-0
  6
Continuous
 62
     3
370
     9
100
AcDbCircle
 10
-465.4526277204525
 20
-99.82154109141106
 30
0.0
 40
36.66666520608438
100
AcDbArc
 50
74.99996948242188
 51
121.7902069091797
  0
ARC
  5
231
330
1F
100
AcDbEntity
  8
0-0
  6
Continuous
 62
     3
370
     9
100
AcDbCircle
 10
-386.8573270975639
 20
-74.29379318970092
 30
0.0
 40
5.000000064437453
100
AcDbArc
 50
254.9999084472656
 51
318.4355773925781
  0
ARC
  5
232
330
1F
100
AcDbEntity
  8
0-0
  6
Continuous
 62
     3
370
     9
100
AcDbCircle
 10
-403.4258976212126
 20
-69.85422789198111
 30
0.0
 40
5.000000064437453
100
AcDbArc
 50
191.5648956298828
 51
254.9999084472656
  0
ARC
  5
233
330
1F
100
AcDbEntity
  8
0-0
  6
Continuous
 62
     3
370
     9
100
AcDbCircle
 10
-423.896099268172
 20
-57.03610276001342
 30
0.0
 40
5.416692108721347
100
AcDbArc
 50
187.6205902099609
 51
322.37890625
  0
ARC
  5
234
330
1F
100
AcDbEntity
  8
0-0
  6
Continuous
 62
     3
370
     9
100
AcDbCircle
 10
-412.7989181026314
 20
-65.61731580899988
 30
0.0
 40
3.333333376291636
100
AcDbArc
 50
11.56642150878906
 51
75.00077819824219
  0
ARC
  5
235
330
1F
100
AcDbEntity
  8
0-0
  6
Continuous
 62
     3
370
     9
100
AcDbCircle
 10
-376.6214839546163
 20
-75.31089458064258
 30
0.0
 40
3.333333376291636
100
AcDbArc
 50
75.00022888183594
 51
138.4349822998047
  0
ARC
  5
236
330
1F
100
AcDbEntity
  8
0-0
  6
Continuous
 62
     3
370
     9
100
AcDbCircle
 10
-362.720562158797
 20
-73.42800125030053
 30
0.0
 40
5.416692108721347
100
AcDbArc
 50
187.6205902099609
 51
322.37890625
  0
ARC
  5
237
330
1F
100
AcDbEntity
  8
0-0
  6
Continuous
 62
     3
370
     9
100
AcDbCircle
 10
-443.2147159805876
 20
-51.85966167048633
 30
0.0
 40
5.416692108721347
100
AcDbArc
 50
187.6179962158203
 51
322.3796997070312
  0
ARC
  5
238
330
1F
100
AcDbEntity
  8
0-0
  6
Continuous
 62
     3
370
     9
100
AcDbCircle
 10
-427.0620917987887
 20
-79.04995774048217
 30
0.0
 40
6.666666752583272
100
AcDbArc
 50
11.56620788574219
 51
75.00050354003906
  0
ARC
  5
239
330
1F
100
AcDbEntity
  8
0-0
  6
JWW_DASHED1
 62
     3
370
     9
100
AcDbCircle
 10
-370.9855471144559
 20
-94.07574097000065
 30
0.0
 40
6.666666752583272
100
AcDbArc
 50
74.99948120117188
 51
138.4350738525391
  0
ARC
  5
23A
330
1F
100
AcDbEntity
  8
0-0
  6
JWW_DASHED1
 62
     3
370
     9
100
AcDbCircle
 10
-382.3484786495064
 20
-89.30547234932916
 30
0.0
 40
5.000000064437453
100
AcDbArc
 50
255.0012817382812
 51
318.4365081787109
  0
ARC
  5
23B
330
1F
100
AcDbEntity
  8
0-0
  6
Continuous
 62
     3
370
     9
100
AcDbCircle
 10
-414.8363376022093
 20
-80.60053938902513
 30
0.0
 40
5.000000064437453
100
AcDbArc
 50
191.5646057128906
 51
254.9999084472656
  0
ARC
  5
23C
330
1F
100
AcDbEntity
  8
0-0
  6
Continuous
 62
     3
370
     9
100
AcDbCircle
 10
-289.2824023192699
 20
-91.98883350589583
 30
0.0
 40
5.000000064437453
100
AcDbArc
 50
5.856887817382812
 51
90.0
  0
ARC
  5
23D
330
1F
100
AcDbEntity
  8
0-0
  6
Continuous
 62
     3
370
     9
100
AcDbCircle
 10
-339.045025049422
 20
-180.3221283485901
 30
0.0
 40
5.000000064437453
100
AcDbArc
 50
7.000335693359375
 51
90.0
  0
ARC
  5
23E
330
1F
100
AcDbEntity
  8
0-0
  6
Continuous
 62
     3
370
     9
100
AcDbCircle
 10
-360.7415384573613
 20
-146.9888912418546
 30
0.0
 40
5.000000064437453
100
AcDbArc
 50
8.53070068359375
 51
90.0
  0
ARC
  5
23F
330
1F
100
AcDbEntity
  8
0-0
  6
JWW_DASHED1
 62
     3
370
     9
100
AcDbCircle
 10
-351.5338077774626
 20
-146.9888912418546
 30
0.0
 40
5.000000064437453
100
AcDbArc
 50
7.000518798828125
 51
90.0
  0
ARC
  5
240
330
1F
100
AcDbEntity
  8
0-0
  6
JWW_DASHED1
 62
     3
370
     9
100
AcDbCircle
 10
-362.3607846566856
 20
-99.83762467988228
 30
0.0
 40
10.00000012887491
100
AcDbArc
 50
7.000076293945312
 51
74.99972534179688
  0
ARC
  5
241
330
1F
100
AcDbEntity
  8
0-0
  6
Continuous
 62
     3
370
     9
100
AcDbCircle
 10
-415.9950982916095
 20
-90.64276087076081
 30
0.0
 40
5.000000064437453
100
AcDbArc
 50
6.87408447265625
 51
74.99990844726561
  0
ARC
  5
242
330
1F
100
AcDbEntity
  8
0-0
  6
Continuous
 62
     3
370
     9
100
AcDbCircle
 10
-341.5411979801652
 20
-91.61247753566784
 30
0.0
 40
10.00000012887491
100
AcDbArc
 50
27.5399169921875
 51
74.99990844726562
  0
ARC
  5
243
330
1F
100
AcDbEntity
  8
0-0
  6
JWW_DASHED1
 62
     3
370
     9
100
AcDbCircle
 10
-341.5411979801652
 20
-91.61247753566784
 30
0.0
 40
10.00000012887491
100
AcDbArc
 50
6.999725341796875
 51
27.5399169921875
  0
ARC
  5
244
330
1F
100
AcDbEntity
  8
0-0
  6
JWW_DASHED1
 62
     3
370
     9
100
AcDbCircle
 10
-317.9577084848106
 20
-119.5756518916644
 30
0.0
 40
10.00000012887491
100
AcDbArc
 50
187.0004272460938
 51
263.7596130371094
  0
ARC
  5
245
330
1F
100
AcDbEntity
  8
0-0
  6
JWW_DASHED1
 62
     3
370
     9
100
AcDbCircle
 10
-299.3086639324457
 20
-135.0278976554947
 30
0.0
 40
3.333333376291636
100
AcDbArc
 50
9.462677001953125
 51
83.7589111328125
  0
ARC
  5
246
330
1F
100
AcDbEntity
  8
0-0
  6
Continuous
 62
     3
370
     9
100
AcDbCircle
 10
142.5812484408652
 20
-99.82154109141106
 30
0.0
 40
36.66666520608438
100
AcDbArc
 50
58.20979309082031
 51
105.0000305175781
  0
ARC
  5
247
330
1F
100
AcDbEntity
  8
0-0
  6
Continuous
 62
     3
370
     9
100
AcDbCircle
 10
63.98594781797669
 20
-74.29379318970092
 30
0.0
 40
5.000000064437453
100
AcDbArc
 50
221.5644226074219
 51
285.0000915527344
  0
ARC
  5
248
330
1F
100
AcDbEntity
  8
0-0
  6
Continuous
 62
     3
370
     9
100
AcDbCircle
 10
80.55451834162533
 20
-69.85422789198111
 30
0.0
 40
5.000000064437453
100
AcDbArc
 50
285.0000915527344
 51
348.4351043701172
  0
ARC
  5
249
330
1F
100
AcDbEntity
  8
0-0
  6
Continuous
 62
     3
370
     9
100
AcDbCircle
 10
101.0247199885847
 20
-57.03610276001342
 30
0.0
 40
5.416692108721347
100
AcDbArc
 50
217.62109375
 51
352.3794097900391
  0
ARC
  5
24A
330
1F
100
AcDbEntity
  8
0-0
  6
Continuous
 62
     3
370
     9
100
AcDbCircle
 10
89.92753882304406
 20
-65.61731580899988
 30
0.0
 40
3.333333376291636
100
AcDbArc
 50
104.9992218017578
 51
168.4335784912109
  0
ARC
  5
24B
330
1F
100
AcDbEntity
  8
0-0
  6
Continuous
 62
     3
370
     9
100
AcDbCircle
 10
53.75010467502896
 20
-75.31089458064258
 30
0.0
 40
3.333333376291636
100
AcDbArc
 50
41.56501770019531
 51
104.9997711181641
  0
ARC
  5
24C
330
1F
100
AcDbEntity
  8
0-0
  6
Continuous
 62
     3
370
     9
100
AcDbCircle
 10
39.84918287920969
 20
-73.42800125030053
 30
0.0
 40
5.416692108721347
100
AcDbArc
 50
217.62109375
 51
352.3794097900391
  0
ARC
  5
24D
330
1F
100
AcDbEntity
  8
0-0
  6
Continuous
 62
     3
370
     9
100
AcDbCircle
 10
120.3433367010003
 20
-51.85966167048633
 30
0.0
 40
5.416692108721347
100
AcDbArc
 50
217.6203002929688
 51
352.3820037841797
  0
ARC
  5
24E
330
1F
100
AcDbEntity
  8
0-0
  6
Continuous
 62
     3
370
     9
100
AcDbCircle
 10
104.1907125192014
 20
-79.04995774048217
 30
0.0
 40
6.666666752583272
100
AcDbArc
 50
104.9994964599609
 51
168.4337921142578
  0
ARC
  5
24F
330
1F
100
AcDbEntity
  8
0-0
  6
Continuous
 62
     3
370
     9
100
AcDbCircle
 10
48.11416783486855
 20
-94.07574097000065
 30
0.0
 40
6.666666752583272
100
AcDbArc
 50
41.56492614746094
 51
105.0005187988281
  0
ARC
  5
250
330
1F
100
AcDbEntity
  8
0-0
  6
Continuous
 62
     3
370
     9
100
AcDbCircle
 10
59.47709936991906
 20
-89.30547234932916
 30
0.0
 40
5.000000064437453
100
AcDbArc
 50
221.5634918212891
 51
284.9987182617188
  0
ARC
  5
251
330
1F
100
AcDbEntity
  8
0-0
  6
Continuous
 62
     3
370
     9
100
AcDbCircle
 10
91.96495832262201
 20
-80.60053938902513
 30
0.0
 40
5.000000064437453
100
AcDbArc
 50
285.0000915527344
 51
348.4353942871094
  0
ARC
  5
252
330
1F
100
AcDbEntity
  8
0-0
  6
Continuous
 62
     3
370
     9
100
AcDbCircle
 10
16.17364576983476
 20
-180.3221283485901
 30
0.0
 40
5.000000064437453
100
AcDbArc
 50
90.0
 51
172.9996643066406
  0
ARC
  5
253
330
1F
100
AcDbEntity
  8
0-0
  6
JWW_PHANTOM1
 62
     3
370
     9
100
AcDbCircle
 10
37.87015917777374
 20
-146.9888912418546
 30
0.0
 40
5.000000064437453
100
AcDbArc
 50
90.0
 51
171.4692993164062
  0
ARC
  5
254
330
1F
100
AcDbEntity
  8
0-0
  6
Continuous
 62
     3
370
     9
100
AcDbCircle
 10
39.48940537709824
 20
-99.83762467988228
 30
0.0
 40
10.00000012887491
100
AcDbArc
 50
105.0002746582031
 51
172.9999237060547
  0
ARC
  5
255
330
1F
100
AcDbEntity
  8
0-0
  6
JWW_PHANTOM1
 62
     3
370
     9
100
AcDbCircle
 10
77.46424239673502
 20
-136.9888582498781
 30
0.0
 40
5.000000064437453
100
AcDbArc
 50
270.0
 51
353.1259155273438
  0
ARC
  5
256
330
1F
100
AcDbEntity
  8
0-0
  6
JWW_PHANTOM1
 62
     3
370
     9
100
AcDbCircle
 10
93.12371901202219
 20
-90.64276087076081
 30
0.0
 40
5.000000064437453
100
AcDbArc
 50
105.0000915527344
 51
173.1259155273437
  0
ARC
  5
257
330
1F
100
AcDbEntity
  8
0-0
  6
Continuous
 62
     3
370
     9
100
AcDbCircle
 10
18.66981870057799
 20
-91.61247753566784
 30
0.0
 40
10.00000012887491
100
AcDbArc
 50
105.0000915527344
 51
173.0002746582031
  0
ARC
  5
258
330
1F
100
AcDbEntity
  8
0-0
  6
Continuous
 62
     3
370
     9
100
AcDbCircle
 10
-4.913670794776692
 20
-119.5756518916644
 30
0.0
 40
10.00000012887491
100
AcDbArc
 50
276.2403869628906
 51
352.9995727539063
  0
ARC
  5
259
330
1F
100
AcDbEntity
  8
0-0
  6
Continuous
 62
     3
370
     9
100
AcDbCircle
 10
-23.56271534714153
 20
-135.0278976554947
 30
0.0
 40
3.333333376291636
100
AcDbArc
 50
96.24108886718749
 51
170.5373229980469
  0
ARC
  5
25A
330
1F
100
AcDbEntity
  8
0-0
  6
Continuous
 62
     4
370
     9
100
AcDbCircle
 10
-369.3571456416939
 20
-347.6549167644474
 30
0.0
 40
9.333911457577267
100
AcDbArc
 50
227.9255676269531
 51
312.0746307373047
  0
ARC
  5
25B
330
1F
100
AcDbEntity
  8
0-0
  6
Continuous
 62
     4
370
     9
100
AcDbCircle
 10
-388.1026917248866
 20
-323.3573159409677
 30
0.0
 40
33.63136729678592
100
AcDbArc
 50
248.1978607177734
 51
291.8021392822265
  0
ARC
  5
25C
330
1F
100
AcDbEntity
  8
0-0
  6
Continuous
 62
     4
370
     9
100
AcDbCircle
 10
-406.848237808079
 20
-347.6546693246249
 30
0.0
 40
9.33396558503847
100
AcDbArc
 50
227.9257202148438
 51
312.0742797851562
  0
ARC
  5
25D
330
1F
100
AcDbEntity
  8
0-0
  6
Continuous
 62
     3
370
     9
100
AcDbCircle
 10
-400.3354979564111
 20
-136.9888582498781
 30
0.0
 40
5.000000064437453
100
AcDbArc
 50
186.8746185302734
 51
257.2880401611328
  0
ARC
  5
25E
330
1F
100
AcDbEntity
  8
0-0
  6
Continuous
 62
     3
370
     9
100
AcDbCircle
 10
-161.4356896397936
 20
811.8980749479681
 30
0.0
 40
330.0000061859956
100
AcDbArc
 50
0.0
 51
180.0
  0
ARC
  5
25F
330
1F
100
AcDbEntity
  8
0-0
  6
Continuous
 62
     3
370
     9
100
AcDbCircle
 10
-161.4356896397936
 20
811.8980749479681
 30
0.0
 40
333.3333298966692
100
AcDbArc
 50
0.0
 51
180.0
  0
ARC
  5
260
330
1F
100
AcDbEntity
  8
0-1
  6
Continuous
 62
     2
370
     9
100
AcDbCircle
 10
-161.4356896397936
 20
811.8980749479681
 30
0.0
 40
300.0
100
AcDbArc
 50
0.0
 51
180.0
  0
ARC
  5
261
330
1F
100
AcDbEntity
  8
0-1
  6
Continuous
 62
     2
370
     9
100
AcDbCircle
 10
-161.4356896397936
 20
811.8980749479681
 30
0.0
 40
298.3333381446632
100
AcDbArc
 50
0.0
 51
180.0
  0
ARC
  5
262
330
1F
100
AcDbEntity
  8
0-1
  6
Continuous
 62
     2
370
     9
100
AcDbCircle
 10
-161.4356896397936
 20
811.8980749479681
 30
0.0
 40
244.9999731940192
100
AcDbArc
 50
139.2914886474609
 51
160.7085418701172
  0
ARC
  5
263
330
1F
100
AcDbEntity
  8
0-1
  6
Continuous
 62
     2
370
     9
100
AcDbCircle
 10
-161.4356896397936
 20
811.8980749479681
 30
0.0
 40
248.3333432996595
100
AcDbArc
 50
138.0777740478516
 51
161.9222412109375
  0
ARC
  5
264
330
1F
100
AcDbEntity
  8
0-1
  6
Continuous
 62
     2
370
     9
100
AcDbCircle
 10
-161.4356896397936
 20
811.8980749479681
 30
0.0
 40
234.9999711320207
100
AcDbArc
 50
139.4744873046875
 51
160.5255737304688
  0
ARC
  5
265
330
1F
100
AcDbEntity
  8
0-1
  6
Continuous
 62
     2
370
     9
100
AcDbCircle
 10
-161.4356896397936
 20
811.8980749479681
 30
0.0
 40
229.9999701010214
100
AcDbArc
 50
138.3233795166016
 51
161.6766510009766
  0
ARC
  5
266
330
1F
100
AcDbEntity
  8
0-1
  6
Continuous
 62
     2
370
     9
100
AcDbCircle
 10
-161.4356896397936
 20
811.8980749479681
 30
0.0
 40
244.9999731940192
100
AcDbArc
 50
109.2914886474609
 51
130.7085418701172
  0
ARC
  5
267
330
1F
100
AcDbEntity
  8
0-1
  6
Continuous
 62
     2
370
     9
100
AcDbCircle
 10
-161.4356896397936
 20
811.8980749479681
 30
0.0
 40
248.3333432996595
100
AcDbArc
 50
108.0777740478515
 51
131.9222412109375
  0
ARC
  5
268
330
1F
100
AcDbEntity
  8
0-1
  6
Continuous
 62
     2
370
     9
100
AcDbCircle
 10
-161.4356896397936
 20
811.8980749479681
 30
0.0
 40
234.9999711320207
100
AcDbArc
 50
109.4744873046875
 51
130.5255737304687
  0
ARC
  5
269
330
1F
100
AcDbEntity
  8
0-1
  6
Continuous
 62
     2
370
     9
100
AcDbCircle
 10
-161.4356896397936
 20
811.8980749479681
 30
0.0
 40
229.9999701010214
100
AcDbArc
 50
108.3233795166015
 51
131.6766510009766
  0
ARC
  5
26A
330
1F
100
AcDbEntity
  8
0-1
  6
Continuous
 62
     2
370
     9
100
AcDbCircle
 10
-161.4356896397936
 20
811.8980749479681
 30
0.0
 40
244.9999731940192
100
AcDbArc
 50
79.29148864746095
 51
100.7085418701172
  0
ARC
  5
26B
330
1F
100
AcDbEntity
  8
0-1
  6
Continuous
 62
     2
370
     9
100
AcDbCircle
 10
-161.4356896397936
 20
811.8980749479681
 30
0.0
 40
248.3333432996595
100
AcDbArc
 50
78.07777404785158
 51
101.9222412109375
  0
ARC
  5
26C
330
1F
100
AcDbEntity
  8
0-1
  6
Continuous
 62
     2
370
     9
100
AcDbCircle
 10
-161.4356896397936
 20
811.8980749479681
 30
0.0
 40
234.9999711320207
100
AcDbArc
 50
79.47448730468751
 51
100.5255737304688
  0
ARC
  5
26D
330
1F
100
AcDbEntity
  8
0-1
  6
Continuous
 62
     2
370
     9
100
AcDbCircle
 10
-161.4356896397936
 20
811.8980749479681
 30
0.0
 40
244.9999731940192
100
AcDbArc
 50
49.29148864746093
 51
70.70854187011717
  0
ARC
  5
26E
330
1F
100
AcDbEntity
  8
0-1
  6
Continuous
 62
     2
370
     9
100
AcDbCircle
 10
-161.4356896397936
 20
811.8980749479681
 30
0.0
 40
248.3333432996595
100
AcDbArc
 50
48.07777404785156
 51
71.9222412109375
  0
ARC
  5
26F
330
1F
100
AcDbEntity
  8
0-1
  6
Continuous
 62
     2
370
     9
100
AcDbCircle
 10
-161.4356896397936
 20
811.8980749479681
 30
0.0
 40
234.9999711320207
100
AcDbArc
 50
49.4744873046875
 51
70.52557373046875
  0
ARC
  5
270
330
1F
100
AcDbEntity
  8
0-1
  6
Continuous
 62
     2
370
     9
100
AcDbCircle
 10
-161.4356896397936
 20
811.8980749479681
 30
0.0
 40
229.9999701010214
100
AcDbArc
 50
48.32337951660157
 51
71.67665100097656
  0
ARC
  5
271
330
1F
100
AcDbEntity
  8
0-1
  6
Continuous
 62
     2
370
     9
100
AcDbCircle
 10
-161.4356896397936
 20
811.8980749479681
 30
0.0
 40
244.9999731940192
100
AcDbArc
 50
19.29148864746091
 51
40.70854187011716
  0
ARC
  5
272
330
1F
100
AcDbEntity
  8
0-1
  6
Continuous
 62
     2
370
     9
100
AcDbCircle
 10
-161.4356896397936
 20
811.8980749479681
 30
0.0
 40
248.3333432996595
100
AcDbArc
 50
18.07777404785154
 51
41.92224121093749
  0
ARC
  5
273
330
1F
100
AcDbEntity
  8
0-1
  6
Continuous
 62
     2
370
     9
100
AcDbCircle
 10
-161.4356896397936
 20
811.8980749479681
 30
0.0
 40
234.9999711320207
100
AcDbArc
 50
19.47448730468749
 51
40.52557373046873
  0
ARC
  5
274
330
1F
100
AcDbEntity
  8
0-1
  6
Continuous
 62
     2
370
     9
100
AcDbCircle
 10
-161.4356896397936
 20
811.8980749479681
 30
0.0
 40
229.9999701010214
100
AcDbArc
 50
18.32337951660155
 51
41.67665100097655
  0
ARC
  5
275
330
1F
100
AcDbEntity
  8
0-1
  6
Continuous
 62
     2
370
     9
100
AcDbCircle
 10
-161.4356896397936
 20
811.8980749479681
 30
0.0
 40
234.9999711320207
100
AcDbArc
 50
0.0000000000000254
 51
10.52557373046877
  0
ARC
  5
276
330
1F
100
AcDbEntity
  8
0-1
  6
Continuous
 62
     2
370
     9
100
AcDbCircle
 10
-161.4356896397936
 20
811.8980749479681
 30
0.0
 40
244.9999731940192
100
AcDbArc
 50
0.0000000000000254
 51
10.70854187011721
  0
ARC
  5
277
330
1F
100
AcDbEntity
  8
0-1
  6
Continuous
 62
     2
370
     9
100
AcDbCircle
 10
-161.4356896397936
 20
811.8980749479681
 30
0.0
 40
248.3333432996595
100
AcDbArc
 50
0.0000000000000254
 51
11.92224121093752
  0
ARC
  5
278
330
1F
100
AcDbEntity
  8
0-1
  6
Continuous
 62
     2
370
     9
100
AcDbCircle
 10
-161.4356896397936
 20
811.8980749479681
 30
0.0
 40
229.9999701010214
100
AcDbArc
 50
8.583679199218768
 51
11.67665100097658
  0
ARC
  5
279
330
1F
100
AcDbEntity
  8
0-1
  6
Continuous
 62
     2
370
     9
100
AcDbCircle
 10
-161.4356896397936
 20
811.8980749479681
 30
0.0
 40
231.2515825838656
100
AcDbArc
 50
0.0
 51
7.676528930664062
  0
ARC
  5
27A
330
1F
100
AcDbEntity
  8
0-1
  6
Continuous
 62
     2
370
     9
100
AcDbCircle
 10
-161.4356896397936
 20
811.8980749479681
 30
0.0
 40
234.9999711320207
100
AcDbArc
 50
169.4744110107422
 51
179.9999847412109
  0
ARC
  5
27B
330
1F
100
AcDbEntity
  8
0-1
  6
Continuous
 62
     2
370
     9
100
AcDbCircle
 10
-161.4356896397936
 20
811.8980749479681
 30
0.0
 40
244.9999731940192
100
AcDbArc
 50
169.2914428710938
 51
179.999984741211
  0
ARC
  5
27C
330
1F
100
AcDbEntity
  8
0-1
  6
Continuous
 62
     2
370
     9
100
AcDbCircle
 10
-161.4356896397936
 20
811.8980749479681
 30
0.0
 40
248.3333432996595
100
AcDbArc
 50
168.0777740478516
 51
180.0000152587891
  0
ARC
  5
27D
330
1F
100
AcDbEntity
  8
0-1
  6
Continuous
 62
     2
370
     9
100
AcDbCircle
 10
-161.4356896397936
 20
811.8980749479681
 30
0.0
 40
229.9999701010214
100
AcDbArc
 50
168.3233489990234
 51
171.4163208007812
  0
ARC
  5
27E
330
1F
100
AcDbEntity
  8
0-1
  6
Continuous
 62
     2
370
     9
100
AcDbCircle
 10
-161.4356896397936
 20
811.8980749479681
 30
0.0
 40
231.2515825838656
100
AcDbArc
 50
172.3234710693359
 51
180.0
  0
ARC
  5
27F
330
1F
100
AcDbEntity
  8
0-1
  6
Continuous
 62
     2
370
     9
100
AcDbCircle
 10
-161.4356896397936
 20
811.8980749479681
 30
0.0
 40
229.9999701010214
100
AcDbArc
 50
95.13783264160158
 51
101.6766510009766
  0
ARC
  5
280
330
1F
100
AcDbEntity
  8
0-1
  6
Continuous
 62
     2
370
     9
100
AcDbCircle
 10
-161.4356896397936
 20
811.8980749479681
 30
0.0
 40
229.9999701010214
100
AcDbArc
 50
78.32337951660159
 51
84.86216735839845
  0
ARC
  5
281
330
1F
100
AcDbEntity
  8
0-1
  6
Continuous
 62
     2
370
     9
100
AcDbCircle
 10
-161.4356896397936
 20
811.8980749479681
 30
0.0
 40
231.2515825838656
100
AcDbArc
 50
86.596435546875
 51
93.403564453125
  0
ARC
  5
282
330
1F
100
AcDbEntity
  8
0-1
  6
Continuous
 62
     2
370
     9
100
AcDbCircle
 10
-138.6281714282228
 20
946.648111239142
 30
0.0
 40
6.666666752583272
100
AcDbArc
 50
347.7381896972656
 51
80.39346313476562
  0
ARC
  5
283
330
1F
100
AcDbEntity
  8
0-1
  6
Continuous
 62
     2
370
     9
100
AcDbCircle
 10
-89.7689514905116
 20
936.0284889312874
 30
0.0
 40
43.33333195866765
100
AcDbArc
 50
167.7372894287109
 51
312.2626953125
  0
ARC
  5
284
330
1F
100
AcDbEntity
  8
0-1
  6
Continuous
 62
     2
370
     9
100
AcDbCircle
 10
-161.4356896397936
 20
811.8980749479681
 30
0.0
 40
143.333337113664
100
AcDbArc
 50
0.0
 51
39.60671997070312
  0
ARC
  5
285
330
1F
100
AcDbEntity
  8
0-1
  6
Continuous
 62
     2
370
     9
100
AcDbCircle
 10
-56.14237447404207
 20
899.025100655316
 30
0.0
 40
6.666666752583272
100
AcDbArc
 50
39.60639953613281
 51
132.2628936767578
  0
ARC
  5
286
330
1F
100
AcDbEntity
  8
0-1
  6
Continuous
 62
     2
370
     9
100
AcDbCircle
 10
-289.5365230171163
 20
859.5210855317939
 30
0.0
 40
6.666666752583272
100
AcDbArc
 50
159.6063995361328
 51
252.2628936767578
  0
ARC
  5
287
330
1F
100
AcDbEntity
  8
0-1
  6
Continuous
 62
     2
370
     9
100
AcDbCircle
 10
-161.4356896397936
 20
811.8980749479681
 30
0.0
 40
143.333337113664
100
AcDbArc
 50
80.39329528808592
 51
159.6068267822266
  0
ARC
  5
288
330
1F
100
AcDbEntity
  8
0-1
  6
Continuous
 62
     2
370
     9
100
AcDbCircle
 10
-304.769165938358
 20
811.8980749479681
 30
0.0
 40
43.33333195866765
100
AcDbArc
 50
0.0
 51
72.26269531249997
  0
ARC
  5
289
330
1F
100
AcDbEntity
  8
0-1
  6
Continuous
 62
     2
370
     9
100
AcDbCircle
 10
-304.769165938358
 20
811.8980749479681
 30
0.0
 40
40.00000051549962
100
AcDbArc
 50
0.0
 51
89.99992370605467
  0
ARC
  5
28A
330
1F
100
AcDbEntity
  8
0-1
  6
Continuous
 62
     2
370
     9
100
AcDbCircle
 10
-53.69197791048606
 20
906.427262949446
 30
0.0
 40
3.333333376291636
100
AcDbArc
 50
41.26124572753906
 51
140.6307678222656
  0
ARC
  5
28B
330
1F
100
AcDbEntity
  8
0-1
  6
Continuous
 62
     2
370
     9
100
AcDbCircle
 10
-161.4356896397936
 20
811.8980749479681
 30
0.0
 40
146.6666608243375
100
AcDbArc
 50
0.0
 51
41.26216125488281
  0
ARC
  5
28C
330
1F
100
AcDbEntity
  8
0-1
  6
Continuous
 62
     2
370
     9
100
AcDbCircle
 10
-133.4428225050809
 20
952.4713600250374
 30
0.0
 40
3.333333376291636
100
AcDbArc
 50
339.3675384521484
 51
78.73760986328124
  0
ARC
  5
28D
330
1F
100
AcDbEntity
  8
0-1
  6
Continuous
 62
     2
370
     9
100
AcDbCircle
 10
-89.7689514905116
 20
936.0284889312874
 30
0.0
 40
43.33333195866765
100
AcDbArc
 50
149.9999084472656
 51
159.3691864013672
  0
ARC
  5
28E
330
1F
100
AcDbEntity
  8
0-1
  6
Continuous
 62
     2
370
     9
100
AcDbCircle
 10
-297.1721447839025
 20
857.9421720235596
 30
0.0
 40
3.333333376291636
100
AcDbArc
 50
161.2641143798828
 51
260.6306762695312
  0
ARC
  5
28F
330
1F
100
AcDbEntity
  8
0-1
  6
Continuous
 62
     2
370
     9
100
AcDbCircle
 10
-161.4356896397936
 20
811.8980749479681
 30
0.0
 40
146.6666608243375
100
AcDbArc
 50
78.73782348632812
 51
161.2622375488281
  0
ARC
  5
290
330
1F
100
AcDbEntity
  8
0-1
  6
Continuous
 62
     2
370
     9
100
AcDbCircle
 10
-304.769165938358
 20
811.8980749479681
 30
0.0
 40
43.33333195866765
100
AcDbArc
 50
80.63093566894531
 51
89.99990844726562
  0
CIRCLE
  5
291
330
1F
100
AcDbEntity
  8
0-1
  6
Continuous
 62
     4
370
     9
100
AcDbCircle
 10
-89.7689514905116
 20
936.0284889312874
 30
0.0
 40
13.33333350516654
  0
CIRCLE
  5
292
330
1F
100
AcDbEntity
  8
0-1
  6
Continuous
 62
     4
370
     9
100
AcDbCircle
 10
-89.7689514905116
 20
936.0284889312874
 30
0.0
 40
11.07833321030075
  0
ARC
  5
293
330
1F
100
AcDbEntity
  8
0-1
  6
Continuous
 62
     4
370
     9
100
AcDbCircle
 10
-304.769165938358
 20
811.8980749479681
 30
0.0
 40
11.07833321030075
100
AcDbArc
 50
0.0
 51
180.0
  0
ARC
  5
294
330
1F
100
AcDbEntity
  8
0-2
  6
Continuous
 62
     6
370
     9
100
AcDbCircle
 10
35.51774878398156
 20
-22.73290154854777
 30
0.0
 40
6.666666752583272
100
AcDbArc
 50
185.115966796875
 51
267.4557647705079
  0
ARC
  5
295
330
1F
100
AcDbEntity
  8
0-2
  6
Continuous
 62
     6
370
     9
100
AcDbCircle
 10
23.5995622869379
 20
-39.13395531227252
 30
0.0
 40
10.00000012887491
100
AcDbArc
 50
185.1162567138672
 51
270.0
  0
ARC
  5
296
330
1F
100
AcDbEntity
  8
0-2
  6
Continuous
 62
     6
370
     9
100
AcDbCircle
 10
-358.3891280635689
 20
-22.73290154854777
 30
0.0
 40
6.666666752583272
100
AcDbArc
 50
272.5442352294921
 51
354.884033203125
  0
ARC
  5
297
330
1F
100
AcDbEntity
  8
0-2
  6
Continuous
 62
     6
370
     9
100
AcDbCircle
 10
-346.4709415665251
 20
-39.13395531227252
 30
0.0
 40
10.00000012887491
100
AcDbArc
 50
270.0
 51
354.8837432861328
  0
ARC
  5
298
330
1F
100
AcDbEntity
  8
0-2
  6
Continuous
 62
     6
370
     9
100
AcDbCircle
 10
35.21785171894805
 20
-19.38293750980222
 30
0.0
 40
6.666666752583272
100
AcDbArc
 50
185.115966796875
 51
267.4557647705079
  0
ARC
  5
299
330
1F
100
AcDbEntity
  8
0-2
  6
Continuous
 62
     6
370
     9
100
AcDbCircle
 10
-161.4356896397936
 20
811.8980749479681
 30
0.0
 40
155.0000164959882
100
AcDbArc
 50
0.0
 51
180.0
  0
ARC
  5
29A
330
1F
100
AcDbEntity
  8
0-2
  6
Continuous
 62
     6
370
     9
100
AcDbCircle
 10
-161.4356896397936
 20
811.8980749479681
 30
0.0
 40
171.7333974065007
100
AcDbArc
 50
0.0
 51
180.0
  0
ARC
  5
29B
330
1F
100
AcDbEntity
  8
0-2
  6
Continuous
 62
     6
370
     9
100
AcDbCircle
 10
-161.4356896397936
 20
811.8980749479681
 30
0.0
 40
176.5084756387247
100
AcDbArc
 50
7.385955810546875
 51
15.11404418945312
  0
ARC
  5
29C
330
1F
100
AcDbEntity
  8
0-2
  6
Continuous
 62
     6
370
     9
100
AcDbCircle
 10
13.79451187519805
 20
859.2249000640999
 30
0.0
 40
5.000000064437453
100
AcDbArc
 50
112.5001220703125
 51
195.1146087646484
  0
ARC
  5
29D
330
1F
100
AcDbEntity
  8
0-2
  6
Continuous
 62
     6
370
     9
100
AcDbCircle
 10
18.56713117418451
 20
835.231402782639
 30
0.0
 40
5.000000064437453
100
AcDbArc
 50
187.3852691650391
 51
270.0
  0
ARC
  5
29E
330
1F
100
AcDbEntity
  8
0-2
  6
Continuous
 62
     6
370
     9
100
AcDbCircle
 10
-161.4356896397936
 20
811.8980749479681
 30
0.0
 40
176.5084756387247
100
AcDbArc
 50
29.88595581054688
 51
37.61404418945312
  0
ARC
  5
29F
330
1F
100
AcDbEntity
  8
0-2
  6
Continuous
 62
     6
370
     9
100
AcDbCircle
 10
-17.65533702155039
 20
922.6798528195898
 30
0.0
 40
5.000000064437453
100
AcDbArc
 50
135.0001220703125
 51
217.6146087646484
  0
ARC
  5
2A0
330
1F
100
AcDbEntity
  8
0-2
  6
Continuous
 62
     6
370
     9
100
AcDbCircle
 10
-4.064209883670173
 20
902.339309639691
 30
0.0
 40
5.000000064437453
100
AcDbArc
 50
209.8852691650391
 51
292.5
  0
ARC
  5
2A1
330
1F
100
AcDbEntity
  8
0-2
  6
Continuous
 62
     6
370
     9
100
AcDbCircle
 10
-161.4356896397936
 20
811.8980749479681
 30
0.0
 40
176.5084756387247
100
AcDbArc
 50
52.38595581054688
 51
60.11404418945312
  0
ARC
  5
2A2
330
1F
100
AcDbEntity
  8
0-2
  6
Continuous
 62
     6
370
     9
100
AcDbCircle
 10
-70.99445494807071
 20
969.269307264269
 30
0.0
 40
5.000000064437453
100
AcDbArc
 50
157.5001220703125
 51
240.1146087646484
  0
ARC
  5
2A3
330
1F
100
AcDbEntity
  8
0-2
  6
Continuous
 62
     6
370
     9
100
AcDbCircle
 10
-50.65391176817201
 20
955.6784275662113
 30
0.0
 40
5.000000064437453
100
AcDbArc
 50
232.3852691650391
 51
315.0
  0
ARC
  5
2A4
330
1F
100
AcDbEntity
  8
0-2
  6
Continuous
 62
     6
370
     9
100
AcDbCircle
 10
-161.4356896397936
 20
811.8980749479681
 30
0.0
 40
176.5084756387247
100
AcDbArc
 50
74.88595581054688
 51
82.61404418945312
  0
ARC
  5
2A5
330
1F
100
AcDbEntity
  8
0-2
  6
Continuous
 62
     6
370
     9
100
AcDbCircle
 10
-138.1023618051231
 20
991.9006483221233
 30
0.0
 40
5.000000064437453
100
AcDbArc
 50
180.0001220703125
 51
262.6146087646484
  0
ARC
  5
2A6
330
1F
100
AcDbEntity
  8
0-2
  6
Continuous
 62
     6
370
     9
100
AcDbCircle
 10
-114.1088645236619
 20
987.1280290231368
 30
0.0
 40
5.000000064437453
100
AcDbArc
 50
254.8852691650391
 51
337.5
  0
ARC
  5
2A7
330
1F
100
AcDbEntity
  8
0-2
  6
Continuous
 62
     6
370
     9
100
AcDbCircle
 10
-161.4356896397936
 20
811.8980749479681
 30
0.0
 40
176.5084756387247
100
AcDbArc
 50
97.38595581054688
 51
105.1140441894531
  0
ARC
  5
2A8
330
1F
100
AcDbEntity
  8
0-2
  6
Continuous
 62
     6
370
     9
100
AcDbCircle
 10
-208.7625147559254
 20
987.1280290231368
 30
0.0
 40
5.000000064437453
100
AcDbArc
 50
202.5001220703125
 51
285.1146087646484
  0
ARC
  5
2A9
330
1F
100
AcDbEntity
  8
0-2
  6
Continuous
 62
     6
370
     9
100
AcDbCircle
 10
-184.7690174744642
 20
991.9006483221233
 30
0.0
 40
5.000000064437453
100
AcDbArc
 50
277.3852691650391
 51
0.0000000000000127
  0
ARC
  5
2AA
330
1F
100
AcDbEntity
  8
0-2
  6
Continuous
 62
     6
370
     9
100
AcDbCircle
 10
-161.4356896397936
 20
811.8980749479681
 30
0.0
 40
176.5084756387247
100
AcDbArc
 50
119.8859558105469
 51
127.6140441894531
  0
ARC
  5
2AB
330
1F
100
AcDbEntity
  8
0-2
  6
Continuous
 62
     6
370
     9
100
AcDbCircle
 10
-272.2174675114152
 20
955.678180126389
 30
0.0
 40
5.000000064437453
100
AcDbArc
 50
225.0001220703125
 51
307.6146087646484
  0
ARC
  5
2AC
330
1F
100
AcDbEntity
  8
0-2
  6
Continuous
 62
     6
370
     9
100
AcDbCircle
 10
-251.8769243315165
 20
969.269307264269
 30
0.0
 40
5.000000064437453
100
AcDbArc
 50
299.8852691650391
 51
22.50000000000001
  0
ARC
  5
2AD
330
1F
100
AcDbEntity
  8
0-2
  6
Continuous
 62
     6
370
     9
100
AcDbCircle
 10
-161.4356896397936
 20
811.8980749479681
 30
0.0
 40
176.5084756387247
100
AcDbArc
 50
142.3859558105469
 51
150.1140441894531
  0
ARC
  5
2AE
330
1F
100
AcDbEntity
  8
0-2
  6
Continuous
 62
     6
370
     9
100
AcDbCircle
 10
-318.8069219560944
 20
902.339309639691
 30
0.0
 40
5.000000064437453
100
AcDbArc
 50
247.5001220703125
 51
330.1146087646484
  0
ARC
  5
2AF
330
1F
100
AcDbEntity
  8
0-2
  6
Continuous
 62
     6
370
     9
100
AcDbCircle
 10
-305.2160422580369
 20
922.6798528195898
 30
0.0
 40
5.000000064437453
100
AcDbArc
 50
322.3852691650391
 51
45.00000000000001
  0
ARC
  5
2B0
330
1F
100
AcDbEntity
  8
0-2
  6
Continuous
 62
     6
370
     9
100
AcDbCircle
 10
-161.4356896397936
 20
811.8980749479681
 30
0.0
 40
176.5084756387247
100
AcDbArc
 50
164.8859558105469
 51
172.6140441894531
  0
ARC
  5
2B1
330
1F
100
AcDbEntity
  8
0-2
  6
Continuous
 62
     6
370
     9
100
AcDbCircle
 10
-341.4382630139491
 20
835.231402782639
 30
0.0
 40
5.000000064437453
100
AcDbArc
 50
270.0001220703124
 51
352.6146087646484
  0
ARC
  5
2B2
330
1F
100
AcDbEntity
  8
0-2
  6
Continuous
 62
     6
370
     9
100
AcDbCircle
 10
-336.6656437149626
 20
859.2249000640999
 30
0.0
 40
5.000000064437453
100
AcDbArc
 50
344.8852691650391
 51
67.50000000000001
  0
ARC
  5
2B3
330
1F
100
AcDbEntity
  8
0-2
  6
Continuous
 62
     6
370
     9
100
AcDbCircle
 10
-161.4356896397936
 20
811.8980749479681
 30
0.0
 40
225.0
100
AcDbArc
 50
4.248031616210938
 51
8.519622802734373
  0
ARC
  5
2B4
330
1F
100
AcDbEntity
  8
0-2
  6
Continuous
 62
     6
370
     9
100
AcDbCircle
 10
-161.4356896397936
 20
811.8980749479681
 30
0.0
 40
225.0
100
AcDbArc
 50
171.4803771972657
 51
175.7519683837891
  0
ARC
  5
2B5
330
1F
100
AcDbEntity
  8
0-2
  6
Continuous
 62
     6
370
     9
100
AcDbCircle
 10
-161.4356896397936
 20
811.8980749479681
 30
0.0
 40
228.3333546406514
100
AcDbArc
 50
3.347625732421875
 51
176.6523590087891
  0
ELLIPSE
  5
2B6
330
1F
100
AcDbEntity
  8
0-2
  6
Continuous
 62
     6
370
     9
100
AcDbEllipse
 10
50.23101551751211
 20
-25.56843819603529
 30
0.0
 11
17.4999340160473
 21
0.0
 31
0.0
210
0.0
220
0.0
230
1.0
 40
0.7428
 41
0.0
 42
1.475408288134874
  0
ELLIPSE
  5
2B7
330
1F
100
AcDbEntity
  8
0-2
  6
Continuous
 62
     6
370
     9
100
AcDbEllipse
 10
50.23101551751211
 20
-25.56843819603529
 30
0.0
 11
17.4999340160473
 21
0.0
 31
0.0
210
0.0
220
0.0
230
1.0
 40
0.7428
 41
1.666184365454919
 42
3.141592653589793
  0
ARC
  5
2B8
330
1F
100
AcDbEntity
  8
0-2
  6
Continuous
 62
     6
370
     9
100
AcDbCircle
 10
50.23101551751211
 20
811.8980749479681
 30
0.0
 40
17.49999974225018
100
AcDbArc
 50
0.0
 51
180.0
  0
ELLIPSE
  5
2B9
330
1F
100
AcDbEntity
  8
0-2
  6
Continuous
 62
     6
370
     9
100
AcDbEllipse
 10
-350.3527775040251
 20
162.2174785190197
 30
0.0
 11
1.560640982906848
 21
17.43020626064077
 31
0.0
210
0.0
220
0.0
230
1.0
 40
0.7428
 41
0.0
 42
1.475408288134874
  0
ELLIPSE
  5
2BA
330
1F
100
AcDbEntity
  8
0-2
  6
Continuous
 62
     6
370
     9
100
AcDbEllipse
 10
-350.3527775040251
 20
162.2174785190197
 30
0.0
 11
1.560640982906848
 21
17.43020626064077
 31
0.0
210
0.0
220
0.0
230
1.0
 40
0.7428
 41
1.666184365454919
 42
3.141592653589793
  0
ARC
  5
2BB
330
1F
100
AcDbEntity
  8
0-2
  6
Continuous
 62
     6
370
     9
100
AcDbCircle
 10
-373.1023947970994
 20
811.8980749479681
 30
0.0
 40
17.49999974225018
100
AcDbArc
 50
0.0
 51
180.0
  0
ARC
  5
2BC
330
1F
100
AcDbEntity
  8
0-2
  6
Continuous
 62
     6
370
     9
100
AcDbCircle
 10
-360.1558483971837
 20
-42.46758832272448
 30
0.0
 40
6.666666752583272
100
AcDbArc
 50
270.0
 51
354.884033203125
  0
ARC
  5
2BD
330
1F
100
AcDbEntity
  8
0-2
  6
Continuous
 62
     6
370
     9
100
AcDbCircle
 10
-161.4356896397936
 20
811.8980749479681
 30
0.0
 40
190.8333546406514
100
AcDbArc
 50
95.1458740234375
 51
180.0
  0
ARC
  5
2BE
330
1F
100
AcDbEntity
  8
0-2
  6
Continuous
 62
     6
370
     9
100
AcDbCircle
 10
-161.4356896397936
 20
811.8980749479681
 30
0.0
 40
190.8333546406514
100
AcDbArc
 50
0.0
 51
84.8541259765625
  0
ELLIPSE
  5
2BF
330
1F
100
AcDbEntity
  8
0-2
  6
Continuous
 62
     6
370
     9
100
AcDbEllipse
 10
-161.4356896397936
 20
999.2545598508398
 30
0.0
 11
17.50005773595861
 21
0.0
 31
0.0
210
0.0
220
0.0
230
1.0
 40
0.7428
 41
1.666170250701141
 42
3.141592653589793
  0
ELLIPSE
  5
2C0
330
1F
100
AcDbEntity
  8
0-2
  6
Continuous
 62
     6
370
     9
100
AcDbEllipse
 10
-161.4356896397936
 20
999.2545598508398
 30
0.0
 11
17.50005773595861
 21
0.0
 31
0.0
210
0.0
220
0.0
230
1.0
 40
0.7428
 41
0.0
 42
1.475408288134874
  0
ARC
  5
2C1
330
1F
100
AcDbEntity
  8
0-1
  6
Continuous
 62
     2
370
     9
100
AcDbCircle
 10
-161.4356896397936
 20
811.8980749479681
 30
0.0
 40
279.803466796875
100
AcDbArc
 50
0.0
 51
180.0
  0
ARC
  5
2C2
330
1F
100
AcDbEntity
  8
0-0
  6
Continuous
 62
     3
370
     9
100
AcDbCircle
 10
-161.4356896397936
 20
811.8980749479681
 30
0.0
 40
131.6666886613176
100
AcDbArc
 50
0.0
 51
42.52656555175782
  0
ARC
  5
2C3
330
1F
100
AcDbEntity
  8
0-0
  6
Continuous
 62
     3
370
     9
100
AcDbCircle
 10
-161.4356896397936
 20
811.8980749479681
 30
0.0
 40
135.0001979518581
100
AcDbArc
 50
0.0
 51
42.41561889648437
  0
ARC
  5
2C4
330
1F
100
AcDbEntity
  8
0-1
  6
Continuous
 62
     2
370
     9
100
AcDbCircle
 10
-89.7689514905116
 20
936.0284889312874
 30
0.0
 40
43.33333195866765
100
AcDbArc
 50
320.6310272216796
 51
337.4132080078124
  0
ARC
  5
2C5
330
1F
100
AcDbEntity
  8
0-1
  6
Continuous
 62
     2
370
     9
100
AcDbCircle
 10
-89.7689514905116
 20
936.0284889312874
 30
0.0
 40
40.00000051549962
100
AcDbArc
 50
149.9999694824219
 51
339.4390563964844
  0
ARC
  5
2C6
330
1F
100
AcDbEntity
  8
0-1
  6
Continuous
 62
     4
370
     9
100
AcDbCircle
 10
-89.75286790204024
 20
936.0193336578499
 30
0.0
 40
21.66667177870467
100
AcDbArc
 50
120.9942779541015
 51
358.990966796875
  0
ARC
  5
2C7
330
1F
100
AcDbEntity
  8
0-0
  6
Continuous
 62
     3
370
     9
100
AcDbCircle
 10
-161.4356896397936
 20
811.8980749479681
 30
0.0
 40
131.6666886613176
100
AcDbArc
 50
77.47340393066406
 51
162.5266265869141
  0
ARC
  5
2C8
330
1F
100
AcDbEntity
  8
0-0
  6
Continuous
 62
     3
370
     9
100
AcDbCircle
 10
-161.4356896397936
 20
811.8980749479681
 30
0.0
 40
135.0001979518581
100
AcDbArc
 50
77.58436584472656
 51
162.4156799316406
  0
ARC
  5
2C9
330
1F
100
AcDbEntity
  8
0-1
  6
Continuous
 62
     4
370
     9
100
AcDbCircle
 10
-304.769165938358
 20
811.9166329346658
 30
0.0
 40
21.66667177870467
100
AcDbArc
 50
359.950927734375
 51
118.9913635253906
  0
ARC
  5
2CA
330
1F
100
AcDbEntity
  8
0-1
  6
Continuous
 62
     4
370
     9
100
AcDbCircle
 10
-304.769165938358
 20
811.8980749479681
 30
0.0
 40
13.33333350516654
100
AcDbArc
 50
0.0
 51
149.77880859375
  0
ARC
  5
2CB
330
1F
100
AcDbEntity
  8
0-1
  6
Continuous
 62
     2
370
     9
100
AcDbCircle
 10
-181.4355081839236
 20
1034.334103505823
 30
0.0
 40
6.666666752583272
100
AcDbArc
 50
53.16412353515625
 51
95.13787841796874
  0
ARC
  5
2CC
330
1F
100
AcDbEntity
  8
0-1
  6
Continuous
 62
     2
370
     9
100
AcDbCircle
 10
-174.7689844824879
 20
1036.086719769547
 30
0.0
 40
6.666666752583272
100
AcDbArc
 50
36.91690063476562
 51
93.40336608886719
  0
ARC
  5
2CD
330
1F
100
AcDbEntity
  8
0-1
  6
Continuous
 62
     2
370
     9
100
AcDbCircle
 10
-148.1023947970994
 20
1036.086719769547
 30
0.0
 40
6.666666752583272
100
AcDbArc
 50
86.59663391113284
 51
143.0830993652344
  0
ARC
  5
2CE
330
1F
100
AcDbEntity
  8
0-1
  6
Continuous
 62
     2
370
     9
100
AcDbCircle
 10
-141.435623655841
 20
1034.334103505823
 30
0.0
 40
6.666666752583272
100
AcDbArc
 50
84.86212158203125
 51
126.8358764648437
  0
ARC
  5
2CF
330
1F
100
AcDbEntity
  8
0-1
  6
Continuous
 62
     2
370
     9
100
AcDbCircle
 10
59.39593910809492
 20
845.231435774615
 30
0.0
 40
6.666666752583272
100
AcDbArc
 50
326.6130981445312
 51
8.583190917968754
  0
ARC
  5
2D0
330
1F
100
AcDbEntity
  8
0-1
  6
Continuous
 62
     2
370
     9
100
AcDbCircle
 10
61.13667826033314
 20
841.8981739238973
 30
0.0
 40
6.666666752583272
100
AcDbArc
 50
311.1860198974611
 51
7.676574707031284
  0
ARC
  5
2D1
330
1F
100
AcDbEntity
  8
0-1
  6
Continuous
 62
     2
370
     9
100
AcDbCircle
 10
-384.0080575399205
 20
841.8981739238973
 30
0.0
 40
6.666666752583272
100
AcDbArc
 50
172.3234252929687
 51
228.8124694824218
  0
ARC
  5
2D2
330
1F
100
AcDbEntity
  8
0-1
  6
Continuous
 62
     2
370
     9
100
AcDbCircle
 10
-382.2674421075934
 20
845.231435774615
 30
0.0
 40
6.666666752583272
100
AcDbArc
 50
171.4168090820312
 51
213.3877868652344
  0
TEXT
  5
2D3
330
1F
100
AcDbEntity
  8
0-4
  6
Continuous
 62
     2
370
     9
100
AcDbText
 10
-216.4357514997492
 20
459.8393147864394
 30
0.0
 40
30.48
  1
φ200
 41
1.1
  7
ＭＳ ゴシック
100
AcDbText
  0
TEXT
  5
2D4
330
1F
100
AcDbEntity
  8
0-4
  6
Continuous
 62
     2
370
     9
100
AcDbText
 10
-216.4357514997492
 20
379.8392982904512
 30
0.0
 40
30.48
  1
φ180
 41
1.1
  7
ＭＳ ゴシック
100
AcDbText
  0
TEXT
  5
2D5
330
1F
100
AcDbEntity
  8
0-4
  6
Continuous
 62
     2
370
     9
100
AcDbText
 10
-216.4357514997492
 20
-579.682103604608
 30
0.0
 40
30.48
  1
φ200
 41
1.1
  7
ＭＳ ゴシック
100
AcDbText
  0
TEXT
  5
2D6
330
1F
100
AcDbEntity
  8
0-E
  6
Continuous
 62
     7
370
     9
100
AcDbText
 10
236.7939691571869
 20
-420.8911494766519
 30
0.0
 40
22.86
  1
クランプ板：ＦＣ１５０
 41
1.151515151515152
  7
ＭＳ ゴシック
100
AcDbText
  0
TEXT
  5
2D7
330
1F
100
AcDbEntity
  8
0-E
  6
Continuous
 62
     7
370
     9
100
AcDbText
 10
346.957914535671
 20
-471.9816580149753
 30
0.0
 40
22.86
  1
樹脂系塗装
 41
1.133333333333333
  7
ＭＳ ゴシック
100
AcDbText
  0
TEXT
  5
2D8
330
1F
100
AcDbEntity
  8
0-E
  6
Continuous
 62
     7
370
     9
100
AcDbText
 10
-828.5612678241791
 20
-154.4818477188395
 30
0.0
 40
22.86
  1
本体：ＦＣ１５０
 41
1.145833333333333
  7
ＭＳ ゴシック
100
AcDbText
  0
TEXT
  5
2D9
330
1F
100
AcDbEntity
  8
0-E
  6
Continuous
 62
     7
370
     9
100
AcDbText
 10
-842.6016260840504
 20
-579.5833392860901
 30
0.0
 40
22.86
  1
ボルト：Ｃ３６０２
 41
1.148148148148148
  7
ＭＳ ゴシック
100
AcDbText
  0
TEXT
  5
2DA
330
1F
100
AcDbEntity
  8
0-E
  6
Continuous
 62
     7
370
     9
100
AcDbText
 10
-777.7213415942383
 20
-212.5848008306426
 30
0.0
 40
22.86
  1
樹脂系塗装
 41
1.133333333333333
  7
ＭＳ ゴシック
100
AcDbText
  0
TEXT
  5
2DB
330
1F
100
AcDbEntity
  8
0-4
  6
Continuous
 62
     2
370
     9
100
AcDbText
 10
256.2577216036849
 20
-163.2387512724875
 30
0.0
 40
30.48
  1
60
 50
90.00000250447847
 41
1.062500000000008
  7
ＭＳ ゴシック
100
AcDbText
  0
TEXT
  5
2DC
330
1F
100
AcDbEntity
  8
0-4
  6
Continuous
 62
     2
370
     9
100
AcDbText
 10
-193.9356896397936
 20
-419.6821324725873
 30
0.0
 40
30.48
  1
Rc3
 41
1.083333333333333
  7
ＭＳ ゴシック
100
AcDbText
  0
TEXT
  5
2DD
330
1F
100
AcDbEntity
  8
0-4
  6
Continuous
 62
     2
370
     9
100
AcDbText
 10
-205.1857514997494
 20
-499.6821489685754
 30
0.0
 40
30.48
  1
φ99
 41
1.09375
  7
ＭＳ ゴシック
100
AcDbText
  0
TEXT
  5
2DE
330
1F
100
AcDbEntity
  8
0-E
  6
Continuous
 62
     7
370
     9
100
AcDbText
 10
362.5827495757892
 20
249.7212475883817
 30
0.0
 40
22.86
  1
樹脂系塗装
 41
1.133333333333333
  7
ＭＳ ゴシック
100
AcDbText
  0
TEXT
  5
2DF
330
1F
100
AcDbEntity
  8
0-E
  6
Continuous
 62
     7
370
     9
100
AcDbText
 10
270.3886264365366
 20
300.9458685105739
 30
0.0
 40
22.86
  1
防水層押え：ＦＣ１５０
 41
1.151515151515152
  7
ＭＳ ゴシック
100
AcDbText
  0
TEXT
  5
2E0
330
1F
100
AcDbEntity
  8
0-E
  6
Continuous
 62
     7
370
     9
100
AcDbText
 10
-841.7399169017235
 20
419.1755850435129
 30
0.0
 40
22.86
  1
ボルト：Ｃ３６０２
 41
1.148148148148148
  7
ＭＳ ゴシック
100
AcDbText
  0
TEXT
  5
2E1
330
1F
100
AcDbEntity
  8
0-E
  6
Continuous
 62
     7
370
     9
100
AcDbText
 10
-787.3834336484508
 20
369.7607389840744
 30
0.0
 40
22.86
  1
Ｍ８×４０
 41
1.133333333333333
  7
ＭＳ ゴシック
100
AcDbText
  0
TEXT
  5
2E2
330
1F
100
AcDbEntity
  8
0-E
  6
Continuous
 62
     7
370
     9
100
AcDbText
 10
317.0676788409918
 20
488.6835344602147
 30
0.0
 40
22.86
  1
樹脂系塗装
 41
1.133333333333333
  7
ＭＳ ゴシック
100
AcDbText
  0
TEXT
  5
2E3
330
1F
100
AcDbEntity
  8
0-E
  6
Continuous
 62
     7
370
     9
100
AcDbText
 10
308.9537971370221
 20
420.527101354746
 30
0.0
 40
22.86
  1
丸小ネジ：Ｃ２７００
 41
1.15
  7
ＭＳ ゴシック
100
AcDbText
  0
TEXT
  5
2E4
330
1F
100
AcDbEntity
  8
0-E
  6
Continuous
 62
     7
370
     9
100
AcDbText
 10
391.6212974009579
 20
373.5068541788593
 30
0.0
 40
22.86
  1
Ｍ６×１２
 41
1.133333333333333
  7
ＭＳ ゴシック
100
AcDbText
  0
TEXT
  5
2E5
330
1F
100
AcDbEntity
  8
0-E
  6
Continuous
 62
     7
370
     9
100
AcDbText
 10
-909.6855354023044
 20
537.7715125139523
 30
0.0
 40
22.86
  1
丸小ネジ：Ｃ２７００
 41
1.15
  7
ＭＳ ゴシック
100
AcDbText
  0
TEXT
  5
2E6
330
1F
100
AcDbEntity
  8
0-E
  6
Continuous
 62
     7
370
     9
100
AcDbText
 10
-838.033808602262
 20
487.1211994200962
 30
0.0
 40
22.86
  1
Ｍ６×１２
 41
1.133333333333333
  7
ＭＳ ゴシック
100
AcDbText
  0
TEXT
  5
2E7
330
1F
100
AcDbEntity
  8
0-E
  6
Continuous
 62
     7
370
     9
100
AcDbText
 10
214.8331240347208
 20
543.8577898313085
 30
0.0
 40
22.86
  1
ストレーナー：ＦＣ１５０
 41
1.152777777777778
  7
ＭＳ ゴシック
100
AcDbText
  0
TEXT
  5
2E8
330
1F
100
AcDbEntity
  8
0-4
  6
Continuous
 62
     2
370
     9
100
AcDbText
 10
-205.1857514997494
 20
299.8392817944629
 30
0.0
 40
30.48
  1
φ93
 41
1.09375
  7
ＭＳ ゴシック
100
AcDbText
  0
TEXT
  5
2E9
330
1F
100
AcDbEntity
  8
0-4
  6
Continuous
 62
     2
370
     9
100
AcDbText
 10
-610.4090412895794
 20
46.28265062257207
 30
0.0
 40
30.48
  1
70
 50
90.00000250447825
 41
1.062500000000001
  7
ＭＳ ゴシック
100
AcDbText
  0
TEXT
  5
2EA
330
1F
100
AcDbEntity
  8
0-4
  6
Continuous
 62
     2
370
     9
100
AcDbText
 10
336.2577380996731
 20
49.85531050168925
 30
0.0
 40
30.48
  1
68
 50
90.00000250447809
 41
1.062500000000001
  7
ＭＳ ゴシック
100
AcDbText
  0
TEXT
  5
2EB
330
1F
100
AcDbEntity
  8
0-4
  6
Continuous
 62
     2
370
     9
100
AcDbText
 10
336.2577385888861
 20
-207.8221112260288
 30
0.0
 40
30.48
  1
100
 50
90.0000025
 41
1.083333333333333
  7
ＭＳ ゴシック
100
AcDbText
  0
TEXT
  5
2EC
330
1F
100
AcDbEntity
  8
0-E
  6
Continuous
 62
     7
370
     9
100
AcDbText
 10
-792.8484390591349
 20
-633.370694451314
 30
0.0
 40
22.86
  1
Ｍ８×１００
 41
1.138888888888889
  7
ＭＳ ゴシック
100
AcDbText
  0
TEXT
  5
2ED
330
1F
100
AcDbEntity
  8
F-4
  6
Continuous
 62
     6
370
     0
100
AcDbText
 10
-203.0265054571436
 20
-1219.83976508704
 30
0.0
 40
30.48
  1
ねじ込み式　ＡＬＣ用　ルーフドレイン　　ＥＡＳＢ－２－７５
 41
0.7982758620689655
  7
ＭＳ ゴシック
100
AcDbText
  0
ENDSEC
  0
SECTION
  2
OBJECTS
  0
DICTIONARY
  5
C
330
0
100
AcDbDictionary
281
     1
  3
ACAD_GROUP
350
D
  3
ACAD_LAYOUT
350
1A
  3
ACAD_MLEADERSTYLE
350
2EF
  3
ACAD_MLINESTYLE
350
17
  3
ACAD_PLOTSETTINGS
350
19
  3
ACAD_PLOTSTYLENAME
350
E
  3
ACAD_TABLESTYLE
350
2EE
  3
ACAD_VISUALSTYLE
350
2A
  3
AcDbVariableDictionary
350
2F0
  0
DICTIONARY
  5
D
102
{ACAD_REACTORS
330
C
102
}
330
C
100
AcDbDictionary
281
     1
  0
DICTIONARY
  5
1A
102
{ACAD_REACTORS
330
C
102
}
330
C
100
AcDbDictionary
281
     1
  3
Layout1
350
1E
  3
Layout2
350
26
  3
Model
350
22
  0
DICTIONARY
  5
2EF
102
{ACAD_REACTORS
330
C
102
}
330
C
100
AcDbDictionary
281
     1
  0
DICTIONARY
  5
17
102
{ACAD_REACTORS
330
C
102
}
330
C
100
AcDbDictionary
281
     1
  3
Standard
350
18
  0
DICTIONARY
  5
19
102
{ACAD_REACTORS
330
C
102
}
330
C
100
AcDbDictionary
281
     1
  0
ACDBDICTIONARYWDFLT
  5
E
102
{ACAD_REACTORS
330
C
102
}
330
C
100
AcDbDictionary
281
     1
  3
Normal
350
F
100
AcDbDictionaryWithDefault
340
F
  0
DICTIONARY
  5
2EE
102
{ACAD_REACTORS
330
C
102
}
330
C
100
AcDbDictionary
281
     1
  0
DICTIONARY
  5
2A
102
{ACAD_REACTORS
330
C
102
}
330
C
100
AcDbDictionary
281
     1
  3
2dWireframe
350
2F
  3
3D Hidden
350
31
  3
3dWireframe
350
30
  3
Basic
350
32
  3
Brighten
350
36
  3
ColorChange
350
3A
  3
Conceptual
350
34
  3
Dim
350
35
  3
Facepattern
350
39
  3
Flat
350
2B
  3
FlatWithEdges
350
2C
  3
Gouraud
350
2D
  3
GouraudWithEdges
350
2E
  3
Linepattern
350
38
  3
Realistic
350
33
  3
Thicken
350
37
  0
DICTIONARY
  5
2F0
102
{ACAD_REACTORS
330
C
102
}
330
C
100
AcDbDictionary
281
     1
  3
PSOLHEIGHT
350
2F2
  3
PSOLWIDTH
350
2F1
  0
LAYOUT
  5
1E
102
{ACAD_REACTORS
330
1A
102
}
102
{ACAD_XDICTIONARY
360
2F3
102
}
330
1A
100
AcDbPlotSettings
  1

  2
none_device
  4

  6

 40
0.0
 41
0.0
 42
0.0
 43
0.0
 44
0.0
 45
0.0
 46
0.0
 47
0.0
 48
0.0
 49
0.0
140
0.0
141
0.0
142
1.0
143
1.0
 70
   688
 72
     0
 73
     0
 74
     5
  7

 75
    16
147
1.0
148
0.0
149
0.0
100
AcDbLayout
  1
Layout1
 70
     1
 71
     1
 10
0.0
 20
0.0
 11
420.0
 21
297.0
 12
0.0
 22
0.0
 32
0.0
 14
1.000000000000000E+20
 24
1.000000000000000E+20
 34
1.000000000000000E+20
 15
-1.000000000000000E+20
 25
-1.000000000000000E+20
 35
-1.000000000000000E+20
146
0.0
 13
0.0
 23
0.0
 33
0.0
 16
1.0
 26
0.0
 36
0.0
 17
0.0
 27
1.0
 37
0.0
 76
     0
330
1B
  0
LAYOUT
  5
26
102
{ACAD_REACTORS
330
1A
102
}
102
{ACAD_XDICTIONARY
360
2F7
102
}
330
1A
100
AcDbPlotSettings
  1

  2
none_device
  4

  6

 40
0.0
 41
0.0
 42
0.0
 43
0.0
 44
0.0
 45
0.0
 46
0.0
 47
0.0
 48
0.0
 49
0.0
140
0.0
141
0.0
142
1.0
143
1.0
 70
   688
 72
     0
 73
     0
 74
     5
  7

 75
    16
147
1.0
148
0.0
149
0.0
100
AcDbLayout
  1
Layout2
 70
     1
 71
     2
 10
0.0
 20
0.0
 11
0.0
 21
0.0
 12
0.0
 22
0.0
 32
0.0
 14
0.0
 24
0.0
 34
0.0
 15
0.0
 25
0.0
 35
0.0
146
0.0
 13
0.0
 23
0.0
 33
0.0
 16
1.0
 26
0.0
 36
0.0
 17
0.0
 27
1.0
 37
0.0
 76
     0
330
23
  0
LAYOUT
  5
22
102
{ACAD_REACTORS
330
1A
102
}
102
{ACAD_XDICTIONARY
360
2F5
102
}
330
1A
100
AcDbPlotSettings
  1

  2
none_device
  4

  6

 40
0.0
 41
0.0
 42
0.0
 43
0.0
 44
0.0
 45
0.0
 46
0.0
 47
0.0
 48
0.0
 49
0.0
140
0.0
141
0.0
142
1.0
143
1.0
 70
  1712
 72
     0
 73
     0
 74
     0
  7

 75
     0
147
1.0
148
0.0
149
0.0
100
AcDbLayout
  1
Model
 70
     1
 71
     0
 10
-2100.0
 20
-1485.0
 11
2100.0
 21
1485.0
 12
0.0
 22
0.0
 32
0.0
 14
-2100.0
 24
-1485.0
 34
0.0
 15
2100.0
 25
1485.0
 35
0.0
146
0.0
 13
0.0
 23
0.0
 33
0.0
 16
1.0
 26
0.0
 36
0.0
 17
0.0
 27
1.0
 37
0.0
 76
     0
330
1F
331
29
  0
MLINESTYLE
  5
18
102
{ACAD_REACTORS
330
17
102
}
330
17
100
AcDbMlineStyle
  2
Standard
 70
     0
  3

 62
   256
 51
90.0
 52
90.0
 71
     2
 49
0.5
 62
   256
  6
BYLAYER
 49
-0.5
 62
   256
  6
BYLAYER
  0
ACDBPLACEHOLDER
  5
F
102
{ACAD_REACTORS
330
E
102
}
330
E
  0
VISUALSTYLE
  5
2F
102
{ACAD_REACTORS
330
2A
102
}
330
2A
100
AcDbVisualStyle
  2
2dWireframe
 70
     4
 71
     0
 72
     2
 73
     0
 90
        0
 40
-0.6
 41
-30.0
 62
     5
 63
     7
 74
     1
 91
        4
 64
     7
 65
   257
 75
     1
175
     1
 42
1.0
 92
        0
 66
   257
 43
1.0
 76
     1
 77
     6
 78
     2
 67
     7
 79
     5
170
     0
171
     0
290
     0
174
     0
 93
        1
 44
0.0
173
     0
291
     0
 45
0.0
1001
ACAD
1000
AcDbSavedByObjectVersion
1070
     0
  0
VISUALSTYLE
  5
31
102
{ACAD_REACTORS
330
2A
102
}
330
2A
100
AcDbVisualStyle
  2
3D Hidden
 70
     6
 71
     1
 72
     2
 73
     2
 90
        0
 40
-0.6
 41
-30.0
 62
     5
 63
     7
 74
     2
 91
        2
 64
     7
 65
   257
 75
     2
175
     1
 42
40.0
 92
        0
 66
   257
 43
1.0
 76
     1
 77
     6
 78
     2
 67
     7
 79
     3
170
     0
171
     0
290
     0
174
     0
 93
        1
 44
0.0
173
     0
291
     0
 45
0.0
1001
ACAD
1000
AcDbSavedByObjectVersion
1070
     0
  0
VISUALSTYLE
  5
30
102
{ACAD_REACTORS
330
2A
102
}
330
2A
100
AcDbVisualStyle
  2
3dWireframe
 70
     5
 71
     0
 72
     2
 73
     0
 90
        0
 40
-0.6
 41
-30.0
 62
     5
 63
     7
 74
     1
 91
        4
 64
     7
 65
   257
 75
     1
175
     1
 42
1.0
 92
        0
 66
   257
 43
1.0
 76
     1
 77
     6
 78
     2
 67
     7
 79
     5
170
     0
171
     0
290
     0
174
     0
 93
        1
 44
0.0
173
     0
291
     0
 45
0.0
1001
ACAD
1000
AcDbSavedByObjectVersion
1070
     0
  0
VISUALSTYLE
  5
32
102
{ACAD_REACTORS
330
2A
102
}
330
2A
100
AcDbVisualStyle
  2
Basic
 70
     7
 71
     1
 72
     0
 73
     1
 90
        0
 40
-0.6
 41
-30.0
 62
     5
 63
     7
 74
     0
 91
        4
 64
     7
 65
   257
 75
     1
175
     1
 42
1.0
 92
        8
 66
     7
 43
1.0
 76
     1
 77
     6
 78
     2
 67
     7
 79
     5
170
     0
171
     0
290
     0
174
     0
 93
        1
 44
0.0
173
     0
291
     1
 45
0.0
1001
ACAD
1000
AcDbSavedByObjectVersion
1070
     0
  0
VISUALSTYLE
  5
36
102
{ACAD_REACTORS
330
2A
102
}
330
2A
100
AcDbVisualStyle
  2
Brighten
 70
    12
 71
     2
 72
     2
 73
     0
 90
        0
 40
-0.6
 41
-30.0
 62
     5
 63
     7
 74
     1
 91
        4
 64
     7
 65
   257
 75
     1
175
     1
 42
1.0
 92
        8
 66
     7
 43
1.0
 76
     1
 77
     6
 78
     2
 67
     7
 79
     5
170
     0
171
     0
290
     0
174
     0
 93
        1
 44
50.0
173
     0
291
     1
 45
0.0
1001
ACAD
1000
AcDbSavedByObjectVersion
1070
     0
  0
VISUALSTYLE
  5
3A
102
{ACAD_REACTORS
330
2A
102
}
330
2A
100
AcDbVisualStyle
  2
ColorChange
 70
    16
 71
     2
 72
     2
 73
     3
 90
        0
 40
-0.6
 41
-30.0
 62
     5
 63
     8
 74
     1
 91
        4
 64
     7
 65
   257
 75
     1
175
     1
 42
1.0
 92
        8
 66
     8
 43
1.0
 76
     1
 77
     6
 78
     2
 67
     7
 79
     5
170
     0
171
     0
290
     0
174
     0
 93
        1
 44
0.0
173
     0
291
     1
 45
0.0
1001
ACAD
1000
AcDbSavedByObjectVersion
1070
     0
  0
VISUALSTYLE
  5
34
102
{ACAD_REACTORS
330
2A
102
}
330
2A
100
AcDbVisualStyle
  2
Conceptual
 70
     9
 71
     3
 72
     2
 73
     0
 90
        0
 40
-0.6
 41
-30.0
 62
     5
 63
     7
 74
     2
 91
        2
 64
     7
 65
   257
 75
     1
175
     1
 42
40.0
 92
        8
 66
     7
 43
1.0
 76
     1
 77
     6
 78
     2
 67
     7
 79
     3
170
     0
171
     0
290
     0
174
     0
 93
        1
 44
0.0
173
     0
291
     0
 45
0.0
1001
ACAD
1000
AcDbSavedByObjectVersion
1070
     0
  0
VISUALSTYLE
  5
35
102
{ACAD_REACTORS
330
2A
102
}
330
2A
100
AcDbVisualStyle
  2
Dim
 70
    11
 71
     2
 72
     2
 73
     0
 90
        0
 40
-0.6
 41
-30.0
 62
     5
 63
     7
 74
     1
 91
        4
 64
     7
 65
   257
 75
     1
175
     1
 42
1.0
 92
        8
 66
     7
 43
1.0
 76
     1
 77
     6
 78
     2
 67
     7
 79
     5
170
     0
171
     0
290
     0
174
     0
 93
        1
 44
-50.0
173
     0
291
     1
 45
0.0
1001
ACAD
1000
AcDbSavedByObjectVersion
1070
     0
  0
VISUALSTYLE
  5
39
102
{ACAD_REACTORS
330
2A
102
}
330
2A
100
AcDbVisualStyle
  2
Facepattern
 70
    15
 71
     2
 72
     2
 73
     0
 90
        0
 40
-0.6
 41
-30.0
 62
     5
 63
     7
 74
     1
 91
        4
 64
     7
 65
   257
 75
     1
175
     1
 42
1.0
 92
        8
 66
     7
 43
1.0
 76
     1
 77
     6
 78
     2
 67
     7
 79
     5
170
     0
171
     0
290
     0
174
     0
 93
        1
 44
0.0
173
     0
291
     1
 45
0.0
1001
ACAD
1000
AcDbSavedByObjectVersion
1070
     0
  0
VISUALSTYLE
  5
2B
102
{ACAD_REACTORS
330
2A
102
}
330
2A
100
AcDbVisualStyle
  2
Flat
 70
     0
 71
     2
 72
     1
 73
     1
 90
        2
 40
-0.6
 41
30.0
 62
     5
 63
     7
 74
     0
 91
        4
 64
     7
 65
   257
 75
     1
175
     1
 42
1.0
 92
        8
 66
     7
 43
1.0
 76
     1
 77
     6
 78
     2
 67
     7
 79
     5
170
     0
171
     0
290
     0
174
     0
 93
       13
 44
0.0
173
     0
291
     1
 45
0.0
1001
ACAD
1000
AcDbSavedByObjectVersion
1070
     0
  0
VISUALSTYLE
  5
2C
102
{ACAD_REACTORS
330
2A
102
}
330
2A
100
AcDbVisualStyle
  2
FlatWithEdges
 70
     1
 71
     2
 72
     1
 73
     1
 90
        2
 40
-0.6
 41
30.0
 62
     5
 63
     7
 74
     1
 91
        4
 64
     7
 65
   257
 75
     1
175
     1
 42
1.0
 92
        0
 66
   257
 43
1.0
 76
     1
 77
     6
 78
     2
 67
     7
 79
     5
170
     0
171
     0
290
     0
174
     0
 93
       13
 44
0.0
173
     0
291
     1
 45
0.0
1001
ACAD
1000
AcDbSavedByObjectVersion
1070
     0
  0
VISUALSTYLE
  5
2D
102
{ACAD_REACTORS
330
2A
102
}
330
2A
100
AcDbVisualStyle
  2
Gouraud
 70
     2
 71
     2
 72
     2
 73
     1
 90
        2
 40
-0.6
 41
30.0
 62
     5
 63
     7
 74
     0
 91
        4
 64
     7
 65
   257
 75
     1
175
     1
 42
1.0
 92
        0
 66
     7
 43
1.0
 76
     1
 77
     6
 78
     2
 67
     7
 79
     5
170
     0
171
     0
290
     0
174
     0
 93
       13
 44
0.0
173
     0
291
     1
 45
0.0
1001
ACAD
1000
AcDbSavedByObjectVersion
1070
     0
  0
VISUALSTYLE
  5
2E
102
{ACAD_REACTORS
330
2A
102
}
330
2A
100
AcDbVisualStyle
  2
GouraudWithEdges
 70
     3
 71
     2
 72
     2
 73
     1
 90
        2
 40
-0.6
 41
30.0
 62
     5
 63
     7
 74
     1
 91
        4
 64
     7
 65
   257
 75
     1
175
     1
 42
1.0
 92
        0
 66
   257
 43
1.0
 76
     1
 77
     6
 78
     2
 67
     7
 79
     5
170
     0
171
     0
290
     0
174
     0
 93
       13
 44
0.0
173
     0
291
     1
 45
0.0
1001
ACAD
1000
AcDbSavedByObjectVersion
1070
     0
  0
VISUALSTYLE
  5
38
102
{ACAD_REACTORS
330
2A
102
}
330
2A
100
AcDbVisualStyle
  2
Linepattern
 70
    14
 71
     2
 72
     2
 73
     0
 90
        0
 40
-0.6
 41
-30.0
 62
     5
 63
     7
 74
     1
 91
        4
 64
     7
 65
   257
 75
     7
175
     7
 42
1.0
 92
        8
 66
     7
 43
1.0
 76
     1
 77
     6
 78
     2
 67
     7
 79
     5
170
     0
171
     0
290
     0
174
     0
 93
        1
 44
0.0
173
     0
291
     1
 45
0.0
1001
ACAD
1000
AcDbSavedByObjectVersion
1070
     0
  0
VISUALSTYLE
  5
33
102
{ACAD_REACTORS
330
2A
102
}
330
2A
100
AcDbVisualStyle
  2
Realistic
 70
     8
 71
     2
 72
     2
 73
     0
 90
        0
 40
-0.6
 41
-30.0
 62
     5
 63
     7
 74
     1
 91
        0
 64
     7
 65
   257
 75
     1
175
     1
 42
1.0
 92
        8
 66
     8
 43
1.0
 76
     1
 77
     6
 78
     2
 67
     7
 79
     5
170
     0
171
     0
290
     0
174
     0
 93
       13
 44
0.0
173
     0
291
     0
 45
0.0
1001
ACAD
1000
AcDbSavedByObjectVersion
1070
     0
  0
VISUALSTYLE
  5
37
102
{ACAD_REACTORS
330
2A
102
}
330
2A
100
AcDbVisualStyle
  2
Thicken
 70
    13
 71
     2
 72
     2
 73
     0
 90
        0
 40
-0.6
 41
-30.0
 62
     5
 63
     7
 74
     1
 91
        4
 64
     7
 65
   257
 75
     1
175
     1
 42
1.0
 92
       12
 66
     7
 43
1.0
 76
     1
 77
     6
 78
     2
 67
     7
 79
     5
170
     0
171
     0
290
     0
174
     0
 93
        1
 44
0.0
173
     0
291
     1
 45
0.0
1001
ACAD
1000
AcDbSavedByObjectVersion
1070
     0
  0
DICTIONARYVAR
  5
2F2
102
{ACAD_REACTORS
330
2F0
102
}
330
2F0
100
DictionaryVariables
280
     0
  1
80.000000
  0
DICTIONARYVAR
  5
2F1
102
{ACAD_REACTORS
330
2F0
102
}
330
2F0
100
DictionaryVariables
280
     0
  1
5.000000
  0
DICTIONARY
  5
2F3
330
1E
100
AcDbDictionary
280
     1
281
     1
  3
ACAD_XREC_ROUNDTRIP
360
2F4
  0
DICTIONARY
  5
2F7
330
26
100
AcDbDictionary
280
     1
281
     1
  3
ACAD_XREC_ROUNDTRIP
360
2F8
  0
DICTIONARY
  5
2F5
330
22
100
AcDbDictionary
280
     1
281
     1
  3
ACAD_XREC_ROUNDTRIP
360
2F6
  0
XRECORD
  5
2F4
102
{ACAD_REACTORS
330
2F3
102
}
330
2F3
100
AcDbXrecord
280
     1
102
SHADEPLOT
 70
     0
102
SHADEPLOTRESLEVEL
 70
     5
102
SHADEPLOTCUSTOMDPI
 70
   300
  0
XRECORD
  5
2F8
102
{ACAD_REACTORS
330
2F7
102
}
330
2F7
100
AcDbXrecord
280
     1
102
SHADEPLOT
 70
     0
102
SHADEPLOTRESLEVEL
 70
     5
102
SHADEPLOTCUSTOMDPI
 70
   300
  0
XRECORD
  5
2F6
102
{ACAD_REACTORS
330
2F5
102
}
330
2F5
100
AcDbXrecord
280
     1
102
SHADEPLOT
 70
     0
102
SHADEPLOTRESLEVEL
 70
     5
102
SHADEPLOTCUSTOMDPI
 70
   300
  0
ENDSEC
  0
EOF
