  0
SECTION
  2
HEADER
  9
$ACADVER
  1
AC1018
  9
$ACADMAINTVER
 70
     0
  9
$DWGCODEPAGE
  3
ANSI_932
  9
$INSBASE
 10
0.0
 20
0.0
 30
0.0
  9
$EXTMIN
 10
-2100.0
 20
-1485.0
 30
0.0
  9
$EXTMAX
 10
2100.0
 20
1485.0
 30
0.0
  9
$LIMMIN
 10
-2100.0
 20
-1485.0
  9
$LIMMAX
 10
2100.0
 20
1485.0
  9
$ORTHOMODE
 70
     0
  9
$REGENMODE
 70
     1
  9
$FILLMODE
 70
     1
  9
$QTEXTMODE
 70
     0
  9
$MIRRTEXT
 70
     1
  9
$LTSCALE
 40
10.0
  9
$ATTMODE
 70
     1
  9
$TEXTSIZE
 40
2.5
  9
$TRACEWID
 40
1.0
  9
$TEXTSTYLE
  7
Standard
  9
$CLAYER
  8
0
  9
$CELTYPE
  6
ByLayer
  9
$CECOLOR
 62
   256
  9
$CELTSCALE
 40
1.0
  9
$DISPSILH
 70
     0
  9
$DIMSCALE
 40
1.0
  9
$DIMASZ
 40
2.5
  9
$DIMEXO
 40
0.625
  9
$DIMDLI
 40
3.75
  9
$DIMRND
 40
0.0
  9
$DIMDLE
 40
0.0
  9
$DIMEXE
 40
1.25
  9
$DIMTP
 40
0.0
  9
$DIMTM
 40
0.0
  9
$DIMTXT
 40
2.5
  9
$DIMCEN
 40
2.5
  9
$DIMTSZ
 40
0.0
  9
$DIMTOL
 70
     0
  9
$DIMLIM
 70
     0
  9
$DIMTIH
 70
     0
  9
$DIMTOH
 70
     0
  9
$DIMSE1
 70
     0
  9
$DIMSE2
 70
     0
  9
$DIMTAD
 70
     1
  9
$DIMZIN
 70
     8
  9
$DIMBLK
  1

  9
$DIMASO
 70
     1
  9
$DIMSHO
 70
     1
  9
$DIMPOST
  1

  9
$DIMAPOST
  1

  9
$DIMALT
 70
     0
  9
$DIMALTD
 70
     3
  9
$DIMALTF
 40
0.03937007874016
  9
$DIMLFAC
 40
1.0
  9
$DIMTOFL
 70
     1
  9
$DIMTVP
 40
0.0
  9
$DIMTIX
 70
     0
  9
$DIMSOXD
 70
     0
  9
$DIMSAH
 70
     0
  9
$DIMBLK1
  1

  9
$DIMBLK2
  1

  9
$DIMSTYLE
  2
ISO-25
  9
$DIMCLRD
 70
     0
  9
$DIMCLRE
 70
     0
  9
$DIMCLRT
 70
     0
  9
$DIMTFAC
 40
1.0
  9
$DIMGAP
 40
0.625
  9
$DIMJUST
 70
     0
  9
$DIMSD1
 70
     0
  9
$DIMSD2
 70
     0
  9
$DIMTOLJ
 70
     0
  9
$DIMTZIN
 70
     8
  9
$DIMALTZ
 70
     0
  9
$DIMALTTZ
 70
     0
  9
$DIMUPT
 70
     0
  9
$DIMDEC
 70
     2
  9
$DIMTDEC
 70
     2
  9
$DIMALTU
 70
     2
  9
$DIMALTTD
 70
     3
  9
$DIMTXSTY
  7
Standard
  9
$DIMAUNIT
 70
     0
  9
$DIMADEC
 70
     0
  9
$DIMALTRND
 40
0.0
  9
$DIMAZIN
 70
     0
  9
$DIMDSEP
 70
    44
  9
$DIMATFIT
 70
     3
  9
$DIMFRAC
 70
     0
  9
$DIMLDRBLK
  1

  9
$DIMLUNIT
 70
     2
  9
$DIMLWD
 70
    -2
  9
$DIMLWE
 70
    -2
  9
$DIMTMOVE
 70
     0
  9
$LUNITS
 70
     2
  9
$LUPREC
 70
     4
  9
$SKETCHINC
 40
1.0
  9
$FILLETRAD
 40
10.0
  9
$AUNITS
 70
     0
  9
$AUPREC
 70
     0
  9
$MENU
  1
.
  9
$ELEVATION
 40
0.0
  9
$PELEVATION
 40
0.0
  9
$THICKNESS
 40
0.0
  9
$LIMCHECK
 70
     0
  9
$CHAMFERA
 40
10.0
  9
$CHAMFERB
 40
10.0
  9
$CHAMFERC
 40
20.0
  9
$CHAMFERD
 40
0.0
  9
$SKPOLY
 70
     0
  9
$TDCREATE
 40
2456498.819347003
  9
$TDUCREATE
 40
2456498.444347003
  9
$TDUPDATE
 40
2456498.819347014
  9
$TDUUPDATE
 40
2456498.444347014
  9
$TDINDWG
 40
0.0000000116
  9
$TDUSRTIMER
 40
0.0000000116
  9
$USRTIMER
 70
     1
  9
$ANGBASE
 50
0.0
  9
$ANGDIR
 70
     0
  9
$PDMODE
 70
     0
  9
$PDSIZE
 40
0.0
  9
$PLINEWID
 40
0.0
  9
$SPLFRAME
 70
     0
  9
$SPLINETYPE
 70
     6
  9
$SPLINESEGS
 70
     8
  9
$HANDSEED
  5
373
  9
$SURFTAB1
 70
     6
  9
$SURFTAB2
 70
     6
  9
$SURFTYPE
 70
     6
  9
$SURFU
 70
     6
  9
$SURFV
 70
     6
  9
$UCSBASE
  2

  9
$UCSNAME
  2

  9
$UCSORG
 10
0.0
 20
0.0
 30
0.0
  9
$UCSXDIR
 10
1.0
 20
0.0
 30
0.0
  9
$UCSYDIR
 10
0.0
 20
1.0
 30
0.0
  9
$UCSORTHOREF
  2

  9
$UCSORTHOVIEW
 70
     0
  9
$UCSORGTOP
 10
0.0
 20
0.0
 30
0.0
  9
$UCSORGBOTTOM
 10
0.0
 20
0.0
 30
0.0
  9
$UCSORGLEFT
 10
0.0
 20
0.0
 30
0.0
  9
$UCSORGRIGHT
 10
0.0
 20
0.0
 30
0.0
  9
$UCSORGFRONT
 10
0.0
 20
0.0
 30
0.0
  9
$UCSORGBACK
 10
0.0
 20
0.0
 30
0.0
  9
$PUCSBASE
  2

  9
$PUCSNAME
  2

  9
$PUCSORG
 10
0.0
 20
0.0
 30
0.0
  9
$PUCSXDIR
 10
1.0
 20
0.0
 30
0.0
  9
$PUCSYDIR
 10
0.0
 20
1.0
 30
0.0
  9
$PUCSORTHOREF
  2

  9
$PUCSORTHOVIEW
 70
     0
  9
$PUCSORGTOP
 10
0.0
 20
0.0
 30
0.0
  9
$PUCSORGBOTTOM
 10
0.0
 20
0.0
 30
0.0
  9
$PUCSORGLEFT
 10
0.0
 20
0.0
 30
0.0
  9
$PUCSORGRIGHT
 10
0.0
 20
0.0
 30
0.0
  9
$PUCSORGFRONT
 10
0.0
 20
0.0
 30
0.0
  9
$PUCSORGBACK
 10
0.0
 20
0.0
 30
0.0
  9
$USERI1
 70
     0
  9
$USERI2
 70
     0
  9
$USERI3
 70
     0
  9
$USERI4
 70
     0
  9
$USERI5
 70
     0
  9
$USERR1
 40
0.0
  9
$USERR2
 40
0.0
  9
$USERR3
 40
0.0
  9
$USERR4
 40
0.0
  9
$USERR5
 40
0.0
  9
$WORLDVIEW
 70
     1
  9
$SHADEDGE
 70
     3
  9
$SHADEDIF
 70
    70
  9
$TILEMODE
 70
     1
  9
$MAXACTVP
 70
    64
  9
$PINSBASE
 10
0.0
 20
0.0
 30
0.0
  9
$PLIMCHECK
 70
     0
  9
$PEXTMIN
 10
1.000000000000000E+20
 20
1.000000000000000E+20
 30
1.000000000000000E+20
  9
$PEXTMAX
 10
-1.000000000000000E+20
 20
-1.000000000000000E+20
 30
-1.000000000000000E+20
  9
$PLIMMIN
 10
0.0
 20
0.0
  9
$PLIMMAX
 10
420.0
 20
297.0
  9
$UNITMODE
 70
     0
  9
$VISRETAIN
 70
     1
  9
$PLINEGEN
 70
     0
  9
$PSLTSCALE
 70
     1
  9
$TREEDEPTH
 70
  3020
  9
$CMLSTYLE
  2
Standard
  9
$CMLJUST
 70
     0
  9
$CMLSCALE
 40
20.0
  9
$PROXYGRAPHICS
 70
     1
  9
$MEASUREMENT
 70
     1
  9
$CELWEIGHT
370
    -1
  9
$ENDCAPS
280
     0
  9
$JOINSTYLE
280
     0
  9
$LWDISPLAY
290
     0
  9
$INSUNITS
 70
     4
  9
$HYPERLINKBASE
  1

  9
$STYLESHEET
  1

  9
$XEDIT
290
     1
  9
$CEPSNTYPE
380
     0
  9
$PSTYLEMODE
290
     1
  9
$FINGERPRINTGUID
  2
{11C7B5D7-EED5-4FDE-BCAD-4D78472BB28D}
  9
$VERSIONGUID
  2
{FAEB1C32-E019-11D5-929B-00C0DF256EC4}
  9
$EXTNAMES
290
     1
  9
$PSVPSCALE
 40
0.0
  9
$OLESTARTUP
290
     0
  9
$SORTENTS
280
   127
  9
$INDEXCTL
280
     0
  9
$HIDETEXT
280
     1
  9
$XCLIPFRAME
290
     0
  9
$HALOGAP
280
     0
  9
$OBSCOLOR
 70
   257
  9
$OBSLTYPE
280
     0
  9
$INTERSECTIONDISPLAY
280
     0
  9
$INTERSECTIONCOLOR
 70
   257
  9
$DIMASSOC
280
     2
  9
$PROJECTNAME
  1

  0
ENDSEC
  0
SECTION
  2
CLASSES
  0
CLASS
  1
ACDBDICTIONARYWDFLT
  2
AcDbDictionaryWithDefault
  3
ObjectDBX Classes
 90
        0
 91
        4
280
     0
281
     0
  0
CLASS
  1
VISUALSTYLE
  2
AcDbVisualStyle
  3
ObjectDBX Classes
 90
     4095
 91
        4
280
     0
281
     0
  0
ENDSEC
  0
SECTION
  2
TABLES
  0
TABLE
  2
VPORT
  5
8
330
0
100
AcDbSymbolTable
 70
     1
  0
VPORT
  5
29
330
8
100
AcDbSymbolTableRecord
100
AcDbViewportTableRecord
  2
*Active
 70
     0
 10
0.0
 20
0.0
 11
1.0
 21
1.0
 12
0.0
 22
0.0
 13
0.0
 23
0.0
 14
10.0
 24
10.0
 15
10.0
 25
10.0
 16
0.0
 26
0.0
 36
1.0
 17
0.0
 27
0.0
 37
0.0
 40
3267.0
 41
1.414141414141414
 42
50.0
 43
0.0
 44
0.0
 50
0.0
 51
0.0
 71
     0
 72
 10000
 73
     1
 74
     3
 75
     0
 76
     0
 77
     0
 78
     0
281
     0
 65
     1
110
0.0
120
0.0
130
0.0
111
1.0
121
0.0
131
0.0
112
0.0
122
1.0
132
0.0
 79
     0
146
0.0
  0
ENDTAB
  0
TABLE
  2
LTYPE
  5
5
330
0
100
AcDbSymbolTable
 70
     4
  0
LTYPE
  5
14
330
5
100
AcDbSymbolTableRecord
100
AcDbLinetypeTableRecord
  2
ByBlock
 70
     0
  3

 72
    65
 73
     0
 40
0.0
  0
LTYPE
  5
15
330
5
100
AcDbSymbolTableRecord
100
AcDbLinetypeTableRecord
  2
ByLayer
 70
     0
  3

 72
    65
 73
     0
 40
0.0
  0
LTYPE
  5
16
330
5
100
AcDbSymbolTableRecord
100
AcDbLinetypeTableRecord
  2
Continuous
 70
     0
  3
Solid line
 72
    65
 73
     0
 40
0.0
  0
LTYPE
  5
3C
330
5
100
AcDbSymbolTableRecord
100
AcDbLinetypeTableRecord
  2
JWW_DASHED1
 70
     0
  3
-  --  --  --  --  --  --  --  -
 72
    65
 73
     2
 40
1.693333333333333
 49
0.8466666666666667
 74
     0
 49
-0.8466666666666667
 74
     0
  0
LTYPE
  5
3D
330
5
100
AcDbSymbolTableRecord
100
AcDbLinetypeTableRecord
  2
JWW_CENTER1
 70
     0
  3
-----  --  ----------  --  -----
 72
    65
 73
     4
 40
6.773333333333333
 49
4.233333333333333
 74
     0
 49
-0.8466666666666667
 74
     0
 49
0.8466666666666667
 74
     0
 49
-0.8466666666666667
 74
     0
  0
LTYPE
  5
3E
330
5
100
AcDbSymbolTableRecord
100
AcDbLinetypeTableRecord
  2
JWW_PHANTOM1
 70
     0
  3
----  -  -  --------  -  -  ----
 72
    65
 73
     6
 40
6.773333333333333
 49
3.386666666666667
 74
     0
 49
-0.8466666666666667
 74
     0
 49
0.4233333333333333
 74
     0
 49
-0.8466666666666667
 74
     0
 49
0.4233333333333333
 74
     0
 49
-0.8466666666666667
 74
     0
  0
ENDTAB
  0
TABLE
  2
LAYER
  5
2
330
0
100
AcDbSymbolTable
 70
     7
  0
LAYER
  5
10
330
2
100
AcDbSymbolTableRecord
100
AcDbLayerTableRecord
  2
0
 70
     0
 62
     7
  6
Continuous
370
    -3
390
F
  0
LAYER
  5
3F
330
2
100
AcDbSymbolTableRecord
100
AcDbLayerTableRecord
  2
0-1_ピット
 70
     0
 62
     7
  6
Continuous
370
    -3
390
F
  0
LAYER
  5
40
330
2
100
AcDbSymbolTableRecord
100
AcDbLayerTableRecord
  2
0-4_寸法
 70
     0
 62
     7
  6
Continuous
370
    -3
390
F
  0
LAYER
  5
41
330
2
100
AcDbSymbolTableRecord
100
AcDbLayerTableRecord
  2
0-0_通り芯
 70
     0
 62
     7
  6
Continuous
370
    -3
390
F
  0
LAYER
  5
42
330
2
100
AcDbSymbolTableRecord
100
AcDbLayerTableRecord
  2
0-A
 70
     0
 62
     7
  6
Continuous
370
    -3
390
F
  0
LAYER
  5
43
330
2
100
AcDbSymbolTableRecord
100
AcDbLayerTableRecord
  2
0-2_本体（蓋）
 70
     0
 62
     7
  6
Continuous
370
    -3
390
F
  0
LAYER
  5
44
330
2
100
AcDbSymbolTableRecord
100
AcDbLayerTableRecord
  2
0-5_文字
 70
     0
 62
     7
  6
Continuous
370
    -3
390
F
  0
ENDTAB
  0
TABLE
  2
STYLE
  5
3
330
0
100
AcDbSymbolTable
 70
     2
  0
STYLE
  5
11
330
3
100
AcDbSymbolTableRecord
100
AcDbTextStyleTableRecord
  2
Standard
 70
     0
 40
0.0
 41
1.0
 50
0.0
 71
     0
 42
2.5
  3
txt
  4

1001
ACAD
1000

1071
        0
  0
STYLE
  5
3B
330
3
100
AcDbSymbolTableRecord
100
AcDbTextStyleTableRecord
  2
ＭＳ ゴシック
 70
     0
 40
1.0
 41
1.0
 50
0.0
 71
     0
 42
10.0
  3

  4

1001
ACAD
1000
MS Gothic
1071
    32817
  0
ENDTAB
  0
TABLE
  2
VIEW
  5
6
330
0
100
AcDbSymbolTable
 70
     0
  0
ENDTAB
  0
TABLE
  2
UCS
  5
7
330
0
100
AcDbSymbolTable
 70
     0
  0
ENDTAB
  0
TABLE
  2
APPID
  5
9
330
0
100
AcDbSymbolTable
 70
     1
  0
APPID
  5
12
330
9
100
AcDbSymbolTableRecord
100
AcDbRegAppTableRecord
  2
ACAD
 70
     0
  0
ENDTAB
  0
TABLE
  2
DIMSTYLE
  5
A
330
0
100
AcDbSymbolTable
 70
     1
100
AcDbDimStyleTable
  0
DIMSTYLE
105
27
330
A
100
AcDbSymbolTableRecord
100
AcDbDimStyleTableRecord
  2
ISO-25
 70
     0
 41
2.5
 42
0.625
 43
3.75
 44
1.25
 73
     0
 74
     0
 77
     1
 78
     8
140
2.5
141
2.5
143
0.03937007874016
147
0.625
171
     3
172
     1
271
     2
272
     2
274
     3
278
    44
283
     0
284
     8
340
11
  0
ENDTAB
  0
TABLE
  2
BLOCK_RECORD
  5
1
330
0
100
AcDbSymbolTable
 70
     1
  0
BLOCK_RECORD
  5
1F
330
1
100
AcDbSymbolTableRecord
100
AcDbBlockTableRecord
  2
*Model_Space
340
22
  0
BLOCK_RECORD
  5
1B
330
1
100
AcDbSymbolTableRecord
100
AcDbBlockTableRecord
  2
*Paper_Space
340
1E
  0
BLOCK_RECORD
  5
23
330
1
100
AcDbSymbolTableRecord
100
AcDbBlockTableRecord
  2
*Paper_Space0
340
26
  0
ENDTAB
  0
ENDSEC
  0
SECTION
  2
BLOCKS
  0
BLOCK
  5
20
330
1F
100
AcDbEntity
  8
0
100
AcDbBlockBegin
  2
*Model_Space
 70
     0
 10
0.0
 20
0.0
 30
0.0
  3
*Model_Space
  1

  0
ENDBLK
  5
21
330
1F
100
AcDbEntity
  8
0
100
AcDbBlockEnd
  0
BLOCK
  5
1C
330
1B
100
AcDbEntity
 67
     1
  8
0
100
AcDbBlockBegin
  2
*Paper_Space
 70
     0
 10
0.0
 20
0.0
 30
0.0
  3
*Paper_Space
  1

  0
ENDBLK
  5
1D
330
1B
100
AcDbEntity
 67
     1
  8
0
100
AcDbBlockEnd
  0
BLOCK
  5
24
330
23
100
AcDbEntity
  8
0
100
AcDbBlockBegin
  2
*Paper_Space0
 70
     0
 10
0.0
 20
0.0
 30
0.0
  3
*Paper_Space0
  1

  0
ENDBLK
  5
25
330
23
100
AcDbEntity
  8
0
100
AcDbBlockEnd
  0
ENDSEC
  0
SECTION
  2
ENTITIES
  0
LINE
  5
45
330
1F
100
AcDbEntity
  8
0-1_ピット
  6
Continuous
 62
     4
370
    13
100
AcDbLine
 10
-261.2986135388084
 20
-82.47557328698261
 30
0.0
 11
-239.1418408516404
 21
-82.47557328698261
 31
0.0
  0
LINE
  5
46
330
1F
100
AcDbEntity
  8
0-1_ピット
  6
Continuous
 62
     4
370
    13
100
AcDbLine
 10
-263.5535785955923
 20
-84.7289052409372
 30
0.0
 11
-236.8869924450584
 21
-84.72890524093722
 31
0.0
  0
LINE
  5
47
330
1F
100
AcDbEntity
  8
0-4_寸法
  6
Continuous
 62
     7
370
    13
100
AcDbLine
 10
521.5613943808532
 20
-84.14224392115563
 30
0.0
 11
238.5405827263267
 21
-84.1422439211556
 31
0.0
  0
LINE
  5
48
330
1F
100
AcDbEntity
  8
0-4_寸法
  6
Continuous
 62
     7
370
    13
100
AcDbLine
 10
521.5613943808532
 20
142.0457641552802
 30
0.0
 11
80.20662999851346
 21
142.0457641552803
 31
0.0
  0
ARC
  5
49
330
1F
100
AcDbEntity
  8
0-1_ピット
  6
Continuous
 62
     4
370
    13
100
AcDbCircle
 10
-250.2202271952247
 20
-136.6822486163998
 30
0.0
 40
44.72742758202276
100
AcDbArc
 50
72.65640258789062
 51
107.3435974121094
  0
ARC
  5
4A
330
1F
100
AcDbEntity
  8
0-0_通り芯
  6
Continuous
 62
     3
370
    13
100
AcDbCircle
 10
-244.6362986709273
 20
-176.0060815959333
 30
0.0
 40
23.33333214277466
100
AcDbArc
 50
4.085449218749996
 51
25.37181091308593
  0
ARC
  5
4B
330
1F
100
AcDbEntity
  8
0-0_通り芯
  6
JWW_DASHED1
 62
     3
370
    13
100
AcDbCircle
 10
-244.6362986709273
 20
-176.0060815959333
 30
0.0
 40
23.33333214277466
100
AcDbArc
 50
25.37181091308593
 51
85.99998474121094
  0
ARC
  5
4C
330
1F
100
AcDbEntity
  8
0-0_通り芯
  6
Continuous
 62
     3
370
    13
100
AcDbCircle
 10
-106.8867579663694
 20
837.5865384288766
 30
0.0
 40
330.00000972085
100
AcDbArc
 50
0.0
 51
180.0
  0
ARC
  5
4D
330
1F
100
AcDbEntity
  8
0-0_通り芯
  6
Continuous
 62
     3
370
    13
100
AcDbCircle
 10
-106.8867579663694
 20
837.5865384288766
 30
0.0
 40
333.3333184083916
100
AcDbArc
 50
0.0
 51
180.0
  0
LINE
  5
4E
330
1F
100
AcDbEntity
  8
0-0_通り芯
  6
JWW_CENTER1
 62
     3
370
    13
100
AcDbLine
 10
-466.3672775004472
 20
837.5865384288766
 30
0.0
 11
263.8251346513459
 21
837.5865384288763
 31
0.0
  0
LINE
  5
4F
330
1F
100
AcDbEntity
  8
0-1_ピット
  6
Continuous
 62
     2
370
    13
100
AcDbLine
 10
-406.8869311742453
 20
-91.28758916900573
 30
0.0
 11
-405.2202330866488
 21
-84.62103011902383
 31
0.0
  0
LINE
  5
50
330
1F
100
AcDbEntity
  8
0-1_ピット
  6
Continuous
 62
     2
370
    13
100
AcDbLine
 10
-386.6903484831557
 20
-84.62103011902383
 30
0.0
 11
-405.2202330866488
 21
-84.62103011902383
 31
0.0
  0
LINE
  5
51
330
1F
100
AcDbEntity
  8
0-1_ピット
  6
Continuous
 62
     2
370
    13
100
AcDbLine
 10
-341.8867556097997
 20
-71.28779536885799
 30
0.0
 11
-351.8869441353789
 21
-71.28779536885799
 31
0.0
  0
LINE
  5
52
330
1F
100
AcDbEntity
  8
0-1_ピット
  6
Continuous
 62
     2
370
    13
100
AcDbLine
 10
-353.5301955323533
 20
-82.01856411018593
 30
0.0
 11
-351.8869441353789
 21
-71.28779536885799
 31
0.0
  0
LINE
  5
53
330
1F
100
AcDbEntity
  8
0-1_ピット
  6
Continuous
 62
     2
370
    13
100
AcDbLine
 10
193.1131819411021
 20
-91.28758916900587
 30
0.0
 11
191.4462505531014
 21
-84.62103011902407
 31
0.0
  0
LINE
  5
54
330
1F
100
AcDbEntity
  8
0-1_ピット
  6
Continuous
 62
     2
370
    13
100
AcDbLine
 10
172.9165992500126
 20
-84.62103011902407
 30
0.0
 11
191.4462505531014
 21
-84.62103011902407
 31
0.0
  0
LINE
  5
55
330
1F
100
AcDbEntity
  8
0-1_ピット
  6
Continuous
 62
     2
370
    13
100
AcDbLine
 10
139.7566795996144
 20
-82.01856411018593
 30
0.0
 11
138.1130782520336
 21
-71.28779536885813
 31
0.0
  0
LINE
  5
56
330
1F
100
AcDbEntity
  8
0-1_ピット
  6
Continuous
 62
     2
370
    13
100
AcDbLine
 10
-270.2201376455743
 20
-109.6210348321635
 30
0.0
 11
-266.8869747707856
 21
-126.2877824077245
 31
0.0
  0
LINE
  5
57
330
1F
100
AcDbEntity
  8
0-1_ピット
  6
Continuous
 62
     2
370
    13
100
AcDbLine
 10
-230.2200834444704
 20
-109.6210348321635
 30
0.0
 11
-233.5535962698654
 21
-126.2877824077245
 31
0.0
  0
LINE
  5
58
330
1F
100
AcDbEntity
  8
0-1_ピット
  6
Continuous
 62
     2
370
    13
100
AcDbLine
 10
-209.4163364514534
 20
-113.6406841463074
 30
0.0
 11
-206.8867768189276
 21
-126.2877824077245
 31
0.0
  0
LINE
  5
59
330
1F
100
AcDbEntity
  8
0-1_ピット
  6
Continuous
 62
     2
370
    13
100
AcDbLine
 10
-366.0031350420361
 20
-90.16436437299046
 30
0.0
 11
-386.6903484831557
 21
-84.62103011902383
 31
0.0
  0
LINE
  5
5A
330
1F
100
AcDbEntity
  8
0-1_ピット
  6
Continuous
 62
     2
370
    13
100
AcDbLine
 10
80.71278000456715
 20
-95.41187371443293
 30
0.0
 11
78.85570878714447
 21
-105.8490338970766
 31
0.0
  0
LINE
  5
5B
330
1F
100
AcDbEntity
  8
0-1_ピット
  6
JWW_DASHED1
 62
     2
370
    13
100
AcDbLine
 10
125.1289775567514
 20
-87.20891485259962
 30
0.0
 11
123.8861863035842
 21
-93.84094544276017
 31
0.0
  0
LINE
  5
5C
330
1F
100
AcDbEntity
  8
0-1_ピット
  6
Continuous
 62
     2
370
    13
100
AcDbLine
 10
60.95433547256334
 20
-114.6212457451552
 30
0.0
 11
74.01752500486879
 21
-111.1209231307578
 31
0.0
  0
LINE
  5
5D
330
1F
100
AcDbEntity
  8
0-1_ピット
  6
JWW_DASHED1
 62
     2
370
    13
100
AcDbLine
 10
74.01752500486879
 20
-111.1209231307578
 30
0.0
 11
152.2296191092971
 21
-90.16389777218234
 31
0.0
  0
LINE
  5
5E
330
1F
100
AcDbEntity
  8
0-1_ピット
  6
Continuous
 62
     2
370
    13
100
AcDbLine
 10
152.2296191092971
 20
-90.16389777218234
 30
0.0
 11
172.9165992500126
 21
-84.62103011902407
 31
0.0
  0
LINE
  5
5F
330
1F
100
AcDbEntity
  8
0-1_ピット
  6
Continuous
 62
     2
370
    13
100
AcDbLine
 10
128.1131230268588
 20
-71.28779536885813
 30
0.0
 11
125.1289775567514
 21
-87.20891485259962
 31
0.0
  0
LINE
  5
60
330
1F
100
AcDbEntity
  8
0-1_ピット
  6
Continuous
 62
     2
370
    13
100
AcDbLine
 10
128.1131230268588
 20
-71.28779536885813
 30
0.0
 11
138.1130782520336
 21
-71.28779536885813
 31
0.0
  0
LINE
  5
61
330
1F
100
AcDbEntity
  8
0-1_ピット
  6
Continuous
 62
     4
370
    13
100
AcDbLine
 10
-275.2205818589701
 20
-109.6210348321635
 30
0.0
 11
-225.2202224820851
 21
-109.6210348321635
 31
0.0
  0
LINE
  5
62
330
1F
100
AcDbEntity
  8
0-1_ピット
  6
Continuous
 62
     2
370
    13
100
AcDbLine
 10
-263.5534619453904
 20
-126.2877824077245
 30
0.0
 11
-276.2641345669517
 21
-126.2877824077245
 31
0.0
  0
LINE
  5
63
330
1F
100
AcDbEntity
  8
0-1_ピット
  6
Continuous
 62
     2
370
    13
100
AcDbLine
 10
124.7797268516658
 20
-111.3230779309962
 30
0.0
 11
131.4462859016476
 21
-109.5363467854393
 31
0.0
  0
LINE
  5
64
330
1F
100
AcDbEntity
  8
0-1_ピット
  6
Continuous
 62
     2
370
    13
100
AcDbLine
 10
124.7797268516658
 20
-111.3230779309962
 30
0.0
 11
121.4460973760683
 21
-110.4907787390167
 31
0.0
  0
LINE
  5
65
330
1F
100
AcDbEntity
  8
0-1_ピット
  6
Continuous
 62
     2
370
    13
100
AcDbLine
 10
62.49015203340406
 20
-126.2877824077245
 30
0.0
 11
121.4460973760683
 21
-110.4907787390167
 31
0.0
  0
LINE
  5
66
330
1F
100
AcDbEntity
  8
0-1_ピット
  6
Continuous
 62
     2
370
    13
100
AcDbLine
 10
131.4462859016476
 20
-109.5363467854393
 30
0.0
 11
134.7801486776487
 21
-106.9177830487114
 31
0.0
  0
LINE
  5
67
330
1F
100
AcDbEntity
  8
0-1_ピット
  6
Continuous
 62
     2
370
    13
100
AcDbLine
 10
134.7801486776487
 20
-106.9177830487114
 30
0.0
 11
193.1131819411021
 21
-91.28758916900587
 31
0.0
  0
LINE
  5
68
330
1F
100
AcDbEntity
  8
0-1_ピット
  6
Continuous
 62
     2
370
    13
100
AcDbLine
 10
-338.5533594346067
 20
-111.3230779309962
 30
0.0
 11
-345.2202684351948
 21
-109.5363467854393
 31
0.0
  0
LINE
  5
69
330
1F
100
AcDbEntity
  8
0-1_ピット
  6
Continuous
 62
     2
370
    13
100
AcDbLine
 10
-345.2202684351948
 20
-109.5363467854393
 30
0.0
 11
-348.5537812605901
 21
-106.9180163491158
 31
0.0
  0
LINE
  5
6A
330
1F
100
AcDbEntity
  8
0-1_ピット
  6
Continuous
 62
     2
370
    13
100
AcDbLine
 10
-348.5537812605901
 20
-106.9180163491158
 30
0.0
 11
-406.8869311742453
 21
-91.28758916900573
 31
0.0
  0
LINE
  5
6B
330
1F
100
AcDbEntity
  8
0-1_ピット
  6
Continuous
 62
     2
370
    13
100
AcDbLine
 10
-338.5533594346067
 20
-111.3230779309962
 30
0.0
 11
-335.2203132100199
 21
-110.4907787390167
 31
0.0
  0
LINE
  5
6C
330
1F
100
AcDbEntity
  8
0-1_ピット
  6
Continuous
 62
     2
370
    13
100
AcDbLine
 10
-276.2641345669517
 20
-126.2877824077245
 30
0.0
 11
-335.2203132100199
 21
-110.4907787390167
 31
0.0
  0
LINE
  5
6D
330
1F
100
AcDbEntity
  8
0-1_ピット
  6
Continuous
 62
     2
370
    13
100
AcDbLine
 10
-236.8869924450584
 20
-126.2877824077245
 30
0.0
 11
62.49015203340406
 21
-126.2877824077245
 31
0.0
  0
LINE
  5
6E
330
1F
100
AcDbEntity
  8
0-1_ピット
  6
Continuous
 62
     2
370
    13
100
AcDbLine
 10
-209.2201308115224
 20
-114.6212457451552
 30
0.0
 11
60.95433547256334
 21
-114.6212457451552
 31
0.0
  0
LINE
  5
6F
330
1F
100
AcDbEntity
  8
0-1_ピット
  6
Continuous
 62
     2
370
    13
100
AcDbLine
 10
-328.5536375098361
 20
-91.28758916900587
 30
0.0
 11
-333.9886037260521
 21
-91.28758916900587
 31
0.0
  0
LINE
  5
70
330
1F
100
AcDbEntity
  8
0-1_ピット
  6
Continuous
 62
     2
370
    13
100
AcDbLine
 10
-294.4865292377105
 20
-95.41187371443293
 30
0.0
 11
-292.9368313028199
 21
-104.1222609553989
 31
0.0
  0
LINE
  5
71
330
1F
100
AcDbEntity
  8
0-1_ピット
  6
Continuous
 62
     2
370
    13
100
AcDbLine
 10
-341.8867556097997
 20
-71.28779536885799
 30
0.0
 11
-338.3309074992031
 21
-90.26060078972262
 31
0.0
  0
LINE
  5
72
330
1F
100
AcDbEntity
  8
0-1_ピット
  6
JWW_DASHED1
 62
     2
370
    13
100
AcDbLine
 10
-338.3309074992031
 20
-90.26060078972262
 30
0.0
 11
-337.6599355367273
 21
-93.84094544276017
 31
0.0
  0
LINE
  5
73
330
1F
100
AcDbEntity
  8
0-1_ピット
  6
JWW_DASHED1
 62
     2
370
    13
100
AcDbLine
 10
-328.5536375098361
 20
-100.1986147575827
 30
0.0
 11
-366.0031350420361
 21
-90.16436437299046
 31
0.0
  0
LINE
  5
74
330
1F
100
AcDbEntity
  8
0-1_ピット
  6
Continuous
 62
     2
370
    13
100
AcDbLine
 10
-214.319144445692
 20
-109.6210348321635
 30
0.0
 11
-286.3732743812916
 21
-109.6210348321635
 31
0.0
  0
LINE
  5
75
330
1F
100
AcDbEntity
  8
0-1_ピット
  6
JWW_DASHED1
 62
     2
370
    13
100
AcDbLine
 10
-286.3732743812916
 20
-109.6210348321635
 30
0.0
 11
-293.3885008853487
 21
-109.6210348321635
 31
0.0
  0
LINE
  5
76
330
1F
100
AcDbEntity
  8
0-1_ピット
  6
Continuous
 62
     4
370
    13
100
AcDbLine
 10
-274.1870610683694
 20
-93.98839129821376
 30
0.0
 11
-274.1870610683694
 21
-109.6210348321635
 31
0.0
  0
LINE
  5
77
330
1F
100
AcDbEntity
  8
0-1_ピット
  6
Continuous
 62
     4
370
    13
100
AcDbLine
 10
-231.5700762333668
 20
-91.95471167481237
 30
0.0
 11
-268.8702615068798
 21
-91.95471167481237
 31
0.0
  0
LINE
  5
78
330
1F
100
AcDbEntity
  8
0-1_ピット
  6
Continuous
 62
     4
370
    13
100
AcDbLine
 10
-226.2533933220797
 20
-93.98839129821376
 30
0.0
 11
-226.2533933220797
 21
-109.6210348321635
 31
0.0
  0
LINE
  5
79
330
1F
100
AcDbEntity
  8
0-1_ピット
  6
Continuous
 62
     4
370
    13
100
AcDbLine
 10
-263.5535785955923
 20
-93.98839129821376
 30
0.0
 11
-263.5535785955923
 21
-146.8873915470675
 31
0.0
  0
LINE
  5
7A
330
1F
100
AcDbEntity
  8
0-1_ピット
  6
Continuous
 62
     4
370
    13
100
AcDbLine
 10
-236.8869924450584
 20
-146.8873915470675
 30
0.0
 11
-263.5535785955923
 21
-146.8873915470675
 31
0.0
  0
LINE
  5
7B
330
1F
100
AcDbEntity
  8
0-1_ピット
  6
Continuous
 62
     4
370
    13
100
AcDbLine
 10
-263.5535785955923
 20
-146.8873915470675
 30
0.0
 11
-261.2986135388084
 21
-149.1422399536493
 31
0.0
  0
LINE
  5
7C
330
1F
100
AcDbEntity
  8
0-1_ピット
  6
Continuous
 62
     4
370
    13
100
AcDbLine
 10
-261.2986135388084
 20
-149.1422399536493
 30
0.0
 11
-239.1418408516404
 21
-149.1422399536493
 31
0.0
  0
LINE
  5
7D
330
1F
100
AcDbEntity
  8
0-1_ピット
  6
Continuous
 62
     4
370
    13
100
AcDbLine
 10
-239.1418408516404
 20
-149.1422399536493
 30
0.0
 11
-236.8869924450584
 21
-146.8873915470675
 31
0.0
  0
LINE
  5
7E
330
1F
100
AcDbEntity
  8
0-1_ピット
  6
Continuous
 62
     4
370
    13
100
AcDbLine
 10
-236.8869924450584
 20
-93.98839129821376
 30
0.0
 11
-236.8869924450584
 21
-146.8873915470675
 31
0.0
  0
LINE
  5
7F
330
1F
100
AcDbEntity
  8
0-1_ピット
  6
Continuous
 62
     4
370
    13
100
AcDbLine
 10
-261.2986135388084
 20
-109.6210348321635
 30
0.0
 11
-261.2986135388084
 21
-149.1422399536493
 31
0.0
  0
LINE
  5
80
330
1F
100
AcDbEntity
  8
0-1_ピット
  6
JWW_DASHED1
 62
     2
370
    13
100
AcDbLine
 10
-293.3885008853487
 20
-109.6210348321635
 30
0.0
 11
-308.5533771088798
 21
-105.5577583424343
 31
0.0
  0
LINE
  5
81
330
1F
100
AcDbEntity
  8
0-1_ピット
  6
Continuous
 62
     4
370
    13
100
AcDbLine
 10
-239.1418408516404
 20
-109.6210348321635
 30
0.0
 11
-239.1418408516404
 21
-149.1422399536493
 31
0.0
  0
LINE
  5
82
330
1F
100
AcDbEntity
  8
0-1_ピット
  6
Continuous
 62
     2
370
    13
100
AcDbLine
 10
85.6351852327586
 20
-91.28758916900587
 30
0.0
 11
97.67978520033239
 21
-91.28758916900587
 31
0.0
  0
LINE
  5
83
330
1F
100
AcDbEntity
  8
0-1_ピット
  6
Continuous
 62
     2
370
    13
100
AcDbLine
 10
111.8798476022991
 20
-91.28758916900587
 30
0.0
 11
120.2147378427068
 21
-91.28758916900587
 31
0.0
  0
LINE
  5
84
330
1F
100
AcDbEntity
  8
0-1_ピット
  6
Continuous
 62
     2
370
    13
100
AcDbLine
 10
-311.4535344334755
 20
-91.28758916900587
 30
0.0
 11
-299.4091677663062
 21
-91.28758916900587
 31
0.0
  0
LINE
  5
85
330
1F
100
AcDbEntity
  8
0-0_通り芯
  6
Continuous
 62
     3
370
    13
100
AcDbLine
 10
-433.5532840243749
 20
-84.14229768960791
 30
0.0
 11
-394.0346452073352
 21
-94.73121978518272
 31
0.0
  0
LINE
  5
86
330
1F
100
AcDbEntity
  8
0-0_通り芯
  6
Continuous
 62
     3
370
    13
100
AcDbLine
 10
-384.3753085722906
 20
-97.31968776976892
 30
0.0
 11
-374.7159719372459
 21
-99.90768915354671
 31
0.0
  0
LINE
  5
87
330
1F
100
AcDbEntity
  8
0-0_通り芯
  6
Continuous
 62
     3
370
    13
100
AcDbLine
 10
-357.3872344647709
 20
-104.5511837485184
 30
0.0
 11
-365.0567519524034
 21
-102.496040487931
 31
0.0
  0
LINE
  5
88
330
1F
100
AcDbEntity
  8
0-0_通り芯
  6
Continuous
 62
     3
370
    13
100
AcDbLine
 10
-353.5689233994505
 20
-114.01921405212
 30
0.0
 11
-354.984473601927
 21
-107.1024403186349
 31
0.0
  0
LINE
  5
89
330
1F
100
AcDbEntity
  8
0-0_通り芯
  6
Continuous
 62
     3
370
    13
100
AcDbLine
 10
-332.6075819833973
 20
-121.5432687377348
 30
0.0
 11
-351.1660458864044
 21
-116.5705872724386
 31
0.0
  0
LINE
  5
8A
330
1F
100
AcDbEntity
  8
0-0_通り芯
  6
Continuous
 62
     3
370
    13
100
AcDbLine
 10
-324.566883552684
 20
-115.2529065895235
 30
0.0
 11
-329.2509724179862
 21
-120.5351776911915
 31
0.0
  0
LINE
  5
8B
330
1F
100
AcDbEntity
  8
0-0_通り芯
  6
JWW_DASHED1
 62
     3
370
    13
100
AcDbLine
 10
107.6510444757909
 20
-131.8061535184419
 30
0.0
 11
110.2850060391958
 21
-134.7764176144994
 31
0.0
  0
LINE
  5
8C
330
1F
100
AcDbEntity
  8
0-0_通り芯
  6
Continuous
 62
     3
370
    13
100
AcDbLine
 10
-365.981788055052
 20
-119.867005333566
 30
0.0
 11
-365.1860003763296
 21
-123.756356371965
 31
0.0
  0
LINE
  5
8D
330
1F
100
AcDbEntity
  8
0-0_通り芯
  6
JWW_DASHED1
 62
     3
370
    13
100
AcDbLine
 10
97.25377866226523
 20
-130.7768321351165
 30
0.0
 11
100.9375920445652
 21
-129.7897381249513
 31
0.0
  0
LINE
  5
8E
330
1F
100
AcDbEntity
  8
0-0_通り芯
  6
JWW_DASHED1
 62
     3
370
    13
100
AcDbLine
 10
89.91648095021134
 20
-139.2174074586263
 30
0.0
 11
87.1654025838987
 21
-161.6214785742454
 31
0.0
  0
LINE
  5
8F
330
1F
100
AcDbEntity
  8
0-0_通り芯
  6
Continuous
 62
     3
370
    13
100
AcDbLine
 10
-321.210040686869
 20
-114.244582242576
 30
0.0
 11
-313.5405231992362
 21
-116.2996088529616
 31
0.0
  0
LINE
  5
90
330
1F
100
AcDbEntity
  8
0-0_通り芯
  6
Continuous
 62
     3
370
    13
100
AcDbLine
 10
-298.8891411653469
 20
-120.2254714046176
 30
0.0
 11
-303.8813032143936
 21
-118.8879601873457
 31
0.0
  0
LINE
  5
91
330
1F
100
AcDbEntity
  8
0-0_通り芯
  6
JWW_DASHED1
 62
     3
370
    13
100
AcDbLine
 10
-289.9966629589039
 20
-141.3322756226888
 30
0.0
 11
-291.5518434532933
 21
-128.6661633783296
 31
0.0
  0
LINE
  5
92
330
1F
100
AcDbEntity
  8
0-0_通り芯
  6
JWW_DASHED1
 62
     3
370
    13
100
AcDbLine
 10
-243.0085617508321
 20
-152.7297002690148
 30
0.0
 11
-280.7685821210209
 21
-150.0892062942925
 31
0.0
  0
LINE
  5
93
330
1F
100
AcDbEntity
  8
0-0_通り芯
  6
Continuous
 62
     3
370
    13
100
AcDbLine
 10
219.779884741838
 20
-84.14229768960816
 30
0.0
 11
180.2611292745965
 21
-94.731219785183
 31
0.0
  0
LINE
  5
94
330
1F
100
AcDbEntity
  8
0-0_通り芯
  6
Continuous
 62
     3
370
    13
100
AcDbLine
 10
170.6015593391476
 20
-97.31968776976906
 30
0.0
 11
160.9424560045071
 21
-99.907689153547
 31
0.0
  0
LINE
  5
95
330
1F
100
AcDbEntity
  8
0-0_通り芯
  6
JWW_DASHED1
 62
     3
370
    13
100
AcDbLine
 10
-321.424793708934
 20
-131.8061535184419
 30
0.0
 11
-324.058755272339
 21
-134.7764176144994
 31
0.0
  0
LINE
  5
96
330
1F
100
AcDbEntity
  8
0-0_通り芯
  6
Continuous
 62
     3
370
    13
100
AcDbLine
 10
152.2086220729193
 20
-119.8670053335662
 30
0.0
 11
151.4126010937926
 21
-123.756356371965
 31
0.0
  0
LINE
  5
97
330
1F
100
AcDbEntity
  8
0-0_通り芯
  6
JWW_DASHED1
 62
     3
370
    13
100
AcDbLine
 10
-311.0270612946
 20
-130.7768321351165
 30
0.0
 11
-314.7114579279102
 21
-129.7897381249513
 31
0.0
  0
LINE
  5
98
330
1F
100
AcDbEntity
  8
0-0_通り芯
  6
JWW_DASHED1
 62
     3
370
    13
100
AcDbLine
 10
-303.6899968829506
 20
-139.2174074586263
 30
0.0
 11
-300.938918516638
 21
-161.6214785742454
 31
0.0
  0
LINE
  5
99
330
1F
100
AcDbEntity
  8
0-0_通り芯
  6
Continuous
 62
     3
370
    13
100
AcDbLine
 10
146.3784449719901
 20
-127.9664954661373
 30
0.0
 11
147.8081098489204
 21
-127.5834162024429
 31
0.0
  0
LINE
  5
9A
330
1F
100
AcDbEntity
  8
0-0_通り芯
  6
Continuous
 62
     3
370
    13
100
AcDbLine
 10
86.98249506700705
 20
-170.1552574092327
 30
0.0
 11
88.97628032129006
 21
-180.1230171786282
 31
0.0
  0
LINE
  5
9B
330
1F
100
AcDbEntity
  8
0-0_通り芯
  6
JWW_DASHED1
 62
     3
370
    13
100
AcDbLine
 10
115.3200953626151
 20
-136.2886708345162
 30
0.0
 11
146.3784449719901
 21
-127.9664954661373
 31
0.0
  0
LINE
  5
9C
330
1F
100
AcDbEntity
  8
0-0_通り芯
  6
Continuous
 62
     3
370
    13
100
AcDbLine
 10
-278.5533947831527
 20
-134.1424237660891
 30
0.0
 11
-283.6028320814303
 21
-134.1424237660891
 31
0.0
  0
LINE
  5
9D
330
1F
100
AcDbEntity
  8
0-0_通り芯
  6
Continuous
 62
     3
370
    13
100
AcDbLine
 10
-229.4767883566928
 20
-133.2526160244746
 30
0.0
 11
-223.5534077442864
 21
-166.0079927739921
 31
0.0
  0
LINE
  5
9E
330
1F
100
AcDbEntity
  8
0-0_通り芯
  6
Continuous
 62
     3
370
    13
100
AcDbLine
 10
-225.2202224820851
 20
-307.4757586704687
 30
0.0
 11
11.44658989914404
 21
-307.4757586704687
 31
0.0
  0
LINE
  5
9F
330
1F
100
AcDbEntity
  8
0-0_通り芯
  6
Continuous
 62
     3
370
    13
100
AcDbLine
 10
76.22314702616478
 20
-141.3322756226888
 30
0.0
 11
77.77879412136286
 21
-128.6659300779255
 31
0.0
  0
LINE
  5
A0
330
1F
100
AcDbEntity
  8
0-0_通り芯
  6
Continuous
 62
     3
370
    13
100
AcDbLine
 10
85.11539193220386
 20
-120.2254714046176
 30
0.0
 11
90.10778728165491
 21
-118.8879601873457
 31
0.0
  0
LINE
  5
A1
330
1F
100
AcDbEntity
  8
0-0_通り芯
  6
Continuous
 62
     3
370
    13
100
AcDbLine
 10
107.436408103928
 20
-114.2448155429803
 30
0.0
 11
99.76735721710355
 21
-116.2996088529616
 31
0.0
  0
LINE
  5
A2
330
1F
100
AcDbEntity
  8
0-0_通り芯
  6
Continuous
 62
     3
370
    13
100
AcDbLine
 10
110.7936009203493
 20
-115.2529065895235
 30
0.0
 11
115.4773398350451
 21
-120.5351776911915
 31
0.0
  0
LINE
  5
A3
330
1F
100
AcDbEntity
  8
0-0_通り芯
  6
Continuous
 62
     3
370
    13
100
AcDbLine
 10
118.8345326514664
 20
-121.543502038139
 30
0.0
 11
137.3926466038677
 21
-116.5705872724386
 31
0.0
  0
LINE
  5
A4
330
1F
100
AcDbEntity
  8
0-0_通り芯
  6
Continuous
 62
     3
370
    13
100
AcDbLine
 10
139.7956407671157
 20
-114.01921405212
 30
0.0
 11
141.2108410189856
 21
-107.1024403186349
 31
0.0
  0
LINE
  5
A5
330
1F
100
AcDbEntity
  8
0-0_通り芯
  6
Continuous
 62
     3
370
    13
100
AcDbLine
 10
143.6133685814255
 20
-104.5511837485184
 30
0.0
 11
151.2833526698668
 21
-102.496040487931
 31
0.0
  0
LINE
  5
A6
330
1F
100
AcDbEntity
  8
0-0_通り芯
  6
Continuous
 62
     3
370
    13
100
AcDbLine
 10
136.9773718843933
 20
-179.7407544663485
 30
0.0
 11
142.7086296139422
 21
-132.1976315966874
 31
0.0
  0
LINE
  5
A7
330
1F
100
AcDbEntity
  8
0-0_通り芯
  6
Continuous
 62
     3
370
    13
100
AcDbLine
 10
-370.7877763815482
 20
-114.7641422427268
 30
0.0
 11
-390.6906338637512
 21
-109.4311283031455
 31
0.0
  0
LINE
  5
A8
330
1F
100
AcDbEntity
  8
0-0_通り芯
  6
Continuous
 62
     3
370
    13
100
AcDbLine
 10
-436.8866801995679
 20
-114.1422800153348
 30
0.0
 11
-440.2200763747612
 21
-110.8090004903439
 31
0.0
  0
LINE
  5
A9
330
1F
100
AcDbEntity
  8
0-0_通り芯
  6
Continuous
 62
     3
370
    13
100
AcDbLine
 10
-436.8866801995679
 20
-114.1422800153348
 30
0.0
 11
-420.2200492742091
 21
-114.1422800153348
 31
0.0
  0
LINE
  5
AA
330
1F
100
AcDbEntity
  8
0-0_通り芯
  6
Continuous
 62
     3
370
    13
100
AcDbLine
 10
-433.9442955018123
 20
-84.14229768960791
 30
0.0
 11
-354.099915119407
 21
-84.14229768960806
 31
0.0
  0
LINE
  5
AB
330
1F
100
AcDbEntity
  8
0-0_通り芯
  6
Continuous
 62
     3
370
    13
100
AcDbLine
 10
-437.2517953321393
 20
-87.06216889835851
 30
0.0
 11
-440.2200763747612
 21
-110.8090004903439
 31
0.0
  0
LINE
  5
AC
330
1F
100
AcDbEntity
  8
0-0_通り芯
  6
Continuous
 62
     3
370
    13
100
AcDbLine
 10
223.113280917031
 20
-114.1422800153351
 30
0.0
 11
226.446677092224
 21
-110.809000490344
 31
0.0
  0
LINE
  5
AD
330
1F
100
AcDbEntity
  8
0-0_通り芯
  6
Continuous
 62
     3
370
    13
100
AcDbLine
 10
223.113280917031
 20
-114.1422800153351
 30
0.0
 11
206.4467666418739
 21
-114.1422800153351
 31
0.0
  0
LINE
  5
AE
330
1F
100
AcDbEntity
  8
0-0_通り芯
  6
Continuous
 62
     3
370
    13
100
AcDbLine
 10
157.0141437986069
 20
-114.7641422427269
 30
0.0
 11
176.9174678816185
 21
-109.4311283031457
 31
0.0
  0
LINE
  5
AF
330
1F
100
AcDbEntity
  8
0-0_通り芯
  6
Continuous
 62
     3
370
    13
100
AcDbLine
 10
220.1708962192754
 20
-84.14229768960816
 30
0.0
 11
140.3266324870722
 21
-84.14229768960806
 31
0.0
  0
LINE
  5
B0
330
1F
100
AcDbEntity
  8
0-0_通り芯
  6
Continuous
 62
     3
370
    13
100
AcDbLine
 10
223.4781627491984
 20
-87.06216889835869
 30
0.0
 11
226.446677092224
 21
-110.809000490344
 31
0.0
  0
LINE
  5
B1
330
1F
100
AcDbEntity
  8
0-0_通り芯
  6
Continuous
 62
     3
370
    13
100
AcDbLine
 10
-324.4548993586685
 20
-137.5315787378856
 30
0.0
 11
-361.5815091314574
 21
-127.5834162024427
 31
0.0
  0
LINE
  5
B2
330
1F
100
AcDbEntity
  8
0-0_通り芯
  6
Continuous
 62
     3
370
    13
100
AcDbLine
 10
-221.3620170476466
 20
-174.3438162160166
 30
0.0
 11
-211.852925872906
 21
-307.4757586704687
 31
0.0
  0
LINE
  5
B3
330
1F
100
AcDbEntity
  8
0-0_通り芯
  6
Continuous
 62
     3
370
    13
100
AcDbLine
 10
-303.2855706322721
 20
-182.8024723208518
 30
0.0
 11
-300.7561276499482
 21
-170.1551407590306
 31
0.0
  0
LINE
  5
B4
330
1F
100
AcDbEntity
  8
0-0_通り芯
  6
Continuous
 62
     3
370
    13
100
AcDbLine
 10
-312.1133079765498
 20
-184.142316542166
 30
0.0
 11
-304.9198399636848
 21
-184.142316542166
 31
0.0
  0
LINE
  5
B5
330
1F
100
AcDbEntity
  8
0-0_通り芯
  6
Continuous
 62
     3
370
    13
100
AcDbLine
 10
-313.7622752334273
 20
-182.7174343235214
 30
0.0
 11
-319.5841701700074
 21
-143.0041063191778
 31
0.0
  0
LINE
  5
B6
330
1F
100
AcDbEntity
  8
0-0_通り芯
  6
Continuous
 62
     3
370
    13
100
AcDbLine
 10
-234.3970938812465
 20
-129.1423295032994
 30
0.0
 11
-239.1417242014383
 21
-129.1423295032994
 31
0.0
  0
LINE
  5
B7
330
1F
100
AcDbEntity
  8
0-0_通り芯
  6
Continuous
 62
     3
370
    13
100
AcDbLine
 10
-261.2984968886065
 20
-129.1423295032994
 30
0.0
 11
-270.9157228006934
 21
-129.1423295032994
 31
0.0
  0
LINE
  5
B8
330
1F
100
AcDbEntity
  8
0-0_通り芯
  6
Continuous
 62
     3
370
    13
100
AcDbLine
 10
-261.2984968886065
 20
-152.4756361288423
 30
0.0
 11
-239.1417242014383
 21
-152.4756361288423
 31
0.0
  0
LINE
  5
B9
330
1F
100
AcDbEntity
  8
0-0_通り芯
  6
Continuous
 62
     3
370
    13
100
AcDbLine
 10
-239.1417242014383
 20
-149.1423566038514
 30
0.0
 11
-239.1417242014383
 21
-152.4756361288423
 31
0.0
  0
LINE
  5
BA
330
1F
100
AcDbEntity
  8
0-0_通り芯
  6
Continuous
 62
     3
370
    13
100
AcDbLine
 10
-261.2984968886065
 20
-152.4756361288423
 30
0.0
 11
-261.2984968886065
 21
-149.1423566038514
 31
0.0
  0
LINE
  5
BB
330
1F
100
AcDbEntity
  8
0-0_通り芯
  6
Continuous
 62
     3
370
    13
100
AcDbLine
 10
-239.1417242014383
 20
-152.4756361288423
 30
0.0
 11
-250.2201105450224
 21
-158.8716833601557
 31
0.0
  0
LINE
  5
BC
330
1F
100
AcDbEntity
  8
0-0_通り芯
  6
Continuous
 62
     3
370
    13
100
AcDbLine
 10
-261.2984968886065
 20
-152.4756361288423
 30
0.0
 11
-250.2201105450224
 21
-158.8716833601557
 31
0.0
  0
LINE
  5
BD
330
1F
100
AcDbEntity
  8
0-A
  6
Continuous
 62
     4
370
    13
100
AcDbLine
 10
-124.3869129108296
 20
1024.943035703739
 30
0.0
 11
-89.38671967211093
 21
1024.943035703739
 31
0.0
  0
LINE
  5
BE
330
1F
100
AcDbEntity
  8
0-A
  6
Continuous
 62
     4
370
    13
100
AcDbLine
 10
-108.5533977288648
 20
1028.276490204033
 30
0.0
 11
-105.2202348540757
 21
1028.276490204033
 31
0.0
  0
LINE
  5
BF
330
1F
100
AcDbEntity
  8
0-A
  6
Continuous
 62
     4
370
    13
100
AcDbLine
 10
-108.5533977288648
 20
1028.276490204033
 30
0.0
 11
-108.5533977288648
 21
1037.882867647325
 31
0.0
  0
LINE
  5
C0
330
1F
100
AcDbEntity
  8
0-A
  6
Continuous
 62
     4
370
    13
100
AcDbLine
 10
-105.2202348540757
 20
1028.276490204033
 30
0.0
 11
-105.2202348540757
 21
1037.882867647325
 31
0.0
  0
LINE
  5
C1
330
1F
100
AcDbEntity
  8
0-1_ピット
  6
Continuous
 62
     2
370
    13
100
AcDbLine
 10
-285.5144955934356
 20
990.2863189851021
 30
0.0
 11
-292.6061279798678
 21
997.3781846719387
 31
0.0
  0
LINE
  5
C2
330
1F
100
AcDbEntity
  8
0-1_ピット
  6
Continuous
 62
     2
370
    13
100
AcDbLine
 10
-278.6762274459631
 20
990.5194444139979
 30
0.0
 11
-291.6600948408413
 21
1003.503370133977
 31
0.0
  0
LINE
  5
C3
330
1F
100
AcDbEntity
  8
0-1_ピット
  6
Continuous
 62
     2
370
    13
100
AcDbLine
 10
-328.4427031676394
 20
915.9324303151127
 30
0.0
 11
-338.1301525013897
 21
918.5280722871278
 31
0.0
  0
LINE
  5
C4
330
1F
100
AcDbEntity
  8
0-1_ピット
  6
Continuous
 62
     2
370
    13
100
AcDbLine
 10
-325.225373943535
 20
909.8939159532338
 30
0.0
 11
-342.9616872221456
 21
914.6462451867643
 31
0.0
  0
LINE
  5
C5
330
1F
100
AcDbEntity
  8
0-1_ピット
  6
Continuous
 62
     2
370
    13
100
AcDbLine
 10
-342.9616872221456
 20
914.6462451867643
 30
0.0
 11
-338.1301525013897
 21
918.5280722871278
 31
0.0
  0
LINE
  5
C6
330
1F
100
AcDbEntity
  8
0-1_ピット
  6
Continuous
 62
     2
370
    13
100
AcDbLine
 10
-328.4427031676394
 20
915.9324303151127
 30
0.0
 11
-325.225373943535
 21
909.8939159532338
 31
0.0
  0
LINE
  5
C7
330
1F
100
AcDbEntity
  8
0-1_ピット
  6
Continuous
 62
     2
370
    13
100
AcDbLine
 10
-285.5144955934356
 20
990.2863189851021
 30
0.0
 11
-278.6762274459631
 21
990.5194444139979
 31
0.0
  0
LINE
  5
C8
330
1F
100
AcDbEntity
  8
0-1_ピット
  6
Continuous
 62
     2
370
    13
100
AcDbLine
 10
-291.6600948408413
 20
1003.503370133977
 30
0.0
 11
-292.6061279798678
 21
997.3781846719387
 31
0.0
  0
LINE
  5
C9
330
1F
100
AcDbEntity
  8
0-1_ピット
  6
Continuous
 62
     2
370
    13
100
AcDbLine
 10
-185.2328831530096
 20
1059.14213367954
 30
0.0
 11
-187.8284667999239
 21
1068.829699663493
 31
0.0
  0
LINE
  5
CA
330
1F
100
AcDbEntity
  8
0-1_ピット
  6
Continuous
 62
     2
370
    13
100
AcDbLine
 10
-179.1943687911314
 20
1055.924921105638
 30
0.0
 11
-183.9466980246615
 21
1073.661176059147
 31
0.0
  0
LINE
  5
CB
330
1F
100
AcDbEntity
  8
0-1_ピット
  6
Continuous
 62
     2
370
    13
100
AcDbLine
 10
-259.5871217736056
 20
1016.213809455134
 30
0.0
 11
-266.6787541600378
 21
1023.305441841567
 31
0.0
  0
LINE
  5
CC
330
1F
100
AcDbEntity
  8
0-1_ピット
  6
Continuous
 62
     2
370
    13
100
AcDbLine
 10
-259.8199555769961
 20
1009.375599632763
 30
0.0
 11
-272.8038229718743
 21
1022.359467027641
 31
0.0
  0
LINE
  5
CD
330
1F
100
AcDbEntity
  8
0-1_ピット
  6
Continuous
 62
     2
370
    13
100
AcDbLine
 10
-272.8038229718743
 20
1022.359467027641
 30
0.0
 11
-266.6787541600378
 21
1023.305441841567
 31
0.0
  0
LINE
  5
CE
330
1F
100
AcDbEntity
  8
0-1_ピット
  6
Continuous
 62
     2
370
    13
100
AcDbLine
 10
-259.5871217736056
 20
1016.213809455134
 30
0.0
 11
-259.8199555769961
 21
1009.375599632763
 31
0.0
  0
LINE
  5
CF
330
1F
100
AcDbEntity
  8
0-1_ピット
  6
Continuous
 62
     2
370
    13
100
AcDbLine
 10
-185.2328831530096
 20
1059.14213367954
 30
0.0
 11
-179.1943687911314
 21
1055.924921105638
 31
0.0
  0
LINE
  5
D0
330
1F
100
AcDbEntity
  8
0-1_ピット
  6
Continuous
 62
     2
370
    13
100
AcDbLine
 10
-183.9466980246615
 20
1073.661176059147
 30
0.0
 11
-187.8284667999239
 21
1068.829699663493
 31
0.0
  0
LINE
  5
D1
330
1F
100
AcDbEntity
  8
0-1_ピット
  6
Continuous
 62
     2
370
    13
100
AcDbLine
 10
-63.95866704236795
 20
1068.632210871338
 30
0.0
 11
-61.36296674525141
 21
1078.319951830594
 31
0.0
  0
LINE
  5
D2
330
1F
100
AcDbEntity
  8
0-1_ピット
  6
Continuous
 62
     2
370
    13
100
AcDbLine
 10
-60.33761146879755
 20
1062.826763613254
 30
0.0
 11
-55.58528223526736
 21
1080.563076891865
 31
0.0
  0
LINE
  5
D3
330
1F
100
AcDbEntity
  8
0-1_ピット
  6
Continuous
 62
     2
370
    13
100
AcDbLine
 10
-149.8153154911793
 20
1068.632210871338
 30
0.0
 11
-152.4112490886998
 21
1078.319776855291
 31
0.0
  0
LINE
  5
D4
330
1F
100
AcDbEntity
  8
0-1_ピット
  6
Continuous
 62
     2
370
    13
100
AcDbLine
 10
-153.4363710647494
 20
1062.826763613254
 30
0.0
 11
-158.1887002982799
 21
1080.563076891865
 31
0.0
  0
LINE
  5
D5
330
1F
100
AcDbEntity
  8
0-1_ピット
  6
Continuous
 62
     2
370
    13
100
AcDbLine
 10
-158.1887002982799
 20
1080.563076891865
 30
0.0
 11
-152.4112490886998
 21
1078.319776855291
 31
0.0
  0
LINE
  5
D6
330
1F
100
AcDbEntity
  8
0-1_ピット
  6
Continuous
 62
     2
370
    13
100
AcDbLine
 10
-149.8153154911793
 20
1068.632210871338
 30
0.0
 11
-153.4363710647494
 21
1062.826763613254
 31
0.0
  0
LINE
  5
D7
330
1F
100
AcDbEntity
  8
0-1_ピット
  6
Continuous
 62
     2
370
    13
100
AcDbLine
 10
-63.95866704236795
 20
1068.632210871338
 30
0.0
 11
-60.33761146879755
 21
1062.826763613254
 31
0.0
  0
LINE
  5
D8
330
1F
100
AcDbEntity
  8
0-1_ピット
  6
Continuous
 62
     2
370
    13
100
AcDbLine
 10
-55.58528223526736
 20
1080.563076891865
 30
0.0
 11
-61.36296674525141
 21
1078.319951830594
 31
0.0
  0
LINE
  5
D9
330
1F
100
AcDbEntity
  8
0-1_ピット
  6
Continuous
 62
     2
370
    13
100
AcDbLine
 10
45.81290593965463
 20
1016.213809455134
 30
0.0
 11
52.90477162649069
 21
1023.305675141971
 31
0.0
  0
LINE
  5
DA
330
1F
100
AcDbEntity
  8
0-1_ピット
  6
Continuous
 62
     2
370
    13
100
AcDbLine
 10
46.04597304344907
 20
1009.375599632763
 30
0.0
 11
59.02984043832731
 21
1022.359758653147
 31
0.0
  0
LINE
  5
DB
330
1F
100
AcDbEntity
  8
0-1_ピット
  6
Continuous
 62
     2
370
    13
100
AcDbLine
 10
-28.54109938053739
 20
1059.14213367954
 30
0.0
 11
-25.9455157336231
 21
1068.829932963897
 31
0.0
  0
LINE
  5
DC
330
1F
100
AcDbEntity
  8
0-1_ピット
  6
Continuous
 62
     2
370
    13
100
AcDbLine
 10
-34.57961374241592
 20
1055.924921105638
 30
0.0
 11
-29.82728450888573
 21
1073.661176059147
 31
0.0
  0
LINE
  5
DD
330
1F
100
AcDbEntity
  8
0-1_ピット
  6
Continuous
 62
     2
370
    13
100
AcDbLine
 10
-29.82728450888573
 20
1073.661176059147
 30
0.0
 11
-25.9455157336231
 21
1068.829932963897
 31
0.0
  0
LINE
  5
DE
330
1F
100
AcDbEntity
  8
0-1_ピット
  6
Continuous
 62
     2
370
    13
100
AcDbLine
 10
-28.54109938053739
 20
1059.14213367954
 30
0.0
 11
-34.57961374241592
 21
1055.924921105638
 31
0.0
  0
LINE
  5
DF
330
1F
100
AcDbEntity
  8
0-1_ピット
  6
Continuous
 62
     2
370
    13
100
AcDbLine
 10
45.81290593965463
 20
1016.213809455134
 30
0.0
 11
46.04597304344907
 21
1009.375599632763
 31
0.0
  0
LINE
  5
E0
330
1F
100
AcDbEntity
  8
0-1_ピット
  6
Continuous
 62
     2
370
    13
100
AcDbLine
 10
59.02984043832731
 20
1022.359758653147
 30
0.0
 11
52.90477162649069
 21
1023.305675141971
 31
0.0
  0
LINE
  5
E1
330
1F
100
AcDbEntity
  8
0-1_ピット
  6
Continuous
 62
     2
370
    13
100
AcDbLine
 10
114.6687206340923
 20
915.9324303151127
 30
0.0
 11
124.3562866180449
 21
918.5280722871278
 31
0.0
  0
LINE
  5
E2
330
1F
100
AcDbEntity
  8
0-1_ピット
  6
Continuous
 62
     2
370
    13
100
AcDbLine
 10
111.4515080601902
 20
909.8939159532338
 30
0.0
 11
129.1877046885989
 21
914.6462451867643
 31
0.0
  0
LINE
  5
E3
330
1F
100
AcDbEntity
  8
0-1_ピット
  6
Continuous
 62
     2
370
    13
100
AcDbLine
 10
71.74027975948434
 20
990.2866106106078
 30
0.0
 11
78.83191214591648
 21
997.3781846719387
 31
0.0
  0
LINE
  5
E4
330
1F
100
AcDbEntity
  8
0-1_ピット
  6
Continuous
 62
     2
370
    13
100
AcDbLine
 10
64.90201161201213
 20
990.5194444139979
 30
0.0
 11
77.8858790068901
 21
1003.503370133977
 31
0.0
  0
LINE
  5
E5
330
1F
100
AcDbEntity
  8
0-1_ピット
  6
Continuous
 62
     2
370
    13
100
AcDbLine
 10
77.8858790068901
 20
1003.503370133977
 30
0.0
 11
78.83191214591648
 21
997.3781846719387
 31
0.0
  0
LINE
  5
E6
330
1F
100
AcDbEntity
  8
0-1_ピット
  6
Continuous
 62
     2
370
    13
100
AcDbLine
 10
71.74027975948434
 20
990.2866106106078
 30
0.0
 11
64.90201161201213
 21
990.5194444139979
 31
0.0
  0
LINE
  5
E7
330
1F
100
AcDbEntity
  8
0-1_ピット
  6
Continuous
 62
     2
370
    13
100
AcDbLine
 10
114.6687206340923
 20
915.9324303151127
 30
0.0
 11
111.4515080601902
 21
909.8939159532338
 31
0.0
  0
LINE
  5
E8
330
1F
100
AcDbEntity
  8
0-1_ピット
  6
Continuous
 62
     2
370
    13
100
AcDbLine
 10
129.1877046885989
 20
914.6462451867643
 30
0.0
 11
124.3562866180449
 21
918.5280722871278
 31
0.0
  0
LINE
  5
E9
330
1F
100
AcDbEntity
  8
0-1_ピット
  6
Continuous
 62
     2
370
    13
100
AcDbLine
 10
124.1586811756886
 20
880.5148626532823
 30
0.0
 11
133.8462471596412
 21
883.1107379257016
 31
0.0
  0
LINE
  5
EA
330
1F
100
AcDbEntity
  8
0-1_ピット
  6
Continuous
 62
     2
370
    13
100
AcDbLine
 10
118.3532339176045
 20
884.1359182268525
 30
0.0
 11
136.0894305460127
 21
888.8882474603829
 31
0.0
  0
LINE
  5
EB
330
1F
100
AcDbEntity
  8
0-1_ピット
  6
Continuous
 62
     2
370
    13
100
AcDbLine
 10
136.0894305460127
 20
888.8882474603829
 30
0.0
 11
133.8462471596412
 21
883.1107379257016
 31
0.0
  0
LINE
  5
EC
330
1F
100
AcDbEntity
  8
0-1_ピット
  6
Continuous
 62
     2
370
    13
100
AcDbLine
 10
124.1586811756886
 20
880.5148626532823
 30
0.0
 11
118.3532339176045
 21
884.1359182268525
 31
0.0
  0
LINE
  5
ED
330
1F
100
AcDbEntity
  8
0-1_ピット
  6
Continuous
 62
     2
370
    13
100
AcDbLine
 10
-337.9326637092353
 20
880.5148626532823
 30
0.0
 11
-347.6202296931883
 21
883.1107379257016
 31
0.0
  0
LINE
  5
EE
330
1F
100
AcDbEntity
  8
0-1_ピット
  6
Continuous
 62
     2
370
    13
100
AcDbLine
 10
-332.1272164511515
 20
884.1359182268525
 30
0.0
 11
-349.863529729762
 21
888.8882474603829
 31
0.0
  0
LINE
  5
EF
330
1F
100
AcDbEntity
  8
0-1_ピット
  6
Continuous
 62
     2
370
    13
100
AcDbLine
 10
-349.863529729762
 20
888.8882474603829
 30
0.0
 11
-347.6202296931883
 21
883.1107379257016
 31
0.0
  0
LINE
  5
F0
330
1F
100
AcDbEntity
  8
0-1_ピット
  6
Continuous
 62
     2
370
    13
100
AcDbLine
 10
-337.9326637092353
 20
880.5148626532823
 30
0.0
 11
-332.1272164511515
 21
884.1359182268525
 31
0.0
  0
LINE
  5
F1
330
1F
100
AcDbEntity
  8
0-1_ピット
  6
JWW_DASHED1
 62
     4
370
    13
100
AcDbLine
 10
-45.5385502790503
 20
957.6842206011435
 30
0.0
 11
-26.5685444630364
 21
968.6363331009551
 31
0.0
  0
LINE
  5
F2
330
1F
100
AcDbEntity
  8
0-1_ピット
  6
JWW_DASHED1
 62
     4
370
    13
100
AcDbLine
 10
-43.87173554125155
 20
954.7975363748903
 30
0.0
 11
-24.90196302564158
 21
965.7497071998025
 31
0.0
  0
LINE
  5
F3
330
1F
100
AcDbEntity
  8
0-1_ピット
  6
JWW_DASHED1
 62
     4
370
    13
100
AcDbLine
 10
-246.8871809706374
 20
837.5865384288766
 30
0.0
 11
-258.8719393845341
 21
844.5059367919089
 31
0.0
  0
LINE
  5
F4
330
1F
100
AcDbEntity
  8
0-1_ピット
  6
JWW_DASHED1
 62
     4
370
    13
100
AcDbLine
 10
-253.5536233704173
 20
837.5865384288766
 30
0.0
 11
-260.5385208219286
 21
841.6192525656555
 31
0.0
  0
LINE
  5
F5
330
1F
100
AcDbEntity
  8
0-1_ピット
  6
JWW_DASHED1
 62
     2
370
    13
100
AcDbLine
 10
-250.2204604956285
 20
877.5866509550815
 30
0.0
 11
-256.636688211905
 21
877.5866509550815
 31
0.0
  0
LINE
  5
F6
330
1F
100
AcDbEntity
  8
0-1_ピット
  6
JWW_DASHED1
 62
     2
370
    13
100
AcDbLine
 10
-250.2203438454264
 20
880.9199304800725
 30
0.0
 11
-255.7064028501622
 21
880.9199304800725
 31
0.0
  0
LINE
  5
F7
330
1F
100
AcDbEntity
  8
0-1_ピット
  6
JWW_DASHED1
 62
     2
370
    13
100
AcDbLine
 10
-72.74790981995267
 20
983.3837765762732
 30
0.0
 11
-70.00511361798914
 21
988.1345893571765
 31
0.0
  0
LINE
  5
F8
330
1F
100
AcDbEntity
  8
0-1_ピット
  6
JWW_DASHED1
 62
     2
370
    13
100
AcDbLine
 10
-0.5791127356894776
 20
941.7169076373707
 30
0.0
 11
2.629117772650886
 21
947.2736566645788
 31
0.0
  0
LINE
  5
F9
330
1F
100
AcDbEntity
  8
0-1_ピット
  6
JWW_DASHED1
 62
     2
370
    13
100
AcDbLine
 10
2.307746465866956
 20
940.0500928995721
 30
0.0
 11
5.050542667830769
 21
944.8012556310814
 31
0.0
  0
LINE
  5
FA
330
1F
100
AcDbEntity
  8
0-1_ピット
  6
JWW_DASHED1
 62
     4
370
    13
100
AcDbLine
 10
-11.39678587758141
 20
959.67928900765
 30
0.0
 11
-22.72946966174203
 21
940.0503845250773
 31
0.0
  0
LINE
  5
FB
330
1F
100
AcDbEntity
  8
0-1_ピット
  6
JWW_DASHED1
 62
     4
370
    13
100
AcDbLine
 10
-60.22014471528337
 20
961.7169347379227
 30
0.0
 11
-48.89679294729063
 21
981.3297998177065
 31
0.0
  0
LINE
  5
FC
330
1F
100
AcDbEntity
  8
0-1_ピット
  6
JWW_DASHED1
 62
     4
370
    13
100
AcDbLine
 10
-260.3675116256506
 20
859.2372825393373
 30
0.0
 11
-237.7020274071272
 21
859.2370492389332
 31
0.0
  0
LINE
  5
FD
330
1F
100
AcDbEntity
  8
0-A
  6
JWW_CENTER1
 62
     4
370
    13
100
AcDbLine
 10
104.7798164013156
 20
-46.78437056605596
 30
0.0
 11
104.7798164013156
 21
-114.9563817757869
 31
0.0
  0
LINE
  5
FE
330
1F
100
AcDbEntity
  8
0-1_ピット
  6
Continuous
 62
     2
370
    13
100
AcDbLine
 10
94.7796278757366
 20
-103.0609774166982
 30
0.0
 11
94.7796278757366
 21
-117.6359535682126
 31
0.0
  0
LINE
  5
FF
330
1F
100
AcDbEntity
  8
0-A
  6
Continuous
 62
     4
370
    13
100
AcDbLine
 10
-96.88686106629547
 20
1011.408987630659
 30
0.0
 11
-96.88686106629547
 21
1024.943035703739
 31
0.0
  0
LINE
  5
100
330
1F
100
AcDbEntity
  8
0-A
  6
Continuous
 62
     4
370
    13
100
AcDbLine
 10
-115.2201900792508
 20
1010.916373827193
 30
0.0
 11
-115.2201900792508
 21
1024.943035703739
 31
0.0
  0
LINE
  5
101
330
1F
100
AcDbEntity
  8
0-A
  6
Continuous
 62
     4
370
    13
100
AcDbLine
 10
-116.8870048170496
 20
1011.408812655356
 30
0.0
 11
-116.8870048170496
 21
1024.943035703739
 31
0.0
  0
LINE
  5
102
330
1F
100
AcDbEntity
  8
0-A
  6
Continuous
 62
     4
370
    13
100
AcDbLine
 10
-98.55344250368972
 20
1010.916490477395
 30
0.0
 11
-98.55344250368972
 21
1024.943035703739
 31
0.0
  0
LINE
  5
103
330
1F
100
AcDbEntity
  8
0-1_ピット
  6
JWW_CENTER1
 62
     4
370
    13
100
AcDbLine
 10
-58.09734433747821
 20
974.9252954467411
 30
0.0
 11
-11.97146309822415
 21
948.2942292827465
 31
0.0
  0
LINE
  5
104
330
1F
100
AcDbEntity
  8
0-1_ピット
  6
JWW_CENTER1
 62
     4
370
    13
100
AcDbLine
 10
-29.38692999596043
 20
971.8204753425618
 30
0.0
 11
-49.27129842113089
 21
937.379678148011
 31
0.0
  0
LINE
  5
105
330
1F
100
AcDbEntity
  8
0-1_ピット
  6
JWW_CENTER1
 62
     4
370
    13
100
AcDbLine
 10
-250.2204604956285
 20
837.5865384288766
 30
0.0
 11
-250.2203438454264
 21
864.0401213103768
 31
0.0
  0
LINE
  5
106
330
1F
100
AcDbEntity
  8
0-A
  6
Continuous
 62
     4
370
    13
100
AcDbLine
 10
-96.88686106629547
 20
986.6629887325911
 30
0.0
 11
-96.88686106629547
 21
992.2636565608898
 31
0.0
  0
LINE
  5
107
330
1F
100
AcDbEntity
  8
0-A
  6
Continuous
 62
     4
370
    13
100
AcDbLine
 10
-98.55344250368972
 20
986.2523800212011
 30
0.0
 11
-98.55344250368972
 21
992.3623426318657
 31
0.0
  0
LINE
  5
108
330
1F
100
AcDbEntity
  8
0-A
  6
Continuous
 62
     4
370
    13
100
AcDbLine
 10
-116.8870048170496
 20
986.6628720823892
 30
0.0
 11
-116.8870048170496
 21
992.2636565608898
 31
0.0
  0
LINE
  5
109
330
1F
100
AcDbEntity
  8
0-A
  6
Continuous
 62
     4
370
    13
100
AcDbLine
 10
-115.2201900792508
 20
986.2522050458981
 30
0.0
 11
-115.2201900792508
 21
992.3623426318657
 31
0.0
  0
LINE
  5
10A
330
1F
100
AcDbEntity
  8
0-0_通り芯
  6
Continuous
 62
     3
370
    13
100
AcDbLine
 10
29.23527911849732
 20
-152.7297002690148
 30
0.0
 11
66.99564943929232
 21
-150.0890896440904
 31
0.0
  0
LINE
  5
10B
330
1F
100
AcDbEntity
  8
0-0_通り芯
  6
Continuous
 62
     3
370
    13
100
AcDbLine
 10
7.588967715716137
 20
-174.3435829156124
 30
0.0
 11
-1.920590059832818
 21
-307.4757586704687
 31
0.0
  0
LINE
  5
10C
330
1F
100
AcDbEntity
  8
0-A
  6
JWW_CENTER1
 62
     4
370
    13
100
AcDbLine
 10
104.7796997511139
 20
837.5865384288766
 30
0.0
 11
104.7796997511139
 21
861.9513827915846
 31
0.0
  0
LINE
  5
10D
330
1F
100
AcDbEntity
  8
0-A
  6
Continuous
 62
     4
370
    13
100
AcDbLine
 10
106.7800174167147
 20
842.9202522696704
 30
0.0
 11
106.7800174167147
 21
846.7532612604554
 31
0.0
  0
LINE
  5
10E
330
1F
100
AcDbEntity
  8
0-A
  6
Continuous
 62
     4
370
    13
100
AcDbLine
 10
102.7793820855129
 20
846.7532612604554
 30
0.0
 11
106.7800174167147
 21
846.7532612604554
 31
0.0
  0
LINE
  5
10F
330
1F
100
AcDbEntity
  8
0-A
  6
Continuous
 62
     4
370
    13
100
AcDbLine
 10
102.7793820855129
 20
842.9202522696704
 30
0.0
 11
102.7793820855129
 21
846.7532612604554
 31
0.0
  0
LINE
  5
110
330
1F
100
AcDbEntity
  8
0-A
  6
Continuous
 62
     4
370
    13
100
AcDbLine
 10
121.3258310177039
 20
839.5869727446795
 30
0.0
 11
88.23356848452363
 21
839.5869727446795
 31
0.0
  0
LINE
  5
111
330
1F
100
AcDbEntity
  8
0-A
  6
JWW_CENTER1
 62
     4
370
    13
100
AcDbLine
 10
-318.5535656344587
 20
837.5865384288766
 30
0.0
 11
-318.5535656344587
 21
861.9513827915846
 31
0.0
  0
LINE
  5
112
330
1F
100
AcDbEntity
  8
0-A
  6
Continuous
 62
     4
370
    13
100
AcDbLine
 10
-320.5538833000595
 20
842.9202522696704
 30
0.0
 11
-320.5538833000595
 21
846.7532612604554
 31
0.0
  0
LINE
  5
113
330
1F
100
AcDbEntity
  8
0-A
  6
Continuous
 62
     4
370
    13
100
AcDbLine
 10
-316.5532479688579
 20
846.7532612604554
 30
0.0
 11
-320.5538833000595
 21
846.7532612604554
 31
0.0
  0
LINE
  5
114
330
1F
100
AcDbEntity
  8
0-A
  6
Continuous
 62
     4
370
    13
100
AcDbLine
 10
-316.5532479688579
 20
842.9202522696704
 30
0.0
 11
-316.5532479688579
 21
846.7532612604554
 31
0.0
  0
LINE
  5
115
330
1F
100
AcDbEntity
  8
0-A
  6
Continuous
 62
     4
370
    13
100
AcDbLine
 10
-335.099696901049
 20
839.5869727446795
 30
0.0
 11
-302.0074343678684
 21
839.5869727446795
 31
0.0
  0
LINE
  5
116
330
1F
100
AcDbEntity
  8
0-A
  6
Continuous
 62
     4
370
    13
100
AcDbLine
 10
97.6800185007366
 20
-107.9949310148975
 30
0.0
 11
94.77986117614051
 21
-105.0948903405038
 31
0.0
  0
LINE
  5
117
330
1F
100
AcDbEntity
  8
0-A
  6
Continuous
 62
     4
370
    13
100
AcDbLine
 10
111.880080902703
 20
-107.9949310148975
 30
0.0
 11
114.7800049268949
 21
-105.0948903405038
 31
0.0
  0
LINE
  5
118
330
1F
100
AcDbEntity
  8
0-A
  6
Continuous
 62
     4
370
    13
100
AcDbLine
 10
111.880080902703
 20
-107.9949310148975
 30
0.0
 11
97.6800185007366
 21
-107.9949310148975
 31
0.0
  0
LINE
  5
119
330
1F
100
AcDbEntity
  8
0-A
  6
Continuous
 62
     4
370
    13
100
AcDbLine
 10
114.7800049268949
 20
-105.0948903405038
 30
0.0
 11
94.77986117614051
 21
-105.0948903405038
 31
0.0
  0
LINE
  5
11A
330
1F
100
AcDbEntity
  8
0-A
  6
Continuous
 62
     4
370
    13
100
AcDbLine
 10
94.77986117614051
 20
-67.99487681379344
 30
0.0
 11
94.77986117614051
 21
-105.0948903405038
 31
0.0
  0
LINE
  5
11B
330
1F
100
AcDbEntity
  8
0-A
  6
Continuous
 62
     4
370
    13
100
AcDbLine
 10
97.6800185007366
 20
-67.99487681379344
 30
0.0
 11
97.6800185007366
 21
-107.9949310148975
 31
0.0
  0
LINE
  5
11C
330
1F
100
AcDbEntity
  8
0-A
  6
Continuous
 62
     4
370
    13
100
AcDbLine
 10
111.880080902703
 20
-67.99487681379344
 30
0.0
 11
111.880080902703
 21
-107.9949310148975
 31
0.0
  0
LINE
  5
11D
330
1F
100
AcDbEntity
  8
0-A
  6
Continuous
 62
     4
370
    13
100
AcDbLine
 10
114.7800049268949
 20
-67.99487681379344
 30
0.0
 11
114.7800049268949
 21
-105.0948903405038
 31
0.0
  0
LINE
  5
11E
330
1F
100
AcDbEntity
  8
0-A
  6
Continuous
 62
     4
370
    13
100
AcDbLine
 10
88.71825007424633
 20
-61.08055273455246
 30
0.0
 11
88.113302126159
 21
-67.99487681379344
 31
0.0
  0
LINE
  5
11F
330
1F
100
AcDbEntity
  8
0-A
  6
Continuous
 62
     4
370
    13
100
AcDbLine
 10
114.200486722865
 20
-54.99491169102566
 30
0.0
 11
95.35961268057491
 21
-54.99491169102566
 31
0.0
  0
LINE
  5
120
330
1F
100
AcDbEntity
  8
0-A
  6
Continuous
 62
     4
370
    13
100
AcDbLine
 10
121.4465639768767
 20
-67.99487681379344
 30
0.0
 11
88.113302126159
 21
-67.99487681379344
 31
0.0
  0
LINE
  5
121
330
1F
100
AcDbEntity
  8
0-A
  6
Continuous
 62
     4
370
    13
100
AcDbLine
 10
120.8416160287894
 20
-61.08055273455246
 30
0.0
 11
121.4465639768767
 21
-67.99487681379344
 31
0.0
  0
LINE
  5
122
330
1F
100
AcDbEntity
  8
0-1_ピット
  6
Continuous
 62
     2
370
    13
100
AcDbLine
 10
114.7797716264907
 20
-105.095123640908
 30
0.0
 11
114.7797716264907
 21
-112.2769266335631
 31
0.0
  0
LINE
  5
123
330
1F
100
AcDbEntity
  8
0-1_ピット
  6
Continuous
 62
     2
370
    13
100
AcDbLine
 10
111.8798476022991
 20
-107.9951643153019
 30
0.0
 11
111.8798476022991
 21
-113.0540502799494
 31
0.0
  0
LINE
  5
124
330
1F
100
AcDbEntity
  8
0-1_ピット
  6
Continuous
 62
     2
370
    13
100
AcDbLine
 10
97.67978520033239
 20
-107.9946977144935
 30
0.0
 11
97.67978520033239
 21
-116.8588299218263
 31
0.0
  0
LINE
  5
125
330
1F
100
AcDbEntity
  8
0-A
  6
Continuous
 62
     4
370
    13
100
AcDbLine
 10
-311.4538843840819
 20
-108.2928556310595
 30
0.0
 11
-308.5537270594859
 21
-105.3928149566656
 31
0.0
  0
LINE
  5
126
330
1F
100
AcDbEntity
  8
0-A
  6
Continuous
 62
     4
370
    13
100
AcDbLine
 10
-325.6539467860484
 20
-108.2928556310595
 30
0.0
 11
-328.55387081024
 21
-105.3928149566656
 31
0.0
  0
LINE
  5
127
330
1F
100
AcDbEntity
  8
0-A
  6
Continuous
 62
     4
370
    13
100
AcDbLine
 10
-325.6539467860484
 20
-108.2928556310595
 30
0.0
 11
-311.4538843840819
 21
-108.2928556310595
 31
0.0
  0
LINE
  5
128
330
1F
100
AcDbEntity
  8
0-A
  6
Continuous
 62
     4
370
    13
100
AcDbLine
 10
-328.55387081024
 20
-105.3928149566656
 30
0.0
 11
-308.5537270594859
 21
-105.3928149566656
 31
0.0
  0
LINE
  5
129
330
1F
100
AcDbEntity
  8
0-A
  6
Continuous
 62
     4
370
    13
100
AcDbLine
 10
-308.5537270594859
 20
-68.2928014299554
 30
0.0
 11
-308.5537270594859
 21
-105.3928149566656
 31
0.0
  0
LINE
  5
12A
330
1F
100
AcDbEntity
  8
0-A
  6
Continuous
 62
     4
370
    13
100
AcDbLine
 10
-311.4538843840819
 20
-68.2928014299554
 30
0.0
 11
-311.4538843840819
 21
-108.2928556310595
 31
0.0
  0
LINE
  5
12B
330
1F
100
AcDbEntity
  8
0-A
  6
Continuous
 62
     4
370
    13
100
AcDbLine
 10
-325.6539467860484
 20
-68.2928014299554
 30
0.0
 11
-325.6539467860484
 21
-108.2928556310595
 31
0.0
  0
LINE
  5
12C
330
1F
100
AcDbEntity
  8
0-A
  6
Continuous
 62
     4
370
    13
100
AcDbLine
 10
-328.55387081024
 20
-68.2928014299554
 30
0.0
 11
-328.55387081024
 21
-105.3928149566656
 31
0.0
  0
LINE
  5
12D
330
1F
100
AcDbEntity
  8
0-A
  6
Continuous
 62
     4
370
    13
100
AcDbLine
 10
-302.4921159575917
 20
-61.37847735071439
 30
0.0
 11
-301.887168009504
 21
-68.2928014299554
 31
0.0
  0
LINE
  5
12E
330
1F
100
AcDbEntity
  8
0-A
  6
Continuous
 62
     4
370
    13
100
AcDbLine
 10
-327.9743526062101
 20
-55.29283630718762
 30
0.0
 11
-309.1334785639203
 21
-55.29283630718762
 31
0.0
  0
LINE
  5
12F
330
1F
100
AcDbEntity
  8
0-A
  6
Continuous
 62
     4
370
    13
100
AcDbLine
 10
-335.2204298602221
 20
-68.2928014299554
 30
0.0
 11
-301.887168009504
 21
-68.2928014299554
 31
0.0
  0
LINE
  5
130
330
1F
100
AcDbEntity
  8
0-A
  6
Continuous
 62
     4
370
    13
100
AcDbLine
 10
-334.6154819121344
 20
-61.37847735071439
 30
0.0
 11
-335.2204298602221
 21
-68.2928014299554
 31
0.0
  0
LINE
  5
131
330
1F
100
AcDbEntity
  8
0-A
  6
JWW_PHANTOM1
 62
     4
370
    13
100
AcDbLine
 10
-316.929969796538
 20
121.9548127788404
 30
0.0
 11
-249.0294619321935
 21
115.8757041466312
 31
0.0
  0
LINE
  5
132
330
1F
100
AcDbEntity
  8
0-A
  6
JWW_PHANTOM1
 62
     4
370
    13
100
AcDbLine
 10
-255.3301476232907
 20
123.5680850738753
 30
0.0
 11
-257.9600264296221
 21
126.7151908763158
 31
0.0
  0
LINE
  5
133
330
1F
100
AcDbEntity
  8
0-A
  6
JWW_PHANTOM1
 62
     4
370
    13
100
AcDbLine
 10
-256.5963855670796
 20
109.4245980199269
 30
0.0
 11
-259.7434913695201
 21
106.7947192135954
 31
0.0
  0
LINE
  5
134
330
1F
100
AcDbEntity
  8
0-A
  6
JWW_PHANTOM1
 62
     4
370
    13
100
AcDbLine
 10
-256.5963855670796
 20
109.4245980199269
 30
0.0
 11
-255.3301476232907
 21
123.5680850738753
 31
0.0
  0
LINE
  5
135
330
1F
100
AcDbEntity
  8
0-A
  6
JWW_PHANTOM1
 62
     4
370
    13
100
AcDbLine
 10
-259.7434913695201
 20
106.7947192135954
 30
0.0
 11
-257.9600264296221
 21
126.7151908763158
 31
0.0
  0
LINE
  5
136
330
1F
100
AcDbEntity
  8
0-A
  6
JWW_PHANTOM1
 62
     4
370
    13
100
AcDbLine
 10
-294.9122441502723
 20
130.0235072580574
 30
0.0
 11
-257.9600264296221
 21
126.7151908763158
 31
0.0
  0
LINE
  5
137
330
1F
100
AcDbEntity
  8
0-A
  6
JWW_PHANTOM1
 62
     4
370
    13
100
AcDbLine
 10
-295.1708576483267
 20
127.1348983034694
 30
0.0
 11
-255.3301476232907
 21
123.5680850738753
 31
0.0
  0
LINE
  5
138
330
1F
100
AcDbEntity
  8
0-A
  6
JWW_PHANTOM1
 62
     4
370
    13
100
AcDbLine
 10
-296.4370955921158
 20
112.991411249521
 30
0.0
 11
-256.5963855670796
 21
109.4245980199269
 31
0.0
  0
LINE
  5
139
330
1F
100
AcDbEntity
  8
0-A
  6
JWW_PHANTOM1
 62
     4
370
    13
100
AcDbLine
 10
-296.6957090901704
 20
110.1030355953372
 30
0.0
 11
-259.7434913695201
 21
106.7947192135954
 31
0.0
  0
LINE
  5
13A
330
1F
100
AcDbEntity
  8
0-A
  6
JWW_PHANTOM1
 62
     4
370
    13
100
AcDbLine
 10
-301.2584817452894
 20
136.6775847364146
 30
0.0
 11
-294.3177947203737
 21
136.6635867121627
 31
0.0
  0
LINE
  5
13B
330
1F
100
AcDbEntity
  8
0-A
  6
JWW_PHANTOM1
 62
     4
370
    13
100
AcDbLine
 10
-309.592205483676
 20
111.8394905037892
 30
0.0
 11
-307.9120342977371
 21
130.6053584661293
 31
0.0
  0
LINE
  5
13C
330
1F
100
AcDbEntity
  8
0-A
  6
JWW_PHANTOM1
 62
     4
370
    13
100
AcDbLine
 10
-297.2901585200691
 20
103.463072791434
 30
0.0
 11
-294.3177947203737
 21
136.6635867121627
 31
0.0
  0
LINE
  5
13D
330
1F
100
AcDbEntity
  8
0-A
  6
JWW_PHANTOM1
 62
     4
370
    13
100
AcDbLine
 10
-304.1230024331436
 20
104.682184053575
 30
0.0
 11
-297.2901585200691
 21
103.463072791434
 31
0.0
  0
LINE
  5
13E
330
1F
100
AcDbEntity
  8
0-0_通り芯
  6
Continuous
 62
     3
370
    13
100
AcDbLine
 10
30.86301603859255
 20
-152.6727749703904
 30
0.0
 11
-225.9649173722877
 21
-152.6727749703904
 31
0.0
  0
LINE
  5
13F
330
1F
100
AcDbEntity
  8
0-1_ピット
  6
Continuous
 62
     2
370
    13
100
AcDbLine
 10
39.08918829064334
 20
-117.0388211836656
 30
0.0
 11
36.44659461228343
 21
-126.2877824077245
 31
0.0
  0
LINE
  5
140
330
1F
100
AcDbEntity
  8
0-2_本体（蓋）
  6
Continuous
 62
     6
370
    13
100
AcDbLine
 10
118.6106809136376
 20
-88.550392176743
 30
0.0
 11
121.4462140262705
 21
-72.95426015605052
 31
0.0
  0
LINE
  5
141
330
1F
100
AcDbEntity
  8
0-2_本体（蓋）
  6
Continuous
 62
     6
370
    13
100
AcDbLine
 10
121.4462140262705
 20
-72.95426015605052
 30
0.0
 11
118.1130511514814
 21
-69.62086398085728
 31
0.0
  0
LINE
  5
142
330
1F
100
AcDbEntity
  8
0-2_本体（蓋）
  6
Continuous
 62
     6
370
    13
100
AcDbLine
 10
-273.5995523254954
 20
142.04582703703
 30
0.0
 11
-275.6725430670043
 21
118.7125204114871
 31
0.0
  0
LINE
  5
143
330
1F
100
AcDbEntity
  8
0-2_本体（蓋）
  6
Continuous
 62
     6
370
    13
100
AcDbLine
 10
-275.6725430670043
 20
118.7125204114871
 30
0.0
 11
-281.1364385333412
 21
113.7124261486976
 31
0.0
  0
LINE
  5
144
330
1F
100
AcDbEntity
  8
0-2_本体（蓋）
  6
Continuous
 62
     6
370
    13
100
AcDbLine
 10
89.77965026314905
 20
-71.55235802721958
 30
0.0
 11
84.77955600035926
 21
-91.28747251880377
 31
0.0
  0
LINE
  5
145
330
1F
100
AcDbEntity
  8
0-2_本体（蓋）
  6
Continuous
 62
     6
370
    13
100
AcDbLine
 10
86.44648738836025
 20
-68.21896185202658
 30
0.0
 11
89.77965026314905
 21
-71.55235802721958
 31
0.0
  0
LINE
  5
146
330
1F
100
AcDbEntity
  8
0-2_本体（蓋）
  6
JWW_PHANTOM1
 62
     6
370
    13
100
AcDbLine
 10
-258.553659308106
 20
142.04582703703
 30
0.0
 11
-263.7944029378266
 21
42.04580818447212
 31
0.0
  0
LINE
  5
147
330
1F
100
AcDbEntity
  8
0-2_本体（蓋）
  6
JWW_PHANTOM1
 62
     6
370
    13
100
AcDbLine
 10
-267.720732090291
 20
42.04580818447212
 30
0.0
 11
-263.7944029378266
 21
42.04580818447212
 31
0.0
  0
LINE
  5
148
330
1F
100
AcDbEntity
  8
0-2_本体（蓋）
  6
JWW_DASHED1
 62
     6
370
    13
100
AcDbLine
 10
-273.7325335558888
 20
8.712546333754219
 30
0.0
 11
-290.7608967579581
 21
5.379150158561039
 31
0.0
  0
LINE
  5
149
330
1F
100
AcDbEntity
  8
0-2_本体（蓋）
  6
JWW_DASHED1
 62
     6
370
    13
100
AcDbLine
 10
59.95872599764454
 20
8.712546333754183
 30
0.0
 11
76.98708919971409
 21
5.379150158560932
 31
0.0
  0
LINE
  5
14A
330
1F
100
AcDbEntity
  8
0-2_本体（蓋）
  6
Continuous
 62
     6
370
    13
100
AcDbLine
 10
-275.56895768754
 20
142.04582703703
 30
0.0
 11
61.79503347909389
 21
142.04582703703
 31
0.0
  0
LINE
  5
14B
330
1F
100
AcDbEntity
  8
0-2_本体（蓋）
  6
Continuous
 62
     6
370
    13
100
AcDbLine
 10
65.11536483165173
 20
139.0075558731483
 30
0.0
 11
83.25610436094081
 21
-65.18302369218699
 31
0.0
  0
LINE
  5
14C
330
1F
100
AcDbEntity
  8
0-2_本体（蓋）
  6
Continuous
 62
     6
370
    13
100
AcDbLine
 10
118.1130511514814
 20
-69.62086398085728
 30
0.0
 11
114.7796549762884
 21
-69.4734181254038
 31
0.0
  0
LINE
  5
14D
330
1F
100
AcDbEntity
  8
0-2_本体（蓋）
  6
Continuous
 62
     6
370
    13
100
AcDbLine
 10
94.77974452593884
 20
-68.58780979106496
 30
0.0
 11
86.4287565576413
 21
-68.21826195081383
 31
0.0
  0
LINE
  5
14E
330
1F
100
AcDbEntity
  8
0-2_本体（蓋）
  6
Continuous
 62
     6
370
    13
100
AcDbLine
 10
48.11313127485278
 20
142.04582703703
 30
0.0
 11
68.03325298696649
 21
-82.172425726755
 31
0.0
  0
LINE
  5
14F
330
1F
100
AcDbEntity
  8
0-2_本体（蓋）
  6
Continuous
 62
     6
370
    13
100
AcDbLine
 10
-281.8069438950087
 20
-82.172425726755
 30
0.0
 11
-261.8869388330968
 21
142.04582703703
 31
0.0
  0
LINE
  5
150
330
1F
100
AcDbEntity
  8
0-4_寸法
  6
Continuous
 62
     2
370
    13
100
AcDbLine
 10
-270.0182744708412
 20
28.71245678410403
 30
0.0
 11
-271.887244008878
 21
28.0006572508934
 31
0.0
  0
LINE
  5
151
330
1F
100
AcDbEntity
  8
0-4_寸法
  6
Continuous
 62
     2
370
    13
100
AcDbLine
 10
56.24435026239468
 20
28.71245678410393
 30
0.0
 11
58.11355310083599
 21
28.00065725089329
 31
0.0
  0
LINE
  5
152
330
1F
100
AcDbEntity
  8
0-4_寸法
  6
Continuous
 62
     2
370
    13
100
AcDbLine
 10
-270.0182744708412
 20
28.71245678410403
 30
0.0
 11
56.24435026239468
 21
28.71245678410393
 31
0.0
  0
LINE
  5
153
330
1F
100
AcDbEntity
  8
0-4_寸法
  6
Continuous
 62
     2
370
    13
100
AcDbLine
 10
-225.5734976191431
 20
-87.9536097428024
 30
0.0
 11
-270.0182744708412
 21
28.71245678410403
 31
0.0
  0
LINE
  5
154
330
1F
100
AcDbEntity
  8
0-4_寸法
  6
Continuous
 62
     2
370
    13
100
AcDbLine
 10
-227.4425838073822
 20
-88.66587587682145
 30
0.0
 11
-271.887244008878
 21
28.0006572508934
 31
0.0
  0
LINE
  5
155
330
1F
100
AcDbEntity
  8
0-4_寸法
  6
Continuous
 62
     2
370
    13
100
AcDbLine
 10
-225.5734976191431
 20
-87.9536097428024
 30
0.0
 11
-227.4425838073822
 21
-88.66587587682145
 31
0.0
  0
LINE
  5
156
330
1F
100
AcDbEntity
  8
0-4_寸法
  6
JWW_PHANTOM1
 62
     2
370
    13
100
AcDbLine
 10
-324.3852008629142
 20
-111.9989492019601
 30
0.0
 11
-325.2771083081663
 21
-110.2088352005425
 31
0.0
  0
LINE
  5
157
330
1F
100
AcDbEntity
  8
0-4_寸法
  6
JWW_PHANTOM1
 62
     2
370
    13
100
AcDbLine
 10
-243.8847797439018
 20
-51.12340813354788
 30
0.0
 11
-242.0158102058647
 21
-50.41137529993318
 31
0.0
  0
LINE
  5
158
330
1F
100
AcDbEntity
  8
0-4_寸法
  6
JWW_PHANTOM1
 62
     2
370
    13
100
AcDbLine
 10
30.11097218565766
 20
-51.12340813354798
 30
0.0
 11
28.24200264762027
 21
-50.41137529993318
 31
0.0
  0
LINE
  5
159
330
1F
100
AcDbEntity
  8
0-4_寸法
  6
Continuous
 62
     2
370
    13
100
AcDbLine
 10
13.66860127383489
 20
-88.66587587682145
 30
0.0
 11
58.11355310083599
 21
28.00065725089329
 31
0.0
  0
LINE
  5
15A
330
1F
100
AcDbEntity
  8
0-4_寸法
  6
Continuous
 62
     2
370
    13
100
AcDbLine
 10
11.7996317357975
 20
-87.9536097428024
 30
0.0
 11
56.24435026239468
 21
28.71245678410393
 31
0.0
  0
LINE
  5
15B
330
1F
100
AcDbEntity
  8
0-4_寸法
  6
Continuous
 62
     2
370
    13
100
AcDbLine
 10
11.7996317357975
 20
-87.9536097428024
 30
0.0
 11
-225.5734976191431
 21
-87.9536097428024
 31
0.0
  0
LINE
  5
15C
330
1F
100
AcDbEntity
  8
0-4_寸法
  6
Continuous
 62
     2
370
    13
100
AcDbLine
 10
-227.4425838073822
 20
-88.66587587682145
 30
0.0
 11
13.66860127383489
 21
-88.66587587682145
 31
0.0
  0
LINE
  5
15D
330
1F
100
AcDbEntity
  8
0-4_寸法
  6
JWW_PHANTOM1
 62
     2
370
    13
100
AcDbLine
 10
24.71520043734671
 20
-65.28660907165126
 30
0.0
 11
30.11097218565766
 21
-51.12340813354798
 31
0.0
  0
LINE
  5
15E
330
1F
100
AcDbEntity
  8
0-4_寸法
  6
JWW_PHANTOM1
 62
     2
370
    13
100
AcDbLine
 10
25.52965214840498
 20
-67.37184808438066
 30
0.0
 11
111.5034174001241
 21
-110.2088352005425
 31
0.0
  0
LINE
  5
15F
330
1F
100
AcDbEntity
  8
0-4_寸法
  6
JWW_PHANTOM1
 62
     2
370
    13
100
AcDbLine
 10
24.63774470315258
 20
-69.16196208579831
 30
0.0
 11
110.6115099548722
 21
-111.9989492019601
 31
0.0
  0
LINE
  5
160
330
1F
100
AcDbEntity
  8
0-4_寸法
  6
JWW_PHANTOM1
 62
     2
370
    13
100
AcDbLine
 10
110.6115099548722
 20
-111.9989492019601
 30
0.0
 11
111.5034174001241
 21
-110.2088352005425
 31
0.0
  0
LINE
  5
161
330
1F
100
AcDbEntity
  8
0-4_寸法
  6
Continuous
 62
     2
370
    13
100
AcDbLine
 10
11.7996317357975
 20
-87.9536097428024
 30
0.0
 11
13.66860127383489
 21
-88.66587587682145
 31
0.0
  0
LINE
  5
162
330
1F
100
AcDbEntity
  8
0-4_寸法
  6
JWW_PHANTOM1
 62
     2
370
    13
100
AcDbLine
 10
-238.489066320692
 20
-65.2868423720555
 30
0.0
 11
-243.8847797439018
 21
-51.12340813354788
 31
0.0
  0
LINE
  5
163
330
1F
100
AcDbEntity
  8
0-4_寸法
  6
JWW_PHANTOM1
 62
     2
370
    13
100
AcDbLine
 10
-239.3032264062448
 20
-67.37184808438059
 30
0.0
 11
-325.2771083081663
 21
-110.2088352005425
 31
0.0
  0
LINE
  5
164
330
1F
100
AcDbEntity
  8
0-4_寸法
  6
JWW_PHANTOM1
 62
     2
370
    13
100
AcDbLine
 10
-238.411318960993
 20
-69.16196208579827
 30
0.0
 11
-324.3852008629142
 21
-111.9989492019601
 31
0.0
  0
LINE
  5
165
330
1F
100
AcDbEntity
  8
0-2_本体（蓋）
  6
Continuous
 62
     6
370
    13
100
AcDbLine
 10
80.39070879657089
 20
874.2531381296862
 30
0.0
 11
118.483065592541
 21
874.2531381296862
 31
0.0
  0
LINE
  5
166
330
1F
100
AcDbEntity
  8
0-2_本体（蓋）
  6
Continuous
 62
     6
370
    13
100
AcDbLine
 10
80.71196345315258
 20
870.9198002795944
 30
0.0
 11
115.6302682499975
 21
870.9198002795944
 31
0.0
  0
LINE
  5
167
330
1F
100
AcDbEntity
  8
0-2_本体（蓋）
  6
Continuous
 62
     6
370
    13
100
AcDbLine
 10
115.6302682499975
 20
870.9198002795944
 30
0.0
 11
118.483065592541
 21
874.2531381296862
 31
0.0
  0
LINE
  5
168
330
1F
100
AcDbEntity
  8
0-2_本体（蓋）
  6
Continuous
 62
     6
370
    13
100
AcDbLine
 10
80.71196345315258
 20
870.9198002795944
 30
0.0
 11
80.39070879657089
 21
874.2531381296862
 31
0.0
  0
LINE
  5
169
330
1F
100
AcDbEntity
  8
0-2_本体（蓋）
  6
Continuous
 62
     6
370
    13
100
AcDbLine
 10
103.1130016635174
 20
854.2532276793365
 30
0.0
 11
113.8756159100183
 21
854.2532276793365
 31
0.0
  0
LINE
  5
16A
330
1F
100
AcDbEntity
  8
0-2_本体（蓋）
  6
Continuous
 62
     6
370
    13
100
AcDbLine
 10
116.3360019726994
 20
855.3376662831538
 30
0.0
 11
119.9288281973614
 21
851.9754575080422
 31
0.0
  0
LINE
  5
16B
330
1F
100
AcDbEntity
  8
0-2_本体（蓋）
  6
Continuous
 62
     6
370
    13
100
AcDbLine
 10
34.41163183665907
 20
892.701600892114
 30
0.0
 11
36.40425058892134
 21
896.6864884460322
 31
0.0
  0
LINE
  5
16C
330
1F
100
AcDbEntity
  8
0-2_本体（蓋）
  6
Continuous
 62
     6
370
    13
100
AcDbLine
 10
43.03908078393221
 20
860.504045409036
 30
0.0
 11
46.75718932564934
 21
858.0493752062579
 31
0.0
  0
LINE
  5
16D
330
1F
100
AcDbEntity
  8
0-2_本体（蓋）
  6
Continuous
 62
     6
370
    13
100
AcDbLine
 10
37.56258709576883
 20
956.1090345970943
 30
0.0
 11
40.39205439789242
 21
958.9383852490155
 31
0.0
  0
LINE
  5
16E
330
1F
100
AcDbEntity
  8
0-2_本体（蓋）
  6
Continuous
 62
     6
370
    13
100
AcDbLine
 10
57.89191771684756
 20
925.6842122353212
 30
0.0
 11
61.58879592178238
 21
927.21547943828
 31
0.0
  0
LINE
  5
16F
330
1F
100
AcDbEntity
  8
0-2_本体（蓋）
  6
Continuous
 62
     6
370
    13
100
AcDbLine
 10
-18.78955076073311
 20
1002.365447412497
 30
0.0
 11
-17.25828355777395
 21
1006.062150642129
 31
0.0
  0
LINE
  5
170
330
1F
100
AcDbEntity
  8
0-2_本体（蓋）
  6
Continuous
 62
     6
370
    13
100
AcDbLine
 10
11.63527160103996
 20
982.0362334416209
 30
0.0
 11
14.46473890316355
 21
984.8656424186433
 31
0.0
  0
LINE
  5
171
330
1F
100
AcDbEntity
  8
0-2_本体（蓋）
  6
Continuous
 62
     6
370
    13
100
AcDbLine
 10
-88.55372057891913
 20
1023.535825990713
 30
0.0
 11
-88.55372057891913
 21
1027.537044572925
 31
0.0
  0
LINE
  5
172
330
1F
100
AcDbEntity
  8
0-2_本体（蓋）
  6
Continuous
 62
     6
370
    13
100
AcDbLine
 10
-52.6651194010114
 20
1016.397066922632
 30
0.0
 11
-51.13385219805224
 21
1020.093945127567
 31
0.0
  0
LINE
  5
173
330
1F
100
AcDbEntity
  8
0-2_本体（蓋）
  6
Continuous
 62
     6
370
    13
100
AcDbLine
 10
71.92377052738692
 20
891.808876895447
 30
0.0
 11
75.62041543191725
 21
893.3400857733051
 31
0.0
  0
LINE
  5
174
330
1F
100
AcDbEntity
  8
0-2_本体（蓋）
  6
Continuous
 62
     6
370
    13
100
AcDbLine
 10
78.64328876912168
 20
859.2550133700564
 30
0.0
 11
82.41412320218757
 21
859.2550716951575
 31
0.0
  0
LINE
  5
175
330
1F
100
AcDbEntity
  8
0-2_本体（蓋）
  6
Continuous
 62
     6
370
    13
100
AcDbLine
 10
-294.164633005017
 20
874.2531381296862
 30
0.0
 11
-332.2569898009871
 21
874.2531381296862
 31
0.0
  0
LINE
  5
176
330
1F
100
AcDbEntity
  8
0-2_本体（蓋）
  6
Continuous
 62
     6
370
    13
100
AcDbLine
 10
-294.4858876615987
 20
870.9198002795944
 30
0.0
 11
-329.4041924584437
 21
870.9198002795944
 31
0.0
  0
LINE
  5
177
330
1F
100
AcDbEntity
  8
0-2_本体（蓋）
  6
Continuous
 62
     6
370
    13
100
AcDbLine
 10
-329.4041924584437
 20
870.9198002795944
 30
0.0
 11
-332.2569898009871
 21
874.2531381296862
 31
0.0
  0
LINE
  5
178
330
1F
100
AcDbEntity
  8
0-2_本体（蓋）
  6
Continuous
 62
     6
370
    13
100
AcDbLine
 10
-294.4858876615987
 20
870.9198002795944
 30
0.0
 11
-294.164633005017
 21
874.2531381296862
 31
0.0
  0
LINE
  5
179
330
1F
100
AcDbEntity
  8
0-2_本体（蓋）
  6
Continuous
 62
     6
370
    13
100
AcDbLine
 10
-316.8869258719633
 20
854.2532276793365
 30
0.0
 11
-327.6495401184641
 21
854.2532276793365
 31
0.0
  0
LINE
  5
17A
330
1F
100
AcDbEntity
  8
0-2_本体（蓋）
  6
Continuous
 62
     6
370
    13
100
AcDbLine
 10
-330.1099261811453
 20
855.3376662831538
 30
0.0
 11
-333.7027524058074
 21
851.9754575080422
 31
0.0
  0
LINE
  5
17B
330
1F
100
AcDbEntity
  8
0-2_本体（蓋）
  6
Continuous
 62
     6
370
    13
100
AcDbLine
 10
-251.3365113042148
 20
956.1090345970943
 30
0.0
 11
-254.1658619561362
 21
958.9383852490155
 31
0.0
  0
LINE
  5
17C
330
1F
100
AcDbEntity
  8
0-2_本体（蓋）
  6
Continuous
 62
     6
370
    13
100
AcDbLine
 10
-271.6657252750913
 20
925.6842122353212
 30
0.0
 11
-275.3626034800261
 21
927.21547943828
 31
0.0
  0
LINE
  5
17D
330
1F
100
AcDbEntity
  8
0-2_本体（蓋）
  6
Continuous
 62
     6
370
    13
100
AcDbLine
 10
-194.9843151226119
 20
1002.365447412497
 30
0.0
 11
-196.5155823255711
 21
1006.062150642129
 31
0.0
  0
LINE
  5
17E
330
1F
100
AcDbEntity
  8
0-2_本体（蓋）
  6
Continuous
 62
     6
370
    13
100
AcDbLine
 10
-225.409137484385
 20
982.0362334416209
 30
0.0
 11
-228.2386047865084
 21
984.8656424186433
 31
0.0
  0
LINE
  5
17F
330
1F
100
AcDbEntity
  8
0-2_本体（蓋）
  6
Continuous
 62
     6
370
    13
100
AcDbLine
 10
-125.2201453044259
 20
1023.535825990713
 30
0.0
 11
-125.2201453044259
 21
1027.537044572925
 31
0.0
  0
LINE
  5
180
330
1F
100
AcDbEntity
  8
0-2_本体（蓋）
  6
Continuous
 62
     6
370
    13
100
AcDbLine
 10
-161.1087464823336
 20
1016.397066922632
 30
0.0
 11
-162.6400136852928
 21
1020.093945127567
 31
0.0
  0
LINE
  5
181
330
1F
100
AcDbEntity
  8
0-2_本体（蓋）
  6
Continuous
 62
     6
370
    13
100
AcDbLine
 10
-285.6975780856305
 20
891.808876895447
 30
0.0
 11
-289.3943396403632
 21
893.3400857733051
 31
0.0
  0
LINE
  5
182
330
1F
100
AcDbEntity
  8
0-2_本体（蓋）
  6
Continuous
 62
     6
370
    13
100
AcDbLine
 10
-292.4172129775679
 20
859.2550133700564
 30
0.0
 11
-296.1880474106335
 21
859.2550716951575
 31
0.0
  0
LINE
  5
183
330
1F
100
AcDbEntity
  8
0-2_本体（蓋）
  6
Continuous
 62
     6
370
    13
100
AcDbLine
 10
-162.001937079809
 20
978.8852198574102
 30
0.0
 11
-165.9868246337274
 21
980.8778386096725
 31
0.0
  0
LINE
  5
184
330
1F
100
AcDbEntity
  8
0-2_本体（蓋）
  6
Continuous
 62
     6
370
    13
100
AcDbLine
 10
-129.804381596731
 20
987.5125521544815
 30
0.0
 11
-127.349711393953
 21
991.2306606961982
 31
0.0
  0
LINE
  5
185
330
1F
100
AcDbEntity
  8
0-2_本体（蓋）
  6
Continuous
 62
     6
370
    13
100
AcDbLine
 10
114.7796549762884
 20
850.9198898292445
 30
0.0
 11
117.4950383807592
 21
850.9198898292445
 31
0.0
  0
LINE
  5
186
330
1F
100
AcDbEntity
  8
0-2_本体（蓋）
  6
Continuous
 62
     6
370
    13
100
AcDbLine
 10
-328.5535791847346
 20
850.9198898292445
 30
0.0
 11
-331.2689625892051
 21
850.9198898292445
 31
0.0
  0
LINE
  5
187
330
1F
100
AcDbEntity
  8
0-2_本体（蓋）
  6
Continuous
 62
     6
370
    13
100
AcDbLine
 10
-101.8868386788827
 20
1009.246059583332
 30
0.0
 11
-101.8868386788827
 21
1010.660851559495
 31
0.0
  0
LINE
  5
188
330
1F
100
AcDbEntity
  8
0-2_本体（蓋）
  6
Continuous
 62
     6
370
    13
100
AcDbLine
 10
-111.8870272044623
 20
1009.246059583332
 30
0.0
 11
-111.8870272044623
 21
1010.664701016164
 31
0.0
  0
LINE
  5
189
330
1F
100
AcDbEntity
  8
0-4_寸法
  6
JWW_DASHED1
 62
     2
370
    13
100
AcDbLine
 10
-65.22018065297203
 20
1043.613308825459
 30
0.0
 11
-65.22018065297203
 21
1023.815669825549
 31
0.0
  0
LINE
  5
18A
330
1F
100
AcDbEntity
  8
0-4_寸法
  6
JWW_DASHED1
 62
     2
370
    13
100
AcDbLine
 10
-65.22018065297203
 20
1016.677377358277
 30
0.0
 11
-65.22018065297203
 21
997.2392542812383
 31
0.0
  0
LINE
  5
18B
330
1F
100
AcDbEntity
  8
0-4_寸法
  6
Continuous
 62
     2
370
    13
100
AcDbLine
 10
-65.22018065297203
 20
1023.815669825549
 30
0.0
 11
-65.22018065297203
 21
1016.677377358277
 31
0.0
  0
LINE
  5
18C
330
1F
100
AcDbEntity
  8
0-4_寸法
  6
JWW_DASHED1
 62
     2
370
    13
100
AcDbLine
 10
-148.5534519299688
 20
1016.677435683378
 30
0.0
 11
-148.5534519299688
 21
997.2392542812383
 31
0.0
  0
LINE
  5
18D
330
1F
100
AcDbEntity
  8
0-4_寸法
  6
JWW_DASHED1
 62
     2
370
    13
100
AcDbLine
 10
-148.5534519299688
 20
1043.613308825459
 30
0.0
 11
-148.5534519299688
 21
1023.815669825549
 31
0.0
  0
LINE
  5
18E
330
1F
100
AcDbEntity
  8
0-4_寸法
  6
Continuous
 62
     2
370
    13
100
AcDbLine
 10
-148.5534519299688
 20
1023.815669825549
 30
0.0
 11
-148.5534519299688
 21
1016.677435683378
 31
0.0
  0
LINE
  5
18F
330
1F
100
AcDbEntity
  8
0-1_ピット
  6
JWW_DASHED1
 62
     4
370
    13
100
AcDbLine
 10
-46.98962046806599
 20
940.0503845250773
 30
0.0
 11
-22.72946966174203
 21
940.0503845250773
 31
0.0
  0
LINE
  5
190
330
1F
100
AcDbEntity
  8
0-1_ピット
  6
JWW_DASHED1
 62
     4
370
    13
100
AcDbLine
 10
-60.22014471528337
 20
961.7169347379227
 30
0.0
 11
-48.07225099375074
 21
940.6756296083302
 31
0.0
  0
LINE
  5
191
330
1F
100
AcDbEntity
  8
0-1_ピット
  6
Continuous
 62
     4
370
    13
100
AcDbLine
 10
-48.07225099375074
 20
940.6756296083302
 30
0.0
 11
-47.71127694335405
 21
940.0503845250773
 31
0.0
  0
LINE
  5
192
330
1F
100
AcDbEntity
  8
0-1_ピット
  6
Continuous
 62
     4
370
    13
100
AcDbLine
 10
-47.71127694335405
 20
940.0503845250773
 30
0.0
 11
-46.98962046806599
 21
940.0503845250773
 31
0.0
  0
LINE
  5
193
330
1F
100
AcDbEntity
  8
0-1_ピット
  6
JWW_DASHED1
 62
     4
370
    13
100
AcDbLine
 10
-225.5718645163134
 20
838.2270646886045
 30
0.0
 11
-237.7020274071272
 21
859.2370492389332
 31
0.0
  0
LINE
  5
194
330
1F
100
AcDbEntity
  8
0-1_ピット
  6
Continuous
 62
     4
370
    13
100
AcDbLine
 10
-225.2112404165231
 20
837.602402856362
 30
0.0
 11
-225.5718645163134
 21
838.2270646886045
 31
0.0
  0
LINE
  5
195
330
1F
100
AcDbEntity
  8
0-2_本体（蓋）
  6
Continuous
 62
     6
370
    13
100
AcDbLine
 10
-332.384546796983
 20
-88.550392176743
 30
0.0
 11
-335.2200799096158
 21
-72.95426015605042
 31
0.0
  0
LINE
  5
196
330
1F
100
AcDbEntity
  8
0-2_本体（蓋）
  6
Continuous
 62
     6
370
    13
100
AcDbLine
 10
-335.2200799096158
 20
-72.95426015605042
 30
0.0
 11
-331.8869170348269
 21
-69.62086398085724
 31
0.0
  0
LINE
  5
197
330
1F
100
AcDbEntity
  8
0-2_本体（蓋）
  6
Continuous
 62
     6
370
    13
100
AcDbLine
 10
-303.5535161464944
 20
-71.55235802721944
 30
0.0
 11
-298.5534218837047
 21
-91.28747251880377
 31
0.0
  0
LINE
  5
198
330
1F
100
AcDbEntity
  8
0-2_本体（蓋）
  6
Continuous
 62
     6
370
    13
100
AcDbLine
 10
-300.2203532717056
 20
-68.21896185202644
 30
0.0
 11
-303.5535161464944
 21
-71.55235802721944
 31
0.0
  0
LINE
  5
199
330
1F
100
AcDbEntity
  8
0-2_本体（蓋）
  6
Continuous
 62
     6
370
    13
100
AcDbLine
 10
-331.8869170348269
 20
-69.62086398085724
 30
0.0
 11
-328.5535208596339
 21
-69.4734181254037
 31
0.0
  0
LINE
  5
19A
330
1F
100
AcDbEntity
  8
0-2_本体（蓋）
  6
Continuous
 62
     6
370
    13
100
AcDbLine
 10
-308.5536104092839
 20
-68.58780979106491
 30
0.0
 11
-300.2026224409863
 21
-68.21826195081378
 31
0.0
  0
LINE
  5
19B
330
1F
100
AcDbEntity
  8
0-A
  6
JWW_CENTER1
 62
     4
370
    13
100
AcDbLine
 10
-318.553682284661
 20
-52.40679365704587
 30
0.0
 11
-318.553682284661
 21
-118.2632983551031
 31
0.0
  0
LINE
  5
19C
330
1F
100
AcDbEntity
  8
0-2_本体（蓋）
  6
Continuous
 62
     6
370
    13
100
AcDbLine
 10
-278.889055739694
 20
139.0075558731484
 30
0.0
 11
-297.0298535940842
 21
-65.18314034238895
 31
0.0
  0
LINE
  5
19D
330
1F
100
AcDbEntity
  8
0-2_本体（蓋）
  6
Continuous
 62
     6
370
    13
100
AcDbLine
 10
91.80283136836152
 20
-91.28747251880377
 30
0.0
 11
-236.8869924450584
 21
-91.28747251880377
 31
0.0
  0
LINE
  5
19E
330
1F
100
AcDbEntity
  8
0-2_本体（蓋）
  6
Continuous
 62
     6
370
    13
100
AcDbLine
 10
-263.5535785955923
 20
-91.28747251880377
 30
0.0
 11
-305.5767555768077
 21
-91.28747251880377
 31
0.0
  0
LINE
  5
19F
330
1F
100
AcDbEntity
  8
0-2_本体（蓋）
  6
JWW_PHANTOM1
 62
     6
370
    13
100
AcDbLine
 10
44.77973509965977
 20
142.04582703703
 30
0.0
 11
50.02059537958218
 21
42.04580818447202
 31
0.0
  0
LINE
  5
1A0
330
1F
100
AcDbEntity
  8
0-2_本体（蓋）
  6
JWW_PHANTOM1
 62
     6
370
    13
100
AcDbLine
 10
53.94680788184473
 20
42.04580818447202
 30
0.0
 11
50.02059537958218
 21
42.04580818447202
 31
0.0
  0
LINE
  5
1A1
330
1F
100
AcDbEntity
  8
0-1_ピット
  6
Continuous
 62
     2
370
    13
100
AcDbLine
 10
-308.5536104092839
 20
-105.3926983064637
 30
0.0
 11
-308.5536104092839
 21
-117.6359535682126
 31
0.0
  0
LINE
  5
1A2
330
1F
100
AcDbEntity
  8
0-1_ピット
  6
Continuous
 62
     2
370
    13
100
AcDbLine
 10
-311.4535344334755
 20
-108.2925056804532
 30
0.0
 11
-311.4535344334755
 21
-116.8589465720283
 31
0.0
  0
LINE
  5
1A3
330
1F
100
AcDbEntity
  8
0-1_ピット
  6
Continuous
 62
     2
370
    13
100
AcDbLine
 10
-325.6535968354423
 20
-108.2932055816656
 30
0.0
 11
-325.6535968354423
 21
-113.0541669301515
 31
0.0
  0
LINE
  5
1A4
330
1F
100
AcDbEntity
  8
0-1_ピット
  6
Continuous
 62
     2
370
    13
100
AcDbLine
 10
-328.5536375098361
 20
-105.39304825707
 30
0.0
 11
-328.5536375098361
 21
-112.2769266335631
 31
0.0
  0
ARC
  5
1A5
330
1F
100
AcDbEntity
  8
0-1_ピット
  6
JWW_DASHED1
 62
     2
370
    13
100
AcDbCircle
 10
-331.1073437341964
 20
-92.61261881465323
 30
0.0
 40
6.66666658688696
100
AcDbArc
 50
190.6148834228516
 51
255.0005035400391
  0
ARC
  5
1A6
330
1F
100
AcDbEntity
  8
0-1_ピット
  6
JWW_DASHED1
 62
     2
370
    13
100
AcDbCircle
 10
117.333477850851
 20
-92.61261881465323
 30
0.0
 40
6.66666658688696
100
AcDbArc
 50
284.9994964599609
 51
349.3851165771484
  0
ARC
  5
1A7
330
1F
100
AcDbEntity
  8
0-1_ピット
  6
Continuous
 62
     2
370
    13
100
AcDbCircle
 10
-214.319144445692
 20
-114.6212457451552
 30
0.0
 40
4.999999940165221
100
AcDbArc
 50
11.31021118164063
 51
90.00000000000001
  0
ARC
  5
1A8
330
1F
100
AcDbEntity
  8
0-1_ピット
  6
Continuous
 62
     2
370
    13
100
AcDbCircle
 10
85.6351852327586
 20
-96.28768343179551
 30
0.0
 40
4.999999940165221
100
AcDbArc
 50
90.0
 51
169.91162109375
  0
ARC
  5
1A9
330
1F
100
AcDbEntity
  8
0-1_ピット
  6
Continuous
 62
     2
370
    13
100
AcDbCircle
 10
72.2922685158187
 20
-104.6814820242634
 30
0.0
 40
6.66666658688696
100
AcDbArc
 50
284.9994964599609
 51
349.9115142822266
  0
ARC
  5
1AA
330
1F
100
AcDbEntity
  8
0-1_ピット
  6
Continuous
 62
     2
370
    13
100
AcDbCircle
 10
120.2147378427068
 20
-86.28761155641837
 30
0.0
 40
4.999999940165221
100
AcDbArc
 50
270.0
 51
349.3838348388672
  0
ARC
  5
1AB
330
1F
100
AcDbEntity
  8
0-1_ピット
  6
Continuous
 62
     2
370
    13
100
AcDbCircle
 10
149.6413844251151
 20
-80.50491108774402
 30
0.0
 40
9.999999880330442
100
AcDbArc
 50
188.7071380615235
 51
285.0002746582032
  0
ARC
  5
1AC
330
1F
100
AcDbEntity
  8
0-1_ピット
  6
Continuous
 62
     2
370
    13
100
AcDbCircle
 10
-363.4150170080563
 20
-80.50491108774392
 30
0.0
 40
9.999999880330442
100
AcDbArc
 50
254.9997253417969
 51
351.2928619384766
  0
ARC
  5
1AD
330
1F
100
AcDbEntity
  8
0-1_ピット
  6
Continuous
 62
     2
370
    13
100
AcDbCircle
 10
42.29403594312316
 20
-117.9545252701461
 30
0.0
 40
3.33333329344348
100
AcDbArc
 50
90.0
 51
164.0540161132812
  0
ARC
  5
1AE
330
1F
100
AcDbEntity
  8
0-1_ピット
  6
Continuous
 62
     2
370
    13
100
AcDbCircle
 10
-299.4091677663062
 20
-96.28768343179551
 30
0.0
 40
4.999999940165221
100
AcDbArc
 50
10.08837890625001
 51
90.00000000000001
  0
ARC
  5
1AF
330
1F
100
AcDbEntity
  8
0-1_ピット
  6
Continuous
 62
     2
370
    13
100
AcDbCircle
 10
-333.9886037260521
 20
-86.28761155641837
 30
0.0
 40
4.999999940165221
100
AcDbArc
 50
190.6161651611329
 51
270.0
  0
ARC
  5
1B0
330
1F
100
AcDbEntity
  8
0-1_ピット
  6
Continuous
 62
     2
370
    13
100
AcDbCircle
 10
-286.3732743812916
 20
-102.9543591319794
 30
0.0
 40
6.66666658688696
100
AcDbArc
 50
190.08837890625
 51
270.0000000000001
  0
ARC
  5
1B1
330
1F
100
AcDbEntity
  8
0-1_ピット
  6
Continuous
 62
     4
370
    13
100
AcDbCircle
 10
-268.8702615068798
 20
-99.92110392678832
 30
0.0
 40
7.966666562216621
100
AcDbArc
 50
48.13610839843751
 51
131.8638916015625
  0
ARC
  5
1B2
330
1F
100
AcDbEntity
  8
0-1_ピット
  6
Continuous
 62
     4
370
    13
100
AcDbCircle
 10
-231.5700762333668
 20
-99.92110392678832
 30
0.0
 40
7.966666562216621
100
AcDbArc
 50
48.13610839843751
 51
131.8638916015625
  0
ARC
  5
1B3
330
1F
100
AcDbEntity
  8
0-0_通り芯
  6
Continuous
 62
     3
370
    13
100
AcDbCircle
 10
-388.6658196557096
 20
-94.0131211410587
 30
0.0
 40
5.416716383230731
100
AcDbArc
 50
187.620590209961
 51
322.3796997070312
  0
ARC
  5
1B4
330
1F
100
AcDbEntity
  8
0-0_通り芯
  6
Continuous
 62
     3
370
    13
100
AcDbCircle
 10
-369.3471463856201
 20
-99.18959050942284
 30
0.0
 40
5.416716383230731
100
AcDbArc
 50
187.620590209961
 51
322.3796997070312
  0
ARC
  5
1B5
330
1F
100
AcDbEntity
  8
0-0_通り芯
  6
Continuous
 62
     3
370
    13
100
AcDbCircle
 10
-358.2499793594981
 20
-107.7708459766647
 30
0.0
 40
3.33333329344348
100
AcDbArc
 50
11.56538391113281
 51
75.00050354003906
  0
ARC
  5
1B6
330
1F
100
AcDbEntity
  8
0-0_通り芯
  6
Continuous
 62
     3
370
    13
100
AcDbCircle
 10
-350.3033009916771
 20
-113.3509250442925
 30
0.0
 40
3.33333329344348
100
AcDbArc
 50
191.5664215087891
 51
255.000503540039
  0
ARC
  5
1B7
330
1F
100
AcDbEntity
  8
0-0_通り芯
  6
Continuous
 62
     3
370
    13
100
AcDbCircle
 10
-331.7449537388718
 20
-118.3237231597906
 30
0.0
 40
3.33333329344348
100
AcDbArc
 50
255.000503540039
 51
318.4357757568359
  0
ARC
  5
1B8
330
1F
100
AcDbEntity
  8
0-0_通り芯
  6
Continuous
 62
     3
370
    13
100
AcDbCircle
 10
-322.0727855815963
 20
-117.4644777711263
 30
0.0
 40
3.33333329344348
100
AcDbArc
 50
75.00077819824219
 51
138.4349822998047
  0
ARC
  5
1B9
330
1F
100
AcDbEntity
  8
0-0_通り芯
  6
Continuous
 62
     3
370
    13
100
AcDbCircle
 10
-360.2873917893666
 20
-122.7538645351226
 30
0.0
 40
4.999999940165221
100
AcDbArc
 50
191.5660095214844
 51
254.9999084472656
  0
ARC
  5
1BA
330
1F
100
AcDbEntity
  8
0-0_通り芯
  6
JWW_DASHED1
 62
     3
370
    13
100
AcDbCircle
 10
114.0259780205238
 20
-131.459002516994
 30
0.0
 40
4.999999940165221
100
AcDbArc
 50
221.564956665039
 51
285.0000915527344
  0
ARC
  5
1BB
330
1F
100
AcDbEntity
  8
0-0_通り芯
  6
JWW_DASHED1
 62
     3
370
    13
100
AcDbCircle
 10
102.6635484348279
 20
-136.2291792314455
 30
0.0
 40
6.66666658688696
100
AcDbArc
 50
41.56492614746094
 51
104.9994964599609
  0
ARC
  5
1BC
330
1F
100
AcDbEntity
  8
0-0_通り芯
  6
Continuous
 62
     3
370
    13
100
AcDbCircle
 10
-372.5131495208007
 20
-121.2034666990191
 30
0.0
 40
6.66666658688696
100
AcDbArc
 50
11.56517028808594
 51
75.00050354003908
  0
ARC
  5
1BD
330
1F
100
AcDbEntity
  8
0-0_通り芯
  6
JWW_DASHED1
 62
     3
370
    13
100
AcDbCircle
 10
80.54853652001128
 20
-160.8091265668251
 30
0.0
 40
6.66666658688696
100
AcDbArc
 50
270.0
 51
353.0000152587891
  0
ARC
  5
1BE
330
1F
100
AcDbEntity
  8
0-0_通り芯
  6
JWW_DASHED1
 62
     3
370
    13
100
AcDbCircle
 10
99.84154674563882
 20
-140.4361687701611
 30
0.0
 40
9.999999880330442
100
AcDbArc
 50
105.0001831054688
 51
172.9999237060547
  0
ARC
  5
1BF
330
1F
100
AcDbEntity
  8
0-0_通り芯
  6
Continuous
 62
     3
370
    13
100
AcDbCircle
 10
-308.1718142978124
 20
-115.5815102088376
 30
0.0
 40
5.416716383230731
100
AcDbArc
 50
187.6191101074219
 51
322.3802185058594
  0
ARC
  5
1C0
330
1F
100
AcDbEntity
  8
0-0_通り芯
  6
JWW_DASHED1
 62
     3
370
    13
100
AcDbCircle
 10
-280.0711305626683
 20
-140.1135143111542
 30
0.0
 40
9.999999880330442
100
AcDbArc
 50
187.0000762939453
 51
266.0001831054688
  0
ARC
  5
1C1
330
1F
100
AcDbEntity
  8
0-0_通り芯
  6
Continuous
 62
     3
370
    13
100
AcDbCircle
 10
174.8924203731727
 20
-94.01312114105885
 30
0.0
 40
5.416716383230731
100
AcDbArc
 50
217.6203002929688
 51
352.3794097900391
  0
ARC
  5
1C2
330
1F
100
AcDbEntity
  8
0-0_通り芯
  6
Continuous
 62
     3
370
    13
100
AcDbCircle
 10
155.5737471030832
 20
-99.18959050942284
 30
0.0
 40
5.416716383230731
100
AcDbArc
 50
217.6203002929688
 51
352.3794097900391
  0
ARC
  5
1C3
330
1F
100
AcDbEntity
  8
0-0_通り芯
  6
Continuous
 62
     3
370
    13
100
AcDbCircle
 10
144.4763467765571
 20
-107.7708459766647
 30
0.0
 40
3.33333329344348
100
AcDbArc
 50
104.999496459961
 51
168.4346160888672
  0
ARC
  5
1C4
330
1F
100
AcDbEntity
  8
0-0_通り芯
  6
Continuous
 62
     3
370
    13
100
AcDbCircle
 10
136.5299017091402
 20
-113.3509250442925
 30
0.0
 40
3.33333329344348
100
AcDbArc
 50
284.9994964599609
 51
348.4335784912109
  0
ARC
  5
1C5
330
1F
100
AcDbEntity
  8
0-0_通り芯
  6
Continuous
 62
     3
370
    13
100
AcDbCircle
 10
117.9713211559309
 20
-118.3237231597906
 30
0.0
 40
3.33333329344348
100
AcDbArc
 50
221.5642242431641
 51
284.999496459961
  0
ARC
  5
1C6
330
1F
100
AcDbEntity
  8
0-0_通り芯
  6
Continuous
 62
     3
370
    13
100
AcDbCircle
 10
108.2991529986552
 20
-117.4644777711263
 30
0.0
 40
3.33333329344348
100
AcDbArc
 50
41.56501770019532
 51
104.9992218017578
  0
ARC
  5
1C7
330
1F
100
AcDbEntity
  8
0-0_通り芯
  6
Continuous
 62
     3
370
    13
100
AcDbCircle
 10
146.5137592064255
 20
-122.7538645351226
 30
0.0
 40
4.999999940165221
100
AcDbArc
 50
285.0000915527344
 51
348.4339904785156
  0
ARC
  5
1C8
330
1F
100
AcDbEntity
  8
0-0_通り芯
  6
JWW_DASHED1
 62
     3
370
    13
100
AcDbCircle
 10
-327.7994939532631
 20
-131.459002516994
 30
0.0
 40
4.999999940165221
100
AcDbArc
 50
254.9999084472656
 51
318.4350433349609
  0
ARC
  5
1C9
330
1F
100
AcDbEntity
  8
0-0_通り芯
  6
JWW_DASHED1
 62
     3
370
    13
100
AcDbCircle
 10
-316.4365977667587
 20
-136.2291792314455
 30
0.0
 40
6.66666658688696
100
AcDbArc
 50
75.00050354003908
 51
138.4350738525391
  0
ARC
  5
1CA
330
1F
100
AcDbEntity
  8
0-0_通り芯
  6
Continuous
 62
     3
370
    13
100
AcDbCircle
 10
158.7396335880615
 20
-121.2034666990193
 30
0.0
 40
6.66666658688696
100
AcDbArc
 50
104.999496459961
 51
168.4348297119141
  0
ARC
  5
1CB
330
1F
100
AcDbEntity
  8
0-0_通り芯
  6
JWW_DASHED1
 62
     3
370
    13
100
AcDbCircle
 10
-294.3219358025483
 20
-160.8091265668251
 30
0.0
 40
6.66666658688696
100
AcDbArc
 50
186.999984741211
 51
270.0000000000001
  0
ARC
  5
1CC
330
1F
100
AcDbEntity
  8
0-0_通り芯
  6
JWW_DASHED1
 62
     3
370
    13
100
AcDbCircle
 10
-313.615295978782
 20
-140.4361687701611
 30
0.0
 40
9.999999880330442
100
AcDbArc
 50
7.000076293945317
 51
74.99981689453125
  0
ARC
  5
1CD
330
1F
100
AcDbEntity
  8
0-0_通り芯
  6
Continuous
 62
     3
370
    13
100
AcDbCircle
 10
94.39794841446741
 20
-115.5815102088376
 30
0.0
 40
5.416716383230731
100
AcDbArc
 50
217.6197814941406
 51
352.3808898925781
  0
ARC
  5
1CE
330
1F
100
AcDbEntity
  8
0-0_通り芯
  6
Continuous
 62
     3
370
    13
100
AcDbCircle
 10
87.70385991678978
 20
-129.8848080396623
 30
0.0
 40
9.999999880330442
100
AcDbArc
 50
105.0001831054688
 51
172.9999237060547
  0
ARC
  5
1CF
330
1F
100
AcDbEntity
  8
0-0_通り芯
  6
Continuous
 62
     3
370
    13
100
AcDbCircle
 10
66.29808123073786
 20
-140.1135143111542
 30
0.0
 40
9.999999880330442
100
AcDbArc
 50
273.9998168945312
 51
352.9999237060547
  0
ARC
  5
1D0
330
1F
100
AcDbEntity
  8
0-0_通り芯
  6
Continuous
 62
     3
370
    13
100
AcDbCircle
 10
30.86301603859255
 20
-176.0060815959333
 30
0.0
 40
23.33333214277466
100
AcDbArc
 50
94.00001525878912
 51
175.9145507812501
  0
ARC
  5
1D1
330
1F
100
AcDbEntity
  8
0-0_通り芯
  6
Continuous
 62
     3
370
    13
100
AcDbCircle
 10
147.6727956144853
 20
-132.7961637836598
 30
0.0
 40
4.999999940165221
100
AcDbArc
 50
105.0002746582031
 51
173.1259155273438
  0
ARC
  5
1D2
330
1F
100
AcDbEntity
  8
0-0_通り芯
  6
Continuous
 62
     3
370
    13
100
AcDbCircle
 10
93.878855015125
 20
-179.1423389295783
 30
0.0
 40
4.999999940165221
100
AcDbArc
 50
191.3102111816407
 51
270.0
  0
ARC
  5
1D3
330
1F
100
AcDbEntity
  8
0-0_通り芯
  6
Continuous
 62
     3
370
    13
100
AcDbCircle
 10
83.71395640418115
 20
-170.8089651417979
 30
0.0
 40
3.33333329344348
100
AcDbArc
 50
11.30993652343751
 51
90.00000000000001
  0
ARC
  5
1D4
330
1F
100
AcDbEntity
  8
0-0_通り芯
  6
Continuous
 62
     3
370
    13
100
AcDbCircle
 10
-283.6028320814303
 20
-125.8089333281064
 30
0.0
 40
8.333333689273555
100
AcDbArc
 50
192.8451385498047
 51
270.0
  0
ARC
  5
1D5
330
1F
100
AcDbEntity
  8
0-0_通り芯
  6
Continuous
 62
     3
370
    13
100
AcDbCircle
 10
-278.5533947831527
 20
-125.8089333281064
 30
0.0
 40
8.333333689273555
100
AcDbArc
 50
270.0
 51
336.4218139648438
  0
ARC
  5
1D6
330
1F
100
AcDbEntity
  8
0-0_通り芯
  6
Continuous
 62
     3
370
    13
100
AcDbCircle
 10
-234.3970938812465
 20
-134.1424237660891
 30
0.0
 40
4.999999940165221
100
AcDbArc
 50
10.25082397460938
 51
90.0
  0
ARC
  5
1D7
330
1F
100
AcDbEntity
  8
0-0_通り芯
  6
JWW_DASHED1
 62
     3
370
    13
100
AcDbCircle
 10
-301.4773758495289
 20
-129.8848080396623
 30
0.0
 40
9.999999880330442
100
AcDbArc
 50
7.000076293945317
 51
12.84489440917969
  0
ARC
  5
1D8
330
1F
100
AcDbEntity
  8
0-0_通り芯
  6
Continuous
 62
     3
370
    13
100
AcDbCircle
 10
-301.4773758495289
 20
-129.8848080396623
 30
0.0
 40
9.999999880330442
100
AcDbArc
 50
12.84489440917969
 51
74.99981689453125
  0
ARC
  5
1D9
330
1F
100
AcDbEntity
  8
0-0_通り芯
  6
Continuous
 62
     3
370
    13
100
AcDbCircle
 10
-400.1807110555496
 20
-144.8484626645717
 30
0.0
 40
36.66666531654859
100
AcDbArc
 50
74.99986267089845
 51
123.1291046142578
  0
ARC
  5
1DA
330
1F
100
AcDbEntity
  8
0-0_通り芯
  6
Continuous
 62
     3
370
    13
100
AcDbCircle
 10
-433.9442955018123
 20
-87.47557721459891
 30
0.0
 40
3.33333329344348
100
AcDbArc
 50
90.0
 51
172.875732421875
  0
ARC
  5
1DB
330
1F
100
AcDbEntity
  8
0-0_通り芯
  6
Continuous
 62
     3
370
    13
100
AcDbCircle
 10
186.4071951228107
 20
-144.8484626645719
 30
0.0
 40
36.66666531654859
100
AcDbArc
 50
56.8708953857422
 51
105.0001373291016
  0
ARC
  5
1DC
330
1F
100
AcDbEntity
  8
0-0_通り芯
  6
Continuous
 62
     3
370
    13
100
AcDbCircle
 10
220.1708962192754
 20
-87.4755772145991
 30
0.0
 40
3.33333329344348
100
AcDbArc
 50
7.124267578125002
 51
90.00000000000001
  0
ARC
  5
1DD
330
1F
100
AcDbEntity
  8
0-0_通り芯
  6
Continuous
 62
     3
370
    13
100
AcDbCircle
 10
-326.1803891481231
 20
-143.971136494582
 30
0.0
 40
6.66666658688696
100
AcDbArc
 50
8.340438842773448
 51
74.99987792968751
  0
ARC
  5
1DE
330
1F
100
AcDbEntity
  8
0-0_通り芯
  6
Continuous
 62
     3
370
    13
100
AcDbCircle
 10
-297.4873556867182
 20
-170.8088484915958
 30
0.0
 40
3.33333329344348
100
AcDbArc
 50
90.0
 51
168.6904602050781
  0
ARC
  5
1DF
330
1F
100
AcDbEntity
  8
0-0_通り芯
  6
Continuous
 62
     3
370
    13
100
AcDbCircle
 10
-304.9198399636848
 20
-182.4756184545692
 30
0.0
 40
1.66666664672174
100
AcDbArc
 50
270.0
 51
348.6900634765625
  0
ARC
  5
1E0
330
1F
100
AcDbEntity
  8
0-0_通り芯
  6
Continuous
 62
     3
370
    13
100
AcDbCircle
 10
-312.1133079765498
 20
-182.4756184545692
 30
0.0
 40
1.66666664672174
100
AcDbArc
 50
188.3424835205078
 51
270.0
  0
ELLIPSE
  5
1E1
330
1F
100
AcDbEntity
  8
0-A
  6
Continuous
 62
     4
370
    13
100
AcDbEllipse
 10
-106.8869329416725
 20
1024.943035703739
 30
0.0
 11
17.50005652085234
 21
0.0
 31
0.0
210
0.0
220
0.0
230
1.0
 40
0.7428
 41
1.666170250701142
 42
3.141592653589793
  0
ELLIPSE
  5
1E2
330
1F
100
AcDbEntity
  8
0-A
  6
Continuous
 62
     4
370
    13
100
AcDbEllipse
 10
-106.8869329416725
 20
1024.943035703739
 30
0.0
 11
17.50005652085234
 21
0.0
 31
0.0
210
0.0
220
0.0
230
1.0
 40
0.7428
 41
0.0
 42
1.475408288134874
  0
ARC
  5
1E3
330
1F
100
AcDbEntity
  8
0-1_ピット
  6
Continuous
 62
     2
370
    13
100
AcDbCircle
 10
-106.8869912667734
 20
837.5865384288766
 30
0.0
 40
299.9999982325727
100
AcDbArc
 50
0.0
 51
180.0
  0
ARC
  5
1E4
330
1F
100
AcDbEntity
  8
0-1_ピット
  6
Continuous
 62
     2
370
    13
100
AcDbCircle
 10
-106.8869912667734
 20
837.5865384288766
 30
0.0
 40
279.8034738665841
100
AcDbArc
 50
0.0
 51
180.0
  0
ARC
  5
1E5
330
1F
100
AcDbEntity
  8
0-1_ピット
  6
Continuous
 62
     2
370
    13
100
AcDbCircle
 10
-106.8869912667734
 20
837.5865384288766
 30
0.0
 40
298.3333293075266
100
AcDbArc
 50
0.0
 51
180.0
  0
ARC
  5
1E6
330
1F
100
AcDbEntity
  8
0-1_ピット
  6
Continuous
 62
     2
370
    13
100
AcDbCircle
 10
-106.8869912667734
 20
837.5865384288766
 30
0.0
 40
244.9999820311557
100
AcDbArc
 50
139.291488647461
 51
160.7085418701172
  0
ARC
  5
1E7
330
1F
100
AcDbEntity
  8
0-1_ピット
  6
Continuous
 62
     2
370
    13
100
AcDbCircle
 10
-106.8869912667734
 20
837.5865384288766
 30
0.0
 40
248.3332907186972
100
AcDbArc
 50
138.0777740478516
 51
161.9222412109375
  0
ARC
  5
1E8
330
1F
100
AcDbEntity
  8
0-1_ピット
  6
Continuous
 62
     2
370
    13
100
AcDbCircle
 10
-106.8869912667734
 20
837.5865384288766
 30
0.0
 40
234.9999684808797
100
AcDbArc
 50
139.4744873046875
 51
160.5255737304688
  0
ARC
  5
1E9
330
1F
100
AcDbEntity
  8
0-1_ピット
  6
Continuous
 62
     2
370
    13
100
AcDbCircle
 10
-106.8869912667734
 20
837.5865384288766
 30
0.0
 40
229.9999762870169
100
AcDbArc
 50
138.3233795166016
 51
161.6766510009766
  0
ARC
  5
1EA
330
1F
100
AcDbEntity
  8
0-1_ピット
  6
Continuous
 62
     2
370
    13
100
AcDbCircle
 10
-106.8869912667734
 20
837.5865384288766
 30
0.0
 40
244.9999820311557
100
AcDbArc
 50
109.2914886474609
 51
130.7085418701172
  0
ARC
  5
1EB
330
1F
100
AcDbEntity
  8
0-1_ピット
  6
Continuous
 62
     2
370
    13
100
AcDbCircle
 10
-106.8869912667734
 20
837.5865384288766
 30
0.0
 40
248.3332907186972
100
AcDbArc
 50
108.0777740478516
 51
131.9222412109375
  0
ARC
  5
1EC
330
1F
100
AcDbEntity
  8
0-1_ピット
  6
Continuous
 62
     2
370
    13
100
AcDbCircle
 10
-106.8869912667734
 20
837.5865384288766
 30
0.0
 40
234.9999684808797
100
AcDbArc
 50
109.4744873046875
 51
130.5255737304687
  0
ARC
  5
1ED
330
1F
100
AcDbEntity
  8
0-1_ピット
  6
Continuous
 62
     2
370
    13
100
AcDbCircle
 10
-106.8869912667734
 20
837.5865384288766
 30
0.0
 40
229.9999762870169
100
AcDbArc
 50
108.3233795166016
 51
131.6766510009766
  0
ARC
  5
1EE
330
1F
100
AcDbEntity
  8
0-1_ピット
  6
Continuous
 62
     2
370
    13
100
AcDbCircle
 10
-106.8869912667734
 20
837.5865384288766
 30
0.0
 40
244.9999820311557
100
AcDbArc
 50
79.29148864746095
 51
100.7085418701172
  0
ARC
  5
1EF
330
1F
100
AcDbEntity
  8
0-1_ピット
  6
Continuous
 62
     2
370
    13
100
AcDbCircle
 10
-106.8869912667734
 20
837.5865384288766
 30
0.0
 40
248.3332907186972
100
AcDbArc
 50
78.07777404785155
 51
101.9222412109375
  0
ARC
  5
1F0
330
1F
100
AcDbEntity
  8
0-1_ピット
  6
Continuous
 62
     2
370
    13
100
AcDbCircle
 10
-106.8869912667734
 20
837.5865384288766
 30
0.0
 40
234.9999684808797
100
AcDbArc
 50
79.4744873046875
 51
100.5255737304687
  0
ARC
  5
1F1
330
1F
100
AcDbEntity
  8
0-1_ピット
  6
Continuous
 62
     2
370
    13
100
AcDbCircle
 10
-106.8869912667734
 20
837.5865384288766
 30
0.0
 40
244.9999820311557
100
AcDbArc
 50
49.29148864746095
 51
70.7085418701172
  0
ARC
  5
1F2
330
1F
100
AcDbEntity
  8
0-1_ピット
  6
Continuous
 62
     2
370
    13
100
AcDbCircle
 10
-106.8869912667734
 20
837.5865384288766
 30
0.0
 40
248.3332907186972
100
AcDbArc
 50
48.07777404785156
 51
71.9222412109375
  0
ARC
  5
1F3
330
1F
100
AcDbEntity
  8
0-1_ピット
  6
Continuous
 62
     2
370
    13
100
AcDbCircle
 10
-106.8869912667734
 20
837.5865384288766
 30
0.0
 40
234.9999684808797
100
AcDbArc
 50
49.4744873046875
 51
70.52557373046875
  0
ARC
  5
1F4
330
1F
100
AcDbEntity
  8
0-1_ピット
  6
Continuous
 62
     2
370
    13
100
AcDbCircle
 10
-106.8869912667734
 20
837.5865384288766
 30
0.0
 40
229.9999762870169
100
AcDbArc
 50
48.32337951660157
 51
71.67665100097656
  0
ARC
  5
1F5
330
1F
100
AcDbEntity
  8
0-1_ピット
  6
Continuous
 62
     2
370
    13
100
AcDbCircle
 10
-106.8869912667734
 20
837.5865384288766
 30
0.0
 40
244.9999820311557
100
AcDbArc
 50
19.29148864746094
 51
40.70854187011719
  0
ARC
  5
1F6
330
1F
100
AcDbEntity
  8
0-1_ピット
  6
Continuous
 62
     2
370
    13
100
AcDbCircle
 10
-106.8869912667734
 20
837.5865384288766
 30
0.0
 40
248.3332907186972
100
AcDbArc
 50
18.07777404785157
 51
41.92224121093751
  0
ARC
  5
1F7
330
1F
100
AcDbEntity
  8
0-1_ピット
  6
Continuous
 62
     2
370
    13
100
AcDbCircle
 10
-106.8869912667734
 20
837.5865384288766
 30
0.0
 40
234.9999684808797
100
AcDbArc
 50
19.4744873046875
 51
40.52557373046875
  0
ARC
  5
1F8
330
1F
100
AcDbEntity
  8
0-1_ピット
  6
Continuous
 62
     2
370
    13
100
AcDbCircle
 10
-106.8869912667734
 20
837.5865384288766
 30
0.0
 40
229.9999762870169
100
AcDbArc
 50
18.32337951660156
 51
41.67665100097656
  0
ARC
  5
1F9
330
1F
100
AcDbEntity
  8
0-1_ピット
  6
Continuous
 62
     2
370
    13
100
AcDbCircle
 10
-106.8869912667734
 20
837.5865384288766
 30
0.0
 40
234.9999684808797
100
AcDbArc
 50
0.0
 51
10.52557373046875
  0
ARC
  5
1FA
330
1F
100
AcDbEntity
  8
0-1_ピット
  6
Continuous
 62
     2
370
    13
100
AcDbCircle
 10
-106.8869912667734
 20
837.5865384288766
 30
0.0
 40
244.9999820311557
100
AcDbArc
 50
0.0
 51
10.70854187011719
  0
ARC
  5
1FB
330
1F
100
AcDbEntity
  8
0-1_ピット
  6
Continuous
 62
     2
370
    13
100
AcDbCircle
 10
-106.8869912667734
 20
837.5865384288766
 30
0.0
 40
248.3332907186972
100
AcDbArc
 50
0.0
 51
11.9222412109375
  0
ARC
  5
1FC
330
1F
100
AcDbEntity
  8
0-1_ピット
  6
Continuous
 62
     2
370
    13
100
AcDbCircle
 10
-106.8869912667734
 20
837.5865384288766
 30
0.0
 40
229.9999762870169
100
AcDbArc
 50
8.583679199218743
 51
11.67665100097656
  0
ARC
  5
1FD
330
1F
100
AcDbEntity
  8
0-1_ピット
  6
Continuous
 62
     2
370
    13
100
AcDbCircle
 10
-106.8869912667734
 20
837.5865384288766
 30
0.0
 40
231.2515746304426
100
AcDbArc
 50
0.0
 51
7.676528930664062
  0
ARC
  5
1FE
330
1F
100
AcDbEntity
  8
0-1_ピット
  6
Continuous
 62
     2
370
    13
100
AcDbCircle
 10
-106.8869912667734
 20
837.5865384288766
 30
0.0
 40
234.9999684808797
100
AcDbArc
 50
169.4744110107422
 51
179.999984741211
  0
ARC
  5
1FF
330
1F
100
AcDbEntity
  8
0-1_ピット
  6
Continuous
 62
     2
370
    13
100
AcDbCircle
 10
-106.8869912667734
 20
837.5865384288766
 30
0.0
 40
244.9999820311557
100
AcDbArc
 50
169.2914428710938
 51
179.999984741211
  0
ARC
  5
200
330
1F
100
AcDbEntity
  8
0-1_ピット
  6
Continuous
 62
     2
370
    13
100
AcDbCircle
 10
-106.8869912667734
 20
837.5865384288766
 30
0.0
 40
248.3332907186972
100
AcDbArc
 50
168.0777740478516
 51
180.0000152587891
  0
ARC
  5
201
330
1F
100
AcDbEntity
  8
0-1_ピット
  6
Continuous
 62
     2
370
    13
100
AcDbCircle
 10
-106.8869912667734
 20
837.5865384288766
 30
0.0
 40
229.9999762870169
100
AcDbArc
 50
168.3233489990234
 51
171.4163208007812
  0
ARC
  5
202
330
1F
100
AcDbEntity
  8
0-1_ピット
  6
Continuous
 62
     2
370
    13
100
AcDbCircle
 10
-106.8869912667734
 20
837.5865384288766
 30
0.0
 40
231.2515746304426
100
AcDbArc
 50
172.3234710693359
 51
180.0
  0
ARC
  5
203
330
1F
100
AcDbEntity
  8
0-1_ピット
  6
Continuous
 62
     2
370
    13
100
AcDbCircle
 10
-106.8869912667734
 20
837.5865384288766
 30
0.0
 40
229.9999762870169
100
AcDbArc
 50
95.13783264160162
 51
101.6766510009766
  0
ARC
  5
204
330
1F
100
AcDbEntity
  8
0-1_ピット
  6
Continuous
 62
     2
370
    13
100
AcDbCircle
 10
-106.8869912667734
 20
837.5865384288766
 30
0.0
 40
229.9999762870169
100
AcDbArc
 50
78.32337951660159
 51
84.86216735839845
  0
ARC
  5
205
330
1F
100
AcDbEntity
  8
0-1_ピット
  6
Continuous
 62
     2
370
    13
100
AcDbCircle
 10
-106.8869912667734
 20
837.5865384288766
 30
0.0
 40
231.2515746304426
100
AcDbArc
 50
86.59643554687501
 51
93.40356445312501
  0
ARC
  5
206
330
1F
100
AcDbEntity
  8
0-1_ピット
  6
JWW_DASHED1
 62
     2
370
    13
100
AcDbCircle
 10
-84.07942710209255
 20
972.3365941617508
 30
0.0
 40
6.66666658688696
100
AcDbArc
 50
347.7381896972656
 51
80.39346313476562
  0
ARC
  5
207
330
1F
100
AcDbEntity
  8
0-1_ピット
  6
JWW_DASHED1
 62
     2
370
    13
100
AcDbCircle
 10
-106.8869912667734
 20
837.5865384288766
 30
0.0
 40
143.3333379973776
100
AcDbArc
 50
0.0
 51
39.60671997070312
  0
ARC
  5
208
330
1F
100
AcDbEntity
  8
0-1_ピット
  6
JWW_DASHED1
 62
     2
370
    13
100
AcDbCircle
 10
-1.593736193550228
 20
924.7135659036517
 30
0.0
 40
6.66666658688696
100
AcDbArc
 50
39.60639953613281
 51
132.2628936767578
  0
ARC
  5
209
330
1F
100
AcDbEntity
  8
0-1_ピット
  6
JWW_DASHED1
 62
     2
370
    13
100
AcDbCircle
 10
-234.9878105046777
 20
885.2095666869754
 30
0.0
 40
6.66666658688696
100
AcDbArc
 50
159.6063995361328
 51
252.2628936767578
  0
ARC
  5
20A
330
1F
100
AcDbEntity
  8
0-1_ピット
  6
JWW_DASHED1
 62
     2
370
    13
100
AcDbCircle
 10
-106.8869912667734
 20
837.5865384288766
 30
0.0
 40
143.3333379973776
100
AcDbArc
 50
80.39329528808592
 51
159.6068267822266
  0
ARC
  5
20B
330
1F
100
AcDbEntity
  8
0-1_ピット
  6
JWW_DASHED1
 62
     2
370
    13
100
AcDbCircle
 10
0.8567346019523825
 20
932.1157211280727
 30
0.0
 40
3.33333329344348
100
AcDbArc
 50
41.26124572753908
 51
140.6307678222656
  0
ARC
  5
20C
330
1F
100
AcDbEntity
  8
0-1_ピット
  6
JWW_DASHED1
 62
     2
370
    13
100
AcDbCircle
 10
-106.8869912667734
 20
837.5865384288766
 30
0.0
 40
146.6666466849191
100
AcDbArc
 50
0.0
 51
41.26216125488281
  0
ARC
  5
20D
330
1F
100
AcDbEntity
  8
0-1_ピット
  6
JWW_DASHED1
 62
     2
370
    13
100
AcDbCircle
 10
-35.22025665234622
 20
961.7169347379227
 30
0.0
 40
43.33333008077614
100
AcDbArc
 50
320.6310272216797
 51
329.9999084472657
  0
ARC
  5
20E
330
1F
100
AcDbEntity
  8
0-1_ピット
  6
JWW_DASHED1
 62
     2
370
    13
100
AcDbCircle
 10
-78.89409231836908
 20
978.159830575655
 30
0.0
 40
3.33333329344348
100
AcDbArc
 50
339.3675384521484
 51
78.73760986328125
  0
ARC
  5
20F
330
1F
100
AcDbEntity
  8
0-1_ピット
  6
JWW_DASHED1
 62
     2
370
    13
100
AcDbCircle
 10
-35.22025665234622
 20
961.7169347379227
 30
0.0
 40
43.33333008077614
100
AcDbArc
 50
149.9999084472657
 51
159.3691864013672
  0
ARC
  5
210
330
1F
100
AcDbEntity
  8
0-1_ピット
  6
JWW_DASHED1
 62
     2
370
    13
100
AcDbCircle
 10
-242.6233827834994
 20
883.6306478764586
 30
0.0
 40
3.33333329344348
100
AcDbArc
 50
161.2641143798828
 51
260.6306762695312
  0
ARC
  5
211
330
1F
100
AcDbEntity
  8
0-1_ピット
  6
JWW_DASHED1
 62
     2
370
    13
100
AcDbCircle
 10
-106.8869912667734
 20
837.5865384288766
 30
0.0
 40
146.6666466849191
100
AcDbArc
 50
78.73782348632814
 51
161.2622375488281
  0
ARC
  5
212
330
1F
100
AcDbEntity
  8
0-1_ピット
  6
JWW_DASHED1
 62
     2
370
    13
100
AcDbCircle
 10
-250.2204604956285
 20
837.5865384288766
 30
0.0
 40
43.33333008077614
100
AcDbArc
 50
80.63093566894533
 51
89.99990844726565
  0
CIRCLE
  5
213
330
1F
100
AcDbEntity
  8
0-1_ピット
  6
JWW_DASHED1
 62
     4
370
    13
100
AcDbCircle
 10
-35.22025665234622
 20
961.7169347379227
 30
0.0
 40
11.07833257513157
  0
ARC
  5
214
330
1F
100
AcDbEntity
  8
0-1_ピット
  6
JWW_DASHED1
 62
     4
370
    13
100
AcDbCircle
 10
-250.2204604956285
 20
837.5865384288766
 30
0.0
 40
11.07833257513157
100
AcDbArc
 50
0.0
 51
180.0
  0
ARC
  5
215
330
1F
100
AcDbEntity
  8
0-1_ピット
  6
Continuous
 62
     2
370
    13
100
AcDbCircle
 10
-329.4591930287335
 20
867.5866374048055
 30
0.0
 40
6.66666658688696
100
AcDbArc
 50
172.3234252929687
 51
228.8124694824219
  0
ARC
  5
216
330
1F
100
AcDbEntity
  8
0-1_ピット
  6
Continuous
 62
     2
370
    13
100
AcDbCircle
 10
-327.7187720134101
 20
870.9199169297963
 30
0.0
 40
6.66666658688696
100
AcDbArc
 50
171.4168090820313
 51
213.388671875
  0
ARC
  5
217
330
1F
100
AcDbEntity
  8
0-1_ピット
  6
Continuous
 62
     2
370
    13
100
AcDbCircle
 10
-93.55363986640555
 20
1061.775103716227
 30
0.0
 40
6.66666658688696
100
AcDbArc
 50
86.59663391113284
 51
143.0830993652344
  0
ARC
  5
218
330
1F
100
AcDbEntity
  8
0-1_ピット
  6
Continuous
 62
     2
370
    13
100
AcDbCircle
 10
-86.8869641662215
 20
1060.022551079885
 30
0.0
 40
6.66666658688696
100
AcDbArc
 50
84.86212158203125
 51
126.8358764648438
  0
ARC
  5
219
330
1F
100
AcDbEntity
  8
0-1_ピット
  6
Continuous
 62
     2
370
    13
100
AcDbCircle
 10
-126.8867850669213
 20
1060.022551079885
 30
0.0
 40
6.66666658688696
100
AcDbArc
 50
53.16412353515626
 51
95.13787841796876
  0
ARC
  5
21A
330
1F
100
AcDbEntity
  8
0-1_ピット
  6
Continuous
 62
     2
370
    13
100
AcDbCircle
 10
-120.2203426671414
 20
1061.775103716227
 30
0.0
 40
6.66666658688696
100
AcDbArc
 50
36.91690063476564
 51
93.4033660888672
  0
ARC
  5
21B
330
1F
100
AcDbEntity
  8
0-1_ピット
  6
JWW_DASHED1
 62
     4
370
    13
100
AcDbCircle
 10
-35.22025665234622
 20
961.7169347379227
 30
0.0
 40
13.33333317377392
100
AcDbArc
 50
90.22064208984375
 51
29.77864074707031
  0
ARC
  5
21C
330
1F
100
AcDbEntity
  8
0-1_ピット
  6
JWW_DASHED1
 62
     4
370
    13
100
AcDbCircle
 10
-250.2204604956285
 20
837.5865384288766
 30
0.0
 40
13.33333317377392
100
AcDbArc
 50
0.0
 51
149.7783508300781
  0
ARC
  5
21D
330
1F
100
AcDbEntity
  8
0-1_ピット
  6
JWW_DASHED1
 62
     4
370
    13
100
AcDbCircle
 10
-35.20415892445641
 20
961.7077776970577
 30
0.0
 40
21.66666868570688
100
AcDbArc
 50
120.9942779541016
 51
358.990966796875
  0
ARC
  5
21E
330
1F
100
AcDbEntity
  8
0-1_ピット
  6
JWW_DASHED1
 62
     4
370
    13
100
AcDbCircle
 10
-250.2204604956285
 20
837.6050858110102
 30
0.0
 40
21.66666868570688
100
AcDbArc
 50
359.950927734375
 51
118.9913635253906
  0
ELLIPSE
  5
21F
330
1F
100
AcDbEntity
  8
0-A
  6
Continuous
 62
     4
370
    13
100
AcDbEllipse
 10
-106.8869329416725
 20
1011.408870980457
 30
0.0
 11
-9.999571554959685
 21
-9.054359760489408E-5
 31
0.0
210
0.0
220
0.0
230
1.0
 40
0.0891
 41
0.0
 42
3.141592653589792
  0
ARC
  5
220
330
1F
100
AcDbEntity
  8
0-1_ピット
  6
Continuous
 62
     2
370
    13
100
AcDbCircle
 10
115.6854437955909
 20
867.5866374048055
 30
0.0
 40
6.66666658688696
100
AcDbArc
 50
311.1868743896484
 51
7.676574707031258
  0
ARC
  5
221
330
1F
100
AcDbEntity
  8
0-1_ピット
  6
Continuous
 62
     2
370
    13
100
AcDbCircle
 10
113.9445561794591
 20
870.9199169297963
 30
0.0
 40
6.66666658688696
100
AcDbArc
 50
326.6148223876953
 51
8.583190917968746
  0
ELLIPSE
  5
222
330
1F
100
AcDbEntity
  8
0-A
  6
Continuous
 62
     4
370
    13
100
AcDbEllipse
 10
-106.8869329416725
 20
986.6629304074902
 30
0.0
 11
-9.999571555091597
 21
-7.456531567464020E-5
 31
0.0
210
0.0
220
0.0
230
1.0
 40
0.0743
 41
0.0
 42
3.141592653589792
  0
ARC
  5
223
330
1F
100
AcDbEntity
  8
0-0_通り芯
  6
Continuous
 62
     3
370
    13
100
AcDbCircle
 10
-106.8868746165717
 20
837.5865384288766
 30
0.0
 40
104.9663428818397
100
AcDbArc
 50
69.4198455810547
 51
170.5804138183594
  0
ARC
  5
224
330
1F
100
AcDbEntity
  8
0-0_通り芯
  6
Continuous
 62
     3
370
    13
100
AcDbCircle
 10
-106.8869912667734
 20
837.5865384288766
 30
0.0
 40
115.9189219824596
100
AcDbArc
 50
359.9999694824219
 51
45.04046630859376
  0
ARC
  5
225
330
1F
100
AcDbEntity
  8
0-0_通り芯
  6
Continuous
 62
     3
370
    13
100
AcDbCircle
 10
-106.8869912667734
 20
837.5865384288766
 30
0.0
 40
115.9189219824596
100
AcDbArc
 50
74.95951843261719
 51
165.0404968261719
  0
ARC
  5
226
330
1F
100
AcDbEntity
  8
0-A
  6
Continuous
 62
     4
370
    13
100
AcDbCircle
 10
99.4459859103199
 20
842.9202522696704
 30
0.0
 40
3.33333329344348
100
AcDbArc
 50
270.0
 51
0.0
  0
ARC
  5
227
330
1F
100
AcDbEntity
  8
0-A
  6
Continuous
 62
     4
370
    13
100
AcDbCircle
 10
110.1134135919077
 20
842.9202522696704
 30
0.0
 40
3.33333329344348
100
AcDbArc
 50
180.0
 51
270.0
  0
ARC
  5
228
330
1F
100
AcDbEntity
  8
0-A
  6
Continuous
 62
     4
370
    13
100
AcDbCircle
 10
104.7796997511139
 20
837.5865384288766
 30
0.0
 40
16.66666737854711
100
AcDbArc
 50
0.0
 51
180.0
  0
ARC
  5
229
330
1F
100
AcDbEntity
  8
0-A
  6
Continuous
 62
     4
370
    13
100
AcDbCircle
 10
-313.2198517936646
 20
842.9202522696704
 30
0.0
 40
3.33333329344348
100
AcDbArc
 50
180.0
 51
270.0
  0
ARC
  5
22A
330
1F
100
AcDbEntity
  8
0-A
  6
Continuous
 62
     4
370
    13
100
AcDbCircle
 10
-323.8872794752525
 20
842.9202522696704
 30
0.0
 40
3.33333329344348
100
AcDbArc
 50
270.0
 51
0.0
  0
ARC
  5
22B
330
1F
100
AcDbEntity
  8
0-A
  6
Continuous
 62
     4
370
    13
100
AcDbCircle
 10
-318.5535656344587
 20
837.5865384288766
 30
0.0
 40
16.66666737854711
100
AcDbArc
 50
0.0
 51
180.0
  0
ARC
  5
22C
330
1F
100
AcDbEntity
  8
0-A
  6
Continuous
 62
     4
370
    13
100
AcDbCircle
 10
95.35961268057491
 20
-61.66158739120966
 30
0.0
 40
6.66666658688696
100
AcDbArc
 50
90.0
 51
174.9999847412109
  0
ARC
  5
22D
330
1F
100
AcDbEntity
  8
0-A
  6
Continuous
 62
     4
370
    13
100
AcDbCircle
 10
114.200486722865
 20
-61.66158739120966
 30
0.0
 40
6.66666658688696
100
AcDbArc
 50
5.000015258789066
 51
90.0
  0
ARC
  5
22E
330
1F
100
AcDbEntity
  8
0-A
  6
Continuous
 62
     4
370
    13
100
AcDbCircle
 10
-309.1334785639203
 20
-61.95951200737152
 30
0.0
 40
6.66666658688696
100
AcDbArc
 50
5.000015258789066
 51
90.0
  0
ARC
  5
22F
330
1F
100
AcDbEntity
  8
0-A
  6
Continuous
 62
     4
370
    13
100
AcDbCircle
 10
-327.9743526062101
 20
-61.95951200737152
 30
0.0
 40
6.66666658688696
100
AcDbArc
 50
90.0
 51
174.9999847412109
  0
ARC
  5
230
330
1F
100
AcDbEntity
  8
0-A
  6
JWW_PHANTOM1
 62
     4
370
    13
100
AcDbCircle
 10
-301.2720131687327
 20
130.0109090362307
 30
0.0
 40
6.66666658688696
100
AcDbArc
 50
89.88401794433597
 51
174.8840026855469
  0
ARC
  5
231
330
1F
100
AcDbEntity
  8
0-A
  6
JWW_PHANTOM1
 62
     4
370
    13
100
AcDbCircle
 10
-302.9520677044696
 20
111.2450410738906
 30
0.0
 40
6.66666658688696
100
AcDbArc
 50
174.8840026855469
 51
259.8839874267578
  0
ARC
  5
232
330
1F
100
AcDbEntity
  8
0-2_本体（蓋）
  6
Continuous
 62
     6
370
    13
100
AcDbCircle
 10
115.3311771318147
 20
-87.95407634361081
 30
0.0
 40
3.33333329344348
100
AcDbArc
 50
270.0
 51
349.6943969726562
  0
ARC
  5
233
330
1F
100
AcDbEntity
  8
0-2_本体（蓋）
  6
Continuous
 62
     6
370
    13
100
AcDbCircle
 10
77.9937804438319
 20
-81.28751729362887
 30
0.0
 40
9.999999880330442
100
AcDbArc
 50
185.0773620605469
 51
270.0
  0
ARC
  5
234
330
1F
100
AcDbEntity
  8
0-2_本体（蓋）
  6
Continuous
 62
     6
370
    13
100
AcDbCircle
 10
86.57620241309473
 20
-64.88813198127968
 30
0.0
 40
3.33333329344348
100
AcDbArc
 50
185.0764770507813
 51
267.4657440185547
  0
ARC
  5
235
330
1F
100
AcDbEntity
  8
0-2_本体（蓋）
  6
Continuous
 62
     6
370
    13
100
AcDbCircle
 10
61.79503347909389
 20
138.7124308618368
 30
0.0
 40
3.33333329344348
100
AcDbArc
 50
5.077758789062505
 51
90.00000000000001
  0
ARC
  5
236
330
1F
100
AcDbEntity
  8
0-2_本体（蓋）
  6
Continuous
 62
     6
370
    13
100
AcDbCircle
 10
-275.56895768754
 20
138.7124308618368
 30
0.0
 40
3.33333329344348
100
AcDbArc
 50
90.0
 51
174.922119140625
  0
ARC
  5
237
330
1F
100
AcDbEntity
  8
0-2_本体（蓋）
  6
JWW_PHANTOM1
 62
     6
370
    13
100
AcDbCircle
 10
-267.720732090291
 20
38.71264530968322
 30
0.0
 40
3.33333329344348
100
AcDbArc
 50
90.0
 51
174.9225616455078
  0
ARC
  5
238
330
1F
100
AcDbEntity
  8
0-4_寸法
  6
JWW_PHANTOM1
 62
     2
370
    13
100
AcDbCircle
 10
-240.0465214940223
 20
-65.88012529993318
 30
0.0
 40
1.66666664672174
100
AcDbArc
 50
296.4856872558594
 51
20.85360717773437
  0
ARC
  5
239
330
1F
100
AcDbEntity
  8
0-4_寸法
  6
JWW_PHANTOM1
 62
     2
370
    13
100
AcDbCircle
 10
-240.0465214940223
 20
-65.88012529993318
 30
0.0
 40
3.666666713920799
100
AcDbArc
 50
296.4856872558594
 51
20.85360717773437
  0
ARC
  5
23A
330
1F
100
AcDbEntity
  8
0-4_寸法
  6
JWW_PHANTOM1
 62
     2
370
    13
100
AcDbCircle
 10
26.27294723618235
 20
-65.88012529993318
 30
0.0
 40
1.66666664672174
100
AcDbArc
 50
159.1463928222656
 51
243.5143127441406
  0
ARC
  5
23B
330
1F
100
AcDbEntity
  8
0-4_寸法
  6
JWW_PHANTOM1
 62
     2
370
    13
100
AcDbCircle
 10
26.27294723618235
 20
-65.88012529993318
 30
0.0
 40
3.666666713920799
100
AcDbArc
 50
159.1463928222656
 51
243.5143127441406
  0
ARC
  5
23C
330
1F
100
AcDbEntity
  8
0-2_本体（蓋）
  6
Continuous
 62
     6
370
    13
100
AcDbCircle
 10
117.4950383807592
 20
854.2532276793365
 30
0.0
 40
3.33333329344348
100
AcDbArc
 50
270.0
 51
4.247833251953131
  0
ARC
  5
23D
330
1F
100
AcDbEntity
  8
0-2_本体（蓋）
  6
Continuous
 62
     6
370
    13
100
AcDbCircle
 10
-106.8869329416725
 20
837.5865384288766
 30
0.0
 40
228.3333365245214
100
AcDbArc
 50
4.248031616210934
 51
175.7519836425781
  0
ARC
  5
23E
330
1F
100
AcDbEntity
  8
0-2_本体（蓋）
  6
Continuous
 62
     6
370
    13
100
AcDbCircle
 10
113.8756159100183
 20
857.5865655294284
 30
0.0
 40
3.33333329344348
100
AcDbArc
 50
270.0
 51
5.176773071289063
  0
ARC
  5
23F
330
1F
100
AcDbEntity
  8
0-2_本体（蓋）
  6
Continuous
 62
     6
370
    13
100
AcDbCircle
 10
-106.8869329416725
 20
837.5865384288766
 30
0.0
 40
225.00002783698
100
AcDbArc
 50
5.17658996582032
 51
8.519622802734384
  0
ARC
  5
240
330
1F
100
AcDbEntity
  8
0-2_本体（蓋）
  6
Continuous
 62
     6
370
    13
100
AcDbCircle
 10
-106.8862330404599
 20
837.5865384288766
 30
0.0
 40
151.6666680413323
100
AcDbArc
 50
8.69096374511718
 51
21.30889892578124
  0
ARC
  5
241
330
1F
100
AcDbEntity
  8
0-2_本体（蓋）
  6
Continuous
 62
     6
370
    13
100
AcDbCircle
 10
56.61623110668785
 20
928.7638358958466
 30
0.0
 40
3.33333329344348
100
AcDbArc
 50
209.1466217041016
 51
292.4991760253906
  0
ARC
  5
242
330
1F
100
AcDbEntity
  8
0-2_本体（蓋）
  6
Continuous
 62
     6
370
    13
100
AcDbCircle
 10
39.91962107938974
 20
953.7520589385741
 30
0.0
 40
3.33333329344348
100
AcDbArc
 50
135.0007019042969
 51
218.3534088134766
  0
ARC
  5
243
330
1F
100
AcDbEntity
  8
0-2_本体（蓋）
  6
Continuous
 62
     6
370
    13
100
AcDbCircle
 10
-106.8869329416725
 20
837.5865384288766
 30
0.0
 40
183.8740804664877
100
AcDbArc
 50
29.14613342285156
 51
38.35397338867187
  0
ARC
  5
244
330
1F
100
AcDbEntity
  8
0-2_本体（蓋）
  6
Continuous
 62
     6
370
    13
100
AcDbCircle
 10
9.278354267621296
 20
984.3933257503429
 30
0.0
 40
3.33333329344348
100
AcDbArc
 50
231.6466217041016
 51
314.9991760253906
  0
ARC
  5
245
330
1F
100
AcDbEntity
  8
0-2_本体（蓋）
  6
Continuous
 62
     6
370
    13
100
AcDbCircle
 10
-15.70998542530873
 20
1001.08987745254
 30
0.0
 40
3.33333329344348
100
AcDbArc
 50
157.5007019042969
 51
240.8534088134766
  0
ARC
  5
246
330
1F
100
AcDbEntity
  8
0-2_本体（蓋）
  6
Continuous
 62
     6
370
    13
100
AcDbCircle
 10
-106.8869329416725
 20
837.5864801037754
 30
0.0
 40
183.8740804664877
100
AcDbArc
 50
51.64613342285156
 51
60.85397338867188
  0
ARC
  5
247
330
1F
100
AcDbEntity
  8
0-2_本体（蓋）
  6
Continuous
 62
     6
370
    13
100
AcDbCircle
 10
-55.74480138663802
 20
1017.672753532792
 30
0.0
 40
3.33333329344348
100
AcDbArc
 50
254.1466217041016
 51
337.4991760253907
  0
ARC
  5
248
330
1F
100
AcDbEntity
  8
0-2_本体（蓋）
  6
Continuous
 62
     6
370
    13
100
AcDbCircle
 10
-85.22032440372612
 20
1023.535825990713
 30
0.0
 40
3.33333329344348
100
AcDbArc
 50
180.0007019042969
 51
263.3534088134766
  0
ARC
  5
249
330
1F
100
AcDbEntity
  8
0-2_本体（蓋）
  6
Continuous
 62
     6
370
    13
100
AcDbCircle
 10
-106.8869329416725
 20
837.5864217786743
 30
0.0
 40
183.8740804664877
100
AcDbArc
 50
74.14613342285159
 51
83.3539733886719
  0
ARC
  5
24A
330
1F
100
AcDbEntity
  8
0-2_本体（蓋）
  6
Continuous
 62
     6
370
    13
100
AcDbCircle
 10
73.19922383714157
 20
888.7293115600223
 30
0.0
 40
3.33333329344348
100
AcDbArc
 50
112.5007019042968
 51
195.8534088134766
  0
ARC
  5
24B
330
1F
100
AcDbEntity
  8
0-2_本体（蓋）
  6
Continuous
 62
     6
370
    13
100
AcDbCircle
 10
78.64328876912168
 20
862.5883512201485
 30
0.0
 40
3.33333329344348
100
AcDbArc
 50
187.6742706298828
 51
270.0010070800781
  0
ARC
  5
24C
330
1F
100
AcDbEntity
  8
0-2_本体（蓋）
  6
Continuous
 62
     6
370
    13
100
AcDbCircle
 10
-106.8869329416725
 20
837.5868300543817
 30
0.0
 40
183.8740804664877
100
AcDbArc
 50
7.674774169921875
 51
15.85397338867188
  0
ARC
  5
24D
330
1F
100
AcDbEntity
  8
0-2_本体（蓋）
  6
Continuous
 62
     6
370
    13
100
AcDbCircle
 10
-331.2689625892051
 20
854.2532276793365
 30
0.0
 40
3.33333329344348
100
AcDbArc
 50
175.7521667480468
 51
270.0
  0
ARC
  5
24E
330
1F
100
AcDbEntity
  8
0-2_本体（蓋）
  6
Continuous
 62
     6
370
    13
100
AcDbCircle
 10
-327.6495401184641
 20
857.5865655294284
 30
0.0
 40
3.33333329344348
100
AcDbArc
 50
174.823226928711
 51
270.0000000000001
  0
ARC
  5
24F
330
1F
100
AcDbEntity
  8
0-2_本体（蓋）
  6
Continuous
 62
     6
370
    13
100
AcDbCircle
 10
-106.8869329416725
 20
837.5865384288766
 30
0.0
 40
225.00002783698
100
AcDbArc
 50
171.4803771972657
 51
174.8234100341797
  0
ARC
  5
250
330
1F
100
AcDbEntity
  8
0-2_本体（蓋）
  6
Continuous
 62
     6
370
    13
100
AcDbCircle
 10
-270.390155315134
 20
928.7638358958466
 30
0.0
 40
3.33333329344348
100
AcDbArc
 50
247.5008239746094
 51
330.8533782958985
  0
ARC
  5
251
330
1F
100
AcDbEntity
  8
0-2_本体（蓋）
  6
Continuous
 62
     6
370
    13
100
AcDbCircle
 10
-253.6935452878356
 20
953.7520589385741
 30
0.0
 40
3.33333329344348
100
AcDbArc
 50
321.6465911865234
 51
44.99929809570313
  0
ARC
  5
252
330
1F
100
AcDbEntity
  8
0-2_本体（蓋）
  6
Continuous
 62
     6
370
    13
100
AcDbCircle
 10
-106.8869329416725
 20
837.5865384288766
 30
0.0
 40
183.8740804664877
100
AcDbArc
 50
141.6460266113282
 51
150.8538665771485
  0
ARC
  5
253
330
1F
100
AcDbEntity
  8
0-2_本体（蓋）
  6
Continuous
 62
     6
370
    13
100
AcDbCircle
 10
-223.0522201509663
 20
984.3933257503429
 30
0.0
 40
3.33333329344348
100
AcDbArc
 50
225.0008239746094
 51
308.3533782958985
  0
ARC
  5
254
330
1F
100
AcDbEntity
  8
0-2_本体（蓋）
  6
Continuous
 62
     6
370
    13
100
AcDbCircle
 10
-198.0638804580369
 20
1001.08987745254
 30
0.0
 40
3.33333329344348
100
AcDbArc
 50
299.1465911865234
 51
22.49929809570313
  0
ARC
  5
255
330
1F
100
AcDbEntity
  8
0-2_本体（蓋）
  6
Continuous
 62
     6
370
    13
100
AcDbCircle
 10
-106.8869329416725
 20
837.5864801037754
 30
0.0
 40
183.8740804664877
100
AcDbArc
 50
119.1460266113281
 51
128.3538665771485
  0
ARC
  5
256
330
1F
100
AcDbEntity
  8
0-2_本体（蓋）
  6
Continuous
 62
     6
370
    13
100
AcDbCircle
 10
-158.029064496707
 20
1017.672753532792
 30
0.0
 40
3.33333329344348
100
AcDbArc
 50
202.5008239746094
 51
285.8533782958984
  0
ARC
  5
257
330
1F
100
AcDbEntity
  8
0-2_本体（蓋）
  6
Continuous
 62
     6
370
    13
100
AcDbCircle
 10
-128.5535414796189
 20
1023.535825990713
 30
0.0
 40
3.33333329344348
100
AcDbArc
 50
276.6465911865234
 51
359.9992980957031
  0
ARC
  5
258
330
1F
100
AcDbEntity
  8
0-2_本体（蓋）
  6
Continuous
 62
     6
370
    13
100
AcDbCircle
 10
-106.8869329416725
 20
837.5864217786743
 30
0.0
 40
183.8740804664877
100
AcDbArc
 50
96.64602661132812
 51
105.8538665771484
  0
ARC
  5
259
330
1F
100
AcDbEntity
  8
0-2_本体（蓋）
  6
Continuous
 62
     6
370
    13
100
AcDbCircle
 10
-286.9731480455877
 20
888.7293115600223
 30
0.0
 40
3.33333329344348
100
AcDbArc
 50
344.1465911865234
 51
67.49929809570312
  0
ARC
  5
25A
330
1F
100
AcDbEntity
  8
0-2_本体（蓋）
  6
Continuous
 62
     6
370
    13
100
AcDbCircle
 10
-292.4170963273657
 20
862.5883512201485
 30
0.0
 40
3.33333329344348
100
AcDbArc
 50
269.9989929199219
 51
352.3257293701172
  0
ARC
  5
25B
330
1F
100
AcDbEntity
  8
0-2_本体（蓋）
  6
Continuous
 62
     6
370
    13
100
AcDbCircle
 10
-106.8869329416725
 20
837.5868300543817
 30
0.0
 40
183.8740804664877
100
AcDbArc
 50
164.1460266113281
 51
172.3252258300781
  0
ARC
  5
25C
330
1F
100
AcDbEntity
  8
0-2_本体（蓋）
  6
Continuous
 62
     6
370
    13
100
AcDbCircle
 10
-106.8869329416725
 20
837.5865384288766
 30
0.0
 40
154.9999913101491
100
AcDbArc
 50
0.0
 51
7.586196899414062
  0
ARC
  5
25D
330
1F
100
AcDbEntity
  8
0-2_本体（蓋）
  6
Continuous
 62
     6
370
    13
100
AcDbCircle
 10
-106.8869329416725
 20
837.5865384288766
 30
0.0
 40
171.73229629929
100
AcDbArc
 50
0.0
 51
88.33158874511719
  0
ARC
  5
25E
330
1F
100
AcDbEntity
  8
0-2_本体（蓋）
  6
Continuous
 62
     6
370
    13
100
AcDbCircle
 10
-106.8869329416725
 20
837.5865384288766
 30
0.0
 40
190.5372858231592
100
AcDbArc
 50
169.9246063232422
 51
180.0000000000001
  0
ARC
  5
25F
330
1F
100
AcDbEntity
  8
0-2_本体（蓋）
  6
Continuous
 62
     6
370
    13
100
AcDbCircle
 10
-106.8869329416725
 20
837.5872966551901
 30
0.0
 40
151.6666680413323
100
AcDbArc
 50
98.69096374511719
 51
111.3088989257813
  0
ARC
  5
260
330
1F
100
AcDbEntity
  8
0-2_本体（蓋）
  6
Continuous
 62
     6
370
    13
100
AcDbCircle
 10
-106.8869329416725
 20
837.5865384288766
 30
0.0
 40
154.9999913101491
100
AcDbArc
 50
22.41331481933594
 51
97.58618164062501
  0
ARC
  5
261
330
1F
100
AcDbEntity
  8
0-2_本体（蓋）
  6
Continuous
 62
     6
370
    13
100
AcDbCircle
 10
-106.8869329416725
 20
837.5865384288766
 30
0.0
 40
154.9999913101491
100
AcDbArc
 50
112.4134979248047
 51
180.0
  0
ARC
  5
262
330
1F
100
AcDbEntity
  8
0-2_本体（蓋）
  6
Continuous
 62
     6
370
    13
100
AcDbCircle
 10
-316.8869258719633
 20
837.5865384288766
 30
0.0
 40
16.66666920120651
100
AcDbArc
 50
0.0
 51
90.00018310546875
  0
ARC
  5
263
330
1F
100
AcDbEntity
  8
0-2_本体（蓋）
  6
Continuous
 62
     6
370
    13
100
AcDbCircle
 10
-106.8869329416725
 20
837.5865384288766
 30
0.0
 40
190.5372858231592
100
AcDbArc
 50
0.0
 51
10.07539367675781
  0
ARC
  5
264
330
1F
100
AcDbEntity
  8
0-2_本体（蓋）
  6
Continuous
 62
     6
370
    13
100
AcDbCircle
 10
103.1130016635174
 20
837.5865384288766
 30
0.0
 40
16.66666920120651
100
AcDbArc
 50
89.99981689453126
 51
180.0
  0
ARC
  5
265
330
1F
100
AcDbEntity
  8
0-2_本体（蓋）
  6
Continuous
 62
     6
370
    13
100
AcDbCircle
 10
-106.8869329416725
 20
837.5865384288766
 30
0.0
 40
171.73229629929
100
AcDbArc
 50
91.66841125488283
 51
180.0
  0
ARC
  5
266
330
1F
100
AcDbEntity
  8
0-2_本体（蓋）
  6
Continuous
 62
     6
370
    13
100
AcDbCircle
 10
-106.8869329416725
 20
1009.31984083616
 30
0.0
 40
5.000526233069225
100
AcDbArc
 50
180.7531738281251
 51
359.1654968261719
  0
ARC
  5
267
330
1F
100
AcDbEntity
  8
0-2_本体（蓋）
  6
Continuous
 62
     6
370
    13
100
AcDbCircle
 10
-106.8869329416725
 20
1011.836977222162
 30
0.0
 40
5.000526233069225
100
AcDbArc
 50
193.4944610595703
 51
345.8015899658203
  0
ARC
  5
268
330
1F
100
AcDbEntity
  8
0-2_本体（蓋）
  6
Continuous
 62
     6
370
    13
100
AcDbCircle
 10
-106.8869329416725
 20
837.5865384288766
 30
0.0
 40
190.8334169424639
100
AcDbArc
 50
11.07768249511719
 51
84.85414123535158
  0
ARC
  5
269
330
1F
100
AcDbEntity
  8
0-2_本体（蓋）
  6
Continuous
 62
     6
370
    13
100
AcDbCircle
 10
-106.8869329416725
 20
837.5865384288766
 30
0.0
 40
190.8334169424639
100
AcDbArc
 50
95.1458740234375
 51
168.9223327636719
  0
ARC
  5
26A
330
1F
100
AcDbEntity
  8
0-4_寸法
  6
JWW_DASHED1
 62
     2
370
    13
100
AcDbCircle
 10
-138.553496704794
 20
1043.613308825459
 30
0.0
 40
9.999999880330442
100
AcDbArc
 50
98.53640747070318
 51
180.0000000000001
  0
ARC
  5
26B
330
1F
100
AcDbEntity
  8
0-4_寸法
  6
JWW_DASHED1
 62
     2
370
    13
100
AcDbCircle
 10
-75.22013587814712
 20
1043.613308825459
 30
0.0
 40
9.999999880330442
100
AcDbArc
 50
0.0
 51
81.46359252929688
  0
ARC
  5
26C
330
1F
100
AcDbEntity
  8
0-4_寸法
  6
JWW_DASHED1
 62
     2
370
    13
100
AcDbCircle
 10
-106.8869329416725
 20
832.6429028639029
 30
0.0
 40
223.3338109314672
100
AcDbArc
 50
81.46362304687501
 51
98.53637695312501
  0
ARC
  5
26D
330
1F
100
AcDbEntity
  8
0-4_寸法
  6
Continuous
 62
     2
370
    13
100
AcDbCircle
 10
-106.8869329416725
 20
837.5865384288766
 30
0.0
 40
118.6866740370349
100
AcDbArc
 50
0.0
 51
180.0
  0
ARC
  5
26E
330
1F
100
AcDbEntity
  8
0-4_寸法
  6
JWW_DASHED1
 62
     2
370
    13
100
AcDbCircle
 10
-106.8869329416725
 20
837.5865384288766
 30
0.0
 40
165.0002964859303
100
AcDbArc
 50
0.0
 51
180.0
  0
ARC
  5
26F
330
1F
100
AcDbEntity
  8
0-4_寸法
  6
JWW_DASHED1
 62
     2
370
    13
100
AcDbCircle
 10
-106.8869329416725
 20
837.5865384288766
 30
0.0
 40
163.1313415291687
100
AcDbArc
 50
0.0
 51
180.0
  0
ARC
  5
270
330
1F
100
AcDbEntity
  8
0-1_ピット
  6
JWW_DASHED1
 62
     2
370
    13
100
AcDbCircle
 10
-35.22025665234622
 20
961.7169347379227
 30
0.0
 40
39.99999952132177
100
AcDbArc
 50
285.3537902832031
 51
329.9999237060547
  0
ARC
  5
271
330
1F
100
AcDbEntity
  8
0-1_ピット
  6
JWW_DASHED1
 62
     2
370
    13
100
AcDbCircle
 10
-35.22025665234622
 20
961.7169347379227
 30
0.0
 40
43.33333008077614
100
AcDbArc
 50
287.8532104492188
 51
312.2626953125
  0
ARC
  5
272
330
1F
100
AcDbEntity
  8
0-1_ピット
  6
Continuous
 62
     2
370
    13
100
AcDbCircle
 10
-35.22025665234622
 20
961.7169347379227
 30
0.0
 40
39.99999952132177
100
AcDbArc
 50
194.646240234375
 51
285.3537902832031
  0
ARC
  5
273
330
1F
100
AcDbEntity
  8
0-1_ピット
  6
Continuous
 62
     2
370
    13
100
AcDbCircle
 10
-35.22025665234622
 20
961.7169347379227
 30
0.0
 40
43.33333008077614
100
AcDbArc
 50
192.1468048095703
 51
287.8532104492188
  0
ARC
  5
274
330
1F
100
AcDbEntity
  8
0-1_ピット
  6
JWW_DASHED1
 62
     2
370
    13
100
AcDbCircle
 10
-35.22025665234622
 20
961.7169347379227
 30
0.0
 40
43.33333008077614
100
AcDbArc
 50
167.7372894287109
 51
192.1468048095703
  0
ARC
  5
275
330
1F
100
AcDbEntity
  8
0-1_ピット
  6
JWW_DASHED1
 62
     2
370
    13
100
AcDbCircle
 10
-35.22025665234622
 20
961.7169347379227
 30
0.0
 40
39.99999952132177
100
AcDbArc
 50
140.5608520507813
 51
194.646240234375
  0
ARC
  5
276
330
1F
100
AcDbEntity
  8
0-1_ピット
  6
Continuous
 62
     2
370
    13
100
AcDbCircle
 10
-250.2204604956285
 20
837.5865384288766
 30
0.0
 40
39.99999952132177
100
AcDbArc
 50
0.0
 51
45.35356140136719
  0
ARC
  5
277
330
1F
100
AcDbEntity
  8
0-1_ピット
  6
JWW_DASHED1
 62
     2
370
    13
100
AcDbCircle
 10
-250.2204604956285
 20
837.5865384288766
 30
0.0
 40
39.99999952132177
100
AcDbArc
 50
45.35356140136719
 51
89.99992370605469
  0
ARC
  5
278
330
1F
100
AcDbEntity
  8
0-1_ピット
  6
JWW_DASHED1
 62
     2
370
    13
100
AcDbCircle
 10
-250.2204604956285
 20
837.5865384288766
 30
0.0
 40
43.33333008077614
100
AcDbArc
 50
47.85302734375001
 51
72.26269531250001
  0
ARC
  5
279
330
1F
100
AcDbEntity
  8
0-2_本体（蓋）
  6
Continuous
 62
     6
370
    13
100
AcDbCircle
 10
-329.1050430151598
 20
-87.95407634361081
 30
0.0
 40
3.33333329344348
100
AcDbArc
 50
190.3056030273438
 51
270.0
  0
ARC
  5
27A
330
1F
100
AcDbEntity
  8
0-2_本体（蓋）
  6
Continuous
 62
     6
370
    13
100
AcDbCircle
 10
-291.7676463271773
 20
-81.28751729362887
 30
0.0
 40
9.999999880330442
100
AcDbArc
 50
270.0
 51
354.9226379394531
  0
ARC
  5
27B
330
1F
100
AcDbEntity
  8
0-2_本体（蓋）
  6
Continuous
 62
     6
370
    13
100
AcDbCircle
 10
-300.35006829644
 20
-64.88813198127964
 30
0.0
 40
3.33333329344348
100
AcDbArc
 50
272.5342559814453
 51
354.9235229492188
  0
ARC
  5
27C
330
1F
100
AcDbEntity
  8
0-2_本体（蓋）
  6
JWW_PHANTOM1
 62
     6
370
    13
100
AcDbCircle
 10
53.94680788184473
 20
38.71264530968311
 30
0.0
 40
3.33333329344348
100
AcDbArc
 50
5.077438354492194
 51
90.00000000000001
  0
ARC
  5
27D
330
1F
100
AcDbEntity
  8
0-0_通り芯
  6
Continuous
 62
     3
370
    13
100
AcDbCircle
 10
-106.8867579663694
 20
837.5865384288766
 30
0.0
 40
326.6666718707581
100
AcDbArc
 50
0.0001525878906262
 51
180.0
  0
ARC
  5
27E
330
1F
100
AcDbEntity
  8
0-1_ピット
  6
Continuous
 62
     2
370
    13
100
AcDbCircle
 10
-250.2204604956285
 20
837.5865384288766
 30
0.0
 40
43.33333008077614
100
AcDbArc
 50
0.0
 51
47.85302734375001
  0
ARC
  5
27F
330
1F
100
AcDbEntity
  8
0-0_通り芯
  6
Continuous
 62
     3
370
    13
100
AcDbCircle
 10
-106.8868746165717
 20
837.5865384288766
 30
0.0
 40
104.9663428818397
100
AcDbArc
 50
359.9999999999999
 51
50.5802307128906
  0
LINE
  5
280
330
1F
100
AcDbEntity
  8
0-0_通り芯
  6
JWW_CENTER1
 62
     3
370
    13
100
AcDbLine
 10
-106.8869329416722
 20
1198.819085673387
 30
0.0
 11
-106.8869329416723
 21
824.9427679500523
 31
0.0
  0
LINE
  5
281
330
1F
100
AcDbEntity
  8
0-4_寸法
  6
Continuous
 62
     7
370
    13
100
AcDbLine
 10
-227.4425838073822
 20
186.5746246469452
 30
0.0
 11
13.66860127383489
 21
186.5746246469452
 31
0.0
  0
LINE
  5
282
330
1F
100
AcDbEntity
  8
0-4_寸法
  6
Continuous
 62
     7
370
    13
100
AcDbLine
 10
-227.4425838073822
 20
186.5746246469452
 30
0.0
 11
-202.6564622730369
 21
189.8377794524464
 31
0.0
  0
LINE
  5
283
330
1F
100
AcDbEntity
  8
0-4_寸法
  6
Continuous
 62
     7
370
    13
100
AcDbLine
 10
-227.4425838073822
 20
186.5746246469452
 30
0.0
 11
-202.6564622730369
 21
183.3114698414439
 31
0.0
  0
LINE
  5
284
330
1F
100
AcDbEntity
  8
0-4_寸法
  6
Continuous
 62
     7
370
    13
100
AcDbLine
 10
13.66860127383489
 20
186.5746246469452
 30
0.0
 11
-11.11752026051036
 21
189.8377794524464
 31
0.0
  0
LINE
  5
285
330
1F
100
AcDbEntity
  8
0-4_寸法
  6
Continuous
 62
     7
370
    13
100
AcDbLine
 10
13.66860127383489
 20
186.5746246469452
 30
0.0
 11
-11.11752026051036
 21
183.3114698414439
 31
0.0
  0
LINE
  5
286
330
1F
100
AcDbEntity
  8
0-4_寸法
  6
Continuous
 62
     7
370
    13
100
AcDbLine
 10
-227.4425838073822
 20
189.5746246469452
 30
0.0
 11
-227.4425838073822
 21
-81.52438176438714
 31
0.0
  0
LINE
  5
287
330
1F
100
AcDbEntity
  8
0-4_寸法
  6
Continuous
 62
     7
370
    13
100
AcDbLine
 10
13.66860127383489
 20
189.5746246469452
 30
0.0
 11
13.66860127383489
 21
-81.52438176438714
 31
0.0
  0
LINE
  5
288
330
1F
100
AcDbEntity
  8
0-4_寸法
  6
Continuous
 62
     7
370
    13
100
AcDbLine
 10
-261.8869388330968
 20
265.839155641445
 30
0.0
 11
48.11313127485278
 21
265.839155641445
 31
0.0
  0
LINE
  5
289
330
1F
100
AcDbEntity
  8
0-4_寸法
  6
Continuous
 62
     7
370
    13
100
AcDbLine
 10
-261.8869388330968
 20
265.839155641445
 30
0.0
 11
-237.1008172987516
 21
269.1023104469462
 31
0.0
  0
LINE
  5
28A
330
1F
100
AcDbEntity
  8
0-4_寸法
  6
Continuous
 62
     7
370
    13
100
AcDbLine
 10
-261.8869388330968
 20
265.839155641445
 30
0.0
 11
-237.1008172987516
 21
262.5760008359437
 31
0.0
  0
LINE
  5
28B
330
1F
100
AcDbEntity
  8
0-4_寸法
  6
Continuous
 62
     7
370
    13
100
AcDbLine
 10
48.11313127485278
 20
265.839155641445
 30
0.0
 11
23.32700974050752
 21
269.1023104469462
 31
0.0
  0
LINE
  5
28C
330
1F
100
AcDbEntity
  8
0-4_寸法
  6
Continuous
 62
     7
370
    13
100
AcDbLine
 10
48.11313127485278
 20
265.839155641445
 30
0.0
 11
23.32700974050752
 21
262.5760008359437
 31
0.0
  0
LINE
  5
28D
330
1F
100
AcDbEntity
  8
0-4_寸法
  6
Continuous
 62
     7
370
    13
100
AcDbLine
 10
-261.8869388330968
 20
268.839155641445
 30
0.0
 11
-261.8869388330968
 21
157.8043704474506
 31
0.0
  0
LINE
  5
28E
330
1F
100
AcDbEntity
  8
0-4_寸法
  6
Continuous
 62
     7
370
    13
100
AcDbLine
 10
48.11313127485278
 20
268.839155641445
 30
0.0
 11
48.11313127485278
 21
157.8043704474506
 31
0.0
  0
LINE
  5
28F
330
1F
100
AcDbEntity
  8
0-4_寸法
  6
Continuous
 62
     7
370
    13
100
AcDbLine
 10
-271.887244008878
 20
349.8499624906226
 30
0.0
 11
58.11355310083599
 21
349.8499624906226
 31
0.0
  0
LINE
  5
290
330
1F
100
AcDbEntity
  8
0-4_寸法
  6
Continuous
 62
     7
370
    13
100
AcDbLine
 10
-271.887244008878
 20
349.8499624906226
 30
0.0
 11
-247.1011224745328
 21
353.1131172961239
 31
0.0
  0
LINE
  5
291
330
1F
100
AcDbEntity
  8
0-4_寸法
  6
Continuous
 62
     7
370
    13
100
AcDbLine
 10
-271.887244008878
 20
349.8499624906226
 30
0.0
 11
-247.1011224745328
 21
346.5868076851214
 31
0.0
  0
LINE
  5
292
330
1F
100
AcDbEntity
  8
0-4_寸法
  6
Continuous
 62
     7
370
    13
100
AcDbLine
 10
58.11355310083599
 20
349.8499624906226
 30
0.0
 11
33.32743156649072
 21
353.1131172961239
 31
0.0
  0
LINE
  5
293
330
1F
100
AcDbEntity
  8
0-4_寸法
  6
Continuous
 62
     7
370
    13
100
AcDbLine
 10
58.11355310083599
 20
349.8499624906226
 30
0.0
 11
33.32743156649072
 21
346.5868076851214
 31
0.0
  0
LINE
  5
294
330
1F
100
AcDbEntity
  8
0-4_寸法
  6
Continuous
 62
     7
370
    13
100
AcDbLine
 10
-271.887244008878
 20
352.8499624906226
 30
0.0
 11
-271.887244008878
 21
72.07953932806717
 31
0.0
  0
LINE
  5
295
330
1F
100
AcDbEntity
  8
0-4_寸法
  6
Continuous
 62
     7
370
    13
100
AcDbLine
 10
58.11355310083599
 20
352.8499624906226
 30
0.0
 11
58.11355310083599
 21
72.07953932806717
 31
0.0
  0
LINE
  5
296
330
1F
100
AcDbEntity
  8
0-4_寸法
  6
Continuous
 62
     7
370
    13
100
AcDbLine
 10
-406.8869059141626
 20
429.0842872008326
 30
0.0
 11
193.1131737091038
 21
429.0842872008326
 31
0.0
  0
LINE
  5
297
330
1F
100
AcDbEntity
  8
0-4_寸法
  6
Continuous
 62
     7
370
    13
100
AcDbLine
 10
-406.8869059141626
 20
429.0842872008326
 30
0.0
 11
-382.1007843798174
 21
432.3474420063338
 31
0.0
  0
LINE
  5
298
330
1F
100
AcDbEntity
  8
0-4_寸法
  6
Continuous
 62
     7
370
    13
100
AcDbLine
 10
-406.8869059141626
 20
429.0842872008326
 30
0.0
 11
-382.1007843798174
 21
425.8211323953313
 31
0.0
  0
LINE
  5
299
330
1F
100
AcDbEntity
  8
0-4_寸法
  6
Continuous
 62
     7
370
    13
100
AcDbLine
 10
193.1131737091038
 20
429.0842872008326
 30
0.0
 11
168.3270521747585
 21
432.3474420063338
 31
0.0
  0
LINE
  5
29A
330
1F
100
AcDbEntity
  8
0-4_寸法
  6
Continuous
 62
     7
370
    13
100
AcDbLine
 10
193.1131737091038
 20
429.0842872008326
 30
0.0
 11
168.3270521747585
 21
425.8211323953313
 31
0.0
  0
LINE
  5
29B
330
1F
100
AcDbEntity
  8
0-4_寸法
  6
Continuous
 62
     7
370
    13
100
AcDbLine
 10
-406.8869059141626
 20
432.0842872008325
 30
0.0
 11
-406.8869059141626
 21
-69.41430057975325
 31
0.0
  0
LINE
  5
29C
330
1F
100
AcDbEntity
  8
0-4_寸法
  6
Continuous
 62
     7
370
    13
100
AcDbLine
 10
193.1131737091038
 20
432.0842872008325
 30
0.0
 11
193.1131737091038
 21
-69.41430057975325
 31
0.0
  0
LINE
  5
29D
330
1F
100
AcDbEntity
  8
0-4_寸法
  6
Continuous
 62
     7
370
    13
100
AcDbLine
 10
-440.2200763747612
 20
503.5258814703676
 30
0.0
 11
226.446677092224
 21
503.5258814703676
 31
0.0
  0
LINE
  5
29E
330
1F
100
AcDbEntity
  8
0-4_寸法
  6
Continuous
 62
     7
370
    13
100
AcDbLine
 10
226.446677092224
 20
503.5258814703676
 30
0.0
 11
201.6605555578788
 21
506.7890362758689
 31
0.0
  0
LINE
  5
29F
330
1F
100
AcDbEntity
  8
0-4_寸法
  6
Continuous
 62
     7
370
    13
100
AcDbLine
 10
226.446677092224
 20
503.5258814703676
 30
0.0
 11
201.6605555578788
 21
500.2627266648662
 31
0.0
  0
LINE
  5
2A0
330
1F
100
AcDbEntity
  8
0-4_寸法
  6
Continuous
 62
     7
370
    13
100
AcDbLine
 10
-440.2200763747612
 20
506.5258814703675
 30
0.0
 11
-440.2200763747612
 21
-69.12442396313367
 31
0.0
  0
LINE
  5
2A1
330
1F
100
AcDbEntity
  8
0-4_寸法
  6
Continuous
 62
     7
370
    13
100
AcDbLine
 10
226.446677092224
 20
506.5258814703675
 30
0.0
 11
226.446677092224
 21
-69.12442396313367
 31
0.0
  0
ARC
  5
2A2
330
1F
100
AcDbEntity
  8
0-0_通り芯
  6
Continuous
 62
     3
370
    13
100
AcDbCircle
 10
30.75756425589447
 20
-177.4756408419818
 30
0.0
 40
9.999999880330442
100
AcDbArc
 50
90.0
 51
175.3227350756623
  0
LINE
  5
2A3
330
1F
100
AcDbEntity
  8
0-4_寸法
  6
Continuous
 62
     7
370
    13
100
AcDbLine
 10
-235.2200664726911
 20
-527.6561458518152
 30
0.0
 11
21.4469336445662
 21
-527.6561458518152
 31
0.0
  0
LINE
  5
2A4
330
1F
100
AcDbEntity
  8
0-4_寸法
  6
Continuous
 62
     7
370
    13
100
AcDbLine
 10
-235.2200664726911
 20
-527.6561458518152
 30
0.0
 11
-210.4339449383459
 21
-524.3929910463139
 31
0.0
  0
LINE
  5
2A5
330
1F
100
AcDbEntity
  8
0-4_寸法
  6
Continuous
 62
     7
370
    13
100
AcDbLine
 10
-235.2200664726911
 20
-527.6561458518152
 30
0.0
 11
-210.4339449383459
 21
-530.9193006573164
 31
0.0
  0
LINE
  5
2A6
330
1F
100
AcDbEntity
  8
0-4_寸法
  6
Continuous
 62
     7
370
    13
100
AcDbLine
 10
21.4469336445662
 20
-527.6561458518152
 30
0.0
 11
-3.339187889779063
 21
-524.3929910463139
 31
0.0
  0
LINE
  5
2A7
330
1F
100
AcDbEntity
  8
0-4_寸法
  6
Continuous
 62
     7
370
    13
100
AcDbLine
 10
21.4469336445662
 20
-527.6561458518152
 30
0.0
 11
-3.339187889779063
 21
-530.9193006573164
 31
0.0
  0
LINE
  5
2A8
330
1F
100
AcDbEntity
  8
0-4_寸法
  6
Continuous
 62
     7
370
    13
100
AcDbLine
 10
-235.2200664726911
 20
-530.6561458518152
 30
0.0
 11
-235.2200664726911
 21
-227.3941023826536
 31
0.0
  0
LINE
  5
2A9
330
1F
100
AcDbEntity
  8
0-4_寸法
  6
Continuous
 62
     7
370
    13
100
AcDbLine
 10
21.4469336445662
 20
-530.6561458518152
 30
0.0
 11
21.4469336445662
 21
-227.3941023826536
 31
0.0
  0
LINE
  5
2AA
330
1F
100
AcDbEntity
  8
0-0_通り芯
  6
Continuous
 62
     3
370
    13
100
AcDbLine
 10
-297.4873556867182
 20
-167.4755689666049
 30
0.0
 11
-244.5313134890378
 21
-167.4755689666049
 31
0.0
  0
LINE
  5
2AB
330
1F
100
AcDbEntity
  8
0-0_通り芯
  6
Continuous
 62
     3
370
    13
100
AcDbLine
 10
-234.5566757285651
 20
-176.7631968648683
 30
0.0
 11
-225.2202224820851
 21
-307.4757586704687
 31
0.0
  0
ARC
  5
2AC
330
1F
100
AcDbEntity
  8
0-0_通り芯
  6
Continuous
 62
     3
370
    13
100
AcDbCircle
 10
-244.5313134890378
 20
-177.4755688469353
 30
0.0
 40
9.999999880330442
100
AcDbArc
 50
4.085464477539068
 51
90.00000000000001
  0
LINE
  5
2AD
330
1F
100
AcDbEntity
  8
0-0_通り芯
  6
Continuous
 62
     3
370
    13
100
AcDbLine
 10
20.79086615802488
 20
-176.6602105061887
 30
0.0
 11
11.44658989914404
 21
-307.4757586704687
 31
0.0
  0
LINE
  5
2AE
330
1F
100
AcDbEntity
  8
0-0_通り芯
  6
Continuous
 62
     3
370
    13
100
AcDbLine
 10
30.75756425589447
 20
-167.4755689666049
 30
0.0
 11
82.5838492462421
 21
-167.4755689666049
 31
0.0
  0
LINE
  5
2AF
330
1F
100
AcDbEntity
  8
0-4_寸法
  6
Continuous
 62
     7
370
    13
100
AcDbLine
 10
518.5613943808532
 20
-84.14224392115563
 30
0.0
 11
518.5613943808532
 21
142.0457641552802
 31
0.0
  0
LINE
  5
2B0
330
1F
100
AcDbEntity
  8
0-4_寸法
  6
Continuous
 62
     7
370
    13
100
AcDbLine
 10
518.5613943808532
 20
-84.14224392115563
 30
0.0
 11
515.298239575352
 21
-59.35612238681037
 31
0.0
  0
LINE
  5
2B1
330
1F
100
AcDbEntity
  8
0-4_寸法
  6
Continuous
 62
     7
370
    13
100
AcDbLine
 10
518.5613943808532
 20
-84.14224392115563
 30
0.0
 11
521.8245491863546
 21
-59.35612238681037
 31
0.0
  0
LINE
  5
2B2
330
1F
100
AcDbEntity
  8
0-4_寸法
  6
Continuous
 62
     7
370
    13
100
AcDbLine
 10
518.5613943808532
 20
142.0457641552802
 30
0.0
 11
515.298239575352
 21
117.259642620935
 31
0.0
  0
LINE
  5
2B3
330
1F
100
AcDbEntity
  8
0-4_寸法
  6
Continuous
 62
     7
370
    13
100
AcDbLine
 10
518.5613943808532
 20
142.0457641552802
 30
0.0
 11
521.8245491863546
 21
117.259642620935
 31
0.0
  0
LINE
  5
2B4
330
1F
100
AcDbEntity
  8
0-4_寸法
  6
Continuous
 62
     7
370
    13
100
AcDbLine
 10
-530.7801950487623
 20
-91.28758916900586
 30
0.0
 11
-530.7801950487623
 21
142.0458270370301
 31
0.0
  0
LINE
  5
2B5
330
1F
100
AcDbEntity
  8
0-4_寸法
  6
Continuous
 62
     7
370
    13
100
AcDbLine
 10
-530.7801950487623
 20
-91.28758916900586
 30
0.0
 11
-534.0433498542635
 21
-66.5014676346606
 31
0.0
  0
LINE
  5
2B6
330
1F
100
AcDbEntity
  8
0-4_寸法
  6
Continuous
 62
     7
370
    13
100
AcDbLine
 10
-530.7801950487623
 20
-91.28758916900586
 30
0.0
 11
-527.5170402432609
 21
-66.5014676346606
 31
0.0
  0
LINE
  5
2B7
330
1F
100
AcDbEntity
  8
0-4_寸法
  6
Continuous
 62
     7
370
    13
100
AcDbLine
 10
-530.7801950487623
 20
142.0458270370301
 30
0.0
 11
-534.0433498542635
 21
117.2597055026848
 31
0.0
  0
LINE
  5
2B8
330
1F
100
AcDbEntity
  8
0-4_寸法
  6
Continuous
 62
     7
370
    13
100
AcDbLine
 10
-530.7801950487623
 20
142.0458270370301
 30
0.0
 11
-527.5170402432609
 21
117.2597055026848
 31
0.0
  0
LINE
  5
2B9
330
1F
100
AcDbEntity
  8
0-4_寸法
  6
Continuous
 62
     7
370
    13
100
AcDbLine
 10
-533.7801950487622
 20
-91.28758916900586
 30
0.0
 11
-354.1110277569393
 21
-91.28758916900587
 31
0.0
  0
TEXT
  5
2BA
330
1F
100
AcDbEntity
  8
0-4_寸法
  6
Continuous
 62
     2
370
   211
100
AcDbText
 10
-542.4201950487623
 20
4.129118934012102
 30
0.0
 40
30.48
  1
70
 50
90.0
 41
1.0625
  7
ＭＳ ゴシック
100
AcDbText
  0
LINE
  5
2BB
330
1F
100
AcDbEntity
  8
0-4_寸法
  6
Continuous
 62
     7
370
    13
100
AcDbLine
 10
-533.7801950487622
 20
142.0458270370301
 30
0.0
 11
-291.889029284971
 21
142.04582703703
 31
0.0
  0
TEXT
  5
2BC
330
1F
100
AcDbEntity
  8
0-4_寸法
  6
Continuous
 62
     2
370
   211
100
AcDbText
 10
-150.6369912667736
 20
198.2146246469451
 30
0.0
 40
30.48
  1
φ72
 41
1.09375
  7
ＭＳ ゴシック
100
AcDbText
  0
TEXT
  5
2BD
330
1F
100
AcDbEntity
  8
0-4_寸法
  6
Continuous
 62
     2
370
   211
100
AcDbText
 10
-150.636903779122
 20
277.4791556414449
 30
0.0
 40
30.48
  1
φ93
 41
1.09375
  7
ＭＳ ゴシック
100
AcDbText
  0
TEXT
  5
2BE
330
1F
100
AcDbEntity
  8
0-4_寸法
  6
Continuous
 62
     2
370
   211
100
AcDbText
 10
-150.6368454540211
 20
361.4899624906226
 30
0.0
 40
30.48
  1
φ98
 41
1.09375
  7
ＭＳ ゴシック
100
AcDbText
  0
TEXT
  5
2BF
330
1F
100
AcDbEntity
  8
0-4_寸法
  6
Continuous
 62
     2
370
   211
100
AcDbText
 10
-161.8868661025294
 20
440.7242872008326
 30
0.0
 40
30.48
  1
φ180
 41
1.1
  7
ＭＳ ゴシック
100
AcDbText
  0
TEXT
  5
2C0
330
1F
100
AcDbEntity
  8
0-4_寸法
  6
Continuous
 62
     2
370
   211
100
AcDbText
 10
-161.8866996412686
 20
515.1658814703676
 30
0.0
 40
30.48
  1
φ200
 41
1.1
  7
ＭＳ ゴシック
100
AcDbText
  0
TEXT
  5
2C1
330
1F
100
AcDbEntity
  8
0-4_寸法
  6
Continuous
 62
     2
370
   211
100
AcDbText
 10
-150.6365664140625
 20
-516.0161458518152
 30
0.0
 40
30.48
  1
φ77
 41
1.09375
  7
ＭＳ ゴシック
100
AcDbText
  0
TEXT
  5
2C2
330
1F
100
AcDbEntity
  8
0-4_寸法
  6
Continuous
 62
     2
370
   211
100
AcDbText
 10
506.9213943808535
 20
7.701760117062406
 30
0.0
 40
30.48
  1
68
 50
90.0
 41
1.0625
  7
ＭＳ ゴシック
100
AcDbText
  0
LINE
  5
2C3
330
1F
100
AcDbEntity
  8
0-4_寸法
  6
Continuous
 62
     7
370
    13
100
AcDbLine
 10
353.8529433625688
 20
-167.4756318483544
 30
0.0
 11
353.8529433625688
 21
-84.1422439211556
 31
0.0
  0
LINE
  5
2C4
330
1F
100
AcDbEntity
  8
0-4_寸法
  6
Continuous
 62
     7
370
    13
100
AcDbLine
 10
353.8529433625688
 20
-167.4756318483544
 30
0.0
 11
350.5897885570675
 21
-142.6895103140092
 31
0.0
  0
LINE
  5
2C5
330
1F
100
AcDbEntity
  8
0-4_寸法
  6
Continuous
 62
     7
370
    13
100
AcDbLine
 10
353.8529433625688
 20
-167.4756318483544
 30
0.0
 11
357.11609816807
 21
-142.6895103140092
 31
0.0
  0
LINE
  5
2C6
330
1F
100
AcDbEntity
  8
0-4_寸法
  6
Continuous
 62
     7
370
    13
100
AcDbLine
 10
353.8529433625688
 20
-84.1422439211556
 30
0.0
 11
350.5897885570675
 21
-108.9283654555009
 31
0.0
  0
LINE
  5
2C7
330
1F
100
AcDbEntity
  8
0-4_寸法
  6
Continuous
 62
     7
370
    13
100
AcDbLine
 10
353.8529433625688
 20
-84.1422439211556
 30
0.0
 11
357.11609816807
 21
-108.9283654555009
 31
0.0
  0
LINE
  5
2C8
330
1F
100
AcDbEntity
  8
0-4_寸法
  6
Continuous
 62
     7
370
    13
100
AcDbLine
 10
356.8529433625687
 20
-167.4756318483544
 30
0.0
 11
235.5749219562955
 21
-167.4756318483544
 31
0.0
  0
LINE
  5
2C9
330
1F
100
AcDbEntity
  8
0-4_寸法
  6
Continuous
 62
     7
370
    13
100
AcDbLine
 10
356.8529433625687
 20
-84.1422439211556
 30
0.0
 11
235.5749219562955
 21
-84.1422439211556
 31
0.0
  0
TEXT
  5
2CA
330
1F
100
AcDbEntity
  8
0-4_寸法
  6
Continuous
 62
     2
370
   211
100
AcDbText
 10
342.2129433625688
 20
-147.058937884755
 30
0.0
 40
30.48
  1
25
 50
90.0
 41
1.0625
  7
ＭＳ ゴシック
100
AcDbText
  0
LINE
  5
2CB
330
1F
100
AcDbEntity
  8
0-5_文字
  6
Continuous
 62
     7
370
    13
100
AcDbLine
 10
-308.7520996160998
 20
121.2226509324768
 30
0.0
 11
-459.9817105747147
 21
383.1600552557453
 31
0.0
  0
LINE
  5
2CC
330
1F
100
AcDbEntity
  8
0-5_文字
  6
Continuous
 62
     7
370
    13
100
AcDbLine
 10
-308.7520996160998
 20
121.2226509324768
 30
0.0
 11
-318.8981221034305
 21
134.4451752145714
 31
0.0
  0
LINE
  5
2CD
330
1F
100
AcDbEntity
  8
0-5_文字
  6
Continuous
 62
     7
370
    13
100
AcDbLine
 10
-308.7520996160998
 20
121.2226509324768
 30
0.0
 11
-315.1301909642837
 21
136.6206661351796
 31
0.0
  0
LINE
  5
2CE
330
1F
100
AcDbEntity
  8
0-5_文字
  6
Continuous
 62
     7
370
    13
100
AcDbLine
 10
-436.8866801995679
 20
-114.1422800153348
 30
0.0
 11
-523.4891334829294
 21
-264.1421150554531
 31
0.0
  0
LINE
  5
2CF
330
1F
100
AcDbEntity
  8
0-5_文字
  6
Continuous
 62
     7
370
    13
100
AcDbLine
 10
-436.8866801995679
 20
-114.1422800153348
 30
0.0
 11
-443.2647715477518
 21
-129.5402952180376
 31
0.0
  0
LINE
  5
2D0
330
1F
100
AcDbEntity
  8
0-5_文字
  6
Continuous
 62
     7
370
    13
100
AcDbLine
 10
-436.8866801995679
 20
-114.1422800153348
 30
0.0
 11
-447.0327026868986
 21
-127.3648042974294
 31
0.0
  0
LINE
  5
2D1
330
1F
100
AcDbEntity
  8
0-4_寸法
  6
Continuous
 62
     7
370
    13
100
AcDbLine
 10
-441.137827168127
 20
503.5258814703676
 30
0.0
 11
-416.3517056337818
 21
506.7890362758689
 31
0.0
  0
LINE
  5
2D2
330
1F
100
AcDbEntity
  8
0-4_寸法
  6
Continuous
 62
     7
370
    13
100
AcDbLine
 10
-441.137827168127
 20
503.5258814703676
 30
0.0
 11
-416.3517056337818
 21
500.2627266648662
 31
0.0
  0
LINE
  5
2D3
330
1F
100
AcDbEntity
  8
0-5_文字
  6
Continuous
 62
     7
370
    13
100
AcDbLine
 10
138.1130782520336
 20
-71.28779536885813
 30
0.0
 11
270.396268400282
 21
256.1245894950396
 31
0.0
  0
LINE
  5
2D4
330
1F
100
AcDbEntity
  8
0-5_文字
  6
Continuous
 62
     7
370
    13
100
AcDbLine
 10
138.1130782520336
 20
-71.28779536885813
 30
0.0
 11
144.3725783533946
 21
-47.08410435940542
 31
0.0
  0
LINE
  5
2D5
330
1F
100
AcDbEntity
  8
0-5_文字
  6
Continuous
 62
     7
370
    13
100
AcDbLine
 10
138.1130782520336
 20
-71.28779536885813
 30
0.0
 11
150.4236672546202
 21
-49.52890297036063
 31
0.0
  0
LINE
  5
2D6
330
1F
100
AcDbEntity
  8
0-5_文字
  6
Continuous
 62
     7
370
    13
100
AcDbLine
 10
104.7798164013156
 20
-54.99491169102566
 30
0.0
 11
263.6225817101558
 21
338.1547284851747
 31
0.0
  0
LINE
  5
2D7
330
1F
100
AcDbEntity
  8
0-5_文字
  6
Continuous
 62
     7
370
    13
100
AcDbLine
 10
104.7798164013156
 20
-54.99491169102566
 30
0.0
 11
111.0393165026766
 21
-30.79122068157296
 31
0.0
  0
LINE
  5
2D8
330
1F
100
AcDbEntity
  8
0-5_文字
  6
Continuous
 62
     7
370
    13
100
AcDbLine
 10
104.7798164013156
 20
-54.99491169102566
 30
0.0
 11
117.0904054039023
 21
-33.23601929252816
 31
0.0
  0
LINE
  5
2D9
330
1F
100
AcDbEntity
  8
0-5_文字
  6
Continuous
 62
     7
370
    13
100
AcDbLine
 10
48.11313127485278
 20
142.04582703703
 30
0.0
 11
54.3726313762138
 21
166.2495180464826
 31
0.0
  0
LINE
  5
2DA
330
1F
100
AcDbEntity
  8
0-5_文字
  6
Continuous
 62
     7
370
    13
100
AcDbLine
 10
48.11313127485278
 20
142.04582703703
 30
0.0
 11
60.42372027743945
 21
163.8047194355275
 31
0.0
  0
LINE
  5
2DB
330
1F
100
AcDbEntity
  8
0-5_文字
  6
Continuous
 62
     7
370
    13
100
AcDbLine
 10
56.24435026239468
 20
28.71245678410393
 30
0.0
 11
249.4060129596916
 21
506.8043487102165
 31
0.0
  0
LINE
  5
2DC
330
1F
100
AcDbEntity
  8
0-5_文字
  6
Continuous
 62
     7
370
    13
100
AcDbLine
 10
56.24435026239468
 20
28.71245678410393
 30
0.0
 11
62.5038503637557
 21
52.91614779355663
 31
0.0
  0
LINE
  5
2DD
330
1F
100
AcDbEntity
  8
0-5_文字
  6
Continuous
 62
     7
370
    13
100
AcDbLine
 10
56.24435026239468
 20
28.71245678410393
 30
0.0
 11
68.55493926498136
 21
50.47134918260142
 31
0.0
  0
LINE
  5
2DE
330
1F
100
AcDbEntity
  8
0-0_通り芯
  6
Continuous
 62
     4
370
    13
100
AcDbLine
 10
130.8580737227064
 20
-153.8751486959573
 30
0.0
 11
108.701322244666
 21
-153.8751486959573
 31
0.0
  0
LINE
  5
2DF
330
1F
100
AcDbEntity
  8
0-0_通り芯
  6
Continuous
 62
     4
370
    13
100
AcDbLine
 10
133.1131165462918
 20
-156.1300677996313
 30
0.0
 11
106.4464031409918
 21
-156.1300677996313
 31
0.0
  0
LINE
  5
2E0
330
1F
100
AcDbEntity
  8
0-0_通り芯
  6
Continuous
 62
     4
370
    13
100
AcDbLine
 10
108.701322244666
 20
-153.8751486959573
 30
0.0
 11
106.4464031409918
 21
-156.1300677996313
 31
0.0
  0
LINE
  5
2E1
330
1F
100
AcDbEntity
  8
0-0_通り芯
  6
Continuous
 62
     4
370
    13
100
AcDbLine
 10
130.8580737227064
 20
-153.8751486959573
 30
0.0
 11
133.1131165462918
 21
-156.1300677996313
 31
0.0
  0
LINE
  5
2E2
330
1F
100
AcDbEntity
  8
0-5_文字
  6
Continuous
 62
     2
370
    13
100
AcDbLine
 10
224.0598707956582
 20
-363.4210471334573
 30
0.0
 11
226.4463041650629
 21
-353.875313655839
 31
0.0
  0
LINE
  5
2E3
330
1F
100
AcDbEntity
  8
0-5_文字
  6
Continuous
 62
     2
370
    13
100
AcDbLine
 10
174.0939762512116
 20
-367.2083610587106
 30
0.0
 11
219.2091842326303
 21
-367.2083610587106
 31
0.0
  0
LINE
  5
2E4
330
1F
100
AcDbEntity
  8
0-5_文字
  6
Continuous
 62
     2
370
    13
100
AcDbLine
 10
167.8035610801811
 20
-376.7545894159741
 30
0.0
 11
169.2432896881837
 21
-370.9959224237866
 31
0.0
  0
LINE
  5
2E5
330
1F
100
AcDbEntity
  8
0-5_文字
  6
Continuous
 62
     2
370
    13
100
AcDbLine
 10
163.6836880333061
 20
-353.875313655839
 30
0.0
 11
226.4463041650629
 21
-353.875313655839
 31
0.0
  0
LINE
  5
2E6
330
1F
100
AcDbEntity
  8
0-5_文字
  6
Continuous
 62
     2
370
    13
100
AcDbLine
 10
157.3932728622756
 20
-363.4210471334573
 30
0.0
 11
158.8328777503671
 21
-357.6623801412698
 31
0.0
  0
LINE
  5
2E7
330
1F
100
AcDbEntity
  8
0-5_文字
  6
Continuous
 62
     2
370
    13
100
AcDbLine
 10
-280.9398157805663
 20
-376.7545894159741
 30
0.0
 11
-278.553506131073
 21
-367.2083610587106
 31
0.0
  0
LINE
  5
2E8
330
1F
100
AcDbEntity
  8
0-5_文字
  6
Continuous
 62
     2
370
    13
100
AcDbLine
 10
-437.8339841188262
 20
-363.4210471334573
 30
0.0
 11
-440.2202937683194
 21
-353.8750662160164
 31
0.0
  0
LINE
  5
2E9
330
1F
100
AcDbEntity
  8
0-5_文字
  6
Continuous
 62
     2
370
    13
100
AcDbLine
 10
-387.8679658544684
 20
-367.2083610587106
 30
0.0
 11
-432.9831738358871
 21
-367.2083610587106
 31
0.0
  0
LINE
  5
2EA
330
1F
100
AcDbEntity
  8
0-5_文字
  6
Continuous
 62
     2
370
    13
100
AcDbLine
 10
-381.5775506834376
 20
-376.7545894159741
 30
0.0
 11
-383.0171555715293
 21
-370.9959224237866
 31
0.0
  0
LINE
  5
2EB
330
1F
100
AcDbEntity
  8
0-5_文字
  6
Continuous
 62
     2
370
    13
100
AcDbLine
 10
-372.6068673536236
 20
-357.6623801412698
 30
0.0
 11
-371.1672624655324
 21
-363.4210471334573
 31
0.0
  0
LINE
  5
2EC
330
1F
100
AcDbEntity
  8
0-5_文字
  6
Continuous
 62
     2
370
    13
100
AcDbLine
 10
-377.4576776365626
 20
-353.8750662160164
 30
0.0
 11
-440.2202937683194
 21
-353.8750662160164
 31
0.0
  0
LINE
  5
2ED
330
1F
100
AcDbEntity
  8
0-5_文字
  6
Continuous
 62
     2
370
    13
100
AcDbLine
 10
140.2296095651894
 20
-370.4527920131025
 30
0.0
 11
136.4463783970098
 21
-380.5416559014049
 31
0.0
  0
LINE
  5
2EE
330
1F
100
AcDbEntity
  8
0-5_文字
  6
Continuous
 62
     2
370
    13
100
AcDbLine
 10
99.32966268227148
 20
-370.4527920131025
 30
0.0
 11
103.1130175703626
 21
-380.5416559014049
 31
0.0
  0
LINE
  5
2EF
330
1F
100
AcDbEntity
  8
0-5_文字
  6
Continuous
 62
     2
370
    13
100
AcDbLine
 10
67.16619733704334
 20
-376.7545894159741
 30
0.0
 11
64.77976396763893
 21
-367.2083610587106
 31
0.0
  0
LINE
  5
2F0
330
1F
100
AcDbEntity
  8
0-0_通り芯
  6
Continuous
 62
     4
370
    13
100
AcDbLine
 10
108.701322244666
 20
-420.5417878693103
 30
0.0
 11
106.4464031409918
 21
-418.2868687656363
 31
0.0
  0
LINE
  5
2F1
330
1F
100
AcDbEntity
  8
0-0_通り芯
  6
Continuous
 62
     4
370
    13
100
AcDbLine
 10
130.8580737227064
 20
-420.5417878693103
 30
0.0
 11
133.1131165462918
 21
-418.2868687656363
 31
0.0
  0
LINE
  5
2F2
330
1F
100
AcDbEntity
  8
0-5_文字
  6
Continuous
 62
     2
370
    13
100
AcDbLine
 10
152.5424625793366
 20
-367.2083610587106
 30
0.0
 11
133.1131165462918
 21
-367.2083610587106
 31
0.0
  0
LINE
  5
2F3
330
1F
100
AcDbEntity
  8
0-0_通り芯
  6
Continuous
 62
     4
370
    13
100
AcDbLine
 10
94.77973922365663
 20
-399.802866574969
 30
0.0
 11
94.77973922365663
 21
-380.5416559014049
 31
0.0
  0
LINE
  5
2F4
330
1F
100
AcDbEntity
  8
0-0_通り芯
  6
Continuous
 62
     4
370
    13
100
AcDbLine
 10
144.7797804636269
 20
-399.802866574969
 30
0.0
 11
144.7797804636269
 21
-380.5416559014049
 31
0.0
  0
LINE
  5
2F5
330
1F
100
AcDbEntity
  8
0-0_通り芯
  6
Continuous
 62
     4
370
    13
100
AcDbLine
 10
107.2889357370644
 20
-399.802866574969
 30
0.0
 11
107.2889357370644
 21
-380.5416559014049
 31
0.0
  0
LINE
  5
2F6
330
1F
100
AcDbEntity
  8
0-0_通り芯
  6
Continuous
 62
     4
370
    13
100
AcDbLine
 10
132.2705839502191
 20
-399.802866574969
 30
0.0
 11
132.2705839502191
 21
-380.5416559014049
 31
0.0
  0
LINE
  5
2F7
330
1F
100
AcDbEntity
  8
0-0_通り芯
  6
Continuous
 62
     4
370
    13
100
AcDbLine
 10
101.0345230602275
 20
-402.2084765306278
 30
0.0
 11
138.52536778679
 21
-402.2084765306278
 31
0.0
  0
LINE
  5
2F8
330
1F
100
AcDbEntity
  8
0-0_通り芯
  6
Continuous
 62
     4
370
    13
100
AcDbLine
 10
106.4464031409918
 20
-418.2868687656363
 30
0.0
 11
106.4464031409918
 21
-402.2084765306278
 31
0.0
  0
LINE
  5
2F9
330
1F
100
AcDbEntity
  8
0-0_通り芯
  6
Continuous
 62
     4
370
    13
100
AcDbLine
 10
108.701322244666
 20
-402.2084765306278
 30
0.0
 11
108.701322244666
 21
-420.5417878693103
 31
0.0
  0
LINE
  5
2FA
330
1F
100
AcDbEntity
  8
0-0_通り芯
  6
Continuous
 62
     4
370
    13
100
AcDbLine
 10
130.8580737227064
 20
-420.5417878693103
 30
0.0
 11
130.8580737227064
 21
-402.2084765306278
 31
0.0
  0
LINE
  5
2FB
330
1F
100
AcDbEntity
  8
0-0_通り芯
  6
Continuous
 62
     4
370
    13
100
AcDbLine
 10
133.1131165462918
 20
-402.2084765306278
 30
0.0
 11
133.1131165462918
 21
-418.2868687656363
 31
0.0
  0
LINE
  5
2FC
330
1F
100
AcDbEntity
  8
0-0_通り芯
  6
Continuous
 62
     4
370
    13
100
AcDbLine
 10
117.7796418973264
 20
-413.8750167280518
 30
0.0
 11
117.7796418973264
 21
-420.5417878693103
 31
0.0
  0
LINE
  5
2FD
330
1F
100
AcDbEntity
  8
0-0_通り芯
  6
Continuous
 62
     4
370
    13
100
AcDbLine
 10
117.7796418973264
 20
-413.8750167280518
 30
0.0
 11
121.7796303501348
 21
-413.8750167280518
 31
0.0
  0
LINE
  5
2FE
330
1F
100
AcDbEntity
  8
0-0_通り芯
  6
Continuous
 62
     4
370
    13
100
AcDbLine
 10
121.7796303501348
 20
-413.8750167280518
 30
0.0
 11
121.7796303501348
 21
-420.5417878693103
 31
0.0
  0
LINE
  5
2FF
330
1F
100
AcDbEntity
  8
0-0_通り芯
  6
Continuous
 62
     4
370
    13
100
AcDbLine
 10
133.1131165462918
 20
-418.2868687656363
 30
0.0
 11
121.7796303501348
 21
-418.2868687656363
 31
0.0
  0
LINE
  5
300
330
1F
100
AcDbEntity
  8
0-0_通り芯
  6
Continuous
 62
     4
370
    13
100
AcDbLine
 10
117.7796418973264
 20
-418.2868687656363
 30
0.0
 11
106.4464031409918
 21
-418.2868687656363
 31
0.0
  0
LINE
  5
301
330
1F
100
AcDbEntity
  8
0-0_通り芯
  6
Continuous
 62
     4
370
    13
100
AcDbLine
 10
130.8580737227064
 20
-420.5417878693103
 30
0.0
 11
121.7796303501348
 21
-420.5417878693103
 31
0.0
  0
LINE
  5
302
330
1F
100
AcDbEntity
  8
0-0_通り芯
  6
Continuous
 62
     4
370
    13
100
AcDbLine
 10
117.7796418973264
 20
-420.5417878693103
 30
0.0
 11
108.701322244666
 21
-420.5417878693103
 31
0.0
  0
LINE
  5
303
330
1F
100
AcDbEntity
  8
0-5_文字
  6
Continuous
 62
     2
370
    13
100
AcDbLine
 10
-366.3164521825934
 20
-367.2083610587106
 30
0.0
 11
106.4464031409918
 21
-367.2083610587106
 31
0.0
  0
LINE
  5
304
330
1F
100
AcDbEntity
  8
0-5_文字
  6
Continuous
 62
     2
370
    13
100
AcDbLine
 10
-376.7267404004986
 20
-380.5416559014049
 30
0.0
 11
162.9528745171532
 21
-380.5416559014049
 31
0.0
  0
LINE
  5
305
330
1F
100
AcDbEntity
  8
0-0_通り芯
  6
Continuous
 62
     7
370
    13
100
AcDbLine
 10
143.1130258183569
 20
-274.553282273871
 30
0.0
 11
96.44637014901548
 21
-266.3245472522283
 31
0.0
  0
LINE
  5
306
330
1F
100
AcDbEntity
  8
0-0_通り芯
  6
Continuous
 62
     7
370
    13
100
AcDbLine
 10
143.1130258183569
 20
-288.0921996091751
 30
0.0
 11
96.44637014901548
 21
-279.8635883074437
 31
0.0
  0
LINE
  5
307
330
1F
100
AcDbEntity
  8
0-0_通り芯
  6
Continuous
 62
     4
370
    13
100
AcDbLine
 10
133.1131165462918
 20
-156.1300677996313
 30
0.0
 11
133.1131165462918
 21
-272.7900260977731
 31
0.0
  0
LINE
  5
308
330
1F
100
AcDbEntity
  8
0-0_通り芯
  6
Continuous
 62
     4
370
    13
100
AcDbLine
 10
133.1131165462918
 20
-286.3289434330772
 30
0.0
 11
133.1131165462918
 21
-380.5416559014049
 31
0.0
  0
LINE
  5
309
330
1F
100
AcDbEntity
  8
0-0_通り芯
  6
Continuous
 62
     4
370
    13
100
AcDbLine
 10
106.4464031409918
 20
-156.1300677996313
 30
0.0
 11
106.4464031409918
 21
-268.0878034283263
 31
0.0
  0
LINE
  5
30A
330
1F
100
AcDbEntity
  8
0-0_通り芯
  6
Continuous
 62
     4
370
    13
100
AcDbLine
 10
106.4464031409918
 20
-281.6268444835416
 30
0.0
 11
106.4464031409918
 21
-380.5416559014049
 31
0.0
  0
LINE
  5
30B
330
1F
100
AcDbEntity
  8
0-0_通り芯
  6
Continuous
 62
     4
370
    13
100
AcDbLine
 10
130.8580737227064
 20
-380.5416559014049
 30
0.0
 11
130.8580737227064
 21
-285.9313076381025
 31
0.0
  0
LINE
  5
30C
330
1F
100
AcDbEntity
  8
0-0_通り芯
  6
Continuous
 62
     4
370
    13
100
AcDbLine
 10
130.8580737227064
 20
-272.3923903027984
 30
0.0
 11
130.8580737227064
 21
-153.8751486959573
 31
0.0
  0
LINE
  5
30D
330
1F
100
AcDbEntity
  8
0-0_通り芯
  6
Continuous
 62
     4
370
    13
100
AcDbLine
 10
108.701322244666
 20
-153.8751486959573
 30
0.0
 11
108.701322244666
 21
-268.485439223301
 31
0.0
  0
LINE
  5
30E
330
1F
100
AcDbEntity
  8
0-0_通り芯
  6
Continuous
 62
     4
370
    13
100
AcDbLine
 10
108.701322244666
 20
-282.0244802785164
 30
0.0
 11
108.701322244666
 21
-380.5416559014049
 31
0.0
  0
ARC
  5
30F
330
1F
100
AcDbEntity
  8
0-5_文字
  6
Continuous
 62
     2
370
    13
100
AcDbCircle
 10
219.2091842326303
 20
-362.208592002545
 30
0.0
 40
5.000000064437453
100
AcDbArc
 50
269.9999999999999
 51
345.9635925292968
  0
ARC
  5
310
330
1F
100
AcDbEntity
  8
0-5_文字
  6
Continuous
 62
     2
370
    13
100
AcDbCircle
 10
174.0939762512116
 20
-372.2083775546988
 30
0.0
 40
5.000000064437453
100
AcDbArc
 50
90.0
 51
165.9648895263672
  0
ARC
  5
311
330
1F
100
AcDbEntity
  8
0-5_文字
  6
Continuous
 62
     2
370
    13
100
AcDbCircle
 10
162.9528745171532
 20
-375.5418868452393
 30
0.0
 40
5.000000064437453
100
AcDbArc
 50
269.9999999999999
 51
345.9635925292968
  0
ARC
  5
312
330
1F
100
AcDbEntity
  8
0-5_文字
  6
Continuous
 62
     2
370
    13
100
AcDbCircle
 10
163.6836880333061
 20
-358.8750827120045
 30
0.0
 40
5.000000064437453
100
AcDbArc
 50
90.0
 51
165.9635925292969
  0
ARC
  5
313
330
1F
100
AcDbEntity
  8
0-5_文字
  6
Continuous
 62
     2
370
    13
100
AcDbCircle
 10
152.5424625793366
 20
-362.208592002545
 30
0.0
 40
5.000000064437453
100
AcDbArc
 50
269.9999999999999
 51
345.9635925292968
  0
ARC
  5
314
330
1F
100
AcDbEntity
  8
0-5_文字
  6
Continuous
 62
     2
370
    13
100
AcDbCircle
 10
-285.7906260635056
 20
-375.5418868452393
 30
0.0
 40
5.000000064437453
100
AcDbArc
 50
269.9999999999999
 51
345.9647216796874
  0
ARC
  5
315
330
1F
100
AcDbEntity
  8
0-5_文字
  6
Continuous
 62
     2
370
    13
100
AcDbCircle
 10
-432.9831738358871
 20
-362.208592002545
 30
0.0
 40
5.000000064437453
100
AcDbArc
 50
194.0349426269531
 51
270.0
  0
ARC
  5
316
330
1F
100
AcDbEntity
  8
0-5_文字
  6
Continuous
 62
     2
370
    13
100
AcDbCircle
 10
-387.8679658544684
 20
-372.2083775546988
 30
0.0
 40
5.000000064437453
100
AcDbArc
 50
14.03494262695312
 51
90.0
  0
ARC
  5
317
330
1F
100
AcDbEntity
  8
0-5_文字
  6
Continuous
 62
     2
370
    13
100
AcDbCircle
 10
-376.7267404004986
 20
-375.5418868452393
 30
0.0
 40
5.000000064437453
100
AcDbArc
 50
194.0349426269531
 51
270.0
  0
ARC
  5
318
330
1F
100
AcDbEntity
  8
0-5_文字
  6
Continuous
 62
     2
370
    13
100
AcDbCircle
 10
-366.3164521825934
 20
-362.208592002545
 30
0.0
 40
5.000000064437453
100
AcDbArc
 50
194.0349426269531
 51
270.0
  0
ARC
  5
319
330
1F
100
AcDbEntity
  8
0-5_文字
  6
Continuous
 62
     2
370
    13
100
AcDbCircle
 10
-377.4576776365626
 20
-358.8750827120045
 30
0.0
 40
5.000000064437453
100
AcDbArc
 50
14.03494262695312
 51
90.0
  0
ARC
  5
31A
330
1F
100
AcDbEntity
  8
0-5_文字
  6
Continuous
 62
     2
370
    13
100
AcDbCircle
 10
144.9112947293577
 20
-372.2083775546988
 30
0.0
 40
5.000000064437453
100
AcDbArc
 50
90.0
 51
159.4442749023438
  0
ARC
  5
31B
330
1F
100
AcDbEntity
  8
0-5_文字
  6
Continuous
 62
     2
370
    13
100
AcDbCircle
 10
94.64797751810352
 20
-372.2083775546988
 30
0.0
 40
5.000000064437453
100
AcDbArc
 50
20.55549621582031
 51
90.0
  0
ARC
  5
31C
330
1F
100
AcDbEntity
  8
0-5_文字
  6
Continuous
 62
     2
370
    13
100
AcDbCircle
 10
72.0168839000712
 20
-375.5418868452393
 30
0.0
 40
5.000000064437453
100
AcDbArc
 50
194.0352783203125
 51
270.0
  0
ARC
  5
31D
330
1F
100
AcDbEntity
  8
0-0_通り芯
  6
Continuous
 62
     4
370
    13
100
AcDbCircle
 10
101.0345230602275
 20
-392.8745515411853
 30
0.0
 40
9.333911457577267
100
AcDbArc
 50
227.9253692626953
 51
312.0744323730469
  0
ARC
  5
31E
330
1F
100
AcDbEntity
  8
0-0_通り芯
  6
Continuous
 62
     4
370
    13
100
AcDbCircle
 10
119.7798217035975
 20
-368.5769507177056
 30
0.0
 40
33.63136729678592
100
AcDbArc
 50
248.1978607177734
 51
291.8021392822266
  0
ARC
  5
31F
330
1F
100
AcDbEntity
  8
0-0_通り芯
  6
Continuous
 62
     4
370
    13
100
AcDbCircle
 10
138.52536778679
 20
-392.8743041013626
 30
0.0
 40
9.33396558503847
100
AcDbArc
 50
227.9257202148438
 51
312.0742797851562
  0
LINE
  5
320
330
1F
100
AcDbEntity
  8
0-0_通り芯
  6
JWW_CENTER1
 62
     4
370
    13
100
AcDbLine
 10
119.779697983686
 20
-429.7116602563457
 30
0.0
 11
119.779697983686
 21
-149.1242810702676
 31
0.0
  0
TEXT
  5
321
330
1F
100
AcDbEntity
  8
0-4_寸法
  6
Continuous
 62
     6
370
     0
100
AcDbText
 10
-140.6039009752438
 20
-1145.012486871718
 30
0.0
 40
26.67000000000001
  1
ＡＬＣ用バルコニー中継用ルーフドレイン　ＥＡＳＪ－１－７５
 41
0.8571428571428569
  7
ＭＳ ゴシック
100
AcDbText
  0
TEXT
  5
322
330
1F
100
AcDbEntity
  8
0-4_寸法
  6
Continuous
 62
     6
370
     0
100
AcDbText
 10
-136.3427147109357
 20
-1109.250260024683
 30
0.0
 40
26.67000000000001
  1
鋳鉄製　たて引き用　シート防水用　差し込み式　ＡＬＣ＝１００
 41
0.857142857142857
  7
ＭＳ ゴシック
100
AcDbText
  0
LINE
  5
323
330
1F
100
AcDbEntity
  8
0-5_文字
  6
Continuous
 62
     7
370
    13
100
AcDbLine
 10
-459.9817105747147
 20
383.1600552557453
 30
0.0
 11
-810.4951237809453
 21
383.1600552557453
 31
0.0
  0
LINE
  5
324
330
1F
100
AcDbEntity
  8
0-5_文字
  6
Continuous
 62
     7
370
    13
100
AcDbLine
 10
-523.4891334829294
 20
-264.1421150554531
 30
0.0
 11
-809.603092017244
 21
-264.1421150554531
 31
0.0
  0
LINE
  5
325
330
1F
100
AcDbEntity
  8
0-5_文字
  6
Continuous
 62
     7
370
    13
100
AcDbLine
 10
270.396268400282
 20
256.1245894950396
 30
0.0
 11
650.7501875468868
 21
256.1245894950396
 31
0.0
  0
LINE
  5
326
330
1F
100
AcDbEntity
  8
0-5_文字
  6
Continuous
 62
     7
370
    13
100
AcDbLine
 10
263.6225817101558
 20
338.1547284851747
 30
0.0
 11
614.5536384096024
 21
338.1547284851747
 31
0.0
  0
LINE
  5
327
330
1F
100
AcDbEntity
  8
0-5_文字
  6
Continuous
 62
     7
370
    13
100
AcDbLine
 10
250.1189237401516
 20
508.0422179277538
 30
0.0
 11
594.2835708927232
 21
508.0422179277538
 31
0.0
  0
LINE
  5
328
330
1F
100
AcDbEntity
  8
0-4_寸法
  6
Continuous
 62
     7
370
    13
100
AcDbLine
 10
-225.2202224820851
 20
-442.576854467073
 30
0.0
 11
11.44658989914404
 21
-442.576854467073
 31
0.0
  0
LINE
  5
329
330
1F
100
AcDbEntity
  8
0-4_寸法
  6
Continuous
 62
     7
370
    13
100
AcDbLine
 10
-225.2202224820851
 20
-442.576854467073
 30
0.0
 11
-200.4341009477399
 21
-439.3136996615717
 31
0.0
  0
LINE
  5
32A
330
1F
100
AcDbEntity
  8
0-4_寸法
  6
Continuous
 62
     7
370
    13
100
AcDbLine
 10
-225.2202224820851
 20
-442.576854467073
 30
0.0
 11
-200.4341009477399
 21
-445.8400092725743
 31
0.0
  0
LINE
  5
32B
330
1F
100
AcDbEntity
  8
0-4_寸法
  6
Continuous
 62
     7
370
    13
100
AcDbLine
 10
11.44658989914404
 20
-442.576854467073
 30
0.0
 11
-13.33953163520122
 21
-439.3136996615717
 31
0.0
  0
LINE
  5
32C
330
1F
100
AcDbEntity
  8
0-4_寸法
  6
Continuous
 62
     7
370
    13
100
AcDbLine
 10
11.44658989914404
 20
-442.576854467073
 30
0.0
 11
-13.33953163520122
 21
-445.8400092725743
 31
0.0
  0
TEXT
  5
32D
330
1F
100
AcDbEntity
  8
0-4_寸法
  6
Continuous
 62
     2
370
   211
100
AcDbText
 10
-150.6368162914706
 20
-430.936854467073
 30
0.0
 40
30.48
  1
φ71
 41
1.09375
  7
ＭＳ ゴシック
100
AcDbText
  0
LINE
  5
32E
330
1F
100
AcDbEntity
  8
0-4_寸法
  6
Continuous
 62
     7
370
    13
100
AcDbLine
 10
-225.2202224820851
 20
-442.576854467073
 30
0.0
 11
-225.2202224820851
 21
-315.8428720083247
 31
0.0
  0
LINE
  5
32F
330
1F
100
AcDbEntity
  8
0-4_寸法
  6
Continuous
 62
     7
370
    13
100
AcDbLine
 10
11.44658989914404
 20
-442.576854467073
 30
0.0
 11
11.44658989914404
 21
-315.8428720083247
 31
0.0
  0
LINE
  5
330
330
1F
100
AcDbEntity
  8
0-4_寸法
  6
Continuous
 62
     7
370
    13
100
AcDbLine
 10
-440.2202937683194
 20
-619.9646201873048
 30
0.0
 11
226.4463041650629
 21
-619.9646201873048
 31
0.0
  0
LINE
  5
331
330
1F
100
AcDbEntity
  8
0-4_寸法
  6
Continuous
 62
     7
370
    13
100
AcDbLine
 10
-440.2202937683194
 20
-619.9646201873048
 30
0.0
 11
-415.4341722339741
 21
-616.7014653818036
 31
0.0
  0
LINE
  5
332
330
1F
100
AcDbEntity
  8
0-4_寸法
  6
Continuous
 62
     7
370
    13
100
AcDbLine
 10
-440.2202937683194
 20
-619.9646201873048
 30
0.0
 11
-415.4341722339741
 21
-623.2277749928061
 31
0.0
  0
LINE
  5
333
330
1F
100
AcDbEntity
  8
0-4_寸法
  6
Continuous
 62
     7
370
    13
100
AcDbLine
 10
226.4463041650629
 20
-619.9646201873048
 30
0.0
 11
201.6601826307177
 21
-616.7014653818036
 31
0.0
  0
LINE
  5
334
330
1F
100
AcDbEntity
  8
0-4_寸法
  6
Continuous
 62
     7
370
    13
100
AcDbLine
 10
226.4463041650629
 20
-619.9646201873048
 30
0.0
 11
201.6601826307177
 21
-623.2277749928061
 31
0.0
  0
LINE
  5
335
330
1F
100
AcDbEntity
  8
0-4_寸法
  6
Continuous
 62
     7
370
    13
100
AcDbLine
 10
-440.2202937683194
 20
-619.9646201873048
 30
0.0
 11
-440.2202937683194
 21
-373.8750662160164
 31
0.0
  0
LINE
  5
336
330
1F
100
AcDbEntity
  8
0-4_寸法
  6
Continuous
 62
     7
370
    13
100
AcDbLine
 10
226.4463041650629
 20
-619.9646201873048
 30
0.0
 11
226.4463041650629
 21
-373.875313655839
 31
0.0
  0
TEXT
  5
337
330
1F
100
AcDbEntity
  8
0-4_寸法
  6
Continuous
 62
     2
370
   211
100
AcDbText
 10
-159.1103017689906
 20
-608.3246201873048
 30
0.0
 40
30.48
  1
φ200
 41
1.1
  7
ＭＳ ゴシック
100
AcDbText
  0
LINE
  5
338
330
1F
100
AcDbEntity
  8
0-4_寸法
  6
Continuous
 62
     7
370
    13
100
AcDbLine
 10
413.953488372093
 20
-307.4757586704687
 30
0.0
 11
413.953488372093
 21
-84.1422439211556
 31
0.0
  0
LINE
  5
339
330
1F
100
AcDbEntity
  8
0-4_寸法
  6
Continuous
 62
     7
370
    13
100
AcDbLine
 10
413.953488372093
 20
-307.4757586704687
 30
0.0
 11
410.6903335665918
 21
-282.6896371361235
 31
0.0
  0
LINE
  5
33A
330
1F
100
AcDbEntity
  8
0-4_寸法
  6
Continuous
 62
     7
370
    13
100
AcDbLine
 10
413.953488372093
 20
-307.4757586704687
 30
0.0
 11
417.2166431775943
 21
-282.6896371361235
 31
0.0
  0
LINE
  5
33B
330
1F
100
AcDbEntity
  8
0-4_寸法
  6
Continuous
 62
     7
370
    13
100
AcDbLine
 10
413.953488372093
 20
-84.1422439211556
 30
0.0
 11
410.6903335665918
 21
-108.9283654555009
 31
0.0
  0
LINE
  5
33C
330
1F
100
AcDbEntity
  8
0-4_寸法
  6
Continuous
 62
     7
370
    13
100
AcDbLine
 10
413.953488372093
 20
-84.1422439211556
 30
0.0
 11
417.2166431775943
 21
-108.9283654555009
 31
0.0
  0
LINE
  5
33D
330
1F
100
AcDbEntity
  8
0-4_寸法
  6
Continuous
 62
     7
370
    13
100
AcDbLine
 10
416.953488372093
 20
-307.4757586704687
 30
0.0
 11
31.44658989914404
 21
-307.4757586704687
 31
0.0
  0
LINE
  5
33E
330
1F
100
AcDbEntity
  8
0-4_寸法
  6
Continuous
 62
     7
370
    13
100
AcDbLine
 10
416.953488372093
 20
-84.1422439211556
 30
0.0
 11
240.1708962192754
 21
-84.14224392115558
 31
0.0
  0
TEXT
  5
33F
330
1F
100
AcDbEntity
  8
0-4_寸法
  6
Continuous
 62
     2
370
   211
100
AcDbText
 10
402.313488372093
 20
-217.0590012958122
 30
0.0
 40
30.48
  1
67
 50
90.0
 41
1.0625
  7
ＭＳ ゴシック
100
AcDbText
  0
LINE
  5
340
330
1F
100
AcDbEntity
  8
0-4_寸法
  6
Continuous
 62
     7
370
    13
100
AcDbLine
 10
518.5613943808532
 20
-353.875313655839
 30
0.0
 11
518.5613943808532
 21
-84.14222717285156
 31
0.0
  0
LINE
  5
341
330
1F
100
AcDbEntity
  8
0-4_寸法
  6
Continuous
 62
     7
370
    13
100
AcDbLine
 10
518.5613943808532
 20
-353.875313655839
 30
0.0
 11
515.298239575352
 21
-329.0891921214938
 31
0.0
  0
LINE
  5
342
330
1F
100
AcDbEntity
  8
0-4_寸法
  6
Continuous
 62
     7
370
    13
100
AcDbLine
 10
518.5613943808532
 20
-353.875313655839
 30
0.0
 11
521.8245491863546
 21
-329.0891921214938
 31
0.0
  0
LINE
  5
343
330
1F
100
AcDbEntity
  8
0-4_寸法
  6
Continuous
 62
     7
370
    13
100
AcDbLine
 10
518.5613943808532
 20
-84.14222717285156
 30
0.0
 11
515.298239575352
 21
-108.9283487071968
 31
0.0
  0
LINE
  5
344
330
1F
100
AcDbEntity
  8
0-4_寸法
  6
Continuous
 62
     7
370
    13
100
AcDbLine
 10
518.5613943808532
 20
-84.14222717285156
 30
0.0
 11
521.8245491863546
 21
-108.9283487071968
 31
0.0
  0
LINE
  5
345
330
1F
100
AcDbEntity
  8
0-4_寸法
  6
Continuous
 62
     7
370
    13
100
AcDbLine
 10
521.5613943808532
 20
-353.875313655839
 30
0.0
 11
246.4463041650629
 21
-353.875313655839
 31
0.0
  0
TEXT
  5
346
330
1F
100
AcDbEntity
  8
0-4_寸法
  6
Continuous
 62
     2
370
   211
100
AcDbText
 10
506.9213943808533
 20
-251.5087704143453
 30
0.0
 40
30.48
  1
100
 50
90.0
 41
1.083333333333333
  7
ＭＳ ゴシック
100
AcDbText
  0
TEXT
  5
347
330
1F
100
AcDbEntity
  8
0-5_文字
  6
Continuous
 62
     7
370
    13
100
AcDbText
 10
279.88981706549
 20
-646.476687116274
 30
0.0
 40
22.86
  1
ボルト：Ｃ３６０２
 41
1.148148148148148
  7
ＭＳ ゴシック
100
AcDbText
  0
TEXT
  5
348
330
1F
100
AcDbEntity
  8
0-5_文字
  6
Continuous
 62
     7
370
    13
100
AcDbText
 10
323.0803180317453
 20
-687.0065613499435
 30
0.0
 40
22.86
  1
Ｍ８×１００
 41
1.13888888888889
  7
ＭＳ ゴシック
100
AcDbText
  0
LINE
  5
349
330
1F
100
AcDbEntity
  8
0-5_文字
  6
Continuous
 62
     7
370
    13
100
AcDbLine
 10
269.4015814500262
 20
-654.345414464472
 30
0.0
 11
587.5656012189016
 21
-654.345414464472
 31
0.0
  0
LINE
  5
34A
330
1F
100
AcDbEntity
  8
0-5_文字
  6
Continuous
 62
     7
370
    13
100
AcDbLine
 10
133.1131165462918
 20
-418.2868687656363
 30
0.0
 11
269.4015814500262
 21
-654.345414464472
 31
0.0
  0
LINE
  5
34B
330
1F
100
AcDbEntity
  8
0-5_文字
  6
Continuous
 62
     7
370
    13
100
AcDbLine
 10
133.1131165462918
 20
-418.2868687656363
 30
0.0
 11
142.680202355419
 21
-441.3838570784185
 31
0.0
  0
LINE
  5
34C
330
1F
100
AcDbEntity
  8
0-5_文字
  6
Continuous
 62
     7
370
    13
100
AcDbLine
 10
133.1131165462918
 20
-418.2868687656363
 30
0.0
 11
148.3321522715098
 21
-438.1207022729172
 31
0.0
  0
TEXT
  5
34D
330
1F
100
AcDbEntity
  8
0-5_文字
  6
Continuous
 62
     7
370
    13
100
AcDbText
 10
-837.7053737647371
 20
-609.8437651891776
 30
0.0
 40
22.86
  1
樹脂系塗装
 41
1.133333333333333
  7
ＭＳ ゴシック
100
AcDbText
  0
TEXT
  5
34E
330
1F
100
AcDbEntity
  8
0-5_文字
  6
Continuous
 62
     7
370
    13
100
AcDbText
 10
-933.8306896559218
 20
-557.4384851532822
 30
0.0
 40
22.86
  1
クランプ板：ＦＣ１５０
 41
1.151515151515151
  7
ＭＳ ゴシック
100
AcDbText
  0
LINE
  5
34F
330
1F
100
AcDbEntity
  8
0-5_文字
  6
Continuous
 62
     7
370
    13
100
AcDbLine
 10
-942.0017846858151
 20
-573.2056761834237
 30
0.0
 11
-551.9156458027926
 21
-573.2056761834237
 31
0.0
  0
LINE
  5
350
330
1F
100
AcDbEntity
  8
0-5_文字
  6
Continuous
 62
     7
370
    13
100
AcDbLine
 10
-432.9831036475318
 20
-367.2084575063707
 30
0.0
 11
-448.2021393727499
 21
-387.0422910136516
 31
0.0
  0
LINE
  5
351
330
1F
100
AcDbEntity
  8
0-5_文字
  6
Continuous
 62
     7
370
    13
100
AcDbLine
 10
-432.9831036475318
 20
-367.2084575063707
 30
0.0
 11
-442.5501894566591
 21
-390.3054458191529
 31
0.0
  0
LINE
  5
352
330
1F
100
AcDbEntity
  8
0-5_文字
  6
Continuous
 62
     7
370
    13
100
AcDbLine
 10
-432.9831738358871
 20
-367.2085920669825
 30
0.0
 11
-551.9156458027925
 21
-573.2056761834237
 31
0.0
  0
LINE
  5
353
330
1F
100
AcDbEntity
  8
0-0_通り芯
  6
JWW_CENTER1
 62
     3
370
    13
100
AcDbLine
 10
-106.8869329416725
 20
155.9946249036745
 30
0.0
 11
-106.8869329416728
 21
-338.9122280570143
 31
0.0
  0
LINE
  5
354
330
1F
100
AcDbEntity
  8
0-1_ピット
  6
Continuous
 62
     4
370
    13
100
AcDbLine
 10
-236.8869924450584
 20
-84.72890524093722
 30
0.0
 11
-239.1418408516404
 21
-82.47557328698262
 31
0.0
  0
LINE
  5
355
330
1F
100
AcDbEntity
  8
0-1_ピット
  6
Continuous
 62
     4
370
    13
100
AcDbLine
 10
-261.2986135388084
 20
-82.47557328698258
 30
0.0
 11
-263.5535785955923
 21
-84.7289052409372
 31
0.0
  0
LINE
  5
356
330
1F
100
AcDbEntity
  8
0-1_ピット
  6
Continuous
 62
     4
370
    13
100
AcDbLine
 10
-263.5535785955923
 20
-84.7289052409372
 30
0.0
 11
-263.5535785955923
 21
-91.95471167481237
 31
0.0
  0
LINE
  5
357
330
1F
100
AcDbEntity
  8
0-1_ピット
  6
Continuous
 62
     4
370
    13
100
AcDbLine
 10
-261.2986135388084
 20
-82.47557328698261
 30
0.0
 11
-261.2986135388084
 21
-91.95471167481237
 31
0.0
  0
LINE
  5
358
330
1F
100
AcDbEntity
  8
0-1_ピット
  6
Continuous
 62
     4
370
    13
100
AcDbLine
 10
-239.1418408516404
 20
-82.47557328698261
 30
0.0
 11
-239.1418408516404
 21
-91.95471167481237
 31
0.0
  0
LINE
  5
359
330
1F
100
AcDbEntity
  8
0-1_ピット
  6
Continuous
 62
     4
370
    13
100
AcDbLine
 10
-236.8869924450584
 20
-84.72890524093722
 30
0.0
 11
-236.8869924450584
 21
-91.95471167481237
 31
0.0
  0
LINE
  5
35A
330
1F
100
AcDbEntity
  8
0-1_ピット
  6
JWW_CENTER1
 62
     4
370
    13
100
AcDbLine
 10
-250.2202271952247
 20
-74.54613653413355
 30
0.0
 11
-250.2202271952247
 21
-160.4540433516343
 31
0.0
  0
LINE
  5
35B
330
1F
100
AcDbEntity
  8
0-5_文字
  6
Continuous
 62
     7
370
    13
100
AcDbLine
 10
-455.2711758499188
 20
247.9588989525689
 30
0.0
 11
-764.7379546020454
 21
247.9588989525689
 31
0.0
  0
LINE
  5
35C
330
1F
100
AcDbEntity
  8
0-5_文字
  6
Continuous
 62
     7
370
    13
100
AcDbLine
 10
-263.5535785955923
 20
-84.7289052409372
 30
0.0
 11
-455.7273869254064
 21
248.1259069687334
 31
0.0
  0
LINE
  5
35D
330
1F
100
AcDbEntity
  8
0-5_文字
  6
Continuous
 62
     7
370
    13
100
AcDbLine
 10
-263.5535785955923
 20
-84.7289052409372
 30
0.0
 11
-273.6996010829236
 21
-71.50638095884258
 31
0.0
  0
LINE
  5
35E
330
1F
100
AcDbEntity
  8
0-5_文字
  6
Continuous
 62
     7
370
    13
100
AcDbLine
 10
-263.5535785955923
 20
-84.7289052409372
 30
0.0
 11
-269.9316699437765
 21
-69.33089003823441
 31
0.0
  0
LINE
  5
35F
330
1F
100
AcDbEntity
  8
0-5_文字
  6
Continuous
 62
     7
370
    13
100
AcDbLine
 10
48.11313127485278
 20
142.04582703703
 30
0.0
 11
240.4165748789557
 21
618.0135521682273
 31
0.0
  0
LINE
  5
360
330
1F
100
AcDbEntity
  8
0-4_寸法
  6
Continuous
 62
     7
370
    13
100
AcDbLine
 10
501.8480664968254
 20
618.0135521682273
 30
0.0
 11
527.9094816040401
 21
618.0135521682273
 31
0.0
  0
LINE
  5
361
330
1F
100
AcDbEntity
  8
0-5_文字
  6
Continuous
 62
     7
370
    13
100
AcDbLine
 10
240.4165748789557
 20
618.0135521682273
 30
0.0
 11
673.0950394615314
 21
618.0135521682273
 31
0.0
  0
TEXT
  5
362
330
1F
100
AcDbEntity
  8
0-5_文字
  6
Continuous
 62
     7
370
    13
100
AcDbText
 10
249.0115810855888
 20
627.9171717929482
 30
0.0
 40
22.86
  1
ストレーナー：ＦＣ１５０
 41
1.152777777777778
  7
ＭＳ ゴシック
100
AcDbText
  0
TEXT
  5
363
330
1F
100
AcDbEntity
  8
0-5_文字
  6
Continuous
 62
     7
370
    13
100
AcDbText
 10
374.5763707287475
 20
584.0912153038261
 30
0.0
 40
22.86
  1
樹脂系塗装
 41
1.133333333333333
  7
ＭＳ ゴシック
100
AcDbText
  0
TEXT
  5
364
330
1F
100
AcDbEntity
  8
0-5_文字
  6
Continuous
 62
     7
370
    13
100
AcDbText
 10
376.2202705478233
 20
223.6411027756939
 30
0.0
 40
22.86
  1
樹脂系塗装
 41
1.133333333333333
  7
ＭＳ ゴシック
100
AcDbText
  0
TEXT
  5
365
330
1F
100
AcDbEntity
  8
0-5_文字
  6
Continuous
 62
     7
370
    13
100
AcDbText
 10
269.9899172697402
 20
268.5323255813954
 30
0.0
 40
22.86
  1
防水層押え：ＦＣ１５０
 41
1.151515151515152
  7
ＭＳ ゴシック
100
AcDbText
  0
TEXT
  5
366
330
1F
100
AcDbEntity
  8
0-5_文字
  6
Continuous
 62
     7
370
    13
100
AcDbText
 10
355.2491509376366
 20
306.8218979744937
 30
0.0
 40
22.86
  1
Ｍ６×１２
 41
1.133333333333333
  7
ＭＳ ゴシック
100
AcDbText
  0
TEXT
  5
367
330
1F
100
AcDbEntity
  8
0-5_文字
  6
Continuous
 62
     7
370
    13
100
AcDbText
 10
271.356988511539
 20
347.7521305326332
 30
0.0
 40
22.86
  1
丸小ネジ：Ｃ２７００
 41
1.15
  7
ＭＳ ゴシック
100
AcDbText
  0
TEXT
  5
368
330
1F
100
AcDbEntity
  8
0-5_文字
  6
Continuous
 62
     7
370
    13
100
AcDbText
 10
250.2627471383975
 20
520.7153713428357
 30
0.0
 40
22.86
  1
ロート：ＳＵＳ３０４
 41
1.15
  7
ＭＳ ゴシック
100
AcDbText
  0
TEXT
  5
369
330
1F
100
AcDbEntity
  8
0-5_文字
  6
Continuous
 62
     7
370
    13
100
AcDbText
 10
-808.1587699130293
 20
393.3260240060015
 30
0.0
 40
22.86
  1
丸小ネジ：Ｃ２７００
 41
1.15
  7
ＭＳ ゴシック
100
AcDbText
  0
TEXT
  5
36A
330
1F
100
AcDbEntity
  8
0-5_文字
  6
Continuous
 62
     7
370
    13
100
AcDbText
 10
-722.4988973940256
 20
350.6628582145537
 30
0.0
 40
22.86
  1
Ｍ６×１２
 41
1.133333333333333
  7
ＭＳ ゴシック
100
AcDbText
  0
TEXT
  5
36B
330
1F
100
AcDbEntity
  8
0-5_文字
  6
Continuous
 62
     7
370
    13
100
AcDbText
 10
-765.340006036563
 20
258.0747111777945
 30
0.0
 40
22.86
  1
ボルト：Ｃ３６０２
 41
1.148148148148148
  7
ＭＳ ゴシック
100
AcDbText
  0
TEXT
  5
36C
330
1F
100
AcDbEntity
  8
0-5_文字
  6
Continuous
 62
     7
370
    13
100
AcDbText
 10
-693.0938338944492
 20
218.1347261815454
 30
0.0
 40
22.86
  1
Ｍ８×２０
 41
1.133333333333333
  7
ＭＳ ゴシック
100
AcDbText
  0
TEXT
  5
36D
330
1F
100
AcDbEntity
  8
0-5_文字
  6
Continuous
 62
     7
370
    13
100
AcDbText
 10
-758.0379325359465
 20
-296.878220603538
 30
0.0
 40
22.86
  1
樹脂系塗装
 41
1.133333333333333
  7
ＭＳ ゴシック
100
AcDbText
  0
TEXT
  5
36E
330
1F
100
AcDbEntity
  8
0-5_文字
  6
Continuous
 62
     7
370
    13
100
AcDbText
 10
-807.3707028062167
 20
-254.8126638917794
 30
0.0
 40
22.86
  1
本体：ＦＣ１５０
 41
1.145833333333333
  7
ＭＳ ゴシック
100
AcDbText
  0
LINE
  5
36F
330
1F
100
AcDbEntity
  8
0-0_通り芯
  6
Continuous
 62
     3
370
    13
100
AcDbLine
 10
93.878855015125
 20
-184.1424331923679
 30
0.0
 11
106.4464031409918
 21
-184.1424331923679
 31
0.0
  0
ARC
  5
370
330
1F
100
AcDbEntity
  8
0-0_通り芯
  6
Continuous
 62
     3
370
    13
100
AcDbCircle
 10
132.0132058838507
 20
-179.1423389295783
 30
0.0
 40
4.999999940165221
100
AcDbArc
 50
282.7079837066411
 51
353.1259155273438
  0
ENDSEC
  0
SECTION
  2
OBJECTS
  0
DICTIONARY
  5
C
330
0
100
AcDbDictionary
281
     1
  3
ACAD_GROUP
350
D
  3
ACAD_LAYOUT
350
1A
  3
ACAD_MLEADERSTYLE
350
372
  3
ACAD_MLINESTYLE
350
17
  3
ACAD_PLOTSETTINGS
350
19
  3
ACAD_PLOTSTYLENAME
350
E
  3
ACAD_TABLESTYLE
350
371
  3
ACAD_VISUALSTYLE
350
2A
  0
DICTIONARY
  5
D
102
{ACAD_REACTORS
330
C
102
}
330
C
100
AcDbDictionary
281
     1
  0
DICTIONARY
  5
1A
102
{ACAD_REACTORS
330
C
102
}
330
C
100
AcDbDictionary
281
     1
  3
Layout1
350
1E
  3
Layout2
350
26
  3
Model
350
22
  0
DICTIONARY
  5
372
102
{ACAD_REACTORS
330
C
102
}
330
C
100
AcDbDictionary
281
     1
  0
DICTIONARY
  5
17
102
{ACAD_REACTORS
330
C
102
}
330
C
100
AcDbDictionary
281
     1
  3
Standard
350
18
  0
DICTIONARY
  5
19
102
{ACAD_REACTORS
330
C
102
}
330
C
100
AcDbDictionary
281
     1
  0
ACDBDICTIONARYWDFLT
  5
E
102
{ACAD_REACTORS
330
C
102
}
330
C
100
AcDbDictionary
281
     1
  3
Normal
350
F
100
AcDbDictionaryWithDefault
340
F
  0
DICTIONARY
  5
371
102
{ACAD_REACTORS
330
C
102
}
330
C
100
AcDbDictionary
281
     1
  0
DICTIONARY
  5
2A
102
{ACAD_REACTORS
330
C
102
}
330
C
100
AcDbDictionary
281
     1
  3
2dWireframe
350
2F
  3
3D Hidden
350
31
  3
3dWireframe
350
30
  3
Basic
350
32
  3
Brighten
350
36
  3
ColorChange
350
3A
  3
Conceptual
350
34
  3
Dim
350
35
  3
Facepattern
350
39
  3
Flat
350
2B
  3
FlatWithEdges
350
2C
  3
Gouraud
350
2D
  3
GouraudWithEdges
350
2E
  3
Linepattern
350
38
  3
Realistic
350
33
  3
Thicken
350
37
  0
LAYOUT
  5
1E
102
{ACAD_REACTORS
330
1A
102
}
330
1A
100
AcDbPlotSettings
  1

  2
none_device
  4

  6

 40
0.0
 41
0.0
 42
0.0
 43
0.0
 44
0.0
 45
0.0
 46
0.0
 47
0.0
 48
0.0
 49
0.0
140
0.0
141
0.0
142
1.0
143
1.0
 70
   688
 72
     0
 73
     0
 74
     5
  7

 75
    16
 76
     0
 77
     5
 78
   300
147
1.0
148
0.0
149
0.0
100
AcDbLayout
  1
Layout1
 70
     1
 71
     1
 10
0.0
 20
0.0
 11
420.0
 21
297.0
 12
0.0
 22
0.0
 32
0.0
 14
1.000000000000000E+20
 24
1.000000000000000E+20
 34
1.000000000000000E+20
 15
-1.000000000000000E+20
 25
-1.000000000000000E+20
 35
-1.000000000000000E+20
146
0.0
 13
0.0
 23
0.0
 33
0.0
 16
1.0
 26
0.0
 36
0.0
 17
0.0
 27
1.0
 37
0.0
 76
     0
330
1B
  0
LAYOUT
  5
26
102
{ACAD_REACTORS
330
1A
102
}
330
1A
100
AcDbPlotSettings
  1

  2
none_device
  4

  6

 40
0.0
 41
0.0
 42
0.0
 43
0.0
 44
0.0
 45
0.0
 46
0.0
 47
0.0
 48
0.0
 49
0.0
140
0.0
141
0.0
142
1.0
143
1.0
 70
   688
 72
     0
 73
     0
 74
     5
  7

 75
    16
 76
     0
 77
     5
 78
   300
147
1.0
148
0.0
149
0.0
100
AcDbLayout
  1
Layout2
 70
     1
 71
     2
 10
0.0
 20
0.0
 11
0.0
 21
0.0
 12
0.0
 22
0.0
 32
0.0
 14
0.0
 24
0.0
 34
0.0
 15
0.0
 25
0.0
 35
0.0
146
0.0
 13
0.0
 23
0.0
 33
0.0
 16
1.0
 26
0.0
 36
0.0
 17
0.0
 27
1.0
 37
0.0
 76
     0
330
23
  0
LAYOUT
  5
22
102
{ACAD_REACTORS
330
1A
102
}
330
1A
100
AcDbPlotSettings
  1

  2
none_device
  4

  6

 40
0.0
 41
0.0
 42
0.0
 43
0.0
 44
0.0
 45
0.0
 46
0.0
 47
0.0
 48
0.0
 49
0.0
140
0.0
141
0.0
142
1.0
143
1.0
 70
  1712
 72
     0
 73
     0
 74
     0
  7

 75
     0
 76
     0
 77
     5
 78
   300
147
1.0
148
0.0
149
0.0
100
AcDbLayout
  1
Model
 70
     1
 71
     0
 10
-2100.0
 20
-1485.0
 11
2100.0
 21
1485.0
 12
0.0
 22
0.0
 32
0.0
 14
-2100.0
 24
-1485.0
 34
0.0
 15
2100.0
 25
1485.0
 35
0.0
146
0.0
 13
0.0
 23
0.0
 33
0.0
 16
1.0
 26
0.0
 36
0.0
 17
0.0
 27
1.0
 37
0.0
 76
     0
330
1F
331
29
  0
MLINESTYLE
  5
18
102
{ACAD_REACTORS
330
17
102
}
330
17
100
AcDbMlineStyle
  2
Standard
 70
     0
  3

 62
   256
 51
90.0
 52
90.0
 71
     2
 49
0.5
 62
   256
  6
BYLAYER
 49
-0.5
 62
   256
  6
BYLAYER
  0
ACDBPLACEHOLDER
  5
F
102
{ACAD_REACTORS
330
E
102
}
330
E
  0
VISUALSTYLE
  5
2F
102
{ACAD_REACTORS
330
2A
102
}
330
2A
100
AcDbVisualStyle
  2
2dWireframe
 70
     4
 71
     0
 72
     2
 73
     0
 90
        0
 40
-0.6
 41
-30.0
 62
     5
 63
     7
421
 16777215
 74
     1
 91
        4
 64
     7
 65
   257
 75
     1
175
     1
 42
1.0
 92
        0
 66
   257
 43
1.0
 76
     1
 77
     6
 78
     2
 67
     7
 79
     5
170
     0
171
     0
290
     0
174
     0
 93
        1
 44
0.0
173
     0
291
     0
 45
0.0
1001
ACAD
1000
AcDbSavedByObjectVersion
1070
     0
  0
VISUALSTYLE
  5
31
102
{ACAD_REACTORS
330
2A
102
}
330
2A
100
AcDbVisualStyle
  2
3D Hidden
 70
     6
 71
     1
 72
     2
 73
     2
 90
        0
 40
-0.6
 41
-30.0
 62
     5
 63
     7
421
 16777215
 74
     2
 91
        2
 64
     7
 65
   257
 75
     2
175
     1
 42
40.0
 92
        0
 66
   257
 43
1.0
 76
     1
 77
     6
 78
     2
 67
     7
 79
     3
170
     0
171
     0
290
     0
174
     0
 93
        1
 44
0.0
173
     0
291
     0
 45
0.0
1001
ACAD
1000
AcDbSavedByObjectVersion
1070
     0
  0
VISUALSTYLE
  5
30
102
{ACAD_REACTORS
330
2A
102
}
330
2A
100
AcDbVisualStyle
  2
3dWireframe
 70
     5
 71
     0
 72
     2
 73
     0
 90
        0
 40
-0.6
 41
-30.0
 62
     5
 63
     7
421
 16777215
 74
     1
 91
        4
 64
     7
 65
   257
 75
     1
175
     1
 42
1.0
 92
        0
 66
   257
 43
1.0
 76
     1
 77
     6
 78
     2
 67
     7
 79
     5
170
     0
171
     0
290
     0
174
     0
 93
        1
 44
0.0
173
     0
291
     0
 45
0.0
1001
ACAD
1000
AcDbSavedByObjectVersion
1070
     0
  0
VISUALSTYLE
  5
32
102
{ACAD_REACTORS
330
2A
102
}
330
2A
100
AcDbVisualStyle
  2
Basic
 70
     7
 71
     1
 72
     0
 73
     1
 90
        0
 40
-0.6
 41
-30.0
 62
     5
 63
     7
421
 16777215
 74
     0
 91
        4
 64
     7
 65
   257
 75
     1
175
     1
 42
1.0
 92
        8
 66
     7
 43
1.0
 76
     1
 77
     6
 78
     2
 67
     7
 79
     5
170
     0
171
     0
290
     0
174
     0
 93
        1
 44
0.0
173
     0
291
     1
 45
0.0
1001
ACAD
1000
AcDbSavedByObjectVersion
1070
     0
  0
VISUALSTYLE
  5
36
102
{ACAD_REACTORS
330
2A
102
}
330
2A
100
AcDbVisualStyle
  2
Brighten
 70
    12
 71
     2
 72
     2
 73
     0
 90
        0
 40
-0.6
 41
-30.0
 62
     5
 63
     7
421
 16777215
 74
     1
 91
        4
 64
     7
 65
   257
 75
     1
175
     1
 42
1.0
 92
        8
 66
     7
 43
1.0
 76
     1
 77
     6
 78
     2
 67
     7
 79
     5
170
     0
171
     0
290
     0
174
     0
 93
        1
 44
50.0
173
     0
291
     1
 45
0.0
1001
ACAD
1000
AcDbSavedByObjectVersion
1070
     0
  0
VISUALSTYLE
  5
3A
102
{ACAD_REACTORS
330
2A
102
}
330
2A
100
AcDbVisualStyle
  2
ColorChange
 70
    16
 71
     2
 72
     2
 73
     3
 90
        0
 40
-0.6
 41
-30.0
 62
     5
 63
     8
421
  8421504
 74
     1
 91
        4
 64
     7
 65
   257
 75
     1
175
     1
 42
1.0
 92
        8
 66
     8
424
  8421504
 43
1.0
 76
     1
 77
     6
 78
     2
 67
     7
 79
     5
170
     0
171
     0
290
     0
174
     0
 93
        1
 44
0.0
173
     0
291
     1
 45
0.0
1001
ACAD
1000
AcDbSavedByObjectVersion
1070
     0
  0
VISUALSTYLE
  5
34
102
{ACAD_REACTORS
330
2A
102
}
330
2A
100
AcDbVisualStyle
  2
Conceptual
 70
     9
 71
     3
 72
     2
 73
     0
 90
        0
 40
-0.6
 41
-30.0
 62
     5
 63
     7
421
 16777215
 74
     2
 91
        2
 64
     7
 65
   257
 75
     1
175
     1
 42
40.0
 92
        8
 66
     7
 43
1.0
 76
     1
 77
     6
 78
     2
 67
     7
 79
     3
170
     0
171
     0
290
     0
174
     0
 93
        1
 44
0.0
173
     0
291
     0
 45
0.0
1001
ACAD
1000
AcDbSavedByObjectVersion
1070
     0
  0
VISUALSTYLE
  5
35
102
{ACAD_REACTORS
330
2A
102
}
330
2A
100
AcDbVisualStyle
  2
Dim
 70
    11
 71
     2
 72
     2
 73
     0
 90
        0
 40
-0.6
 41
-30.0
 62
     5
 63
     7
421
 16777215
 74
     1
 91
        4
 64
     7
 65
   257
 75
     1
175
     1
 42
1.0
 92
        8
 66
     7
 43
1.0
 76
     1
 77
     6
 78
     2
 67
     7
 79
     5
170
     0
171
     0
290
     0
174
     0
 93
        1
 44
-50.0
173
     0
291
     1
 45
0.0
1001
ACAD
1000
AcDbSavedByObjectVersion
1070
     0
  0
VISUALSTYLE
  5
39
102
{ACAD_REACTORS
330
2A
102
}
330
2A
100
AcDbVisualStyle
  2
Facepattern
 70
    15
 71
     2
 72
     2
 73
     0
 90
        0
 40
-0.6
 41
-30.0
 62
     5
 63
     7
421
 16777215
 74
     1
 91
        4
 64
     7
 65
   257
 75
     1
175
     1
 42
1.0
 92
        8
 66
     7
 43
1.0
 76
     1
 77
     6
 78
     2
 67
     7
 79
     5
170
     0
171
     0
290
     0
174
     0
 93
        1
 44
0.0
173
     0
291
     1
 45
0.0
1001
ACAD
1000
AcDbSavedByObjectVersion
1070
     0
  0
VISUALSTYLE
  5
2B
102
{ACAD_REACTORS
330
2A
102
}
330
2A
100
AcDbVisualStyle
  2
Flat
 70
     0
 71
     2
 72
     1
 73
     1
 90
        2
 40
-0.6
 41
30.0
 62
     5
 63
     7
421
 16777215
 74
     0
 91
        4
 64
     7
 65
   257
 75
     1
175
     1
 42
1.0
 92
        8
 66
     7
 43
1.0
 76
     1
 77
     6
 78
     2
 67
     7
 79
     5
170
     0
171
     0
290
     0
174
     0
 93
       13
 44
0.0
173
     0
291
     1
 45
0.0
1001
ACAD
1000
AcDbSavedByObjectVersion
1070
     0
  0
VISUALSTYLE
  5
2C
102
{ACAD_REACTORS
330
2A
102
}
330
2A
100
AcDbVisualStyle
  2
FlatWithEdges
 70
     1
 71
     2
 72
     1
 73
     1
 90
        2
 40
-0.6
 41
30.0
 62
     5
 63
     7
421
 16777215
 74
     1
 91
        4
 64
     7
 65
   257
 75
     1
175
     1
 42
1.0
 92
        0
 66
   257
 43
1.0
 76
     1
 77
     6
 78
     2
 67
     7
 79
     5
170
     0
171
     0
290
     0
174
     0
 93
       13
 44
0.0
173
     0
291
     1
 45
0.0
1001
ACAD
1000
AcDbSavedByObjectVersion
1070
     0
  0
VISUALSTYLE
  5
2D
102
{ACAD_REACTORS
330
2A
102
}
330
2A
100
AcDbVisualStyle
  2
Gouraud
 70
     2
 71
     2
 72
     2
 73
     1
 90
        2
 40
-0.6
 41
30.0
 62
     5
 63
     7
421
 16777215
 74
     0
 91
        4
 64
     7
 65
   257
 75
     1
175
     1
 42
1.0
 92
        0
 66
     7
 43
1.0
 76
     1
 77
     6
 78
     2
 67
     7
 79
     5
170
     0
171
     0
290
     0
174
     0
 93
       13
 44
0.0
173
     0
291
     1
 45
0.0
1001
ACAD
1000
AcDbSavedByObjectVersion
1070
     0
  0
VISUALSTYLE
  5
2E
102
{ACAD_REACTORS
330
2A
102
}
330
2A
100
AcDbVisualStyle
  2
GouraudWithEdges
 70
     3
 71
     2
 72
     2
 73
     1
 90
        2
 40
-0.6
 41
30.0
 62
     5
 63
     7
421
 16777215
 74
     1
 91
        4
 64
     7
 65
   257
 75
     1
175
     1
 42
1.0
 92
        0
 66
   257
 43
1.0
 76
     1
 77
     6
 78
     2
 67
     7
 79
     5
170
     0
171
     0
290
     0
174
     0
 93
       13
 44
0.0
173
     0
291
     1
 45
0.0
1001
ACAD
1000
AcDbSavedByObjectVersion
1070
     0
  0
VISUALSTYLE
  5
38
102
{ACAD_REACTORS
330
2A
102
}
330
2A
100
AcDbVisualStyle
  2
Linepattern
 70
    14
 71
     2
 72
     2
 73
     0
 90
        0
 40
-0.6
 41
-30.0
 62
     5
 63
     7
421
 16777215
 74
     1
 91
        4
 64
     7
 65
   257
 75
     7
175
     7
 42
1.0
 92
        8
 66
     7
 43
1.0
 76
     1
 77
     6
 78
     2
 67
     7
 79
     5
170
     0
171
     0
290
     0
174
     0
 93
        1
 44
0.0
173
     0
291
     1
 45
0.0
1001
ACAD
1000
AcDbSavedByObjectVersion
1070
     0
  0
VISUALSTYLE
  5
33
102
{ACAD_REACTORS
330
2A
102
}
330
2A
100
AcDbVisualStyle
  2
Realistic
 70
     8
 71
     2
 72
     2
 73
     0
 90
        0
 40
-0.6
 41
-30.0
 62
     5
 63
     7
421
 16777215
 74
     1
 91
        0
 64
     7
 65
   257
 75
     1
175
     1
 42
1.0
 92
        8
 66
     8
424
  7895160
 43
1.0
 76
     1
 77
     6
 78
     2
 67
     7
 79
     5
170
     0
171
     0
290
     0
174
     0
 93
       13
 44
0.0
173
     0
291
     0
 45
0.0
1001
ACAD
1000
AcDbSavedByObjectVersion
1070
     0
  0
VISUALSTYLE
  5
37
102
{ACAD_REACTORS
330
2A
102
}
330
2A
100
AcDbVisualStyle
  2
Thicken
 70
    13
 71
     2
 72
     2
 73
     0
 90
        0
 40
-0.6
 41
-30.0
 62
     5
 63
     7
421
 16777215
 74
     1
 91
        4
 64
     7
 65
   257
 75
     1
175
     1
 42
1.0
 92
       12
 66
     7
 43
1.0
 76
     1
 77
     6
 78
     2
 67
     7
 79
     5
170
     0
171
     0
290
     0
174
     0
 93
        1
 44
0.0
173
     0
291
     1
 45
0.0
1001
ACAD
1000
AcDbSavedByObjectVersion
1070
     0
  0
ENDSEC
  0
EOF
