  0
SECTION
  2
HEADER
  9
$ACADVER
  1
AC1018
  9
$ACADMAINTVER
 70
     0
  9
$DWGCODEPAGE
  3
ANSI_932
  9
$INSBASE
 10
0.0
 20
0.0
 30
0.0
  9
$EXTMIN
 10
-2100.0
 20
-1485.0
 30
0.0
  9
$EXTMAX
 10
2100.0
 20
1485.0
 30
0.0
  9
$LIMMIN
 10
-2100.0
 20
-1485.0
  9
$LIMMAX
 10
2100.0
 20
1485.0
  9
$ORTHOMODE
 70
     0
  9
$REGENMODE
 70
     1
  9
$FILLMODE
 70
     1
  9
$QTEXTMODE
 70
     0
  9
$MIRRTEXT
 70
     1
  9
$LTSCALE
 40
10.0
  9
$ATTMODE
 70
     1
  9
$TEXTSIZE
 40
2.5
  9
$TRACEWID
 40
1.0
  9
$TEXTSTYLE
  7
Standard
  9
$CLAYER
  8
0
  9
$CELTYPE
  6
ByLayer
  9
$CECOLOR
 62
   256
  9
$CELTSCALE
 40
1.0
  9
$DISPSILH
 70
     0
  9
$DIMSCALE
 40
1.0
  9
$DIMASZ
 40
2.5
  9
$DIMEXO
 40
0.625
  9
$DIMDLI
 40
3.75
  9
$DIMRND
 40
0.0
  9
$DIMDLE
 40
0.0
  9
$DIMEXE
 40
1.25
  9
$DIMTP
 40
0.0
  9
$DIMTM
 40
0.0
  9
$DIMTXT
 40
2.5
  9
$DIMCEN
 40
2.5
  9
$DIMTSZ
 40
0.0
  9
$DIMTOL
 70
     0
  9
$DIMLIM
 70
     0
  9
$DIMTIH
 70
     0
  9
$DIMTOH
 70
     0
  9
$DIMSE1
 70
     0
  9
$DIMSE2
 70
     0
  9
$DIMTAD
 70
     1
  9
$DIMZIN
 70
     8
  9
$DIMBLK
  1

  9
$DIMASO
 70
     1
  9
$DIMSHO
 70
     1
  9
$DIMPOST
  1

  9
$DIMAPOST
  1

  9
$DIMALT
 70
     0
  9
$DIMALTD
 70
     3
  9
$DIMALTF
 40
0.03937007874016
  9
$DIMLFAC
 40
1.0
  9
$DIMTOFL
 70
     1
  9
$DIMTVP
 40
0.0
  9
$DIMTIX
 70
     0
  9
$DIMSOXD
 70
     0
  9
$DIMSAH
 70
     0
  9
$DIMBLK1
  1

  9
$DIMBLK2
  1

  9
$DIMSTYLE
  2
ISO-25
  9
$DIMCLRD
 70
     0
  9
$DIMCLRE
 70
     0
  9
$DIMCLRT
 70
     0
  9
$DIMTFAC
 40
1.0
  9
$DIMGAP
 40
0.625
  9
$DIMJUST
 70
     0
  9
$DIMSD1
 70
     0
  9
$DIMSD2
 70
     0
  9
$DIMTOLJ
 70
     0
  9
$DIMTZIN
 70
     8
  9
$DIMALTZ
 70
     0
  9
$DIMALTTZ
 70
     0
  9
$DIMUPT
 70
     0
  9
$DIMDEC
 70
     2
  9
$DIMTDEC
 70
     2
  9
$DIMALTU
 70
     2
  9
$DIMALTTD
 70
     3
  9
$DIMTXSTY
  7
Standard
  9
$DIMAUNIT
 70
     0
  9
$DIMADEC
 70
     0
  9
$DIMALTRND
 40
0.0
  9
$DIMAZIN
 70
     0
  9
$DIMDSEP
 70
    44
  9
$DIMATFIT
 70
     3
  9
$DIMFRAC
 70
     0
  9
$DIMLDRBLK
  1

  9
$DIMLUNIT
 70
     2
  9
$DIMLWD
 70
    -2
  9
$DIMLWE
 70
    -2
  9
$DIMTMOVE
 70
     0
  9
$LUNITS
 70
     2
  9
$LUPREC
 70
     4
  9
$SKETCHINC
 40
1.0
  9
$FILLETRAD
 40
10.0
  9
$AUNITS
 70
     0
  9
$AUPREC
 70
     0
  9
$MENU
  1
.
  9
$ELEVATION
 40
0.0
  9
$PELEVATION
 40
0.0
  9
$THICKNESS
 40
0.0
  9
$LIMCHECK
 70
     0
  9
$CHAMFERA
 40
10.0
  9
$CHAMFERB
 40
10.0
  9
$CHAMFERC
 40
20.0
  9
$CHAMFERD
 40
0.0
  9
$SKPOLY
 70
     0
  9
$TDCREATE
 40
2456498.819356574
  9
$TDUCREATE
 40
2456498.444356574
  9
$TDUPDATE
 40
2456498.819356586
  9
$TDUUPDATE
 40
2456498.444356586
  9
$TDINDWG
 40
0.0000000116
  9
$TDUSRTIMER
 40
0.0000000116
  9
$USRTIMER
 70
     1
  9
$ANGBASE
 50
0.0
  9
$ANGDIR
 70
     0
  9
$PDMODE
 70
     0
  9
$PDSIZE
 40
0.0
  9
$PLINEWID
 40
0.0
  9
$SPLFRAME
 70
     0
  9
$SPLINETYPE
 70
     6
  9
$SPLINESEGS
 70
     8
  9
$HANDSEED
  5
37F
  9
$SURFTAB1
 70
     6
  9
$SURFTAB2
 70
     6
  9
$SURFTYPE
 70
     6
  9
$SURFU
 70
     6
  9
$SURFV
 70
     6
  9
$UCSBASE
  2

  9
$UCSNAME
  2

  9
$UCSORG
 10
0.0
 20
0.0
 30
0.0
  9
$UCSXDIR
 10
1.0
 20
0.0
 30
0.0
  9
$UCSYDIR
 10
0.0
 20
1.0
 30
0.0
  9
$UCSORTHOREF
  2

  9
$UCSORTHOVIEW
 70
     0
  9
$UCSORGTOP
 10
0.0
 20
0.0
 30
0.0
  9
$UCSORGBOTTOM
 10
0.0
 20
0.0
 30
0.0
  9
$UCSORGLEFT
 10
0.0
 20
0.0
 30
0.0
  9
$UCSORGRIGHT
 10
0.0
 20
0.0
 30
0.0
  9
$UCSORGFRONT
 10
0.0
 20
0.0
 30
0.0
  9
$UCSORGBACK
 10
0.0
 20
0.0
 30
0.0
  9
$PUCSBASE
  2

  9
$PUCSNAME
  2

  9
$PUCSORG
 10
0.0
 20
0.0
 30
0.0
  9
$PUCSXDIR
 10
1.0
 20
0.0
 30
0.0
  9
$PUCSYDIR
 10
0.0
 20
1.0
 30
0.0
  9
$PUCSORTHOREF
  2

  9
$PUCSORTHOVIEW
 70
     0
  9
$PUCSORGTOP
 10
0.0
 20
0.0
 30
0.0
  9
$PUCSORGBOTTOM
 10
0.0
 20
0.0
 30
0.0
  9
$PUCSORGLEFT
 10
0.0
 20
0.0
 30
0.0
  9
$PUCSORGRIGHT
 10
0.0
 20
0.0
 30
0.0
  9
$PUCSORGFRONT
 10
0.0
 20
0.0
 30
0.0
  9
$PUCSORGBACK
 10
0.0
 20
0.0
 30
0.0
  9
$USERI1
 70
     0
  9
$USERI2
 70
     0
  9
$USERI3
 70
     0
  9
$USERI4
 70
     0
  9
$USERI5
 70
     0
  9
$USERR1
 40
0.0
  9
$USERR2
 40
0.0
  9
$USERR3
 40
0.0
  9
$USERR4
 40
0.0
  9
$USERR5
 40
0.0
  9
$WORLDVIEW
 70
     1
  9
$SHADEDGE
 70
     3
  9
$SHADEDIF
 70
    70
  9
$TILEMODE
 70
     1
  9
$MAXACTVP
 70
    64
  9
$PINSBASE
 10
0.0
 20
0.0
 30
0.0
  9
$PLIMCHECK
 70
     0
  9
$PEXTMIN
 10
1.000000000000000E+20
 20
1.000000000000000E+20
 30
1.000000000000000E+20
  9
$PEXTMAX
 10
-1.000000000000000E+20
 20
-1.000000000000000E+20
 30
-1.000000000000000E+20
  9
$PLIMMIN
 10
0.0
 20
0.0
  9
$PLIMMAX
 10
420.0
 20
297.0
  9
$UNITMODE
 70
     0
  9
$VISRETAIN
 70
     1
  9
$PLINEGEN
 70
     0
  9
$PSLTSCALE
 70
     1
  9
$TREEDEPTH
 70
  3020
  9
$CMLSTYLE
  2
Standard
  9
$CMLJUST
 70
     0
  9
$CMLSCALE
 40
20.0
  9
$PROXYGRAPHICS
 70
     1
  9
$MEASUREMENT
 70
     1
  9
$CELWEIGHT
370
    -1
  9
$ENDCAPS
280
     0
  9
$JOINSTYLE
280
     0
  9
$LWDISPLAY
290
     0
  9
$INSUNITS
 70
     4
  9
$HYPERLINKBASE
  1

  9
$STYLESHEET
  1

  9
$XEDIT
290
     1
  9
$CEPSNTYPE
380
     0
  9
$PSTYLEMODE
290
     1
  9
$FINGERPRINTGUID
  2
{C1AE77D1-341C-4098-A383-46CDDCB11727}
  9
$VERSIONGUID
  2
{FAEB1C32-E019-11D5-929B-00C0DF256EC4}
  9
$EXTNAMES
290
     1
  9
$PSVPSCALE
 40
0.0
  9
$OLESTARTUP
290
     0
  9
$SORTENTS
280
   127
  9
$INDEXCTL
280
     0
  9
$HIDETEXT
280
     1
  9
$XCLIPFRAME
290
     0
  9
$HALOGAP
280
     0
  9
$OBSCOLOR
 70
   257
  9
$OBSLTYPE
280
     0
  9
$INTERSECTIONDISPLAY
280
     0
  9
$INTERSECTIONCOLOR
 70
   257
  9
$DIMASSOC
280
     2
  9
$PROJECTNAME
  1

  0
ENDSEC
  0
SECTION
  2
CLASSES
  0
CLASS
  1
ACDBDICTIONARYWDFLT
  2
AcDbDictionaryWithDefault
  3
ObjectDBX Classes
 90
        0
 91
        4
280
     0
281
     0
  0
CLASS
  1
VISUALSTYLE
  2
AcDbVisualStyle
  3
ObjectDBX Classes
 90
     4095
 91
        4
280
     0
281
     0
  0
ENDSEC
  0
SECTION
  2
TABLES
  0
TABLE
  2
VPORT
  5
8
330
0
100
AcDbSymbolTable
 70
     1
  0
VPORT
  5
29
330
8
100
AcDbSymbolTableRecord
100
AcDbViewportTableRecord
  2
*Active
 70
     0
 10
0.0
 20
0.0
 11
1.0
 21
1.0
 12
0.0
 22
0.0
 13
0.0
 23
0.0
 14
10.0
 24
10.0
 15
10.0
 25
10.0
 16
0.0
 26
0.0
 36
1.0
 17
0.0
 27
0.0
 37
0.0
 40
3267.0
 41
1.414141414141414
 42
50.0
 43
0.0
 44
0.0
 50
0.0
 51
0.0
 71
     0
 72
 10000
 73
     1
 74
     3
 75
     0
 76
     0
 77
     0
 78
     0
281
     0
 65
     1
110
0.0
120
0.0
130
0.0
111
1.0
121
0.0
131
0.0
112
0.0
122
1.0
132
0.0
 79
     0
146
0.0
  0
ENDTAB
  0
TABLE
  2
LTYPE
  5
5
330
0
100
AcDbSymbolTable
 70
     4
  0
LTYPE
  5
14
330
5
100
AcDbSymbolTableRecord
100
AcDbLinetypeTableRecord
  2
ByBlock
 70
     0
  3

 72
    65
 73
     0
 40
0.0
  0
LTYPE
  5
15
330
5
100
AcDbSymbolTableRecord
100
AcDbLinetypeTableRecord
  2
ByLayer
 70
     0
  3

 72
    65
 73
     0
 40
0.0
  0
LTYPE
  5
16
330
5
100
AcDbSymbolTableRecord
100
AcDbLinetypeTableRecord
  2
Continuous
 70
     0
  3
Solid line
 72
    65
 73
     0
 40
0.0
  0
LTYPE
  5
3C
330
5
100
AcDbSymbolTableRecord
100
AcDbLinetypeTableRecord
  2
JWW_CENTER1
 70
     0
  3
-----  --  ----------  --  -----
 72
    65
 73
     4
 40
6.773333333333333
 49
4.233333333333333
 74
     0
 49
-0.8466666666666667
 74
     0
 49
0.8466666666666667
 74
     0
 49
-0.8466666666666667
 74
     0
  0
LTYPE
  5
3D
330
5
100
AcDbSymbolTableRecord
100
AcDbLinetypeTableRecord
  2
JWW_DASHED1
 70
     0
  3
-  --  --  --  --  --  --  --  -
 72
    65
 73
     2
 40
1.693333333333333
 49
0.8466666666666667
 74
     0
 49
-0.8466666666666667
 74
     0
  0
LTYPE
  5
3E
330
5
100
AcDbSymbolTableRecord
100
AcDbLinetypeTableRecord
  2
JWW_PHANTOM1
 70
     0
  3
----  -  -  --------  -  -  ----
 72
    65
 73
     6
 40
6.773333333333333
 49
3.386666666666667
 74
     0
 49
-0.8466666666666667
 74
     0
 49
0.4233333333333333
 74
     0
 49
-0.8466666666666667
 74
     0
 49
0.4233333333333333
 74
     0
 49
-0.8466666666666667
 74
     0
  0
ENDTAB
  0
TABLE
  2
LAYER
  5
2
330
0
100
AcDbSymbolTable
 70
     9
  0
LAYER
  5
10
330
2
100
AcDbSymbolTableRecord
100
AcDbLayerTableRecord
  2
0
 70
     0
 62
     7
  6
Continuous
370
    -3
390
F
  0
LAYER
  5
3F
330
2
100
AcDbSymbolTableRecord
100
AcDbLayerTableRecord
  2
0-0_通り芯
 70
     0
 62
     7
  6
Continuous
370
    -3
390
F
  0
LAYER
  5
40
330
2
100
AcDbSymbolTableRecord
100
AcDbLayerTableRecord
  2
0-A
 70
     0
 62
     7
  6
Continuous
370
    -3
390
F
  0
LAYER
  5
41
330
2
100
AcDbSymbolTableRecord
100
AcDbLayerTableRecord
  2
0-1_ピット
 70
     0
 62
     7
  6
Continuous
370
    -3
390
F
  0
LAYER
  5
42
330
2
100
AcDbSymbolTableRecord
100
AcDbLayerTableRecord
  2
0-2_本体（蓋）
 70
     0
 62
     7
  6
Continuous
370
    -3
390
F
  0
LAYER
  5
43
330
2
100
AcDbSymbolTableRecord
100
AcDbLayerTableRecord
  2
0-6
 70
     0
 62
     7
  6
Continuous
370
    -3
390
F
  0
LAYER
  5
44
330
2
100
AcDbSymbolTableRecord
100
AcDbLayerTableRecord
  2
0-4_寸法
 70
     0
 62
     7
  6
Continuous
370
    -3
390
F
  0
LAYER
  5
45
330
2
100
AcDbSymbolTableRecord
100
AcDbLayerTableRecord
  2
0-5_文字
 70
     0
 62
     7
  6
Continuous
370
    -3
390
F
  0
LAYER
  5
46
330
2
100
AcDbSymbolTableRecord
100
AcDbLayerTableRecord
  2
0-3_受枠
 70
     0
 62
     7
  6
Continuous
370
    -3
390
F
  0
ENDTAB
  0
TABLE
  2
STYLE
  5
3
330
0
100
AcDbSymbolTable
 70
     2
  0
STYLE
  5
11
330
3
100
AcDbSymbolTableRecord
100
AcDbTextStyleTableRecord
  2
Standard
 70
     0
 40
0.0
 41
1.0
 50
0.0
 71
     0
 42
2.5
  3
txt
  4

1001
ACAD
1000

1071
        0
  0
STYLE
  5
3B
330
3
100
AcDbSymbolTableRecord
100
AcDbTextStyleTableRecord
  2
ＭＳ ゴシック
 70
     0
 40
1.0
 41
1.0
 50
0.0
 71
     0
 42
10.0
  3

  4

1001
ACAD
1000
MS Gothic
1071
    32817
  0
ENDTAB
  0
TABLE
  2
VIEW
  5
6
330
0
100
AcDbSymbolTable
 70
     0
  0
ENDTAB
  0
TABLE
  2
UCS
  5
7
330
0
100
AcDbSymbolTable
 70
     0
  0
ENDTAB
  0
TABLE
  2
APPID
  5
9
330
0
100
AcDbSymbolTable
 70
     1
  0
APPID
  5
12
330
9
100
AcDbSymbolTableRecord
100
AcDbRegAppTableRecord
  2
ACAD
 70
     0
  0
ENDTAB
  0
TABLE
  2
DIMSTYLE
  5
A
330
0
100
AcDbSymbolTable
 70
     1
100
AcDbDimStyleTable
  0
DIMSTYLE
105
27
330
A
100
AcDbSymbolTableRecord
100
AcDbDimStyleTableRecord
  2
ISO-25
 70
     0
 41
2.5
 42
0.625
 43
3.75
 44
1.25
 73
     0
 74
     0
 77
     1
 78
     8
140
2.5
141
2.5
143
0.03937007874016
147
0.625
171
     3
172
     1
271
     2
272
     2
274
     3
278
    44
283
     0
284
     8
340
11
  0
ENDTAB
  0
TABLE
  2
BLOCK_RECORD
  5
1
330
0
100
AcDbSymbolTable
 70
     1
  0
BLOCK_RECORD
  5
1F
330
1
100
AcDbSymbolTableRecord
100
AcDbBlockTableRecord
  2
*Model_Space
340
22
  0
BLOCK_RECORD
  5
1B
330
1
100
AcDbSymbolTableRecord
100
AcDbBlockTableRecord
  2
*Paper_Space
340
1E
  0
BLOCK_RECORD
  5
23
330
1
100
AcDbSymbolTableRecord
100
AcDbBlockTableRecord
  2
*Paper_Space0
340
26
  0
ENDTAB
  0
ENDSEC
  0
SECTION
  2
BLOCKS
  0
BLOCK
  5
20
330
1F
100
AcDbEntity
  8
0
100
AcDbBlockBegin
  2
*Model_Space
 70
     0
 10
0.0
 20
0.0
 30
0.0
  3
*Model_Space
  1

  0
ENDBLK
  5
21
330
1F
100
AcDbEntity
  8
0
100
AcDbBlockEnd
  0
BLOCK
  5
1C
330
1B
100
AcDbEntity
 67
     1
  8
0
100
AcDbBlockBegin
  2
*Paper_Space
 70
     0
 10
0.0
 20
0.0
 30
0.0
  3
*Paper_Space
  1

  0
ENDBLK
  5
1D
330
1B
100
AcDbEntity
 67
     1
  8
0
100
AcDbBlockEnd
  0
BLOCK
  5
24
330
23
100
AcDbEntity
  8
0
100
AcDbBlockBegin
  2
*Paper_Space0
 70
     0
 10
0.0
 20
0.0
 30
0.0
  3
*Paper_Space0
  1

  0
ENDBLK
  5
25
330
23
100
AcDbEntity
  8
0
100
AcDbBlockEnd
  0
ENDSEC
  0
SECTION
  2
ENTITIES
  0
LINE
  5
47
330
1F
100
AcDbEntity
  8
0-0_通り芯
  6
Continuous
 62
     3
370
    13
100
AcDbLine
 10
-392.794944525063
 20
-178.5546031744194
 30
0.0
 11
-378.6677884994086
 21
-293.6096137601306
 31
0.0
  0
LINE
  5
48
330
1F
100
AcDbEntity
  8
0-0_通り芯
  6
JWW_CENTER1
 62
     3
370
    13
100
AcDbLine
 10
-645.5158867829771
 20
830.0990094917343
 30
0.0
 11
449.7727314447128
 21
830.0990094917338
 31
0.0
  0
LINE
  5
49
330
1F
100
AcDbEntity
  8
0-A
  6
Continuous
 62
     4
370
    13
100
AcDbLine
 10
-108.7950671256035
 20
1116.13393715447
 30
0.0
 11
-103.7953228134202
 21
1116.13393715447
 31
0.0
  0
LINE
  5
4A
330
1F
100
AcDbEntity
  8
0-1_ピット
  6
Continuous
 62
     2
370
    13
100
AcDbLine
 10
-374.2367139224596
 20
1059.148680326073
 30
0.0
 11
-384.8741625021079
 21
1069.786566343979
 31
0.0
  0
LINE
  5
4B
330
1F
100
AcDbEntity
  8
0-1_ピット
  6
Continuous
 62
     2
370
    13
100
AcDbLine
 10
-363.9793117012513
 20
1059.498280981765
 30
0.0
 11
-383.4551127935684
 21
1078.974257049385
 31
0.0
  0
LINE
  5
4C
330
1F
100
AcDbEntity
  8
0-1_ピット
  6
Continuous
 62
     2
370
    13
100
AcDbLine
 10
-438.6290252837653
 20
947.6178473210882
 30
0.0
 11
-453.1601992843911
 21
951.5113102791112
 31
0.0
  0
LINE
  5
4D
330
1F
100
AcDbEntity
  8
0-1_ピット
  6
Continuous
 62
     2
370
    13
100
AcDbLine
 10
-433.803031447609
 20
938.5600757782704
 30
0.0
 11
-460.4075013655249
 21
945.688569628566
 31
0.0
  0
LINE
  5
4E
330
1F
100
AcDbEntity
  8
0-1_ピット
  6
Continuous
 62
     2
370
    13
100
AcDbLine
 10
-460.4075013655249
 20
945.688569628566
 30
0.0
 11
-453.1601992843911
 21
951.5113102791112
 31
0.0
  0
LINE
  5
4F
330
1F
100
AcDbEntity
  8
0-1_ピット
  6
Continuous
 62
     2
370
    13
100
AcDbLine
 10
-438.6290252837653
 20
947.6178473210882
 30
0.0
 11
-433.803031447609
 21
938.5600757782704
 31
0.0
  0
LINE
  5
50
330
1F
100
AcDbEntity
  8
0-1_ピット
  6
Continuous
 62
     2
370
    13
100
AcDbLine
 10
-374.2367139224596
 20
1059.148680326073
 30
0.0
 11
-363.9793117012513
 21
1059.498280981765
 31
0.0
  0
LINE
  5
51
330
1F
100
AcDbEntity
  8
0-1_ピット
  6
Continuous
 62
     2
370
    13
100
AcDbLine
 10
-383.4551127935684
 20
1078.974257049385
 30
0.0
 11
-384.8741625021079
 21
1069.786566343979
 31
0.0
  0
LINE
  5
52
330
1F
100
AcDbEntity
  8
0-1_ピット
  6
Continuous
 62
     2
370
    13
100
AcDbLine
 10
-223.8142952618207
 20
1162.432314880078
 30
0.0
 11
-227.7076707321921
 21
1176.963751343658
 31
0.0
  0
LINE
  5
53
330
1F
100
AcDbEntity
  8
0-1_ピット
  6
Continuous
 62
     2
370
    13
100
AcDbLine
 10
-214.7565237190028
 20
1157.606496019225
 30
0.0
 11
-221.8850175692984
 21
1184.210878449489
 31
0.0
  0
LINE
  5
54
330
1F
100
AcDbEntity
  8
0-1_ピット
  6
Continuous
 62
     2
370
    13
100
AcDbLine
 10
-335.3456531927147
 20
1098.039916031121
 30
0.0
 11
-345.983101772363
 21
1108.677277123118
 31
0.0
  0
LINE
  5
55
330
1F
100
AcDbEntity
  8
0-1_ピット
  6
Continuous
 62
     2
370
    13
100
AcDbLine
 10
-335.6949038978005
 20
1087.782601297564
 30
0.0
 11
-355.1707049901177
 21
1107.258489877533
 31
0.0
  0
LINE
  5
56
330
1F
100
AcDbEntity
  8
0-1_ピット
  6
Continuous
 62
     2
370
    13
100
AcDbLine
 10
-355.1707049901177
 20
1107.258489877533
 30
0.0
 11
-345.983101772363
 21
1108.677277123118
 31
0.0
  0
LINE
  5
57
330
1F
100
AcDbEntity
  8
0-1_ピット
  6
Continuous
 62
     2
370
    13
100
AcDbLine
 10
-335.3456531927147
 20
1098.039916031121
 30
0.0
 11
-335.6949038978005
 21
1087.782601297564
 31
0.0
  0
LINE
  5
58
330
1F
100
AcDbEntity
  8
0-1_ピット
  6
Continuous
 62
     2
370
    13
100
AcDbLine
 10
-223.8142952618207
 20
1162.432314880078
 30
0.0
 11
-214.7565237190028
 21
1157.606496019225
 31
0.0
  0
LINE
  5
59
330
1F
100
AcDbEntity
  8
0-1_ピット
  6
Continuous
 62
     2
370
    13
100
AcDbLine
 10
-221.8850175692984
 20
1184.210878449489
 30
0.0
 11
-227.7076707321921
 21
1176.963751343658
 31
0.0
  0
LINE
  5
5A
330
1F
100
AcDbEntity
  8
0-1_ピット
  6
Continuous
 62
     2
370
    13
100
AcDbLine
 10
-41.90297109585778
 20
1176.667518155427
 30
0.0
 11
-38.00942065018353
 21
1191.199217081962
 31
0.0
  0
LINE
  5
5B
330
1F
100
AcDbEntity
  8
0-1_ピット
  6
Continuous
 62
     2
370
    13
100
AcDbLine
 10
-36.47138773550246
 20
1167.959347268301
 30
0.0
 11
-29.34289388520689
 21
1194.563817186217
 31
0.0
  0
LINE
  5
5C
330
1F
100
AcDbEntity
  8
0-1_ピット
  6
Continuous
 62
     2
370
    13
100
AcDbLine
 10
-170.6879437690753
 20
1176.667518155427
 30
0.0
 11
-174.581844165356
 21
1191.198867131356
 31
0.0
  0
LINE
  5
5D
330
1F
100
AcDbEntity
  8
0-1_ピット
  6
Continuous
 62
     2
370
    13
100
AcDbLine
 10
-176.1195271294306
 20
1167.959347268301
 30
0.0
 11
-183.2480209797262
 21
1194.563817186217
 31
0.0
  0
LINE
  5
5E
330
1F
100
AcDbEntity
  8
0-1_ピット
  6
Continuous
 62
     2
370
    13
100
AcDbLine
 10
-183.2480209797262
 20
1194.563817186217
 30
0.0
 11
-174.581844165356
 21
1191.198867131356
 31
0.0
  0
LINE
  5
5F
330
1F
100
AcDbEntity
  8
0-1_ピット
  6
Continuous
 62
     2
370
    13
100
AcDbLine
 10
-170.6879437690753
 20
1176.667518155427
 30
0.0
 11
-176.1195271294306
 21
1167.959347268301
 31
0.0
  0
LINE
  5
60
330
1F
100
AcDbEntity
  8
0-1_ピット
  6
Continuous
 62
     2
370
    13
100
AcDbLine
 10
-41.90297109585778
 20
1176.667518155427
 30
0.0
 11
-36.47138773550246
 21
1167.959347268301
 31
0.0
  0
LINE
  5
61
330
1F
100
AcDbEntity
  8
0-1_ピット
  6
Continuous
 62
     2
370
    13
100
AcDbLine
 10
-29.34289388520689
 20
1194.563817186217
 30
0.0
 11
-38.00942065018353
 21
1191.199217081962
 31
0.0
  0
LINE
  5
62
330
1F
100
AcDbEntity
  8
0-1_ピット
  6
Continuous
 62
     2
370
    13
100
AcDbLine
 10
122.7543883771755
 20
1098.039916031121
 30
0.0
 11
133.3921869074299
 21
1108.677714561376
 31
0.0
  0
LINE
  5
63
330
1F
100
AcDbEntity
  8
0-1_ピット
  6
Continuous
 62
     2
370
    13
100
AcDbLine
 10
123.1039890328673
 20
1087.782601297564
 30
0.0
 11
142.5797901251846
 21
1107.258839828139
 31
0.0
  0
LINE
  5
64
330
1F
100
AcDbEntity
  8
0-1_ピット
  6
Continuous
 62
     2
370
    13
100
AcDbLine
 10
11.22338039688763
 20
1162.432314880078
 30
0.0
 11
15.11675586725907
 21
1176.964101294265
 31
0.0
  0
LINE
  5
65
330
1F
100
AcDbEntity
  8
0-1_ピット
  6
Continuous
 62
     2
370
    13
100
AcDbLine
 10
2.165608854069703
 20
1157.606496019225
 30
0.0
 11
9.29410270436527
 21
1184.210878449489
 31
0.0
  0
LINE
  5
66
330
1F
100
AcDbEntity
  8
0-1_ピット
  6
Continuous
 62
     2
370
    13
100
AcDbLine
 10
9.29410270436527
 20
1184.210878449489
 30
0.0
 11
15.11675586725907
 21
1176.964101294265
 31
0.0
  0
LINE
  5
67
330
1F
100
AcDbEntity
  8
0-1_ピット
  6
Continuous
 62
     2
370
    13
100
AcDbLine
 10
11.22338039688763
 20
1162.432314880078
 30
0.0
 11
2.165608854069703
 21
1157.606496019225
 31
0.0
  0
LINE
  5
68
330
1F
100
AcDbEntity
  8
0-1_ピット
  6
Continuous
 62
     2
370
    13
100
AcDbLine
 10
122.7543883771755
 20
1098.039916031121
 30
0.0
 11
123.1039890328673
 21
1087.782601297564
 31
0.0
  0
LINE
  5
69
330
1F
100
AcDbEntity
  8
0-1_ピット
  6
Continuous
 62
     2
370
    13
100
AcDbLine
 10
142.5797901251846
 20
1107.258839828139
 30
0.0
 11
133.3921869074299
 21
1108.677714561376
 31
0.0
  0
LINE
  5
6A
330
1F
100
AcDbEntity
  8
0-1_ピット
  6
Continuous
 62
     2
370
    13
100
AcDbLine
 10
226.0381104188319
 20
947.6178473210882
 30
0.0
 11
240.5694593947611
 21
951.5113102791112
 31
0.0
  0
LINE
  5
6B
330
1F
100
AcDbEntity
  8
0-1_ピット
  6
Continuous
 62
     2
370
    13
100
AcDbLine
 10
221.2122915579788
 20
938.5600757782704
 30
0.0
 11
247.8165865005916
 21
945.688569628566
 31
0.0
  0
LINE
  5
6C
330
1F
100
AcDbEntity
  8
0-1_ピット
  6
Continuous
 62
     2
370
    13
100
AcDbLine
 10
161.6454491069202
 20
1059.149117764331
 30
0.0
 11
172.2828976865684
 21
1069.786566343979
 31
0.0
  0
LINE
  5
6D
330
1F
100
AcDbEntity
  8
0-1_ピット
  6
Continuous
 62
     2
370
    13
100
AcDbLine
 10
151.3880468857118
 20
1059.498280981765
 30
0.0
 11
170.863847978029
 21
1078.974257049385
 31
0.0
  0
LINE
  5
6E
330
1F
100
AcDbEntity
  8
0-1_ピット
  6
Continuous
 62
     2
370
    13
100
AcDbLine
 10
170.863847978029
 20
1078.974257049385
 30
0.0
 11
172.2828976865684
 21
1069.786566343979
 31
0.0
  0
LINE
  5
6F
330
1F
100
AcDbEntity
  8
0-1_ピット
  6
Continuous
 62
     2
370
    13
100
AcDbLine
 10
161.6454491069202
 20
1059.149117764331
 30
0.0
 11
151.3880468857118
 21
1059.498280981765
 31
0.0
  0
LINE
  5
70
330
1F
100
AcDbEntity
  8
0-1_ピット
  6
Continuous
 62
     2
370
    13
100
AcDbLine
 10
226.0381104188319
 20
947.6178473210882
 30
0.0
 11
221.2122915579788
 21
938.5600757782704
 31
0.0
  0
LINE
  5
71
330
1F
100
AcDbEntity
  8
0-1_ピット
  6
Continuous
 62
     2
370
    13
100
AcDbLine
 10
247.8165865005916
 20
945.688569628566
 30
0.0
 11
240.5694593947611
 21
951.5113102791112
 31
0.0
  0
LINE
  5
72
330
1F
100
AcDbEntity
  8
0-1_ピット
  6
Continuous
 62
     2
370
    13
100
AcDbLine
 10
240.2730512312264
 20
894.4914958283427
 30
0.0
 11
254.8044002071553
 21
898.3852212493205
 31
0.0
  0
LINE
  5
73
330
1F
100
AcDbEntity
  8
0-1_ピット
  6
Continuous
 62
     2
370
    13
100
AcDbLine
 10
231.5648803441003
 20
899.9230791886981
 30
0.0
 11
258.1691752867131
 21
907.0515730389936
 31
0.0
  0
LINE
  5
74
330
1F
100
AcDbEntity
  8
0-1_ピット
  6
Continuous
 62
     2
370
    13
100
AcDbLine
 10
258.1691752867131
 20
907.0515730389936
 30
0.0
 11
254.8044002071553
 21
898.3852212493205
 31
0.0
  0
LINE
  5
75
330
1F
100
AcDbEntity
  8
0-1_ピット
  6
Continuous
 62
     2
370
    13
100
AcDbLine
 10
240.2730512312264
 20
894.4914958283427
 30
0.0
 11
231.5648803441003
 21
899.9230791886981
 31
0.0
  0
LINE
  5
76
330
1F
100
AcDbEntity
  8
0-1_ピット
  6
Continuous
 62
     2
370
    13
100
AcDbLine
 10
-452.8639660961596
 20
894.4914958283427
 30
0.0
 11
-467.3953150720887
 21
898.3852212493205
 31
0.0
  0
LINE
  5
77
330
1F
100
AcDbEntity
  8
0-1_ピット
  6
Continuous
 62
     2
370
    13
100
AcDbLine
 10
-444.1557952090336
 20
899.9230791886981
 30
0.0
 11
-470.7602651269495
 21
907.0515730389936
 31
0.0
  0
LINE
  5
78
330
1F
100
AcDbEntity
  8
0-1_ピット
  6
Continuous
 62
     2
370
    13
100
AcDbLine
 10
-470.7602651269495
 20
907.0515730389936
 30
0.0
 11
-467.3953150720887
 21
898.3852212493205
 31
0.0
  0
LINE
  5
79
330
1F
100
AcDbEntity
  8
0-1_ピット
  6
Continuous
 62
     2
370
    13
100
AcDbLine
 10
-452.8639660961596
 20
894.4914958283427
 30
0.0
 11
-444.1557952090336
 21
899.9230791886981
 31
0.0
  0
LINE
  5
7A
330
1F
100
AcDbEntity
  8
0-1_ピット
  6
JWW_DASHED1
 62
     4
370
    13
100
AcDbLine
 10
-14.27279595088191
 20
1010.245532750135
 30
0.0
 11
14.18221277313952
 21
1026.673701499852
 31
0.0
  0
LINE
  5
7B
330
1F
100
AcDbEntity
  8
0-1_ピット
  6
JWW_DASHED1
 62
     4
370
    13
100
AcDbLine
 10
-11.77257384418379
 20
1005.915506410755
 30
0.0
 11
16.68208492923119
 21
1022.343762648124
 31
0.0
  0
LINE
  5
7C
330
1F
100
AcDbEntity
  8
0-1_ピット
  6
JWW_DASHED1
 62
     4
370
    13
100
AcDbLine
 10
-316.2957419882626
 20
830.0990094917341
 30
0.0
 11
-334.2728796091076
 21
840.4781070362827
 31
0.0
  0
LINE
  5
7D
330
1F
100
AcDbEntity
  8
0-1_ピット
  6
JWW_DASHED1
 62
     4
370
    13
100
AcDbLine
 10
-326.2954055879324
 20
830.0990094917341
 30
0.0
 11
-336.7727517651991
 21
836.1481681845544
 31
0.0
  0
LINE
  5
7E
330
1F
100
AcDbEntity
  8
0-1_ピット
  6
JWW_DASHED1
 62
     2
370
    13
100
AcDbLine
 10
-321.295661275749
 20
890.0990907933902
 30
0.0
 11
-330.9200028501638
 21
890.0990907933902
 31
0.0
  0
LINE
  5
7F
330
1F
100
AcDbEntity
  8
0-1_ピット
  6
JWW_DASHED1
 62
     2
370
    13
100
AcDbLine
 10
-321.295486300446
 20
895.0990100808767
 30
0.0
 11
-329.5245748075496
 21
895.0990100808767
 31
0.0
  0
LINE
  5
80
330
1F
100
AcDbEntity
  8
0-1_ピット
  6
JWW_DASHED1
 62
     2
370
    13
100
AcDbLine
 10
-55.08683526223544
 20
1048.794866712829
 30
0.0
 11
-50.97264095928986
 21
1055.921085884184
 31
0.0
  0
LINE
  5
81
330
1F
100
AcDbEntity
  8
0-1_ピット
  6
JWW_DASHED1
 62
     2
370
    13
100
AcDbLine
 10
53.16636036415947
 20
986.2945633044752
 30
0.0
 11
57.97870612667015
 21
994.6296868452872
 31
0.0
  0
LINE
  5
82
330
1F
100
AcDbEntity
  8
0-1_ピット
  6
JWW_DASHED1
 62
     2
370
    13
100
AcDbLine
 10
57.49664916649426
 20
983.7943411977776
 30
0.0
 11
61.61084346943984
 21
990.9210852950413
 31
0.0
  0
LINE
  5
83
330
1F
100
AcDbEntity
  8
0-1_ピット
  6
JWW_DASHED1
 62
     4
370
    13
100
AcDbLine
 10
36.93985065132173
 20
1013.238135359894
 30
0.0
 11
19.9408249750805
 21
983.7947786360354
 31
0.0
  0
LINE
  5
84
330
1F
100
AcDbEntity
  8
0-1_ピット
  6
JWW_DASHED1
 62
     4
370
    13
100
AcDbLine
 10
-36.29518760523136
 20
1016.294603955304
 30
0.0
 11
-19.31015995324211
 21
1045.713901574979
 31
0.0
  0
LINE
  5
85
330
1F
100
AcDbEntity
  8
0-1_ピット
  6
JWW_DASHED1
 62
     4
370
    13
100
AcDbLine
 10
-336.5162379707826
 20
862.5751256574256
 30
0.0
 11
-302.5180116429969
 21
862.5747757068191
 31
0.0
  0
LINE
  5
86
330
1F
100
AcDbEntity
  8
0-A
  6
Continuous
 62
     4
370
    13
100
AcDbLine
 10
-91.29526213174935
 20
1090.832683294408
 30
0.0
 11
-91.29526213174934
 21
1111.133755404028
 31
0.0
  0
LINE
  5
87
330
1F
100
AcDbEntity
  8
0-A
  6
Continuous
 62
     4
370
    13
100
AcDbLine
 10
-118.7952556511827
 20
1090.093675101558
 30
0.0
 11
-118.7952556511826
 21
1111.133755404028
 31
0.0
  0
LINE
  5
88
330
1F
100
AcDbEntity
  8
0-A
  6
Continuous
 62
     4
370
    13
100
AcDbLine
 10
-121.2954777578806
 20
1090.832420831453
 30
0.0
 11
-121.2954777578806
 21
1111.133755404028
 31
0.0
  0
LINE
  5
89
330
1F
100
AcDbEntity
  8
0-A
  6
Continuous
 62
     4
370
    13
100
AcDbLine
 10
-93.79513428784102
 20
1090.094025052164
 30
0.0
 11
-93.79513428784101
 21
1111.133755404028
 31
0.0
  0
LINE
  5
8A
330
1F
100
AcDbEntity
  8
0-1_ピット
  6
JWW_CENTER1
 62
     4
370
    13
100
AcDbLine
 10
-33.11098703852346
 20
1036.107145018531
 30
0.0
 11
36.07783482035746
 21
996.1605457725392
 31
0.0
  0
LINE
  5
8B
330
1F
100
AcDbEntity
  8
0-1_ピット
  6
JWW_CENTER1
 62
     4
370
    13
100
AcDbLine
 10
9.954634473753199
 20
1031.449914862262
 30
0.0
 11
-19.87191816400252
 21
979.788719070436
 31
0.0
  0
LINE
  5
8C
330
1F
100
AcDbEntity
  8
0-1_ピット
  6
JWW_CENTER1
 62
     4
370
    13
100
AcDbLine
 10
-321.295661275749
 20
830.0990094917341
 30
0.0
 11
-321.295486300446
 21
869.7793838139847
 31
0.0
  0
LINE
  5
8D
330
1F
100
AcDbEntity
  8
0-A
  6
Continuous
 62
     4
370
    13
100
AcDbLine
 10
-91.29526213174935
 20
1053.713597459654
 30
0.0
 11
-91.29526213174935
 21
1062.114686689754
 31
0.0
  0
LINE
  5
8E
330
1F
100
AcDbEntity
  8
0-A
  6
Continuous
 62
     4
370
    13
100
AcDbLine
 10
-93.79513428784102
 20
1053.097771880221
 30
0.0
 11
-93.79513428784102
 21
1062.262715796218
 31
0.0
  0
LINE
  5
8F
330
1F
100
AcDbEntity
  8
0-A
  6
Continuous
 62
     4
370
    13
100
AcDbLine
 10
-121.2954777578806
 20
1053.713509972003
 30
0.0
 11
-121.2954777578806
 21
1062.114686689754
 31
0.0
  0
LINE
  5
90
330
1F
100
AcDbEntity
  8
0-A
  6
Continuous
 62
     4
370
    13
100
AcDbLine
 10
-118.7952556511827
 20
1053.097509417267
 30
0.0
 11
-118.7952556511827
 21
1062.262715796218
 31
0.0
  0
LINE
  5
91
330
1F
100
AcDbEntity
  8
0-A
  6
Continuous
 62
     4
370
    13
100
AcDbLine
 10
-103.7953228134202
 20
1116.13393715447
 30
0.0
 11
-103.7953228134202
 21
1132.921592664506
 31
0.0
  0
LINE
  5
92
330
1F
100
AcDbEntity
  8
0-A
  6
Continuous
 62
     4
370
    13
100
AcDbLine
 10
-108.7950671256035
 20
1116.13393715447
 30
0.0
 11
-108.7950671256035
 21
1132.921592664506
 31
0.0
  0
LINE
  5
93
330
1F
100
AcDbEntity
  8
0-A
  6
JWW_CENTER1
 62
     4
370
    13
100
AcDbLine
 10
-423.7956689346007
 20
830.0989220040826
 30
0.0
 11
-423.7956689346007
 21
866.646363523448
 31
0.0
  0
LINE
  5
94
330
1F
100
AcDbEntity
  8
0-A
  6
JWW_CENTER1
 62
     4
370
    13
100
AcDbLine
 10
211.204229143758
 20
830.0989220040826
 30
0.0
 11
211.204229143758
 21
866.646363523448
 31
0.0
  0
LINE
  5
95
330
1F
100
AcDbEntity
  8
0-A
  6
Continuous
 62
     4
370
    13
100
AcDbLine
 10
214.2047056421594
 20
838.0995802529251
 30
0.0
 11
214.2047056421594
 21
843.8489187637992
 31
0.0
  0
LINE
  5
96
330
1F
100
AcDbEntity
  8
0-A
  6
Continuous
 62
     4
370
    13
100
AcDbLine
 10
208.2037526453568
 20
843.8489187637992
 30
0.0
 11
214.2047056421594
 21
843.8489187637992
 31
0.0
  0
LINE
  5
97
330
1F
100
AcDbEntity
  8
0-A
  6
Continuous
 62
     4
370
    13
100
AcDbLine
 10
208.2037526453568
 20
838.0995802529251
 30
0.0
 11
208.2037526453568
 21
843.8489187637992
 31
0.0
  0
LINE
  5
98
330
1F
100
AcDbEntity
  8
0-A
  6
Continuous
 62
     4
370
    13
100
AcDbLine
 10
236.0234260436435
 20
833.0994859901355
 30
0.0
 11
186.3850322438726
 21
833.0994859901355
 31
0.0
  0
LINE
  5
99
330
1F
100
AcDbEntity
  8
0-A
  6
Continuous
 62
     4
370
    13
100
AcDbLine
 10
-426.7964953836083
 20
838.0995802529251
 30
0.0
 11
-426.7964953836083
 21
843.8489187637992
 31
0.0
  0
LINE
  5
9A
330
1F
100
AcDbEntity
  8
0-A
  6
Continuous
 62
     4
370
    13
100
AcDbLine
 10
-420.7955423868057
 20
843.8489187637992
 30
0.0
 11
-426.7964953836083
 21
843.8489187637992
 31
0.0
  0
LINE
  5
9B
330
1F
100
AcDbEntity
  8
0-A
  6
Continuous
 62
     4
370
    13
100
AcDbLine
 10
-420.7955423868057
 20
838.0995802529251
 30
0.0
 11
-420.7955423868057
 21
843.8489187637992
 31
0.0
  0
LINE
  5
9C
330
1F
100
AcDbEntity
  8
0-A
  6
Continuous
 62
     4
370
    13
100
AcDbLine
 10
-448.6152157850924
 20
833.0994859901355
 30
0.0
 11
-398.9768219853216
 21
833.0994859901355
 31
0.0
  0
LINE
  5
9D
330
1F
100
AcDbEntity
  8
0-2_本体（蓋）
  6
Continuous
 62
     6
370
    13
100
AcDbLine
 10
174.6209176872471
 20
885.0989090429491
 30
0.0
 11
231.7594528812022
 21
885.0989090429491
 31
0.0
  0
LINE
  5
9E
330
1F
100
AcDbEntity
  8
0-2_本体（蓋）
  6
Continuous
 62
     6
370
    13
100
AcDbLine
 10
175.1027996721199
 20
880.0989022678109
 30
0.0
 11
227.480256867387
 21
880.0989022678109
 31
0.0
  0
LINE
  5
9F
330
1F
100
AcDbEntity
  8
0-2_本体（蓋）
  6
Continuous
 62
     6
370
    13
100
AcDbLine
 10
227.480256867387
 20
880.0989022678109
 30
0.0
 11
231.7594528812022
 21
885.0989090429491
 31
0.0
  0
LINE
  5
A0
330
1F
100
AcDbEntity
  8
0-2_本体（蓋）
  6
Continuous
 62
     6
370
    13
100
AcDbLine
 10
175.1027996721199
 20
880.0989022678109
 30
0.0
 11
174.6209176872471
 21
885.0989090429491
 31
0.0
  0
LINE
  5
A1
330
1F
100
AcDbEntity
  8
0-2_本体（蓋）
  6
Continuous
 62
     6
370
    13
100
AcDbLine
 10
208.7043569876663
 20
855.0990433674242
 30
0.0
 11
224.848278357418
 21
855.0990433674242
 31
0.0
  0
LINE
  5
A2
330
1F
100
AcDbEntity
  8
0-2_本体（蓋）
  6
Continuous
 62
     6
370
    13
100
AcDbLine
 10
228.5388574514393
 20
856.7257012731501
 30
0.0
 11
233.9280967884325
 21
851.6823881104826
 31
0.0
  0
LINE
  5
A3
330
1F
100
AcDbEntity
  8
0-2_本体（蓋）
  6
Continuous
 62
     6
370
    13
100
AcDbLine
 10
105.6523022473793
 20
912.7716031865905
 30
0.0
 11
108.6412303757727
 21
918.7489345174679
 31
0.0
  0
LINE
  5
A4
330
1F
100
AcDbEntity
  8
0-2_本体（蓋）
  6
Continuous
 62
     6
370
    13
100
AcDbLine
 10
118.593475668289
 20
864.4752699619735
 30
0.0
 11
124.1706384808644
 21
860.7932646578064
 31
0.0
  0
LINE
  5
A5
330
1F
100
AcDbEntity
  8
0-2_本体（蓋）
  6
Continuous
 62
     6
370
    13
100
AcDbLine
 10
110.3787351360437
 20
1007.88275374406
 30
0.0
 11
114.6229360892288
 21
1012.126779721942
 31
0.0
  0
LINE
  5
A6
330
1F
100
AcDbEntity
  8
0-2_本体（蓋）
  6
Continuous
 62
     6
370
    13
100
AcDbLine
 10
140.8727310676615
 20
962.2455202014008
 30
0.0
 11
146.4180483750637
 21
964.5424210058395
 31
0.0
  0
LINE
  5
A7
330
1F
100
AcDbEntity
  8
0-2_本体（蓋）
  6
Continuous
 62
     6
370
    13
100
AcDbLine
 10
25.8506158389425
 20
1077.267372967166
 30
0.0
 11
28.14751664338095
 21
1082.812427811613
 31
0.0
  0
LINE
  5
A8
330
1F
100
AcDbEntity
  8
0-2_本体（蓋）
  6
Continuous
 62
     6
370
    13
100
AcDbLine
 10
71.48784938160179
 20
1046.77355201085
 30
0.0
 11
75.73205033478717
 21
1051.017665476384
 31
0.0
  0
LINE
  5
A9
330
1F
100
AcDbEntity
  8
0-2_本体（蓋）
  6
Continuous
 62
     6
370
    13
100
AcDbLine
 10
-78.7956388883365
 20
1109.022940834489
 30
0.0
 11
-78.7956388883365
 21
1115.024768707807
 31
0.0
  0
LINE
  5
AA
330
1F
100
AcDbEntity
  8
0-2_本体（蓋）
  6
Continuous
 62
     6
370
    13
100
AcDbLine
 10
-24.96273712147465
 20
1098.314802232368
 30
0.0
 11
-22.6658363170362
 21
1103.86011953977
 31
0.0
  0
LINE
  5
AB
330
1F
100
AcDbEntity
  8
0-2_本体（蓋）
  6
Continuous
 62
     6
370
    13
100
AcDbLine
 10
161.9205102834705
 20
911.4325171915901
 30
0.0
 11
167.4654776402666
 21
913.7293305083772
 31
0.0
  0
LINE
  5
AC
330
1F
100
AcDbEntity
  8
0-2_本体（蓋）
  6
Continuous
 62
     6
370
    13
100
AcDbLine
 10
171.9997876460731
 20
862.6017219035042
 30
0.0
 11
177.6560392956721
 21
862.6018093911557
 31
0.0
  0
LINE
  5
AD
330
1F
100
AcDbEntity
  8
0-2_本体（蓋）
  6
Continuous
 62
     6
370
    13
100
AcDbLine
 10
-387.2120075274835
 20
885.0989090429491
 30
0.0
 11
-444.3505427214386
 21
885.0989090429491
 31
0.0
  0
LINE
  5
AE
330
1F
100
AcDbEntity
  8
0-2_本体（蓋）
  6
Continuous
 62
     6
370
    13
100
AcDbLine
 10
-387.6938895123562
 20
880.0989022678109
 30
0.0
 11
-440.0713467076234
 21
880.0989022678109
 31
0.0
  0
LINE
  5
AF
330
1F
100
AcDbEntity
  8
0-2_本体（蓋）
  6
Continuous
 62
     6
370
    13
100
AcDbLine
 10
-440.0713467076234
 20
880.0989022678109
 30
0.0
 11
-444.3505427214386
 21
885.0989090429491
 31
0.0
  0
LINE
  5
B0
330
1F
100
AcDbEntity
  8
0-2_本体（蓋）
  6
Continuous
 62
     6
370
    13
100
AcDbLine
 10
-387.6938895123562
 20
880.0989022678109
 30
0.0
 11
-387.2120075274835
 21
885.0989090429491
 31
0.0
  0
LINE
  5
B1
330
1F
100
AcDbEntity
  8
0-2_本体（蓋）
  6
Continuous
 62
     6
370
    13
100
AcDbLine
 10
-421.2954468279028
 20
855.0990433674242
 30
0.0
 11
-437.4393681976542
 21
855.0990433674242
 31
0.0
  0
LINE
  5
B2
330
1F
100
AcDbEntity
  8
0-2_本体（蓋）
  6
Continuous
 62
     6
370
    13
100
AcDbLine
 10
-441.1299472916756
 20
856.7257012731501
 30
0.0
 11
-446.5191866286689
 21
851.6823881104826
 31
0.0
  0
LINE
  5
B3
330
1F
100
AcDbEntity
  8
0-2_本体（蓋）
  6
Continuous
 62
     6
370
    13
100
AcDbLine
 10
-322.9698249762799
 20
1007.88275374406
 30
0.0
 11
-327.2138509541621
 21
1012.126779721942
 31
0.0
  0
LINE
  5
B4
330
1F
100
AcDbEntity
  8
0-2_本体（蓋）
  6
Continuous
 62
     6
370
    13
100
AcDbLine
 10
-353.4636459325948
 20
962.2455202014008
 30
0.0
 11
-359.008963239997
 21
964.5424210058395
 31
0.0
  0
LINE
  5
B5
330
1F
100
AcDbEntity
  8
0-2_本体（蓋）
  6
Continuous
 62
     6
370
    13
100
AcDbLine
 10
-238.4415307038756
 20
1077.267372967166
 30
0.0
 11
-240.7384315083141
 21
1082.812427811613
 31
0.0
  0
LINE
  5
B6
330
1F
100
AcDbEntity
  8
0-2_本体（蓋）
  6
Continuous
 62
     6
370
    13
100
AcDbLine
 10
-284.0787642465351
 20
1046.77355201085
 30
0.0
 11
-288.3229651997204
 21
1051.017665476384
 31
0.0
  0
LINE
  5
B7
330
1F
100
AcDbEntity
  8
0-2_本体（蓋）
  6
Continuous
 62
     6
370
    13
100
AcDbLine
 10
-133.7952759765967
 20
1109.022940834489
 30
0.0
 11
-133.7952759765967
 21
1115.024768707807
 31
0.0
  0
LINE
  5
B8
330
1F
100
AcDbEntity
  8
0-2_本体（蓋）
  6
Continuous
 62
     6
370
    13
100
AcDbLine
 10
-187.6281777434584
 20
1098.314802232368
 30
0.0
 11
-189.925078547897
 21
1103.86011953977
 31
0.0
  0
LINE
  5
B9
330
1F
100
AcDbEntity
  8
0-2_本体（蓋）
  6
Continuous
 62
     6
370
    13
100
AcDbLine
 10
-374.5114251484039
 20
911.4325171915901
 30
0.0
 11
-380.056567480503
 21
913.7293305083772
 31
0.0
  0
LINE
  5
BA
330
1F
100
AcDbEntity
  8
0-2_本体（蓋）
  6
Continuous
 62
     6
370
    13
100
AcDbLine
 10
-384.5908774863095
 20
862.6017219035042
 30
0.0
 11
-390.2471291359083
 21
862.6018093911557
 31
0.0
  0
LINE
  5
BB
330
1F
100
AcDbEntity
  8
0-2_本体（蓋）
  6
Continuous
 62
     6
370
    13
100
AcDbLine
 10
-188.9679636396712
 20
1042.047031634535
 30
0.0
 11
-194.9452949705488
 21
1045.035959762928
 31
0.0
  0
LINE
  5
BC
330
1F
100
AcDbEntity
  8
0-2_本体（蓋）
  6
Continuous
 62
     6
370
    13
100
AcDbLine
 10
-140.6716304150543
 20
1054.988030080141
 30
0.0
 11
-136.9896251108872
 21
1060.565192892717
 31
0.0
  0
LINE
  5
BD
330
1F
100
AcDbEntity
  8
0-2_本体（蓋）
  6
Continuous
 62
     6
370
    13
100
AcDbLine
 10
226.2043369568237
 20
850.099036592286
 30
0.0
 11
230.277412063529
 21
850.099036592286
 31
0.0
  0
LINE
  5
BE
330
1F
100
AcDbEntity
  8
0-2_本体（蓋）
  6
Continuous
 62
     6
370
    13
100
AcDbLine
 10
-438.79542679706
 20
850.099036592286
 30
0.0
 11
-442.8685019037654
 21
850.099036592286
 31
0.0
  0
LINE
  5
BF
330
1F
100
AcDbEntity
  8
0-2_本体（蓋）
  6
Continuous
 62
     6
370
    13
100
AcDbLine
 10
-98.79531603828221
 20
1087.588291223417
 30
0.0
 11
-98.79531603828221
 21
1089.710479187661
 31
0.0
  0
LINE
  5
C0
330
1F
100
AcDbEntity
  8
0-2_本体（蓋）
  6
Continuous
 62
     6
370
    13
100
AcDbLine
 10
-113.7955988266509
 20
1087.588291223417
 30
0.0
 11
-113.7955988266509
 21
1089.716253372665
 31
0.0
  0
LINE
  5
C1
330
1F
100
AcDbEntity
  8
0-1_ピット
  6
JWW_DASHED1
 62
     4
370
    13
100
AcDbLine
 10
-16.44948872205685
 20
983.7947786360354
 30
0.0
 11
19.9408249750805
 21
983.7947786360354
 31
0.0
  0
LINE
  5
C2
330
1F
100
AcDbEntity
  8
0-1_ピット
  6
JWW_DASHED1
 62
     4
370
    13
100
AcDbLine
 10
-36.29518760523136
 20
1016.294603955304
 30
0.0
 11
-18.07334702293257
 21
984.7325587732631
 31
0.0
  0
LINE
  5
C3
330
1F
100
AcDbEntity
  8
0-1_ピット
  6
Continuous
 62
     4
370
    13
100
AcDbLine
 10
-18.07334702293257
 20
984.7325587732631
 30
0.0
 11
-17.53188594733739
 21
983.7947786360354
 31
0.0
  0
LINE
  5
C4
330
1F
100
AcDbEntity
  8
0-1_ピット
  6
Continuous
 62
     4
370
    13
100
AcDbLine
 10
-17.53188594733739
 20
983.7947786360354
 30
0.0
 11
-16.44948872205685
 21
983.7947786360354
 31
0.0
  0
LINE
  5
C5
330
1F
100
AcDbEntity
  8
0-1_ピット
  6
JWW_DASHED1
 62
     4
370
    13
100
AcDbLine
 10
-284.3228547944283
 20
831.0598863689777
 30
0.0
 11
-302.5180116429969
 21
862.5747757068191
 31
0.0
  0
ARC
  5
C6
330
1F
100
AcDbEntity
  8
0-1_ピット
  6
Continuous
 62
     2
370
    13
100
AcDbCircle
 10
-106.2954574324666
 20
830.0990094917341
 30
0.0
 40
449.999997348859
100
AcDbArc
 50
0.0
 51
180.0
  0
ARC
  5
C7
330
1F
100
AcDbEntity
  8
0-1_ピット
  6
Continuous
 62
     2
370
    13
100
AcDbCircle
 10
-106.2954574324666
 20
830.0990094917341
 30
0.0
 40
419.7052107998762
100
AcDbArc
 50
0.0
 51
180.0
  0
ARC
  5
C8
330
1F
100
AcDbEntity
  8
0-1_ピット
  6
Continuous
 62
     2
370
    13
100
AcDbCircle
 10
-106.2954574324666
 20
830.0990094917341
 30
0.0
 40
447.49999396129
100
AcDbArc
 50
0.0
 51
180.0
  0
ARC
  5
C9
330
1F
100
AcDbEntity
  8
0-1_ピット
  6
Continuous
 62
     2
370
    13
100
AcDbCircle
 10
-106.2954574324666
 20
830.0990094917341
 30
0.0
 40
367.4999730467335
100
AcDbArc
 50
139.291488647461
 51
160.7085418701172
  0
ARC
  5
CA
330
1F
100
AcDbEntity
  8
0-1_ピット
  6
Continuous
 62
     2
370
    13
100
AcDbCircle
 10
-106.2954574324666
 20
830.0990094917341
 30
0.0
 40
372.4999360780458
100
AcDbArc
 50
138.0777740478516
 51
161.9222412109375
  0
ARC
  5
CB
330
1F
100
AcDbEntity
  8
0-1_ピット
  6
Continuous
 62
     2
370
    13
100
AcDbCircle
 10
-106.2954574324666
 20
830.0990094917341
 30
0.0
 40
352.4999527213196
100
AcDbArc
 50
139.4744873046875
 51
160.5255737304688
  0
ARC
  5
CC
330
1F
100
AcDbEntity
  8
0-1_ピット
  6
Continuous
 62
     2
370
    13
100
AcDbCircle
 10
-106.2954574324666
 20
830.0990094917341
 30
0.0
 40
344.9999644305254
100
AcDbArc
 50
138.3233795166016
 51
161.6766510009766
  0
ARC
  5
CD
330
1F
100
AcDbEntity
  8
0-1_ピット
  6
Continuous
 62
     2
370
    13
100
AcDbCircle
 10
-106.2954574324666
 20
830.0990094917341
 30
0.0
 40
367.4999730467335
100
AcDbArc
 50
109.2914886474609
 51
130.7085418701172
  0
ARC
  5
CE
330
1F
100
AcDbEntity
  8
0-1_ピット
  6
Continuous
 62
     2
370
    13
100
AcDbCircle
 10
-106.2954574324666
 20
830.0990094917341
 30
0.0
 40
372.4999360780458
100
AcDbArc
 50
108.0777740478516
 51
131.9222412109375
  0
ARC
  5
CF
330
1F
100
AcDbEntity
  8
0-1_ピット
  6
Continuous
 62
     2
370
    13
100
AcDbCircle
 10
-106.2954574324666
 20
830.0990094917341
 30
0.0
 40
352.4999527213196
100
AcDbArc
 50
109.4744873046875
 51
130.5255737304687
  0
ARC
  5
D0
330
1F
100
AcDbEntity
  8
0-1_ピット
  6
Continuous
 62
     2
370
    13
100
AcDbCircle
 10
-106.2954574324666
 20
830.0990094917341
 30
0.0
 40
344.9999644305254
100
AcDbArc
 50
108.3233795166016
 51
131.6766510009766
  0
ARC
  5
D1
330
1F
100
AcDbEntity
  8
0-1_ピット
  6
Continuous
 62
     2
370
    13
100
AcDbCircle
 10
-106.2954574324666
 20
830.0990094917341
 30
0.0
 40
367.4999730467335
100
AcDbArc
 50
79.29148864746095
 51
100.7085418701172
  0
ARC
  5
D2
330
1F
100
AcDbEntity
  8
0-1_ピット
  6
Continuous
 62
     2
370
    13
100
AcDbCircle
 10
-106.2954574324666
 20
830.0990094917341
 30
0.0
 40
372.4999360780458
100
AcDbArc
 50
78.07777404785155
 51
101.9222412109375
  0
ARC
  5
D3
330
1F
100
AcDbEntity
  8
0-1_ピット
  6
Continuous
 62
     2
370
    13
100
AcDbCircle
 10
-106.2954574324666
 20
830.0990094917341
 30
0.0
 40
352.4999527213196
100
AcDbArc
 50
79.4744873046875
 51
100.5255737304687
  0
ARC
  5
D4
330
1F
100
AcDbEntity
  8
0-1_ピット
  6
Continuous
 62
     2
370
    13
100
AcDbCircle
 10
-106.2954574324666
 20
830.0990094917341
 30
0.0
 40
367.4999730467335
100
AcDbArc
 50
49.29148864746095
 51
70.7085418701172
  0
ARC
  5
D5
330
1F
100
AcDbEntity
  8
0-1_ピット
  6
Continuous
 62
     2
370
    13
100
AcDbCircle
 10
-106.2954574324666
 20
830.0990094917341
 30
0.0
 40
372.4999360780458
100
AcDbArc
 50
48.07777404785156
 51
71.9222412109375
  0
ARC
  5
D6
330
1F
100
AcDbEntity
  8
0-1_ピット
  6
Continuous
 62
     2
370
    13
100
AcDbCircle
 10
-106.2954574324666
 20
830.0990094917341
 30
0.0
 40
352.4999527213196
100
AcDbArc
 50
49.4744873046875
 51
70.52557373046875
  0
ARC
  5
D7
330
1F
100
AcDbEntity
  8
0-1_ピット
  6
Continuous
 62
     2
370
    13
100
AcDbCircle
 10
-106.2954574324666
 20
830.0990094917341
 30
0.0
 40
344.9999644305254
100
AcDbArc
 50
48.32337951660157
 51
71.67665100097656
  0
ARC
  5
D8
330
1F
100
AcDbEntity
  8
0-1_ピット
  6
Continuous
 62
     2
370
    13
100
AcDbCircle
 10
-106.2954574324666
 20
830.0990094917341
 30
0.0
 40
367.4999730467335
100
AcDbArc
 50
19.29148864746094
 51
40.70854187011719
  0
ARC
  5
D9
330
1F
100
AcDbEntity
  8
0-1_ピット
  6
Continuous
 62
     2
370
    13
100
AcDbCircle
 10
-106.2954574324666
 20
830.0990094917341
 30
0.0
 40
372.4999360780458
100
AcDbArc
 50
18.07777404785157
 51
41.92224121093751
  0
ARC
  5
DA
330
1F
100
AcDbEntity
  8
0-1_ピット
  6
Continuous
 62
     2
370
    13
100
AcDbCircle
 10
-106.2954574324666
 20
830.0990094917341
 30
0.0
 40
352.4999527213196
100
AcDbArc
 50
19.4744873046875
 51
40.52557373046875
  0
ARC
  5
DB
330
1F
100
AcDbEntity
  8
0-1_ピット
  6
Continuous
 62
     2
370
    13
100
AcDbCircle
 10
-106.2954574324666
 20
830.0990094917341
 30
0.0
 40
344.9999644305254
100
AcDbArc
 50
18.32337951660156
 51
41.67665100097656
  0
ARC
  5
DC
330
1F
100
AcDbEntity
  8
0-1_ピット
  6
Continuous
 62
     2
370
    13
100
AcDbCircle
 10
-106.2954574324666
 20
830.0990094917341
 30
0.0
 40
352.4999527213196
100
AcDbArc
 50
0.0
 51
10.52557373046875
  0
ARC
  5
DD
330
1F
100
AcDbEntity
  8
0-1_ピット
  6
Continuous
 62
     2
370
    13
100
AcDbCircle
 10
-106.2954574324666
 20
830.0990094917341
 30
0.0
 40
367.4999730467335
100
AcDbArc
 50
0.0
 51
10.70854187011719
  0
ARC
  5
DE
330
1F
100
AcDbEntity
  8
0-1_ピット
  6
Continuous
 62
     2
370
    13
100
AcDbCircle
 10
-106.2954574324666
 20
830.0990094917341
 30
0.0
 40
372.4999360780458
100
AcDbArc
 50
0.0
 51
11.9222412109375
  0
ARC
  5
DF
330
1F
100
AcDbEntity
  8
0-1_ピット
  6
Continuous
 62
     2
370
    13
100
AcDbCircle
 10
-106.2954574324666
 20
830.0990094917341
 30
0.0
 40
344.9999644305254
100
AcDbArc
 50
8.583679199218743
 51
11.67665100097656
  0
ARC
  5
E0
330
1F
100
AcDbEntity
  8
0-1_ピット
  6
Continuous
 62
     2
370
    13
100
AcDbCircle
 10
-106.2954574324666
 20
830.0990094917341
 30
0.0
 40
346.877361945664
100
AcDbArc
 50
0.0
 51
7.676528930664062
  0
ARC
  5
E1
330
1F
100
AcDbEntity
  8
0-1_ピット
  6
Continuous
 62
     2
370
    13
100
AcDbCircle
 10
-106.2954574324666
 20
830.0990094917341
 30
0.0
 40
352.4999527213196
100
AcDbArc
 50
169.4744110107422
 51
179.999984741211
  0
ARC
  5
E2
330
1F
100
AcDbEntity
  8
0-1_ピット
  6
Continuous
 62
     2
370
    13
100
AcDbCircle
 10
-106.2954574324666
 20
830.0990094917341
 30
0.0
 40
367.4999730467335
100
AcDbArc
 50
169.2914428710938
 51
179.999984741211
  0
ARC
  5
E3
330
1F
100
AcDbEntity
  8
0-1_ピット
  6
Continuous
 62
     2
370
    13
100
AcDbCircle
 10
-106.2954574324666
 20
830.0990094917341
 30
0.0
 40
372.4999360780458
100
AcDbArc
 50
168.0777740478516
 51
180.0000152587891
  0
ARC
  5
E4
330
1F
100
AcDbEntity
  8
0-1_ピット
  6
Continuous
 62
     2
370
    13
100
AcDbCircle
 10
-106.2954574324666
 20
830.0990094917341
 30
0.0
 40
344.9999644305254
100
AcDbArc
 50
168.3233489990234
 51
171.4163208007812
  0
ARC
  5
E5
330
1F
100
AcDbEntity
  8
0-1_ピット
  6
Continuous
 62
     2
370
    13
100
AcDbCircle
 10
-106.2954574324666
 20
830.0990094917341
 30
0.0
 40
346.877361945664
100
AcDbArc
 50
172.3234710693359
 51
180.0
  0
ARC
  5
E6
330
1F
100
AcDbEntity
  8
0-1_ピット
  6
Continuous
 62
     2
370
    13
100
AcDbCircle
 10
-106.2954574324666
 20
830.0990094917341
 30
0.0
 40
344.9999644305254
100
AcDbArc
 50
95.13783264160162
 51
101.6766510009766
  0
ARC
  5
E7
330
1F
100
AcDbEntity
  8
0-1_ピット
  6
Continuous
 62
     2
370
    13
100
AcDbCircle
 10
-106.2954574324666
 20
830.0990094917341
 30
0.0
 40
344.9999644305254
100
AcDbArc
 50
78.32337951660159
 51
84.86216735839845
  0
ARC
  5
E8
330
1F
100
AcDbEntity
  8
0-1_ピット
  6
Continuous
 62
     2
370
    13
100
AcDbCircle
 10
-106.2954574324666
 20
830.0990094917341
 30
0.0
 40
346.877361945664
100
AcDbArc
 50
86.59643554687501
 51
93.40356445312501
  0
ARC
  5
E9
330
1F
100
AcDbEntity
  8
0-1_ピット
  6
JWW_DASHED1
 62
     2
370
    13
100
AcDbCircle
 10
-72.08411118544527
 20
1032.224093091046
 30
0.0
 40
9.99999988033044
100
AcDbArc
 50
347.7381896972656
 51
80.39346313476562
  0
ARC
  5
EA
330
1F
100
AcDbEntity
  8
0-1_ピット
  6
JWW_DASHED1
 62
     2
370
    13
100
AcDbCircle
 10
-106.2954574324666
 20
830.0990094917341
 30
0.0
 40
215.0000069960664
100
AcDbArc
 50
0.0
 51
39.60671997070312
  0
ARC
  5
EB
330
1F
100
AcDbEntity
  8
0-1_ピット
  6
JWW_DASHED1
 62
     2
370
    13
100
AcDbCircle
 10
51.64442517736848
 20
960.789550703897
 30
0.0
 40
9.99999988033044
100
AcDbArc
 50
39.60639953613281
 51
132.2628936767578
  0
ARC
  5
EC
330
1F
100
AcDbEntity
  8
0-1_ピット
  6
JWW_DASHED1
 62
     2
370
    13
100
AcDbCircle
 10
-298.4466862893229
 20
901.5335518788828
 30
0.0
 40
9.99999988033044
100
AcDbArc
 50
159.6063995361328
 51
252.2628936767578
  0
ARC
  5
ED
330
1F
100
AcDbEntity
  8
0-1_ピット
  6
JWW_DASHED1
 62
     2
370
    13
100
AcDbCircle
 10
-106.2954574324666
 20
830.0990094917341
 30
0.0
 40
215.0000069960664
100
AcDbArc
 50
80.39329528808592
 51
159.6068267822266
  0
ARC
  5
EE
330
1F
100
AcDbEntity
  8
0-1_ピット
  6
JWW_DASHED1
 62
     2
370
    13
100
AcDbCircle
 10
55.32013137062211
 20
971.8927835405281
 30
0.0
 40
4.99999994016522
100
AcDbArc
 50
41.26124572753908
 51
140.6307678222656
  0
ARC
  5
EF
330
1F
100
AcDbEntity
  8
0-1_ピット
  6
JWW_DASHED1
 62
     2
370
    13
100
AcDbCircle
 10
-106.2954574324666
 20
830.0990094917341
 30
0.0
 40
219.9999700273786
100
AcDbArc
 50
0.0
 51
41.26216125488281
  0
ARC
  5
F0
330
1F
100
AcDbEntity
  8
0-1_ピット
  6
JWW_DASHED1
 62
     2
370
    13
100
AcDbCircle
 10
1.204644489174793
 20
1016.294603955304
 30
0.0
 40
64.9999951211642
100
AcDbArc
 50
320.6310272216797
 51
329.9999084472657
  0
ARC
  5
F1
330
1F
100
AcDbEntity
  8
0-1_ピット
  6
JWW_DASHED1
 62
     2
370
    13
100
AcDbCircle
 10
-64.3061090098602
 20
1040.958947711902
 30
0.0
 40
4.99999994016522
100
AcDbArc
 50
339.3675384521484
 51
78.73760986328125
  0
ARC
  5
F2
330
1F
100
AcDbEntity
  8
0-1_ピット
  6
JWW_DASHED1
 62
     2
370
    13
100
AcDbCircle
 10
1.204644489174793
 20
1016.294603955304
 30
0.0
 40
64.9999951211642
100
AcDbArc
 50
149.9999084472657
 51
159.3691864013672
  0
ARC
  5
F3
330
1F
100
AcDbEntity
  8
0-1_ピット
  6
JWW_DASHED1
 62
     2
370
    13
100
AcDbCircle
 10
-309.9000447075556
 20
899.1650861754562
 30
0.0
 40
4.99999994016522
100
AcDbArc
 50
161.2641143798828
 51
260.6306762695312
  0
ARC
  5
F4
330
1F
100
AcDbEntity
  8
0-1_ピット
  6
JWW_DASHED1
 62
     2
370
    13
100
AcDbCircle
 10
-106.2954574324666
 20
830.0990094917341
 30
0.0
 40
219.9999700273786
100
AcDbArc
 50
78.73782348632814
 51
161.2622375488281
  0
ARC
  5
F5
330
1F
100
AcDbEntity
  8
0-1_ピット
  6
JWW_DASHED1
 62
     2
370
    13
100
AcDbCircle
 10
-321.295661275749
 20
830.0990094917341
 30
0.0
 40
64.9999951211642
100
AcDbArc
 50
80.63093566894533
 51
89.99990844726565
  0
CIRCLE
  5
F6
330
1F
100
AcDbEntity
  8
0-1_ピット
  6
JWW_DASHED1
 62
     4
370
    13
100
AcDbCircle
 10
1.204644489174793
 20
1016.294603955304
 30
0.0
 40
16.61749886269735
  0
ARC
  5
F7
330
1F
100
AcDbEntity
  8
0-1_ピット
  6
JWW_DASHED1
 62
     4
370
    13
100
AcDbCircle
 10
-321.295661275749
 20
830.0990094917341
 30
0.0
 40
16.61749886269735
100
AcDbArc
 50
0.0
 51
180.0
  0
ARC
  5
F8
330
1F
100
AcDbEntity
  8
0-1_ピット
  6
Continuous
 62
     2
370
    13
100
AcDbCircle
 10
-440.1537600754067
 20
875.0991579556276
 30
0.0
 40
9.99999988033044
100
AcDbArc
 50
172.3234252929687
 51
228.8124694824219
  0
ARC
  5
F9
330
1F
100
AcDbEntity
  8
0-1_ピット
  6
Continuous
 62
     2
370
    13
100
AcDbCircle
 10
-437.5431285524216
 20
880.0990772431142
 30
0.0
 40
9.99999988033044
100
AcDbArc
 50
171.4168090820313
 51
213.388671875
  0
ARC
  5
FA
330
1F
100
AcDbEntity
  8
0-1_ピット
  6
Continuous
 62
     2
370
    13
100
AcDbCircle
 10
-86.2954303319146
 20
1166.381944910412
 30
0.0
 40
9.99999988033044
100
AcDbArc
 50
86.59663391113284
 51
143.0830993652344
  0
ARC
  5
FB
330
1F
100
AcDbEntity
  8
0-1_ピット
  6
Continuous
 62
     2
370
    13
100
AcDbCircle
 10
-76.29541678163868
 20
1163.753028468248
 30
0.0
 40
9.99999988033044
100
AcDbArc
 50
84.86212158203125
 51
126.8358764648438
  0
ARC
  5
FC
330
1F
100
AcDbEntity
  8
0-1_ピット
  6
Continuous
 62
     2
370
    13
100
AcDbCircle
 10
-136.2951481326882
 20
1163.753028468248
 30
0.0
 40
9.99999988033044
100
AcDbArc
 50
53.16412353515626
 51
95.13787841796876
  0
ARC
  5
FD
330
1F
100
AcDbEntity
  8
0-1_ピット
  6
Continuous
 62
     2
370
    13
100
AcDbCircle
 10
-126.2954845330186
 20
1166.381944910412
 30
0.0
 40
9.99999988033044
100
AcDbArc
 50
36.91690063476564
 51
93.4033660888672
  0
ARC
  5
FE
330
1F
100
AcDbEntity
  8
0-1_ピット
  6
JWW_DASHED1
 62
     4
370
    13
100
AcDbCircle
 10
1.204644489174793
 20
1016.294603955304
 30
0.0
 40
19.99999976066088
100
AcDbArc
 50
90.22064208984375
 51
29.77864074707031
  0
ARC
  5
FF
330
1F
100
AcDbEntity
  8
0-1_ピット
  6
JWW_DASHED1
 62
     4
370
    13
100
AcDbCircle
 10
-321.295661275749
 20
830.0990094917341
 30
0.0
 40
19.99999976066088
100
AcDbArc
 50
0.0
 51
149.7783508300781
  0
ARC
  5
100
330
1F
100
AcDbEntity
  8
0-1_ピット
  6
JWW_DASHED1
 62
     4
370
    13
100
AcDbCircle
 10
1.228791081009231
 20
1016.280868394006
 30
0.0
 40
32.50000302856033
100
AcDbArc
 50
120.9942779541016
 51
358.990966796875
  0
ARC
  5
101
330
1F
100
AcDbEntity
  8
0-1_ピット
  6
JWW_DASHED1
 62
     4
370
    13
100
AcDbCircle
 10
-321.295661275749
 20
830.1268305649348
 30
0.0
 40
32.50000302856033
100
AcDbArc
 50
359.950927734375
 51
118.9913635253906
  0
ELLIPSE
  5
102
330
1F
100
AcDbEntity
  8
0-A
  6
Continuous
 62
     4
370
    13
100
AcDbEllipse
 10
-106.2953699448149
 20
1090.832508319105
 30
0.0
 11
-14.99935733243952
 21
-0.0001358153964073411
 31
0.0
210
0.0
220
0.0
230
1.0
 40
0.0891
 41
0.0
 42
3.141592653589792
  0
ARC
  5
103
330
1F
100
AcDbEntity
  8
0-1_ピット
  6
Continuous
 62
     2
370
    13
100
AcDbCircle
 10
227.5631951610798
 20
875.0991579556276
 30
0.0
 40
9.99999988033044
100
AcDbArc
 50
311.1868743896484
 51
7.676574707031258
  0
ARC
  5
104
330
1F
100
AcDbEntity
  8
0-1_ピット
  6
Continuous
 62
     2
370
    13
100
AcDbCircle
 10
224.9518637368821
 20
880.0990772431142
 30
0.0
 40
9.99999988033044
100
AcDbArc
 50
326.6148223876953
 51
8.583190917968746
  0
ELLIPSE
  5
105
330
1F
100
AcDbEntity
  8
0-A
  6
Continuous
 62
     4
370
    13
100
AcDbEllipse
 10
-106.2953699448149
 20
1053.713597459654
 30
0.0
 11
-14.99935733263739
 21
-0.0001118479735119603
 31
0.0
210
0.0
220
0.0
230
1.0
 40
0.0743
 41
0.0
 42
3.141592653589792
  0
ARC
  5
106
330
1F
100
AcDbEntity
  8
0-0_通り芯
  6
JWW_DASHED1
 62
     3
370
    13
100
AcDbCircle
 10
-106.2952824571634
 20
830.0990094917341
 30
0.0
 40
197.5000488988221
100
AcDbArc
 50
77.47343444824222
 51
162.5266265869141
  0
ARC
  5
107
330
1F
100
AcDbEntity
  8
0-0_通り芯
  6
JWW_DASHED1
 62
     3
370
    13
100
AcDbCircle
 10
-106.295369944815
 20
830.0990094917341
 30
0.0
 40
202.5004056245664
100
AcDbArc
 50
0.0
 51
42.41563415527344
  0
ARC
  5
108
330
1F
100
AcDbEntity
  8
0-0_通り芯
  6
JWW_DASHED1
 62
     3
370
    13
100
AcDbCircle
 10
-106.295369944815
 20
830.0990094917341
 30
0.0
 40
202.5004056245664
100
AcDbArc
 50
77.58439636230467
 51
162.4156494140625
  0
ELLIPSE
  5
109
330
1F
100
AcDbEntity
  8
0-A
  6
Continuous
 62
     4
370
    13
100
AcDbEllipse
 10
-106.2953699448149
 20
1113.474487521906
 30
0.0
 11
26.2500574413874
 21
0.0
 31
0.0
210
0.0
220
0.0
230
1.0
 40
0.0891
 41
3.087908386019867
 42
6.283185307179586
  0
ARC
  5
10A
330
1F
100
AcDbEntity
  8
0-A
  6
Continuous
 62
     4
370
    13
100
AcDbCircle
 10
-106.2953699448149
 20
1105.642417977647
 30
0.0
 40
27.39356752528187
100
AcDbArc
 50
16.61329650878907
 51
84.76367187500001
  0
ARC
  5
10B
330
1F
100
AcDbEntity
  8
0-A
  6
Continuous
 62
     4
370
    13
100
AcDbCircle
 10
-106.2953699448149
 20
1105.642417977647
 30
0.0
 40
27.39356752528187
100
AcDbArc
 50
95.235595703125
 51
163.386703491211
  0
ARC
  5
10C
330
1F
100
AcDbEntity
  8
0-A
  6
Continuous
 62
     4
370
    13
100
AcDbCircle
 10
203.2040083331735
 20
838.0995802529251
 30
0.0
 40
4.99999994016522
100
AcDbArc
 50
270.0
 51
0.0
  0
ARC
  5
10D
330
1F
100
AcDbEntity
  8
0-A
  6
Continuous
 62
     4
370
    13
100
AcDbCircle
 10
219.2051498555553
 20
838.0995802529251
 30
0.0
 40
4.99999994016522
100
AcDbArc
 50
180.0
 51
270.0
  0
ARC
  5
10E
330
1F
100
AcDbEntity
  8
0-A
  6
Continuous
 62
     4
370
    13
100
AcDbCircle
 10
211.204229143758
 20
830.0989220040826
 30
0.0
 40
25.00000106782066
100
AcDbArc
 50
0.0
 51
180.0
  0
ARC
  5
10F
330
1F
100
AcDbEntity
  8
0-A
  6
Continuous
 62
     4
370
    13
100
AcDbCircle
 10
-415.7956230993193
 20
838.0995802529251
 30
0.0
 40
4.99999994016522
100
AcDbArc
 50
180.0
 51
270.0
  0
ARC
  5
110
330
1F
100
AcDbEntity
  8
0-A
  6
Continuous
 62
     4
370
    13
100
AcDbCircle
 10
-431.7967646217011
 20
838.0995802529251
 30
0.0
 40
4.99999994016522
100
AcDbArc
 50
270.0
 51
0.0
  0
ARC
  5
111
330
1F
100
AcDbEntity
  8
0-A
  6
Continuous
 62
     4
370
    13
100
AcDbCircle
 10
-423.796018885207
 20
830.0989220040826
 30
0.0
 40
25.00000106782066
100
AcDbArc
 50
0.0
 51
180.0
  0
ARC
  5
112
330
1F
100
AcDbEntity
  8
0-2_本体（蓋）
  6
Continuous
 62
     6
370
    13
100
AcDbCircle
 10
230.277412063529
 20
855.0990433674242
 30
0.0
 40
4.99999994016522
100
AcDbArc
 50
270.0
 51
4.247833251953131
  0
ARC
  5
113
330
1F
100
AcDbEntity
  8
0-2_本体（蓋）
  6
Continuous
 62
     6
370
    13
100
AcDbCircle
 10
-106.2954574324666
 20
830.0990094917341
 30
0.0
 40
342.5000047867821
100
AcDbArc
 50
4.248031616210934
 51
175.7519836425781
  0
ARC
  5
114
330
1F
100
AcDbEntity
  8
0-2_本体（蓋）
  6
Continuous
 62
     6
370
    13
100
AcDbCircle
 10
224.848278357418
 20
860.0990501425622
 30
0.0
 40
4.99999994016522
100
AcDbArc
 50
270.0
 51
5.176773071289063
  0
ARC
  5
115
330
1F
100
AcDbEntity
  8
0-2_本体（蓋）
  6
Continuous
 62
     6
370
    13
100
AcDbCircle
 10
-106.2954574324666
 20
830.0990094917341
 30
0.0
 40
337.5000417554701
100
AcDbArc
 50
5.17658996582032
 51
8.519622802734384
  0
ARC
  5
116
330
1F
100
AcDbEntity
  8
0-2_本体（蓋）
  6
Continuous
 62
     6
370
    13
100
AcDbCircle
 10
-106.2944075806477
 20
830.0990094917341
 30
0.0
 40
227.5000020619985
100
AcDbArc
 50
8.69096374511718
 51
21.30889892578124
  0
ARC
  5
117
330
1F
100
AcDbEntity
  8
0-2_本体（蓋）
  6
Continuous
 62
     6
370
    13
100
AcDbCircle
 10
138.9592011524228
 20
966.8649556921895
 30
0.0
 40
4.99999994016522
100
AcDbArc
 50
209.1466217041016
 51
292.4991760253906
  0
ARC
  5
118
330
1F
100
AcDbEntity
  8
0-2_本体（蓋）
  6
Continuous
 62
     6
370
    13
100
AcDbCircle
 10
113.9142861114751
 20
1004.347290256281
 30
0.0
 40
4.99999994016522
100
AcDbArc
 50
135.0007019042969
 51
218.3534088134766
  0
ARC
  5
119
330
1F
100
AcDbEntity
  8
0-2_本体（蓋）
  6
Continuous
 62
     6
370
    13
100
AcDbCircle
 10
-106.2954574324666
 20
830.0990094917341
 30
0.0
 40
275.8111206997315
100
AcDbArc
 50
29.14613342285156
 51
38.35397338867187
  0
ARC
  5
11A
330
1F
100
AcDbEntity
  8
0-2_本体（蓋）
  6
Continuous
 62
     6
370
    13
100
AcDbCircle
 10
67.9524733814738
 20
1050.309190473933
 30
0.0
 40
4.99999994016522
100
AcDbArc
 50
231.6466217041016
 51
314.9991760253906
  0
ARC
  5
11B
330
1F
100
AcDbEntity
  8
0-2_本体（蓋）
  6
Continuous
 62
     6
370
    13
100
AcDbCircle
 10
30.46996384207934
 20
1075.35401802723
 30
0.0
 40
4.99999994016522
100
AcDbArc
 50
157.5007019042969
 51
240.8534088134766
  0
ARC
  5
11C
330
1F
100
AcDbEntity
  8
0-2_本体（蓋）
  6
Continuous
 62
     6
370
    13
100
AcDbCircle
 10
-106.2954574324666
 20
830.0989220040826
 30
0.0
 40
275.8111206997315
100
AcDbArc
 50
51.64613342285156
 51
60.85397338867188
  0
ARC
  5
11D
330
1F
100
AcDbEntity
  8
0-2_本体（蓋）
  6
Continuous
 62
     6
370
    13
100
AcDbCircle
 10
-29.58226009991487
 20
1100.228332147607
 30
0.0
 40
4.99999994016522
100
AcDbArc
 50
254.1466217041016
 51
337.4991760253907
  0
ARC
  5
11E
330
1F
100
AcDbEntity
  8
0-2_本体（蓋）
  6
Continuous
 62
     6
370
    13
100
AcDbCircle
 10
-73.795544625547
 20
1109.022940834489
 30
0.0
 40
4.99999994016522
100
AcDbArc
 50
180.0007019042969
 51
263.3534088134766
  0
ARC
  5
11F
330
1F
100
AcDbEntity
  8
0-2_本体（蓋）
  6
Continuous
 62
     6
370
    13
100
AcDbCircle
 10
-106.2954574324666
 20
830.098834516431
 30
0.0
 40
275.8111206997315
100
AcDbArc
 50
74.14613342285159
 51
83.3539733886719
  0
ARC
  5
120
330
1F
100
AcDbEntity
  8
0-2_本体（蓋）
  6
Continuous
 62
     6
370
    13
100
AcDbCircle
 10
163.8336902481031
 20
906.8131691884531
 30
0.0
 40
4.99999994016522
100
AcDbArc
 50
112.5007019042968
 51
195.8534088134766
  0
ARC
  5
121
330
1F
100
AcDbEntity
  8
0-2_本体（蓋）
  6
Continuous
 62
     6
370
    13
100
AcDbCircle
 10
171.9997876460731
 20
867.6017286786421
 30
0.0
 40
4.99999994016522
100
AcDbArc
 50
187.6742706298828
 51
270.0010070800781
  0
ARC
  5
122
330
1F
100
AcDbEntity
  8
0-2_本体（蓋）
  6
Continuous
 62
     6
370
    13
100
AcDbCircle
 10
-106.2954574324666
 20
830.0994469299919
 30
0.0
 40
275.8111206997315
100
AcDbArc
 50
7.674774169921875
 51
15.85397338867188
  0
ARC
  5
123
330
1F
100
AcDbEntity
  8
0-2_本体（蓋）
  6
Continuous
 62
     6
370
    13
100
AcDbCircle
 10
-442.8685019037654
 20
855.0990433674242
 30
0.0
 40
4.99999994016522
100
AcDbArc
 50
175.7521667480468
 51
270.0
  0
ARC
  5
124
330
1F
100
AcDbEntity
  8
0-2_本体（蓋）
  6
Continuous
 62
     6
370
    13
100
AcDbCircle
 10
-437.4393681976542
 20
860.0990501425622
 30
0.0
 40
4.99999994016522
100
AcDbArc
 50
174.823226928711
 51
270.0000000000001
  0
ARC
  5
125
330
1F
100
AcDbEntity
  8
0-2_本体（蓋）
  6
Continuous
 62
     6
370
    13
100
AcDbCircle
 10
-106.2954574324666
 20
830.0990094917341
 30
0.0
 40
337.5000417554701
100
AcDbArc
 50
171.4803771972657
 51
174.8234100341797
  0
ARC
  5
126
330
1F
100
AcDbEntity
  8
0-2_本体（蓋）
  6
Continuous
 62
     6
370
    13
100
AcDbCircle
 10
-351.550290992659
 20
966.8649556921895
 30
0.0
 40
4.99999994016522
100
AcDbArc
 50
247.5008239746094
 51
330.8533782958985
  0
ARC
  5
127
330
1F
100
AcDbEntity
  8
0-2_本体（蓋）
  6
Continuous
 62
     6
370
    13
100
AcDbCircle
 10
-326.5053759517113
 20
1004.347290256281
 30
0.0
 40
4.99999994016522
100
AcDbArc
 50
321.6465911865234
 51
44.99929809570313
  0
ARC
  5
128
330
1F
100
AcDbEntity
  8
0-2_本体（蓋）
  6
Continuous
 62
     6
370
    13
100
AcDbCircle
 10
-106.2954574324666
 20
830.0990094917341
 30
0.0
 40
275.8111206997315
100
AcDbArc
 50
141.6460266113282
 51
150.8538665771485
  0
ARC
  5
129
330
1F
100
AcDbEntity
  8
0-2_本体（蓋）
  6
Continuous
 62
     6
370
    13
100
AcDbCircle
 10
-280.5433882464068
 20
1050.309190473933
 30
0.0
 40
4.99999994016522
100
AcDbArc
 50
225.0008239746094
 51
308.3533782958985
  0
ARC
  5
12A
330
1F
100
AcDbEntity
  8
0-2_本体（蓋）
  6
Continuous
 62
     6
370
    13
100
AcDbCircle
 10
-243.0608787070125
 20
1075.35401802723
 30
0.0
 40
4.99999994016522
100
AcDbArc
 50
299.1465911865234
 51
22.49929809570313
  0
ARC
  5
12B
330
1F
100
AcDbEntity
  8
0-2_本体（蓋）
  6
Continuous
 62
     6
370
    13
100
AcDbCircle
 10
-106.2954574324666
 20
830.0989220040826
 30
0.0
 40
275.8111206997315
100
AcDbArc
 50
119.1460266113281
 51
128.3538665771485
  0
ARC
  5
12C
330
1F
100
AcDbEntity
  8
0-2_本体（蓋）
  6
Continuous
 62
     6
370
    13
100
AcDbCircle
 10
-183.0086547650182
 20
1100.228332147607
 30
0.0
 40
4.99999994016522
100
AcDbArc
 50
202.5008239746094
 51
285.8533782958984
  0
ARC
  5
12D
330
1F
100
AcDbEntity
  8
0-2_本体（蓋）
  6
Continuous
 62
     6
370
    13
100
AcDbCircle
 10
-138.7953702393862
 20
1109.022940834489
 30
0.0
 40
4.99999994016522
100
AcDbArc
 50
276.6465911865234
 51
359.9992980957031
  0
ARC
  5
12E
330
1F
100
AcDbEntity
  8
0-2_本体（蓋）
  6
Continuous
 62
     6
370
    13
100
AcDbCircle
 10
-106.2954574324666
 20
830.098834516431
 30
0.0
 40
275.8111206997315
100
AcDbArc
 50
96.64602661132812
 51
105.8538665771484
  0
ARC
  5
12F
330
1F
100
AcDbEntity
  8
0-2_本体（蓋）
  6
Continuous
 62
     6
370
    13
100
AcDbCircle
 10
-376.4247800883396
 20
906.8131691884531
 30
0.0
 40
4.99999994016522
100
AcDbArc
 50
344.1465911865234
 51
67.49929809570312
  0
ARC
  5
130
330
1F
100
AcDbEntity
  8
0-2_本体（蓋）
  6
Continuous
 62
     6
370
    13
100
AcDbCircle
 10
-384.5907025110064
 20
867.6017286786421
 30
0.0
 40
4.99999994016522
100
AcDbArc
 50
269.9989929199219
 51
352.3257293701172
  0
ARC
  5
131
330
1F
100
AcDbEntity
  8
0-2_本体（蓋）
  6
Continuous
 62
     6
370
    13
100
AcDbCircle
 10
-106.2954574324666
 20
830.0994469299919
 30
0.0
 40
275.8111206997315
100
AcDbArc
 50
164.1460266113281
 51
172.3252258300781
  0
ARC
  5
132
330
1F
100
AcDbEntity
  8
0-2_本体（蓋）
  6
Continuous
 62
     6
370
    13
100
AcDbCircle
 10
-106.2954574324666
 20
830.0990094917341
 30
0.0
 40
232.4999869652236
100
AcDbArc
 50
0.0
 51
7.586196899414062
  0
ARC
  5
133
330
1F
100
AcDbEntity
  8
0-2_本体（蓋）
  6
Continuous
 62
     6
370
    13
100
AcDbCircle
 10
-106.2954574324666
 20
830.0990094917341
 30
0.0
 40
257.598444448935
100
AcDbArc
 50
0.0
 51
88.33158874511719
  0
ARC
  5
134
330
1F
100
AcDbEntity
  8
0-2_本体（蓋）
  6
Continuous
 62
     6
370
    13
100
AcDbCircle
 10
-106.2954574324666
 20
830.0990094917341
 30
0.0
 40
285.8059287347388
100
AcDbArc
 50
169.9246063232422
 51
180.0000000000001
  0
ARC
  5
135
330
1F
100
AcDbEntity
  8
0-2_本体（蓋）
  6
Continuous
 62
     6
370
    13
100
AcDbCircle
 10
-106.2954574324666
 20
830.1001468312046
 30
0.0
 40
227.5000020619985
100
AcDbArc
 50
98.69096374511719
 51
111.3088989257813
  0
ARC
  5
136
330
1F
100
AcDbEntity
  8
0-2_本体（蓋）
  6
Continuous
 62
     6
370
    13
100
AcDbCircle
 10
-106.2954574324666
 20
830.0990094917341
 30
0.0
 40
232.4999869652236
100
AcDbArc
 50
22.41331481933594
 51
97.58618164062501
  0
ARC
  5
137
330
1F
100
AcDbEntity
  8
0-2_本体（蓋）
  6
Continuous
 62
     6
370
    13
100
AcDbCircle
 10
-106.2954574324666
 20
830.0990094917341
 30
0.0
 40
232.4999869652236
100
AcDbArc
 50
112.4134979248047
 51
180.0
  0
ARC
  5
138
330
1F
100
AcDbEntity
  8
0-2_本体（蓋）
  6
Continuous
 62
     6
370
    13
100
AcDbCircle
 10
-421.2954468279028
 20
830.0990094917341
 30
0.0
 40
25.00000380180978
100
AcDbArc
 50
0.0
 51
90.00018310546875
  0
ARC
  5
139
330
1F
100
AcDbEntity
  8
0-2_本体（蓋）
  6
Continuous
 62
     6
370
    13
100
AcDbCircle
 10
-106.2954574324666
 20
830.0990094917341
 30
0.0
 40
285.8059287347388
100
AcDbArc
 50
0.0
 51
10.07539367675781
  0
ARC
  5
13A
330
1F
100
AcDbEntity
  8
0-2_本体（蓋）
  6
Continuous
 62
     6
370
    13
100
AcDbCircle
 10
208.7043569876663
 20
830.0990094917341
 30
0.0
 40
25.00000380180978
100
AcDbArc
 50
89.99981689453126
 51
180.0
  0
ARC
  5
13B
330
1F
100
AcDbEntity
  8
0-2_本体（蓋）
  6
Continuous
 62
     6
370
    13
100
AcDbCircle
 10
-106.2954574324666
 20
830.0990094917341
 30
0.0
 40
257.598444448935
100
AcDbArc
 50
91.66841125488283
 51
180.0
  0
ARC
  5
13C
330
1F
100
AcDbEntity
  8
0-2_本体（蓋）
  6
Continuous
 62
     6
370
    13
100
AcDbCircle
 10
-106.2954574324666
 20
1087.698963102659
 30
0.0
 40
7.500789349603837
100
AcDbArc
 50
180.7531738281251
 51
359.1654968261719
  0
ARC
  5
13D
330
1F
100
AcDbEntity
  8
0-2_本体（蓋）
  6
Continuous
 62
     6
370
    13
100
AcDbCircle
 10
-106.2954574324666
 20
1091.474667681662
 30
0.0
 40
7.500789349603837
100
AcDbArc
 50
193.4944610595703
 51
345.8015899658203
  0
ARC
  5
13E
330
1F
100
AcDbEntity
  8
0-2_本体（蓋）
  6
Continuous
 62
     6
370
    13
100
AcDbCircle
 10
-106.2954574324666
 20
830.0990094917341
 30
0.0
 40
286.2501254136958
100
AcDbArc
 50
11.07768249511719
 51
84.85414123535158
  0
ARC
  5
13F
330
1F
100
AcDbEntity
  8
0-2_本体（蓋）
  6
Continuous
 62
     6
370
    13
100
AcDbCircle
 10
-106.2954574324666
 20
830.0990094917341
 30
0.0
 40
286.2501254136958
100
AcDbArc
 50
95.1458740234375
 51
168.9223327636719
  0
ARC
  5
140
330
1F
100
AcDbEntity
  8
0-0_通り芯
  6
JWW_DASHED1
 62
     3
370
    13
100
AcDbCircle
 10
-106.2952824571634
 20
830.0990094917341
 30
0.0
 40
197.5000488988221
100
AcDbArc
 50
0.0
 51
42.52662658691406
  0
ARC
  5
141
330
1F
100
AcDbEntity
  8
0-1_ピット
  6
Continuous
 62
     2
370
    13
100
AcDbCircle
 10
-321.295661275749
 20
830.0990094917341
 30
0.0
 40
59.99999928198265
100
AcDbArc
 50
0.0
 51
45.35368347167969
  0
ARC
  5
142
330
1F
100
AcDbEntity
  8
0-1_ピット
  6
JWW_DASHED1
 62
     2
370
    13
100
AcDbCircle
 10
-321.295661275749
 20
830.0990094917341
 30
0.0
 40
59.99999928198265
100
AcDbArc
 50
45.35368347167968
 51
89.99992370605467
  0
ARC
  5
143
330
1F
100
AcDbEntity
  8
0-1_ピット
  6
JWW_DASHED1
 62
     2
370
    13
100
AcDbCircle
 10
-321.295661275749
 20
830.0990094917341
 30
0.0
 40
64.9999951211642
100
AcDbArc
 50
47.85313415527343
 51
72.2626953125
  0
ARC
  5
144
330
1F
100
AcDbEntity
  8
0-1_ピット
  6
JWW_DASHED1
 62
     2
370
    13
100
AcDbCircle
 10
1.204644489174793
 20
1016.294603955304
 30
0.0
 40
59.99999928198265
100
AcDbArc
 50
285.3537139892578
 51
329.9999237060547
  0
ARC
  5
145
330
1F
100
AcDbEntity
  8
0-1_ピット
  6
JWW_DASHED1
 62
     2
370
    13
100
AcDbCircle
 10
1.204644489174793
 20
1016.294603955304
 30
0.0
 40
64.9999951211642
100
AcDbArc
 50
287.8531341552734
 51
312.2626953125
  0
ARC
  5
146
330
1F
100
AcDbEntity
  8
0-1_ピット
  6
Continuous
 62
     2
370
    13
100
AcDbCircle
 10
1.204644489174793
 20
1016.294603955304
 30
0.0
 40
59.99999928198265
100
AcDbArc
 50
194.6462860107422
 51
285.3537139892578
  0
ARC
  5
147
330
1F
100
AcDbEntity
  8
0-1_ピット
  6
Continuous
 62
     2
370
    13
100
AcDbCircle
 10
1.204644489174793
 20
1016.294603955304
 30
0.0
 40
64.9999951211642
100
AcDbArc
 50
192.1468048095703
 51
287.8531341552734
  0
ARC
  5
148
330
1F
100
AcDbEntity
  8
0-1_ピット
  6
JWW_DASHED1
 62
     2
370
    13
100
AcDbCircle
 10
1.204644489174793
 20
1016.294603955304
 30
0.0
 40
64.9999951211642
100
AcDbArc
 50
167.7372894287109
 51
192.1468048095703
  0
ARC
  5
149
330
1F
100
AcDbEntity
  8
0-1_ピット
  6
JWW_DASHED1
 62
     2
370
    13
100
AcDbCircle
 10
1.204644489174793
 20
1016.294603955304
 30
0.0
 40
59.99999928198265
100
AcDbArc
 50
140.5608520507813
 51
194.6462860107422
  0
ARC
  5
14A
330
1F
100
AcDbEntity
  8
0-0_通り芯
  6
Continuous
 62
     3
370
    13
100
AcDbCircle
 10
-106.2952824571634
 20
830.0990094917341
 30
0.0
 40
490.0000078061373
100
AcDbArc
 50
0.0001525878906262
 51
180.0
  0
LINE
  5
14B
330
1F
100
AcDbEntity
  8
0-6
  6
JWW_DASHED1
 62
     2
370
    13
100
AcDbLine
 10
-43.79532899941587
 20
1139.139165086608
 30
0.0
 11
-43.79532899941587
 21
1109.442706586743
 31
0.0
  0
LINE
  5
14C
330
1F
100
AcDbEntity
  8
0-6
  6
JWW_DASHED1
 62
     2
370
    13
100
AcDbLine
 10
-43.79532899941587
 20
1098.735267885836
 30
0.0
 11
-43.79532899941589
 21
1069.578083270277
 31
0.0
  0
LINE
  5
14D
330
1F
100
AcDbEntity
  8
0-6
  6
Continuous
 62
     2
370
    13
100
AcDbLine
 10
-43.79532899941587
 20
1109.442706586743
 30
0.0
 11
-43.79532899941587
 21
1098.735267885836
 31
0.0
  0
LINE
  5
14E
330
1F
100
AcDbEntity
  8
0-6
  6
JWW_DASHED1
 62
     2
370
    13
100
AcDbLine
 10
-168.795235914911
 20
1098.735355373487
 30
0.0
 11
-168.795235914911
 21
1069.578083270277
 31
0.0
  0
LINE
  5
14F
330
1F
100
AcDbEntity
  8
0-6
  6
JWW_DASHED1
 62
     2
370
    13
100
AcDbLine
 10
-168.795235914911
 20
1139.139165086608
 30
0.0
 11
-168.795235914911
 21
1109.442706586743
 31
0.0
  0
LINE
  5
150
330
1F
100
AcDbEntity
  8
0-6
  6
Continuous
 62
     2
370
    13
100
AcDbLine
 10
-168.795235914911
 20
1109.442706586743
 30
0.0
 11
-168.795235914911
 21
1098.735355373487
 31
0.0
  0
ARC
  5
151
330
1F
100
AcDbEntity
  8
0-6
  6
JWW_DASHED1
 62
     2
370
    13
100
AcDbCircle
 10
-153.7953030771487
 20
1139.139165086608
 30
0.0
 40
14.99999982049566
100
AcDbArc
 50
98.53640747070318
 51
180.0000000000001
  0
ARC
  5
152
330
1F
100
AcDbEntity
  8
0-6
  6
JWW_DASHED1
 62
     2
370
    13
100
AcDbCircle
 10
-58.79526183717822
 20
1139.139165086608
 30
0.0
 40
14.99999982049566
100
AcDbArc
 50
0.0
 51
81.46359252929688
  0
ARC
  5
153
330
1F
100
AcDbEntity
  8
0-6
  6
JWW_DASHED1
 62
     2
370
    13
100
AcDbCircle
 10
-106.2954574324666
 20
822.6835561442739
 30
0.0
 40
335.0007163972008
100
AcDbArc
 50
81.46362304687501
 51
98.53637695312501
  0
ARC
  5
154
330
1F
100
AcDbEntity
  8
0-6
  6
Continuous
 62
     2
370
    13
100
AcDbCircle
 10
-106.2954574324666
 20
830.0990094917341
 30
0.0
 40
178.0300110555524
100
AcDbArc
 50
0.0
 51
180.0
  0
ARC
  5
155
330
1F
100
AcDbEntity
  8
0-6
  6
JWW_DASHED1
 62
     2
370
    13
100
AcDbCircle
 10
-106.2954574324666
 20
830.0990094917341
 30
0.0
 40
247.5004447288955
100
AcDbArc
 50
0.0
 51
180.0
  0
ARC
  5
156
330
1F
100
AcDbEntity
  8
0-6
  6
JWW_DASHED1
 62
     2
370
    13
100
AcDbCircle
 10
-106.2954574324666
 20
830.0990094917341
 30
0.0
 40
244.697012293753
100
AcDbArc
 50
0.0
 51
180.0
  0
ARC
  5
157
330
1F
100
AcDbEntity
  8
0-0_通り芯
  6
Continuous
 62
     3
370
    13
100
AcDbCircle
 10
-106.2952824571634
 20
830.0990094917341
 30
0.0
 40
499.9999776125875
100
AcDbArc
 50
0.0001525878906262
 51
179.9999999999999
  0
ARC
  5
158
330
1F
100
AcDbEntity
  8
0-0_通り芯
  6
Continuous
 62
     3
370
    13
100
AcDbCircle
 10
-106.2952824571634
 20
830.0990094917341
 30
0.0
 40
495.0000145812751
100
AcDbArc
 50
0.0001525878906262
 51
179.9999999999999
  0
ARC
  5
159
330
1F
100
AcDbEntity
  8
0-1_ピット
  6
Continuous
 62
     2
370
    13
100
AcDbCircle
 10
-321.295661275749
 20
830.0990094917341
 30
0.0
 40
64.9999951211642
100
AcDbArc
 50
0.0
 51
47.85313415527343
  0
LINE
  5
15A
330
1F
100
AcDbEntity
  8
0-0_通り芯
  6
JWW_CENTER1
 62
     3
370
    13
100
AcDbLine
 10
-106.2953699448149
 20
1371.947830358499
 30
0.0
 11
-106.2953699448149
 21
815.3334600094946
 31
0.0
  0
LINE
  5
15B
330
1F
100
AcDbEntity
  8
0-1_ピット
  6
Continuous
 62
     2
370
    13
100
AcDbLine
 10
-556.2953672936742
 20
-104.3276299243138
 30
0.0
 11
-553.7953201622794
 21
-94.32779134934094
 31
0.0
  0
LINE
  5
15C
330
1F
100
AcDbEntity
  8
0-1_ピット
  6
Continuous
 62
     2
370
    13
100
AcDbLine
 10
-526.0004932570398
 20
-94.32779134934094
 30
0.0
 11
-553.7953201622794
 21
-94.32779134934094
 31
0.0
  0
LINE
  5
15D
330
1F
100
AcDbEntity
  8
0-1_ピット
  6
Continuous
 62
     2
370
    13
100
AcDbLine
 10
-458.7951039470059
 20
-74.3279392240919
 30
0.0
 11
-473.7953867353746
 21
-74.3279392240919
 31
0.0
  0
LINE
  5
15E
330
1F
100
AcDbEntity
  8
0-1_ピット
  6
Continuous
 62
     2
370
    13
100
AcDbLine
 10
-476.2602638308364
 20
-90.42409233608367
 30
0.0
 11
-473.7953867353746
 21
-74.3279392240919
 31
0.0
  0
LINE
  5
15F
330
1F
100
AcDbEntity
  8
0-1_ピット
  6
Continuous
 62
     2
370
    13
100
AcDbLine
 10
343.7048023793469
 20
-104.3276299243139
 30
0.0
 11
341.2044052973459
 21
-94.32779134934108
 31
0.0
  0
LINE
  5
160
330
1F
100
AcDbEntity
  8
0-1_ピット
  6
Continuous
 62
     2
370
    13
100
AcDbLine
 10
313.4099283427127
 20
-94.32779134934108
 30
0.0
 11
341.2044052973459
 21
-94.32779134934108
 31
0.0
  0
LINE
  5
161
330
1F
100
AcDbEntity
  8
0-1_ピット
  6
Continuous
 62
     2
370
    13
100
AcDbLine
 10
263.6700488671155
 20
-90.42409233608382
 30
0.0
 11
261.204646845744
 21
-74.32793922409203
 31
0.0
  0
LINE
  5
162
330
1F
100
AcDbEntity
  8
0-1_ピット
  6
Continuous
 62
     2
370
    13
100
AcDbLine
 10
-351.2951770006677
 20
-131.8277984190501
 30
0.0
 11
-346.2954326884845
 21
-156.8279197823915
 31
0.0
  0
LINE
  5
163
330
1F
100
AcDbEntity
  8
0-1_ピット
  6
Continuous
 62
     2
370
    13
100
AcDbLine
 10
-291.2950956990118
 20
-131.8277984190503
 30
0.0
 11
-296.2953649371045
 21
-156.8279197823917
 31
0.0
  0
LINE
  5
164
330
1F
100
AcDbEntity
  8
0-1_ピット
  6
Continuous
 62
     2
370
    13
100
AcDbLine
 10
-260.0894752094863
 20
-137.857272390266
 30
0.0
 11
-256.2951357606973
 21
-156.8279197823917
 31
0.0
  0
LINE
  5
165
330
1F
100
AcDbEntity
  8
0-1_ピット
  6
Continuous
 62
     2
370
    13
100
AcDbLine
 10
-494.9696730953603
 20
-102.6427927302908
 30
0.0
 11
-526.0004932570398
 21
-94.32779134934094
 31
0.0
  0
LINE
  5
166
330
1F
100
AcDbEntity
  8
0-1_ピット
  6
Continuous
 62
     2
370
    13
100
AcDbLine
 10
175.1041994745449
 20
-110.5140567424546
 30
0.0
 11
172.3185926484106
 21
-126.1697970164199
 31
0.0
  0
LINE
  5
167
330
1F
100
AcDbEntity
  8
0-1_ピット
  6
JWW_DASHED1
 62
     2
370
    13
100
AcDbLine
 10
241.7284958028207
 20
-98.20961844970455
 30
0.0
 11
239.8643089230696
 21
-108.1576643349452
 31
0.0
  0
LINE
  5
168
330
1F
100
AcDbEntity
  8
0-1_ピット
  6
Continuous
 62
     2
370
    13
100
AcDbLine
 10
145.4665326765387
 20
-139.3281147885376
 30
0.0
 11
165.0613169749973
 21
-134.0776308669417
 31
0.0
  0
LINE
  5
169
330
1F
100
AcDbEntity
  8
0-1_ピット
  6
JWW_DASHED1
 62
     2
370
    13
100
AcDbLine
 10
165.0613169749973
 20
-134.0776308669417
 30
0.0
 11
282.3794581316394
 21
-102.6420928290783
 31
0.0
  0
LINE
  5
16A
330
1F
100
AcDbEntity
  8
0-1_ピット
  6
Continuous
 62
     2
370
    13
100
AcDbLine
 10
282.3794581316394
 20
-102.6420928290783
 30
0.0
 11
313.4099283427127
 21
-94.32779134934108
 31
0.0
  0
LINE
  5
16B
330
1F
100
AcDbEntity
  8
0-1_ピット
  6
Continuous
 62
     2
370
    13
100
AcDbLine
 10
246.2047140079817
 20
-74.32793922409203
 30
0.0
 11
241.7284958028207
 21
-98.20961844970455
 31
0.0
  0
LINE
  5
16C
330
1F
100
AcDbEntity
  8
0-1_ピット
  6
Continuous
 62
     2
370
    13
100
AcDbLine
 10
246.2047140079817
 20
-74.32793922409203
 30
0.0
 11
261.204646845744
 21
-74.32793922409203
 31
0.0
  0
LINE
  5
16D
330
1F
100
AcDbEntity
  8
0-1_ピット
  6
Continuous
 62
     4
370
    13
100
AcDbLine
 10
-358.7958433207616
 20
-131.8277984190501
 30
0.0
 11
-283.7953042554337
 21
-131.8277984190503
 31
0.0
  0
LINE
  5
16E
330
1F
100
AcDbEntity
  8
0-1_ピット
  6
Continuous
 62
     2
370
    13
100
AcDbLine
 10
-341.2951634503918
 20
-156.8279197823915
 30
0.0
 11
-360.3611723827339
 21
-156.8279197823915
 31
0.0
  0
LINE
  5
16F
330
1F
100
AcDbEntity
  8
0-1_ピット
  6
Continuous
 62
     2
370
    13
100
AcDbLine
 10
241.2046197451921
 20
-134.3808630672991
 30
0.0
 11
251.204458320165
 21
-131.700766348964
 31
0.0
  0
LINE
  5
170
330
1F
100
AcDbEntity
  8
0-1_ピット
  6
Continuous
 62
     2
370
    13
100
AcDbLine
 10
241.2046197451921
 20
-134.3808630672991
 30
0.0
 11
236.2041755317962
 21
-133.1324142793302
 31
0.0
  0
LINE
  5
171
330
1F
100
AcDbEntity
  8
0-1_ピット
  6
Continuous
 62
     2
370
    13
100
AcDbLine
 10
147.7702575178002
 20
-156.8279197823917
 30
0.0
 11
236.2041755317962
 21
-133.1324142793302
 31
0.0
  0
LINE
  5
172
330
1F
100
AcDbEntity
  8
0-1_ピット
  6
Continuous
 62
     2
370
    13
100
AcDbLine
 10
251.204458320165
 20
-131.700766348964
 30
0.0
 11
256.2052524841671
 21
-127.7729207438723
 31
0.0
  0
LINE
  5
173
330
1F
100
AcDbEntity
  8
0-1_ピット
  6
Continuous
 62
     2
370
    13
100
AcDbLine
 10
256.2052524841671
 20
-127.7729207438723
 30
0.0
 11
343.7048023793469
 21
-104.3276299243139
 31
0.0
  0
LINE
  5
174
330
1F
100
AcDbEntity
  8
0-1_ピット
  6
Continuous
 62
     2
370
    13
100
AcDbLine
 10
-453.7950096842164
 20
-134.380863067299
 30
0.0
 11
-463.7953731850988
 21
-131.7007663489639
 31
0.0
  0
LINE
  5
175
330
1F
100
AcDbEntity
  8
0-1_ピット
  6
Continuous
 62
     2
370
    13
100
AcDbLine
 10
-463.7953731850988
 20
-131.7007663489639
 30
0.0
 11
-468.7956424231915
 21
-127.7732706944784
 31
0.0
  0
LINE
  5
176
330
1F
100
AcDbEntity
  8
0-1_ピット
  6
Continuous
 62
     2
370
    13
100
AcDbLine
 10
-468.7956424231915
 20
-127.7732706944784
 30
0.0
 11
-556.2953672936742
 21
-104.3276299243138
 31
0.0
  0
LINE
  5
177
330
1F
100
AcDbEntity
  8
0-1_ピット
  6
Continuous
 62
     2
370
    13
100
AcDbLine
 10
-453.7950096842164
 20
-134.380863067299
 30
0.0
 11
-448.7954403473362
 21
-133.13241427933
 31
0.0
  0
LINE
  5
178
330
1F
100
AcDbEntity
  8
0-1_ピット
  6
Continuous
 62
     2
370
    13
100
AcDbLine
 10
-360.3611723827339
 20
-156.8279197823915
 30
0.0
 11
-448.7954403473362
 21
-133.13241427933
 31
0.0
  0
LINE
  5
179
330
1F
100
AcDbEntity
  8
0-1_ピット
  6
Continuous
 62
     2
370
    13
100
AcDbLine
 10
-301.2954591998941
 20
-156.8279197823917
 30
0.0
 11
147.7702575178002
 21
-156.8279197823917
 31
0.0
  0
LINE
  5
17A
330
1F
100
AcDbEntity
  8
0-1_ピット
  6
Continuous
 62
     2
370
    13
100
AcDbLine
 10
-259.7951667495895
 20
-139.3281147885376
 30
0.0
 11
145.4665326765387
 21
-139.3281147885376
 31
0.0
  0
LINE
  5
17B
330
1F
100
AcDbEntity
  8
0-1_ピット
  6
Continuous
 62
     2
370
    13
100
AcDbLine
 10
-438.7954267970602
 20
-104.3276299243138
 30
0.0
 11
-446.9478761213844
 21
-104.3276299243138
 31
0.0
  0
LINE
  5
17C
330
1F
100
AcDbEntity
  8
0-1_ピット
  6
Continuous
 62
     2
370
    13
100
AcDbLine
 10
-387.6947643888722
 20
-110.5140567424544
 30
0.0
 11
-385.3702174865359
 21
-123.579637603903
 31
0.0
  0
LINE
  5
17D
330
1F
100
AcDbEntity
  8
0-1_ピット
  6
Continuous
 62
     2
370
    13
100
AcDbLine
 10
-458.7951039470059
 20
-74.3279392240919
 30
0.0
 11
-453.4613317811109
 21
-102.7871473553887
 31
0.0
  0
LINE
  5
17E
330
1F
100
AcDbEntity
  8
0-1_ピット
  6
JWW_DASHED1
 62
     2
370
    13
100
AcDbLine
 10
-453.4613317811109
 20
-102.7871473553887
 30
0.0
 11
-452.454873837397
 21
-108.157664334945
 31
0.0
  0
LINE
  5
17F
330
1F
100
AcDbEntity
  8
0-1_ピット
  6
JWW_DASHED1
 62
     2
370
    13
100
AcDbLine
 10
-438.7954267970604
 20
-117.6941683071789
 30
0.0
 11
-494.9696730953603
 21
-102.6427927302908
 31
0.0
  0
LINE
  5
180
330
1F
100
AcDbEntity
  8
0-1_ピット
  6
Continuous
 62
     2
370
    13
100
AcDbLine
 10
-267.4436872008443
 20
-131.8277984190503
 30
0.0
 11
-375.5248821042437
 21
-131.8277984190501
 31
0.0
  0
LINE
  5
181
330
1F
100
AcDbEntity
  8
0-1_ピット
  6
JWW_DASHED1
 62
     2
370
    13
100
AcDbLine
 10
-375.5248821042437
 20
-131.8277984190501
 30
0.0
 11
-386.0477218603293
 21
-131.8277984190501
 31
0.0
  0
LINE
  5
182
330
1F
100
AcDbEntity
  8
0-1_ピット
  6
Continuous
 62
     4
370
    13
100
AcDbLine
 10
-357.2455621348603
 20
-108.3788331181256
 30
0.0
 11
-357.2455621348603
 21
-131.8277984190501
 31
0.0
  0
LINE
  5
183
330
1F
100
AcDbEntity
  8
0-1_ピット
  6
Continuous
 62
     4
370
    13
100
AcDbLine
 10
-293.3200848823568
 20
-105.3283136830238
 30
0.0
 11
-349.270362792626
 21
-105.3283136830237
 31
0.0
  0
LINE
  5
184
330
1F
100
AcDbEntity
  8
0-1_ピット
  6
Continuous
 62
     4
370
    13
100
AcDbLine
 10
-285.3450605154256
 20
-108.3788331181258
 30
0.0
 11
-285.3450605154256
 21
-131.8277984190503
 31
0.0
  0
LINE
  5
185
330
1F
100
AcDbEntity
  8
0-1_ピット
  6
Continuous
 62
     4
370
    13
100
AcDbLine
 10
-341.2953384256949
 20
-108.3788331181256
 30
0.0
 11
-341.2953384256949
 21
-187.7273334914064
 31
0.0
  0
LINE
  5
186
330
1F
100
AcDbEntity
  8
0-1_ピット
  6
Continuous
 62
     4
370
    13
100
AcDbLine
 10
-301.2954591998941
 20
-187.7273334914064
 30
0.0
 11
-341.2953384256949
 21
-187.7273334914064
 31
0.0
  0
LINE
  5
187
330
1F
100
AcDbEntity
  8
0-1_ピット
  6
Continuous
 62
     4
370
    13
100
AcDbLine
 10
-341.2953384256949
 20
-187.7273334914064
 30
0.0
 11
-337.9128908405191
 21
-191.1096061012789
 31
0.0
  0
LINE
  5
188
330
1F
100
AcDbEntity
  8
0-1_ピット
  6
Continuous
 62
     4
370
    13
100
AcDbLine
 10
-337.9128908405191
 20
-191.1096061012789
 30
0.0
 11
-304.6777318097668
 21
-191.1096061012789
 31
0.0
  0
LINE
  5
189
330
1F
100
AcDbEntity
  8
0-1_ピット
  6
Continuous
 62
     4
370
    13
100
AcDbLine
 10
-304.6777318097668
 20
-191.1096061012789
 30
0.0
 11
-301.2954591998941
 21
-187.7273334914064
 31
0.0
  0
LINE
  5
18A
330
1F
100
AcDbEntity
  8
0-1_ピット
  6
Continuous
 62
     4
370
    13
100
AcDbLine
 10
-301.2954591998941
 20
-108.3788331181258
 30
0.0
 11
-301.2954591998941
 21
-187.7273334914064
 31
0.0
  0
LINE
  5
18B
330
1F
100
AcDbEntity
  8
0-1_ピット
  6
Continuous
 62
     4
370
    13
100
AcDbLine
 10
-337.9128908405191
 20
-131.8277984190501
 30
0.0
 11
-337.9128908405191
 21
-191.1096061012789
 31
0.0
  0
LINE
  5
18C
330
1F
100
AcDbEntity
  8
0-1_ピット
  6
JWW_DASHED1
 62
     2
370
    13
100
AcDbLine
 10
-386.0477218603293
 20
-131.8277984190501
 30
0.0
 11
-408.7950361956259
 21
-125.7328836844565
 31
0.0
  0
LINE
  5
18D
330
1F
100
AcDbEntity
  8
0-1_ピット
  6
Continuous
 62
     4
370
    13
100
AcDbLine
 10
-304.6777318097668
 20
-131.8277984190503
 30
0.0
 11
-304.6777318097668
 21
-191.1096061012789
 31
0.0
  0
LINE
  5
18E
330
1F
100
AcDbEntity
  8
0-1_ピット
  6
Continuous
 62
     2
370
    13
100
AcDbLine
 10
182.4878073168318
 20
-104.3276299243139
 30
0.0
 11
200.5547072681923
 21
-104.3276299243139
 31
0.0
  0
LINE
  5
18F
330
1F
100
AcDbEntity
  8
0-1_ピット
  6
Continuous
 62
     2
370
    13
100
AcDbLine
 10
221.8548008711423
 20
-104.3276299243139
 30
0.0
 11
234.3571362317541
 21
-104.3276299243139
 31
0.0
  0
LINE
  5
190
330
1F
100
AcDbEntity
  8
0-1_ピット
  6
Continuous
 62
     2
370
    13
100
AcDbLine
 10
-413.1452721825196
 20
-104.3276299243138
 30
0.0
 11
-395.0787221817655
 21
-104.3276299243138
 31
0.0
  0
LINE
  5
191
330
1F
100
AcDbEntity
  8
0-0_通り芯
  6
JWW_CENTER1
 62
     3
370
    13
100
AcDbLine
 10
-106.2953699448151
 20
266.5956911847065
 30
0.0
 11
-106.2953699448153
 21
-549.5216681092274
 31
0.0
  0
LINE
  5
192
330
1F
100
AcDbEntity
  8
0-0_通り芯
  6
Continuous
 62
     3
370
    13
100
AcDbLine
 10
-471.2218499766573
 20
-142.6524705730679
 30
0.0
 11
-446.3688828432641
 21
-149.3113307097113
 31
0.0
  0
LINE
  5
193
330
1F
100
AcDbEntity
  8
0-0_通り芯
  6
Continuous
 62
     3
370
    13
100
AcDbLine
 10
-522.5279333907423
 20
-113.3756028501554
 30
0.0
 11
-508.0392783887816
 21
-117.257604925822
 31
0.0
  0
LINE
  5
194
330
1F
100
AcDbEntity
  8
0-0_通り芯
  6
Continuous
 62
     3
370
    13
100
AcDbLine
 10
-482.0459972047656
 20
-124.2226718429762
 30
0.0
 11
-493.5499234856084
 21
-121.139956952095
 31
0.0
  0
LINE
  5
195
330
1F
100
AcDbEntity
  8
0-0_通り芯
  6
Continuous
 62
     3
370
    13
100
AcDbLine
 10
-478.4415059598936
 20
-128.0497316734539
 30
0.0
 11
-476.628061918056
 21
-136.9111809261386
 31
0.0
  0
LINE
  5
196
330
1F
100
AcDbEntity
  8
0-0_通り芯
  6
Continuous
 62
     3
370
    13
100
AcDbLine
 10
-432.8152958613325
 20
-140.2752561044838
 30
0.0
 11
-438.8162488581351
 21
-147.042950879686
 31
0.0
  0
LINE
  5
197
330
1F
100
AcDbEntity
  8
0-0_通り芯
  6
Continuous
 62
     3
370
    13
100
AcDbLine
 10
-596.295071544172
 20
-93.60969270521679
 30
0.0
 11
-537.0172882939155
 21
-109.492900873276
 31
0.0
  0
LINE
  5
198
330
1F
100
AcDbEntity
  8
0-0_通り芯
  6
JWW_DASHED1
 62
     3
370
    13
100
AcDbLine
 10
219.4621885758811
 20
-169.5601726913414
 30
0.0
 11
215.5112462307737
 21
-165.1056514237708
 31
0.0
  0
LINE
  5
199
330
1F
100
AcDbEntity
  8
0-0_通り芯
  6
Continuous
 62
     3
370
    13
100
AcDbLine
 10
-493.7437961214977
 20
-153.0309557040556
 30
0.0
 11
-494.9381775407937
 21
-147.1962292452446
 31
0.0
  0
LINE
  5
19A
330
1F
100
AcDbEntity
  8
0-0_通り芯
  6
Continuous
 62
     3
370
    13
100
AcDbLine
 10
-416.2759303064638
 20
-141.8454844749442
 30
0.0
 11
-427.7795066367003
 21
-138.7634694852752
 31
0.0
  0
LINE
  5
19B
330
1F
100
AcDbEntity
  8
0-0_通り芯
  6
Continuous
 62
     3
370
    13
100
AcDbLine
 10
-290.6044681774822
 20
-167.8443648686611
 30
0.0
 11
-281.2954320993422
 21
-258.6096538218162
 31
0.0
  0
LINE
  5
19C
330
1F
100
AcDbEntity
  8
0-0_通り芯
  6
Continuous
 62
     3
370
    13
100
AcDbLine
 10
160.1186146116406
 20
-293.6096137601306
 30
0.0
 11
178.7048412627475
 21
-293.6096137601306
 31
0.0
  0
LINE
  5
19D
330
1F
100
AcDbEntity
  8
0-0_通り芯
  6
Continuous
 62
     3
370
    13
100
AcDbLine
 10
185.2468178968873
 20
-249.9970194502096
 30
0.0
 11
178.7048412627475
 21
-293.6096137601306
 31
0.0
  0
LINE
  5
19E
330
1F
100
AcDbEntity
  8
0-0_通り芯
  6
JWW_DASHED1
 62
     3
370
    13
100
AcDbLine
 10
191.210326178816
 20
-165.8940901397609
 30
0.0
 11
205.4410675839349
 21
-162.0810283335349
 31
0.0
  0
LINE
  5
19F
330
1F
100
AcDbEntity
  8
0-0_通り芯
  6
Continuous
 62
     3
370
    13
100
AcDbLine
 10
-486.1932618400064
 20
-159.3461643453139
 30
0.0
 11
-488.3374092047958
 21
-158.7715454497723
 31
0.0
  0
LINE
  5
1A0
330
1F
100
AcDbEntity
  8
0-0_通り芯
  6
JWW_DASHED1
 62
     3
370
    13
100
AcDbLine
 10
273.6023469750727
 20
-159.346164345314
 30
0.0
 11
227.0148225610102
 21
-171.8289024719731
 31
0.0
  0
LINE
  5
1A1
330
1F
100
AcDbEntity
  8
0-0_通り芯
  6
Continuous
 62
     3
370
    13
100
AcDbLine
 10
-372.5709490364801
 20
-153.5562315641093
 30
0.0
 11
-401.7869253538969
 21
-145.7278365012169
 31
0.0
  0
LINE
  5
1A2
330
1F
100
AcDbEntity
  8
0-0_通り芯
  6
JWW_DASHED1
 62
     3
370
    13
100
AcDbLine
 10
-312.5607191672415
 20
-228.1975463320721
 30
0.0
 11
-342.7086139492306
 21
-224.9010116207425
 31
0.0
  0
LINE
  5
1A3
330
1F
100
AcDbEntity
  8
0-0_通り芯
  6
JWW_DASHED1
 62
     3
370
    13
100
AcDbLine
 10
-308.1726885148676
 20
-232.346385745041
 30
0.0
 11
-303.7951563806826
 21
-258.6096538218162
 31
0.0
  0
LINE
  5
1A4
330
1F
100
AcDbEntity
  8
0-0_通り芯
  6
JWW_DASHED1
 62
     3
370
    13
100
AcDbLine
 10
192.6636710467726
 20
-243.6097209840538
 30
0.0
 11
178.8518205173928
 21
-243.6097209840538
 31
0.0
  0
LINE
  5
1A5
330
1F
100
AcDbEntity
  8
0-0_通り芯
  6
JWW_DASHED1
 62
     3
370
    13
100
AcDbLine
 10
180.2043796107358
 20
-178.5546031744194
 30
0.0
 11
166.0775735356875
 21
-293.6096137601306
 31
0.0
  0
LINE
  5
1A6
330
1F
100
AcDbEntity
  8
0-0_通り芯
  6
JWW_DASHED1
 62
     3
370
    13
100
AcDbLine
 10
-355.9661427182339
 20
-211.8182831795851
 30
0.0
 11
-361.565352419006
 21
-166.2176194752834
 31
0.0
  0
LINE
  5
1A7
330
1F
100
AcDbEntity
  8
0-0_通り芯
  6
Continuous
 62
     3
370
    13
100
AcDbLine
 10
-365.2650302287914
 20
-300.195684170664
 30
0.0
 11
-353.7953991073658
 21
-393.6093993122843
 31
0.0
  0
LINE
  5
1A8
330
1F
100
AcDbEntity
  8
0-0_通り芯
  6
Continuous
 62
     3
370
    13
100
AcDbLine
 10
-331.2953248754191
 20
-268.6094923967891
 30
0.0
 11
-331.2953248754191
 21
-318.6093851728658
 31
0.0
  0
LINE
  5
1A9
330
1F
100
AcDbEntity
  8
0-0_通り芯
  6
Continuous
 62
     3
370
    13
100
AcDbLine
 10
-304.536001814216
 20
-268.6094923967891
 30
0.0
 11
-303.7951563806826
 21
-258.6096538218162
 31
0.0
  0
LINE
  5
1AA
330
1F
100
AcDbEntity
  8
0-0_通り芯
  6
Continuous
 62
     3
370
    13
100
AcDbLine
 10
-326.0054715106145
 20
-393.6093993122843
 30
0.0
 11
-321.317533188643
 21
-318.6093851728658
 31
0.0
  0
LINE
  5
1AB
330
1F
100
AcDbEntity
  8
0-0_通り芯
  6
Continuous
 62
     3
370
    13
100
AcDbLine
 10
309.937368476415
 20
-113.3756028501556
 30
0.0
 11
295.4483635238479
 21
-117.2576049258221
 31
0.0
  0
LINE
  5
1AC
330
1F
100
AcDbEntity
  8
0-0_通り芯
  6
Continuous
 62
     3
370
    13
100
AcDbLine
 10
383.7045066298447
 20
-93.60969270521693
 30
0.0
 11
324.4267233795884
 21
-109.4929008732761
 31
0.0
  0
LINE
  5
1AD
330
1F
100
AcDbEntity
  8
0-0_通り芯
  6
Continuous
 62
     3
370
    13
100
AcDbLine
 10
-432.0524035396022
 20
-169.5601726913412
 30
0.0
 11
-428.1021610957074
 21
-165.1056514237706
 31
0.0
  0
LINE
  5
1AE
330
1F
100
AcDbEntity
  8
0-0_通り芯
  6
Continuous
 62
     3
370
    13
100
AcDbLine
 10
281.1528812565639
 20
-153.0309557040557
 30
0.0
 11
282.3476126264661
 21
-147.1962292452447
 31
0.0
  0
LINE
  5
1AF
330
1F
100
AcDbEntity
  8
0-0_通り芯
  6
Continuous
 62
     3
370
    13
100
AcDbLine
 10
-403.800541142537
 20
-165.8940901397608
 30
0.0
 11
-418.0319824488685
 21
-162.0810283335348
 31
0.0
  0
LINE
  5
1B0
330
1F
100
AcDbEntity
  8
0-0_通り芯
  6
Continuous
 62
     3
370
    13
100
AcDbLine
 10
273.6023469750727
 20
-159.346164345314
 30
0.0
 11
275.7468442904682
 21
-158.7715454497724
 31
0.0
  0
LINE
  5
1B1
330
1F
100
AcDbEntity
  8
0-0_通り芯
  6
Continuous
 62
     3
370
    13
100
AcDbLine
 10
-486.1932618400064
 20
-159.3461643453139
 30
0.0
 11
-439.6055624506407
 21
-171.8289024719729
 31
0.0
  0
LINE
  5
1B2
330
1F
100
AcDbEntity
  8
0-0_通り芯
  6
Continuous
 62
     3
370
    13
100
AcDbLine
 10
118.7047599610917
 20
-268.6094923967891
 30
0.0
 11
118.7047599610917
 21
-318.6093851728658
 31
0.0
  0
LINE
  5
1B3
330
1F
100
AcDbEntity
  8
0-0_通り芯
  6
Continuous
 62
     3
370
    13
100
AcDbLine
 10
91.94578685049481
 20
-268.6094923967891
 30
0.0
 11
91.20494141696145
 21
-258.6096538218162
 31
0.0
  0
LINE
  5
1B4
330
1F
100
AcDbEntity
  8
0-0_通り芯
  6
Continuous
 62
     3
370
    13
100
AcDbLine
 10
113.4149065962869
 20
-393.6093993122843
 30
0.0
 11
108.7273182249219
 21
-318.6093851728658
 31
0.0
  0
LINE
  5
1B5
330
1F
100
AcDbEntity
  8
0-0_通り芯
  6
Continuous
 62
     3
370
    13
100
AcDbLine
 10
-303.7951563806826
 20
-258.6096538218162
 30
0.0
 11
91.20494141696145
 21
-258.6096538218162
 31
0.0
  0
LINE
  5
1B6
330
1F
100
AcDbEntity
  8
0-0_通り芯
  6
Continuous
 62
     3
370
    13
100
AcDbLine
 10
-353.7953991073658
 20
-393.6093993122843
 30
0.0
 11
141.2051841436447
 21
-393.6093993122843
 31
0.0
  0
LINE
  5
1B7
330
1F
100
AcDbEntity
  8
0-0_通り芯
  6
Continuous
 62
     3
370
    13
100
AcDbLine
 10
269.4557822410443
 20
-124.2226718429764
 30
0.0
 11
280.9593585712809
 21
-121.1399569520951
 31
0.0
  0
LINE
  5
1B8
330
1F
100
AcDbEntity
  8
0-0_通り芯
  6
Continuous
 62
     3
370
    13
100
AcDbLine
 10
265.8512909961725
 20
-128.0497316734541
 30
0.0
 11
264.0378469543349
 21
-136.9111809261388
 31
0.0
  0
LINE
  5
1B9
330
1F
100
AcDbEntity
  8
0-0_通り芯
  6
Continuous
 62
     3
370
    13
100
AcDbLine
 10
258.6307601364205
 20
-142.6524705730681
 30
0.0
 11
233.7779679783303
 21
-149.3113307097114
 31
0.0
  0
LINE
  5
1BA
330
1F
100
AcDbEntity
  8
0-0_通り芯
  6
Continuous
 62
     3
370
    13
100
AcDbLine
 10
203.6853653921366
 20
-141.8454844749444
 30
0.0
 11
215.1892916729792
 21
-138.7634694852754
 31
0.0
  0
LINE
  5
1BB
330
1F
100
AcDbEntity
  8
0-0_通り芯
  6
Continuous
 62
     3
370
    13
100
AcDbLine
 10
220.2243809963987
 20
-140.2752561044839
 30
0.0
 11
226.2253339932012
 21
-147.0426009290797
 31
0.0
  0
LINE
  5
1BC
330
1F
100
AcDbEntity
  8
0-0_通り芯
  6
Continuous
 62
     3
370
    13
100
AcDbLine
 10
159.9803841221529
 20
-153.5562315641094
 30
0.0
 11
189.196710390176
 21
-145.727836501217
 31
0.0
  0
LINE
  5
1BD
330
1F
100
AcDbEntity
  8
0-0_通り芯
  6
Continuous
 62
     3
370
    13
100
AcDbLine
 10
143.3759277545129
 20
-211.8182831795851
 30
0.0
 11
148.9751374552849
 21
-166.2167445987679
 31
0.0
  0
LINE
  5
1BE
330
1F
100
AcDbEntity
  8
0-0_通り芯
  6
Continuous
 62
     3
370
    13
100
AcDbLine
 10
-331.2953248754191
 20
-268.6094923967891
 30
0.0
 11
118.7047599610917
 21
-268.6094923967891
 31
0.0
  0
LINE
  5
1BF
330
1F
100
AcDbEntity
  8
0-0_通り芯
  6
Continuous
 62
     3
370
    13
100
AcDbLine
 10
118.7047599610917
 20
-318.6093851728658
 30
0.0
 11
-331.2953248754191
 21
-318.6093851728658
 31
0.0
  0
LINE
  5
1C0
330
1F
100
AcDbEntity
  8
0-0_通り芯
  6
Continuous
 62
     3
370
    13
100
AcDbLine
 10
-318.1172348940453
 20
-385.7211626957154
 30
0.0
 11
-313.9227269269544
 21
-318.6093851728658
 31
0.0
  0
LINE
  5
1C1
330
1F
100
AcDbEntity
  8
0-0_通り芯
  6
Continuous
 62
     3
370
    13
100
AcDbLine
 10
-326.0054715106145
 20
-393.6093993122843
 30
0.0
 11
-318.1172348940453
 21
-385.7211626957154
 31
0.0
  0
LINE
  5
1C2
330
1F
100
AcDbEntity
  8
0-0_通り芯
  6
Continuous
 62
     3
370
    13
100
AcDbLine
 10
113.4149065962869
 20
-393.6093993122843
 30
0.0
 11
105.5270199303242
 21
-385.7211626957154
 31
0.0
  0
LINE
  5
1C3
330
1F
100
AcDbEntity
  8
0-0_通り芯
  6
Continuous
 62
     3
370
    13
100
AcDbLine
 10
105.5270199303242
 20
-385.7215126463216
 30
0.0
 11
101.3325119632332
 21
-318.6093851728658
 31
0.0
  0
LINE
  5
1C4
330
1F
100
AcDbEntity
  8
0-0_通り芯
  6
Continuous
 62
     3
370
    13
100
AcDbLine
 10
-318.1172348940453
 20
-385.7215126463216
 30
0.0
 11
105.5270199303242
 21
-385.7215126463216
 31
0.0
  0
LINE
  5
1C5
330
1F
100
AcDbEntity
  8
0-0_通り芯
  6
Continuous
 62
     3
370
    13
100
AcDbLine
 10
259.5010872942841
 20
-237.0075528456307
 30
0.0
 11
268.0976239380008
 21
-165.6928685411394
 31
0.0
  0
LINE
  5
1C6
330
1F
100
AcDbEntity
  8
0-0_通り芯
  6
Continuous
 62
     3
370
    13
100
AcDbLine
 10
192.6636710467726
 20
-243.6098959593569
 30
0.0
 11
252.0544883428635
 21
-243.6098959593569
 31
0.0
  0
LINE
  5
1C7
330
1F
100
AcDbEntity
  8
0-0_通り芯
  6
Continuous
 62
     3
370
    13
100
AcDbLine
 10
160.4108233678996
 20
-293.6096137601306
 30
0.0
 11
151.2015232125545
 21
-368.6094529242461
 31
0.0
  0
LINE
  5
1C8
330
1F
100
AcDbEntity
  8
0-0_通り芯
  6
Continuous
 62
     3
370
    13
100
AcDbLine
 10
144.2746009114866
 20
-368.6094529242461
 30
0.0
 11
141.2051841436447
 21
-393.6093993122843
 31
0.0
  0
LINE
  5
1C9
330
1F
100
AcDbEntity
  8
0-0_通り芯
  6
Continuous
 62
     3
370
    13
100
AcDbLine
 10
144.2746009114866
 20
-368.6094529242461
 30
0.0
 11
151.2015232125545
 21
-368.6094529242461
 31
0.0
  0
LINE
  5
1CA
330
1F
100
AcDbEntity
  8
0-0_通り芯
  6
JWW_DASHED1
 62
     3
370
    13
100
AcDbLine
 10
152.6751652156766
 20
-300.195684170664
 30
0.0
 11
144.2746009114866
 21
-368.6094529242461
 31
0.0
  0
LINE
  5
1CB
330
1F
100
AcDbEntity
  8
0-0_通り芯
  6
Continuous
 62
     3
370
    13
100
AcDbLine
 10
-601.2953407822648
 20
-138.609316243201
 30
0.0
 11
-576.29504444362
 21
-138.609316243201
 31
0.0
  0
LINE
  5
1CC
330
1F
100
AcDbEntity
  8
0-0_通り芯
  6
Continuous
 62
     3
370
    13
100
AcDbLine
 10
-601.2953407822648
 20
-138.609316243201
 30
0.0
 11
-606.2952600697512
 21
-133.6093969557146
 31
0.0
  0
LINE
  5
1CD
330
1F
100
AcDbEntity
  8
0-0_通り芯
  6
Continuous
 62
     3
370
    13
100
AcDbLine
 10
-502.1468100799316
 20
-139.5421095842889
 30
0.0
 11
-532.0010963032364
 21
-131.5425886749171
 31
0.0
  0
LINE
  5
1CE
330
1F
100
AcDbEntity
  8
0-0_通り芯
  6
Continuous
 62
     3
370
    13
100
AcDbLine
 10
388.7046008926341
 20
-138.6093162432012
 30
0.0
 11
363.7048294798989
 21
-138.6093162432012
 31
0.0
  0
LINE
  5
1CF
330
1F
100
AcDbEntity
  8
0-0_通り芯
  6
Continuous
 62
     3
370
    13
100
AcDbLine
 10
388.7046008926341
 20
-138.6093162432012
 30
0.0
 11
393.7046951554238
 21
-133.6093969557147
 31
0.0
  0
LINE
  5
1D0
330
1F
100
AcDbEntity
  8
0-0_通り芯
  6
Continuous
 62
     3
370
    13
100
AcDbLine
 10
289.5558952149979
 20
-139.542109584289
 30
0.0
 11
319.4112312901216
 21
-131.5425886749172
 31
0.0
  0
LINE
  5
1D1
330
1F
100
AcDbEntity
  8
0-0_通り芯
  6
Continuous
 62
     3
370
    13
100
AcDbLine
 10
384.2910238460004
 20
-93.60969270521693
 30
0.0
 11
264.5246282476957
 21
-93.60969270521693
 31
0.0
  0
LINE
  5
1D2
330
1F
100
AcDbEntity
  8
0-0_通り芯
  6
Continuous
 62
     3
370
    13
100
AcDbLine
 10
389.2526235420974
 20
-97.98949951834274
 30
0.0
 11
393.7046951554238
 21
-133.6093969557147
 31
0.0
  0
LINE
  5
1D3
330
1F
100
AcDbEntity
  8
0-0_通り芯
  6
Continuous
 62
     3
370
    13
100
AcDbLine
 10
-596.8812388097215
 20
-93.60969270521679
 30
0.0
 11
-477.1148432114167
 21
-93.60969270521679
 31
0.0
  0
LINE
  5
1D4
330
1F
100
AcDbEntity
  8
0-0_通り芯
  6
Continuous
 62
     3
370
    13
100
AcDbLine
 10
-601.8430134811215
 20
-97.9894995183426
 30
0.0
 11
-606.2952600697512
 21
-133.6093969557146
 31
0.0
  0
LINE
  5
1D5
330
1F
100
AcDbEntity
  8
0-0_通り芯
  6
Continuous
 62
     3
370
    13
100
AcDbLine
 10
-298.0650651531548
 20
-161.1092154998447
 30
0.0
 11
-304.6777318097668
 21
-161.1092154998447
 31
0.0
  0
LINE
  5
1D6
330
1F
100
AcDbEntity
  8
0-0_通り芯
  6
Continuous
 62
     3
370
    13
100
AcDbLine
 10
-337.9128908405191
 20
-161.1092154998445
 30
0.0
 11
-363.1534282703876
 21
-161.1092154998445
 31
0.0
  0
LINE
  5
1D7
330
1F
100
AcDbEntity
  8
0-0_通り芯
  6
Continuous
 62
     3
370
    13
100
AcDbLine
 10
-337.9128908405191
 20
-196.1095253887653
 30
0.0
 11
-304.6777318097668
 21
-196.1095253887653
 31
0.0
  0
LINE
  5
1D8
330
1F
100
AcDbEntity
  8
0-0_通り芯
  6
Continuous
 62
     3
370
    13
100
AcDbLine
 10
-304.6777318097668
 20
-191.1096061012789
 30
0.0
 11
-304.6777318097668
 21
-196.1095253887653
 31
0.0
  0
LINE
  5
1D9
330
1F
100
AcDbEntity
  8
0-0_通り芯
  6
Continuous
 62
     3
370
    13
100
AcDbLine
 10
-337.9128908405191
 20
-196.1095253887653
 30
0.0
 11
-337.9128908405191
 21
-191.1096061012789
 31
0.0
  0
LINE
  5
1DA
330
1F
100
AcDbEntity
  8
0-0_通り芯
  6
Continuous
 62
     3
370
    13
100
AcDbLine
 10
-304.6777318097668
 20
-196.1095253887653
 30
0.0
 11
-321.2951363498399
 21
-205.7035962357354
 31
0.0
  0
LINE
  5
1DB
330
1F
100
AcDbEntity
  8
0-0_通り芯
  6
Continuous
 62
     3
370
    13
100
AcDbLine
 10
-337.9128908405191
 20
-196.1095253887653
 30
0.0
 11
-321.2951363498399
 21
-205.7035962357354
 31
0.0
  0
LINE
  5
1DC
330
1F
100
AcDbEntity
  8
0-A
  6
JWW_CENTER1
 62
     4
370
    13
100
AcDbLine
 10
211.2044041190611
 20
-38.22755960427277
 30
0.0
 11
211.204404119061
 21
-139.642895358903
 31
0.0
  0
LINE
  5
1DD
330
1F
100
AcDbEntity
  8
0-A
  6
Continuous
 62
     4
370
    13
100
AcDbLine
 10
221.8541009699295
 20
-129.388292742545
 30
0.0
 11
226.2039870062169
 21
-125.0382317309545
 31
0.0
  0
LINE
  5
1DE
330
1F
100
AcDbEntity
  8
0-A
  6
Continuous
 62
     4
370
    13
100
AcDbLine
 10
200.5540073669797
 20
-129.388292742545
 30
0.0
 11
196.2041213306923
 21
-125.0382317309545
 31
0.0
  0
LINE
  5
1DF
330
1F
100
AcDbEntity
  8
0-A
  6
Continuous
 62
     4
370
    13
100
AcDbLine
 10
200.5540073669797
 20
-129.388292742545
 30
0.0
 11
221.8541009699295
 21
-129.388292742545
 31
0.0
  0
LINE
  5
1E0
330
1F
100
AcDbEntity
  8
0-A
  6
Continuous
 62
     4
370
    13
100
AcDbLine
 10
196.2041213306923
 20
-125.0382317309545
 30
0.0
 11
226.2039870062169
 21
-125.0382317309545
 31
0.0
  0
LINE
  5
1E1
330
1F
100
AcDbEntity
  8
0-A
  6
Continuous
 62
     4
370
    13
100
AcDbLine
 10
226.203987006217
 20
-69.38821144088891
 30
0.0
 11
226.2039870062169
 21
-125.0382317309545
 31
0.0
  0
LINE
  5
1E2
330
1F
100
AcDbEntity
  8
0-A
  6
Continuous
 62
     4
370
    13
100
AcDbLine
 10
221.8541009699296
 20
-69.38821144088891
 30
0.0
 11
221.8541009699295
 21
-129.388292742545
 31
0.0
  0
LINE
  5
1E3
330
1F
100
AcDbEntity
  8
0-A
  6
Continuous
 62
     4
370
    13
100
AcDbLine
 10
200.5540073669797
 20
-69.38821144088891
 30
0.0
 11
200.5540073669797
 21
-129.388292742545
 31
0.0
  0
LINE
  5
1E4
330
1F
100
AcDbEntity
  8
0-A
  6
Continuous
 62
     4
370
    13
100
AcDbLine
 10
196.2041213306923
 20
-69.38821144088891
 30
0.0
 11
196.2041213306923
 21
-125.0382317309545
 31
0.0
  0
LINE
  5
1E5
330
1F
100
AcDbEntity
  8
0-A
  6
Continuous
 62
     4
370
    13
100
AcDbLine
 10
235.2964036590586
 20
-59.01672532202738
 30
0.0
 11
236.2041755317963
 21
-69.38821144088891
 31
0.0
  0
LINE
  5
1E6
330
1F
100
AcDbEntity
  8
0-A
  6
Continuous
 62
     4
370
    13
100
AcDbLine
 10
197.0740985379498
 20
-49.88826375673725
 30
0.0
 11
225.3347097001722
 21
-49.88826375673725
 31
0.0
  0
LINE
  5
1E7
330
1F
100
AcDbEntity
  8
0-A
  6
Continuous
 62
     4
370
    13
100
AcDbLine
 10
186.203932805113
 20
-69.38821144088891
 30
0.0
 11
236.2041755317963
 21
-69.38821144088891
 31
0.0
  0
LINE
  5
1E8
330
1F
100
AcDbEntity
  8
0-A
  6
Continuous
 62
     4
370
    13
100
AcDbLine
 10
187.1117046778508
 20
-59.01672532202738
 30
0.0
 11
186.203932805113
 21
-69.38821144088891
 31
0.0
  0
LINE
  5
1E9
330
1F
100
AcDbEntity
  8
0-A
  6
JWW_CENTER1
 62
     4
370
    13
100
AcDbLine
 10
-423.7953189839945
 20
-38.22755960427263
 30
0.0
 11
-423.7953189839945
 21
-139.6428953589029
 31
0.0
  0
LINE
  5
1EA
330
1F
100
AcDbEntity
  8
0-A
  6
Continuous
 62
     4
370
    13
100
AcDbLine
 10
-434.4450158348634
 20
-129.3882927425449
 30
0.0
 11
-438.7949018711508
 21
-125.0382317309544
 31
0.0
  0
LINE
  5
1EB
330
1F
100
AcDbEntity
  8
0-A
  6
Continuous
 62
     4
370
    13
100
AcDbLine
 10
-413.1449222319133
 20
-129.3882927425449
 30
0.0
 11
-408.7950361956259
 21
-125.0382317309544
 31
0.0
  0
LINE
  5
1EC
330
1F
100
AcDbEntity
  8
0-A
  6
Continuous
 62
     4
370
    13
100
AcDbLine
 10
-413.1449222319133
 20
-129.3882927425449
 30
0.0
 11
-434.4450158348634
 21
-129.3882927425449
 31
0.0
  0
LINE
  5
1ED
330
1F
100
AcDbEntity
  8
0-A
  6
Continuous
 62
     4
370
    13
100
AcDbLine
 10
-408.7950361956259
 20
-125.0382317309544
 30
0.0
 11
-438.7949018711508
 21
-125.0382317309544
 31
0.0
  0
LINE
  5
1EE
330
1F
100
AcDbEntity
  8
0-A
  6
Continuous
 62
     4
370
    13
100
AcDbLine
 10
-438.7949018711507
 20
-69.38821144088877
 30
0.0
 11
-438.7949018711508
 21
-125.0382317309544
 31
0.0
  0
LINE
  5
1EF
330
1F
100
AcDbEntity
  8
0-A
  6
Continuous
 62
     4
370
    13
100
AcDbLine
 10
-434.4450158348633
 20
-69.38821144088877
 30
0.0
 11
-434.4450158348634
 21
-129.3882927425449
 31
0.0
  0
LINE
  5
1F0
330
1F
100
AcDbEntity
  8
0-A
  6
Continuous
 62
     4
370
    13
100
AcDbLine
 10
-413.1449222319133
 20
-69.38821144088877
 30
0.0
 11
-413.1449222319133
 21
-129.3882927425449
 31
0.0
  0
LINE
  5
1F1
330
1F
100
AcDbEntity
  8
0-A
  6
Continuous
 62
     4
370
    13
100
AcDbLine
 10
-408.7950361956259
 20
-69.38821144088877
 30
0.0
 11
-408.7950361956259
 21
-125.0382317309544
 31
0.0
  0
LINE
  5
1F2
330
1F
100
AcDbEntity
  8
0-A
  6
Continuous
 62
     4
370
    13
100
AcDbLine
 10
-447.8873185239921
 20
-59.01672532202725
 30
0.0
 11
-448.7950903967298
 21
-69.38821144088877
 31
0.0
  0
LINE
  5
1F3
330
1F
100
AcDbEntity
  8
0-A
  6
Continuous
 62
     4
370
    13
100
AcDbLine
 10
-409.6646634522771
 20
-49.88826375673711
 30
0.0
 11
-437.9256245651058
 21
-49.88826375673711
 31
0.0
  0
LINE
  5
1F4
330
1F
100
AcDbEntity
  8
0-A
  6
Continuous
 62
     4
370
    13
100
AcDbLine
 10
-398.7948476700467
 20
-69.38821144088877
 30
0.0
 11
-448.7950903967298
 21
-69.38821144088877
 31
0.0
  0
LINE
  5
1F5
330
1F
100
AcDbEntity
  8
0-A
  6
Continuous
 62
     4
370
    13
100
AcDbLine
 10
-399.7026195427845
 20
-59.01672532202725
 30
0.0
 11
-398.7948476700467
 21
-69.38821144088877
 31
0.0
  0
LINE
  5
1F6
330
1F
100
AcDbEntity
  8
0-1_ピット
  6
Continuous
 62
     2
370
    13
100
AcDbLine
 10
-408.7953861462322
 20
-125.0385816815606
 30
0.0
 11
-408.7953861462322
 21
-143.8501765231237
 31
0.0
  0
LINE
  5
1F7
330
1F
100
AcDbEntity
  8
0-1_ピット
  6
Continuous
 62
     2
370
    13
100
AcDbLine
 10
-413.1452721825196
 20
-129.388642693151
 30
0.0
 11
-413.1452721825196
 21
-142.6846660288473
 31
0.0
  0
LINE
  5
1F8
330
1F
100
AcDbEntity
  8
0-1_ピット
  6
Continuous
 62
     2
370
    13
100
AcDbLine
 10
-434.4453657854697
 20
-129.3879427919387
 30
0.0
 11
-434.4453657854697
 21
-136.977496566032
 31
0.0
  0
LINE
  5
1F9
330
1F
100
AcDbEntity
  8
0-1_ピット
  6
Continuous
 62
     2
370
    13
100
AcDbLine
 10
-438.7954267970604
 20
-125.0377068050449
 30
0.0
 11
-438.7954267970604
 21
-135.8116361211495
 31
0.0
  0
LINE
  5
1FA
330
1F
100
AcDbEntity
  8
0-1_ピット
  6
Continuous
 62
     2
370
    13
100
AcDbLine
 10
226.2046869074295
 20
-125.0375318297419
 30
0.0
 11
226.2046869074295
 21
-135.8116361211496
 31
0.0
  0
LINE
  5
1FB
330
1F
100
AcDbEntity
  8
0-1_ピット
  6
Continuous
 62
     2
370
    13
100
AcDbLine
 10
221.8548008711421
 20
-129.3875928413324
 30
0.0
 11
221.8548008711421
 21
-136.9773215907291
 31
0.0
  0
LINE
  5
1FC
330
1F
100
AcDbEntity
  8
0-1_ピット
  6
Continuous
 62
     2
370
    13
100
AcDbLine
 10
200.5547072681923
 20
-129.3889926437576
 30
0.0
 11
200.5547072681923
 21
-142.6844910535443
 31
0.0
  0
LINE
  5
1FD
330
1F
100
AcDbEntity
  8
0-1_ピット
  6
Continuous
 62
     2
370
    13
100
AcDbLine
 10
196.2044712812985
 20
-125.0385816815607
 30
0.0
 11
196.2044712812985
 21
-143.8501765231238
 31
0.0
  0
LINE
  5
1FE
330
1F
100
AcDbEntity
  8
0-A
  6
JWW_PHANTOM1
 62
     4
370
    13
100
AcDbLine
 10
-420.7074423216703
 20
215.4775312462038
 30
0.0
 11
-319.6961245420114
 21
206.434107678244
 31
0.0
  0
LINE
  5
1FF
330
1F
100
AcDbEntity
  8
0-A
  6
JWW_PHANTOM1
 62
     4
370
    13
100
AcDbLine
 10
-330.859548882926
 20
196.7413507602981
 30
0.0
 11
-335.5801200989349
 21
192.7965325508009
 31
0.0
  0
LINE
  5
200
330
1F
100
AcDbEntity
  8
0-A
  6
JWW_PHANTOM1
 62
     4
370
    13
100
AcDbLine
 10
-328.9601919672421
 20
217.9565813412207
 30
0.0
 11
-332.9050101767393
 21
222.6768900942749
 31
0.0
  0
LINE
  5
201
330
1F
100
AcDbEntity
  8
0-A
  6
JWW_PHANTOM1
 62
     4
370
    13
100
AcDbLine
 10
-328.9601919672421
 20
217.9565813412207
 30
0.0
 11
-330.859548882926
 21
196.7413507602981
 31
0.0
  0
LINE
  5
202
330
1F
100
AcDbEntity
  8
0-A
  6
JWW_PHANTOM1
 62
     4
370
    13
100
AcDbLine
 10
-332.9050101767393
 20
222.6768900942749
 30
0.0
 11
-335.5801200989349
 21
192.7965325508009
 31
0.0
  0
LINE
  5
203
330
1F
100
AcDbEntity
  8
0-A
  6
JWW_PHANTOM1
 62
     4
370
    13
100
AcDbLine
 10
-391.0084466799104
 20
197.7590071234135
 30
0.0
 11
-335.5801200989349
 21
192.7965325508009
 31
0.0
  0
LINE
  5
204
330
1F
100
AcDbEntity
  8
0-A
  6
JWW_PHANTOM1
 62
     4
370
    13
100
AcDbLine
 10
-390.6206139204802
 20
202.0915706046889
 30
0.0
 11
-330.859548882926
 21
196.7413507602981
 31
0.0
  0
LINE
  5
205
330
1F
100
AcDbEntity
  8
0-A
  6
JWW_PHANTOM1
 62
     4
370
    13
100
AcDbLine
 10
-388.7211695171449
 20
223.3068011856118
 30
0.0
 11
-328.9601919672421
 21
217.9565813412207
 31
0.0
  0
LINE
  5
206
330
1F
100
AcDbEntity
  8
0-A
  6
JWW_PHANTOM1
 62
     4
370
    13
100
AcDbLine
 10
-388.3333367577148
 20
227.6393646668873
 30
0.0
 11
-332.9050101767393
 21
222.6768900942749
 31
0.0
  0
LINE
  5
207
330
1F
100
AcDbEntity
  8
0-A
  6
JWW_PHANTOM1
 62
     4
370
    13
100
AcDbLine
 10
-402.1494741820219
 20
189.6277298107702
 30
0.0
 11
-391.9002083124099
 21
187.7987129669523
 31
0.0
  0
LINE
  5
208
330
1F
100
AcDbEntity
  8
0-A
  6
JWW_PHANTOM1
 62
     4
370
    13
100
AcDbLine
 10
-407.8330219789119
 20
228.5121414789952
 30
0.0
 11
-410.3531912701689
 21
200.3636894860915
 31
0.0
  0
LINE
  5
209
330
1F
100
AcDbEntity
  8
0-A
  6
JWW_PHANTOM1
 62
     4
370
    13
100
AcDbLine
 10
-387.4415751252153
 20
237.5998337986516
 30
0.0
 11
-391.9002083124099
 21
187.7987129669523
 31
0.0
  0
LINE
  5
20A
330
1F
100
AcDbEntity
  8
0-A
  6
JWW_PHANTOM1
 62
     4
370
    13
100
AcDbLine
 10
-397.8526931502403
 20
237.6204808844232
 30
0.0
 11
-387.4415751252153
 21
237.5998337986516
 31
0.0
  0
LINE
  5
20B
330
1F
100
AcDbEntity
  8
0-0_通り芯
  6
Continuous
 62
     3
370
    13
100
AcDbLine
 10
99.97085415412658
 20
-228.1975463320721
 30
0.0
 11
130.1183989855095
 21
-224.9010116207425
 31
0.0
  0
LINE
  5
20C
330
1F
100
AcDbEntity
  8
0-0_通り芯
  6
Continuous
 62
     3
370
    13
100
AcDbLine
 10
95.58212360054017
 20
-232.346210769738
 30
0.0
 11
91.20494141696145
 21
-258.6096538218162
 31
0.0
  0
LINE
  5
20D
330
1F
100
AcDbEntity
  8
0-1_ピット
  6
Continuous
 62
     2
370
    13
100
AcDbLine
 10
112.6688119036591
 20
-142.9544779463033
 30
0.0
 11
108.7049213861189
 21
-156.8279197823917
 31
0.0
  0
LINE
  5
20E
330
1F
100
AcDbEntity
  8
0-0_通り芯
  6
Continuous
 62
     3
370
    13
100
AcDbLine
 10
-284.7434954231989
 20
-224.9898990747421
 30
0.0
 11
128.4879791107658
 21
-224.9898990747421
 31
0.0
  0
LINE
  5
20F
330
1F
100
AcDbEntity
  8
0-0_通り芯
  6
Continuous
 62
     3
370
    13
100
AcDbLine
 10
100.5143274457079
 20
-228.168325456446
 30
0.0
 11
-284.4175164334321
 21
-228.168325456446
 31
0.0
  0
LINE
  5
210
330
1F
100
AcDbEntity
  8
0-2_本体（蓋）
  6
Continuous
 62
     6
370
    13
100
AcDbLine
 10
231.9510508381503
 20
-100.2221843865259
 30
0.0
 11
236.2043505070994
 21
-76.82798635548679
 31
0.0
  0
LINE
  5
211
330
1F
100
AcDbEntity
  8
0-2_本体（蓋）
  6
Continuous
 62
     6
370
    13
100
AcDbLine
 10
236.2043505070994
 20
-76.82798635548679
 30
0.0
 11
231.2046061949161
 21
-71.82789209269728
 31
0.0
  0
LINE
  5
212
330
1F
100
AcDbEntity
  8
0-2_本体（蓋）
  6
Continuous
 62
     6
370
    13
100
AcDbLine
 10
-356.3642990205497
 20
245.6724943847398
 30
0.0
 11
-359.473785132813
 21
210.6725344464254
 31
0.0
  0
LINE
  5
213
330
1F
100
AcDbEntity
  8
0-2_本体（蓋）
  6
Continuous
 62
     6
370
    13
100
AcDbLine
 10
-359.473785132813
 20
210.6725344464254
 30
0.0
 11
-367.6696283323182
 21
203.1723930522411
 31
0.0
  0
LINE
  5
214
330
1F
100
AcDbEntity
  8
0-2_本体（蓋）
  6
Continuous
 62
     6
370
    13
100
AcDbLine
 10
188.7045048624173
 20
-74.72478321163452
 30
0.0
 11
181.2043634682331
 21
-104.327804899617
 31
0.0
  0
LINE
  5
215
330
1F
100
AcDbEntity
  8
0-2_本体（蓋）
  6
Continuous
 62
     6
370
    13
100
AcDbLine
 10
183.704760550234
 20
-69.72468894884472
 30
0.0
 11
188.7045048624173
 21
-74.72478321163452
 31
0.0
  0
LINE
  5
216
330
1F
100
AcDbEntity
  8
0-2_本体（蓋）
  6
JWW_PHANTOM1
 62
     6
370
    13
100
AcDbLine
 10
-333.7954594944653
 20
245.6724943847398
 30
0.0
 11
-341.6565749390463
 21
95.672466105903
 31
0.0
  0
LINE
  5
217
330
1F
100
AcDbEntity
  8
0-2_本体（蓋）
  6
JWW_PHANTOM1
 62
     6
370
    13
100
AcDbLine
 10
-347.5460686677429
 20
95.672466105903
 30
0.0
 11
-341.6565749390463
 21
95.672466105903
 31
0.0
  0
LINE
  5
218
330
1F
100
AcDbEntity
  8
0-2_本体（蓋）
  6
JWW_DASHED1
 62
     6
370
    13
100
AcDbLine
 10
-356.5637708661397
 20
45.67222337921999
 30
0.0
 11
-382.1063156692436
 21
40.67212911643048
 31
0.0
  0
LINE
  5
219
330
1F
100
AcDbEntity
  8
0-2_本体（蓋）
  6
JWW_DASHED1
 62
     6
370
    13
100
AcDbLine
 10
143.9731184641607
 20
45.67222337921986
 30
0.0
 11
169.5156632672646
 21
40.67212911643036
 31
0.0
  0
LINE
  5
21A
330
1F
100
AcDbEntity
  8
0-2_本体（蓋）
  6
Continuous
 62
     6
370
    13
100
AcDbLine
 10
-359.3184070636164
 20
245.6724943847398
 30
0.0
 11
146.7275796863345
 21
245.6724943847398
 31
0.0
  0
LINE
  5
21B
330
1F
100
AcDbEntity
  8
0-2_本体（蓋）
  6
Continuous
 62
     6
370
    13
100
AcDbLine
 10
151.7080767151714
 20
241.1147376883112
 30
0.0
 11
178.9191860091054
 21
-65.17113165969178
 31
0.0
  0
LINE
  5
21C
330
1F
100
AcDbEntity
  8
0-2_本体（蓋）
  6
Continuous
 62
     6
370
    13
100
AcDbLine
 10
231.2046061949161
 20
-71.82789209269728
 30
0.0
 11
226.2045119321266
 21
-71.60672330951698
 31
0.0
  0
LINE
  5
21D
330
1F
100
AcDbEntity
  8
0-2_本体（蓋）
  6
Continuous
 62
     6
370
    13
100
AcDbLine
 10
196.2046462566016
 20
-70.27831080800851
 30
0.0
 11
183.6781643041552
 21
-69.7239890476321
 31
0.0
  0
LINE
  5
21E
330
1F
100
AcDbEntity
  8
0-2_本体（蓋）
  6
Continuous
 62
     6
370
    13
100
AcDbLine
 10
126.204726379973
 20
245.6724943847398
 30
0.0
 11
156.0849089481436
 21
-90.65523471154378
 31
0.0
  0
LINE
  5
21F
330
1F
100
AcDbEntity
  8
0-2_本体（蓋）
  6
Continuous
 62
     6
370
    13
100
AcDbLine
 10
-368.6753863748195
 20
-90.65523471154364
 30
0.0
 11
-338.7953787819516
 21
245.6724943847398
 31
0.0
  0
LINE
  5
220
330
1F
100
AcDbEntity
  8
0-2_本体（蓋）
  6
Continuous
 62
     6
370
    13
100
AcDbLine
 10
-444.5417907277807
 20
-100.2221843865257
 30
0.0
 11
-448.7950903967298
 21
-76.82798635548666
 31
0.0
  0
LINE
  5
221
330
1F
100
AcDbEntity
  8
0-2_本体（蓋）
  6
Continuous
 62
     6
370
    13
100
AcDbLine
 10
-448.7950903967298
 20
-76.82798635548666
 30
0.0
 11
-443.7953460845466
 21
-71.82789209269714
 31
0.0
  0
LINE
  5
222
330
1F
100
AcDbEntity
  8
0-2_本体（蓋）
  6
Continuous
 62
     6
370
    13
100
AcDbLine
 10
-401.2952447520478
 20
-74.72478321163436
 30
0.0
 11
-393.7951033578634
 21
-104.3278048996169
 31
0.0
  0
LINE
  5
223
330
1F
100
AcDbEntity
  8
0-2_本体（蓋）
  6
Continuous
 62
     6
370
    13
100
AcDbLine
 10
-396.2955004398646
 20
-69.72468894884457
 30
0.0
 11
-401.2952447520478
 21
-74.72478321163436
 31
0.0
  0
LINE
  5
224
330
1F
100
AcDbEntity
  8
0-2_本体（蓋）
  6
Continuous
 62
     6
370
    13
100
AcDbLine
 10
-443.7953460845466
 20
-71.82789209269714
 30
0.0
 11
-438.795251821757
 21
-71.60672330951684
 31
0.0
  0
LINE
  5
225
330
1F
100
AcDbEntity
  8
0-2_本体（蓋）
  6
Continuous
 62
     6
370
    13
100
AcDbLine
 10
-408.7953861462322
 20
-70.27831080800837
 30
0.0
 11
-396.2689041937859
 21
-69.72398904763196
 31
0.0
  0
LINE
  5
226
330
1F
100
AcDbEntity
  8
0-2_本体（蓋）
  6
Continuous
 62
     6
370
    13
100
AcDbLine
 10
-364.298554141847
 20
241.1147376883113
 30
0.0
 11
-391.5097509234326
 21
-65.17113165969164
 31
0.0
  0
LINE
  5
227
330
1F
100
AcDbEntity
  8
0-2_本体（蓋）
  6
JWW_PHANTOM1
 62
     6
370
    13
100
AcDbLine
 10
121.2046321171835
 20
245.6724943847398
 30
0.0
 11
129.0659225370674
 21
95.67246610590286
 31
0.0
  0
LINE
  5
228
330
1F
100
AcDbEntity
  8
0-2_本体（蓋）
  6
JWW_PHANTOM1
 62
     6
370
    13
100
AcDbLine
 10
134.9552412904608
 20
95.67246610590286
 30
0.0
 11
129.0659225370674
 21
95.67246610590286
 31
0.0
  0
LINE
  5
229
330
1F
100
AcDbEntity
  8
0-2_本体（蓋）
  6
Continuous
 62
     6
370
    13
100
AcDbLine
 10
-341.2953384256949
 20
-104.3278048996169
 30
0.0
 11
-395.0787221817655
 21
-104.3278048996169
 31
0.0
  0
LINE
  5
22A
330
1F
100
AcDbEntity
  8
0-2_本体（蓋）
  6
Continuous
 62
     6
370
    13
100
AcDbLine
 10
182.4878073168318
 20
-104.327804899617
 30
0.0
 11
-301.2954591998941
 21
-104.327804899617
 31
0.0
  0
ARC
  5
22B
330
1F
100
AcDbEntity
  8
0-1_ピット
  6
JWW_DASHED1
 62
     2
370
    13
100
AcDbCircle
 10
-442.625986133601
 20
-106.3151743927847
 30
0.0
 40
9.99999988033044
100
AcDbArc
 50
190.6148834228516
 51
255.0005035400391
  0
ARC
  5
22C
330
1F
100
AcDbEntity
  8
0-1_ピット
  6
JWW_DASHED1
 62
     2
370
    13
100
AcDbCircle
 10
230.0352462439704
 20
-106.3151743927848
 30
0.0
 40
9.99999988033044
100
AcDbArc
 50
284.9994964599609
 51
349.3851165771484
  0
ARC
  5
22D
330
1F
100
AcDbEntity
  8
0-1_ピット
  6
Continuous
 62
     2
370
    13
100
AcDbCircle
 10
-267.4436872008443
 20
-139.3281147885376
 30
0.0
 40
7.499999910247832
100
AcDbArc
 50
11.31021118164063
 51
90.00000000000001
  0
ARC
  5
22E
330
1F
100
AcDbEntity
  8
0-1_ピット
  6
Continuous
 62
     2
370
    13
100
AcDbCircle
 10
182.4878073168318
 20
-111.8277713184982
 30
0.0
 40
7.499999910247832
100
AcDbArc
 50
90.0
 51
169.91162109375
  0
ARC
  5
22F
330
1F
100
AcDbEntity
  8
0-1_ピット
  6
Continuous
 62
     2
370
    13
100
AcDbCircle
 10
162.4734322414215
 20
-124.4184692072001
 30
0.0
 40
9.99999988033044
100
AcDbArc
 50
284.9994964599609
 51
349.9115142822266
  0
ARC
  5
230
330
1F
100
AcDbEntity
  8
0-1_ピット
  6
Continuous
 62
     2
370
    13
100
AcDbCircle
 10
234.3571362317541
 20
-96.82766350543275
 30
0.0
 40
7.499999910247832
100
AcDbArc
 50
270.0
 51
349.3838348388672
  0
ARC
  5
231
330
1F
100
AcDbEntity
  8
0-1_ピット
  6
Continuous
 62
     2
370
    13
100
AcDbCircle
 10
278.4971061053664
 20
-88.15361280242072
 30
0.0
 40
14.99999982049566
100
AcDbArc
 50
188.7071380615235
 51
285.0002746582032
  0
ARC
  5
232
330
1F
100
AcDbEntity
  8
0-1_ピット
  6
Continuous
 62
     2
370
    13
100
AcDbCircle
 10
-491.0874960443905
 20
-88.15361280242058
 30
0.0
 40
14.99999982049566
100
AcDbArc
 50
254.9997253417969
 51
351.2928619384766
  0
ARC
  5
233
330
1F
100
AcDbEntity
  8
0-1_ピット
  6
Continuous
 62
     2
370
    13
100
AcDbCircle
 10
117.4760833823785
 20
-144.3280340760241
 30
0.0
 40
4.99999994016522
100
AcDbArc
 50
90.0
 51
164.0540161132812
  0
ARC
  5
234
330
1F
100
AcDbEntity
  8
0-1_ピット
  6
Continuous
 62
     2
370
    13
100
AcDbCircle
 10
-395.0787221817655
 20
-111.827771318498
 30
0.0
 40
7.499999910247832
100
AcDbArc
 50
10.08837890625001
 51
90.00000000000001
  0
ARC
  5
235
330
1F
100
AcDbEntity
  8
0-1_ピット
  6
Continuous
 62
     2
370
    13
100
AcDbCircle
 10
-446.9478761213844
 20
-96.82766350543261
 30
0.0
 40
7.499999910247832
100
AcDbArc
 50
190.6161651611329
 51
270.0
  0
ARC
  5
236
330
1F
100
AcDbEntity
  8
0-1_ピット
  6
Continuous
 62
     2
370
    13
100
AcDbCircle
 10
-375.5248821042437
 20
-121.827784868774
 30
0.0
 40
9.99999988033044
100
AcDbArc
 50
190.08837890625
 51
270.0000000000001
  0
ARC
  5
237
330
1F
100
AcDbEntity
  8
0-1_ピット
  6
Continuous
 62
     4
370
    13
100
AcDbCircle
 10
-349.270362792626
 20
-117.2779020609872
 30
0.0
 40
11.94999984332493
100
AcDbArc
 50
48.13610839843751
 51
131.8638916015625
  0
ARC
  5
238
330
1F
100
AcDbEntity
  8
0-1_ピット
  6
Continuous
 62
     4
370
    13
100
AcDbCircle
 10
-293.3200848823568
 20
-117.2779020609873
 30
0.0
 40
11.94999984332493
100
AcDbArc
 50
48.13610839843751
 51
131.8638916015625
  0
ARC
  5
239
330
1F
100
AcDbEntity
  8
0-1_ピット
  6
Continuous
 62
     4
370
    13
100
AcDbCircle
 10
-321.2953113251428
 20
-172.4196190954044
 30
0.0
 40
67.09114137303415
100
AcDbArc
 50
72.65640258789062
 51
107.3435974121094
  0
ARC
  5
23A
330
1F
100
AcDbEntity
  8
0-0_通り芯
  6
Continuous
 62
     3
370
    13
100
AcDbCircle
 10
-444.4277068301277
 20
-142.0670032087309
 30
0.0
 40
7.499999910247832
100
AcDbArc
 50
254.9999084472656
 51
318.4355773925781
  0
ARC
  5
23B
330
1F
100
AcDbEntity
  8
0-0_通り芯
  6
Continuous
 62
     3
370
    13
100
AcDbCircle
 10
-469.2804989882177
 20
-135.407443170875
 30
0.0
 40
7.499999910247832
100
AcDbArc
 50
191.5648956298828
 51
254.9999084472656
  0
ARC
  5
23C
330
1F
100
AcDbEntity
  8
0-0_通り芯
  6
Continuous
 62
     3
370
    13
100
AcDbCircle
 10
-499.9858650860398
 20
-116.1804569596359
 30
0.0
 40
8.125038349490367
100
AcDbArc
 50
187.620590209961
 51
322.37890625
  0
ARC
  5
23D
330
1F
100
AcDbEntity
  8
0-0_通り芯
  6
Continuous
 62
     3
370
    13
100
AcDbCircle
 10
-483.3401145468566
 20
-129.0523401604986
 30
0.0
 40
4.99999994016522
100
AcDbArc
 50
11.56642150878907
 51
75.00077819824219
  0
ARC
  5
23E
330
1F
100
AcDbEntity
  8
0-0_通り芯
  6
Continuous
 62
     3
370
    13
100
AcDbCircle
 10
-429.0739739293975
 20
-143.5927878521914
 30
0.0
 40
4.99999994016522
100
AcDbArc
 50
75.00022888183594
 51
138.4349822998047
  0
ARC
  5
23F
330
1F
100
AcDbEntity
  8
0-0_通り芯
  6
Continuous
 62
     3
370
    13
100
AcDbCircle
 10
-408.222517003722
 20
-140.7683365087581
 30
0.0
 40
8.125038349490367
100
AcDbArc
 50
187.620590209961
 51
322.37890625
  0
ARC
  5
240
330
1F
100
AcDbEntity
  8
0-0_通り芯
  6
Continuous
 62
     3
370
    13
100
AcDbCircle
 10
-528.9638749911737
 20
-108.4157529070899
 30
0.0
 40
8.125038349490367
100
AcDbArc
 50
187.6179962158203
 51
322.3796997070312
  0
ARC
  5
241
330
1F
100
AcDbEntity
  8
0-0_通り芯
  6
Continuous
 62
     3
370
    13
100
AcDbCircle
 10
-504.7346948135072
 20
-149.2010962687274
 30
0.0
 40
9.99999988033044
100
AcDbArc
 50
11.56620788574219
 51
75.00050354003906
  0
ARC
  5
242
330
1F
100
AcDbEntity
  8
0-0_通り芯
  6
JWW_DASHED1
 62
     3
370
    13
100
AcDbCircle
 10
208.0296522187231
 20
-171.7400150179732
 30
0.0
 40
9.99999988033044
100
AcDbArc
 50
41.56492614746094
 51
105.0005187988281
  0
ARC
  5
243
330
1F
100
AcDbEntity
  8
0-0_通り芯
  6
JWW_DASHED1
 62
     3
370
    13
100
AcDbCircle
 10
225.0743464490863
 20
-164.5845749709927
 30
0.0
 40
7.499999910247832
100
AcDbArc
 50
221.5634918212891
 51
284.9987182617188
  0
ARC
  5
244
330
1F
100
AcDbEntity
  8
0-0_通り芯
  6
Continuous
 62
     3
370
    13
100
AcDbCircle
 10
-486.3962331916593
 20
-151.527217948792
 30
0.0
 40
7.499999910247832
100
AcDbArc
 50
191.5646057128906
 51
254.9999084472656
  0
ARC
  5
245
330
1F
100
AcDbEntity
  8
0-0_通り芯
  6
Continuous
 62
     3
370
    13
100
AcDbCircle
 10
-298.0650651531548
 20
-168.6093568940292
 30
0.0
 40
7.499999910247832
100
AcDbArc
 50
5.856887817382806
 51
89.99999999999999
  0
ARC
  5
246
330
1F
100
AcDbEntity
  8
0-0_通り芯
  6
Continuous
 62
     3
370
    13
100
AcDbCircle
 10
192.6636710467726
 20
-251.1095124276319
 30
0.0
 40
7.499999910247832
100
AcDbArc
 50
90.0
 51
171.4692993164062
  0
ARC
  5
247
330
1F
100
AcDbEntity
  8
0-0_通り芯
  6
JWW_DASHED1
 62
     3
370
    13
100
AcDbCircle
 10
178.8518205173928
 20
-251.1095124276319
 30
0.0
 40
7.499999910247832
100
AcDbArc
 50
90.0
 51
172.9994812011718
  0
ARC
  5
248
330
1F
100
AcDbEntity
  8
0-0_通り芯
  6
JWW_DASHED1
 62
     3
370
    13
100
AcDbCircle
 10
195.092678205089
 20
-180.3827451417216
 30
0.0
 40
14.99999982049566
100
AcDbArc
 50
105.0002746582031
 51
172.9999237060547
  0
ARC
  5
249
330
1F
100
AcDbEntity
  8
0-0_通り芯
  6
Continuous
 62
     3
370
    13
100
AcDbCircle
 10
275.5438729388154
 20
-166.5904918462944
 30
0.0
 40
7.499999910247832
100
AcDbArc
 50
105.0000915527344
 51
173.1259155273437
  0
ARC
  5
24A
330
1F
100
AcDbEntity
  8
0-0_通り芯
  6
Continuous
 62
     3
370
    13
100
AcDbCircle
 10
-376.4534760380562
 20
-168.0452365166761
 30
0.0
 40
14.99999982049566
100
AcDbArc
 50
27.53991699218751
 51
74.99990844726564
  0
ARC
  5
24B
330
1F
100
AcDbEntity
  8
0-0_通り芯
  6
JWW_DASHED1
 62
     3
370
    13
100
AcDbCircle
 10
-376.4534760380562
 20
-168.0452365166761
 30
0.0
 40
14.99999982049566
100
AcDbArc
 50
6.999725341796887
 51
27.53991699218751
  0
ARC
  5
24C
330
1F
100
AcDbEntity
  8
0-0_通り芯
  6
JWW_DASHED1
 62
     3
370
    13
100
AcDbCircle
 10
-341.0781940744869
 20
-209.9899662369798
 30
0.0
 40
14.99999982049566
100
AcDbArc
 50
187.0004272460937
 51
263.7596130371094
  0
ARC
  5
24D
330
1F
100
AcDbEntity
  8
0-0_通り芯
  6
JWW_DASHED1
 62
     3
370
    13
100
AcDbCircle
 10
-313.104542409429
 20
-233.1682447439324
 30
0.0
 40
4.99999994016522
100
AcDbArc
 50
9.462677001953137
 51
83.75891113281251
  0
ARC
  5
24E
330
1F
100
AcDbEntity
  8
0-0_通り芯
  6
Continuous
 62
     3
370
    13
100
AcDbCircle
 10
231.8374918664064
 20
-142.0670032087311
 30
0.0
 40
7.499999910247832
100
AcDbArc
 50
221.5644226074219
 51
285.0000915527344
  0
ARC
  5
24F
330
1F
100
AcDbEntity
  8
0-0_通り芯
  6
Continuous
 62
     3
370
    13
100
AcDbCircle
 10
256.6902840244966
 20
-135.4074431708752
 30
0.0
 40
7.499999910247832
100
AcDbArc
 50
285.0000915527344
 51
348.4351043701172
  0
ARC
  5
250
330
1F
100
AcDbEntity
  8
0-0_通り芯
  6
Continuous
 62
     3
370
    13
100
AcDbCircle
 10
287.3956501223187
 20
-116.180456959636
 30
0.0
 40
8.125038349490367
100
AcDbArc
 50
217.62109375
 51
352.3794097900391
  0
ARC
  5
251
330
1F
100
AcDbEntity
  8
0-0_通り芯
  6
Continuous
 62
     3
370
    13
100
AcDbCircle
 10
270.7498995831354
 20
-129.0523401604987
 30
0.0
 40
4.99999994016522
100
AcDbArc
 50
104.9992218017578
 51
168.433578491211
  0
ARC
  5
252
330
1F
100
AcDbEntity
  8
0-0_通り芯
  6
Continuous
 62
     3
370
    13
100
AcDbCircle
 10
216.4837589656766
 20
-143.5927878521916
 30
0.0
 40
4.99999994016522
100
AcDbArc
 50
41.56501770019532
 51
104.9997711181641
  0
ARC
  5
253
330
1F
100
AcDbEntity
  8
0-0_通り芯
  6
Continuous
 62
     3
370
    13
100
AcDbCircle
 10
195.6319520893947
 20
-140.7683365087582
 30
0.0
 40
8.125038349490367
100
AcDbArc
 50
217.62109375
 51
352.3794097900391
  0
ARC
  5
254
330
1F
100
AcDbEntity
  8
0-0_通り芯
  6
Continuous
 62
     3
370
    13
100
AcDbCircle
 10
316.3736600274526
 20
-108.41575290709
 30
0.0
 40
8.125038349490367
100
AcDbArc
 50
217.6203002929688
 51
352.3820037841797
  0
ARC
  5
255
330
1F
100
AcDbEntity
  8
0-0_通り芯
  6
Continuous
 62
     3
370
    13
100
AcDbCircle
 10
292.1444798497861
 20
-149.2010962687276
 30
0.0
 40
9.99999988033044
100
AcDbArc
 50
104.999496459961
 51
168.4337921142578
  0
ARC
  5
256
330
1F
100
AcDbEntity
  8
0-0_通り芯
  6
Continuous
 62
     3
370
    13
100
AcDbCircle
 10
-420.6200421577473
 20
-171.7400150179731
 30
0.0
 40
9.99999988033044
100
AcDbArc
 50
74.99948120117186
 51
138.4350738525391
  0
ARC
  5
257
330
1F
100
AcDbEntity
  8
0-0_通り芯
  6
Continuous
 62
     3
370
    13
100
AcDbCircle
 10
-437.6642114622011
 20
-164.5845749709926
 30
0.0
 40
7.499999910247832
100
AcDbArc
 50
255.0012817382812
 51
318.4365081787109
  0
ARC
  5
258
330
1F
100
AcDbEntity
  8
0-0_通り芯
  6
Continuous
 62
     3
370
    13
100
AcDbCircle
 10
273.8053183267256
 20
-151.5272179487921
 30
0.0
 40
7.499999910247832
100
AcDbArc
 50
285.0000915527344
 51
348.4353942871094
  0
ARC
  5
259
330
1F
100
AcDbEntity
  8
0-0_通り芯
  6
JWW_DASHED1
 62
     3
370
    13
100
AcDbCircle
 10
160.1186146116406
 20
-301.1094052037087
 30
0.0
 40
7.499999910247832
100
AcDbArc
 50
90.0
 51
172.9996643066406
  0
ARC
  5
25A
330
1F
100
AcDbEntity
  8
0-0_通り芯
  6
Continuous
 62
     3
370
    13
100
AcDbCircle
 10
-407.68289316881
 20
-180.3827451417216
 30
0.0
 40
14.99999982049566
100
AcDbArc
 50
7.000076293945317
 51
74.99972534179688
  0
ARC
  5
25B
330
1F
100
AcDbEntity
  8
0-0_通り芯
  6
Continuous
 62
     3
370
    13
100
AcDbCircle
 10
163.863086099032
 20
-168.0452365166762
 30
0.0
 40
14.99999982049566
100
AcDbArc
 50
105.0000915527344
 51
173.0002746582031
  0
ARC
  5
25C
330
1F
100
AcDbEntity
  8
0-0_通り芯
  6
Continuous
 62
     3
370
    13
100
AcDbCircle
 10
128.4879791107658
 20
-209.9899662369798
 30
0.0
 40
14.99999982049566
100
AcDbArc
 50
276.2403869628906
 51
352.9995727539063
  0
ARC
  5
25D
330
1F
100
AcDbEntity
  8
0-0_通り芯
  6
Continuous
 62
     3
370
    13
100
AcDbCircle
 10
100.5143274457079
 20
-233.1682447439324
 30
0.0
 40
4.99999994016522
100
AcDbArc
 50
96.2410888671875
 51
170.5373229980469
  0
ARC
  5
25E
330
1F
100
AcDbEntity
  8
0-0_通り芯
  6
Continuous
 62
     3
370
    13
100
AcDbCircle
 10
252.0544883428635
 20
-236.1099295404757
 30
0.0
 40
7.499999910247832
100
AcDbArc
 50
270.0
 51
353.1253814697266
  0
ARC
  5
25F
330
1F
100
AcDbEntity
  8
0-0_通り芯
  6
Continuous
 62
     3
370
    13
100
AcDbCircle
 10
-546.236212090934
 20
-184.6685902170563
 30
0.0
 40
54.99999797482288
100
AcDbArc
 50
75.00012207031251
 51
123.1290283203125
  0
ARC
  5
260
330
1F
100
AcDbEntity
  8
0-0_通り芯
  6
Continuous
 62
     3
370
    13
100
AcDbCircle
 10
333.6454722013032
 20
-184.6685902170566
 30
0.0
 40
54.99999797482288
100
AcDbArc
 50
56.87097167968751
 51
104.9998779296875
  0
ARC
  5
261
330
1F
100
AcDbEntity
  8
0-0_通り芯
  6
Continuous
 62
     3
370
    13
100
AcDbCircle
 10
384.2910238460004
 20
-98.60961199270335
 30
0.0
 40
4.99999994016522
100
AcDbArc
 50
7.124267578125002
 51
90.00000000000001
  0
ARC
  5
262
330
1F
100
AcDbEntity
  8
0-0_通り芯
  6
Continuous
 62
     3
370
    13
100
AcDbCircle
 10
-596.8812388097215
 20
-98.60961199270321
 30
0.0
 40
4.99999994016522
100
AcDbArc
 50
90.0
 51
172.875732421875
  0
ARC
  5
263
330
1F
100
AcDbEntity
  8
0-A
  6
Continuous
 62
     4
370
    13
100
AcDbCircle
 10
225.3347097001722
 20
-59.88827730701318
 30
0.0
 40
9.99999988033044
100
AcDbArc
 50
5.000015258789066
 51
90.0
  0
ARC
  5
264
330
1F
100
AcDbEntity
  8
0-A
  6
Continuous
 62
     4
370
    13
100
AcDbCircle
 10
197.0740985379498
 20
-59.88827730701318
 30
0.0
 40
9.99999988033044
100
AcDbArc
 50
90.0
 51
174.9999847412109
  0
ARC
  5
265
330
1F
100
AcDbEntity
  8
0-A
  6
Continuous
 62
     4
370
    13
100
AcDbCircle
 10
-437.9256245651058
 20
-59.88827730701303
 30
0.0
 40
9.99999988033044
100
AcDbArc
 50
90.0
 51
174.9999847412109
  0
ARC
  5
266
330
1F
100
AcDbEntity
  8
0-A
  6
Continuous
 62
     4
370
    13
100
AcDbCircle
 10
-409.6646634522771
 20
-59.88827730701303
 30
0.0
 40
9.99999988033044
100
AcDbArc
 50
5.000015258789066
 51
90.0
  0
ARC
  5
267
330
1F
100
AcDbEntity
  8
0-A
  6
JWW_PHANTOM1
 62
     4
370
    13
100
AcDbCircle
 10
-400.3930720890108
 20
199.4720153412433
 30
0.0
 40
9.99999988033044
100
AcDbArc
 50
174.8840026855469
 51
259.8839874267578
  0
ARC
  5
268
330
1F
100
AcDbEntity
  8
0-A
  6
JWW_PHANTOM1
 62
     4
370
    13
100
AcDbCircle
 10
-397.8729902854054
 20
227.6204673341473
 30
0.0
 40
9.99999988033044
100
AcDbArc
 50
89.88401794433597
 51
174.8840026855469
  0
ARC
  5
269
330
1F
100
AcDbEntity
  8
0-2_本体（蓋）
  6
Continuous
 62
     6
370
    13
100
AcDbCircle
 10
227.0317951654158
 20
-99.3277106368275
 30
0.0
 40
4.99999994016522
100
AcDbArc
 50
270.0
 51
349.6943969726562
  0
ARC
  5
26A
330
1F
100
AcDbEntity
  8
0-2_本体（蓋）
  6
Continuous
 62
     6
370
    13
100
AcDbCircle
 10
171.0257001334417
 20
-89.32752211124821
 30
0.0
 40
14.99999982049566
100
AcDbArc
 50
185.0773620605469
 51
270.0
  0
ARC
  5
26B
330
1F
100
AcDbEntity
  8
0-2_本体（蓋）
  6
Continuous
 62
     6
370
    13
100
AcDbCircle
 10
183.8993330873358
 20
-64.72879409333089
 30
0.0
 40
4.99999994016522
100
AcDbArc
 50
185.0764770507813
 51
267.4657440185547
  0
ARC
  5
26C
330
1F
100
AcDbEntity
  8
0-2_本体（蓋）
  6
Continuous
 62
     6
370
    13
100
AcDbCircle
 10
146.7275796863345
 20
240.6724001219503
 30
0.0
 40
4.99999994016522
100
AcDbArc
 50
5.077758789062505
 51
90.00000000000001
  0
ARC
  5
26D
330
1F
100
AcDbEntity
  8
0-2_本体（蓋）
  6
Continuous
 62
     6
370
    13
100
AcDbCircle
 10
-359.3184070636164
 20
240.6724001219503
 30
0.0
 40
4.99999994016522
100
AcDbArc
 50
90.0
 51
174.922119140625
  0
ARC
  5
26E
330
1F
100
AcDbEntity
  8
0-2_本体（蓋）
  6
JWW_PHANTOM1
 62
     6
370
    13
100
AcDbCircle
 10
-347.5460686677429
 20
90.6723718431135
 30
0.0
 40
4.99999994016522
100
AcDbArc
 50
90.0
 51
174.9225616455078
  0
ARC
  5
26F
330
1F
100
AcDbEntity
  8
0-2_本体（蓋）
  6
Continuous
 62
     6
370
    13
100
AcDbCircle
 10
-439.6225350550461
 20
-99.32771063682736
 30
0.0
 40
4.99999994016522
100
AcDbArc
 50
190.3056030273438
 51
270.0
  0
ARC
  5
270
330
1F
100
AcDbEntity
  8
0-2_本体（蓋）
  6
Continuous
 62
     6
370
    13
100
AcDbCircle
 10
-383.6164400230722
 20
-89.32752211124807
 30
0.0
 40
14.99999982049566
100
AcDbArc
 50
270.0
 51
354.9226379394531
  0
ARC
  5
271
330
1F
100
AcDbEntity
  8
0-2_本体（蓋）
  6
Continuous
 62
     6
370
    13
100
AcDbCircle
 10
-396.4900729769664
 20
-64.72879409333075
 30
0.0
 40
4.99999994016522
100
AcDbArc
 50
272.5342559814453
 51
354.9235229492188
  0
ARC
  5
272
330
1F
100
AcDbEntity
  8
0-2_本体（蓋）
  6
JWW_PHANTOM1
 62
     6
370
    13
100
AcDbCircle
 10
134.9552412904608
 20
90.67237184311335
 30
0.0
 40
4.99999994016522
100
AcDbArc
 50
5.077438354492194
 51
90.00000000000001
  0
LINE
  5
273
330
1F
100
AcDbEntity
  8
0-6
  6
Continuous
 62
     2
370
    13
100
AcDbLine
 10
-350.9923822385682
 20
75.67208905474467
 30
0.0
 11
-353.7958365456235
 21
74.60473970553517
 31
0.0
  0
LINE
  5
274
330
1F
100
AcDbEntity
  8
0-6
  6
Continuous
 62
     2
370
    13
100
AcDbLine
 10
138.4015548612862
 20
75.67208905474455
 30
0.0
 11
141.2053591189479
 21
74.60473970553502
 31
0.0
  0
LINE
  5
275
330
1F
100
AcDbEntity
  8
0-6
  6
Continuous
 62
     2
370
    13
100
AcDbLine
 10
-350.9923822385682
 20
75.67208905474467
 30
0.0
 11
138.4015548612862
 21
75.67208905474455
 31
0.0
  0
LINE
  5
276
330
1F
100
AcDbEntity
  8
0-6
  6
Continuous
 62
     2
370
    13
100
AcDbLine
 10
-284.3252169610209
 20
-99.32701073561489
 30
0.0
 11
-350.9923822385682
 21
75.67208905474467
 31
0.0
  0
LINE
  5
277
330
1F
100
AcDbEntity
  8
0-6
  6
Continuous
 62
     2
370
    13
100
AcDbLine
 10
-287.1288462433794
 20
-100.395059986037
 30
0.0
 11
-353.7958365456235
 21
74.60473970553517
 31
0.0
  0
LINE
  5
278
330
1F
100
AcDbEntity
  8
0-6
  6
Continuous
 62
     2
370
    13
100
AcDbLine
 10
-284.3252169610209
 20
-99.32701073561489
 30
0.0
 11
-287.1288462433794
 21
-100.395059986037
 31
0.0
  0
LINE
  5
279
330
1F
100
AcDbEntity
  8
0-6
  6
JWW_PHANTOM1
 62
     2
370
    13
100
AcDbLine
 10
-432.5427718266776
 20
-135.3950199243513
 30
0.0
 11
-433.880632994556
 21
-132.7094989716184
 31
0.0
  0
LINE
  5
27A
330
1F
100
AcDbEntity
  8
0-6
  6
JWW_PHANTOM1
 62
     2
370
    13
100
AcDbLine
 10
-311.7921401481589
 20
-44.08170832173316
 30
0.0
 11
-308.9886858411035
 21
-43.01365907131104
 31
0.0
  0
LINE
  5
27B
330
1F
100
AcDbEntity
  8
0-6
  6
JWW_PHANTOM1
 62
     2
370
    13
100
AcDbLine
 10
99.20148774618006
 20
-44.0817083217333
 30
0.0
 11
96.39803343912455
 21
-43.01365907131117
 31
0.0
  0
LINE
  5
27C
330
1F
100
AcDbEntity
  8
0-6
  6
Continuous
 62
     2
370
    13
100
AcDbLine
 10
74.53793137844562
 20
-100.395059986037
 30
0.0
 11
141.2053591189479
 21
74.60473970553502
 31
0.0
  0
LINE
  5
27D
330
1F
100
AcDbEntity
  8
0-6
  6
Continuous
 62
     2
370
    13
100
AcDbLine
 10
71.73447707139039
 20
-99.32701073561489
 30
0.0
 11
138.4015548612862
 21
75.67208905474455
 31
0.0
  0
LINE
  5
27E
330
1F
100
AcDbEntity
  8
0-6
  6
Continuous
 62
     2
370
    13
100
AcDbLine
 10
71.73447707139039
 20
-99.32701073561489
 30
0.0
 11
-284.3252169610209
 21
-99.32701073561489
 31
0.0
  0
LINE
  5
27F
330
1F
100
AcDbEntity
  8
0-6
  6
Continuous
 62
     2
370
    13
100
AcDbLine
 10
-287.1288462433794
 20
-100.395059986037
 30
0.0
 11
74.53793137844562
 21
-100.395059986037
 31
0.0
  0
LINE
  5
280
330
1F
100
AcDbEntity
  8
0-6
  6
JWW_PHANTOM1
 62
     2
370
    13
100
AcDbLine
 10
91.10783012371364
 20
-65.32650972888817
 30
0.0
 11
99.20148774618006
 21
-44.0817083217333
 31
0.0
  0
LINE
  5
281
330
1F
100
AcDbEntity
  8
0-6
  6
JWW_PHANTOM1
 62
     2
370
    13
100
AcDbLine
 10
92.32950769030104
 20
-68.45436824798199
 30
0.0
 11
221.2901555678799
 21
-132.7094989716186
 31
0.0
  0
LINE
  5
282
330
1F
100
AcDbEntity
  8
0-6
  6
JWW_PHANTOM1
 62
     2
370
    13
100
AcDbLine
 10
90.99164652242273
 20
-71.1391892995023
 30
0.0
 11
219.9522944000016
 21
-135.3950199243515
 31
0.0
  0
LINE
  5
283
330
1F
100
AcDbEntity
  8
0-6
  6
JWW_PHANTOM1
 62
     2
370
    13
100
AcDbLine
 10
219.9522944000016
 20
-135.3950199243515
 30
0.0
 11
221.2901555678799
 21
-132.7094989716186
 31
0.0
  0
LINE
  5
284
330
1F
100
AcDbEntity
  8
0-6
  6
Continuous
 62
     2
370
    13
100
AcDbLine
 10
71.73447707139039
 20
-99.32701073561489
 30
0.0
 11
74.53793137844562
 21
-100.395059986037
 31
0.0
  0
LINE
  5
285
330
1F
100
AcDbEntity
  8
0-6
  6
JWW_PHANTOM1
 62
     2
370
    13
100
AcDbLine
 10
-303.6985700133443
 20
-65.32650972888817
 30
0.0
 11
-311.7921401481589
 21
-44.08170832173316
 31
0.0
  0
LINE
  5
286
330
1F
100
AcDbEntity
  8
0-6
  6
JWW_PHANTOM1
 62
     2
370
    13
100
AcDbLine
 10
-304.9198101416737
 20
-68.45436824798185
 30
0.0
 11
-433.880632994556
 21
-132.7094989716184
 31
0.0
  0
LINE
  5
287
330
1F
100
AcDbEntity
  8
0-6
  6
JWW_PHANTOM1
 62
     2
370
    13
100
AcDbLine
 10
-303.5819489737954
 20
-71.1391892995023
 30
0.0
 11
-432.5427718266776
 21
-135.3950199243513
 31
0.0
  0
ARC
  5
288
330
1F
100
AcDbEntity
  8
0-6
  6
JWW_PHANTOM1
 62
     2
370
    13
100
AcDbCircle
 10
-306.0347527733399
 20
-66.216784071311
 30
0.0
 40
2.49999997008261
100
AcDbArc
 50
296.4856872558594
 51
20.85360717773437
  0
ARC
  5
289
330
1F
100
AcDbEntity
  8
0-6
  6
JWW_PHANTOM1
 62
     2
370
    13
100
AcDbCircle
 10
-306.0347527733399
 20
-66.216784071311
 30
0.0
 40
5.5000000708812
100
AcDbArc
 50
296.4856872558594
 51
20.85360717773437
  0
ARC
  5
28A
330
1F
100
AcDbEntity
  8
0-6
  6
JWW_PHANTOM1
 62
     2
370
    13
100
AcDbCircle
 10
93.44445032196738
 20
-66.21678407131114
 30
0.0
 40
2.49999997008261
100
AcDbArc
 50
159.1463928222656
 51
243.5143127441406
  0
ARC
  5
28B
330
1F
100
AcDbEntity
  8
0-6
  6
JWW_PHANTOM1
 62
     2
370
    13
100
AcDbCircle
 10
93.44445032196738
 20
-66.21678407131114
 30
0.0
 40
5.5000000708812
100
AcDbArc
 50
159.1463928222656
 51
243.5143127441406
  0
LINE
  5
28C
330
1F
100
AcDbEntity
  8
0-4_寸法
  6
Continuous
 62
     7
370
    13
100
AcDbLine
 10
-287.1288462433794
 20
306.1948763691709
 30
0.0
 11
74.53793137844562
 21
306.1948763691709
 31
0.0
  0
LINE
  5
28D
330
1F
100
AcDbEntity
  8
0-4_寸法
  6
Continuous
 62
     7
370
    13
100
AcDbLine
 10
-287.1288462433794
 20
306.1948763691709
 30
0.0
 11
-262.3427247090341
 21
309.4580311746721
 31
0.0
  0
LINE
  5
28E
330
1F
100
AcDbEntity
  8
0-4_寸法
  6
Continuous
 62
     7
370
    13
100
AcDbLine
 10
-287.1288462433794
 20
306.1948763691709
 30
0.0
 11
-262.3427247090341
 21
302.9317215636696
 31
0.0
  0
LINE
  5
28F
330
1F
100
AcDbEntity
  8
0-4_寸法
  6
Continuous
 62
     7
370
    13
100
AcDbLine
 10
74.53793137844562
 20
306.1948763691709
 30
0.0
 11
49.75180984410038
 21
309.4580311746721
 31
0.0
  0
LINE
  5
290
330
1F
100
AcDbEntity
  8
0-4_寸法
  6
Continuous
 62
     7
370
    13
100
AcDbLine
 10
74.53793137844562
 20
306.1948763691709
 30
0.0
 11
49.75180984410038
 21
302.9317215636696
 31
0.0
  0
LINE
  5
291
330
1F
100
AcDbEntity
  8
0-4_寸法
  6
Continuous
 62
     7
370
    13
100
AcDbLine
 10
-287.1288462433794
 20
309.1948763691708
 30
0.0
 11
-287.1288462433794
 21
-82.0271791447076
 31
0.0
  0
LINE
  5
292
330
1F
100
AcDbEntity
  8
0-4_寸法
  6
Continuous
 62
     7
370
    13
100
AcDbLine
 10
74.53793137844562
 20
309.1948763691708
 30
0.0
 11
74.53793137844562
 21
-82.0271791447076
 31
0.0
  0
LINE
  5
293
330
1F
100
AcDbEntity
  8
0-4_寸法
  6
Continuous
 62
     7
370
    13
100
AcDbLine
 10
-338.7953787819516
 20
393.2166318080306
 30
0.0
 11
126.204726379973
 21
393.2166318080306
 31
0.0
  0
LINE
  5
294
330
1F
100
AcDbEntity
  8
0-4_寸法
  6
Continuous
 62
     7
370
    13
100
AcDbLine
 10
-338.7953787819516
 20
393.2166318080306
 30
0.0
 11
-314.0092572476064
 21
396.4797866135319
 31
0.0
  0
LINE
  5
295
330
1F
100
AcDbEntity
  8
0-4_寸法
  6
Continuous
 62
     7
370
    13
100
AcDbLine
 10
-338.7953787819516
 20
393.2166318080306
 30
0.0
 11
-314.0092572476064
 21
389.9534770025292
 31
0.0
  0
LINE
  5
296
330
1F
100
AcDbEntity
  8
0-4_寸法
  6
Continuous
 62
     7
370
    13
100
AcDbLine
 10
126.204726379973
 20
393.2166318080306
 30
0.0
 11
101.4186048456277
 21
396.4797866135319
 31
0.0
  0
LINE
  5
297
330
1F
100
AcDbEntity
  8
0-4_寸法
  6
Continuous
 62
     7
370
    13
100
AcDbLine
 10
126.204726379973
 20
393.2166318080306
 30
0.0
 11
101.4186048456277
 21
389.9534770025292
 31
0.0
  0
LINE
  5
298
330
1F
100
AcDbEntity
  8
0-4_寸法
  6
Continuous
 62
     7
370
    13
100
AcDbLine
 10
-338.7953787819516
 20
396.2166318080306
 30
0.0
 11
-338.7953787819516
 21
258.5204577645197
 31
0.0
  0
LINE
  5
299
330
1F
100
AcDbEntity
  8
0-4_寸法
  6
Continuous
 62
     7
370
    13
100
AcDbLine
 10
126.204726379973
 20
396.2166318080306
 30
0.0
 11
126.204726379973
 21
258.5204577645197
 31
0.0
  0
LINE
  5
29A
330
1F
100
AcDbEntity
  8
0-4_寸法
  6
Continuous
 62
     7
370
    13
100
AcDbLine
 10
-353.7958365456235
 20
480.7715562534277
 30
0.0
 11
141.2053591189479
 21
480.7715562534277
 31
0.0
  0
LINE
  5
29B
330
1F
100
AcDbEntity
  8
0-4_寸法
  6
Continuous
 62
     7
370
    13
100
AcDbLine
 10
-353.7958365456235
 20
480.7715562534277
 30
0.0
 11
-329.0097150112783
 21
484.0347110589289
 31
0.0
  0
LINE
  5
29C
330
1F
100
AcDbEntity
  8
0-4_寸法
  6
Continuous
 62
     7
370
    13
100
AcDbLine
 10
-353.7958365456235
 20
480.7715562534277
 30
0.0
 11
-329.0097150112783
 21
477.5084014479264
 31
0.0
  0
LINE
  5
29D
330
1F
100
AcDbEntity
  8
0-4_寸法
  6
Continuous
 62
     7
370
    13
100
AcDbLine
 10
141.2053591189479
 20
480.7715562534277
 30
0.0
 11
116.4192375846026
 21
484.0347110589289
 31
0.0
  0
LINE
  5
29E
330
1F
100
AcDbEntity
  8
0-4_寸法
  6
Continuous
 62
     7
370
    13
100
AcDbLine
 10
141.2053591189479
 20
480.7715562534277
 30
0.0
 11
116.4192375846026
 21
477.5084014479264
 31
0.0
  0
LINE
  5
29F
330
1F
100
AcDbEntity
  8
0-4_寸法
  6
Continuous
 62
     7
370
    13
100
AcDbLine
 10
-353.7958365456235
 20
483.7715562534276
 30
0.0
 11
-353.7958365456235
 21
133.4213258386811
 31
0.0
  0
LINE
  5
2A0
330
1F
100
AcDbEntity
  8
0-4_寸法
  6
Continuous
 62
     7
370
    13
100
AcDbLine
 10
141.2053591189479
 20
483.7715562534276
 30
0.0
 11
141.2053591189479
 21
133.4213258386811
 31
0.0
  0
LINE
  5
2A1
330
1F
100
AcDbEntity
  8
0-4_寸法
  6
Continuous
 62
     7
370
    13
100
AcDbLine
 10
-556.2953201365586
 20
563.5146066473625
 30
0.0
 11
343.7048023793469
 21
563.5146066473625
 31
0.0
  0
LINE
  5
2A2
330
1F
100
AcDbEntity
  8
0-4_寸法
  6
Continuous
 62
     7
370
    13
100
AcDbLine
 10
-556.2953201365586
 20
563.5146066473625
 30
0.0
 11
-531.5091986022135
 21
566.7777614528636
 31
0.0
  0
LINE
  5
2A3
330
1F
100
AcDbEntity
  8
0-4_寸法
  6
Continuous
 62
     7
370
    13
100
AcDbLine
 10
-556.2953201365586
 20
563.5146066473625
 30
0.0
 11
-531.5091986022135
 21
560.2514518418611
 31
0.0
  0
LINE
  5
2A4
330
1F
100
AcDbEntity
  8
0-4_寸法
  6
Continuous
 62
     7
370
    13
100
AcDbLine
 10
343.7048023793469
 20
563.5146066473625
 30
0.0
 11
318.9186808450016
 21
566.7777614528636
 31
0.0
  0
LINE
  5
2A5
330
1F
100
AcDbEntity
  8
0-4_寸法
  6
Continuous
 62
     7
370
    13
100
AcDbLine
 10
343.7048023793469
 20
563.5146066473625
 30
0.0
 11
318.9186808450016
 21
560.2514518418611
 31
0.0
  0
LINE
  5
2A6
330
1F
100
AcDbEntity
  8
0-4_寸法
  6
Continuous
 62
     7
370
    13
100
AcDbLine
 10
343.7048023793469
 20
566.5146066473625
 30
0.0
 11
343.7048023793469
 21
-68.15441371832797
 31
0.0
  0
LINE
  5
2A7
330
1F
100
AcDbEntity
  8
0-4_寸法
  6
Continuous
 62
     7
370
    13
100
AcDbLine
 10
-606.2952600697512
 20
645.9900786259562
 30
0.0
 11
393.7046951554238
 21
645.9900786259562
 31
0.0
  0
LINE
  5
2A8
330
1F
100
AcDbEntity
  8
0-4_寸法
  6
Continuous
 62
     7
370
    13
100
AcDbLine
 10
-606.2952600697512
 20
645.9900786259562
 30
0.0
 11
-581.5091385354059
 21
649.2532334314576
 31
0.0
  0
LINE
  5
2A9
330
1F
100
AcDbEntity
  8
0-4_寸法
  6
Continuous
 62
     7
370
    13
100
AcDbLine
 10
-606.2952600697512
 20
645.9900786259562
 30
0.0
 11
-581.5091385354059
 21
642.7269238204549
 31
0.0
  0
LINE
  5
2AA
330
1F
100
AcDbEntity
  8
0-4_寸法
  6
Continuous
 62
     7
370
    13
100
AcDbLine
 10
393.7046951554238
 20
645.9900786259562
 30
0.0
 11
368.9185736210786
 21
649.2532334314576
 31
0.0
  0
LINE
  5
2AB
330
1F
100
AcDbEntity
  8
0-4_寸法
  6
Continuous
 62
     7
370
    13
100
AcDbLine
 10
393.7046951554238
 20
645.9900786259562
 30
0.0
 11
368.9185736210786
 21
642.7269238204549
 31
0.0
  0
LINE
  5
2AC
330
1F
100
AcDbEntity
  8
0-4_寸法
  6
Continuous
 62
     7
370
    13
100
AcDbLine
 10
393.7046951554238
 20
648.9900786259561
 30
0.0
 11
393.7046951554238
 21
-102.2706616743262
 31
0.0
  0
TEXT
  5
2AD
330
1F
100
AcDbEntity
  8
0-4_寸法
  6
Continuous
 62
     2
370
   211
100
AcDbText
 10
-150.0454574324669
 20
317.8348763691708
 30
0.0
 40
30.48
  1
φ72
 41
1.09375
  7
ＭＳ ゴシック
100
AcDbText
  0
TEXT
  5
2AE
330
1F
100
AcDbEntity
  8
0-4_寸法
  6
Continuous
 62
     2
370
   211
100
AcDbText
 10
-150.0453262009893
 20
404.8566318080306
 30
0.0
 40
30.48
  1
φ93
 41
1.09375
  7
ＭＳ ゴシック
100
AcDbText
  0
TEXT
  5
2AF
330
1F
100
AcDbEntity
  8
0-4_寸法
  6
Continuous
 62
     2
370
   211
100
AcDbText
 10
-150.0452387133378
 20
492.4115562534275
 30
0.0
 40
30.48
  1
φ98
 41
1.09375
  7
ＭＳ ゴシック
100
AcDbText
  0
TEXT
  5
2B0
330
1F
100
AcDbEntity
  8
0-4_寸法
  6
Continuous
 62
     2
370
   211
100
AcDbText
 10
-161.295258878606
 20
575.1546066473625
 30
0.0
 40
30.48
  1
φ180
 41
1.1
  7
ＭＳ ゴシック
100
AcDbText
  0
TEXT
  5
2B1
330
1F
100
AcDbEntity
  8
0-4_寸法
  6
Continuous
 62
     2
370
   211
100
AcDbText
 10
-161.2952824571637
 20
657.6300786259561
 30
0.0
 40
30.48
  1
φ200
 41
1.1
  7
ＭＳ ゴシック
100
AcDbText
  0
LINE
  5
2B2
330
1F
100
AcDbEntity
  8
0-4_寸法
  6
Continuous
 62
     7
370
    13
100
AcDbLine
 10
564.290322580645
 20
-93.60961205253813
 30
0.0
 11
401.5903975993999
 21
-93.60961205253813
 31
0.0
  0
LINE
  5
2B3
330
1F
100
AcDbEntity
  8
0-4_寸法
  6
Continuous
 62
     7
370
    13
100
AcDbLine
 10
561.2903225806452
 20
-93.60961205253813
 30
0.0
 11
561.2903225806452
 21
245.6724000621156
 31
0.0
  0
LINE
  5
2B4
330
1F
100
AcDbEntity
  8
0-4_寸法
  6
Continuous
 62
     7
370
    13
100
AcDbLine
 10
561.2903225806452
 20
-93.60961205253813
 30
0.0
 11
558.0271677751439
 21
-68.82349051819287
 31
0.0
  0
LINE
  5
2B5
330
1F
100
AcDbEntity
  8
0-4_寸法
  6
Continuous
 62
     7
370
    13
100
AcDbLine
 10
561.2903225806452
 20
-93.60961205253813
 30
0.0
 11
564.5534773861465
 21
-68.82349051819287
 31
0.0
  0
LINE
  5
2B6
330
1F
100
AcDbEntity
  8
0-4_寸法
  6
Continuous
 62
     7
370
    13
100
AcDbLine
 10
561.2903225806452
 20
245.6724000621156
 30
0.0
 11
558.0271677751439
 21
220.8862785277703
 31
0.0
  0
LINE
  5
2B7
330
1F
100
AcDbEntity
  8
0-4_寸法
  6
Continuous
 62
     7
370
    13
100
AcDbLine
 10
561.2903225806452
 20
245.6724000621156
 30
0.0
 11
564.5534773861465
 21
220.8862785277703
 31
0.0
  0
LINE
  5
2B8
330
1F
100
AcDbEntity
  8
0-4_寸法
  6
Continuous
 62
     7
370
    13
100
AcDbLine
 10
482.1072768192048
 20
-93.60961205253813
 30
0.0
 11
404.013503375844
 21
-93.60961205253813
 31
0.0
  0
LINE
  5
2B9
330
1F
100
AcDbEntity
  8
0-4_寸法
  6
Continuous
 62
     7
370
    13
100
AcDbLine
 10
564.290322580645
 20
245.6724000621156
 30
0.0
 11
184.389400921659
 21
245.6724000621156
 31
0.0
  0
TEXT
  5
2BA
330
1F
100
AcDbEntity
  8
0-4_寸法
  6
Continuous
 62
     2
370
   211
100
AcDbText
 10
549.6503225806451
 20
54.7813940047887
 30
0.0
 40
30.48
  1
68
 50
90.0
 41
1.0625
  7
ＭＳ ゴシック
100
AcDbText
  0
LINE
  5
2BB
330
1F
100
AcDbEntity
  8
0-4_寸法
  6
Continuous
 62
     7
370
    13
100
AcDbLine
 10
-692.1361676824736
 20
-104.3276299243138
 30
0.0
 11
-692.1361676824736
 21
245.6724943847398
 31
0.0
  0
LINE
  5
2BC
330
1F
100
AcDbEntity
  8
0-4_寸法
  6
Continuous
 62
     7
370
    13
100
AcDbLine
 10
-692.1361676824736
 20
-104.3276299243138
 30
0.0
 11
-695.399322487975
 21
-79.54150838996851
 31
0.0
  0
LINE
  5
2BD
330
1F
100
AcDbEntity
  8
0-4_寸法
  6
Continuous
 62
     7
370
    13
100
AcDbLine
 10
-692.1361676824736
 20
-104.3276299243138
 30
0.0
 11
-688.8730128769723
 21
-79.54150838996851
 31
0.0
  0
LINE
  5
2BE
330
1F
100
AcDbEntity
  8
0-4_寸法
  6
Continuous
 62
     7
370
    13
100
AcDbLine
 10
-692.1361676824736
 20
245.6724943847398
 30
0.0
 11
-695.399322487975
 21
220.8863728503946
 31
0.0
  0
LINE
  5
2BF
330
1F
100
AcDbEntity
  8
0-4_寸法
  6
Continuous
 62
     7
370
    13
100
AcDbLine
 10
-692.1361676824736
 20
245.6724943847398
 30
0.0
 11
-688.8730128769723
 21
220.8863728503946
 31
0.0
  0
LINE
  5
2C0
330
1F
100
AcDbEntity
  8
0-4_寸法
  6
Continuous
 62
     7
370
    13
100
AcDbLine
 10
-695.1361676824735
 20
-104.3276299243138
 30
0.0
 11
-465.8094247064071
 21
-104.3276299243138
 31
0.0
  0
TEXT
  5
2C1
330
1F
100
AcDbEntity
  8
0-4_寸法
  6
Continuous
 62
     2
370
   211
100
AcDbText
 10
-703.7761676824736
 20
49.42243223021305
 30
0.0
 40
30.48
  1
70
 50
90.0
 41
1.0625
  7
ＭＳ ゴシック
100
AcDbText
  0
LINE
  5
2C2
330
1F
100
AcDbEntity
  8
0-4_寸法
  6
Continuous
 62
     7
370
    13
100
AcDbLine
 10
-695.1361676824735
 20
245.6724943847398
 30
0.0
 11
-392.7006751687923
 21
245.6724943847398
 31
0.0
  0
LINE
  5
2C3
330
1F
100
AcDbEntity
  8
0-5_文字
  6
Continuous
 62
     7
370
    13
100
AcDbLine
 10
246.2045390326784
 20
-74.14001574850985
 30
0.0
 11
412.1738591866693
 21
336.6484666350732
 31
0.0
  0
LINE
  5
2C4
330
1F
100
AcDbEntity
  8
0-5_文字
  6
Continuous
 62
     7
370
    13
100
AcDbLine
 10
246.2045390326784
 20
-74.14001574850985
 30
0.0
 11
252.4640391340398
 21
-49.93632473905716
 31
0.0
  0
LINE
  5
2C5
330
1F
100
AcDbEntity
  8
0-5_文字
  6
Continuous
 62
     7
370
    13
100
AcDbLine
 10
246.2045390326784
 20
-74.14001574850985
 30
0.0
 11
258.5151280352653
 21
-52.38112335001237
 31
0.0
  0
LINE
  5
2C6
330
1F
100
AcDbEntity
  8
0-5_文字
  6
Continuous
 62
     7
370
    13
100
AcDbLine
 10
211.2044041190609
 20
-49.88826375673725
 30
0.0
 11
217.4639042204223
 21
-25.68457274728456
 31
0.0
  0
LINE
  5
2C7
330
1F
100
AcDbEntity
  8
0-5_文字
  6
Continuous
 62
     7
370
    13
100
AcDbLine
 10
211.2044041190609
 20
-49.88826375673725
 30
0.0
 11
223.5149931216478
 21
-28.12937135823977
 31
0.0
  0
LINE
  5
2C8
330
1F
100
AcDbEntity
  8
0-5_文字
  6
Continuous
 62
     7
370
    13
100
AcDbLine
 10
93.70446362244707
 20
245.8604178603223
 30
0.0
 11
99.96396372380843
 21
270.0641088697749
 31
0.0
  0
LINE
  5
2C9
330
1F
100
AcDbEntity
  8
0-5_文字
  6
Continuous
 62
     7
370
    13
100
AcDbLine
 10
93.70446362244707
 20
245.8604178603223
 30
0.0
 11
106.0150526250339
 21
267.6193102588197
 31
0.0
  0
LINE
  5
2CA
330
1F
100
AcDbEntity
  8
0-5_文字
  6
Continuous
 62
     7
370
    13
100
AcDbLine
 10
93.70446362244707
 20
245.8604178603223
 30
0.0
 11
288.8818320056089
 21
728.9413564298754
 31
0.0
  0
TEXT
  5
2CB
330
1F
100
AcDbEntity
  8
0-5_文字
  6
Continuous
 62
     7
370
    13
100
AcDbText
 10
405.4611579135479
 20
697.368917333064
 30
0.0
 40
22.86
  1
樹脂系塗装
 41
1.133333333333333
  7
ＭＳ ゴシック
100
AcDbText
  0
TEXT
  5
2CC
330
1F
100
AcDbEntity
  8
0-5_文字
  6
Continuous
 62
     7
370
    13
100
AcDbText
 10
294.558291240723
 20
742.101212188955
 30
0.0
 40
22.86
  1
ストレーナー：ＦＣ１５０
 41
1.152777777777778
  7
ＭＳ ゴシック
100
AcDbText
  0
LINE
  5
2CD
330
1F
100
AcDbEntity
  8
0-5_文字
  6
Continuous
 62
     7
370
    13
100
AcDbLine
 10
288.8818320056089
 20
728.9413564298754
 30
0.0
 11
709.1549065938693
 21
728.9413564298754
 31
0.0
  0
LINE
  5
2CE
330
1F
100
AcDbEntity
  8
0-5_文字
  6
Continuous
 62
     7
370
    13
100
AcDbLine
 10
150.1878463356172
 20
-27.94191650786446
 30
0.0
 11
409.1337283631248
 21
612.9716318447065
 31
0.0
  0
TEXT
  5
2CF
330
1F
100
AcDbEntity
  8
0-5_文字
  6
Continuous
 62
     7
370
    13
100
AcDbText
 10
478.7228324763657
 20
303.3100495241146
 30
0.0
 40
22.86
  1
樹脂系塗装
 41
1.133333333333333
  7
ＭＳ ゴシック
100
AcDbText
  0
LINE
  5
2D0
330
1F
100
AcDbEntity
  8
0-5_文字
  6
Continuous
 62
     7
370
    13
100
AcDbLine
 10
412.1738591866693
 20
336.6484666350732
 30
0.0
 11
744.3073843133584
 21
336.6484666350732
 31
0.0
  0
LINE
  5
2D1
330
1F
100
AcDbEntity
  8
0-5_文字
  6
Continuous
 62
     7
370
    13
100
AcDbLine
 10
211.2044041190609
 20
-49.88826375673725
 30
0.0
 11
420.7492212658298
 21
468.7533583647523
 31
0.0
  0
TEXT
  5
2D2
330
1F
100
AcDbEntity
  8
0-5_文字
  6
Continuous
 62
     7
370
    13
100
AcDbText
 10
473.3626311845381
 20
435.8150514469945
 30
0.0
 40
22.86
  1
Ｍ６×１２
 41
1.13333333333333
  7
ＭＳ ゴシック
100
AcDbText
  0
LINE
  5
2D3
330
1F
100
AcDbEntity
  8
0-5_文字
  6
Continuous
 62
     7
370
    13
100
AcDbLine
 10
121.2402051422269
 20
22.19686879836156
 30
0.0
 11
150.1878463356172
 21
-27.94191650786446
 31
0.0
  0
LINE
  5
2D4
330
1F
100
AcDbEntity
  8
0-4_寸法
  6
Continuous
 62
     7
370
    13
100
AcDbLine
 10
121.2402051422269
 20
22.19686879836156
 30
0.0
 11
136.4592408674449
 21
2.363035291080648
 31
0.0
  0
LINE
  5
2D5
330
1F
100
AcDbEntity
  8
0-4_寸法
  6
Continuous
 62
     7
370
    13
100
AcDbLine
 10
121.2402051422269
 20
22.19686879836156
 30
0.0
 11
130.8072909513541
 21
-0.9001195144206298
 31
0.0
  0
TEXT
  5
2D6
330
1F
100
AcDbEntity
  8
0-5_文字
  6
Continuous
 62
     7
370
    13
100
AcDbText
 10
-900.8628132378084
 20
-333.8556796372271
 30
0.0
 40
22.86
  1
樹脂系塗装
 41
1.133333333333333
  7
ＭＳ ゴシック
100
AcDbText
  0
TEXT
  5
2D7
330
1F
100
AcDbEntity
  8
0-5_文字
  6
Continuous
 62
     7
370
    13
100
AcDbText
 10
-950.3780703772719
 20
-285.1940403978903
 30
0.0
 40
22.86
  1
本体：ＦＣ１５０
 41
1.145833333333333
  7
ＭＳ ゴシック
100
AcDbText
  0
LINE
  5
2D8
330
1F
100
AcDbEntity
  8
0-5_文字
  6
Continuous
 62
     7
370
    13
100
AcDbLine
 10
-669.6264348000449
 20
-300.2639460078458
 30
0.0
 11
-960.6227182539084
 21
-300.2639460078458
 31
0.0
  0
LINE
  5
2D9
330
1F
100
AcDbEntity
  8
0-5_文字
  6
Continuous
 62
     7
370
    13
100
AcDbLine
 10
-576.29504444362
 20
-138.609316243201
 30
0.0
 11
-669.6264348000449
 21
-300.2639460078458
 31
0.0
  0
LINE
  5
2DA
330
1F
100
AcDbEntity
  8
0-5_文字
  6
Continuous
 62
     7
370
    13
100
AcDbLine
 10
-576.29504444362
 20
-138.609316243201
 30
0.0
 11
-591.5140781746169
 21
-158.443102666343
 31
0.0
  0
LINE
  5
2DB
330
1F
100
AcDbEntity
  8
0-5_文字
  6
Continuous
 62
     7
370
    13
100
AcDbLine
 10
-576.29504444362
 20
-138.609316243201
 30
0.0
 11
-585.862181465896
 21
-161.7063390472551
 31
0.0
  0
LINE
  5
2DC
330
1F
100
AcDbEntity
  8
0-5_文字
  6
Continuous
 62
     7
370
    13
100
AcDbLine
 10
409.1337283631248
 20
612.9716318447065
 30
0.0
 11
708.6796699174794
 21
612.9716318447065
 31
0.0
  0
TEXT
  5
2DD
330
1F
100
AcDbEntity
  8
0-5_文字
  6
Continuous
 62
     7
370
    13
100
AcDbText
 10
-885.2875654825236
 20
657.5848105835395
 30
0.0
 40
22.86
  1
Ｍ６×１２
 41
1.133333333333333
  7
ＭＳ ゴシック
100
AcDbText
  0
LINE
  5
2DE
330
1F
100
AcDbEntity
  8
0-5_文字
  6
Continuous
 62
     7
370
    13
100
AcDbLine
 10
-947.1117779444862
 20
689.8310283173868
 30
0.0
 11
-630.7726671308034
 21
689.8310283173868
 31
0.0
  0
TEXT
  5
2DF
330
1F
100
AcDbEntity
  8
0-5_文字
  6
Continuous
 62
     7
370
    13
100
AcDbText
 10
-940.9060502452803
 20
703.6336090157607
 30
0.0
 40
22.86
  1
丸小ネジ：Ｃ２７００
  7
ＭＳ ゴシック
100
AcDbText
  0
TEXT
  5
2E0
330
1F
100
AcDbEntity
  8
0-5_文字
  6
Continuous
 62
     7
370
    13
100
AcDbText
 10
407.8994748687172
 20
623.1009677419355
 30
0.0
 40
22.86
  1
ロート：ＳＵＳ３０４
  7
ＭＳ ゴシック
100
AcDbText
  0
TEXT
  5
2E1
330
1F
100
AcDbEntity
  8
0-5_文字
  6
Continuous
 62
     7
370
    13
100
AcDbText
 10
412.032852683217
 20
352.0493848677589
 30
0.0
 40
22.86
  1
防水層押え：ＦＣ１５０
 41
1.0
  7
ＭＳ ゴシック
100
AcDbText
  0
TEXT
  5
2E2
330
1F
100
AcDbEntity
  8
0-5_文字
  6
Continuous
 62
     7
370
    13
100
AcDbText
 10
420.4102869035232
 20
482.6967323222057
 30
0.0
 40
22.86
  1
丸小ネジ：Ｃ２７００
  7
ＭＳ ゴシック
100
AcDbText
  0
LINE
  5
2E3
330
1F
100
AcDbEntity
  8
0-5_文字
  6
Continuous
 62
     7
370
    13
100
AcDbLine
 10
420.7492212658298
 20
468.7533583647523
 30
0.0
 11
713.7659414853714
 21
468.7533583647523
 31
0.0
  0
ARC
  5
2E4
330
1F
100
AcDbEntity
  8
0-0_通り芯
  6
Continuous
 62
     3
370
    13
100
AcDbCircle
 10
-372.7093545012712
 20
-301.1094052037087
 30
0.0
 40
7.499999910247832
100
AcDbArc
 50
7.000335693359379
 51
90.00000000000001
  0
LINE
  5
2E5
330
1F
100
AcDbEntity
  8
0-5_文字
  6
Continuous
 62
     3
370
    13
100
AcDbLine
 10
-372.7093545012712
 20
-293.6094052934609
 30
0.0
 11
-378.6677884994086
 21
-293.6094052934609
 31
0.0
  0
LINE
  5
2E6
330
1F
100
AcDbEntity
  8
0-4_寸法
  6
Continuous
 62
     7
370
    13
100
AcDbLine
 10
-353.7953991073658
 20
-695.369406867846
 30
0.0
 11
141.2051841436447
 21
-695.369406867846
 31
0.0
  0
LINE
  5
2E7
330
1F
100
AcDbEntity
  8
0-4_寸法
  6
Continuous
 62
     7
370
    13
100
AcDbLine
 10
-353.7953991073658
 20
-695.369406867846
 30
0.0
 11
-329.0092775730205
 21
-692.1062520623447
 31
0.0
  0
LINE
  5
2E8
330
1F
100
AcDbEntity
  8
0-4_寸法
  6
Continuous
 62
     7
370
    13
100
AcDbLine
 10
-353.7953991073658
 20
-695.369406867846
 30
0.0
 11
-329.0092775730205
 21
-698.6325616733474
 31
0.0
  0
LINE
  5
2E9
330
1F
100
AcDbEntity
  8
0-4_寸法
  6
Continuous
 62
     7
370
    13
100
AcDbLine
 10
141.2051841436447
 20
-695.369406867846
 30
0.0
 11
116.4190626092995
 21
-692.1062520623447
 31
0.0
  0
LINE
  5
2EA
330
1F
100
AcDbEntity
  8
0-4_寸法
  6
Continuous
 62
     7
370
    13
100
AcDbLine
 10
141.2051841436447
 20
-695.369406867846
 30
0.0
 11
116.4190626092995
 21
-698.6325616733474
 31
0.0
  0
LINE
  5
2EB
330
1F
100
AcDbEntity
  8
0-4_寸法
  6
Continuous
 62
     7
370
    13
100
AcDbLine
 10
-353.7953991073658
 20
-698.369406867846
 30
0.0
 11
-353.7953991073658
 21
-413.6093993122843
 31
0.0
  0
LINE
  5
2EC
330
1F
100
AcDbEntity
  8
0-4_寸法
  6
Continuous
 62
     7
370
    13
100
AcDbLine
 10
141.2051841436447
 20
-698.369406867846
 30
0.0
 11
141.2051841436447
 21
-413.6093993122843
 31
0.0
  0
LINE
  5
2ED
330
1F
100
AcDbEntity
  8
0-4_寸法
  6
Continuous
 62
     7
370
    13
100
AcDbLine
 10
-606.2953449062616
 20
-790.2705515088451
 30
0.0
 11
393.7045519938124
 21
-790.2705515088451
 31
0.0
  0
LINE
  5
2EE
330
1F
100
AcDbEntity
  8
0-4_寸法
  6
Continuous
 62
     7
370
    13
100
AcDbLine
 10
-606.2953449062616
 20
-790.2705515088451
 30
0.0
 11
-581.5092233719163
 21
-787.0073967033437
 31
0.0
  0
LINE
  5
2EF
330
1F
100
AcDbEntity
  8
0-4_寸法
  6
Continuous
 62
     7
370
    13
100
AcDbLine
 10
-606.2953449062616
 20
-790.2705515088451
 30
0.0
 11
-581.5092233719163
 21
-793.5337063143464
 31
0.0
  0
LINE
  5
2F0
330
1F
100
AcDbEntity
  8
0-4_寸法
  6
Continuous
 62
     7
370
    13
100
AcDbLine
 10
393.7045519938124
 20
-790.2705515088451
 30
0.0
 11
368.9184304594671
 21
-787.0073967033437
 31
0.0
  0
LINE
  5
2F1
330
1F
100
AcDbEntity
  8
0-4_寸法
  6
Continuous
 62
     7
370
    13
100
AcDbLine
 10
393.7045519938124
 20
-790.2705515088451
 30
0.0
 11
368.9184304594671
 21
-793.5337063143464
 31
0.0
  0
LINE
  5
2F2
330
1F
100
AcDbEntity
  8
0-4_寸法
  6
Continuous
 62
     7
370
    13
100
AcDbLine
 10
-606.2953449062616
 20
-793.2705515088451
 30
0.0
 11
-606.2953449062616
 21
-513.6091795621562
 31
0.0
  0
LINE
  5
2F3
330
1F
100
AcDbEntity
  8
0-4_寸法
  6
Continuous
 62
     7
370
    13
100
AcDbLine
 10
393.7045519938124
 20
-793.2705515088451
 30
0.0
 11
393.7045519938124
 21
-513.6095507218902
 31
0.0
  0
TEXT
  5
2F4
330
1F
100
AcDbEntity
  8
0-4_寸法
  6
Continuous
 62
     2
370
   211
100
AcDbText
 10
-150.0451074818606
 20
-683.7294068678461
 30
0.0
 40
30.48
  1
φ99
 41
1.09375
  7
ＭＳ ゴシック
100
AcDbText
  0
TEXT
  5
2F5
330
1F
100
AcDbEntity
  8
0-4_寸法
  6
Continuous
 62
     2
370
   211
100
AcDbText
 10
-161.2953964562246
 20
-778.6305515088451
 30
0.0
 40
30.48
  1
φ200
 41
1.1
  7
ＭＳ ゴシック
100
AcDbText
  0
LINE
  5
2F6
330
1F
100
AcDbEntity
  8
0-4_寸法
  6
Continuous
 62
     7
370
    13
100
AcDbLine
 10
433.3555888972242
 20
-293.6090888342211
 30
0.0
 11
433.3555888972242
 21
-93.60961205253813
 31
0.0
  0
LINE
  5
2F7
330
1F
100
AcDbEntity
  8
0-4_寸法
  6
Continuous
 62
     7
370
    13
100
AcDbLine
 10
433.3555888972242
 20
-293.6090888342211
 30
0.0
 11
430.0924340917229
 21
-268.8229672998758
 31
0.0
  0
LINE
  5
2F8
330
1F
100
AcDbEntity
  8
0-4_寸法
  6
Continuous
 62
     7
370
    13
100
AcDbLine
 10
433.3555888972242
 20
-293.6090888342211
 30
0.0
 11
436.6187437027255
 21
-268.8229672998758
 31
0.0
  0
LINE
  5
2F9
330
1F
100
AcDbEntity
  8
0-4_寸法
  6
Continuous
 62
     7
370
    13
100
AcDbLine
 10
433.3555888972242
 20
-93.60961205253813
 30
0.0
 11
430.0924340917229
 21
-118.3957335868834
 31
0.0
  0
LINE
  5
2FA
330
1F
100
AcDbEntity
  8
0-4_寸法
  6
Continuous
 62
     7
370
    13
100
AcDbLine
 10
433.3555888972242
 20
-93.60961205253813
 30
0.0
 11
436.6187437027255
 21
-118.3957335868834
 31
0.0
  0
TEXT
  5
2FB
330
1F
100
AcDbEntity
  8
0-4_寸法
  6
Continuous
 62
     2
370
   211
100
AcDbText
 10
421.7155888972242
 20
-214.8593504433796
 30
0.0
 40
30.48
  1
40
 50
90.0
 41
1.0625
  7
ＭＳ ゴシック
100
AcDbText
  0
LINE
  5
2FC
330
1F
100
AcDbEntity
  8
0-4_寸法
  6
Continuous
 62
     7
370
    13
100
AcDbLine
 10
433.3555888972242
 20
-293.6090888342211
 30
0.0
 11
260.5990783410139
 21
-293.6090888342211
 31
0.0
  0
LINE
  5
2FD
330
1F
100
AcDbEntity
  8
0-4_寸法
  6
Continuous
 62
     7
370
    13
100
AcDbLine
 10
493.9684921230307
 20
-393.6093993122843
 30
0.0
 11
493.9684921230307
 21
-93.60961205253813
 31
0.0
  0
LINE
  5
2FE
330
1F
100
AcDbEntity
  8
0-4_寸法
  6
Continuous
 62
     7
370
    13
100
AcDbLine
 10
493.9684921230307
 20
-393.6093993122843
 30
0.0
 11
490.7053373175295
 21
-368.823277777939
 31
0.0
  0
LINE
  5
2FF
330
1F
100
AcDbEntity
  8
0-4_寸法
  6
Continuous
 62
     7
370
    13
100
AcDbLine
 10
493.9684921230307
 20
-393.6093993122843
 30
0.0
 11
497.231646928532
 21
-368.823277777939
 31
0.0
  0
LINE
  5
300
330
1F
100
AcDbEntity
  8
0-4_寸法
  6
Continuous
 62
     7
370
    13
100
AcDbLine
 10
493.9684921230307
 20
-93.60961205253813
 30
0.0
 11
490.7053373175295
 21
-118.3957335868834
 31
0.0
  0
LINE
  5
301
330
1F
100
AcDbEntity
  8
0-4_寸法
  6
Continuous
 62
     7
370
    13
100
AcDbLine
 10
493.9684921230307
 20
-93.60961205253813
 30
0.0
 11
497.231646928532
 21
-118.3957335868834
 31
0.0
  0
LINE
  5
302
330
1F
100
AcDbEntity
  8
0-4_寸法
  6
Continuous
 62
     7
370
    13
100
AcDbLine
 10
496.9684921230307
 20
-393.6093993122843
 30
0.0
 11
161.2051841436448
 21
-393.6093993122843
 31
0.0
  0
LINE
  5
303
330
1F
100
AcDbEntity
  8
0-4_寸法
  6
Continuous
 62
     7
370
    13
100
AcDbLine
 10
496.9684921230307
 20
-93.60961205253813
 30
0.0
 11
453.3555888972242
 21
-93.60961205253813
 31
0.0
  0
TEXT
  5
304
330
1F
100
AcDbEntity
  8
0-4_寸法
  6
Continuous
 62
     2
370
   211
100
AcDbText
 10
482.3284921230307
 20
-264.8595056824112
 30
0.0
 40
30.48
  1
60
 50
90.0
 41
1.0625
  7
ＭＳ ゴシック
100
AcDbText
  0
LINE
  5
305
330
1F
100
AcDbEntity
  8
0-4_寸法
  6
Continuous
 62
     7
370
    13
100
AcDbLine
 10
561.2903225806452
 20
-493.6095507218902
 30
0.0
 11
561.2903225806452
 21
-93.60961205253813
 31
0.0
  0
LINE
  5
306
330
1F
100
AcDbEntity
  8
0-4_寸法
  6
Continuous
 62
     7
370
    13
100
AcDbLine
 10
561.2903225806452
 20
-493.6095507218902
 30
0.0
 11
558.0271677751439
 21
-468.8234291875449
 31
0.0
  0
LINE
  5
307
330
1F
100
AcDbEntity
  8
0-4_寸法
  6
Continuous
 62
     7
370
    13
100
AcDbLine
 10
561.2903225806452
 20
-493.6095507218902
 30
0.0
 11
564.5534773861465
 21
-468.8234291875449
 31
0.0
  0
LINE
  5
308
330
1F
100
AcDbEntity
  8
0-4_寸法
  6
Continuous
 62
     7
370
    13
100
AcDbLine
 10
561.2903225806452
 20
-93.60961205253813
 30
0.0
 11
558.0271677751439
 21
-118.3957335868834
 31
0.0
  0
LINE
  5
309
330
1F
100
AcDbEntity
  8
0-4_寸法
  6
Continuous
 62
     7
370
    13
100
AcDbLine
 10
561.2903225806452
 20
-93.60961205253813
 30
0.0
 11
564.5534773861465
 21
-118.3957335868834
 31
0.0
  0
LINE
  5
30A
330
1F
100
AcDbEntity
  8
0-4_寸法
  6
Continuous
 62
     7
370
    13
100
AcDbLine
 10
564.2903225806451
 20
-493.6095507218902
 30
0.0
 11
413.7045519938124
 21
-493.6095507218902
 31
0.0
  0
LINE
  5
30B
330
1F
100
AcDbEntity
  8
0-4_寸法
  6
Continuous
 62
     7
370
    13
100
AcDbLine
 10
558.2903225806452
 20
-93.60961205253813
 30
0.0
 11
544.290322580645
 21
-93.60961205253813
 31
0.0
  0
TEXT
  5
30C
330
1F
100
AcDbEntity
  8
0-4_寸法
  6
Continuous
 62
     2
370
   211
100
AcDbText
 10
549.6503225806451
 20
-326.1095813872141
 30
0.0
 40
30.48
  1
100
 50
90.0
 41
1.083333333333333
  7
ＭＳ ゴシック
100
AcDbText
  0
LINE
  5
30D
330
1F
100
AcDbEntity
  8
0-4_寸法
  6
Continuous
 62
     7
370
    13
100
AcDbLine
 10
-318.1172348940453
 20
-606.9703433922997
 30
0.0
 11
105.5270199303242
 21
-606.9703433922997
 31
0.0
  0
LINE
  5
30E
330
1F
100
AcDbEntity
  8
0-4_寸法
  6
Continuous
 62
     7
370
    13
100
AcDbLine
 10
-318.1172348940453
 20
-606.9703433922997
 30
0.0
 11
-293.3311133597001
 21
-603.7071885867983
 31
0.0
  0
LINE
  5
30F
330
1F
100
AcDbEntity
  8
0-4_寸法
  6
Continuous
 62
     7
370
    13
100
AcDbLine
 10
-318.1172348940453
 20
-606.9703433922997
 30
0.0
 11
-293.3311133597001
 21
-610.233498197801
 31
0.0
  0
LINE
  5
310
330
1F
100
AcDbEntity
  8
0-4_寸法
  6
Continuous
 62
     7
370
    13
100
AcDbLine
 10
105.5270199303242
 20
-606.9703433922997
 30
0.0
 11
80.74089839597892
 21
-603.7071885867983
 31
0.0
  0
LINE
  5
311
330
1F
100
AcDbEntity
  8
0-4_寸法
  6
Continuous
 62
     7
370
    13
100
AcDbLine
 10
105.5270199303242
 20
-606.9703433922997
 30
0.0
 11
80.74089839597892
 21
-610.233498197801
 31
0.0
  0
TEXT
  5
312
330
1F
100
AcDbEntity
  8
0-4_寸法
  6
Continuous
 62
     2
370
   211
100
AcDbText
 10
-138.7951074818606
 20
-595.3303433922996
 30
0.0
 40
30.48
  1
Rc3
 41
1.083333333333333
  7
ＭＳ ゴシック
100
AcDbText
  0
LINE
  5
313
330
1F
100
AcDbEntity
  8
0-4_寸法
  6
Continuous
 62
     7
370
    13
100
AcDbLine
 10
-318.1172348940453
 20
-606.9703433922997
 30
0.0
 11
-318.1172348940453
 21
-408.3580706233377
 31
0.0
  0
LINE
  5
314
330
1F
100
AcDbEntity
  8
0-4_寸法
  6
Continuous
 62
     7
370
    13
100
AcDbLine
 10
105.5270199303242
 20
-606.9703433922997
 30
0.0
 11
105.5270199303242
 21
-408.3580706233377
 31
0.0
  0
LINE
  5
315
330
1F
100
AcDbEntity
  8
0-1_ピット
  6
Continuous
 62
     4
370
    13
100
AcDbLine
 10
-337.9128908405191
 20
-91.1096061012789
 30
0.0
 11
-304.6777318097668
 21
-91.1096061012789
 31
0.0
  0
LINE
  5
316
330
1F
100
AcDbEntity
  8
0-1_ピット
  6
Continuous
 62
     4
370
    13
100
AcDbLine
 10
-341.2953384256949
 20
-94.48960403221048
 30
0.0
 11
-301.2954591998941
 21
-94.48960403221054
 31
0.0
  0
LINE
  5
317
330
1F
100
AcDbEntity
  8
0-1_ピット
  6
Continuous
 62
     4
370
    13
100
AcDbLine
 10
-301.2954591998941
 20
-94.48960403221054
 30
0.0
 11
-304.6777318097668
 21
-91.10960610127893
 31
0.0
  0
LINE
  5
318
330
1F
100
AcDbEntity
  8
0-1_ピット
  6
Continuous
 62
     4
370
    13
100
AcDbLine
 10
-337.9128908405191
 20
-91.10960610127887
 30
0.0
 11
-341.2953384256949
 21
-94.48960403221048
 31
0.0
  0
LINE
  5
319
330
1F
100
AcDbEntity
  8
0-1_ピット
  6
Continuous
 62
     4
370
    13
100
AcDbLine
 10
-337.9128908405191
 20
-91.1096061012789
 30
0.0
 11
-337.9128908405191
 21
-105.3283136830237
 31
0.0
  0
LINE
  5
31A
330
1F
100
AcDbEntity
  8
0-1_ピット
  6
Continuous
 62
     4
370
    13
100
AcDbLine
 10
-304.6777318097668
 20
-91.1096061012789
 30
0.0
 11
-304.6777318097668
 21
-105.3283136830238
 31
0.0
  0
LINE
  5
31B
330
1F
100
AcDbEntity
  8
0-1_ピット
  6
Continuous
 62
     4
370
    13
100
AcDbLine
 10
-341.2953384256949
 20
-94.48960403221048
 30
0.0
 11
-341.2953384256949
 21
-105.3283136830237
 31
0.0
  0
LINE
  5
31C
330
1F
100
AcDbEntity
  8
0-1_ピット
  6
Continuous
 62
     4
370
    13
100
AcDbLine
 10
-301.2954591998941
 20
-94.48960403221054
 30
0.0
 11
-301.2954591998941
 21
-105.3283136830238
 31
0.0
  0
TEXT
  5
31D
330
1F
100
AcDbEntity
  8
0-5_文字
  6
Continuous
 62
     7
370
    13
100
AcDbText
 10
-849.7336834208552
 20
355.720161185639
 30
0.0
 40
22.86
  1
ボルト：Ｃ３６０２
 41
1.148148148148148
  7
ＭＳ ゴシック
100
AcDbText
  0
LINE
  5
31E
330
1F
100
AcDbEntity
  8
0-5_文字
  6
Continuous
 62
     7
370
    13
100
AcDbLine
 10
-522.7074003571558
 20
340.7921004540091
 30
0.0
 11
-854.4936234058515
 21
340.7921004540091
 31
0.0
  0
TEXT
  5
31F
330
1F
100
AcDbEntity
  8
0-5_文字
  6
Continuous
 62
     7
370
    13
100
AcDbText
 10
-782.456864216054
 20
304.7224425808038
 30
0.0
 40
22.86
  1
Ｍ８×２０
 41
1.133333333333333
  7
ＭＳ ゴシック
100
AcDbText
  0
LINE
  5
320
330
1F
100
AcDbEntity
  8
0-1_ピット
  6
JWW_CENTER1
 62
     4
370
    13
100
AcDbLine
 10
-321.2953113251428
 20
-82.27301011299338
 30
0.0
 11
-321.2953113251428
 21
-208.0773111982565
 31
0.0
  0
LINE
  5
321
330
1F
100
AcDbEntity
  8
0-4_寸法
  6
Continuous
 62
     7
370
    13
100
AcDbLine
 10
-606.2952600697512
 20
648.9900786259561
 30
0.0
 11
-606.2952600697512
 21
409.8632376988256
 31
0.0
  0
LINE
  5
322
330
1F
100
AcDbEntity
  8
0-4_寸法
  6
Continuous
 62
     7
370
    13
100
AcDbLine
 10
-556.2953201365586
 20
566.5146066473625
 30
0.0
 11
-556.2953201365586
 21
409.8632376988256
 31
0.0
  0
LINE
  5
323
330
1F
100
AcDbEntity
  8
0-5_文字
  6
Continuous
 62
     7
370
    13
100
AcDbLine
 10
252.4413428312806
 20
-562.500880100585
 30
0.0
 11
266.7919715449715
 21
-597.1463625697584
 31
0.0
  0
LINE
  5
324
330
1F
100
AcDbEntity
  8
0-5_文字
  6
Continuous
 62
     7
370
    13
100
AcDbLine
 10
252.4413428312806
 20
-562.500880100585
 30
0.0
 11
275.2698964191076
 21
-592.2516303615064
 31
0.0
  0
LINE
  5
325
330
1F
100
AcDbEntity
  8
0-5_文字
  6
Continuous
 62
     7
370
    13
100
AcDbLine
 10
252.4413428312806
 20
-562.500880100585
 30
0.0
 11
419.4027965065788
 21
-851.6866007717588
 31
0.0
  0
TEXT
  5
326
330
1F
100
AcDbEntity
  8
0-5_文字
  6
Continuous
 62
     7
370
    13
100
AcDbText
 10
483.5979550709973
 20
-895.2933210999661
 30
0.0
 40
22.86
  1
Ｍ８×１００
 41
1.138888888888889
  7
ＭＳ ゴシック
100
AcDbText
  0
LINE
  5
327
330
1F
100
AcDbEntity
  8
0-5_文字
  6
Continuous
 62
     7
370
    13
100
AcDbLine
 10
419.4027965065788
 20
-851.6866007717588
 30
0.0
 11
726.3257683607253
 21
-851.6866007717588
 31
0.0
  0
TEXT
  5
328
330
1F
100
AcDbEntity
  8
0-5_文字
  6
Continuous
 62
     7
370
    13
100
AcDbText
 10
419.140544635439
 20
-834.4985097494621
 30
0.0
 40
22.86
  1
ボルト：Ｃ３６０２
 41
1.148148148148149
  7
ＭＳ ゴシック
100
AcDbText
  0
LINE
  5
329
330
1F
100
AcDbEntity
  8
0-5_文字
  6
Continuous
 62
     7
370
    13
100
AcDbLine
 10
-374.5787492014825
 20
-533.6090640902389
 30
0.0
 11
-388.9293779151734
 21
-568.2545465594123
 31
0.0
  0
LINE
  5
32A
330
1F
100
AcDbEntity
  8
0-5_文字
  6
Continuous
 62
     7
370
    13
100
AcDbLine
 10
-374.5787492014825
 20
-533.6090640902389
 30
0.0
 11
-397.4073027893095
 21
-563.3598143511604
 31
0.0
  0
LINE
  5
32B
330
1F
100
AcDbEntity
  8
0-5_文字
  6
Continuous
 62
     7
370
    13
100
AcDbLine
 10
-374.5788544840154
 20
-533.6092659311568
 30
0.0
 11
-566.0627545089251
 21
-865.2691096057396
 31
0.0
  0
TEXT
  5
32C
330
1F
100
AcDbEntity
  8
0-5_文字
  6
Continuous
 62
     7
370
    13
100
AcDbText
 10
-955.5306971904267
 20
-850.9662241712501
 30
0.0
 40
22.86
  1
クランプ板：ＦＣ１５０
 41
1.151515151515152
  7
ＭＳ ゴシック
100
AcDbText
  0
TEXT
  5
32D
330
1F
100
AcDbEntity
  8
0-5_文字
  6
Continuous
 62
     7
370
    13
100
AcDbText
 10
-807.9132599970269
 20
-901.3322863089045
 30
0.0
 40
22.86
  1
樹脂系塗装
 41
1.133333333333333
  7
ＭＳ ゴシック
100
AcDbText
  0
LINE
  5
32E
330
1F
100
AcDbEntity
  8
0-5_文字
  6
Continuous
 62
     7
370
    13
100
AcDbLine
 10
-955.3720083246618
 20
-865.2691096057396
 30
0.0
 11
-566.0627545089251
 21
-865.2691096057396
 31
0.0
  0
TEXT
  5
32F
330
1F
100
AcDbEntity
  8
0-4_寸法
  6
Continuous
 62
     6
370
     0
100
AcDbText
 10
-120.9989594172737
 20
-1107.257290025271
 30
0.0
 40
22.86
  1
鋳鉄製　たて引き用　シート防水用　ねじ込み式　ＡＬＣ＝１００
 41
0.9
  7
ＭＳ ゴシック
100
AcDbText
  0
TEXT
  5
330
330
1F
100
AcDbEntity
  8
0-4_寸法
  6
Continuous
 62
     6
370
     0
100
AcDbText
 10
-122.3830087706259
 20
-1146.992684703434
 30
0.0
 40
22.86
  1
ＡＬＣ用バルコニー中継用ルーフドレイン　ＥＡＳＪ－２－７５
 41
0.9000000000000001
  7
ＭＳ ゴシック
100
AcDbText
  0
LINE
  5
331
330
1F
100
AcDbEntity
  8
0-4_寸法
  6
Continuous
 62
     7
370
    13
100
AcDbLine
 10
-606.2952600697512
 20
286.0690172543136
 30
0.0
 11
-606.2952600697512
 21
-102.2706616743262
 31
0.0
  0
LINE
  5
332
330
1F
100
AcDbEntity
  8
0-4_寸法
  6
Continuous
 62
     7
370
    13
100
AcDbLine
 10
-556.2953201365586
 20
286.0690172543136
 30
0.0
 11
-556.2953201365586
 21
-68.15441371832797
 31
0.0
  0
LINE
  5
333
330
1F
100
AcDbEntity
  8
0-5_文字
  6
Continuous
 62
     7
370
    13
100
AcDbLine
 10
-409.0931245613251
 20
214.4377151417471
 30
0.0
 11
-422.5256147699956
 21
235.5225012870693
 31
0.0
  0
LINE
  5
334
330
1F
100
AcDbEntity
  8
0-5_文字
  6
Continuous
 62
     7
370
    13
100
AcDbLine
 10
-409.0931245613251
 20
214.4377151417471
 30
0.0
 11
-416.6107695489319
 21
238.2806389104528
 31
0.0
  0
LINE
  5
335
330
1F
100
AcDbEntity
  8
0-5_文字
  6
Continuous
 62
     7
370
    13
100
AcDbLine
 10
-409.0931245613251
 20
214.4377151417471
 30
0.0
 11
-630.7726671308034
 21
689.8310283173868
 31
0.0
  0
LINE
  5
336
330
1F
100
AcDbEntity
  8
0-5_文字
  6
Continuous
 62
     7
370
    13
100
AcDbLine
 10
-321.2953113251428
 20
-91.13751834943005
 30
0.0
 11
-522.7074003571558
 21
340.7921004540091
 31
0.0
  0
LINE
  5
337
330
1F
100
AcDbEntity
  8
0-5_文字
  6
Continuous
 62
     7
370
    13
100
AcDbLine
 10
-321.2953113251428
 20
-91.13751834943005
 30
0.0
 11
-334.7278015338135
 21
-70.05273220410794
 31
0.0
  0
LINE
  5
338
330
1F
100
AcDbEntity
  8
0-5_文字
  6
Continuous
 62
     7
370
    13
100
AcDbLine
 10
-321.2953113251428
 20
-91.13751834943005
 30
0.0
 11
-328.8129563127497
 21
-67.29459458072441
 31
0.0
  0
ARC
  5
339
330
1F
100
AcDbEntity
  8
0-3_受枠
  6
Continuous
 62
     2
370
    13
100
AcDbCircle
 10
162.0604215963249
 20
-526.1094105059906
 30
0.0
 40
7.500000096656181
100
AcDbArc
 50
194.0352783203125
 51
270.0
  0
ARC
  5
33A
330
1F
100
AcDbEntity
  8
0-3_受枠
  6
Continuous
 62
     2
370
    13
100
AcDbCircle
 10
196.0070620233734
 20
-521.1091465701797
 30
0.0
 40
7.500000096656181
100
AcDbArc
 50
20.55549621582031
 51
90.0
  0
ARC
  5
33B
330
1F
100
AcDbEntity
  8
0-3_受枠
  6
Continuous
 62
     2
370
    13
100
AcDbCircle
 10
-512.1514207086263
 20
-501.1092043061384
 30
0.0
 40
7.500000096656181
100
AcDbArc
 50
14.03494262695312
 51
90.0
  0
ARC
  5
33C
330
1F
100
AcDbEntity
  8
0-3_受枠
  6
Continuous
 62
     2
370
    13
100
AcDbCircle
 10
-495.4395825276723
 20
-506.1094682419491
 30
0.0
 40
7.500000096656181
100
AcDbArc
 50
194.0349426269531
 51
270.0
  0
ARC
  5
33D
330
1F
100
AcDbEntity
  8
0-3_受枠
  6
Continuous
 62
     2
370
    13
100
AcDbCircle
 10
-511.0550148545303
 20
-526.1094105059906
 30
0.0
 40
7.500000096656181
100
AcDbArc
 50
194.0349426269531
 51
270.0
  0
ARC
  5
33E
330
1F
100
AcDbEntity
  8
0-3_受枠
  6
Continuous
 62
     2
370
    13
100
AcDbCircle
 10
-527.7668530354847
 20
-521.1091465701797
 30
0.0
 40
7.500000096656181
100
AcDbArc
 50
14.03494262695312
 51
90.0
  0
ARC
  5
33F
330
1F
100
AcDbEntity
  8
0-3_受枠
  6
Continuous
 62
     2
370
    13
100
AcDbCircle
 10
-595.4396650076131
 20
-506.1094682419491
 30
0.0
 40
7.500000096656181
100
AcDbArc
 50
194.0349426269531
 51
270.0
  0
ARC
  5
340
330
1F
100
AcDbEntity
  8
0-3_受枠
  6
Continuous
 62
     2
370
    13
100
AcDbCircle
 10
-374.6508433490405
 20
-526.1094105059906
 30
0.0
 40
7.500000096656181
100
AcDbArc
 50
269.9999999999999
 51
345.9647216796874
  0
ARC
  5
341
330
1F
100
AcDbEntity
  8
0-3_受枠
  6
Continuous
 62
     2
370
    13
100
AcDbCircle
 10
282.8487896152228
 20
-506.1094682419491
 30
0.0
 40
7.500000096656181
100
AcDbArc
 50
269.9999999999999
 51
345.9635925292968
  0
ARC
  5
342
330
1F
100
AcDbEntity
  8
0-3_受枠
  6
Continuous
 62
     2
370
    13
100
AcDbCircle
 10
299.5606277961772
 20
-501.1092043061384
 30
0.0
 40
7.500000096656181
100
AcDbArc
 50
90.0
 51
165.9635925292969
  0
ARC
  5
343
330
1F
100
AcDbEntity
  8
0-3_受枠
  6
Continuous
 62
     2
370
    13
100
AcDbCircle
 10
298.4644075219478
 20
-526.1094105059906
 30
0.0
 40
7.500000096656181
100
AcDbArc
 50
269.9999999999999
 51
345.9635925292968
  0
ARC
  5
344
330
1F
100
AcDbEntity
  8
0-3_受枠
  6
Continuous
 62
     2
370
    13
100
AcDbCircle
 10
315.1760601230353
 20
-521.1091465701797
 30
0.0
 40
7.500000096656181
100
AcDbArc
 50
90.0
 51
165.9648895263672
  0
ARC
  5
345
330
1F
100
AcDbEntity
  8
0-3_受枠
  6
Continuous
 62
     2
370
    13
100
AcDbCircle
 10
382.8488720951634
 20
-506.1094682419491
 30
0.0
 40
7.500000096656181
100
AcDbArc
 50
269.9999999999999
 51
345.9635925292968
  0
LINE
  5
346
330
1F
100
AcDbEntity
  8
0-3_受枠
  6
Continuous
 62
     2
370
    13
100
AcDbLine
 10
-511.0550148545303
 20
-533.6090640902389
 30
0.0
 11
298.4644075219478
 21
-533.6090640902389
 31
0.0
  0
LINE
  5
347
330
1F
100
AcDbEntity
  8
0-3_受枠
  6
Continuous
 62
     2
370
    13
100
AcDbLine
 10
-495.4395825276723
 20
-513.6091218261976
 30
0.0
 11
213.7047004577056
 21
-513.6091218261976
 31
0.0
  0
LINE
  5
348
330
1F
100
AcDbEntity
  8
0-3_受枠
  6
Continuous
 62
     2
370
    13
100
AcDbLine
 10
282.8487896152228
 20
-513.6091218261976
 30
0.0
 11
253.7047705656556
 21
-513.6091218261976
 31
0.0
  0
LINE
  5
349
330
1F
100
AcDbEntity
  8
0-3_受枠
  6
Continuous
 62
     2
370
    13
100
AcDbLine
 10
154.7843917517829
 20
-527.9284643620927
 30
0.0
 11
151.2047416976765
 21
-513.6091218261976
 31
0.0
  0
LINE
  5
34A
330
1F
100
AcDbEntity
  8
0-3_受枠
  6
Continuous
 62
     2
370
    13
100
AcDbLine
 10
203.0295897696251
 20
-518.4757682577853
 30
0.0
 11
208.7046221017619
 21
-533.6090640902389
 31
0.0
  0
LINE
  5
34B
330
1F
100
AcDbEntity
  8
0-3_受枠
  6
Continuous
 62
     2
370
    13
100
AcDbLine
 10
-512.1514207086263
 20
-493.6091795621562
 30
0.0
 11
-606.2953449062616
 21
-493.6091795621562
 31
0.0
  0
LINE
  5
34C
330
1F
100
AcDbEntity
  8
0-3_受枠
  6
Continuous
 62
     2
370
    13
100
AcDbLine
 10
-504.8752052842178
 20
-499.2901504500362
 30
0.0
 11
-502.7157979520811
 21
-507.9281509383175
 31
0.0
  0
LINE
  5
34D
330
1F
100
AcDbEntity
  8
0-3_受枠
  6
Continuous
 62
     2
370
    13
100
AcDbLine
 10
-518.3312302789388
 20
-527.9284643620927
 30
0.0
 11
-520.490637611076
 21
-519.2904638738114
 31
0.0
  0
LINE
  5
34E
330
1F
100
AcDbEntity
  8
0-3_受枠
  6
Continuous
 62
     2
370
    13
100
AcDbLine
 10
-527.7668530354847
 20
-513.6091218261976
 30
0.0
 11
-595.4396650076131
 21
-513.6091218261976
 31
0.0
  0
LINE
  5
34F
330
1F
100
AcDbEntity
  8
0-3_受枠
  6
Continuous
 62
     2
370
    13
100
AcDbLine
 10
-602.7158804320218
 20
-507.9281509383175
 30
0.0
 11
-606.2953449062616
 21
-493.6091795621562
 31
0.0
  0
LINE
  5
350
330
1F
100
AcDbEntity
  8
0-3_受枠
  6
Continuous
 62
     2
370
    13
100
AcDbLine
 10
-367.3746279246313
 20
-527.9284643620927
 30
0.0
 11
-363.7951634503915
 21
-513.6091218261976
 31
0.0
  0
LINE
  5
351
330
1F
100
AcDbEntity
  8
0-3_受枠
  6
Continuous
 62
     2
370
    13
100
AcDbLine
 10
290.1250050396314
 20
-507.9281509383175
 30
0.0
 11
292.2844123717687
 21
-499.2901504500362
 31
0.0
  0
LINE
  5
352
330
1F
100
AcDbEntity
  8
0-3_受枠
  6
Continuous
 62
     2
370
    13
100
AcDbLine
 10
299.5606277961772
 20
-493.6095507218902
 30
0.0
 11
393.7045519938124
 21
-493.6095507218902
 31
0.0
  0
LINE
  5
353
330
1F
100
AcDbEntity
  8
0-3_受枠
  6
Continuous
 62
     2
370
    13
100
AcDbLine
 10
305.7404373664897
 20
-527.9284643620927
 30
0.0
 11
307.9000302784937
 21
-519.2904638738114
 31
0.0
  0
LINE
  5
354
330
1F
100
AcDbEntity
  8
0-3_受枠
  6
Continuous
 62
     2
370
    13
100
AcDbLine
 10
315.1760601230353
 20
-513.6091218261976
 30
0.0
 11
382.8488720951634
 21
-513.6091218261976
 31
0.0
  0
LINE
  5
355
330
1F
100
AcDbEntity
  8
0-3_受枠
  6
Continuous
 62
     2
370
    13
100
AcDbLine
 10
390.1249019397054
 20
-507.9281509383175
 30
0.0
 11
393.7045519938124
 21
-493.6095507218902
 31
0.0
  0
LINE
  5
356
330
1F
100
AcDbEntity
  8
0-3_受枠
  6
Continuous
 62
     3
370
    13
100
AcDbLine
 10
221.904843807843
 20
-193.6093032820675
 30
0.0
 11
245.5048127953852
 21
-193.6093032820675
 31
0.0
  0
LINE
  5
357
330
1F
100
AcDbEntity
  8
0-3_受枠
  6
Continuous
 62
     4
370
    13
100
AcDbLine
 10
217.0872646930837
 20
-193.6093032820675
 30
0.0
 11
213.7048860375728
 21
-196.9916819375784
 31
0.0
  0
LINE
  5
358
330
1F
100
AcDbEntity
  8
0-3_受枠
  6
Continuous
 62
     4
370
    13
100
AcDbLine
 10
250.3223919101447
 20
-193.6093032820675
 30
0.0
 11
217.0872646930837
 21
-193.6093032820675
 31
0.0
  0
LINE
  5
359
330
1F
100
AcDbEntity
  8
0-3_受枠
  6
Continuous
 62
     4
370
    13
100
AcDbLine
 10
217.0872646930837
 20
-193.6093032820675
 30
0.0
 11
217.0872646930837
 21
-365.5247390730831
 31
0.0
  0
LINE
  5
35A
330
1F
100
AcDbEntity
  8
0-3_受枠
  6
Continuous
 62
     4
370
    13
100
AcDbLine
 10
213.7048860375728
 20
-196.9916819375784
 30
0.0
 11
213.7048860375728
 21
-364.928285380621
 31
0.0
  0
LINE
  5
35B
330
1F
100
AcDbEntity
  8
0-3_受枠
  6
Continuous
 62
     4
370
    13
100
AcDbLine
 10
253.7047705656556
 20
-196.9916819375784
 30
0.0
 11
253.7047705656556
 21
-371.9816193847913
 31
0.0
  0
LINE
  5
35C
330
1F
100
AcDbEntity
  8
0-3_受枠
  6
Continuous
 62
     4
370
    13
100
AcDbLine
 10
250.3223919101447
 20
-193.6093032820675
 30
0.0
 11
253.7047705656556
 21
-196.9916819375784
 31
0.0
  0
LINE
  5
35D
330
1F
100
AcDbEntity
  8
0-3_受枠
  6
Continuous
 62
     4
370
    13
100
AcDbLine
 10
253.7047705656556
 20
-196.9916819375784
 30
0.0
 11
213.7048860375728
 21
-196.9916819375784
 31
0.0
  0
ARC
  5
35E
330
1F
100
AcDbEntity
  8
0-3_受枠
  6
Continuous
 62
     4
370
    13
100
AcDbCircle
 10
261.8235185861369
 20
-552.1080363901754
 30
0.0
 40
14.00094837755771
100
AcDbArc
 50
227.9257202148438
 51
312.0742797851562
  0
ARC
  5
35F
330
1F
100
AcDbEntity
  8
0-3_受枠
  6
Continuous
 62
     4
370
    13
100
AcDbCircle
 10
233.7051994613483
 20
-515.66200631469
 30
0.0
 40
50.44705094517889
100
AcDbArc
 50
248.1978607177734
 51
291.8021392822266
  0
LINE
  5
360
330
1F
100
AcDbEntity
  8
0-3_受枠
  6
Continuous
 62
     4
370
    13
100
AcDbLine
 10
217.0872646930837
 20
-385.8333006559062
 30
0.0
 11
217.0872646930837
 21
-533.6090640902389
 31
0.0
  0
LINE
  5
361
330
1F
100
AcDbEntity
  8
0-3_受枠
  6
Continuous
 62
     4
370
    13
100
AcDbLine
 10
250.3223919101447
 20
-533.6090640902389
 30
0.0
 11
250.3223919101447
 21
-391.6935416952853
 31
0.0
  0
LINE
  5
362
330
1F
100
AcDbEntity
  8
0-3_受枠
  6
Continuous
 62
     4
370
    13
100
AcDbLine
 10
213.7048860375728
 20
-385.236846963444
 30
0.0
 11
213.7048860375728
 21
-533.6090640902389
 31
0.0
  0
LINE
  5
363
330
1F
100
AcDbEntity
  8
0-3_受枠
  6
Continuous
 62
     4
370
    13
100
AcDbLine
 10
253.7047705656556
 20
-392.2899953877474
 30
0.0
 11
253.7047705656556
 21
-533.6090640902389
 31
0.0
  0
LINE
  5
364
330
1F
100
AcDbEntity
  8
0-3_受枠
  6
Continuous
 62
     4
370
    13
100
AcDbLine
 10
230.7047441720744
 20
-593.6092620420969
 30
0.0
 11
217.0872646930837
 21
-593.6092620420969
 31
0.0
  0
LINE
  5
365
330
1F
100
AcDbEntity
  8
0-3_受枠
  6
Continuous
 62
     4
370
    13
100
AcDbLine
 10
250.3223919101447
 20
-593.6092620420969
 30
0.0
 11
236.7049124311541
 21
-593.6092620420969
 31
0.0
  0
LINE
  5
366
330
1F
100
AcDbEntity
  8
0-3_受枠
  6
Continuous
 62
     4
370
    13
100
AcDbLine
 10
230.7047441720744
 20
-590.226883386586
 30
0.0
 11
213.7048860375728
 21
-590.226883386586
 31
0.0
  0
LINE
  5
367
330
1F
100
AcDbEntity
  8
0-3_受枠
  6
Continuous
 62
     4
370
    13
100
AcDbLine
 10
253.7047705656556
 20
-590.226883386586
 30
0.0
 11
236.7049124311541
 21
-590.226883386586
 31
0.0
  0
LINE
  5
368
330
1F
100
AcDbEntity
  8
0-3_受枠
  6
Continuous
 62
     4
370
    13
100
AcDbLine
 10
236.7049124311541
 20
-583.6091053302093
 30
0.0
 11
236.7049124311541
 21
-593.6092620420969
 31
0.0
  0
LINE
  5
369
330
1F
100
AcDbEntity
  8
0-3_受枠
  6
Continuous
 62
     4
370
    13
100
AcDbLine
 10
230.7047441720744
 20
-583.6091053302093
 30
0.0
 11
236.7049124311541
 21
-583.6091053302093
 31
0.0
  0
LINE
  5
36A
330
1F
100
AcDbEntity
  8
0-3_受枠
  6
Continuous
 62
     4
370
    13
100
AcDbLine
 10
230.7047441720744
 20
-583.6091053302093
 30
0.0
 11
230.7047441720744
 21
-593.6092620420969
 31
0.0
  0
LINE
  5
36B
330
1F
100
AcDbEntity
  8
0-3_受枠
  6
Continuous
 62
     4
370
    13
100
AcDbLine
 10
253.7047705656556
 20
-566.1092950340733
 30
0.0
 11
253.7047705656556
 21
-590.226883386586
 31
0.0
  0
LINE
  5
36C
330
1F
100
AcDbEntity
  8
0-3_受枠
  6
Continuous
 62
     4
370
    13
100
AcDbLine
 10
250.3223919101447
 20
-593.6092620420969
 30
0.0
 11
250.3223919101447
 21
-566.1092950340733
 31
0.0
  0
LINE
  5
36D
330
1F
100
AcDbEntity
  8
0-3_受枠
  6
Continuous
 62
     4
370
    13
100
AcDbLine
 10
217.0872646930837
 20
-566.1092950340733
 30
0.0
 11
217.0872646930837
 21
-593.6092620420969
 31
0.0
  0
LINE
  5
36E
330
1F
100
AcDbEntity
  8
0-3_受枠
  6
Continuous
 62
     4
370
    13
100
AcDbLine
 10
213.7048860375728
 20
-590.226883386586
 30
0.0
 11
213.7048860375728
 21
-566.1092950340733
 31
0.0
  0
LINE
  5
36F
330
1F
100
AcDbEntity
  8
0-3_受枠
  6
Continuous
 62
     4
370
    13
100
AcDbLine
 10
205.5868803365593
 20
-566.1092950340733
 30
0.0
 11
261.8235185861369
 21
-566.1092950340733
 31
0.0
  0
LINE
  5
370
330
1F
100
AcDbEntity
  8
0-3_受枠
  6
Continuous
 62
     4
370
    13
100
AcDbLine
 10
252.4413428312806
 20
-562.500880100585
 30
0.0
 11
252.4413428312806
 21
-533.6090640902389
 31
0.0
  0
LINE
  5
371
330
1F
100
AcDbEntity
  8
0-3_受枠
  6
Continuous
 62
     4
370
    13
100
AcDbLine
 10
214.9686849316819
 20
-562.500880100585
 30
0.0
 11
214.9686849316819
 21
-533.6090640902389
 31
0.0
  0
LINE
  5
372
330
1F
100
AcDbEntity
  8
0-3_受枠
  6
Continuous
 62
     4
370
    13
100
AcDbLine
 10
271.2049520215257
 20
-562.500880100585
 30
0.0
 11
271.2049520215257
 21
-533.6090640902389
 31
0.0
  0
LINE
  5
373
330
1F
100
AcDbEntity
  8
0-3_受枠
  6
Continuous
 62
     4
370
    13
100
AcDbLine
 10
250.3223919101447
 20
-593.6092620420969
 30
0.0
 11
253.7047705656556
 21
-590.226883386586
 31
0.0
  0
LINE
  5
374
330
1F
100
AcDbEntity
  8
0-3_受枠
  6
Continuous
 62
     4
370
    13
100
AcDbLine
 10
217.0872646930837
 20
-593.6092620420969
 30
0.0
 11
213.7048860375728
 21
-590.226883386586
 31
0.0
  0
ARC
  5
375
330
1F
100
AcDbEntity
  8
0-3_受枠
  6
Continuous
 62
     2
370
    13
100
AcDbCircle
 10
271.4020378402546
 20
-521.1091465701797
 30
0.0
 40
7.500000096656181
100
AcDbArc
 50
90.0
 51
159.4442749023438
  0
LINE
  5
376
330
1F
100
AcDbEntity
  8
0-3_受枠
  6
Continuous
 62
     2
370
    13
100
AcDbLine
 10
264.3795100940022
 20
-518.4757682577853
 30
0.0
 11
258.7046633417327
 21
-533.6090640902389
 31
0.0
  0
LINE
  5
377
330
1F
100
AcDbEntity
  8
0-3_受枠
  6
Continuous
 62
     4
370
    13
100
AcDbLine
 10
196.204704581703
 20
-562.500880100585
 30
0.0
 11
196.204704581703
 21
-533.6090640902389
 31
0.0
  0
ARC
  5
378
330
1F
100
AcDbEntity
  8
0-3_受枠
  6
Continuous
 62
     4
370
    13
100
AcDbCircle
 10
205.5868803365593
 20
-552.1084075499094
 30
0.0
 40
14.0008671863659
100
AcDbArc
 50
227.9253692626953
 51
312.0744323730469
  0
LINE
  5
379
330
1F
100
AcDbEntity
  8
0-3_受枠
  6
Continuous
 62
     7
370
    13
100
AcDbLine
 10
268.7048200536202
 20
-394.9348796518942
 30
0.0
 11
198.7048365496085
 21
-382.5919626992971
 31
0.0
  0
LINE
  5
37A
330
1F
100
AcDbEntity
  8
0-3_受枠
  6
Continuous
 62
     4
370
    13
100
AcDbLine
 10
250.3223919101447
 20
-371.3851656923292
 30
0.0
 11
250.3223919101447
 21
-193.6093032820675
 31
0.0
  0
LINE
  5
37B
330
1F
100
AcDbEntity
  8
0-3_受枠
  6
Continuous
 62
     7
370
    13
100
AcDbLine
 10
268.7048200536202
 20
-374.6265036489382
 30
0.0
 11
198.7048365496085
 21
-362.2834011164741
 31
0.0
  0
LINE
  5
37C
330
1F
100
AcDbEntity
  8
0-3_受枠
  6
JWW_CENTER1
 62
     4
370
    13
100
AcDbLine
 10
233.7048283016142
 20
-607.36407062265
 30
0.0
 11
233.7048283016142
 21
-185.5274856551144
 31
0.0
  0
ENDSEC
  0
SECTION
  2
OBJECTS
  0
DICTIONARY
  5
C
330
0
100
AcDbDictionary
281
     1
  3
ACAD_GROUP
350
D
  3
ACAD_LAYOUT
350
1A
  3
ACAD_MLEADERSTYLE
350
37E
  3
ACAD_MLINESTYLE
350
17
  3
ACAD_PLOTSETTINGS
350
19
  3
ACAD_PLOTSTYLENAME
350
E
  3
ACAD_TABLESTYLE
350
37D
  3
ACAD_VISUALSTYLE
350
2A
  0
DICTIONARY
  5
D
102
{ACAD_REACTORS
330
C
102
}
330
C
100
AcDbDictionary
281
     1
  0
DICTIONARY
  5
1A
102
{ACAD_REACTORS
330
C
102
}
330
C
100
AcDbDictionary
281
     1
  3
Layout1
350
1E
  3
Layout2
350
26
  3
Model
350
22
  0
DICTIONARY
  5
37E
102
{ACAD_REACTORS
330
C
102
}
330
C
100
AcDbDictionary
281
     1
  0
DICTIONARY
  5
17
102
{ACAD_REACTORS
330
C
102
}
330
C
100
AcDbDictionary
281
     1
  3
Standard
350
18
  0
DICTIONARY
  5
19
102
{ACAD_REACTORS
330
C
102
}
330
C
100
AcDbDictionary
281
     1
  0
ACDBDICTIONARYWDFLT
  5
E
102
{ACAD_REACTORS
330
C
102
}
330
C
100
AcDbDictionary
281
     1
  3
Normal
350
F
100
AcDbDictionaryWithDefault
340
F
  0
DICTIONARY
  5
37D
102
{ACAD_REACTORS
330
C
102
}
330
C
100
AcDbDictionary
281
     1
  0
DICTIONARY
  5
2A
102
{ACAD_REACTORS
330
C
102
}
330
C
100
AcDbDictionary
281
     1
  3
2dWireframe
350
2F
  3
3D Hidden
350
31
  3
3dWireframe
350
30
  3
Basic
350
32
  3
Brighten
350
36
  3
ColorChange
350
3A
  3
Conceptual
350
34
  3
Dim
350
35
  3
Facepattern
350
39
  3
Flat
350
2B
  3
FlatWithEdges
350
2C
  3
Gouraud
350
2D
  3
GouraudWithEdges
350
2E
  3
Linepattern
350
38
  3
Realistic
350
33
  3
Thicken
350
37
  0
LAYOUT
  5
1E
102
{ACAD_REACTORS
330
1A
102
}
330
1A
100
AcDbPlotSettings
  1

  2
none_device
  4

  6

 40
0.0
 41
0.0
 42
0.0
 43
0.0
 44
0.0
 45
0.0
 46
0.0
 47
0.0
 48
0.0
 49
0.0
140
0.0
141
0.0
142
1.0
143
1.0
 70
   688
 72
     0
 73
     0
 74
     5
  7

 75
    16
 76
     0
 77
     5
 78
   300
147
1.0
148
0.0
149
0.0
100
AcDbLayout
  1
Layout1
 70
     1
 71
     1
 10
0.0
 20
0.0
 11
420.0
 21
297.0
 12
0.0
 22
0.0
 32
0.0
 14
1.000000000000000E+20
 24
1.000000000000000E+20
 34
1.000000000000000E+20
 15
-1.000000000000000E+20
 25
-1.000000000000000E+20
 35
-1.000000000000000E+20
146
0.0
 13
0.0
 23
0.0
 33
0.0
 16
1.0
 26
0.0
 36
0.0
 17
0.0
 27
1.0
 37
0.0
 76
     0
330
1B
  0
LAYOUT
  5
26
102
{ACAD_REACTORS
330
1A
102
}
330
1A
100
AcDbPlotSettings
  1

  2
none_device
  4

  6

 40
0.0
 41
0.0
 42
0.0
 43
0.0
 44
0.0
 45
0.0
 46
0.0
 47
0.0
 48
0.0
 49
0.0
140
0.0
141
0.0
142
1.0
143
1.0
 70
   688
 72
     0
 73
     0
 74
     5
  7

 75
    16
 76
     0
 77
     5
 78
   300
147
1.0
148
0.0
149
0.0
100
AcDbLayout
  1
Layout2
 70
     1
 71
     2
 10
0.0
 20
0.0
 11
0.0
 21
0.0
 12
0.0
 22
0.0
 32
0.0
 14
0.0
 24
0.0
 34
0.0
 15
0.0
 25
0.0
 35
0.0
146
0.0
 13
0.0
 23
0.0
 33
0.0
 16
1.0
 26
0.0
 36
0.0
 17
0.0
 27
1.0
 37
0.0
 76
     0
330
23
  0
LAYOUT
  5
22
102
{ACAD_REACTORS
330
1A
102
}
330
1A
100
AcDbPlotSettings
  1

  2
none_device
  4

  6

 40
0.0
 41
0.0
 42
0.0
 43
0.0
 44
0.0
 45
0.0
 46
0.0
 47
0.0
 48
0.0
 49
0.0
140
0.0
141
0.0
142
1.0
143
1.0
 70
  1712
 72
     0
 73
     0
 74
     0
  7

 75
     0
 76
     0
 77
     5
 78
   300
147
1.0
148
0.0
149
0.0
100
AcDbLayout
  1
Model
 70
     1
 71
     0
 10
-2100.0
 20
-1485.0
 11
2100.0
 21
1485.0
 12
0.0
 22
0.0
 32
0.0
 14
-2100.0
 24
-1485.0
 34
0.0
 15
2100.0
 25
1485.0
 35
0.0
146
0.0
 13
0.0
 23
0.0
 33
0.0
 16
1.0
 26
0.0
 36
0.0
 17
0.0
 27
1.0
 37
0.0
 76
     0
330
1F
331
29
  0
MLINESTYLE
  5
18
102
{ACAD_REACTORS
330
17
102
}
330
17
100
AcDbMlineStyle
  2
Standard
 70
     0
  3

 62
   256
 51
90.0
 52
90.0
 71
     2
 49
0.5
 62
   256
  6
BYLAYER
 49
-0.5
 62
   256
  6
BYLAYER
  0
ACDBPLACEHOLDER
  5
F
102
{ACAD_REACTORS
330
E
102
}
330
E
  0
VISUALSTYLE
  5
2F
102
{ACAD_REACTORS
330
2A
102
}
330
2A
100
AcDbVisualStyle
  2
2dWireframe
 70
     4
 71
     0
 72
     2
 73
     0
 90
        0
 40
-0.6
 41
-30.0
 62
     5
 63
     7
421
 16777215
 74
     1
 91
        4
 64
     7
 65
   257
 75
     1
175
     1
 42
1.0
 92
        0
 66
   257
 43
1.0
 76
     1
 77
     6
 78
     2
 67
     7
 79
     5
170
     0
171
     0
290
     0
174
     0
 93
        1
 44
0.0
173
     0
291
     0
 45
0.0
1001
ACAD
1000
AcDbSavedByObjectVersion
1070
     0
  0
VISUALSTYLE
  5
31
102
{ACAD_REACTORS
330
2A
102
}
330
2A
100
AcDbVisualStyle
  2
3D Hidden
 70
     6
 71
     1
 72
     2
 73
     2
 90
        0
 40
-0.6
 41
-30.0
 62
     5
 63
     7
421
 16777215
 74
     2
 91
        2
 64
     7
 65
   257
 75
     2
175
     1
 42
40.0
 92
        0
 66
   257
 43
1.0
 76
     1
 77
     6
 78
     2
 67
     7
 79
     3
170
     0
171
     0
290
     0
174
     0
 93
        1
 44
0.0
173
     0
291
     0
 45
0.0
1001
ACAD
1000
AcDbSavedByObjectVersion
1070
     0
  0
VISUALSTYLE
  5
30
102
{ACAD_REACTORS
330
2A
102
}
330
2A
100
AcDbVisualStyle
  2
3dWireframe
 70
     5
 71
     0
 72
     2
 73
     0
 90
        0
 40
-0.6
 41
-30.0
 62
     5
 63
     7
421
 16777215
 74
     1
 91
        4
 64
     7
 65
   257
 75
     1
175
     1
 42
1.0
 92
        0
 66
   257
 43
1.0
 76
     1
 77
     6
 78
     2
 67
     7
 79
     5
170
     0
171
     0
290
     0
174
     0
 93
        1
 44
0.0
173
     0
291
     0
 45
0.0
1001
ACAD
1000
AcDbSavedByObjectVersion
1070
     0
  0
VISUALSTYLE
  5
32
102
{ACAD_REACTORS
330
2A
102
}
330
2A
100
AcDbVisualStyle
  2
Basic
 70
     7
 71
     1
 72
     0
 73
     1
 90
        0
 40
-0.6
 41
-30.0
 62
     5
 63
     7
421
 16777215
 74
     0
 91
        4
 64
     7
 65
   257
 75
     1
175
     1
 42
1.0
 92
        8
 66
     7
 43
1.0
 76
     1
 77
     6
 78
     2
 67
     7
 79
     5
170
     0
171
     0
290
     0
174
     0
 93
        1
 44
0.0
173
     0
291
     1
 45
0.0
1001
ACAD
1000
AcDbSavedByObjectVersion
1070
     0
  0
VISUALSTYLE
  5
36
102
{ACAD_REACTORS
330
2A
102
}
330
2A
100
AcDbVisualStyle
  2
Brighten
 70
    12
 71
     2
 72
     2
 73
     0
 90
        0
 40
-0.6
 41
-30.0
 62
     5
 63
     7
421
 16777215
 74
     1
 91
        4
 64
     7
 65
   257
 75
     1
175
     1
 42
1.0
 92
        8
 66
     7
 43
1.0
 76
     1
 77
     6
 78
     2
 67
     7
 79
     5
170
     0
171
     0
290
     0
174
     0
 93
        1
 44
50.0
173
     0
291
     1
 45
0.0
1001
ACAD
1000
AcDbSavedByObjectVersion
1070
     0
  0
VISUALSTYLE
  5
3A
102
{ACAD_REACTORS
330
2A
102
}
330
2A
100
AcDbVisualStyle
  2
ColorChange
 70
    16
 71
     2
 72
     2
 73
     3
 90
        0
 40
-0.6
 41
-30.0
 62
     5
 63
     8
421
  8421504
 74
     1
 91
        4
 64
     7
 65
   257
 75
     1
175
     1
 42
1.0
 92
        8
 66
     8
424
  8421504
 43
1.0
 76
     1
 77
     6
 78
     2
 67
     7
 79
     5
170
     0
171
     0
290
     0
174
     0
 93
        1
 44
0.0
173
     0
291
     1
 45
0.0
1001
ACAD
1000
AcDbSavedByObjectVersion
1070
     0
  0
VISUALSTYLE
  5
34
102
{ACAD_REACTORS
330
2A
102
}
330
2A
100
AcDbVisualStyle
  2
Conceptual
 70
     9
 71
     3
 72
     2
 73
     0
 90
        0
 40
-0.6
 41
-30.0
 62
     5
 63
     7
421
 16777215
 74
     2
 91
        2
 64
     7
 65
   257
 75
     1
175
     1
 42
40.0
 92
        8
 66
     7
 43
1.0
 76
     1
 77
     6
 78
     2
 67
     7
 79
     3
170
     0
171
     0
290
     0
174
     0
 93
        1
 44
0.0
173
     0
291
     0
 45
0.0
1001
ACAD
1000
AcDbSavedByObjectVersion
1070
     0
  0
VISUALSTYLE
  5
35
102
{ACAD_REACTORS
330
2A
102
}
330
2A
100
AcDbVisualStyle
  2
Dim
 70
    11
 71
     2
 72
     2
 73
     0
 90
        0
 40
-0.6
 41
-30.0
 62
     5
 63
     7
421
 16777215
 74
     1
 91
        4
 64
     7
 65
   257
 75
     1
175
     1
 42
1.0
 92
        8
 66
     7
 43
1.0
 76
     1
 77
     6
 78
     2
 67
     7
 79
     5
170
     0
171
     0
290
     0
174
     0
 93
        1
 44
-50.0
173
     0
291
     1
 45
0.0
1001
ACAD
1000
AcDbSavedByObjectVersion
1070
     0
  0
VISUALSTYLE
  5
39
102
{ACAD_REACTORS
330
2A
102
}
330
2A
100
AcDbVisualStyle
  2
Facepattern
 70
    15
 71
     2
 72
     2
 73
     0
 90
        0
 40
-0.6
 41
-30.0
 62
     5
 63
     7
421
 16777215
 74
     1
 91
        4
 64
     7
 65
   257
 75
     1
175
     1
 42
1.0
 92
        8
 66
     7
 43
1.0
 76
     1
 77
     6
 78
     2
 67
     7
 79
     5
170
     0
171
     0
290
     0
174
     0
 93
        1
 44
0.0
173
     0
291
     1
 45
0.0
1001
ACAD
1000
AcDbSavedByObjectVersion
1070
     0
  0
VISUALSTYLE
  5
2B
102
{ACAD_REACTORS
330
2A
102
}
330
2A
100
AcDbVisualStyle
  2
Flat
 70
     0
 71
     2
 72
     1
 73
     1
 90
        2
 40
-0.6
 41
30.0
 62
     5
 63
     7
421
 16777215
 74
     0
 91
        4
 64
     7
 65
   257
 75
     1
175
     1
 42
1.0
 92
        8
 66
     7
 43
1.0
 76
     1
 77
     6
 78
     2
 67
     7
 79
     5
170
     0
171
     0
290
     0
174
     0
 93
       13
 44
0.0
173
     0
291
     1
 45
0.0
1001
ACAD
1000
AcDbSavedByObjectVersion
1070
     0
  0
VISUALSTYLE
  5
2C
102
{ACAD_REACTORS
330
2A
102
}
330
2A
100
AcDbVisualStyle
  2
FlatWithEdges
 70
     1
 71
     2
 72
     1
 73
     1
 90
        2
 40
-0.6
 41
30.0
 62
     5
 63
     7
421
 16777215
 74
     1
 91
        4
 64
     7
 65
   257
 75
     1
175
     1
 42
1.0
 92
        0
 66
   257
 43
1.0
 76
     1
 77
     6
 78
     2
 67
     7
 79
     5
170
     0
171
     0
290
     0
174
     0
 93
       13
 44
0.0
173
     0
291
     1
 45
0.0
1001
ACAD
1000
AcDbSavedByObjectVersion
1070
     0
  0
VISUALSTYLE
  5
2D
102
{ACAD_REACTORS
330
2A
102
}
330
2A
100
AcDbVisualStyle
  2
Gouraud
 70
     2
 71
     2
 72
     2
 73
     1
 90
        2
 40
-0.6
 41
30.0
 62
     5
 63
     7
421
 16777215
 74
     0
 91
        4
 64
     7
 65
   257
 75
     1
175
     1
 42
1.0
 92
        0
 66
     7
 43
1.0
 76
     1
 77
     6
 78
     2
 67
     7
 79
     5
170
     0
171
     0
290
     0
174
     0
 93
       13
 44
0.0
173
     0
291
     1
 45
0.0
1001
ACAD
1000
AcDbSavedByObjectVersion
1070
     0
  0
VISUALSTYLE
  5
2E
102
{ACAD_REACTORS
330
2A
102
}
330
2A
100
AcDbVisualStyle
  2
GouraudWithEdges
 70
     3
 71
     2
 72
     2
 73
     1
 90
        2
 40
-0.6
 41
30.0
 62
     5
 63
     7
421
 16777215
 74
     1
 91
        4
 64
     7
 65
   257
 75
     1
175
     1
 42
1.0
 92
        0
 66
   257
 43
1.0
 76
     1
 77
     6
 78
     2
 67
     7
 79
     5
170
     0
171
     0
290
     0
174
     0
 93
       13
 44
0.0
173
     0
291
     1
 45
0.0
1001
ACAD
1000
AcDbSavedByObjectVersion
1070
     0
  0
VISUALSTYLE
  5
38
102
{ACAD_REACTORS
330
2A
102
}
330
2A
100
AcDbVisualStyle
  2
Linepattern
 70
    14
 71
     2
 72
     2
 73
     0
 90
        0
 40
-0.6
 41
-30.0
 62
     5
 63
     7
421
 16777215
 74
     1
 91
        4
 64
     7
 65
   257
 75
     7
175
     7
 42
1.0
 92
        8
 66
     7
 43
1.0
 76
     1
 77
     6
 78
     2
 67
     7
 79
     5
170
     0
171
     0
290
     0
174
     0
 93
        1
 44
0.0
173
     0
291
     1
 45
0.0
1001
ACAD
1000
AcDbSavedByObjectVersion
1070
     0
  0
VISUALSTYLE
  5
33
102
{ACAD_REACTORS
330
2A
102
}
330
2A
100
AcDbVisualStyle
  2
Realistic
 70
     8
 71
     2
 72
     2
 73
     0
 90
        0
 40
-0.6
 41
-30.0
 62
     5
 63
     7
421
 16777215
 74
     1
 91
        0
 64
     7
 65
   257
 75
     1
175
     1
 42
1.0
 92
        8
 66
     8
424
  7895160
 43
1.0
 76
     1
 77
     6
 78
     2
 67
     7
 79
     5
170
     0
171
     0
290
     0
174
     0
 93
       13
 44
0.0
173
     0
291
     0
 45
0.0
1001
ACAD
1000
AcDbSavedByObjectVersion
1070
     0
  0
VISUALSTYLE
  5
37
102
{ACAD_REACTORS
330
2A
102
}
330
2A
100
AcDbVisualStyle
  2
Thicken
 70
    13
 71
     2
 72
     2
 73
     0
 90
        0
 40
-0.6
 41
-30.0
 62
     5
 63
     7
421
 16777215
 74
     1
 91
        4
 64
     7
 65
   257
 75
     1
175
     1
 42
1.0
 92
       12
 66
     7
 43
1.0
 76
     1
 77
     6
 78
     2
 67
     7
 79
     5
170
     0
171
     0
290
     0
174
     0
 93
        1
 44
0.0
173
     0
291
     1
 45
0.0
1001
ACAD
1000
AcDbSavedByObjectVersion
1070
     0
  0
ENDSEC
  0
EOF
