  0
SECTION
  2
HEADER
  9
$ACADVER
  1
AC1018
  9
$ACADMAINTVER
 70
     0
  9
$DWGCODEPAGE
  3
ANSI_932
  9
$INSBASE
 10
0.0
 20
0.0
 30
0.0
  9
$EXTMIN
 10
-2100.0
 20
-1485.0
 30
0.0
  9
$EXTMAX
 10
2100.0
 20
1485.0
 30
0.0
  9
$LIMMIN
 10
-2100.0
 20
-1485.0
  9
$LIMMAX
 10
2100.0
 20
1485.0
  9
$ORTHOMODE
 70
     0
  9
$REGENMODE
 70
     1
  9
$FILLMODE
 70
     1
  9
$QTEXTMODE
 70
     0
  9
$MIRRTEXT
 70
     1
  9
$LTSCALE
 40
10.0
  9
$ATTMODE
 70
     1
  9
$TEXTSIZE
 40
2.5
  9
$TRACEWID
 40
1.0
  9
$TEXTSTYLE
  7
Standard
  9
$CLAYER
  8
0
  9
$CELTYPE
  6
ByLayer
  9
$CECOLOR
 62
   256
  9
$CELTSCALE
 40
1.0
  9
$DISPSILH
 70
     0
  9
$DIMSCALE
 40
1.0
  9
$DIMASZ
 40
2.5
  9
$DIMEXO
 40
0.625
  9
$DIMDLI
 40
3.75
  9
$DIMRND
 40
0.0
  9
$DIMDLE
 40
0.0
  9
$DIMEXE
 40
1.25
  9
$DIMTP
 40
0.0
  9
$DIMTM
 40
0.0
  9
$DIMTXT
 40
2.5
  9
$DIMCEN
 40
2.5
  9
$DIMTSZ
 40
0.0
  9
$DIMTOL
 70
     0
  9
$DIMLIM
 70
     0
  9
$DIMTIH
 70
     0
  9
$DIMTOH
 70
     0
  9
$DIMSE1
 70
     0
  9
$DIMSE2
 70
     0
  9
$DIMTAD
 70
     1
  9
$DIMZIN
 70
     8
  9
$DIMBLK
  1

  9
$DIMASO
 70
     1
  9
$DIMSHO
 70
     1
  9
$DIMPOST
  1

  9
$DIMAPOST
  1

  9
$DIMALT
 70
     0
  9
$DIMALTD
 70
     3
  9
$DIMALTF
 40
0.03937007874016
  9
$DIMLFAC
 40
1.0
  9
$DIMTOFL
 70
     1
  9
$DIMTVP
 40
0.0
  9
$DIMTIX
 70
     0
  9
$DIMSOXD
 70
     0
  9
$DIMSAH
 70
     0
  9
$DIMBLK1
  1

  9
$DIMBLK2
  1

  9
$DIMSTYLE
  2
ISO-25
  9
$DIMCLRD
 70
     0
  9
$DIMCLRE
 70
     0
  9
$DIMCLRT
 70
     0
  9
$DIMTFAC
 40
1.0
  9
$DIMGAP
 40
0.625
  9
$DIMJUST
 70
     0
  9
$DIMSD1
 70
     0
  9
$DIMSD2
 70
     0
  9
$DIMTOLJ
 70
     0
  9
$DIMTZIN
 70
     8
  9
$DIMALTZ
 70
     0
  9
$DIMALTTZ
 70
     0
  9
$DIMUPT
 70
     0
  9
$DIMDEC
 70
     2
  9
$DIMTDEC
 70
     2
  9
$DIMALTU
 70
     2
  9
$DIMALTTD
 70
     3
  9
$DIMTXSTY
  7
Standard
  9
$DIMAUNIT
 70
     0
  9
$DIMADEC
 70
     0
  9
$DIMALTRND
 40
0.0
  9
$DIMAZIN
 70
     0
  9
$DIMDSEP
 70
    44
  9
$DIMATFIT
 70
     3
  9
$DIMFRAC
 70
     0
  9
$DIMLDRBLK
  1

  9
$DIMLUNIT
 70
     2
  9
$DIMLWD
 70
    -2
  9
$DIMLWE
 70
    -2
  9
$DIMTMOVE
 70
     0
  9
$LUNITS
 70
     2
  9
$LUPREC
 70
     4
  9
$SKETCHINC
 40
1.0
  9
$FILLETRAD
 40
10.0
  9
$AUNITS
 70
     0
  9
$AUPREC
 70
     0
  9
$MENU
  1
.
  9
$ELEVATION
 40
0.0
  9
$PELEVATION
 40
0.0
  9
$THICKNESS
 40
0.0
  9
$LIMCHECK
 70
     0
  9
$CHAMFERA
 40
10.0
  9
$CHAMFERB
 40
10.0
  9
$CHAMFERC
 40
20.0
  9
$CHAMFERD
 40
0.0
  9
$SKPOLY
 70
     0
  9
$TDCREATE
 40
2456498.819366863
  9
$TDUCREATE
 40
2456498.444366863
  9
$TDUPDATE
 40
2456498.819366875
  9
$TDUUPDATE
 40
2456498.444366875
  9
$TDINDWG
 40
0.0000000116
  9
$TDUSRTIMER
 40
0.0000000116
  9
$USRTIMER
 70
     1
  9
$ANGBASE
 50
0.0
  9
$ANGDIR
 70
     0
  9
$PDMODE
 70
     0
  9
$PDSIZE
 40
0.0
  9
$PLINEWID
 40
0.0
  9
$SPLFRAME
 70
     0
  9
$SPLINETYPE
 70
     6
  9
$SPLINESEGS
 70
     8
  9
$HANDSEED
  5
357
  9
$SURFTAB1
 70
     6
  9
$SURFTAB2
 70
     6
  9
$SURFTYPE
 70
     6
  9
$SURFU
 70
     6
  9
$SURFV
 70
     6
  9
$UCSBASE
  2

  9
$UCSNAME
  2

  9
$UCSORG
 10
0.0
 20
0.0
 30
0.0
  9
$UCSXDIR
 10
1.0
 20
0.0
 30
0.0
  9
$UCSYDIR
 10
0.0
 20
1.0
 30
0.0
  9
$UCSORTHOREF
  2

  9
$UCSORTHOVIEW
 70
     0
  9
$UCSORGTOP
 10
0.0
 20
0.0
 30
0.0
  9
$UCSORGBOTTOM
 10
0.0
 20
0.0
 30
0.0
  9
$UCSORGLEFT
 10
0.0
 20
0.0
 30
0.0
  9
$UCSORGRIGHT
 10
0.0
 20
0.0
 30
0.0
  9
$UCSORGFRONT
 10
0.0
 20
0.0
 30
0.0
  9
$UCSORGBACK
 10
0.0
 20
0.0
 30
0.0
  9
$PUCSBASE
  2

  9
$PUCSNAME
  2

  9
$PUCSORG
 10
0.0
 20
0.0
 30
0.0
  9
$PUCSXDIR
 10
1.0
 20
0.0
 30
0.0
  9
$PUCSYDIR
 10
0.0
 20
1.0
 30
0.0
  9
$PUCSORTHOREF
  2

  9
$PUCSORTHOVIEW
 70
     0
  9
$PUCSORGTOP
 10
0.0
 20
0.0
 30
0.0
  9
$PUCSORGBOTTOM
 10
0.0
 20
0.0
 30
0.0
  9
$PUCSORGLEFT
 10
0.0
 20
0.0
 30
0.0
  9
$PUCSORGRIGHT
 10
0.0
 20
0.0
 30
0.0
  9
$PUCSORGFRONT
 10
0.0
 20
0.0
 30
0.0
  9
$PUCSORGBACK
 10
0.0
 20
0.0
 30
0.0
  9
$USERI1
 70
     0
  9
$USERI2
 70
     0
  9
$USERI3
 70
     0
  9
$USERI4
 70
     0
  9
$USERI5
 70
     0
  9
$USERR1
 40
0.0
  9
$USERR2
 40
0.0
  9
$USERR3
 40
0.0
  9
$USERR4
 40
0.0
  9
$USERR5
 40
0.0
  9
$WORLDVIEW
 70
     1
  9
$SHADEDGE
 70
     3
  9
$SHADEDIF
 70
    70
  9
$TILEMODE
 70
     1
  9
$MAXACTVP
 70
    64
  9
$PINSBASE
 10
0.0
 20
0.0
 30
0.0
  9
$PLIMCHECK
 70
     0
  9
$PEXTMIN
 10
1.000000000000000E+20
 20
1.000000000000000E+20
 30
1.000000000000000E+20
  9
$PEXTMAX
 10
-1.000000000000000E+20
 20
-1.000000000000000E+20
 30
-1.000000000000000E+20
  9
$PLIMMIN
 10
0.0
 20
0.0
  9
$PLIMMAX
 10
420.0
 20
297.0
  9
$UNITMODE
 70
     0
  9
$VISRETAIN
 70
     1
  9
$PLINEGEN
 70
     0
  9
$PSLTSCALE
 70
     1
  9
$TREEDEPTH
 70
  3020
  9
$CMLSTYLE
  2
Standard
  9
$CMLJUST
 70
     0
  9
$CMLSCALE
 40
20.0
  9
$PROXYGRAPHICS
 70
     1
  9
$MEASUREMENT
 70
     1
  9
$CELWEIGHT
370
    -1
  9
$ENDCAPS
280
     0
  9
$JOINSTYLE
280
     0
  9
$LWDISPLAY
290
     0
  9
$INSUNITS
 70
     4
  9
$HYPERLINKBASE
  1

  9
$STYLESHEET
  1

  9
$XEDIT
290
     1
  9
$CEPSNTYPE
380
     0
  9
$PSTYLEMODE
290
     1
  9
$FINGERPRINTGUID
  2
{9ADB5F1E-97F4-47DE-854F-E79D2C9DCCBA}
  9
$VERSIONGUID
  2
{FAEB1C32-E019-11D5-929B-00C0DF256EC4}
  9
$EXTNAMES
290
     1
  9
$PSVPSCALE
 40
0.0
  9
$OLESTARTUP
290
     0
  9
$SORTENTS
280
   127
  9
$INDEXCTL
280
     0
  9
$HIDETEXT
280
     1
  9
$XCLIPFRAME
290
     0
  9
$HALOGAP
280
     0
  9
$OBSCOLOR
 70
   257
  9
$OBSLTYPE
280
     0
  9
$INTERSECTIONDISPLAY
280
     0
  9
$INTERSECTIONCOLOR
 70
   257
  9
$DIMASSOC
280
     2
  9
$PROJECTNAME
  1

  0
ENDSEC
  0
SECTION
  2
CLASSES
  0
CLASS
  1
ACDBDICTIONARYWDFLT
  2
AcDbDictionaryWithDefault
  3
ObjectDBX Classes
 90
        0
 91
        4
280
     0
281
     0
  0
CLASS
  1
VISUALSTYLE
  2
AcDbVisualStyle
  3
ObjectDBX Classes
 90
     4095
 91
        4
280
     0
281
     0
  0
ENDSEC
  0
SECTION
  2
TABLES
  0
TABLE
  2
VPORT
  5
8
330
0
100
AcDbSymbolTable
 70
     1
  0
VPORT
  5
29
330
8
100
AcDbSymbolTableRecord
100
AcDbViewportTableRecord
  2
*Active
 70
     0
 10
0.0
 20
0.0
 11
1.0
 21
1.0
 12
0.0
 22
0.0
 13
0.0
 23
0.0
 14
10.0
 24
10.0
 15
10.0
 25
10.0
 16
0.0
 26
0.0
 36
1.0
 17
0.0
 27
0.0
 37
0.0
 40
3267.0
 41
1.414141414141414
 42
50.0
 43
0.0
 44
0.0
 50
0.0
 51
0.0
 71
     0
 72
 10000
 73
     1
 74
     3
 75
     0
 76
     0
 77
     0
 78
     0
281
     0
 65
     1
110
0.0
120
0.0
130
0.0
111
1.0
121
0.0
131
0.0
112
0.0
122
1.0
132
0.0
 79
     0
146
0.0
  0
ENDTAB
  0
TABLE
  2
LTYPE
  5
5
330
0
100
AcDbSymbolTable
 70
     4
  0
LTYPE
  5
14
330
5
100
AcDbSymbolTableRecord
100
AcDbLinetypeTableRecord
  2
ByBlock
 70
     0
  3

 72
    65
 73
     0
 40
0.0
  0
LTYPE
  5
15
330
5
100
AcDbSymbolTableRecord
100
AcDbLinetypeTableRecord
  2
ByLayer
 70
     0
  3

 72
    65
 73
     0
 40
0.0
  0
LTYPE
  5
16
330
5
100
AcDbSymbolTableRecord
100
AcDbLinetypeTableRecord
  2
Continuous
 70
     0
  3
Solid line
 72
    65
 73
     0
 40
0.0
  0
LTYPE
  5
3C
330
5
100
AcDbSymbolTableRecord
100
AcDbLinetypeTableRecord
  2
JWW_CENTER1
 70
     0
  3
-----  --  ----------  --  -----
 72
    65
 73
     4
 40
6.773333333333333
 49
4.233333333333333
 74
     0
 49
-0.8466666666666667
 74
     0
 49
0.8466666666666667
 74
     0
 49
-0.8466666666666667
 74
     0
  0
LTYPE
  5
3D
330
5
100
AcDbSymbolTableRecord
100
AcDbLinetypeTableRecord
  2
JWW_DASHED1
 70
     0
  3
-  --  --  --  --  --  --  --  -
 72
    65
 73
     2
 40
1.693333333333333
 49
0.8466666666666667
 74
     0
 49
-0.8466666666666667
 74
     0
  0
LTYPE
  5
3E
330
5
100
AcDbSymbolTableRecord
100
AcDbLinetypeTableRecord
  2
JWW_PHANTOM1
 70
     0
  3
----  -  -  --------  -  -  ----
 72
    65
 73
     6
 40
6.773333333333333
 49
3.386666666666667
 74
     0
 49
-0.8466666666666667
 74
     0
 49
0.4233333333333333
 74
     0
 49
-0.8466666666666667
 74
     0
 49
0.4233333333333333
 74
     0
 49
-0.8466666666666667
 74
     0
  0
ENDTAB
  0
TABLE
  2
LAYER
  5
2
330
0
100
AcDbSymbolTable
 70
    10
  0
LAYER
  5
10
330
2
100
AcDbSymbolTableRecord
100
AcDbLayerTableRecord
  2
0
 70
     0
 62
     7
  6
Continuous
370
    -3
390
F
  0
LAYER
  5
3F
330
2
100
AcDbSymbolTableRecord
100
AcDbLayerTableRecord
  2
F-4
 70
     0
 62
     7
  6
Continuous
370
    -3
390
F
  0
LAYER
  5
40
330
2
100
AcDbSymbolTableRecord
100
AcDbLayerTableRecord
  2
0-1
 70
     0
 62
     7
  6
Continuous
370
    -3
390
F
  0
LAYER
  5
41
330
2
100
AcDbSymbolTableRecord
100
AcDbLayerTableRecord
  2
0-0
 70
     0
 62
     7
  6
Continuous
370
    -3
390
F
  0
LAYER
  5
42
330
2
100
AcDbSymbolTableRecord
100
AcDbLayerTableRecord
  2
0-F
 70
     0
 62
     7
  6
Continuous
370
    -3
390
F
  0
LAYER
  5
43
330
2
100
AcDbSymbolTableRecord
100
AcDbLayerTableRecord
  2
0-E
 70
     0
 62
     7
  6
Continuous
370
    -3
390
F
  0
LAYER
  5
44
330
2
100
AcDbSymbolTableRecord
100
AcDbLayerTableRecord
  2
0-5
 70
     0
 62
     7
  6
Continuous
370
    -3
390
F
  0
LAYER
  5
45
330
2
100
AcDbSymbolTableRecord
100
AcDbLayerTableRecord
  2
0-4
 70
     0
 62
     7
  6
Continuous
370
    -3
390
F
  0
LAYER
  5
46
330
2
100
AcDbSymbolTableRecord
100
AcDbLayerTableRecord
  2
0-3
 70
     0
 62
     7
  6
Continuous
370
    -3
390
F
  0
LAYER
  5
47
330
2
100
AcDbSymbolTableRecord
100
AcDbLayerTableRecord
  2
0-2
 70
     0
 62
     7
  6
Continuous
370
    -3
390
F
  0
ENDTAB
  0
TABLE
  2
STYLE
  5
3
330
0
100
AcDbSymbolTable
 70
     2
  0
STYLE
  5
11
330
3
100
AcDbSymbolTableRecord
100
AcDbTextStyleTableRecord
  2
Standard
 70
     0
 40
0.0
 41
1.0
 50
0.0
 71
     0
 42
2.5
  3
txt
  4

1001
ACAD
1000

1071
        0
  0
STYLE
  5
3B
330
3
100
AcDbSymbolTableRecord
100
AcDbTextStyleTableRecord
  2
ＭＳ ゴシック
 70
     0
 40
1.0
 41
1.0
 50
0.0
 71
     0
 42
10.0
  3

  4

1001
ACAD
1000
MS Gothic
1071
    32817
  0
ENDTAB
  0
TABLE
  2
VIEW
  5
6
330
0
100
AcDbSymbolTable
 70
     0
  0
ENDTAB
  0
TABLE
  2
UCS
  5
7
330
0
100
AcDbSymbolTable
 70
     0
  0
ENDTAB
  0
TABLE
  2
APPID
  5
9
330
0
100
AcDbSymbolTable
 70
     1
  0
APPID
  5
12
330
9
100
AcDbSymbolTableRecord
100
AcDbRegAppTableRecord
  2
ACAD
 70
     0
  0
ENDTAB
  0
TABLE
  2
DIMSTYLE
  5
A
330
0
100
AcDbSymbolTable
 70
     1
100
AcDbDimStyleTable
  0
DIMSTYLE
105
27
330
A
100
AcDbSymbolTableRecord
100
AcDbDimStyleTableRecord
  2
ISO-25
 70
     0
 41
2.5
 42
0.625
 43
3.75
 44
1.25
 73
     0
 74
     0
 77
     1
 78
     8
140
2.5
141
2.5
143
0.03937007874016
147
0.625
171
     3
172
     1
271
     2
272
     2
274
     3
278
    44
283
     0
284
     8
340
11
  0
ENDTAB
  0
TABLE
  2
BLOCK_RECORD
  5
1
330
0
100
AcDbSymbolTable
 70
     1
  0
BLOCK_RECORD
  5
1F
330
1
100
AcDbSymbolTableRecord
100
AcDbBlockTableRecord
  2
*Model_Space
340
22
  0
BLOCK_RECORD
  5
1B
330
1
100
AcDbSymbolTableRecord
100
AcDbBlockTableRecord
  2
*Paper_Space
340
1E
  0
BLOCK_RECORD
  5
23
330
1
100
AcDbSymbolTableRecord
100
AcDbBlockTableRecord
  2
*Paper_Space0
340
26
  0
ENDTAB
  0
ENDSEC
  0
SECTION
  2
BLOCKS
  0
BLOCK
  5
20
330
1F
100
AcDbEntity
  8
0
100
AcDbBlockBegin
  2
*Model_Space
 70
     0
 10
0.0
 20
0.0
 30
0.0
  3
*Model_Space
  1

  0
ENDBLK
  5
21
330
1F
100
AcDbEntity
  8
0
100
AcDbBlockEnd
  0
BLOCK
  5
1C
330
1B
100
AcDbEntity
 67
     1
  8
0
100
AcDbBlockBegin
  2
*Paper_Space
 70
     0
 10
0.0
 20
0.0
 30
0.0
  3
*Paper_Space
  1

  0
ENDBLK
  5
1D
330
1B
100
AcDbEntity
 67
     1
  8
0
100
AcDbBlockEnd
  0
BLOCK
  5
24
330
23
100
AcDbEntity
  8
0
100
AcDbBlockBegin
  2
*Paper_Space0
 70
     0
 10
0.0
 20
0.0
 30
0.0
  3
*Paper_Space0
  1

  0
ENDBLK
  5
25
330
23
100
AcDbEntity
  8
0
100
AcDbBlockEnd
  0
ENDSEC
  0
SECTION
  2
ENTITIES
  0
TEXT
  5
48
330
1F
100
AcDbEntity
  8
F-4
  6
Continuous
 62
     6
370
     0
100
AcDbText
 10
-257.719680697315
 20
-1150.207905441542
 30
0.0
 40
30.48
  1
鋳鉄製　たて引き用　シート防水用　　　ＡＬＣ＝１００
 41
0.7980769230769229
  7
ＭＳ ゴシック
100
AcDbText
  0
TEXT
  5
49
330
1F
100
AcDbEntity
  8
F-4
  6
Continuous
 62
     6
370
     0
100
AcDbText
 10
-339.2386808340503
 20
-1194.296530629553
 30
0.0
 40
30.48
  1
ねじ込み式　ＡＬＣ用　ルーフドレイン　　ＥＡＳＰ－２－１００
 41
0.7983333333333332
  7
ＭＳ ゴシック
100
AcDbText
  0
LINE
  5
4A
330
1F
100
AcDbEntity
  8
0-1
  6
Continuous
 62
     2
370
     9
100
AcDbLine
 10
16.69516500791172
 20
945.1100506482185
 30
0.0
 11
26.37501086939817
 21
947.7037148690799
 31
0.0
  0
LINE
  5
4B
330
1F
100
AcDbEntity
  8
0-1
  6
Continuous
 62
     2
370
     9
100
AcDbLine
 10
13.43069142788647
 20
939.0591572254987
 30
0.0
 11
31.15950727987109
 21
943.8095069404482
 31
0.0
  0
LINE
  5
4C
330
1F
100
AcDbEntity
  8
0-1
  6
Continuous
 62
     2
370
     9
100
AcDbLine
 10
-37.04530031092265
 20
1038.191468247458
 30
0.0
 11
-29.95936611012031
 21
1045.277649888083
 31
0.0
  0
LINE
  5
4D
330
1F
100
AcDbEntity
  8
0-1
  6
Continuous
 62
     2
370
     9
100
AcDbLine
 10
-43.91794138461353
 20
1038.389914985212
 30
0.0
 11
-30.93972268740078
 21
1051.368133682425
 31
0.0
  0
LINE
  5
4E
330
1F
100
AcDbEntity
  8
0-1
  6
Continuous
 62
     2
370
     9
100
AcDbLine
 10
13.43069142788647
 20
939.0591572254987
 30
0.0
 11
16.69516500791172
 21
945.1100506482185
 31
0.0
  0
LINE
  5
4F
330
1F
100
AcDbEntity
  8
0-1
  6
Continuous
 62
     2
370
     9
100
AcDbLine
 10
31.15950727987109
 20
943.8095069404482
 30
0.0
 11
26.37501086939817
 21
947.7037148690799
 31
0.0
  0
LINE
  5
50
330
1F
100
AcDbEntity
  8
0-1
  6
Continuous
 62
     2
370
     9
100
AcDbLine
 10
-29.95936611012031
 20
1045.277649888083
 30
0.0
 11
-30.93972268740078
 21
1051.368133682425
 31
0.0
  0
LINE
  5
51
330
1F
100
AcDbEntity
  8
0-1
  6
Continuous
 62
     2
370
     9
100
AcDbLine
 10
-37.04530031092265
 20
1038.191468247458
 30
0.0
 11
-43.91794138461353
 21
1038.389914985212
 31
0.0
  0
LINE
  5
52
330
1F
100
AcDbEntity
  8
0-1
  6
Continuous
 62
     2
370
     9
100
AcDbLine
 10
-62.97253980627733
 20
1064.118707742813
 30
0.0
 11
-55.88660560547499
 21
1071.204889383438
 31
0.0
  0
LINE
  5
53
330
1F
100
AcDbEntity
  8
0-1
  6
Continuous
 62
     2
370
     9
100
AcDbLine
 10
-62.7743405083466
 20
1057.246314108945
 30
0.0
 11
-49.79587437131119
 21
1070.224532806157
 31
0.0
  0
LINE
  5
54
330
1F
100
AcDbEntity
  8
0-1
  6
Continuous
 62
     2
370
     9
100
AcDbLine
 10
-156.0539574055172
 20
1117.85942050147
 30
0.0
 11
-153.4602931846557
 21
1127.539266362956
 31
0.0
  0
LINE
  5
55
330
1F
100
AcDbEntity
  8
0-1
  6
Continuous
 62
     2
370
     9
100
AcDbLine
 10
-162.1050982680596
 20
1114.594946921445
 30
0.0
 11
-157.3547485531101
 21
1132.323515333607
 31
0.0
  0
LINE
  5
56
330
1F
100
AcDbEntity
  8
0-1
  6
Continuous
 62
     2
370
     9
100
AcDbLine
 10
-62.7743405083466
 20
1057.246314108945
 30
0.0
 11
-62.97253980627733
 21
1064.118707742813
 31
0.0
  0
LINE
  5
57
330
1F
100
AcDbEntity
  8
0-1
  6
Continuous
 62
     2
370
     9
100
AcDbLine
 10
-49.79587437131119
 20
1070.224532806157
 30
0.0
 11
-55.88660560547499
 21
1071.204889383438
 31
0.0
  0
LINE
  5
58
330
1F
100
AcDbEntity
  8
0-1
  6
Continuous
 62
     2
370
     9
100
AcDbLine
 10
-153.4602931846557
 20
1127.539266362956
 30
0.0
 11
-157.3547485531101
 21
1132.323515333607
 31
0.0
  0
LINE
  5
59
330
1F
100
AcDbEntity
  8
0-1
  6
Continuous
 62
     2
370
     9
100
AcDbLine
 10
-156.0539574055172
 20
1117.85942050147
 30
0.0
 11
-162.1050982680596
 21
1114.594946921445
 31
0.0
  0
LINE
  5
5A
330
1F
100
AcDbEntity
  8
0-1
  6
Continuous
 62
     2
370
     9
100
AcDbLine
 10
-191.4712564183974
 20
1127.349480018995
 30
0.0
 11
-188.8775921975359
 21
1137.029078440659
 31
0.0
  0
LINE
  5
5B
330
1F
100
AcDbEntity
  8
0-1
  6
Continuous
 62
     2
370
     9
100
AcDbLine
 10
-187.8633363645544
 20
1121.496785894206
 30
0.0
 11
-183.1129866496052
 21
1139.225601746191
 31
0.0
  0
LINE
  5
5C
330
1F
100
AcDbEntity
  8
0-1
  6
Continuous
 62
     2
370
     9
100
AcDbLine
 10
-298.9524344958891
 20
1127.349480018995
 30
0.0
 11
-301.5460987167505
 21
1137.029078440659
 31
0.0
  0
LINE
  5
5D
330
1F
100
AcDbEntity
  8
0-1
  6
Continuous
 62
     2
370
     9
100
AcDbLine
 10
-302.5606019895544
 20
1121.496785894206
 30
0.0
 11
-307.3109517045039
 21
1139.225354306369
 31
0.0
  0
LINE
  5
5E
330
1F
100
AcDbEntity
  8
0-1
  6
Continuous
 62
     2
370
     9
100
AcDbLine
 10
-187.8633363645544
 20
1121.496785894206
 30
0.0
 11
-191.4712564183974
 21
1127.349480018995
 31
0.0
  0
LINE
  5
5F
330
1F
100
AcDbEntity
  8
0-1
  6
Continuous
 62
     2
370
     9
100
AcDbLine
 10
-183.1129866496052
 20
1139.225601746191
 30
0.0
 11
-188.8775921975359
 21
1137.029078440659
 31
0.0
  0
LINE
  5
60
330
1F
100
AcDbEntity
  8
0-1
  6
Continuous
 62
     2
370
     9
100
AcDbLine
 10
-301.5460987167505
 20
1137.029078440659
 30
0.0
 11
-307.3109517045039
 21
1139.225354306369
 31
0.0
  0
LINE
  5
61
330
1F
100
AcDbEntity
  8
0-1
  6
Continuous
 62
     2
370
     9
100
AcDbLine
 10
-298.9524344958891
 20
1127.349480018995
 30
0.0
 11
-302.5606019895544
 21
1121.496785894206
 31
0.0
  0
LINE
  5
62
330
1F
100
AcDbEntity
  8
0-1
  6
Continuous
 62
     2
370
     9
100
AcDbLine
 10
-334.3697335087689
 20
1117.85942050147
 30
0.0
 11
-336.9633977296304
 21
1127.539266362956
 31
0.0
  0
LINE
  5
63
330
1F
100
AcDbEntity
  8
0-1
  6
Continuous
 62
     2
370
     9
100
AcDbLine
 10
-328.3188400860495
 20
1114.594946921445
 30
0.0
 11
-333.0691898009986
 21
1132.323762773429
 31
0.0
  0
LINE
  5
64
330
1F
100
AcDbEntity
  8
0-1
  6
Continuous
 62
     2
370
     9
100
AcDbLine
 10
-427.4511511080088
 20
1064.118955182636
 30
0.0
 11
-434.5373327486338
 21
1071.204889383438
 31
0.0
  0
LINE
  5
65
330
1F
100
AcDbEntity
  8
0-1
  6
Continuous
 62
     2
370
     9
100
AcDbLine
 10
-427.6495978457622
 20
1057.246314108945
 30
0.0
 11
-440.627816542975
 21
1070.224532806157
 31
0.0
  0
LINE
  5
66
330
1F
100
AcDbEntity
  8
0-1
  6
Continuous
 62
     2
370
     9
100
AcDbLine
 10
-328.3188400860495
 20
1114.594946921445
 30
0.0
 11
-334.3697335087689
 21
1117.85942050147
 31
0.0
  0
LINE
  5
67
330
1F
100
AcDbEntity
  8
0-1
  6
Continuous
 62
     2
370
     9
100
AcDbLine
 10
-333.0691898009986
 20
1132.323762773429
 30
0.0
 11
-336.9633977296304
 21
1127.539266362956
 31
0.0
  0
LINE
  5
68
330
1F
100
AcDbEntity
  8
0-1
  6
Continuous
 62
     2
370
     9
100
AcDbLine
 10
-427.4511511080088
 20
1064.118955182636
 30
0.0
 11
-427.6495978457622
 21
1057.246314108945
 31
0.0
  0
LINE
  5
69
330
1F
100
AcDbEntity
  8
0-1
  6
Continuous
 62
     2
370
     9
100
AcDbLine
 10
-453.3783906033635
 20
1038.191715687281
 30
0.0
 11
-460.4643248041658
 21
1045.277649888083
 31
0.0
  0
LINE
  5
6A
330
1F
100
AcDbEntity
  8
0-1
  6
Continuous
 62
     2
370
     9
100
AcDbLine
 10
-446.5059969694953
 20
1038.389914985212
 30
0.0
 11
-459.4842156667083
 21
1051.368381122247
 31
0.0
  0
LINE
  5
6B
330
1F
100
AcDbEntity
  8
0-1
  6
Continuous
 62
     2
370
     9
100
AcDbLine
 10
-507.1189796421094
 20
945.1102980880408
 30
0.0
 11
-516.7988255035958
 21
947.7037148690799
 31
0.0
  0
LINE
  5
6C
330
1F
100
AcDbEntity
  8
0-1
  6
Continuous
 62
     2
370
     9
100
AcDbLine
 10
-503.8546297819953
 20
939.0591572254987
 30
0.0
 11
-521.5831981941575
 21
943.8095069404482
 31
0.0
  0
LINE
  5
6D
330
1F
100
AcDbEntity
  8
0-1
  6
Continuous
 62
     2
370
     9
100
AcDbLine
 10
-446.5059969694953
 20
1038.389914985212
 30
0.0
 11
-453.3783906033635
 21
1038.191715687281
 31
0.0
  0
LINE
  5
6E
330
1F
100
AcDbEntity
  8
0-1
  6
Continuous
 62
     2
370
     9
100
AcDbLine
 10
-459.4842156667083
 20
1051.368381122247
 30
0.0
 11
-460.4643248041658
 21
1045.277649888083
 31
0.0
  0
LINE
  5
6F
330
1F
100
AcDbEntity
  8
0-1
  6
Continuous
 62
     2
370
     9
100
AcDbLine
 10
-516.7988255035958
 20
947.7037148690799
 30
0.0
 11
-521.5831981941575
 21
943.8095069404482
 31
0.0
  0
LINE
  5
70
330
1F
100
AcDbEntity
  8
0-1
  6
Continuous
 62
     2
370
     9
100
AcDbLine
 10
-507.1189796421094
 20
945.1102980880408
 30
0.0
 11
-503.8546297819953
 21
939.0591572254987
 31
0.0
  0
LINE
  5
71
330
1F
100
AcDbEntity
  8
0-1
  6
Continuous
 62
     2
370
     9
100
AcDbLine
 10
26.18497708561431
 20
909.6927516353383
 30
0.0
 11
35.86482294710105
 21
912.2866632960223
 31
0.0
  0
LINE
  5
72
330
1F
100
AcDbEntity
  8
0-1
  6
Continuous
 62
     2
370
     9
100
AcDbLine
 10
20.33253040064817
 20
913.3009191290039
 30
0.0
 11
38.06109881281042
 21
918.051268843953
 31
0.0
  0
LINE
  5
73
330
1F
100
AcDbEntity
  8
0-1
  6
Continuous
 62
     2
370
     9
100
AcDbLine
 10
35.86482294710105
 20
912.2866632960223
 30
0.0
 11
38.06109881281042
 21
918.051268843953
 31
0.0
  0
LINE
  5
74
330
1F
100
AcDbEntity
  8
0-1
  6
Continuous
 62
     2
370
     9
100
AcDbLine
 10
26.18497708561431
 20
909.6927516353383
 30
0.0
 11
20.33253040064817
 21
913.3009191290039
 31
0.0
  0
LINE
  5
75
330
1F
100
AcDbEntity
  8
0-1
  6
Continuous
 62
     2
370
     9
100
AcDbLine
 10
-516.6090391596346
 20
909.6927516353383
 30
0.0
 11
-526.288885021121
 21
912.2866632960223
 31
0.0
  0
LINE
  5
76
330
1F
100
AcDbEntity
  8
0-1
  6
Continuous
 62
     2
370
     9
100
AcDbLine
 10
-510.7564687547573
 20
913.3009191290039
 30
0.0
 11
-528.4850371669193
 21
918.051268843953
 31
0.0
  0
LINE
  5
77
330
1F
100
AcDbEntity
  8
0-1
  6
Continuous
 62
     2
370
     9
100
AcDbLine
 10
-526.288885021121
 20
912.2866632960223
 30
0.0
 11
-528.4850371669193
 21
918.051268843953
 31
0.0
  0
LINE
  5
78
330
1F
100
AcDbEntity
  8
0-1
  6
Continuous
 62
     2
370
     9
100
AcDbLine
 10
-516.6090391596346
 20
909.6927516353383
 30
0.0
 11
-510.7564687547573
 21
913.3009191290039
 31
0.0
  0
LINE
  5
79
330
1F
100
AcDbEntity
  8
0-1
  6
Continuous
 62
     2
370
     9
100
AcDbLine
 10
-434.5373327486338
 20
1071.204889383438
 30
0.0
 11
-440.627816542975
 21
1070.224532806157
 31
0.0
  0
LINE
  5
7A
330
1F
100
AcDbEntity
  8
0-0
  6
JWW_CENTER1
 62
     3
370
     9
100
AcDbLine
 10
-637.3263919494361
 20
855.9522863165039
 30
0.0
 11
154.9447427106146
 21
855.9522863165039
 31
0.0
  0
LINE
  5
7B
330
1F
100
AcDbEntity
  8
0-0
  6
JWW_CENTER1
 62
     3
370
     9
100
AcDbLine
 10
-245.2119691770544
 20
1254.659743162999
 30
0.0
 11
-245.2119691770544
 21
834.6244582442908
 31
0.0
  0
ARC
  5
7C
330
1F
100
AcDbEntity
  8
0-0
  6
Continuous
 62
     3
370
     9
100
AcDbCircle
 10
-245.2119691770544
 20
855.9522863165039
 30
0.0
 40
371.6666762893265
100
AcDbArc
 50
0.0
 51
180.0
  0
ARC
  5
7D
330
1F
100
AcDbEntity
  8
0-0
  6
Continuous
 62
     3
370
     9
100
AcDbCircle
 10
-245.2119691770544
 20
855.9522863165039
 30
0.0
 40
375.0
100
AcDbArc
 50
0.0
 51
180.0
  0
ARC
  5
7E
330
1F
100
AcDbEntity
  8
0-1
  6
Continuous
 62
     2
370
     9
100
AcDbCircle
 10
-245.2119691770544
 20
855.9522863165039
 30
0.0
 40
276.6666721653294
100
AcDbArc
 50
18.79946899414062
 51
41.20048522949219
  0
ARC
  5
7F
330
1F
100
AcDbEntity
  8
0-1
  6
Continuous
 62
     2
370
     9
100
AcDbCircle
 10
-245.2119691770544
 20
855.9522863165039
 30
0.0
 40
286.6666742273279
100
AcDbArc
 50
18.666748046875
 51
41.33323669433594
  0
ARC
  5
80
330
1F
100
AcDbEntity
  8
0-1
  6
Continuous
 62
     2
370
     9
100
AcDbCircle
 10
-245.2119691770544
 20
855.9522863165039
 30
0.0
 40
289.9999979380015
100
AcDbArc
 50
17.63522338867188
 51
42.36474609375
  0
ARC
  5
81
330
1F
100
AcDbEntity
  8
0-1
  6
Continuous
 62
     2
370
     9
100
AcDbCircle
 10
-245.2119691770544
 20
855.9522863165039
 30
0.0
 40
271.6666556693413
100
AcDbArc
 50
17.81321716308594
 51
42.186767578125
  0
ARC
  5
82
330
1F
100
AcDbEntity
  8
0-1
  6
Continuous
 62
     2
370
     9
100
AcDbCircle
 10
-245.2119691770544
 20
855.9522863165039
 30
0.0
 40
276.6666721653294
100
AcDbArc
 50
48.79946899414062
 51
71.20048522949217
  0
ARC
  5
83
330
1F
100
AcDbEntity
  8
0-1
  6
Continuous
 62
     2
370
     9
100
AcDbCircle
 10
-245.2119691770544
 20
855.9522863165039
 30
0.0
 40
286.6666742273279
100
AcDbArc
 50
48.66674804687499
 51
71.33323669433594
  0
ARC
  5
84
330
1F
100
AcDbEntity
  8
0-1
  6
Continuous
 62
     2
370
     9
100
AcDbCircle
 10
-245.2119691770544
 20
855.9522863165039
 30
0.0
 40
289.9999979380015
100
AcDbArc
 50
47.63522338867188
 51
72.36474609375
  0
ARC
  5
85
330
1F
100
AcDbEntity
  8
0-1
  6
Continuous
 62
     2
370
     9
100
AcDbCircle
 10
-245.2119691770544
 20
855.9522863165039
 30
0.0
 40
271.6666556693413
100
AcDbArc
 50
47.81321716308593
 51
72.186767578125
  0
ARC
  5
86
330
1F
100
AcDbEntity
  8
0-1
  6
Continuous
 62
     2
370
     9
100
AcDbCircle
 10
-245.2119691770544
 20
855.9522863165039
 30
0.0
 40
276.6666721653294
100
AcDbArc
 50
78.79946899414062
 51
101.2004852294922
  0
ARC
  5
87
330
1F
100
AcDbEntity
  8
0-1
  6
Continuous
 62
     2
370
     9
100
AcDbCircle
 10
-245.2119691770544
 20
855.9522863165039
 30
0.0
 40
286.6666742273279
100
AcDbArc
 50
78.666748046875
 51
101.3332366943359
  0
ARC
  5
88
330
1F
100
AcDbEntity
  8
0-1
  6
Continuous
 62
     2
370
     9
100
AcDbCircle
 10
-245.2119691770544
 20
855.9522863165039
 30
0.0
 40
289.9999979380015
100
AcDbArc
 50
77.63522338867188
 51
102.36474609375
  0
ARC
  5
89
330
1F
100
AcDbEntity
  8
0-1
  6
Continuous
 62
     2
370
     9
100
AcDbCircle
 10
-245.2119691770544
 20
855.9522863165039
 30
0.0
 40
276.6666721653294
100
AcDbArc
 50
108.7994689941406
 51
131.2004852294922
  0
ARC
  5
8A
330
1F
100
AcDbEntity
  8
0-1
  6
Continuous
 62
     2
370
     9
100
AcDbCircle
 10
-245.2119691770544
 20
855.9522863165039
 30
0.0
 40
286.6666742273279
100
AcDbArc
 50
108.666748046875
 51
131.3332366943359
  0
ARC
  5
8B
330
1F
100
AcDbEntity
  8
0-1
  6
Continuous
 62
     2
370
     9
100
AcDbCircle
 10
-245.2119691770544
 20
855.9522863165039
 30
0.0
 40
289.9999979380015
100
AcDbArc
 50
107.6352233886719
 51
132.36474609375
  0
ARC
  5
8C
330
1F
100
AcDbEntity
  8
0-1
  6
Continuous
 62
     2
370
     9
100
AcDbCircle
 10
-245.2119691770544
 20
855.9522863165039
 30
0.0
 40
271.6666556693413
100
AcDbArc
 50
107.8132171630859
 51
132.186767578125
  0
ARC
  5
8D
330
1F
100
AcDbEntity
  8
0-1
  6
Continuous
 62
     2
370
     9
100
AcDbCircle
 10
-245.2119691770544
 20
855.9522863165039
 30
0.0
 40
276.6666721653294
100
AcDbArc
 50
138.7994689941406
 51
161.2004852294922
  0
ARC
  5
8E
330
1F
100
AcDbEntity
  8
0-1
  6
Continuous
 62
     2
370
     9
100
AcDbCircle
 10
-245.2119691770544
 20
855.9522863165039
 30
0.0
 40
286.6666742273279
100
AcDbArc
 50
138.666748046875
 51
161.3332366943359
  0
ARC
  5
8F
330
1F
100
AcDbEntity
  8
0-1
  6
Continuous
 62
     2
370
     9
100
AcDbCircle
 10
-245.2119691770544
 20
855.9522863165039
 30
0.0
 40
289.9999979380015
100
AcDbArc
 50
137.6352233886719
 51
162.36474609375
  0
ARC
  5
90
330
1F
100
AcDbEntity
  8
0-1
  6
Continuous
 62
     2
370
     9
100
AcDbCircle
 10
-245.2119691770544
 20
855.9522863165039
 30
0.0
 40
271.6666556693413
100
AcDbArc
 50
137.8132171630859
 51
162.186767578125
  0
ARC
  5
91
330
1F
100
AcDbEntity
  8
0-1
  6
Continuous
 62
     2
370
     9
100
AcDbCircle
 10
-245.2119691770544
 20
855.9522863165039
 30
0.0
 40
321.4701059702281
100
AcDbArc
 50
0.0
 51
180.0
  0
ARC
  5
92
330
1F
100
AcDbEntity
  8
0-1
  6
Continuous
 62
     2
370
     9
100
AcDbCircle
 10
-245.2119691770544
 20
855.9522863165039
 30
0.0
 40
340.0000082479941
100
AcDbArc
 50
0.0
 51
180.0
  0
ARC
  5
93
330
1F
100
AcDbEntity
  8
0-1
  6
Continuous
 62
     2
370
     9
100
AcDbCircle
 10
-245.2119691770544
 20
855.9522863165039
 30
0.0
 40
341.6666701033308
100
AcDbArc
 50
0.0
 51
180.0
  0
ARC
  5
94
330
1F
100
AcDbEntity
  8
0-1
  6
Continuous
 62
     2
370
     9
100
AcDbCircle
 10
-245.2119691770544
 20
855.9522863165039
 30
0.0
 40
271.6666556693413
100
AcDbArc
 50
7.226165771484361
 51
12.18676757812499
  0
ARC
  5
95
330
1F
100
AcDbEntity
  8
0-1
  6
Continuous
 62
     2
370
     9
100
AcDbCircle
 10
-245.2119691770544
 20
855.9522863165039
 30
0.0
 40
272.9182062922297
100
AcDbArc
 50
0.0
 51
6.4696044921875
  0
ARC
  5
96
330
1F
100
AcDbEntity
  8
0-1
  6
Continuous
 62
     2
370
     9
100
AcDbCircle
 10
-245.2119691770544
 20
855.9522863165039
 30
0.0
 40
276.6666721653294
100
AcDbArc
 50
0.0
 51
11.20048522949217
  0
ARC
  5
97
330
1F
100
AcDbEntity
  8
0-1
  6
Continuous
 62
     2
370
     9
100
AcDbCircle
 10
-245.2119691770544
 20
855.9522863165039
 30
0.0
 40
286.6666742273279
100
AcDbArc
 50
0.0
 51
11.33323669433592
  0
ARC
  5
98
330
1F
100
AcDbEntity
  8
0-1
  6
Continuous
 62
     2
370
     9
100
AcDbCircle
 10
-245.2119691770544
 20
855.9522863165039
 30
0.0
 40
289.9999979380015
100
AcDbArc
 50
0.0
 51
12.36474609374998
  0
ARC
  5
99
330
1F
100
AcDbEntity
  8
0-1
  6
Continuous
 62
     2
370
     9
100
AcDbCircle
 10
-245.2119691770544
 20
855.9522863165039
 30
0.0
 40
271.6666556693413
100
AcDbArc
 50
167.813232421875
 51
172.7738342285157
  0
ARC
  5
9A
330
1F
100
AcDbEntity
  8
0-1
  6
Continuous
 62
     2
370
     9
100
AcDbCircle
 10
-245.2119691770544
 20
855.9522863165039
 30
0.0
 40
272.9182062922297
100
AcDbArc
 50
173.5303955078126
 51
180.0000000000001
  0
ARC
  5
9B
330
1F
100
AcDbEntity
  8
0-1
  6
Continuous
 62
     2
370
     9
100
AcDbCircle
 10
-245.2119691770544
 20
855.9522863165039
 30
0.0
 40
276.6666721653294
100
AcDbArc
 50
168.7995147705078
 51
180.0
  0
ARC
  5
9C
330
1F
100
AcDbEntity
  8
0-1
  6
Continuous
 62
     2
370
     9
100
AcDbCircle
 10
-245.2119691770544
 20
855.9522863165039
 30
0.0
 40
286.6666742273279
100
AcDbArc
 50
168.6667633056641
 51
180.0000000000001
  0
ARC
  5
9D
330
1F
100
AcDbEntity
  8
0-1
  6
Continuous
 62
     2
370
     9
100
AcDbCircle
 10
-245.2119691770544
 20
855.9522863165039
 30
0.0
 40
289.9999979380015
100
AcDbArc
 50
167.63525390625
 51
180.0000000000001
  0
ARC
  5
9E
330
1F
100
AcDbEntity
  8
0-1
  6
Continuous
 62
     2
370
     9
100
AcDbCircle
 10
-245.2119691770544
 20
855.9522863165039
 30
0.0
 40
271.6666556693413
100
AcDbArc
 50
94.3283233642578
 51
102.186767578125
  0
ARC
  5
9F
330
1F
100
AcDbEntity
  8
0-1
  6
Continuous
 62
     2
370
     9
100
AcDbCircle
 10
-245.2119691770544
 20
855.9522863165039
 30
0.0
 40
271.6666556693413
100
AcDbArc
 50
77.81321716308594
 51
85.67167663574219
  0
ARC
  5
A0
330
1F
100
AcDbEntity
  8
0-1
  6
Continuous
 62
     2
370
     9
100
AcDbCircle
 10
-245.2119691770544
 20
855.9522863165039
 30
0.0
 40
272.9182062922297
100
AcDbArc
 50
87.12954711914061
 51
92.87045288085938
  0
ARC
  5
A1
330
1F
100
AcDbEntity
  8
0-1
  6
Continuous
 62
     2
370
     9
100
AcDbCircle
 10
-508.1071305738028
 20
889.2856471431508
 30
0.0
 40
6.666666752583272
100
AcDbArc
 50
172.7738342285156
 51
214.6603240966797
  0
ARC
  5
A2
330
1F
100
AcDbEntity
  8
0-1
  6
Continuous
 62
     2
370
     9
100
AcDbCircle
 10
-509.7679466633299
 20
885.9523852924327
 30
0.0
 40
6.666666752583272
100
AcDbArc
 50
173.5299377441407
 51
229.9082489013672
  0
ARC
  5
A3
330
1F
100
AcDbEntity
  8
0-1
  6
Continuous
 62
     2
370
     9
100
AcDbCircle
 10
-265.2120351610073
 20
1120.196489626259
 30
0.0
 40
6.666666752583272
100
AcDbArc
 50
52.44320678710938
 51
94.3284912109375
  0
ARC
  5
A4
330
1F
100
AcDbEntity
  8
0-1
  6
Continuous
 62
     2
370
     9
100
AcDbCircle
 10
-258.5452640197487
 20
1121.869677706918
 30
0.0
 40
6.666666752583272
100
AcDbArc
 50
36.49266052246094
 51
92.87048339843751
  0
ARC
  5
A5
330
1F
100
AcDbEntity
  8
0-1
  6
Continuous
 62
     2
370
     9
100
AcDbCircle
 10
-231.8786743343601
 20
1121.869677706918
 30
0.0
 40
6.666666752583272
100
AcDbArc
 50
87.1295166015625
 51
143.5073394775391
  0
ARC
  5
A6
330
1F
100
AcDbEntity
  8
0-1
  6
Continuous
 62
     2
370
     9
100
AcDbCircle
 10
-225.2119031931018
 20
1120.196489626259
 30
0.0
 40
6.666666752583272
100
AcDbArc
 50
85.67150878906251
 51
127.5567932128906
  0
ARC
  5
A7
330
1F
100
AcDbEntity
  8
0-1
  6
Continuous
 62
     2
370
     9
100
AcDbCircle
 10
17.68319221969374
 20
889.2856471431508
 30
0.0
 40
6.666666752583272
100
AcDbArc
 50
325.3443908691406
 51
7.226165771484386
  0
ARC
  5
A8
330
1F
100
AcDbEntity
  8
0-1
  6
Continuous
 62
     2
370
     9
100
AcDbCircle
 10
19.34400830922083
 20
885.9523852924327
 30
0.0
 40
6.666666752583272
100
AcDbArc
 50
310.0920104980469
 51
6.470062255859386
  0
LINE
  5
A9
330
1F
100
AcDbEntity
  8
0-0
  6
Continuous
 62
     3
370
     9
100
AcDbLine
 10
-620.2119691770545
 20
-290.9847798390074
 30
0.0
 11
-610.2119361850781
 21
-290.9847798390074
 31
0.0
  0
LINE
  5
AA
330
1F
100
AcDbEntity
  8
0-0
  6
Continuous
 62
     3
370
     9
100
AcDbLine
 10
-530.1626791643856
 20
-297.0130325179558
 30
0.0
 11
-513.5943560805596
 21
-301.4524740957642
 31
0.0
  0
LINE
  5
AB
330
1F
100
AcDbEntity
  8
0-0
  6
Continuous
 62
     3
370
     9
100
AcDbLine
 10
-564.3670281667082
 20
-277.4952267483188
 30
0.0
 11
-554.7077198105003
 21
-280.0834472930824
 31
0.0
  0
LINE
  5
AC
330
1F
100
AcDbEntity
  8
0-0
  6
Continuous
 62
     3
370
     9
100
AcDbLine
 10
-537.3790141517167
 20
-284.7266555648308
 30
0.0
 11
-545.0486588941153
 21
-282.6716678378459
 31
0.0
  0
LINE
  5
AD
330
1F
100
AcDbEntity
  8
0-0
  6
Continuous
 62
     3
370
     9
100
AcDbLine
 10
-534.9763734739294
 20
-287.2781312959329
 30
0.0
 11
-533.767382500534
 21
-293.1858807812581
 31
0.0
  0
LINE
  5
AE
330
1F
100
AcDbEntity
  8
0-0
  6
Continuous
 62
     3
370
     9
100
AcDbLine
 10
-504.5585960773924
 20
-295.4284278938003
 30
0.0
 11
-508.5592031297573
 21
-299.9402456197295
 31
0.0
  0
LINE
  5
AF
330
1F
100
AcDbEntity
  8
0-0
  6
Continuous
 62
     3
370
     9
100
AcDbLine
 10
-493.5321827011255
 20
-296.4753457833696
 30
0.0
 11
-501.2018274435239
 21
-294.4203580563847
 31
0.0
  0
LINE
  5
B0
330
1F
100
AcDbEntity
  8
0-0
  6
Continuous
 62
     3
370
     9
100
AcDbLine
 10
-613.545198035796
 20
-264.3180664337074
 30
0.0
 11
-574.0263365229159
 21
-274.9070062035553
 31
0.0
  0
LINE
  5
B1
330
1F
100
AcDbEntity
  8
0-0
  6
Continuous
 62
     3
370
     9
100
AcDbLine
 10
-550.7796126261677
 20
-294.9397342440959
 30
0.0
 11
-581.4054869135409
 21
-286.7336399662242
 31
0.0
  0
LINE
  5
B2
330
1F
100
AcDbEntity
  8
0-0
  6
Continuous
 62
     3
370
     9
100
AcDbLine
 10
-545.1778224815307
 20
-303.9321922783018
 30
0.0
 11
-545.9735889511255
 21
-300.0425619863892
 31
0.0
  0
LINE
  5
B3
330
1F
100
AcDbEntity
  8
0-0
  6
JWW_DASHED1
 62
     3
370
     9
100
AcDbLine
 10
-509.0852601926794
 20
-316.4642769753037
 30
0.0
 11
-541.5731191453823
 21
-307.7593440149996
 31
0.0
  0
LINE
  5
B4
330
1F
100
AcDbEntity
  8
0-0
  6
JWW_DASHED1
 62
     3
370
     9
100
AcDbLine
 10
-504.0503546816997
 20
-314.9519247793579
 30
0.0
 11
-501.4166052095713
 21
-311.9817808683569
 31
0.0
  0
LINE
  5
B5
330
1F
100
AcDbEntity
  8
0-0
  6
Continuous
 62
     3
370
     9
100
AcDbLine
 10
-620.2119691770545
 20
-290.9847798390074
 30
0.0
 11
-616.8787073263366
 21
-264.3180664337074
 31
0.0
  0
LINE
  5
B6
330
1F
100
AcDbEntity
  8
0-0
  6
Continuous
 62
     3
370
     9
100
AcDbLine
 10
-461.9346122302641
 20
-397.6513860203839
 30
0.0
 11
-478.5452475237606
 21
-397.6513860203839
 31
0.0
  0
LINE
  5
B7
330
1F
100
AcDbEntity
  8
0-0
  6
Continuous
 62
     3
370
     9
100
AcDbLine
 10
-482.9066218375273
 20
-368.5763408213763
 30
0.0
 11
-478.5452475237606
 21
-397.6513860203839
 31
0.0
  0
LINE
  5
B8
330
1F
100
AcDbEntity
  8
0-0
  6
Continuous
 62
     3
370
     9
100
AcDbLine
 10
-454.0343535731693
 20
-458.1808577528586
 30
0.0
 11
-458.6114954122739
 21
-400.7200109807935
 31
0.0
  0
LINE
  5
B9
330
1F
100
AcDbEntity
  8
0-0
  6
JWW_DASHED1
 62
     3
370
     9
100
AcDbLine
 10
-469.7764750892167
 20
-323.5321480690537
 30
0.0
 11
-463.8720660414971
 21
-397.6513860203839
 31
0.0
  0
LINE
  5
BA
330
1F
100
AcDbEntity
  8
0-0
  6
JWW_DASHED1
 62
     3
370
     9
100
AcDbLine
 10
-477.1566152391323
 20
-314.6668741036821
 30
0.0
 11
-494.7030679418349
 21
-309.965270033792
 31
0.0
  0
LINE
  5
BB
330
1F
100
AcDbEntity
  8
0-0
  6
Continuous
 62
     3
370
     9
100
AcDbLine
 10
-459.487679824225
 20
-305.5973385647251
 30
0.0
 11
-483.8731217847403
 21
-299.0635663281331
 31
0.0
  0
LINE
  5
BC
330
1F
100
AcDbEntity
  8
0-0
  6
JWW_DASHED1
 62
     3
370
     9
100
AcDbLine
 10
-450.9161169283213
 20
-329.4172568106079
 30
0.0
 11
-452.107292234487
 21
-314.4626125300966
 31
0.0
  0
LINE
  5
BD
330
1F
100
AcDbEntity
  8
0-0
  6
JWW_DASHED1
 62
     3
370
     9
100
AcDbLine
 10
-423.9709100026458
 20
-340.5676375380149
 30
0.0
 11
-442.0503480833044
 21
-338.5621377755571
 31
0.0
  0
LINE
  5
BE
330
1F
100
AcDbEntity
  8
0-0
  6
Continuous
 62
     3
370
     9
100
AcDbLine
 10
-436.8786083504075
 20
-357.6513777723899
 30
0.0
 11
-436.8786083504075
 21
-394.3180004497548
 31
0.0
  0
LINE
  5
BF
330
1F
100
AcDbEntity
  8
0-0
  6
JWW_DASHED1
 62
     3
370
     9
100
AcDbLine
 10
-419.5902353827132
 20
-344.7152238450251
 30
0.0
 11
-417.4340447682708
 21
-357.6513777723899
 31
0.0
  0
LINE
  5
C0
330
1F
100
AcDbEntity
  8
0-0
  6
Continuous
 62
     3
370
     9
100
AcDbLine
 10
-436.8786083504075
 20
-357.6513777723899
 30
0.0
 11
-53.54533000370129
 21
-357.6513777723899
 31
0.0
  0
LINE
  5
C1
330
1F
100
AcDbEntity
  8
0-0
  6
Continuous
 62
     3
370
     9
100
AcDbLine
 10
-408.1703926884564
 20
-312.2248904940959
 30
0.0
 11
-402.3087907300528
 21
-357.6513777723899
 31
0.0
  0
LINE
  5
C2
330
1F
100
AcDbEntity
  8
0-0
  6
Continuous
 62
     3
370
     9
100
AcDbLine
 10
-433.595329343862
 20
-464.3181076736779
 30
0.0
 11
-429.2200984000273
 21
-394.3180004497548
 31
0.0
  0
LINE
  5
C3
330
1F
100
AcDbEntity
  8
0-0
  6
Continuous
 62
     3
370
     9
100
AcDbLine
 10
-53.54533000370129
 20
-394.3180004497548
 30
0.0
 11
-436.8786083504075
 21
-394.3180004497548
 31
0.0
  0
LINE
  5
C4
330
1F
100
AcDbEntity
  8
0-0
  6
Continuous
 62
     3
370
     9
100
AcDbLine
 10
-447.3886148168349
 20
-464.3181076736779
 30
0.0
 11
-43.03532353727395
 21
-464.3181076736779
 31
0.0
  0
LINE
  5
C5
330
1F
100
AcDbEntity
  8
0-0
  6
Continuous
 62
     3
370
     9
100
AcDbLine
 10
129.7880308229456
 20
-290.9847798390074
 30
0.0
 11
119.7879978309693
 21
-290.9847798390074
 31
0.0
  0
LINE
  5
C6
330
1F
100
AcDbEntity
  8
0-0
  6
Continuous
 62
     3
370
     9
100
AcDbLine
 10
73.94308981259923
 20
-277.4952267483188
 30
0.0
 11
64.28378145639141
 21
-280.0834472930824
 31
0.0
  0
LINE
  5
C7
330
1F
100
AcDbEntity
  8
0-0
  6
Continuous
 62
     3
370
     9
100
AcDbLine
 10
123.121259681687
 20
-264.3180664337074
 30
0.0
 11
83.60239816880704
 21
-274.9070062035553
 31
0.0
  0
LINE
  5
C8
330
1F
100
AcDbEntity
  8
0-0
  6
Continuous
 62
     3
370
     9
100
AcDbLine
 10
60.35567427205859
 20
-294.9397342440959
 30
0.0
 11
90.98154855943204
 21
-286.7336399662242
 31
0.0
  0
LINE
  5
C9
330
1F
100
AcDbEntity
  8
0-0
  6
Continuous
 62
     3
370
     9
100
AcDbLine
 10
54.75388412742188
 20
-303.9321922783018
 30
0.0
 11
55.5496505970164
 21
-300.0425619863892
 31
0.0
  0
LINE
  5
CA
330
1F
100
AcDbEntity
  8
0-0
  6
Continuous
 62
     3
370
     9
100
AcDbLine
 10
18.66132183857058
 20
-316.4642769753037
 30
0.0
 11
51.14918079127317
 21
-307.7593440149996
 31
0.0
  0
LINE
  5
CB
330
1F
100
AcDbEntity
  8
0-0
  6
Continuous
 62
     3
370
     9
100
AcDbLine
 10
13.6264163275909
 20
-314.9519247793579
 30
0.0
 11
10.99266685546251
 21
-311.9817808683569
 31
0.0
  0
LINE
  5
CC
330
1F
100
AcDbEntity
  8
0-0
  6
Continuous
 62
     3
370
     9
100
AcDbLine
 10
129.7880308229456
 20
-290.9847798390074
 30
0.0
 11
126.4547689722276
 21
-264.3180664337074
 31
0.0
  0
LINE
  5
CD
330
1F
100
AcDbEntity
  8
0-0
  6
JWW_PHANTOM1
 62
     3
370
     9
100
AcDbLine
 10
-7.517316516581509
 20
-368.5763408213763
 30
0.0
 11
-11.87869083034844
 21
-397.6513860203839
 31
0.0
  0
LINE
  5
CE
330
1F
100
AcDbEntity
  8
0-0
  6
Continuous
 62
     3
370
     9
100
AcDbLine
 10
-36.38958478093958
 20
-458.1808577528586
 30
0.0
 11
-31.8124429418349
 21
-400.7200109807935
 31
0.0
  0
LINE
  5
CF
330
1F
100
AcDbEntity
  8
0-0
  6
JWW_PHANTOM1
 62
     3
370
     9
100
AcDbLine
 10
42.08743960672944
 20
-360.0515440519506
 30
0.0
 11
49.21568601720235
 21
-311.9843789864946
 31
0.0
  0
LINE
  5
D0
330
1F
100
AcDbEntity
  8
0-0
  6
Continuous
 62
     3
370
     9
100
AcDbLine
 10
-20.64746326489217
 20
-323.5321480690537
 30
0.0
 11
-26.55187231261198
 21
-397.6513860203839
 31
0.0
  0
LINE
  5
D1
330
1F
100
AcDbEntity
  8
0-0
  6
Continuous
 62
     3
370
     9
100
AcDbLine
 10
-13.26732311497683
 20
-314.6668741036821
 30
0.0
 11
4.279129587726054
 21
-309.965270033792
 31
0.0
  0
LINE
  5
D2
330
1F
100
AcDbEntity
  8
0-0
  6
Continuous
 62
     3
370
     9
100
AcDbLine
 10
-53.54533000370129
 20
-357.6513777723899
 30
0.0
 11
-53.54533000370129
 21
-394.3180004497548
 31
0.0
  0
LINE
  5
D3
330
1F
100
AcDbEntity
  8
0-0
  6
Continuous
 62
     3
370
     9
100
AcDbLine
 10
-56.82860901024714
 20
-464.3181076736779
 30
0.0
 11
-61.20383995408151
 21
-394.3180004497548
 31
0.0
  0
LINE
  5
D4
330
1F
100
AcDbEntity
  8
0-0
  6
JWW_PHANTOM1
 62
     3
370
     9
100
AcDbLine
 10
37.14161243189817
 20
-364.3181489136482
 30
0.0
 11
-2.572726540863535
 21
-364.3181489136482
 31
0.0
  0
LINE
  5
D5
330
1F
100
AcDbEntity
  8
0-0
  6
Continuous
 62
     3
370
     9
100
AcDbLine
 10
-28.48932612384505
 20
-397.6513860203839
 30
0.0
 11
-26.55187231261198
 21
-397.6513860203839
 31
0.0
  0
LINE
  5
D6
330
1F
100
AcDbEntity
  8
0-0
  6
JWW_PHANTOM1
 62
     3
370
     9
100
AcDbLine
 10
-26.55187231261198
 20
-397.6513860203839
 30
0.0
 11
-11.87869083034844
 21
-397.6513860203839
 31
0.0
  0
LINE
  5
D7
330
1F
100
AcDbEntity
  8
0-0
  6
Continuous
 62
     3
370
     9
100
AcDbLine
 10
46.95482835778517
 20
-284.7266555648308
 30
0.0
 11
54.62472054000624
 21
-282.6716678378459
 31
0.0
  0
LINE
  5
D8
330
1F
100
AcDbEntity
  8
0-0
  6
Continuous
 62
     3
370
     9
100
AcDbLine
 10
44.55243511982058
 20
-287.2782550158444
 30
0.0
 11
43.34344414642526
 21
-293.1858807812581
 31
0.0
  0
LINE
  5
D9
330
1F
100
AcDbEntity
  8
0-0
  6
Continuous
 62
     3
370
     9
100
AcDbLine
 10
39.73874081027656
 20
-297.0130325179558
 30
0.0
 11
23.17066516627317
 21
-301.4524740957642
 31
0.0
  0
LINE
  5
DA
330
1F
100
AcDbEntity
  8
0-0
  6
Continuous
 62
     3
370
     9
100
AcDbLine
 10
14.13465772328333
 20
-295.4284278938003
 30
0.0
 11
18.13526477564817
 21
-299.9402456197295
 31
0.0
  0
LINE
  5
DB
330
1F
100
AcDbEntity
  8
0-0
  6
Continuous
 62
     3
370
     9
100
AcDbLine
 10
3.108244347016402
 20
-296.4753457833696
 30
0.0
 11
10.7778890894151
 21
-294.4203580563847
 31
0.0
  0
LINE
  5
DC
330
1F
100
AcDbEntity
  8
0-0
  6
Continuous
 62
     3
370
     9
100
AcDbLine
 10
-30.93625852988385
 20
-305.5973385647251
 30
0.0
 11
-6.550816569368756
 21
-299.0635663281331
 31
0.0
  0
LINE
  5
DD
330
1F
100
AcDbEntity
  8
0-0
  6
Continuous
 62
     3
370
     9
100
AcDbLine
 10
-39.50782142578749
 20
-329.4171330906964
 30
0.0
 11
-38.31664611962214
 21
-314.4626125300966
 31
0.0
  0
LINE
  5
DE
330
1F
100
AcDbEntity
  8
0-0
  6
Continuous
 62
     3
370
     9
100
AcDbLine
 10
-70.83370297139555
 20
-344.7152238450251
 30
0.0
 11
-72.98989358583827
 21
-357.6513777723899
 31
0.0
  0
LINE
  5
DF
330
1F
100
AcDbEntity
  8
0-0
  6
Continuous
 62
     3
370
     9
100
AcDbLine
 10
-66.45302835146327
 20
-340.5676375380149
 30
0.0
 11
-48.37359027080442
 21
-338.5621377755571
 31
0.0
  0
LINE
  5
E0
330
1F
100
AcDbEntity
  8
0-0
  6
Continuous
 62
     3
370
     9
100
AcDbLine
 10
-428.3366145133085
 20
-459.0592691232133
 30
0.0
 11
-424.290107373845
 21
-394.3180004497548
 31
0.0
  0
LINE
  5
E1
330
1F
100
AcDbEntity
  8
0-0
  6
Continuous
 62
     3
370
     9
100
AcDbLine
 10
-433.595329343862
 20
-464.3181076736779
 30
0.0
 11
-428.3366145133085
 21
-459.0592691232133
 31
0.0
  0
LINE
  5
E2
330
1F
100
AcDbEntity
  8
0-0
  6
Continuous
 62
     3
370
     9
100
AcDbLine
 10
-56.82860901024714
 20
-464.3181076736779
 30
0.0
 11
-62.08720012088879
 21
-459.0592691232133
 31
0.0
  0
LINE
  5
E3
330
1F
100
AcDbEntity
  8
0-0
  6
Continuous
 62
     3
370
     9
100
AcDbLine
 10
-428.3366145133085
 20
-459.0592691232133
 30
0.0
 11
-62.08720012088879
 21
-459.0592691232133
 31
0.0
  0
LINE
  5
E4
330
1F
100
AcDbEntity
  8
0-0
  6
Continuous
 62
     3
370
     9
100
AcDbLine
 10
-62.08720012088879
 20
-459.0592691232133
 30
0.0
 11
-66.13383098026378
 21
-394.3180004497548
 31
0.0
  0
LINE
  5
E5
330
1F
100
AcDbEntity
  8
0-F
  6
Continuous
 62
     7
370
     9
100
AcDbLine
 10
-428.5077191506609
 20
-564.3180664337075
 30
0.0
 11
-61.91572432380287
 21
-564.3180664337075
 31
0.0
  0
LINE
  5
E6
330
1F
100
AcDbEntity
  8
0-F
  6
Continuous
 62
     7
370
     9
100
AcDbLine
 10
-428.5077191506609
 20
-474.3181406656543
 30
0.0
 11
-428.5077191506609
 21
-567.3182742831584
 31
0.0
  0
LINE
  5
E7
330
1F
100
AcDbEntity
  8
0-F
  6
Continuous
 62
     7
370
     9
100
AcDbLine
 10
-61.91572432380287
 20
-474.3181406656543
 30
0.0
 11
-61.91572432380287
 21
-567.3182742831584
 31
0.0
  0
LINE
  5
E8
330
1F
100
AcDbEntity
  8
0-F
  6
Continuous
 62
     7
370
     9
100
AcDbLine
 10
-428.5077191506609
 20
-564.3180664337075
 30
0.0
 11
-403.7214246774768
 21
-561.0550774926179
 31
0.0
  0
LINE
  5
E9
330
1F
100
AcDbEntity
  8
0-F
  6
Continuous
 62
     7
370
     9
100
AcDbLine
 10
-428.5077191506609
 20
-564.3180664337075
 30
0.0
 11
-403.7214246774768
 21
-567.581055374797
 31
0.0
  0
LINE
  5
EA
330
1F
100
AcDbEntity
  8
0-F
  6
Continuous
 62
     7
370
     9
100
AcDbLine
 10
-61.91572432380287
 20
-564.3180664337075
 30
0.0
 11
-86.70177135716432
 21
-561.0550774926179
 31
0.0
  0
LINE
  5
EB
330
1F
100
AcDbEntity
  8
0-F
  6
Continuous
 62
     7
370
     9
100
AcDbLine
 10
-61.91572432380287
 20
-564.3180664337075
 30
0.0
 11
-86.70177135716432
 21
-567.581055374797
 31
0.0
  0
LINE
  5
EC
330
1F
100
AcDbEntity
  8
0-F
  6
Continuous
 62
     7
370
     9
100
AcDbLine
 10
229.7881133028865
 20
-464.3181076736779
 30
0.0
 11
229.7881133028865
 21
-264.3180664337074
 31
0.0
  0
LINE
  5
ED
330
1F
100
AcDbEntity
  8
0-F
  6
Continuous
 62
     7
370
     9
100
AcDbLine
 10
229.7881133028865
 20
-464.3181076736779
 30
0.0
 11
226.5248769219742
 21
-439.531936920405
 31
0.0
  0
LINE
  5
EE
330
1F
100
AcDbEntity
  8
0-F
  6
Continuous
 62
     7
370
     9
100
AcDbLine
 10
229.7881133028865
 20
-464.3181076736779
 30
0.0
 11
233.0513496837987
 21
-439.531936920405
 31
0.0
  0
LINE
  5
EF
330
1F
100
AcDbEntity
  8
0-F
  6
Continuous
 62
     7
370
     9
100
AcDbLine
 10
229.7881133028865
 20
-264.3180664337074
 30
0.0
 11
226.5248769219742
 21
-289.1043609068914
 31
0.0
  0
LINE
  5
F0
330
1F
100
AcDbEntity
  8
0-F
  6
Continuous
 62
     7
370
     9
100
AcDbLine
 10
229.7881133028865
 20
-264.3180664337074
 30
0.0
 11
233.0513496837987
 21
-289.1043609068914
 31
0.0
  0
LINE
  5
F1
330
1F
100
AcDbEntity
  8
0-0
  6
JWW_DASHED1
 62
     3
370
     9
100
AcDbLine
 10
-487.8512118132453
 20
-364.3181489136482
 30
0.0
 11
-471.1448173083891
 21
-364.3181489136482
 31
0.0
  0
LINE
  5
F2
330
1F
100
AcDbEntity
  8
0-0
  6
Continuous
 62
     3
370
     9
100
AcDbLine
 10
-532.5113779608382
 20
-360.0515440519506
 30
0.0
 11
-539.6396243713111
 21
-311.9843789864946
 31
0.0
  0
LINE
  5
F3
330
1F
100
AcDbEntity
  8
0-1
  6
Continuous
 62
     2
370
     9
100
AcDbLine
 10
-586.8786083504075
 20
-271.4633861919423
 30
0.0
 11
-585.2119774250485
 21
-264.7967387705951
 31
0.0
  0
LINE
  5
F4
330
1F
100
AcDbEntity
  8
0-1
  6
Continuous
 62
     2
370
     9
100
AcDbLine
 10
-566.6820751472825
 20
-264.7967387705951
 30
0.0
 11
-585.2119774250485
 21
-264.7967387705951
 31
0.0
  0
LINE
  5
F5
330
1F
100
AcDbEntity
  8
0-1
  6
Continuous
 62
     2
370
     9
100
AcDbLine
 10
-521.8783939025611
 20
-251.463567647812
 30
0.0
 11
-531.8786743343601
 21
-251.463567647812
 31
0.0
  0
LINE
  5
F6
330
1F
100
AcDbEntity
  8
0-1
  6
Continuous
 62
     2
370
     9
100
AcDbLine
 10
-533.5220459163913
 20
-262.19429043603
 30
0.0
 11
-531.8786743343601
 21
-251.463567647812
 31
0.0
  0
LINE
  5
F7
330
1F
100
AcDbEntity
  8
0-1
  6
Continuous
 62
     2
370
     9
100
AcDbLine
 10
-521.8783939025611
 20
-251.463567647812
 30
0.0
 11
-517.6516268523078
 21
-274.0164702818914
 31
0.0
  0
LINE
  5
F8
330
1F
100
AcDbEntity
  8
0-1
  6
Continuous
 62
     2
370
     9
100
AcDbLine
 10
96.45466999629872
 20
-271.4633861919423
 30
0.0
 11
94.7879153510284
 21
-264.7967387705951
 31
0.0
  0
LINE
  5
F9
330
1F
100
AcDbEntity
  8
0-1
  6
Continuous
 62
     2
370
     9
100
AcDbLine
 10
76.25813679317372
 20
-264.7967387705951
 30
0.0
 11
94.7879153510284
 21
-264.7967387705951
 31
0.0
  0
LINE
  5
FA
330
1F
100
AcDbEntity
  8
0-1
  6
Continuous
 62
     2
370
     9
100
AcDbLine
 10
-448.5453959876542
 20
-289.796821250536
 30
0.0
 11
-445.212010417025
 21
-306.4635016638595
 31
0.0
  0
LINE
  5
FB
330
1F
100
AcDbEntity
  8
0-1
  6
Continuous
 62
     2
370
     9
100
AcDbLine
 10
-408.5452640197486
 20
-289.796821250536
 30
0.0
 11
-411.8787733102893
 21
-306.4635016638595
 31
0.0
  0
LINE
  5
FC
330
1F
100
AcDbEntity
  8
0-1
  6
Continuous
 62
     2
370
     9
100
AcDbLine
 10
-473.3801886660747
 20
-289.796821250536
 30
0.0
 11
-512.8244470724302
 21
-279.2278003864102
 31
0.0
  0
LINE
  5
FD
330
1F
100
AcDbEntity
  8
0-1
  6
Continuous
 62
     2
370
     9
100
AcDbLine
 10
-545.9949924957833
 20
-270.3400093971787
 30
0.0
 11
-566.6820751472825
 21
-264.7967387705951
 31
0.0
  0
LINE
  5
FE
330
1F
100
AcDbEntity
  8
0-1
  6
JWW_DASHED1
 62
     2
370
     9
100
AcDbLine
 10
-512.8244470724302
 20
-279.2278003864102
 30
0.0
 11
-545.9949924957833
 21
-270.3400093971787
 31
0.0
  0
LINE
  5
FF
330
1F
100
AcDbEntity
  8
0-1
  6
Continuous
 62
     2
370
     9
100
AcDbLine
 10
55.57117786158567
 20
-270.339761957356
 30
0.0
 11
76.25813679317372
 21
-264.7967387705951
 31
0.0
  0
LINE
  5
100
330
1F
100
AcDbEntity
  8
0-1
  6
Continuous
 62
     2
370
     9
100
AcDbLine
 10
31.45470298827501
 20
-251.463567647812
 30
0.0
 11
41.45473598025131
 21
-251.463567647812
 31
0.0
  0
LINE
  5
101
330
1F
100
AcDbEntity
  8
0-1
  6
Continuous
 62
     4
370
     9
100
AcDbLine
 10
-415.2120351610073
 20
-327.0632380579683
 30
0.0
 11
-441.8786248463958
 21
-327.0632380579683
 31
0.0
  0
LINE
  5
102
330
1F
100
AcDbEntity
  8
0-1
  6
Continuous
 62
     4
370
     9
100
AcDbLine
 10
-441.8786248463958
 20
-327.0632380579683
 30
0.0
 11
-439.6237057427215
 21
-329.318033441731
 31
0.0
  0
LINE
  5
103
330
1F
100
AcDbEntity
  8
0-1
  6
Continuous
 62
     4
370
     9
100
AcDbLine
 10
-439.6237057427215
 20
-329.318033441731
 30
0.0
 11
-417.4669542646812
 21
-329.318033441731
 31
0.0
  0
LINE
  5
104
330
1F
100
AcDbEntity
  8
0-1
  6
Continuous
 62
     4
370
     9
100
AcDbLine
 10
-417.4669542646812
 20
-329.318033441731
 30
0.0
 11
-415.2120351610073
 21
-327.0632380579683
 31
0.0
  0
LINE
  5
105
330
1F
100
AcDbEntity
  8
0-1
  6
Continuous
 62
     4
370
     9
100
AcDbLine
 10
-453.5454124836424
 20
-270.5358580167944
 30
0.0
 11
-453.5454124836424
 21
-289.796821250536
 31
0.0
  0
LINE
  5
106
330
1F
100
AcDbEntity
  8
0-1
  6
Continuous
 62
     4
370
     9
100
AcDbLine
 10
-403.5452475237606
 20
-270.5358580167944
 30
0.0
 11
-403.5452475237606
 21
-289.796821250536
 31
0.0
  0
LINE
  5
107
330
1F
100
AcDbEntity
  8
0-1
  6
Continuous
 62
     4
370
     9
100
AcDbLine
 10
-453.5454124836424
 20
-289.796821250536
 30
0.0
 11
-403.5452475237606
 21
-289.796821250536
 31
0.0
  0
LINE
  5
108
330
1F
100
AcDbEntity
  8
0-1
  6
Continuous
 62
     4
370
     9
100
AcDbLine
 10
-441.0360922503231
 20
-270.5358580167944
 30
0.0
 11
-441.0360922503231
 21
-289.796821250536
 31
0.0
  0
LINE
  5
109
330
1F
100
AcDbEntity
  8
0-1
  6
Continuous
 62
     4
370
     9
100
AcDbLine
 10
-416.0545677570799
 20
-270.5358580167944
 30
0.0
 11
-416.0545677570799
 21
-289.796821250536
 31
0.0
  0
LINE
  5
10A
330
1F
100
AcDbEntity
  8
0-1
  6
Continuous
 62
     4
370
     9
100
AcDbLine
 10
-447.2906286470713
 20
-268.1301243412242
 30
0.0
 11
-409.8000313603314
 21
-268.1301243412242
 31
0.0
  0
LINE
  5
10B
330
1F
100
AcDbEntity
  8
0-1
  6
Continuous
 62
     4
370
     9
100
AcDbLine
 10
-439.6237057427215
 20
-289.796821250536
 30
0.0
 11
-439.6237057427215
 21
-329.318033441731
 31
0.0
  0
LINE
  5
10C
330
1F
100
AcDbEntity
  8
0-1
  6
Continuous
 62
     4
370
     9
100
AcDbLine
 10
-441.8786248463958
 20
-289.796821250536
 30
0.0
 11
-441.8786248463958
 21
-327.0632380579683
 31
0.0
  0
LINE
  5
10D
330
1F
100
AcDbEntity
  8
0-1
  6
Continuous
 62
     4
370
     9
100
AcDbLine
 10
-417.4669542646812
 20
-289.796821250536
 30
0.0
 11
-417.4669542646812
 21
-329.318033441731
 31
0.0
  0
LINE
  5
10E
330
1F
100
AcDbEntity
  8
0-1
  6
Continuous
 62
     4
370
     9
100
AcDbLine
 10
-415.2120351610073
 20
-289.796821250536
 30
0.0
 11
-415.2120351610073
 21
-327.0632380579683
 31
0.0
  0
LINE
  5
10F
330
1F
100
AcDbEntity
  8
0-1
  6
Continuous
 62
     4
370
     9
100
AcDbLine
 10
-415.2120351610073
 20
-198.2400041184626
 30
0.0
 11
-441.8786248463958
 21
-198.2400041184626
 31
0.0
  0
LINE
  5
110
330
1F
100
AcDbEntity
  8
0-1
  6
Continuous
 62
     4
370
     9
100
AcDbLine
 10
-441.8786248463958
 20
-198.2400041184626
 30
0.0
 11
-439.6237057427215
 21
-195.984837574966
 31
0.0
  0
LINE
  5
111
330
1F
100
AcDbEntity
  8
0-1
  6
Continuous
 62
     4
370
     9
100
AcDbLine
 10
-439.6237057427215
 20
-195.984837574966
 30
0.0
 11
-417.4669542646812
 21
-195.984837574966
 31
0.0
  0
LINE
  5
112
330
1F
100
AcDbEntity
  8
0-1
  6
Continuous
 62
     4
370
     9
100
AcDbLine
 10
-417.4669542646812
 20
-195.984837574966
 30
0.0
 11
-415.2120351610073
 21
-198.2400041184626
 31
0.0
  0
LINE
  5
113
330
1F
100
AcDbEntity
  8
0-1
  6
Continuous
 62
     4
370
     9
100
AcDbLine
 10
-439.6237057427215
 20
-268.1301243412242
 30
0.0
 11
-439.6237057427215
 21
-195.984837574966
 31
0.0
  0
LINE
  5
114
330
1F
100
AcDbEntity
  8
0-1
  6
Continuous
 62
     4
370
     9
100
AcDbLine
 10
-441.8786248463958
 20
-268.1301243412242
 30
0.0
 11
-441.8786248463958
 21
-198.2400041184626
 31
0.0
  0
LINE
  5
115
330
1F
100
AcDbEntity
  8
0-1
  6
Continuous
 62
     4
370
     9
100
AcDbLine
 10
-417.4669542646812
 20
-268.1301243412242
 30
0.0
 11
-417.4669542646812
 21
-195.984837574966
 31
0.0
  0
LINE
  5
116
330
1F
100
AcDbEntity
  8
0-1
  6
Continuous
 62
     4
370
     9
100
AcDbLine
 10
-415.2120351610073
 20
-268.1301243412242
 30
0.0
 11
-415.2120351610073
 21
-198.2400041184626
 31
0.0
  0
LINE
  5
117
330
1F
100
AcDbEntity
  8
0-1
  6
Continuous
 62
     2
370
     9
100
AcDbLine
 10
-441.8786248463958
 20
-306.4635016638595
 30
0.0
 11
-456.2557445808762
 21
-306.4635016638595
 31
0.0
  0
LINE
  5
118
330
1F
100
AcDbEntity
  8
0-1
  6
Continuous
 62
     2
370
     9
100
AcDbLine
 10
28.12119369773438
 20
-291.4985886307092
 30
0.0
 11
34.7879648389927
 21
-289.7121968311949
 31
0.0
  0
LINE
  5
119
330
1F
100
AcDbEntity
  8
0-1
  6
Continuous
 62
     2
370
     9
100
AcDbLine
 10
28.12119369773438
 20
-291.4985886307092
 30
0.0
 11
24.7879318470164
 21
-290.6664485071871
 31
0.0
  0
LINE
  5
11A
330
1F
100
AcDbEntity
  8
0-1
  6
Continuous
 62
     2
370
     9
100
AcDbLine
 10
-34.16831749314401
 20
-306.4635016638595
 30
0.0
 11
24.7879318470164
 21
-290.6664485071871
 31
0.0
  0
LINE
  5
11B
330
1F
100
AcDbEntity
  8
0-1
  6
Continuous
 62
     2
370
     9
100
AcDbLine
 10
34.7879648389927
 20
-289.7121968311949
 30
0.0
 11
38.12147412953333
 21
-287.0935411882472
 31
0.0
  0
LINE
  5
11C
330
1F
100
AcDbEntity
  8
0-1
  6
Continuous
 62
     2
370
     9
100
AcDbLine
 10
38.12147412953333
 20
-287.0935411882472
 30
0.0
 11
96.45466999629872
 21
-271.4633861919423
 31
0.0
  0
LINE
  5
11D
330
1F
100
AcDbEntity
  8
0-1
  6
Continuous
 62
     2
370
     9
100
AcDbLine
 10
-518.5451320518432
 20
-291.4985886307092
 30
0.0
 11
-525.2119031931018
 21
-289.7121968311949
 31
0.0
  0
LINE
  5
11E
330
1F
100
AcDbEntity
  8
0-1
  6
Continuous
 62
     2
370
     9
100
AcDbLine
 10
-525.2119031931018
 20
-289.7121968311949
 30
0.0
 11
-528.5454124836424
 21
-287.0936649081584
 31
0.0
  0
LINE
  5
11F
330
1F
100
AcDbEntity
  8
0-1
  6
Continuous
 62
     2
370
     9
100
AcDbLine
 10
-528.5454124836424
 20
-287.0936649081584
 30
0.0
 11
-586.8786083504075
 21
-271.4633861919423
 31
0.0
  0
LINE
  5
120
330
1F
100
AcDbEntity
  8
0-1
  6
Continuous
 62
     2
370
     9
100
AcDbLine
 10
-518.5451320518432
 20
-291.4985886307092
 30
0.0
 11
-515.2118702011255
 21
-290.6664485071871
 31
0.0
  0
LINE
  5
121
330
1F
100
AcDbEntity
  8
0-1
  6
Continuous
 62
     2
370
     9
100
AcDbLine
 10
-456.2557445808762
 20
-306.4635016638595
 30
0.0
 11
-515.2118702011255
 21
-290.6664485071871
 31
0.0
  0
LINE
  5
122
330
1F
100
AcDbEntity
  8
0-1
  6
Continuous
 62
     2
370
     9
100
AcDbLine
 10
-415.2120351610073
 20
-306.4635016638595
 30
0.0
 11
-34.16831749314401
 21
-306.4635016638595
 31
0.0
  0
LINE
  5
123
330
1F
100
AcDbEntity
  8
0-1
  6
Continuous
 62
     2
370
     9
100
AcDbLine
 10
43.09823128219374
 20
-262.19429043603
 30
0.0
 11
41.45473598025131
 21
-251.463567647812
 31
0.0
  0
LINE
  5
124
330
1F
100
AcDbEntity
  8
0-1
  6
Continuous
 62
     2
370
     9
100
AcDbLine
 10
28.4708261671177
 20
-267.3845881556246
 30
0.0
 11
31.45470298827501
 21
-251.463567647812
 31
0.0
  0
LINE
  5
125
330
1F
100
AcDbEntity
  8
0-1
  6
JWW_DASHED1
 62
     2
370
     9
100
AcDbLine
 10
28.4708261671177
 20
-267.3845881556246
 30
0.0
 11
27.22768849819897
 21
-274.0164702818914
 31
0.0
  0
LINE
  5
126
330
1F
100
AcDbEntity
  8
0-1
  6
Continuous
 62
     2
370
     9
100
AcDbLine
 10
-17.80264762405626
 20
-286.0247248743746
 30
0.0
 11
-15.94561175517942
 21
-275.5877131556246
 31
0.0
  0
LINE
  5
127
330
1F
100
AcDbEntity
  8
0-1
  6
Continuous
 62
     2
370
     9
100
AcDbLine
 10
-22.64083847604088
 20
-291.2965540155274
 30
0.0
 11
-35.70417647224037
 21
-294.796837746524
 31
0.0
  0
LINE
  5
128
330
1F
100
AcDbEntity
  8
0-1
  6
JWW_DASHED1
 62
     2
370
     9
100
AcDbLine
 10
-22.64083847604088
 20
-291.2965540155274
 30
0.0
 11
55.57117786158567
 21
-270.339761957356
 31
0.0
  0
LINE
  5
129
330
1F
100
AcDbEntity
  8
0-1
  6
JWW_CENTER1
 62
     4
370
     9
100
AcDbLine
 10
-428.5453300037016
 20
-185.9846808630782
 30
0.0
 11
-428.5453300037016
 21
-339.3180664337074
 31
0.0
  0
LINE
  5
12A
330
1F
100
AcDbEntity
  8
0-1
  6
Continuous
 62
     2
370
     9
100
AcDbLine
 10
-387.7413897719658
 20
-293.8163574493324
 30
0.0
 11
-385.2119361850781
 21
-306.4635016638595
 31
0.0
  0
LINE
  5
12B
330
1F
100
AcDbEntity
  8
0-1
  6
Continuous
 62
     2
370
     9
100
AcDbLine
 10
-392.6442861375698
 20
-289.796821250536
 30
0.0
 11
-473.3801886660747
 21
-289.796821250536
 31
0.0
  0
LINE
  5
12C
330
1F
100
AcDbEntity
  8
0-1
  6
Continuous
 62
     2
370
     9
100
AcDbLine
 10
-62.5692128953823
 20
-297.2144485335808
 30
0.0
 11
-65.21187020112552
 21
-306.4635016638595
 31
0.0
  0
LINE
  5
12D
330
1F
100
AcDbEntity
  8
0-1
  6
Continuous
 62
     2
370
     9
100
AcDbLine
 10
-387.5452937125273
 20
-294.796837746524
 30
0.0
 11
-35.70417647224037
 21
-294.796837746524
 31
0.0
  0
LINE
  5
12E
330
1F
100
AcDbEntity
  8
0-0
  6
Continuous
 62
     3
370
     9
100
AcDbLine
 10
-616.8787073263366
 20
-264.3180664337074
 30
0.0
 11
-534.0917761080088
 21
-264.3180664337074
 31
0.0
  0
LINE
  5
12F
330
1F
100
AcDbEntity
  8
0-0
  6
Continuous
 62
     3
370
     9
100
AcDbLine
 10
43.66808519372267
 20
-264.3180664337074
 30
0.0
 11
126.4547689722276
 21
-264.3180664337074
 31
0.0
  0
LINE
  5
130
330
1F
100
AcDbEntity
  8
0-0
  6
Continuous
 62
     3
370
     9
100
AcDbLine
 10
-411.476188718862
 20
-309.3180911776897
 30
0.0
 11
-415.2120351610073
 21
-309.3180911776897
 31
0.0
  0
LINE
  5
131
330
1F
100
AcDbEntity
  8
0-0
  6
Continuous
 62
     3
370
     9
100
AcDbLine
 10
-441.8786248463958
 20
-309.3180911776897
 30
0.0
 11
-454.0301470961846
 21
-309.3180911776897
 31
0.0
  0
LINE
  5
132
330
1F
100
AcDbEntity
  8
0-1
  6
Continuous
 62
     2
370
     9
100
AcDbLine
 10
23.55642384976147
 20
-271.4633861919423
 30
0.0
 11
18.12140814558074
 21
-271.4633861919423
 31
0.0
  0
LINE
  5
133
330
1F
100
AcDbEntity
  8
0-E
  6
Continuous
 62
     7
370
     9
100
AcDbLine
 10
-620.2119691770545
 20
-290.9847798390074
 30
0.0
 11
-629.7791061993307
 21
-314.0818026430612
 31
0.0
  0
LINE
  5
134
330
1F
100
AcDbEntity
  8
0-E
  6
Continuous
 62
     7
370
     9
100
AcDbLine
 10
-620.2119691770545
 20
-290.9847798390074
 30
0.0
 11
-635.4310029080511
 21
-310.818566262149
 31
0.0
  0
LINE
  5
135
330
1F
100
AcDbEntity
  8
0-E
  6
Continuous
 62
     7
370
     9
100
AcDbLine
 10
-620.2119691770545
 20
-290.9847798390074
 30
0.0
 11
-689.4940060356905
 21
-410.9848045829895
 31
0.0
  0
LINE
  5
136
330
1F
100
AcDbEntity
  8
0-E
  6
Continuous
 62
     7
370
     9
100
AcDbLine
 10
-991.3940964337057
 20
-410.9848045829895
 30
0.0
 11
-689.4940060356905
 21
-410.9848045829895
 31
0.0
  0
LINE
  5
137
330
1F
100
AcDbEntity
  8
0-5
  6
Continuous
 62
     2
370
     9
100
AcDbLine
 10
-561.569349812084
 20
-620.5308267404008
 30
0.0
 11
-563.0089547001752
 21
-614.7721597482133
 31
0.0
  0
LINE
  5
138
330
1F
100
AcDbEntity
  8
0-5
  6
Continuous
 62
     2
370
     9
100
AcDbLine
 10
-551.1589378742674
 20
-607.1974081777953
 30
0.0
 11
-552.5985427623585
 21
-601.4387411856078
 31
0.0
  0
LINE
  5
139
330
1F
100
AcDbEntity
  8
0-5
  6
Continuous
 62
     2
370
     9
100
AcDbLine
 10
-27.82544507971483
 20
-620.5308267404008
 30
0.0
 11
-30.21224960885338
 21
-610.9847221030486
 31
0.0
  0
LINE
  5
13A
330
1F
100
AcDbEntity
  8
0-5
  6
Continuous
 62
     2
370
     9
100
AcDbLine
 10
127.4014737336297
 20
-607.1974081777953
 30
0.0
 11
129.7880308229456
 21
-597.651303540443
 31
0.0
  0
LINE
  5
13B
330
1F
100
AcDbEntity
  8
0-5
  6
Continuous
 62
     2
370
     9
100
AcDbLine
 10
62.1743569684271
 20
-601.4387411856078
 30
0.0
 11
60.73475208033567
 21
-607.1974081777953
 31
0.0
  0
LINE
  5
13C
330
1F
100
AcDbEntity
  8
0-5
  6
Continuous
 62
     2
370
     9
100
AcDbLine
 10
-535.6619055025401
 20
-614.2291530574405
 30
0.0
 11
-531.878550614449
 21
-624.3177695059203
 31
0.0
  0
LINE
  5
13D
330
1F
100
AcDbEntity
  8
0-5
  6
Continuous
 62
     2
370
     9
100
AcDbLine
 10
-494.7619586196221
 20
-614.2291530574405
 30
0.0
 11
-498.5453135077132
 21
-624.3177695059203
 31
0.0
  0
LINE
  5
13E
330
1F
100
AcDbEntity
  8
0-5
  6
Continuous
 62
     2
370
     9
100
AcDbLine
 10
-617.82553580765
 20
-607.1974081777953
 30
0.0
 11
-620.2119691770545
 21
-597.651303540443
 31
0.0
  0
LINE
  5
13F
330
1F
100
AcDbEntity
  8
0-5
  6
Continuous
 62
     2
370
     9
100
AcDbLine
 10
67.02516725136616
 20
-597.651303540443
 30
0.0
 11
129.7880308229456
 21
-597.651303540443
 31
0.0
  0
LINE
  5
140
330
1F
100
AcDbEntity
  8
0-5
  6
Continuous
 62
     2
370
     9
100
AcDbLine
 10
77.43545546927163
 20
-610.9847221030486
 30
0.0
 11
122.550910890513
 21
-610.9847221030486
 31
0.0
  0
LINE
  5
141
330
1F
100
AcDbEntity
  8
0-5
  6
Continuous
 62
     2
370
     9
100
AcDbLine
 10
71.14504029824116
 20
-620.5308267404008
 30
0.0
 11
72.5846451863323
 21
-614.7721597482133
 31
0.0
  0
LINE
  5
142
330
1F
100
AcDbEntity
  8
0-5
  6
Continuous
 62
     2
370
     9
100
AcDbLine
 10
-557.4493530452978
 20
-597.651303540443
 30
0.0
 11
-620.2119691770545
 21
-597.651303540443
 31
0.0
  0
LINE
  5
143
330
1F
100
AcDbEntity
  8
0-5
  6
Continuous
 62
     2
370
     9
100
AcDbLine
 10
-567.8596412632031
 20
-610.9847221030486
 30
0.0
 11
-612.974849244622
 21
-610.9847221030486
 31
0.0
  0
LINE
  5
144
330
1F
100
AcDbEntity
  8
0-0
  6
Continuous
 62
     4
370
     9
100
AcDbLine
 10
-526.2904933799682
 20
-330.9847880870013
 30
0.0
 11
-504.1336181820163
 21
-330.9847880870013
 31
0.0
  0
LINE
  5
145
330
1F
100
AcDbEntity
  8
0-0
  6
Continuous
 62
     4
370
     9
100
AcDbLine
 10
-528.5454124836424
 20
-333.2395834707642
 30
0.0
 11
-501.8788227982539
 21
-333.2395834707642
 31
0.0
  0
LINE
  5
146
330
1F
100
AcDbEntity
  8
0-0
  6
Continuous
 62
     4
370
     9
100
AcDbLine
 10
-504.1336181820163
 20
-330.9847880870013
 30
0.0
 11
-501.8788227982539
 21
-333.2395834707642
 31
0.0
  0
LINE
  5
147
330
1F
100
AcDbEntity
  8
0-0
  6
Continuous
 62
     4
370
     9
100
AcDbLine
 10
-526.2904933799682
 20
-330.9847880870013
 30
0.0
 11
-528.5454124836424
 21
-333.2395834707642
 31
0.0
  0
LINE
  5
148
330
1F
100
AcDbEntity
  8
0-0
  6
Continuous
 62
     4
370
     9
100
AcDbLine
 10
-504.1336181820163
 20
-664.3181489136484
 30
0.0
 11
-501.8788227982539
 21
-662.0636009697082
 31
0.0
  0
LINE
  5
149
330
1F
100
AcDbEntity
  8
0-0
  6
Continuous
 62
     4
370
     9
100
AcDbLine
 10
-526.2904933799682
 20
-664.3181489136484
 30
0.0
 11
-528.5454124836424
 21
-662.0636009697082
 31
0.0
  0
LINE
  5
14A
330
1F
100
AcDbEntity
  8
0-5
  6
Continuous
 62
     2
370
     9
100
AcDbLine
 10
-528.5454124836424
 20
-610.9847221030486
 30
0.0
 11
-546.3082513112396
 21
-610.9847221030486
 31
0.0
  0
LINE
  5
14B
330
1F
100
AcDbEntity
  8
0-0
  6
Continuous
 62
     4
370
     9
100
AcDbLine
 10
-513.2120615545882
 20
-657.6515014923012
 30
0.0
 11
-513.2120615545882
 21
-664.3181489136484
 31
0.0
  0
LINE
  5
14C
330
1F
100
AcDbEntity
  8
0-0
  6
Continuous
 62
     4
370
     9
100
AcDbLine
 10
-513.2120615545882
 20
-657.6515014923012
 30
0.0
 11
-517.2120500073966
 21
-657.6515014923012
 31
0.0
  0
LINE
  5
14D
330
1F
100
AcDbEntity
  8
0-0
  6
Continuous
 62
     4
370
     9
100
AcDbLine
 10
-517.2120500073966
 20
-657.6515014923012
 30
0.0
 11
-517.2120500073966
 21
-664.3181489136484
 31
0.0
  0
LINE
  5
14E
330
1F
100
AcDbEntity
  8
0-0
  6
Continuous
 62
     4
370
     9
100
AcDbLine
 10
-528.5454124836424
 20
-662.0636009697082
 30
0.0
 11
-517.2120500073966
 21
-662.0636009697082
 31
0.0
  0
LINE
  5
14F
330
1F
100
AcDbEntity
  8
0-0
  6
Continuous
 62
     4
370
     9
100
AcDbLine
 10
-513.2120615545882
 20
-662.0636009697082
 30
0.0
 11
-501.8788227982539
 21
-662.0636009697082
 31
0.0
  0
LINE
  5
150
330
1F
100
AcDbEntity
  8
0-0
  6
Continuous
 62
     4
370
     9
100
AcDbLine
 10
-526.2904933799682
 20
-664.3181489136484
 30
0.0
 11
-517.2120500073966
 21
-664.3181489136484
 31
0.0
  0
LINE
  5
151
330
1F
100
AcDbEntity
  8
0-0
  6
Continuous
 62
     4
370
     9
100
AcDbLine
 10
-513.2120615545882
 20
-664.3181489136484
 30
0.0
 11
-504.1336181820163
 21
-664.3181489136484
 31
0.0
  0
LINE
  5
152
330
1F
100
AcDbEntity
  8
0-5
  6
Continuous
 62
     2
370
     9
100
AcDbLine
 10
-462.5983695544828
 20
-620.5308267404008
 30
0.0
 11
-460.2119361850781
 21
-610.9847221030486
 31
0.0
  0
LINE
  5
153
330
1F
100
AcDbEntity
  8
0-0
  6
Continuous
 62
     3
370
     9
100
AcDbLine
 10
-501.8788227982539
 20
-364.3181489136482
 30
0.0
 11
-487.8512118132453
 21
-364.3181489136482
 31
0.0
  0
LINE
  5
154
330
1F
100
AcDbEntity
  8
0-0
  6
JWW_CENTER1
 62
     4
370
     9
100
AcDbLine
 10
-515.2119939210367
 20
-670.7226338429134
 30
0.0
 11
-515.2119939210367
 21
-324.5034730928079
 31
0.0
  0
LINE
  5
155
330
1F
100
AcDbEntity
  8
0-5
  6
Continuous
 62
     2
370
     9
100
AcDbLine
 10
55.88394179739662
 20
-610.9847221030486
 30
0.0
 11
-501.8788227982539
 21
-610.9847221030486
 31
0.0
  0
LINE
  5
156
330
1F
100
AcDbEntity
  8
0-5
  6
Continuous
 62
     2
370
     9
100
AcDbLine
 10
66.2942300153021
 20
-624.3177695059203
 30
0.0
 11
-556.7185395291449
 21
-624.3177695059203
 31
0.0
  0
LINE
  5
157
330
1F
100
AcDbEntity
  8
0-0
  6
Continuous
 62
     4
370
     9
100
AcDbLine
 10
-540.2119526810664
 20
-643.5791038993957
 30
0.0
 11
-540.2119526810664
 21
-624.3177695059203
 31
0.0
  0
LINE
  5
158
330
1F
100
AcDbEntity
  8
0-0
  6
Continuous
 62
     4
370
     9
100
AcDbLine
 10
-490.2119114410958
 20
-643.5791038993957
 30
0.0
 11
-490.2119114410958
 21
-624.3177695059203
 31
0.0
  0
LINE
  5
159
330
1F
100
AcDbEntity
  8
0-0
  6
Continuous
 62
     4
370
     9
100
AcDbLine
 10
-527.7027561676583
 20
-643.5791038993957
 30
0.0
 11
-527.7027561676583
 21
-624.3177695059203
 31
0.0
  0
LINE
  5
15A
330
1F
100
AcDbEntity
  8
0-0
  6
Continuous
 62
     4
370
     9
100
AcDbLine
 10
-502.7212316744151
 20
-643.5791038993957
 30
0.0
 11
-502.7212316744151
 21
-624.3177695059203
 31
0.0
  0
LINE
  5
15B
330
1F
100
AcDbEntity
  8
0-0
  6
Continuous
 62
     4
370
     9
100
AcDbLine
 10
-533.9572925644068
 20
-645.9847138550547
 30
0.0
 11
-496.4665715577554
 21
-645.9847138550547
 31
0.0
  0
LINE
  5
15C
330
1F
100
AcDbEntity
  8
0-0
  6
Continuous
 62
     4
370
     9
100
AcDbLine
 10
-526.2904933799682
 20
-664.3181489136484
 30
0.0
 11
-526.2904933799682
 21
-645.9847138550547
 31
0.0
  0
LINE
  5
15D
330
1F
100
AcDbEntity
  8
0-0
  6
Continuous
 62
     4
370
     9
100
AcDbLine
 10
-528.5454124836424
 20
-645.9847138550547
 30
0.0
 11
-528.5454124836424
 21
-662.0636009697082
 31
0.0
  0
LINE
  5
15E
330
1F
100
AcDbEntity
  8
0-0
  6
Continuous
 62
     4
370
     9
100
AcDbLine
 10
-504.1336181820163
 20
-645.9847138550547
 30
0.0
 11
-504.1336181820163
 21
-664.3181489136484
 31
0.0
  0
LINE
  5
15F
330
1F
100
AcDbEntity
  8
0-0
  6
Continuous
 62
     4
370
     9
100
AcDbLine
 10
-501.8788227982539
 20
-662.0636009697082
 30
0.0
 11
-501.8788227982539
 21
-645.9847138550547
 31
0.0
  0
LINE
  5
160
330
1F
100
AcDbEntity
  8
0-4
  6
Continuous
 62
     7
370
     9
100
AcDbLine
 10
309.7880060789633
 20
-597.651303540443
 30
0.0
 11
309.7880060789633
 21
-264.3180664337074
 31
0.0
  0
LINE
  5
161
330
1F
100
AcDbEntity
  8
0-4
  6
Continuous
 62
     7
370
     9
100
AcDbLine
 10
154.7881133028865
 20
-597.651303540443
 30
0.0
 11
312.7879664885917
 21
-597.651303540443
 31
0.0
  0
LINE
  5
162
330
1F
100
AcDbEntity
  8
0-4
  6
Continuous
 62
     7
370
     9
100
AcDbLine
 10
151.4548514521685
 20
-264.3180664337074
 30
0.0
 11
312.7879664885917
 21
-264.3180664337074
 31
0.0
  0
LINE
  5
163
330
1F
100
AcDbEntity
  8
0-F
  6
Continuous
 62
     7
370
     9
100
AcDbLine
 10
-29.28014379698698
 20
-464.3181076736779
 30
0.0
 11
232.7880737125149
 21
-464.3181076736779
 31
0.0
  0
LINE
  5
164
330
1F
100
AcDbEntity
  8
0-0
  6
JWW_CENTER1
 62
     3
370
     9
100
AcDbLine
 10
-245.2119691770544
 20
-581.3951257928713
 30
0.0
 11
-245.2119691770544
 21
-664.3297785853122
 31
0.0
  0
LINE
  5
165
330
1F
100
AcDbEntity
  8
0-4
  6
Continuous
 62
     7
370
     9
100
AcDbLine
 10
-453.5455362035536
 20
-764.3182313935893
 30
0.0
 11
-36.87852587046667
 21
-764.3182313935893
 31
0.0
  0
LINE
  5
166
330
1F
100
AcDbEntity
  8
0-4
  6
Continuous
 62
     7
370
     9
100
AcDbLine
 10
-453.5455362035536
 20
-489.3180664337075
 30
0.0
 11
-453.5455362035536
 21
-767.3183155231288
 31
0.0
  0
LINE
  5
167
330
1F
100
AcDbEntity
  8
0-4
  6
Continuous
 62
     7
370
     9
100
AcDbLine
 10
-36.87852587046667
 20
-489.3180664337075
 30
0.0
 11
-36.87852587046667
 21
-767.3183155231288
 31
0.0
  0
LINE
  5
168
330
1F
100
AcDbEntity
  8
0-4
  6
Continuous
 62
     7
370
     9
100
AcDbLine
 10
-453.5455362035536
 20
-764.3182313935893
 30
0.0
 11
-428.7593654502807
 21
-761.0551187325883
 31
0.0
  0
LINE
  5
169
330
1F
100
AcDbEntity
  8
0-4
  6
Continuous
 62
     7
370
     9
100
AcDbLine
 10
-453.5455362035536
 20
-764.3182313935893
 30
0.0
 11
-428.7593654502807
 21
-767.5813440545901
 31
0.0
  0
LINE
  5
16A
330
1F
100
AcDbEntity
  8
0-4
  6
Continuous
 62
     7
370
     9
100
AcDbLine
 10
-36.87852587046667
 20
-764.3182313935893
 30
0.0
 11
-61.66457290382812
 21
-761.0551187325883
 31
0.0
  0
LINE
  5
16B
330
1F
100
AcDbEntity
  8
0-4
  6
Continuous
 62
     7
370
     9
100
AcDbLine
 10
-36.87852587046667
 20
-764.3182313935893
 30
0.0
 11
-61.66457290382812
 21
-767.5813440545901
 31
0.0
  0
LINE
  5
16C
330
1F
100
AcDbEntity
  8
0-4
  6
Continuous
 62
     7
370
     9
100
AcDbLine
 10
-620.2119691770545
 20
-844.3182478895774
 30
0.0
 11
129.7880308229456
 21
-844.3182478895774
 31
0.0
  0
LINE
  5
16D
330
1F
100
AcDbEntity
  8
0-4
  6
Continuous
 62
     7
370
     9
100
AcDbLine
 10
-620.2119691770545
 20
-622.6515097402953
 30
0.0
 11
-620.2119691770545
 21
-847.3183320191172
 31
0.0
  0
LINE
  5
16E
330
1F
100
AcDbEntity
  8
0-4
  6
Continuous
 62
     7
370
     9
100
AcDbLine
 10
129.7880308229456
 20
-622.6515097402953
 30
0.0
 11
129.7880308229456
 21
-847.3183320191172
 31
0.0
  0
LINE
  5
16F
330
1F
100
AcDbEntity
  8
0-4
  6
Continuous
 62
     7
370
     9
100
AcDbLine
 10
-620.2119691770545
 20
-844.3182478895774
 30
0.0
 11
-595.4257984237815
 21
-841.0550115086652
 31
0.0
  0
LINE
  5
170
330
1F
100
AcDbEntity
  8
0-4
  6
Continuous
 62
     7
370
     9
100
AcDbLine
 10
-620.2119691770545
 20
-844.3182478895774
 30
0.0
 11
-595.4257984237815
 21
-847.5813605505782
 31
0.0
  0
LINE
  5
171
330
1F
100
AcDbEntity
  8
0-4
  6
Continuous
 62
     7
370
     9
100
AcDbLine
 10
129.7880308229456
 20
-844.3182478895774
 30
0.0
 11
105.0019837895841
 21
-841.0550115086652
 31
0.0
  0
LINE
  5
172
330
1F
100
AcDbEntity
  8
0-4
  6
Continuous
 62
     7
370
     9
100
AcDbLine
 10
129.7880308229456
 20
-844.3182478895774
 30
0.0
 11
105.0019837895841
 21
-847.5813605505782
 31
0.0
  0
LINE
  5
173
330
1F
100
AcDbEntity
  8
0-E
  6
Continuous
 62
     7
370
     9
100
AcDbLine
 10
125.0507954185958
 20
-610.3149025031753
 30
0.0
 11
140.2698291495925
 21
-630.1489363661399
 31
0.0
  0
LINE
  5
174
330
1F
100
AcDbEntity
  8
0-E
  6
Continuous
 62
     7
370
     9
100
AcDbLine
 10
125.0507954185958
 20
-610.3149025031753
 30
0.0
 11
134.6178087209607
 21
-633.411801587318
 31
0.0
  0
LINE
  5
175
330
1F
100
AcDbEntity
  8
0-E
  6
Continuous
 62
     7
370
     9
100
AcDbLine
 10
-983.8881331339802
 20
-894.3181654096365
 30
0.0
 11
-659.0811774356059
 21
-894.3181654096365
 31
0.0
  0
LINE
  5
176
330
1F
100
AcDbEntity
  8
0-E
  6
Continuous
 62
     7
370
     9
100
AcDbLine
 10
-526.2904933799682
 20
-664.3181489136484
 30
0.0
 11
-659.0811774356059
 21
-894.3181654096365
 31
0.0
  0
LINE
  5
177
330
1F
100
AcDbEntity
  8
0-4
  6
Continuous
 62
     7
370
     9
100
AcDbLine
 10
309.7880060789633
 20
-264.3180664337074
 30
0.0
 11
313.0512424598755
 21
-289.1042371869803
 31
0.0
  0
LINE
  5
178
330
1F
100
AcDbEntity
  8
0-4
  6
Continuous
 62
     7
370
     9
100
AcDbLine
 10
309.7880060789633
 20
-264.3180664337074
 30
0.0
 11
306.524769698051
 21
-289.1042371869803
 31
0.0
  0
LINE
  5
179
330
1F
100
AcDbEntity
  8
0-4
  6
Continuous
 62
     7
370
     9
100
AcDbLine
 10
309.7880060789633
 20
-597.651303540443
 30
0.0
 11
306.524769698051
 21
-572.8653802269929
 31
0.0
  0
LINE
  5
17A
330
1F
100
AcDbEntity
  8
0-4
  6
Continuous
 62
     7
370
     9
100
AcDbLine
 10
309.7880060789633
 20
-597.651303540443
 30
0.0
 11
313.0512424598755
 21
-572.8653802269929
 31
0.0
  0
LINE
  5
17B
330
1F
100
AcDbEntity
  8
0-E
  6
Continuous
 62
     7
370
     9
100
AcDbLine
 10
125.0507954185958
 20
-610.3149025031753
 30
0.0
 11
213.9645840851922
 21
-764.3182313935893
 31
0.0
  0
LINE
  5
17C
330
1F
100
AcDbEntity
  8
0-E
  6
Continuous
 62
     7
370
     9
100
AcDbLine
 10
-526.2904933799682
 20
-664.3181489136484
 30
0.0
 11
-535.8576304022445
 21
-687.4151717177024
 31
0.0
  0
LINE
  5
17D
330
1F
100
AcDbEntity
  8
0-E
  6
Continuous
 62
     7
370
     9
100
AcDbLine
 10
-526.2904933799682
 20
-664.3181489136484
 30
0.0
 11
-541.5095271109648
 21
-684.1519353367902
 31
0.0
  0
LINE
  5
17E
330
1F
100
AcDbEntity
  8
0-3
  6
Continuous
 62
     7
370
     9
100
AcDbLine
 10
-538.5454454756187
 20
-484.9962824915622
 30
0.0
 11
-491.8787898062773
 21
-476.7675474699195
 31
0.0
  0
LINE
  5
17F
330
1F
100
AcDbEntity
  8
0-3
  6
Continuous
 62
     7
370
     9
100
AcDbLine
 10
-538.5454454756187
 20
-498.5351998268662
 30
0.0
 11
-491.8787898062773
 21
-490.3065885251348
 31
0.0
  0
LINE
  5
180
330
1F
100
AcDbEntity
  8
0-0
  6
Continuous
 62
     4
370
     9
100
AcDbLine
 10
-528.5454124836424
 20
-333.2395834707642
 30
0.0
 11
-528.5454124836424
 21
-483.2330263154641
 31
0.0
  0
LINE
  5
181
330
1F
100
AcDbEntity
  8
0-0
  6
Continuous
 62
     4
370
     9
100
AcDbLine
 10
-528.5454124836424
 20
-496.7719436507683
 30
0.0
 11
-528.5454124836424
 21
-624.3177695059203
 31
0.0
  0
LINE
  5
182
330
1F
100
AcDbEntity
  8
0-0
  6
Continuous
 62
     4
370
     9
100
AcDbLine
 10
-501.8788227982539
 20
-333.2395834707642
 30
0.0
 11
-501.8788227982539
 21
-478.5308036460174
 31
0.0
  0
LINE
  5
183
330
1F
100
AcDbEntity
  8
0-0
  6
Continuous
 62
     4
370
     9
100
AcDbLine
 10
-501.8788227982539
 20
-492.0698447012327
 30
0.0
 11
-501.8788227982539
 21
-624.3177695059203
 31
0.0
  0
LINE
  5
184
330
1F
100
AcDbEntity
  8
0-0
  6
Continuous
 62
     4
370
     9
100
AcDbLine
 10
-526.2904933799682
 20
-330.9847880870013
 30
0.0
 11
-526.2904933799682
 21
-482.8353905204895
 31
0.0
  0
LINE
  5
185
330
1F
100
AcDbEntity
  8
0-0
  6
Continuous
 62
     4
370
     9
100
AcDbLine
 10
-526.2904933799682
 20
-496.3743078557935
 30
0.0
 11
-526.2904933799682
 21
-624.3177695059203
 31
0.0
  0
LINE
  5
186
330
1F
100
AcDbEntity
  8
0-0
  6
Continuous
 62
     4
370
     9
100
AcDbLine
 10
-504.1336181820163
 20
-330.9847880870013
 30
0.0
 11
-504.1336181820163
 21
-478.9284394409921
 31
0.0
  0
LINE
  5
187
330
1F
100
AcDbEntity
  8
0-0
  6
Continuous
 62
     4
370
     9
100
AcDbLine
 10
-504.1336181820163
 20
-492.4674804962075
 30
0.0
 11
-504.1336181820163
 21
-624.3177695059203
 31
0.0
  0
ARC
  5
188
330
1F
100
AcDbEntity
  8
0-0
  6
Continuous
 62
     3
370
     9
100
AcDbCircle
 10
-590.8955464310662
 20
-322.150815259193
 30
0.0
 40
36.66666520608438
100
AcDbArc
 50
74.99996948242188
 51
121.7902069091797
  0
ARC
  5
189
330
1F
100
AcDbEntity
  8
0-0
  6
Continuous
 62
     3
370
     9
100
AcDbCircle
 10
-512.3004932480005
 20
-296.6228199176602
 30
0.0
 40
5.000000064437454
100
AcDbArc
 50
254.9999084472656
 51
318.4355773925781
  0
ARC
  5
18A
330
1F
100
AcDbEntity
  8
0-0
  6
Continuous
 62
     3
370
     9
100
AcDbCircle
 10
-528.8685688920039
 20
-292.1833783398519
 30
0.0
 40
5.000000064437454
100
AcDbArc
 50
191.5648956298828
 51
254.9999084472656
  0
ARC
  5
18B
330
1F
100
AcDbEntity
  8
0-0
  6
Continuous
 62
     3
370
     9
100
AcDbCircle
 10
-549.3390179787859
 20
-279.3651294879727
 30
0.0
 40
5.416692108721347
100
AcDbArc
 50
187.620590209961
 51
322.37890625
  0
ARC
  5
18C
330
1F
100
AcDbEntity
  8
0-0
  6
Continuous
 62
     3
370
     9
100
AcDbCircle
 10
-538.2415893734226
 20
-287.9464662568704
 30
0.0
 40
3.333333376291636
100
AcDbArc
 50
11.56642150878906
 51
75.00077819824219
  0
ARC
  5
18D
330
1F
100
AcDbEntity
  8
0-0
  6
Continuous
 62
     3
370
     9
100
AcDbCircle
 10
-502.0644026652302
 20
-297.6400450285131
 30
0.0
 40
3.333333376291636
100
AcDbArc
 50
75.00022888183594
 51
138.4349822998047
  0
ARC
  5
18E
330
1F
100
AcDbEntity
  8
0-0
  6
Continuous
 62
     3
370
     9
100
AcDbCircle
 10
-568.6576346912013
 20
-274.1888121183569
 30
0.0
 40
5.416692108721347
100
AcDbArc
 50
187.6192932128906
 51
322.3796997070312
  0
ARC
  5
18F
330
1F
100
AcDbEntity
  8
0-0
  6
Continuous
 62
     3
370
     9
100
AcDbCircle
 10
-488.1634808694109
 20
-295.7570279782597
 30
0.0
 40
5.416692108721347
100
AcDbArc
 50
187.620590209961
 51
322.3807373046876
  0
ARC
  5
190
330
1F
100
AcDbEntity
  8
0-0
  6
Continuous
 62
     3
370
     9
100
AcDbCircle
 10
-552.5050105094023
 20
-301.3792319082642
 30
0.0
 40
6.666666752583272
100
AcDbArc
 50
11.56620788574219
 51
75.00050354003906
  0
ARC
  5
191
330
1F
100
AcDbEntity
  8
0-0
  6
JWW_DASHED1
 62
     3
370
     9
100
AcDbCircle
 10
-496.4287132648924
 20
-316.4048914178711
 30
0.0
 40
6.666666752583272
100
AcDbArc
 50
74.999755859375
 51
138.4350738525391
  0
ARC
  5
192
330
1F
100
AcDbEntity
  8
0-0
  6
JWW_DASHED1
 62
     3
370
     9
100
AcDbCircle
 10
-507.7913973601203
 20
-311.6346227971998
 30
0.0
 40
5.000000064437454
100
AcDbArc
 50
255.0012817382812
 51
318.4365081787109
  0
ARC
  5
193
330
1F
100
AcDbEntity
  8
0-0
  6
Continuous
 62
     3
370
     9
100
AcDbCircle
 10
-461.9346122302641
 20
-400.9847715910132
 30
0.0
 40
3.333333376291636
100
AcDbArc
 50
4.554550170898438
 51
90.00000000000001
  0
ARC
  5
194
330
1F
100
AcDbEntity
  8
0-0
  6
Continuous
 62
     3
370
     9
100
AcDbCircle
 10
-487.8512118132453
 20
-369.3181654096365
 30
0.0
 40
5.000000064437454
100
AcDbArc
 50
8.53070068359375
 51
90.0
  0
ARC
  5
195
330
1F
100
AcDbEntity
  8
0-0
  6
JWW_DASHED1
 62
     3
370
     9
100
AcDbCircle
 10
-471.1448173083891
 20
-369.3181654096365
 30
0.0
 40
5.000000064437454
100
AcDbArc
 50
4.555007934570312
 51
90.0
  0
ARC
  5
196
330
1F
100
AcDbEntity
  8
0-0
  6
Continuous
 62
     3
370
     9
100
AcDbCircle
 10
-447.3886148168349
 20
-457.6514602523308
 30
0.0
 40
6.666666752583272
100
AcDbArc
 50
184.5546264648438
 51
270.0
  0
ARC
  5
197
330
1F
100
AcDbEntity
  8
0-0
  6
Continuous
 62
     3
370
     9
100
AcDbCircle
 10
-546.2338956445375
 20
-312.9622611655487
 30
0.0
 40
6.666666752583272
100
AcDbArc
 50
8.43475341796875
 51
59.30958557128907
  0
ARC
  5
198
330
1F
100
AcDbEntity
  8
0-0
  6
JWW_DASHED1
 62
     3
370
     9
100
AcDbCircle
 10
-479.7448357838958
 20
-324.3261824598899
 30
0.0
 40
10.00000012887491
100
AcDbArc
 50
4.554595947265626
 51
74.99990844726564
  0
ARC
  5
199
330
1F
100
AcDbEntity
  8
0-0
  6
JWW_DASHED1
 62
     3
370
     9
100
AcDbCircle
 10
-440.9477562336424
 20
-328.6230986998602
 30
0.0
 40
10.00000012887491
100
AcDbArc
 50
184.5545959472657
 51
263.6697540283203
  0
ARC
  5
19A
330
1F
100
AcDbEntity
  8
0-0
  6
JWW_DASHED1
 62
     3
370
     9
100
AcDbCircle
 10
-424.5222059274768
 20
-345.5372189358188
 30
0.0
 40
5.000000064437454
100
AcDbArc
 50
9.462326049804688
 51
83.67115783691406
  0
ARC
  5
19B
330
1F
100
AcDbEntity
  8
0-0
  6
Continuous
 62
     3
370
     9
100
AcDbCircle
 10
-411.476188718862
 20
-312.6514767483188
 30
0.0
 40
3.333333376291636
100
AcDbArc
 50
7.352645874023438
 51
90.0
  0
ARC
  5
19C
330
1F
100
AcDbEntity
  8
0-0
  6
Continuous
 62
     3
370
     9
100
AcDbCircle
 10
100.4716080769573
 20
-322.150815259193
 30
0.0
 40
36.66666520608438
100
AcDbArc
 50
58.20979309082032
 51
105.0000305175781
  0
ARC
  5
19D
330
1F
100
AcDbEntity
  8
0-0
  6
Continuous
 62
     3
370
     9
100
AcDbCircle
 10
21.8765548938914
 20
-296.6228199176602
 30
0.0
 40
5.000000064437454
100
AcDbArc
 50
221.5644226074219
 51
285.0000915527344
  0
ARC
  5
19E
330
1F
100
AcDbEntity
  8
0-0
  6
Continuous
 62
     3
370
     9
100
AcDbCircle
 10
38.44463053789479
 20
-292.1833783398519
 30
0.0
 40
5.000000064437454
100
AcDbArc
 50
285.0000915527344
 51
348.4351043701172
  0
ARC
  5
19F
330
1F
100
AcDbEntity
  8
0-0
  6
Continuous
 62
     3
370
     9
100
AcDbCircle
 10
58.9150796246771
 20
-279.3651294879727
 30
0.0
 40
5.416692108721347
100
AcDbArc
 50
217.62109375
 51
352.3794097900391
  0
ARC
  5
1A0
330
1F
100
AcDbEntity
  8
0-0
  6
Continuous
 62
     3
370
     9
100
AcDbCircle
 10
47.81765101931381
 20
-287.9464662568704
 30
0.0
 40
3.333333376291636
100
AcDbArc
 50
104.9992218017578
 51
168.4335784912109
  0
ARC
  5
1A1
330
1F
100
AcDbEntity
  8
0-0
  6
Continuous
 62
     3
370
     9
100
AcDbCircle
 10
11.64046431112109
 20
-297.6400450285131
 30
0.0
 40
3.333333376291636
100
AcDbArc
 50
41.56501770019532
 51
104.9997711181641
  0
ARC
  5
1A2
330
1F
100
AcDbEntity
  8
0-0
  6
Continuous
 62
     3
370
     9
100
AcDbCircle
 10
78.23369633709245
 20
-274.1888121183569
 30
0.0
 40
5.416692108721347
100
AcDbArc
 50
217.6203002929688
 51
352.3807067871094
  0
ARC
  5
1A3
330
1F
100
AcDbEntity
  8
0-0
  6
Continuous
 62
     3
370
     9
100
AcDbCircle
 10
-2.260457484698186
 20
-295.7570279782597
 30
0.0
 40
5.416692108721347
100
AcDbArc
 50
217.6192626953125
 51
352.3794097900391
  0
ARC
  5
1A4
330
1F
100
AcDbEntity
  8
0-0
  6
Continuous
 62
     3
370
     9
100
AcDbCircle
 10
62.08107215529349
 20
-301.3792319082642
 30
0.0
 40
6.666666752583272
100
AcDbArc
 50
104.9994964599609
 51
168.4337921142578
  0
ARC
  5
1A5
330
1F
100
AcDbEntity
  8
0-0
  6
Continuous
 62
     3
370
     9
100
AcDbCircle
 10
6.004774910783333
 20
-316.4048914178711
 30
0.0
 40
6.666666752583272
100
AcDbArc
 50
41.56492614746094
 51
105.000244140625
  0
ARC
  5
1A6
330
1F
100
AcDbEntity
  8
0-0
  6
Continuous
 62
     3
370
     9
100
AcDbCircle
 10
49.85531795871406
 20
-302.9296898368956
 30
0.0
 40
5.000000064437454
100
AcDbArc
 50
284.9987182617188
 51
348.4337158203125
  0
ARC
  5
1A7
330
1F
100
AcDbEntity
  8
0-0
  6
Continuous
 62
     3
370
     9
100
AcDbCircle
 10
17.36745900601147
 20
-311.6346227971998
 30
0.0
 40
5.000000064437454
100
AcDbArc
 50
221.5634918212891
 51
284.9987182617188
  0
ARC
  5
1A8
330
1F
100
AcDbEntity
  8
0-0
  6
Continuous
 62
     3
370
     9
100
AcDbCircle
 10
-28.48932612384505
 20
-400.9847715910132
 30
0.0
 40
3.333333376291636
100
AcDbArc
 50
90.0
 51
175.4454498291016
  0
ARC
  5
1A9
330
1F
100
AcDbEntity
  8
0-0
  6
JWW_PHANTOM1
 62
     3
370
     9
100
AcDbCircle
 10
-2.572726540863535
 20
-369.3181654096365
 30
0.0
 40
5.000000064437454
100
AcDbArc
 50
90.0
 51
171.4692993164062
  0
ARC
  5
1AA
330
1F
100
AcDbEntity
  8
0-0
  6
Continuous
 62
     3
370
     9
100
AcDbCircle
 10
-43.03532353727395
 20
-457.6514602523308
 30
0.0
 40
6.666666752583272
100
AcDbArc
 50
270.0
 51
355.4453735351562
  0
ARC
  5
1AB
330
1F
100
AcDbEntity
  8
0-0
  6
JWW_PHANTOM1
 62
     3
370
     9
100
AcDbCircle
 10
37.14161243189817
 20
-359.3181324176602
 30
0.0
 40
5.000000064437454
100
AcDbArc
 50
270.0
 51
351.5646362304688
  0
ARC
  5
1AC
330
1F
100
AcDbEntity
  8
0-0
  6
JWW_PHANTOM1
 62
     3
370
     9
100
AcDbCircle
 10
55.80995729042865
 20
-312.9622611655487
 30
0.0
 40
6.666666752583272
100
AcDbArc
 50
120.6904144287109
 51
171.5652465820313
  0
ARC
  5
1AD
330
1F
100
AcDbEntity
  8
0-0
  6
Continuous
 62
     3
370
     9
100
AcDbCircle
 10
-10.67910257021328
 20
-324.3261824598899
 30
0.0
 40
10.00000012887491
100
AcDbArc
 50
105.0000915527344
 51
175.4454040527344
  0
ARC
  5
1AE
330
1F
100
AcDbEntity
  8
0-0
  6
Continuous
 62
     3
370
     9
100
AcDbCircle
 10
-49.47618212046667
 20
-328.6230986998602
 30
0.0
 40
10.00000012887491
100
AcDbArc
 50
276.3302459716797
 51
355.4454040527344
  0
ARC
  5
1AF
330
1F
100
AcDbEntity
  8
0-0
  6
Continuous
 62
     3
370
     9
100
AcDbCircle
 10
-65.9017324266323
 20
-345.5372189358188
 30
0.0
 40
5.000000064437454
100
AcDbArc
 50
96.32884216308595
 51
170.5376739501953
  0
ARC
  5
1B0
330
1F
100
AcDbEntity
  8
0-0
  6
Continuous
 62
     3
370
     9
100
AcDbCircle
 10
-28.34803798512031
 20
-315.2566469209329
 30
0.0
 40
10.00000012887491
100
AcDbArc
 50
105.0000915527344
 51
175.4457550048828
  0
ARC
  5
1B1
330
1F
100
AcDbEntity
  8
0-0
  6
Continuous
 62
     3
370
     9
100
AcDbCircle
 10
-462.0759003689885
 20
-315.2566469209329
 30
0.0
 40
10.00000012887491
100
AcDbArc
 50
36.43096923828126
 51
74.99990844726562
  0
ARC
  5
1B2
330
1F
100
AcDbEntity
  8
0-0
  6
JWW_DASHED1
 62
     3
370
     9
100
AcDbCircle
 10
-462.0759003689885
 20
-315.2566469209329
 30
0.0
 40
10.00000012887491
100
AcDbArc
 50
4.554244995117188
 51
36.43096923828126
  0
ARC
  5
1B3
330
1F
100
AcDbEntity
  8
0-0
  6
JWW_DASHED1
 62
     3
370
     9
100
AcDbCircle
 10
-540.2792563128231
 20
-302.9296898368956
 30
0.0
 40
5.000000064437454
100
AcDbArc
 50
239.3083190917969
 51
255.0012817382812
  0
ARC
  5
1B4
330
1F
100
AcDbEntity
  8
0-0
  6
Continuous
 62
     3
370
     9
100
AcDbCircle
 10
-540.2792563128231
 20
-302.9296898368956
 30
0.0
 40
5.000000064437454
100
AcDbArc
 50
191.5662841796875
 51
239.3083190917969
  0
ARC
  5
1B5
330
1F
100
AcDbEntity
  8
0-1
  6
Continuous
 62
     2
370
     9
100
AcDbCircle
 10
-511.0990491891955
 20
-272.7884264421534
 30
0.0
 40
6.666666752583272
100
AcDbArc
 50
190.6148834228516
 51
255.000503540039
  0
ARC
  5
1B6
330
1F
100
AcDbEntity
  8
0-1
  6
JWW_DASHED1
 62
     2
370
     9
100
AcDbCircle
 10
20.67523455499792
 20
-272.7884264421534
 30
0.0
 40
6.666666752583272
100
AcDbArc
 50
284.9994964599609
 51
349.3851165771484
  0
ARC
  5
1B7
330
1F
100
AcDbEntity
  8
0-1
  6
Continuous
 62
     2
370
     9
100
AcDbCircle
 10
-392.6442861375698
 20
-294.796837746524
 30
0.0
 40
5.000000064437454
100
AcDbArc
 50
11.31021118164062
 51
90.00000000000001
  0
ARC
  5
1B8
330
1F
100
AcDbEntity
  8
0-1
  6
Continuous
 62
     2
370
     9
100
AcDbCircle
 10
52.98295731682213
 20
-260.6805773210597
 30
0.0
 40
10.00000012887491
100
AcDbArc
 50
188.7071380615234
 51
285.0002746582031
  0
ARC
  5
1B9
330
1F
100
AcDbEntity
  8
0-1
  6
Continuous
 62
     2
370
     9
100
AcDbCircle
 10
-543.4067719510198
 20
-260.6805773210597
 30
0.0
 40
10.00000012887491
100
AcDbArc
 50
254.9997253417969
 51
351.2928619384766
  0
ARC
  5
1BA
330
1F
100
AcDbEntity
  8
0-1
  6
Continuous
 62
     4
370
     9
100
AcDbCircle
 10
-447.2906286470713
 20
-277.4641730505782
 30
0.0
 40
9.333911457577267
100
AcDbArc
 50
47.92556762695313
 51
132.0746307373047
  0
ARC
  5
1BB
330
1F
100
AcDbEntity
  8
0-1
  6
Continuous
 62
     4
370
     9
100
AcDbCircle
 10
-428.5453300037016
 20
-301.7615264342352
 30
0.0
 40
33.63136729678592
100
AcDbArc
 50
68.19786071777344
 51
111.8021392822266
  0
ARC
  5
1BC
330
1F
100
AcDbEntity
  8
0-1
  6
Continuous
 62
     4
370
     9
100
AcDbCircle
 10
-409.8000313603314
 20
-277.4641730505782
 30
0.0
 40
9.33396558503847
100
AcDbArc
 50
47.92572021484374
 51
132.0742797851562
  0
ARC
  5
1BD
330
1F
100
AcDbEntity
  8
0-1
  6
Continuous
 62
     2
370
     9
100
AcDbCircle
 10
-11.02304392367603
 20
-276.4634026879303
 30
0.0
 40
5.000000064437454
100
AcDbArc
 50
90.0
 51
169.911865234375
  0
ARC
  5
1BE
330
1F
100
AcDbEntity
  8
0-1
  6
Continuous
 62
     2
370
     9
100
AcDbCircle
 10
23.55642384976147
 20
-266.4633696959539
 30
0.0
 40
5.000000064437454
100
AcDbArc
 50
270.0
 51
349.3843536376953
  0
ARC
  5
1BF
330
1F
100
AcDbEntity
  8
0-1
  6
Continuous
 62
     2
370
     9
100
AcDbCircle
 10
-24.36623635927578
 20
-284.8570563513595
 30
0.0
 40
6.666666752583272
100
AcDbArc
 50
284.9994964599609
 51
349.9125671386719
  0
ARC
  5
1C0
330
1F
100
AcDbEntity
  8
0-1
  6
Continuous
 62
     2
370
     9
100
AcDbCircle
 10
-59.36437231261198
 20
-298.1302233171534
 30
0.0
 40
3.333333376291636
100
AcDbArc
 50
90.0
 51
164.0540161132812
  0
ARC
  5
1C1
330
1F
100
AcDbEntity
  8
0-5
  6
Continuous
 62
     2
370
     9
100
AcDbCircle
 10
-612.974849244622
 20
-605.9848293269717
 30
0.0
 40
5.000000064437454
100
AcDbArc
 50
194.0364074707032
 51
270.0
  0
ARC
  5
1C2
330
1F
100
AcDbEntity
  8
0-5
  6
Continuous
 62
     2
370
     9
100
AcDbCircle
 10
-567.8596412632031
 20
-615.9846148791255
 30
0.0
 40
5.000000064437454
100
AcDbArc
 50
14.03511047363281
 51
90.0
  0
ARC
  5
1C3
330
1F
100
AcDbEntity
  8
0-5
  6
Continuous
 62
     2
370
     9
100
AcDbCircle
 10
-557.4493530452978
 20
-602.6513200364313
 30
0.0
 40
5.000000064437454
100
AcDbArc
 50
14.03640747070313
 51
90.0
  0
ARC
  5
1C4
330
1F
100
AcDbEntity
  8
0-5
  6
Continuous
 62
     2
370
     9
100
AcDbCircle
 10
-546.3082513112396
 20
-605.9848293269717
 30
0.0
 40
5.000000064437454
100
AcDbArc
 50
194.0364074707032
 51
270.0
  0
ARC
  5
1C5
330
1F
100
AcDbEntity
  8
0-5
  6
Continuous
 62
     2
370
     9
100
AcDbCircle
 10
-22.97488223659844
 20
-619.3182478895774
 30
0.0
 40
5.000000064437454
100
AcDbArc
 50
194.0352783203125
 51
270.0
  0
ARC
  5
1C6
330
1F
100
AcDbEntity
  8
0-5
  6
Continuous
 62
     2
370
     9
100
AcDbCircle
 10
122.550910890513
 20
-605.9848293269717
 30
0.0
 40
5.000000064437454
100
AcDbArc
 50
270.0
 51
345.9650573730469
  0
ARC
  5
1C7
330
1F
100
AcDbEntity
  8
0-5
  6
Continuous
 62
     2
370
     9
100
AcDbCircle
 10
77.43545546927163
 20
-615.9846148791255
 30
0.0
 40
5.000000064437454
100
AcDbArc
 50
90.0
 51
165.9650573730469
  0
ARC
  5
1C8
330
1F
100
AcDbEntity
  8
0-5
  6
Continuous
 62
     2
370
     9
100
AcDbCircle
 10
66.2942300153021
 20
-619.3182478895774
 30
0.0
 40
5.000000064437454
100
AcDbArc
 50
270.0
 51
345.9650573730469
  0
ARC
  5
1C9
330
1F
100
AcDbEntity
  8
0-5
  6
Continuous
 62
     2
370
     9
100
AcDbCircle
 10
55.88394179739662
 20
-605.9848293269717
 30
0.0
 40
5.000000064437454
100
AcDbArc
 50
270.0
 51
345.9650573730469
  0
ARC
  5
1CA
330
1F
100
AcDbEntity
  8
0-5
  6
Continuous
 62
     2
370
     9
100
AcDbCircle
 10
67.02516725136616
 20
-602.6513200364313
 30
0.0
 40
5.000000064437454
100
AcDbArc
 50
90.0
 51
165.9650573730469
  0
ARC
  5
1CB
330
1F
100
AcDbEntity
  8
0-5
  6
Continuous
 62
     2
370
     9
100
AcDbCircle
 10
-540.3435906667083
 20
-615.9846148791255
 30
0.0
 40
5.000000064437454
100
AcDbArc
 50
20.55572509765625
 51
90.0
  0
ARC
  5
1CC
330
1F
100
AcDbEntity
  8
0-5
  6
Continuous
 62
     2
370
     9
100
AcDbCircle
 10
-490.0803971753653
 20
-615.9846148791255
 30
0.0
 40
5.000000064437454
100
AcDbArc
 50
90.0
 51
159.4445037841797
  0
ARC
  5
1CD
330
1F
100
AcDbEntity
  8
0-5
  6
Continuous
 62
     2
370
     9
100
AcDbCircle
 10
-556.7185395291449
 20
-619.3182478895774
 30
0.0
 40
5.000000064437454
100
AcDbArc
 50
194.0348663330078
 51
270.0
  0
ARC
  5
1CE
330
1F
100
AcDbEntity
  8
0-5
  6
Continuous
 62
     2
370
     9
100
AcDbCircle
 10
-467.4490561175106
 20
-619.3182478895774
 30
0.0
 40
5.000000064437454
100
AcDbArc
 50
270.0
 51
345.9647216796875
  0
ARC
  5
1CF
330
1F
100
AcDbEntity
  8
0-0
  6
Continuous
 62
     3
370
     9
100
AcDbCircle
 10
-527.5653033461846
 20
-359.3181324176602
 30
0.0
 40
5.000000064437454
100
AcDbArc
 50
188.4351501464844
 51
258.6956329345703
  0
ARC
  5
1D0
330
1F
100
AcDbEntity
  8
0-0
  6
Continuous
 62
     4
370
     9
100
AcDbCircle
 10
-533.9572925644068
 20
-636.6507888656121
 30
0.0
 40
9.333911457577267
100
AcDbArc
 50
227.9253692626953
 51
312.0744323730469
  0
ARC
  5
1D1
330
1F
100
AcDbEntity
  8
0-0
  6
Continuous
 62
     4
370
     9
100
AcDbCircle
 10
-515.2119939210367
 20
-612.3533117620435
 30
0.0
 40
33.63136729678592
100
AcDbArc
 50
248.1978607177734
 51
291.8021392822266
  0
ARC
  5
1D2
330
1F
100
AcDbEntity
  8
0-0
  6
Continuous
 62
     4
370
     9
100
AcDbCircle
 10
-496.4665715577554
 20
-636.6507888656121
 30
0.0
 40
9.33396558503847
100
AcDbArc
 50
227.9257202148438
 51
312.0742797851562
  0
TEXT
  5
1D3
330
1F
100
AcDbEntity
  8
0-F
  6
Continuous
 62
     2
370
     0
100
AcDbText
 10
-277.7117217372319
 20
-548.6782808815537
 30
0.0
 40
30.48
  1
Rc4
 41
1.083333333333333
  7
ＭＳ ゴシック
100
AcDbText
  0
TEXT
  5
1D4
330
1F
100
AcDbEntity
  8
0-E
  6
Continuous
 62
     7
370
     0
100
AcDbText
 10
-977.887325655359
 20
-399.2255819399362
 30
0.0
 40
22.86
  1
本体：ＦＣ１５０
 41
1.145833333333333
  7
ＭＳ ゴシック
100
AcDbText
  0
TEXT
  5
1D5
330
1F
100
AcDbEntity
  8
0-E
  6
Continuous
 62
     7
370
     0
100
AcDbText
 10
-927.596344671934
 20
-442.942878643378
 30
0.0
 40
22.86
  1
樹脂系塗装
 41
1.133333333333333
  7
ＭＳ ゴシック
100
AcDbText
  0
TEXT
  5
1D6
330
1F
100
AcDbEntity
  8
0-F
  6
Continuous
 62
     2
370
     0
100
AcDbText
 10
214.1480803109102
 20
-385.5680251937369
 30
0.0
 40
30.48
  1
60
 50
90.0
 41
1.0625
  7
ＭＳ ゴシック
100
AcDbText
  0
TEXT
  5
1D7
330
1F
100
AcDbEntity
  8
0-4
  6
Continuous
 62
     2
370
     0
100
AcDbText
 10
-300.2121547569215
 20
-748.6781984016128
 30
0.0
 40
30.48
  1
φ125
 41
1.1
  7
ＭＳ ゴシック
100
AcDbText
  0
TEXT
  5
1D8
330
1F
100
AcDbEntity
  8
0-4
  6
Continuous
 62
     2
370
     0
100
AcDbText
 10
-300.2120310370101
 20
-828.6782148976009
 30
0.0
 40
30.48
  1
φ225
 41
1.1
  7
ＭＳ ゴシック
100
AcDbText
  0
TEXT
  5
1D9
330
1F
100
AcDbEntity
  8
0-E
  6
Continuous
 62
     7
370
     0
100
AcDbText
 10
-977.7186995402302
 20
-882.8777689780486
 30
0.0
 40
22.86
  1
ボルト：Ｃ３６０２
 41
1.148148148148148
  7
ＭＳ ゴシック
100
AcDbText
  0
TEXT
  5
1DA
330
1F
100
AcDbEntity
  8
0-E
  6
Continuous
 62
     7
370
     0
100
AcDbText
 10
-855.4869243079667
 20
-926.8609397709117
 30
0.0
 40
22.86
  1
Ｍ８
 41
1.083333333333333
  7
ＭＳ ゴシック
100
AcDbText
  0
LINE
  5
1DB
330
1F
100
AcDbEntity
  8
0-4
  6
Continuous
 62
     7
370
     9
100
AcDbLine
 10
213.9645840851922
 20
-764.3182313935893
 30
0.0
 11
605.2529290097066
 21
-764.3182313935893
 31
0.0
  0
TEXT
  5
1DC
330
1F
100
AcDbEntity
  8
0-4
  6
Continuous
 62
     7
370
     0
100
AcDbText
 10
327.2023589083552
 20
-800.9602175765496
 30
0.0
 40
22.86
  1
樹脂系塗装
 41
1.133333333333333
  7
ＭＳ ゴシック
100
AcDbText
  0
TEXT
  5
1DD
330
1F
100
AcDbEntity
  8
0-4
  6
Continuous
 62
     7
370
     0
100
AcDbText
 10
224.3235986478505
 20
-750.9111832516974
 30
0.0
 40
22.86
  1
クランプ板：ＦＣ１５０
 41
1.151515151515152
  7
ＭＳ ゴシック
100
AcDbText
  0
LINE
  5
1DE
330
1F
100
AcDbEntity
  8
0-0
  6
JWW_CENTER1
 62
     3
370
     9
100
AcDbLine
 10
-245.2119691770544
 20
197.2125468211489
 30
0.0
 11
-245.2119691770544
 21
-504.2822371473899
 31
0.0
  0
LINE
  5
1DF
330
1F
100
AcDbEntity
  8
0-2
  6
Continuous
 62
     6
370
     5
100
AcDbLine
 10
-515.2119939210367
 20
-266.4634934158652
 30
0.0
 11
-515.2119939210367
 21
-251.4633202079894
 31
0.0
  0
LINE
  5
1E0
330
1F
100
AcDbEntity
  8
0-2
  6
Continuous
 62
     6
370
     5
100
AcDbLine
 10
-478.5453712436719
 20
-251.4633202079894
 30
0.0
 11
-473.5453547476835
 21
-271.4633861919423
 31
0.0
  0
LINE
  5
1E1
330
1F
100
AcDbEntity
  8
0-2
  6
Continuous
 62
     6
370
     5
100
AcDbLine
 10
-473.5453547476835
 20
-271.4633861919423
 30
0.0
 11
-463.5453217557073
 21
-264.6985051610089
 31
0.0
  0
LINE
  5
1E2
330
1F
100
AcDbEntity
  8
0-2
  6
Continuous
 62
     6
370
     5
100
AcDbLine
 10
-515.2119939210367
 20
-251.4633202079894
 30
0.0
 11
-478.5453712436719
 21
-251.4633202079894
 31
0.0
  0
LINE
  5
1E3
330
1F
100
AcDbEntity
  8
0-2
  6
Continuous
 62
     6
370
     5
100
AcDbLine
 10
-377.8194240440307
 20
-224.4739452739735
 30
0.0
 11
-382.8193168201078
 21
-243.068305625536
 31
0.0
  0
LINE
  5
1E4
330
1F
100
AcDbEntity
  8
0-2
  6
Continuous
 62
     6
370
     5
100
AcDbLine
 10
-377.8194240440307
 20
-224.4739452739735
 30
0.0
 11
-351.5074156244783
 21
151.8038339701146
 31
0.0
  0
LINE
  5
1E5
330
1F
100
AcDbEntity
  8
0-2
  6
Continuous
 62
     6
370
     5
100
AcDbLine
 10
-308.5451815398078
 20
219.0042833208325
 30
0.0
 11
-318.5452145317841
 21
178.9019587061786
 31
0.0
  0
LINE
  5
1E6
330
1F
100
AcDbEntity
  8
0-2
  6
Continuous
 62
     6
370
     5
100
AcDbLine
 10
-334.1168500100359
 20
66.00333315191351
 30
0.0
 11
-245.2119691770544
 21
66.00333315191351
 31
0.0
  0
LINE
  5
1E7
330
1F
100
AcDbEntity
  8
0-2
  6
Continuous
 62
     6
370
     5
100
AcDbLine
 10
-336.6808214521812
 20
29.33658675463722
 30
0.0
 11
-245.2119691770544
 21
29.33658675463722
 31
0.0
  0
LINE
  5
1E8
330
1F
100
AcDbEntity
  8
0-2
  6
Continuous
 62
     6
370
     5
100
AcDbLine
 10
-319.8163129006609
 20
62.3736383936786
 30
0.0
 11
-334.1168500100359
 21
66.00333315191351
 31
0.0
  0
LINE
  5
1E9
330
1F
100
AcDbEntity
  8
0-2
  6
Continuous
 62
     6
370
     5
100
AcDbLine
 10
-315.9428899171305
 20
39.18865073267785
 30
0.0
 11
-314.8061513719448
 21
55.44680799883069
 31
0.0
  0
LINE
  5
1EA
330
1F
100
AcDbEntity
  8
0-2
  6
Continuous
 62
     6
370
     5
100
AcDbLine
 10
-321.0062510077132
 20
33.17870860060442
 30
0.0
 11
-336.6808214521812
 21
29.33658675463722
 31
0.0
  0
LINE
  5
1EB
330
1F
100
AcDbEntity
  8
0-2
  6
Continuous
 62
     6
370
     5
100
AcDbLine
 10
-317.1528706498164
 20
61.00331665592522
 30
0.0
 11
-245.2119691770544
 21
61.00331665592522
 31
0.0
  0
LINE
  5
1EC
330
1F
100
AcDbEntity
  8
0-2
  6
Continuous
 62
     6
370
     5
100
AcDbLine
 10
-318.5716905928062
 20
34.33660325062551
 30
0.0
 11
-245.2119691770544
 21
34.33660325062551
 31
0.0
  0
LINE
  5
1ED
330
1F
100
AcDbEntity
  8
0-2
  6
Continuous
 62
     6
370
     5
100
AcDbLine
 10
-353.1135475132031
 20
-205.6634462373391
 30
0.0
 11
-245.2119691770544
 21
-205.6634462373391
 31
0.0
  0
LINE
  5
1EE
330
1F
100
AcDbEntity
  8
0-2
  6
Continuous
 62
     6
370
     5
100
AcDbLine
 10
-355.2118372091489
 20
-235.6634214933568
 30
0.0
 11
-245.2119691770544
 21
-235.6634214933568
 31
0.0
  0
LINE
  5
1EF
330
1F
100
AcDbEntity
  8
0-2
  6
Continuous
 62
     6
370
     5
100
AcDbLine
 10
-354.512077390737
 20
-225.6632647814691
 30
0.0
 11
-245.2119691770544
 21
-225.6632647814691
 31
0.0
  0
LINE
  5
1F0
330
1F
100
AcDbEntity
  8
0-2
  6
Continuous
 62
     6
370
     5
100
AcDbLine
 10
-354.512077390737
 20
-215.6633555094042
 30
0.0
 11
-245.2119691770544
 21
-215.6633555094042
 31
0.0
  0
LINE
  5
1F1
330
1F
100
AcDbEntity
  8
0-2
  6
Continuous
 62
     6
370
     5
100
AcDbLine
 10
-355.2118372091489
 20
-235.6709684079472
 30
0.0
 11
-354.512077390737
 21
-225.6632647814691
 31
0.0
  0
LINE
  5
1F2
330
1F
100
AcDbEntity
  8
0-2
  6
Continuous
 62
     6
370
     5
100
AcDbLine
 10
-353.81281245197
 20
-215.6633555094042
 30
0.0
 11
-328.2307515091914
 21
150.1761748168205
 31
0.0
  0
LINE
  5
1F3
330
1F
100
AcDbEntity
  8
0-2
  6
Continuous
 62
     6
370
     5
100
AcDbLine
 10
24.78805556692787
 20
-266.4634934158652
 30
0.0
 11
24.78805556692787
 21
-251.4633202079894
 31
0.0
  0
LINE
  5
1F4
330
1F
100
AcDbEntity
  8
0-2
  6
Continuous
 62
     6
370
     5
100
AcDbLine
 10
-11.87856711043697
 20
-251.4633202079894
 30
0.0
 11
-16.8783361666026
 21
-271.4633861919423
 31
0.0
  0
LINE
  5
1F5
330
1F
100
AcDbEntity
  8
0-2
  6
Continuous
 62
     6
370
     5
100
AcDbLine
 10
-16.8783361666026
 20
-271.4633861919423
 30
0.0
 11
-26.8783691585789
 21
-264.6985051610089
 31
0.0
  0
LINE
  5
1F6
330
1F
100
AcDbEntity
  8
0-2
  6
Continuous
 62
     6
370
     5
100
AcDbLine
 10
-112.6043905901666
 20
-224.4739452739735
 30
0.0
 11
-107.6046215340013
 21
-243.068305625536
 31
0.0
  0
LINE
  5
1F7
330
1F
100
AcDbEntity
  8
0-2
  6
Continuous
 62
     6
370
     5
100
AcDbLine
 10
-11.87856711043697
 20
-251.4633202079894
 30
0.0
 11
-112.6043905901666
 21
-224.4739452739735
 31
0.0
  0
LINE
  5
1F8
330
1F
100
AcDbEntity
  8
0-2
  6
Continuous
 62
     6
370
     5
100
AcDbLine
 10
-26.8783691585789
 20
-264.6985051610089
 30
0.0
 11
-135.2119774250484
 21
-235.6709684079472
 31
0.0
  0
LINE
  5
1F9
330
1F
100
AcDbEntity
  8
0-2
  6
Continuous
 62
     6
370
     5
100
AcDbLine
 10
-112.6043905901666
 20
-224.4739452739735
 30
0.0
 11
-138.9161515698966
 21
151.8038339701146
 31
0.0
  0
LINE
  5
1FA
330
1F
100
AcDbEntity
  8
0-2
  6
Continuous
 62
     6
370
     5
100
AcDbLine
 10
-181.8785093744784
 20
219.0042833208325
 30
0.0
 11
-171.8784763825021
 21
178.9019587061786
 31
0.0
  0
LINE
  5
1FB
330
1F
100
AcDbEntity
  8
0-2
  6
Continuous
 62
     6
370
     5
100
AcDbLine
 10
-156.3068409042505
 20
66.00333315191351
 30
0.0
 11
-245.2119691770544
 21
66.00333315191351
 31
0.0
  0
LINE
  5
1FC
330
1F
100
AcDbEntity
  8
0-2
  6
Continuous
 62
     6
370
     5
100
AcDbLine
 10
-153.7428694621052
 20
29.33658675463722
 30
0.0
 11
-245.2119691770544
 21
29.33658675463722
 31
0.0
  0
LINE
  5
1FD
330
1F
100
AcDbEntity
  8
0-2
  6
Continuous
 62
     6
370
     5
100
AcDbLine
 10
-170.6073780136255
 20
62.3736383936786
 30
0.0
 11
-156.3068409042505
 21
66.00333315191351
 31
0.0
  0
LINE
  5
1FE
330
1F
100
AcDbEntity
  8
0-2
  6
Continuous
 62
     6
370
     5
100
AcDbLine
 10
-174.4808009971557
 20
39.18865073267785
 30
0.0
 11
-175.6177869821643
 21
55.44680799883069
 31
0.0
  0
LINE
  5
1FF
330
1F
100
AcDbEntity
  8
0-2
  6
Continuous
 62
     6
370
     5
100
AcDbLine
 10
-169.4174399065729
 20
33.17870860060442
 30
0.0
 11
-153.7428694621052
 21
29.33658675463722
 31
0.0
  0
LINE
  5
200
330
1F
100
AcDbEntity
  8
0-2
  6
Continuous
 62
     6
370
     5
100
AcDbLine
 10
-173.2710677042927
 20
61.00331665592522
 30
0.0
 11
-245.2119691770544
 21
61.00331665592522
 31
0.0
  0
LINE
  5
201
330
1F
100
AcDbEntity
  8
0-2
  6
Continuous
 62
     6
370
     5
100
AcDbLine
 10
-171.8520003214802
 20
34.33660325062551
 30
0.0
 11
-245.2119691770544
 21
34.33660325062551
 31
0.0
  0
LINE
  5
202
330
1F
100
AcDbEntity
  8
0-2
  6
Continuous
 62
     6
370
     5
100
AcDbLine
 10
-137.3102671209945
 20
-205.6634462373391
 30
0.0
 11
-245.2119691770544
 21
-205.6634462373391
 31
0.0
  0
LINE
  5
203
330
1F
100
AcDbEntity
  8
0-2
  6
Continuous
 62
     6
370
     5
100
AcDbLine
 10
-135.2119774250484
 20
-235.6634214933568
 30
0.0
 11
-245.2119691770544
 21
-235.6634214933568
 31
0.0
  0
LINE
  5
204
330
1F
100
AcDbEntity
  8
0-2
  6
Continuous
 62
     6
370
     5
100
AcDbLine
 10
-135.9117372434607
 20
-225.6632647814691
 30
0.0
 11
-245.2119691770544
 21
-225.6632647814691
 31
0.0
  0
LINE
  5
205
330
1F
100
AcDbEntity
  8
0-2
  6
Continuous
 62
     6
370
     5
100
AcDbLine
 10
-135.9117372434607
 20
-215.6633555094042
 30
0.0
 11
-245.2119691770544
 21
-215.6633555094042
 31
0.0
  0
LINE
  5
206
330
1F
100
AcDbEntity
  8
0-2
  6
Continuous
 62
     6
370
     5
100
AcDbLine
 10
-135.2119774250484
 20
-235.6709684079472
 30
0.0
 11
-135.9117372434607
 21
-225.6632647814691
 31
0.0
  0
LINE
  5
207
330
1F
100
AcDbEntity
  8
0-2
  6
Continuous
 62
     6
370
     5
100
AcDbLine
 10
24.78805556692787
 20
-251.4633202079894
 30
0.0
 11
21.45504115603256
 21
-248.1300583572714
 31
0.0
  0
LINE
  5
208
330
1F
100
AcDbEntity
  8
0-2
  6
Continuous
 62
     6
370
     5
100
AcDbLine
 10
-11.87856711043697
 20
-251.4633202079894
 30
0.0
 11
-15.2120764009776
 21
-248.1300583572714
 31
0.0
  0
LINE
  5
209
330
1F
100
AcDbEntity
  8
0-2
  6
Continuous
 62
     6
370
     5
100
AcDbLine
 10
21.45504115603256
 20
-248.1300583572714
 30
0.0
 11
-24.31885163324115
 21
-248.1300583572714
 31
0.0
  0
LINE
  5
20A
330
1F
100
AcDbEntity
  8
0-2
  6
Continuous
 62
     6
370
     5
100
AcDbLine
 10
-11.87856711043697
 20
-239.463107409742
 30
0.0
 11
-11.87856711043697
 21
-248.1300583572714
 31
0.0
  0
LINE
  5
20B
330
1F
100
AcDbEntity
  8
0-2
  6
Continuous
 62
     6
370
     5
100
AcDbLine
 10
28.12156485746822
 20
-239.463107409742
 30
0.0
 11
28.12156485746822
 21
-248.1300583572714
 31
0.0
  0
LINE
  5
20C
330
1F
100
AcDbEntity
  8
0-2
  6
Continuous
 62
     6
370
     5
100
AcDbLine
 10
9.718475488802873
 20
-234.9048947170688
 30
0.0
 11
6.525017137873697
 21
-234.9048947170688
 31
0.0
  0
LINE
  5
20D
330
1F
100
AcDbEntity
  8
0-2
  6
Continuous
 62
     6
370
     5
100
AcDbLine
 10
6.525017137873697
 20
-232.834689440992
 30
0.0
 11
6.525017137873697
 21
-234.9048947170688
 31
0.0
  0
LINE
  5
20E
330
1F
100
AcDbEntity
  8
0-2
  6
Continuous
 62
     6
370
     5
100
AcDbLine
 10
9.718475488802873
 20
-232.834689440992
 30
0.0
 11
9.718475488802873
 21
-234.9048947170688
 31
0.0
  0
LINE
  5
20F
330
1F
100
AcDbEntity
  8
0-2
  6
Continuous
 62
     6
370
     5
100
AcDbLine
 10
-1.878534118460671
 20
-254.7964583387959
 30
0.0
 11
18.12153186549192
 21
-254.7964583387959
 31
0.0
  0
LINE
  5
210
330
1F
100
AcDbEntity
  8
0-2
  6
Continuous
 62
     6
370
     5
100
AcDbLine
 10
15.22153714420835
 20
-254.7964583387959
 30
0.0
 11
18.72825431059322
 21
-248.5552836924701
 31
0.0
  0
LINE
  5
211
330
1F
100
AcDbEntity
  8
0-2
  6
Continuous
 62
     6
370
     5
100
AcDbLine
 10
18.12153186549192
 20
-254.7964583387959
 30
0.0
 11
16.65173931903933
 21
-252.2511686032597
 31
0.0
  0
LINE
  5
212
330
1F
100
AcDbEntity
  8
0-2
  6
Continuous
 62
     6
370
     5
100
AcDbLine
 10
-11.87856711043697
 20
-248.1300583572714
 30
0.0
 11
28.12156485746822
 21
-248.1300583572714
 31
0.0
  0
LINE
  5
213
330
1F
100
AcDbEntity
  8
0-2
  6
Continuous
 62
     6
370
     5
100
AcDbLine
 10
1.02146060282319
 20
-254.7964583387959
 30
0.0
 11
-2.485256563561968
 21
-248.5552836924701
 31
0.0
  0
LINE
  5
214
330
1F
100
AcDbEntity
  8
0-2
  6
Continuous
 62
     6
370
     5
100
AcDbLine
 10
-1.878534118460671
 20
-254.7964583387959
 30
0.0
 11
-0.4087415720080756
 21
-252.2511686032597
 31
0.0
  0
LINE
  5
215
330
1F
100
AcDbEntity
  8
0-2
  6
Continuous
 62
     6
370
     5
100
AcDbLine
 10
15.22153714420835
 20
-288.1300666052657
 30
0.0
 11
18.12153186549192
 21
-285.230195603893
 31
0.0
  0
LINE
  5
216
330
1F
100
AcDbEntity
  8
0-2
  6
Continuous
 62
     6
370
     5
100
AcDbLine
 10
1.02146060282319
 20
-288.1300666052657
 30
0.0
 11
-1.878534118460671
 21
-285.230195603893
 31
0.0
  0
LINE
  5
217
330
1F
100
AcDbEntity
  8
0-2
  6
Continuous
 62
     6
370
     5
100
AcDbLine
 10
1.02146060282319
 20
-254.7964583387959
 30
0.0
 11
1.02146060282319
 21
-288.1300666052657
 31
0.0
  0
LINE
  5
218
330
1F
100
AcDbEntity
  8
0-2
  6
Continuous
 62
     6
370
     5
100
AcDbLine
 10
15.22153714420835
 20
-254.7964583387959
 30
0.0
 11
15.22153714420835
 21
-288.1300666052657
 31
0.0
  0
LINE
  5
219
330
1F
100
AcDbEntity
  8
0-2
  6
Continuous
 62
     6
370
     5
100
AcDbLine
 10
1.02146060282319
 20
-288.1300666052657
 30
0.0
 11
15.22153714420835
 21
-288.1300666052657
 31
0.0
  0
LINE
  5
21A
330
1F
100
AcDbEntity
  8
0-2
  6
Continuous
 62
     6
370
     5
100
AcDbLine
 10
-1.878534118460671
 20
-285.230195603893
 30
0.0
 11
18.12153186549192
 21
-285.230195603893
 31
0.0
  0
LINE
  5
21B
330
1F
100
AcDbEntity
  8
0-2
  6
Continuous
 62
     6
370
     5
100
AcDbLine
 10
-1.878534118460671
 20
-254.7964583387959
 30
0.0
 11
-1.878534118460671
 21
-285.230195603893
 31
0.0
  0
LINE
  5
21C
330
1F
100
AcDbEntity
  8
0-2
  6
Continuous
 62
     6
370
     5
100
AcDbLine
 10
18.12153186549192
 20
-254.7964583387959
 30
0.0
 11
18.12153186549192
 21
-285.230195603893
 31
0.0
  0
LINE
  5
21D
330
1F
100
AcDbEntity
  8
0-2
  6
JWW_CENTER1
 62
     6
370
     5
100
AcDbLine
 10
8.12100399387031
 20
-227.980415000536
 30
0.0
 11
8.12100399387031
 21
-293.7359395069758
 31
0.0
  0
LINE
  5
21E
330
1F
100
AcDbEntity
  8
0-2
  6
Continuous
 62
     6
370
     5
100
AcDbLine
 10
24.78805556692787
 20
-251.4633202079894
 30
0.0
 11
17.09416172191094
 21
-251.4633202079894
 31
0.0
  0
LINE
  5
21F
330
1F
100
AcDbEntity
  8
0-2
  6
Continuous
 62
     6
370
     5
100
AcDbLine
 10
-0.8511639748796895
 20
-251.4633202079894
 30
0.0
 11
-11.87856711043697
 21
-251.4633202079894
 31
0.0
  0
LINE
  5
220
330
1F
100
AcDbEntity
  8
0-2
  6
Continuous
 62
     6
370
     5
100
AcDbLine
 10
-1.878534118460671
 20
-271.4633861919423
 30
0.0
 11
-245.2119691770544
 21
-271.4633861919423
 31
0.0
  0
LINE
  5
221
330
1F
100
AcDbEntity
  8
0-2
  6
Continuous
 62
     6
370
     5
100
AcDbLine
 10
19.78828651076224
 20
-271.4633861919423
 30
0.0
 11
18.12153186549192
 21
-271.4633861919423
 31
0.0
  0
LINE
  5
222
330
1F
100
AcDbEntity
  8
0-2
  6
Continuous
 62
     6
370
     5
100
AcDbLine
 10
-136.6110021822276
 20
-215.6633555094042
 30
0.0
 11
-162.192939405095
 21
150.1761748168205
 31
0.0
  0
LINE
  5
223
330
1F
100
AcDbEntity
  8
0-2
  6
Continuous
 62
     6
370
     5
100
AcDbLine
 10
-510.2121011449599
 20
-271.4633861919423
 30
0.0
 11
-453.5454124836422
 21
-271.4633861919423
 31
0.0
  0
LINE
  5
224
330
1F
100
AcDbEntity
  8
0-2
  6
Continuous
 62
     6
370
     5
100
AcDbLine
 10
-403.5452475237606
 20
-271.4633861919423
 30
0.0
 11
-245.2119691770544
 21
-271.4633861919423
 31
0.0
  0
LINE
  5
225
330
1F
100
AcDbEntity
  8
0-2
  6
Continuous
 62
     6
370
     5
100
AcDbLine
 10
-463.5453217557073
 20
-264.6985051610089
 30
0.0
 11
-441.8786248463955
 21
-258.8929483224321
 31
0.0
  0
LINE
  5
226
330
1F
100
AcDbEntity
  8
0-2
  6
Continuous
 62
     6
370
     5
100
AcDbLine
 10
-415.2120351610073
 20
-251.7477522841084
 30
0.0
 11
-355.2118372091489
 21
-235.6709684079472
 31
0.0
  0
LINE
  5
227
330
1F
100
AcDbEntity
  8
0-2
  6
Continuous
 62
     6
370
     5
100
AcDbLine
 10
-478.5453712436719
 20
-251.4633202079894
 30
0.0
 11
-441.8786248463955
 21
-241.6384746104389
 31
0.0
  0
LINE
  5
228
330
1F
100
AcDbEntity
  8
0-2
  6
Continuous
 62
     6
370
     5
100
AcDbLine
 10
-415.2120351610073
 20
-234.4932785721151
 30
0.0
 11
-377.8194240440307
 21
-224.4739452739735
 31
0.0
  0
LINE
  5
229
330
1F
100
AcDbEntity
  8
0-F
  6
Continuous
 62
     7
370
     9
100
AcDbLine
 10
-720.211927937084
 20
-271.4633861919423
 30
0.0
 11
-720.211927937084
 21
231.8700406186575
 31
0.0
  0
LINE
  5
22A
330
1F
100
AcDbEntity
  8
0-F
  6
Continuous
 62
     7
370
     9
100
AcDbLine
 10
-720.211927937084
 20
-271.4633861919423
 30
0.0
 11
-723.4750405980849
 21
-246.6772154386693
 31
0.0
  0
LINE
  5
22B
330
1F
100
AcDbEntity
  8
0-F
  6
Continuous
 62
     7
370
     9
100
AcDbLine
 10
-720.211927937084
 20
-271.4633861919423
 30
0.0
 11
-716.9488152760833
 21
-246.6772154386693
 31
0.0
  0
LINE
  5
22C
330
1F
100
AcDbEntity
  8
0-F
  6
Continuous
 62
     7
370
     9
100
AcDbLine
 10
-720.211927937084
 20
231.8700406186575
 30
0.0
 11
-723.4750405980849
 21
207.0838698653849
 31
0.0
  0
LINE
  5
22D
330
1F
100
AcDbEntity
  8
0-F
  6
Continuous
 62
     7
370
     9
100
AcDbLine
 10
-720.211927937084
 20
231.8700406186575
 30
0.0
 11
-716.9488152760833
 21
207.0838698653849
 31
0.0
  0
LINE
  5
22E
330
1F
100
AcDbEntity
  8
0-E
  6
Continuous
 62
     7
370
     9
100
AcDbLine
 10
-200.4785608419614
 20
226.484636598915
 30
0.0
 11
-197.2153244610495
 21
251.270807352188
 31
0.0
  0
LINE
  5
22F
330
1F
100
AcDbEntity
  8
0-E
  6
Continuous
 62
     7
370
     9
100
AcDbLine
 10
-200.4785608419614
 20
226.484636598915
 30
0.0
 11
-190.9113000997739
 21
249.5816594029692
 31
0.0
  0
LINE
  5
230
330
1F
100
AcDbEntity
  8
0-E
  6
Continuous
 62
     7
370
     9
100
AcDbLine
 10
-200.4785608419614
 20
226.484636598915
 30
0.0
 11
-97.2146233815518
 21
611.8700571146458
 31
0.0
  0
LINE
  5
231
330
1F
100
AcDbEntity
  8
0-E
  6
Continuous
 62
     7
370
     9
100
AcDbLine
 10
-97.2146233815518
 20
611.8700571146458
 30
0.0
 11
342.7284324672656
 21
611.8700571146458
 31
0.0
  0
ARC
  5
232
330
1F
100
AcDbEntity
  8
0-2
  6
Continuous
 62
     6
370
     5
100
AcDbCircle
 10
-510.2121011449599
 20
-266.4634934158652
 30
0.0
 40
5.000000064437453
100
AcDbArc
 50
180.0
 51
270.0
  0
ARC
  5
233
330
1F
100
AcDbEntity
  8
0-2
  6
Continuous
 62
     6
370
     5
100
AcDbCircle
 10
-268.3770379323331
 20
145.9908539368586
 30
0.0
 40
60.00000850574389
100
AcDbArc
 50
102.5430908203125
 51
175.9999847412109
  0
ARC
  5
234
330
1F
100
AcDbEntity
  8
0-2
  6
Continuous
 62
     6
370
     5
100
AcDbCircle
 10
-245.2119691770544
 20
41.87003237066351
 30
0.0
 40
166.6666804133235
100
AcDbArc
 50
90.0
 51
102.5430755615234
  0
ARC
  5
235
330
1F
100
AcDbEntity
  8
0-2
  6
Continuous
 62
     6
370
     5
100
AcDbCircle
 10
-245.2119691770544
 20
41.87003237066351
 30
0.0
 40
190.0000082479941
100
AcDbArc
 50
90.0
 51
102.5430755615234
  0
ARC
  5
236
330
1F
100
AcDbEntity
  8
0-2
  6
Continuous
 62
     6
370
     5
100
AcDbCircle
 10
-268.3770379323331
 20
145.9908539368586
 30
0.0
 40
83.33334020666175
100
AcDbArc
 50
102.5430908203125
 51
175.9999847412109
  0
ARC
  5
237
330
1F
100
AcDbEntity
  8
0-2
  6
Continuous
 62
     6
370
     5
100
AcDbCircle
 10
-321.456591484909
 20
55.9118711454734
 30
0.0
 40
6.666666752583272
100
AcDbArc
 50
356.0001831054688
 51
75.75796508789062
  0
ARC
  5
238
330
1F
100
AcDbEntity
  8
0-2
  6
Continuous
 62
     6
370
     5
100
AcDbCircle
 10
-322.593330030095
 20
39.65371387932056
 30
0.0
 40
6.666666752583272
100
AcDbArc
 50
283.7721710205078
 51
355.9997863769531
  0
ARC
  5
239
330
1F
100
AcDbEntity
  8
0-2
  6
Continuous
 62
     6
370
     5
100
AcDbCircle
 10
-354.512077390737
 20
-220.6636194452149
 30
0.0
 40
5.000000064437453
100
AcDbArc
 50
90.0
 51
270.0
  0
ARC
  5
23A
330
1F
100
AcDbEntity
  8
0-2
  6
Continuous
 62
     6
370
     5
100
AcDbCircle
 10
19.78828651076224
 20
-266.4634934158652
 30
0.0
 40
5.000000064437453
100
AcDbArc
 50
270.0
 51
0.0
  0
ARC
  5
23B
330
1F
100
AcDbEntity
  8
0-2
  6
Continuous
 62
     6
370
     5
100
AcDbCircle
 10
-222.0466529819531
 20
145.9908539368586
 30
0.0
 40
60.00000850574389
100
AcDbArc
 50
4.000015258789078
 51
77.45690917968751
  0
ARC
  5
23C
330
1F
100
AcDbEntity
  8
0-2
  6
Continuous
 62
     6
370
     5
100
AcDbCircle
 10
-245.2119691770544
 20
41.87003237066351
 30
0.0
 40
166.6666804133235
100
AcDbArc
 50
77.45692443847658
 51
90.00000000000001
  0
ARC
  5
23D
330
1F
100
AcDbEntity
  8
0-2
  6
Continuous
 62
     6
370
     5
100
AcDbCircle
 10
-245.2119691770544
 20
41.87003237066351
 30
0.0
 40
190.0000082479941
100
AcDbArc
 50
77.45692443847658
 51
90.00000000000001
  0
ARC
  5
23E
330
1F
100
AcDbEntity
  8
0-2
  6
Continuous
 62
     6
370
     5
100
AcDbCircle
 10
-222.0466529819531
 20
145.9908539368586
 30
0.0
 40
83.33334020666175
100
AcDbArc
 50
4.000015258789078
 51
77.45690917968751
  0
ARC
  5
23F
330
1F
100
AcDbEntity
  8
0-2
  6
Continuous
 62
     6
370
     5
100
AcDbCircle
 10
-168.9675943090224
 20
55.9118711454734
 30
0.0
 40
6.666666752583272
100
AcDbArc
 50
104.2420349121094
 51
183.9998168945312
  0
ARC
  5
240
330
1F
100
AcDbEntity
  8
0-2
  6
Continuous
 62
     6
370
     5
100
AcDbCircle
 10
-167.8303608841914
 20
39.65371387932056
 30
0.0
 40
6.666666752583272
100
AcDbArc
 50
184.0002136230469
 51
256.2278289794922
  0
ARC
  5
241
330
1F
100
AcDbEntity
  8
0-2
  6
Continuous
 62
     6
370
     5
100
AcDbCircle
 10
-135.9117372434607
 20
-220.6636194452149
 30
0.0
 40
5.000000064437453
100
AcDbArc
 50
270.0
 51
90.0
  0
ARC
  5
242
330
1F
100
AcDbEntity
  8
0-2
  6
Continuous
 62
     6
370
     5
100
AcDbCircle
 10
8.121498873515627
 20
-266.1300682548643
 30
0.0
 40
33.33333762916359
100
AcDbArc
 50
92.74569702148438
 51
126.869873046875
  0
ARC
  5
243
330
1F
100
AcDbEntity
  8
0-2
  6
Continuous
 62
     6
370
     5
100
AcDbCircle
 10
8.121498873515627
 20
-266.1300682548643
 30
0.0
 40
33.33333762916359
100
AcDbArc
 50
53.130126953125
 51
87.25408935546875
  0
ARC
  5
244
330
1F
100
AcDbEntity
  8
0-2
  6
Continuous
 62
     6
370
     5
100
AcDbCircle
 10
19.45473762984999
 20
-248.9634356799066
 30
0.0
 40
0.833333344072909
100
AcDbArc
 50
90.0
 51
150.6708221435547
  0
ARC
  5
245
330
1F
100
AcDbEntity
  8
0-2
  6
Continuous
 62
     6
370
     5
100
AcDbCircle
 10
-3.212234762464057
 20
-248.9634356799066
 30
0.0
 40
0.833333344072909
100
AcDbArc
 50
29.32917785644531
 51
90.0
  0
TEXT
  5
246
330
1F
100
AcDbEntity
  8
0-E
  6
Continuous
 62
     7
370
     0
100
AcDbText
 10
-2.459984709677094
 20
580.5691832231763
 30
0.0
 40
22.86
  1
樹脂系塗装
 41
1.133333333333333
  7
ＭＳ ゴシック
100
AcDbText
  0
TEXT
  5
247
330
1F
100
AcDbEntity
  8
0-F
  6
Continuous
 62
     2
370
     0
100
AcDbText
 10
-735.8519609290604
 20
-52.29667278664232
 30
0.0
 40
30.48
  1
151
 50
90.0
 41
1.083333333333333
  7
ＭＳ ゴシック
100
AcDbText
  0
TEXT
  5
248
330
1F
100
AcDbEntity
  8
0-E
  6
Continuous
 62
     7
370
     0
100
AcDbText
 10
-87.71979652344402
 20
624.6688981725005
 30
0.0
 40
22.86
  1
ストレーナー：ＦＣ１５０
 41
1.152777777777778
  7
ＭＳ ゴシック
100
AcDbText
  0
LINE
  5
249
330
1F
100
AcDbEntity
  8
0-F
  6
Continuous
 62
     7
370
     9
100
AcDbLine
 10
-535.2119361850781
 20
-271.4633861919423
 30
0.0
 11
-723.2118883467125
 21
-271.4633861919423
 31
0.0
  0
LINE
  5
24A
330
1F
100
AcDbEntity
  8
0-F
  6
Continuous
 62
     7
370
     9
100
AcDbLine
 10
-308.5451815398078
 20
231.8700406186575
 30
0.0
 11
-723.2118883467125
 21
231.8700406186575
 31
0.0
  0
LINE
  5
24B
330
1F
100
AcDbEntity
  8
0-4
  6
Continuous
 62
     7
370
     9
100
AcDbLine
 10
309.7880060789633
 20
-264.3180664337074
 30
0.0
 11
309.7880060789633
 21
231.8700406186576
 31
0.0
  0
LINE
  5
24C
330
1F
100
AcDbEntity
  8
0-4
  6
Continuous
 62
     7
370
     9
100
AcDbLine
 10
309.7880060789633
 20
-264.3180664337074
 30
0.0
 11
306.524851273462
 21
-239.5319448993621
 31
0.0
  0
LINE
  5
24D
330
1F
100
AcDbEntity
  8
0-4
  6
Continuous
 62
     7
370
     9
100
AcDbLine
 10
309.7880060789633
 20
-264.3180664337074
 30
0.0
 11
313.0511608844646
 21
-239.5319448993621
 31
0.0
  0
LINE
  5
24E
330
1F
100
AcDbEntity
  8
0-4
  6
Continuous
 62
     7
370
     9
100
AcDbLine
 10
309.7880060789633
 20
231.8700406186576
 30
0.0
 11
306.524851273462
 21
207.0839190843123
 31
0.0
  0
LINE
  5
24F
330
1F
100
AcDbEntity
  8
0-4
  6
Continuous
 62
     7
370
     9
100
AcDbLine
 10
309.7880060789633
 20
231.8700406186576
 30
0.0
 11
313.0511608844646
 21
207.0839190843123
 31
0.0
  0
LINE
  5
250
330
1F
100
AcDbEntity
  8
0-4
  6
Continuous
 62
     7
370
     9
100
AcDbLine
 10
312.7880061981726
 20
231.8700406186576
 30
0.0
 11
-215.2119691770544
 21
231.8700406186576
 31
0.0
  0
TEXT
  5
251
330
1F
100
AcDbEntity
  8
0-4
  6
Continuous
 62
     2
370
     0
100
AcDbText
 10
294.1480060789633
 20
-71.2240129075249
 30
0.0
 40
30.48
  1
149
 50
90.0
 41
1.083333333333333
  7
ＭＳ ゴシック
100
AcDbText
  0
LINE
  5
252
330
1F
100
AcDbEntity
  8
0-E
  6
Continuous
 62
     7
370
     9
100
AcDbLine
 10
16.74885944942371
 20
-233.932579934024
 30
0.0
 11
20.01209583033596
 21
-209.1464091807514
 31
0.0
  0
LINE
  5
253
330
1F
100
AcDbEntity
  8
0-E
  6
Continuous
 62
     7
370
     9
100
AcDbLine
 10
16.74885944942371
 20
-233.932579934024
 30
0.0
 11
26.31587275178855
 21
-210.8355571299701
 31
0.0
  0
LINE
  5
254
330
1F
100
AcDbEntity
  8
0-E
  6
Continuous
 62
     7
370
     9
100
AcDbLine
 10
16.74885944942371
 20
-233.932579934024
 30
0.0
 11
211.22715732738
 21
491.8701560905747
 31
0.0
  0
LINE
  5
255
330
1F
100
AcDbEntity
  8
0-E
  6
Continuous
 62
     7
370
     9
100
AcDbLine
 10
41.45473598025131
 20
-251.463567647812
 30
0.0
 11
44.71797236116355
 21
-226.6773968945394
 31
0.0
  0
LINE
  5
256
330
1F
100
AcDbEntity
  8
0-E
  6
Continuous
 62
     7
370
     9
100
AcDbLine
 10
41.45473598025131
 20
-251.463567647812
 30
0.0
 11
51.02174928261643
 21
-228.3665448437581
 31
0.0
  0
LINE
  5
257
330
1F
100
AcDbEntity
  8
0-E
  6
Continuous
 62
     7
370
     9
100
AcDbLine
 10
41.45473598025131
 20
-251.463567647812
 30
0.0
 11
208.4766162589677
 21
371.8700076266812
 31
0.0
  0
LINE
  5
258
330
1F
100
AcDbEntity
  8
0-E
  6
Continuous
 62
     7
370
     9
100
AcDbLine
 10
208.4766162589677
 20
371.8700076266812
 30
0.0
 11
599.0275905120295
 21
371.8700076266812
 31
0.0
  0
TEXT
  5
259
330
1F
100
AcDbEntity
  8
0-E
  6
Continuous
 62
     7
370
     0
100
AcDbText
 10
296.2637206851712
 20
337.4393911386109
 30
0.0
 40
22.86
  1
樹脂系塗装
 41
1.133333333333334
  7
ＭＳ ゴシック
100
AcDbText
  0
TEXT
  5
25A
330
1F
100
AcDbEntity
  8
0-E
  6
Continuous
 62
     7
370
     0
100
AcDbText
 10
216.9034969665797
 20
384.0665801562419
 30
0.0
 40
22.86
  1
防水層押え：ＦＣ１５０
 41
1.151515151515152
  7
ＭＳ ゴシック
100
AcDbText
  0
LINE
  5
25B
330
1F
100
AcDbEntity
  8
0-E
  6
Continuous
 62
     7
370
     9
100
AcDbLine
 10
211.22715732738
 20
491.8701560905747
 30
0.0
 11
567.7863333857629
 21
491.8701560905747
 31
0.0
  0
TEXT
  5
25C
330
1F
100
AcDbEntity
  8
0-E
  6
Continuous
 62
     7
370
     0
100
AcDbText
 10
224.0292127597924
 20
507.8858385625929
 30
0.0
 40
22.86
  1
丸小ネジ：Ｃ２７００
 50
359.9999794532515
 41
1.15
  7
ＭＳ ゴシック
100
AcDbText
  0
TEXT
  5
25D
330
1F
100
AcDbEntity
  8
0-E
  6
Continuous
 62
     7
370
     0
100
AcDbText
 10
308.1734942282459
 20
458.2622770127666
 30
0.0
 40
22.86
  1
Ｍ６×１２
 41
1.133333333333334
  7
ＭＳ ゴシック
100
AcDbText
  0
LINE
  5
25E
330
1F
100
AcDbEntity
  8
0-E
  6
Continuous
 62
     7
370
     9
100
AcDbLine
 10
-428.5450825638792
 20
-195.9854349375104
 30
0.0
 11
-443.7641162948757
 21
-176.1516485143687
 31
0.0
  0
LINE
  5
25F
330
1F
100
AcDbEntity
  8
0-E
  6
Continuous
 62
     7
370
     9
100
AcDbLine
 10
-428.5450825638792
 20
-195.9854349375104
 30
0.0
 11
-438.1123433060667
 21
-172.8884121334564
 31
0.0
  0
LINE
  5
260
330
1F
100
AcDbEntity
  8
0-E
  6
Continuous
 62
     7
370
     9
100
AcDbLine
 10
-428.5450825638792
 20
-195.9854349375104
 30
0.0
 11
-733.3021131540396
 21
331.869278296231
 31
0.0
  0
LINE
  5
261
330
1F
100
AcDbEntity
  8
0-E
  6
Continuous
 62
     7
370
     9
100
AcDbLine
 10
-733.3021131540396
 20
331.869278296231
 30
0.0
 11
-1047.91863091692
 21
331.869278296231
 31
0.0
  0
TEXT
  5
262
330
1F
100
AcDbEntity
  8
0-E
  6
Continuous
 62
     7
370
     0
100
AcDbText
 10
-1047.918614420931
 20
349.7181186942461
 30
0.0
 40
22.86
  1
ボルト：Ｃ３６０２
 41
1.148148148148148
  7
ＭＳ ゴシック
100
AcDbText
  0
TEXT
  5
263
330
1F
100
AcDbEntity
  8
0-E
  6
Continuous
 62
     7
370
     0
100
AcDbText
 10
-978.4204811627251
 20
296.4364068065971
 30
0.0
 40
22.86
  1
Ｍ８×４０
 50
359.9999583021696
 41
1.133333333333333
  7
ＭＳ ゴシック
100
AcDbText
  0
LINE
  5
264
330
1F
100
AcDbEntity
  8
0-F
  6
Continuous
 62
     7
370
     9
100
AcDbLine
 10
-515.2118702011255
 20
341.8699498907226
 30
0.0
 11
24.7879318470164
 21
341.8699498907226
 31
0.0
  0
LINE
  5
265
330
1F
100
AcDbEntity
  8
0-F
  6
Continuous
 62
     7
370
     9
100
AcDbLine
 10
-515.2118702011255
 20
-243.130289301106
 30
0.0
 11
-515.2118702011255
 21
344.869910300351
 31
0.0
  0
LINE
  5
266
330
1F
100
AcDbEntity
  8
0-F
  6
Continuous
 62
     7
370
     9
100
AcDbLine
 10
24.7879318470164
 20
-243.130289301106
 30
0.0
 11
24.7879318470164
 21
344.869910300351
 31
0.0
  0
LINE
  5
267
330
1F
100
AcDbEntity
  8
0-F
  6
Continuous
 62
     7
370
     9
100
AcDbLine
 10
-515.2118702011255
 20
341.8699498907226
 30
0.0
 11
-490.4258231677641
 21
345.1330625517234
 31
0.0
  0
LINE
  5
268
330
1F
100
AcDbEntity
  8
0-F
  6
Continuous
 62
     7
370
     9
100
AcDbLine
 10
-515.2118702011255
 20
341.8699498907226
 30
0.0
 11
-490.4258231677641
 21
338.6068372297216
 31
0.0
  0
LINE
  5
269
330
1F
100
AcDbEntity
  8
0-F
  6
Continuous
 62
     7
370
     9
100
AcDbLine
 10
24.7879318470164
 20
341.8699498907226
 30
0.0
 11
0.0018848136549465
 21
345.1330625517234
 31
0.0
  0
LINE
  5
26A
330
1F
100
AcDbEntity
  8
0-F
  6
Continuous
 62
     7
370
     9
100
AcDbLine
 10
24.7879318470164
 20
341.8699498907226
 30
0.0
 11
0.0018848136549465
 21
338.6068372297216
 31
0.0
  0
LINE
  5
26B
330
1F
100
AcDbEntity
  8
0-F
  6
Continuous
 62
     7
370
     9
100
AcDbLine
 10
-586.8786083504075
 20
421.8700901066221
 30
0.0
 11
96.45466999629872
 21
421.8700901066221
 31
0.0
  0
LINE
  5
26C
330
1F
100
AcDbEntity
  8
0-F
  6
Continuous
 62
     7
370
     9
100
AcDbLine
 10
-586.8786083504075
 20
-241.4634109359245
 30
0.0
 11
-586.8786083504075
 21
424.8700505162504
 31
0.0
  0
LINE
  5
26D
330
1F
100
AcDbEntity
  8
0-F
  6
Continuous
 62
     7
370
     9
100
AcDbLine
 10
96.45466999629872
 20
-241.4634109359245
 30
0.0
 11
96.45466999629872
 21
424.8700505162504
 31
0.0
  0
LINE
  5
26E
330
1F
100
AcDbEntity
  8
0-F
  6
Continuous
 62
     7
370
     9
100
AcDbLine
 10
-586.8786083504075
 20
421.8700901066221
 30
0.0
 11
-562.0924375971347
 21
425.1332027676228
 31
0.0
  0
LINE
  5
26F
330
1F
100
AcDbEntity
  8
0-F
  6
Continuous
 62
     7
370
     9
100
AcDbLine
 10
-586.8786083504075
 20
421.8700901066221
 30
0.0
 11
-562.0924375971347
 21
418.6069774456211
 31
0.0
  0
LINE
  5
270
330
1F
100
AcDbEntity
  8
0-F
  6
Continuous
 62
     7
370
     9
100
AcDbLine
 10
96.45466999629872
 20
421.8700901066221
 30
0.0
 11
71.66862296293698
 21
425.1332027676228
 31
0.0
  0
LINE
  5
271
330
1F
100
AcDbEntity
  8
0-F
  6
Continuous
 62
     7
370
     9
100
AcDbLine
 10
96.45466999629872
 20
421.8700901066221
 30
0.0
 11
71.66862296293698
 21
418.6069774456211
 31
0.0
  0
LINE
  5
272
330
1F
100
AcDbEntity
  8
0-F
  6
Continuous
 62
     7
370
     9
100
AcDbLine
 10
-620.2119691770545
 20
501.8702303225216
 30
0.0
 11
129.7880308229456
 21
501.8702303225216
 31
0.0
  0
LINE
  5
273
330
1F
100
AcDbEntity
  8
0-F
  6
Continuous
 62
     7
370
     9
100
AcDbLine
 10
-620.2119691770545
 20
-260.9848045829893
 30
0.0
 11
-620.2119691770545
 21
504.8699432923274
 31
0.0
  0
LINE
  5
274
330
1F
100
AcDbEntity
  8
0-F
  6
Continuous
 62
     7
370
     9
100
AcDbLine
 10
129.7880308229456
 20
-260.9848045829893
 30
0.0
 11
129.7880308229456
 21
504.8699432923274
 31
0.0
  0
LINE
  5
275
330
1F
100
AcDbEntity
  8
0-F
  6
Continuous
 62
     7
370
     9
100
AcDbLine
 10
-620.2119691770545
 20
501.8702303225216
 30
0.0
 11
-595.4257984237815
 21
505.133219263611
 31
0.0
  0
LINE
  5
276
330
1F
100
AcDbEntity
  8
0-F
  6
Continuous
 62
     7
370
     9
100
AcDbLine
 10
-620.2119691770545
 20
501.8702303225216
 30
0.0
 11
-595.4257984237815
 21
498.6069939416094
 31
0.0
  0
LINE
  5
277
330
1F
100
AcDbEntity
  8
0-F
  6
Continuous
 62
     7
370
     9
100
AcDbLine
 10
129.7880308229456
 20
501.8702303225216
 30
0.0
 11
105.0019837895841
 21
505.133219263611
 31
0.0
  0
LINE
  5
278
330
1F
100
AcDbEntity
  8
0-F
  6
Continuous
 62
     7
370
     9
100
AcDbLine
 10
129.7880308229456
 20
501.8702303225216
 30
0.0
 11
105.0019837895841
 21
498.6069939416094
 31
0.0
  0
TEXT
  5
279
330
1F
100
AcDbEntity
  8
0-F
  6
Continuous
 62
     2
370
     0
100
AcDbText
 10
-300.2119073170988
 20
357.5099828826989
 30
0.0
 40
30.48
  1
φ162
 41
1.1
  7
ＭＳ ゴシック
100
AcDbText
  0
TEXT
  5
27A
330
1F
100
AcDbEntity
  8
0-F
  6
Continuous
 62
     2
370
     0
100
AcDbText
 10
-300.2119073170988
 20
437.5099993786869
 30
0.0
 40
30.48
  1
φ205
 41
1.1
  7
ＭＳ ゴシック
100
AcDbText
  0
TEXT
  5
27B
330
1F
100
AcDbEntity
  8
0-F
  6
Continuous
 62
     2
370
     0
100
AcDbText
 10
-300.2119073170988
 20
517.5100158746753
 30
0.0
 40
30.48
  1
φ225
 41
1.1
  7
ＭＳ ゴシック
100
AcDbText
  0
TEXT
  5
27C
330
1F
100
AcDbEntity
  8
0-4
  6
Continuous
 62
     2
370
     0
100
AcDbText
 10
294.147973086987
 20
-463.4847468470309
 30
0.0
 40
30.48
  1
100
 50
90.0
 41
1.083333333333333
  7
ＭＳ ゴシック
100
AcDbText
  0
LINE
  5
27D
330
1F
100
AcDbEntity
  8
0-1
  6
Continuous
 62
     4
370
     9
100
AcDbLine
 10
-163.8634056477047
 20
1010.690758919967
 30
0.0
 11
-144.8936790852047
 21
1021.642940349443
 31
0.0
  0
LINE
  5
27E
330
1F
100
AcDbEntity
  8
0-1
  6
Continuous
 62
     4
370
     9
100
AcDbLine
 10
-162.196898442257
 20
1007.804125949105
 30
0.0
 11
-143.227171879757
 21
1018.756307378582
 31
0.0
  0
LINE
  5
27F
330
1F
100
AcDbEntity
  8
0-1
  6
JWW_CENTER1
 62
     4
370
     9
100
AcDbLine
 10
-136.0406533910536
 20
1045.042334616757
 30
0.0
 11
-171.0545017731271
 21
984.3968136074666
 31
0.0
  0
LINE
  5
280
330
1F
100
AcDbEntity
  8
0-1
  6
Continuous
 62
     4
370
     9
100
AcDbLine
 10
-425.2119444330721
 20
855.9522863165039
 30
0.0
 11
-437.1966922424049
 21
862.8716935166728
 31
0.0
  0
LINE
  5
281
330
1F
100
AcDbEntity
  8
0-1
  6
Continuous
 62
     4
370
     9
100
AcDbLine
 10
-431.8783444145965
 20
855.9522863165039
 30
0.0
 11
-438.8633231677637
 21
859.9850605458114
 31
0.0
  0
LINE
  5
282
330
1F
100
AcDbEntity
  8
0-2
  6
Continuous
 62
     6
370
     5
100
AcDbLine
 10
-374.8630130431861
 20
1035.624774967264
 30
0.0
 11
-329.5446569673838
 21
972.8220735842403
 31
0.0
  0
LINE
  5
283
330
1F
100
AcDbEntity
  8
0-2
  6
Continuous
 62
     6
370
     5
100
AcDbLine
 10
-335.9872476293349
 20
1058.069546398852
 30
0.0
 11
-304.2575442931862
 21
987.4215179993586
 31
0.0
  0
LINE
  5
284
330
1F
100
AcDbEntity
  8
0-2
  6
Continuous
 62
     6
370
     5
100
AcDbLine
 10
-401.9514876261677
 20
1012.5549705437
 30
0.0
 11
-347.164599297409
 21
957.8158381007098
 31
0.0
  0
LINE
  5
285
330
1F
100
AcDbEntity
  8
0-2
  6
Continuous
 62
     6
370
     5
100
AcDbLine
 10
-426.6530339600992
 20
983.1170548447978
 30
0.0
 11
-363.2318567403989
 21
938.6674599862674
 31
0.0
  0
LINE
  5
286
330
1F
100
AcDbEntity
  8
0-2
  6
Continuous
 62
     6
370
     5
100
AcDbLine
 10
-263.7165088730005
 20
1076.744819572416
 30
0.0
 11
-257.248431909318
 21
999.5688337721627
 31
0.0
  0
LINE
  5
287
330
1F
100
AcDbEntity
  8
0-2
  6
Continuous
 62
     6
370
     5
100
AcDbLine
 10
-301.5881634865984
 20
1070.226264884916
 30
0.0
 11
-281.8825508915815
 21
995.3287049714869
 31
0.0
  0
LINE
  5
288
330
1F
100
AcDbEntity
  8
0-2
  6
Continuous
 62
     6
370
     5
100
AcDbLine
 10
-460.9567300512099
 20
906.40922518897
 30
0.0
 11
-385.544990186345
 21
888.7722095111831
 31
0.0
  0
LINE
  5
289
330
1F
100
AcDbEntity
  8
0-2
  6
Continuous
 62
     6
370
     5
100
AcDbLine
 10
-446.3586465551161
 20
948.8590114009633
 30
0.0
 11
-376.0497344325443
 21
916.3845141986831
 31
0.0
  0
LINE
  5
28A
330
1F
100
AcDbEntity
  8
0-2
  6
Continuous
 62
     6
370
     5
100
AcDbLine
 10
-388.5904795233382
 20
870.5517307316221
 30
0.0
 11
-444.117707801421
 21
876.2057306788348
 31
0.0
  0
LINE
  5
28B
330
1F
100
AcDbEntity
  8
0-2
  6
Continuous
 62
     6
370
     5
100
AcDbLine
 10
-388.0839702064042
 20
875.5262609258789
 30
0.0
 11
-443.611198484487
 21
881.1802608730916
 31
0.0
  0
LINE
  5
28C
330
1F
100
AcDbEntity
  8
0-2
  6
Continuous
 62
     6
370
     5
100
AcDbLine
 10
-444.2620889379286
 20
953.3980475073822
 30
0.0
 11
-373.9531768153568
 21
920.9235503051018
 31
0.0
  0
LINE
  5
28D
330
1F
100
AcDbEntity
  8
0-2
  6
Continuous
 62
     6
370
     5
100
AcDbLine
 10
-462.0954481149768
 20
901.5405992388013
 30
0.0
 11
-386.683708250112
 21
883.903583561014
 31
0.0
  0
LINE
  5
28E
330
1F
100
AcDbEntity
  8
0-2
  6
Continuous
 62
     6
370
     5
100
AcDbLine
 10
-398.41730463947
 20
1016.091875368447
 30
0.0
 11
-343.630663750534
 21
961.3532378051018
 31
0.0
  0
LINE
  5
28F
330
1F
100
AcDbEntity
  8
0-2
  6
Continuous
 62
     6
370
     5
100
AcDbLine
 10
-429.522593583199
 20
979.0224206598317
 30
0.0
 11
-366.1016638033213
 21
934.5733206809466
 31
0.0
  0
LINE
  5
290
330
1F
100
AcDbEntity
  8
0-2
  6
Continuous
 62
     6
370
     5
100
AcDbLine
 10
-331.4261893787012
 20
1060.118348130271
 30
0.0
 11
-299.6964860425529
 21
989.4698248511322
 31
0.0
  0
LINE
  5
291
330
1F
100
AcDbEntity
  8
0-2
  6
Continuous
 62
     6
370
     5
100
AcDbLine
 10
-378.9176856967969
 20
1032.699046504426
 30
0.0
 11
-333.599205901083
 21
969.8963451214025
 31
0.0
  0
LINE
  5
292
330
1F
100
AcDbEntity
  8
0-2
  6
Continuous
 62
     6
370
     5
100
AcDbLine
 10
-306.4236325005341
 20
1068.953929316926
 30
0.0
 11
-286.7180199055172
 21
994.0568642831424
 31
0.0
  0
LINE
  5
293
330
1F
100
AcDbEntity
  8
0-2
  6
Continuous
 62
     6
370
     5
100
AcDbLine
 10
-258.7338131645966
 20
1077.162003113379
 30
0.0
 11
-252.2657362009143
 21
999.9865121927708
 31
0.0
  0
LINE
  5
294
330
1F
100
AcDbEntity
  8
0-2
  6
Continuous
 62
     6
370
     5
100
AcDbLine
 10
-115.5605541511888
 20
1035.624774967264
 30
0.0
 11
-160.8790339469023
 21
972.8220735842403
 31
0.0
  0
LINE
  5
295
330
1F
100
AcDbEntity
  8
0-2
  6
Continuous
 62
     6
370
     5
100
AcDbLine
 10
-154.4364432849513
 20
1058.069546398852
 30
0.0
 11
-186.1663940609226
 21
987.4215179993586
 31
0.0
  0
LINE
  5
296
330
1F
100
AcDbEntity
  8
0-2
  6
Continuous
 62
     6
370
     5
100
AcDbLine
 10
-88.47232700802994
 20
1012.5549705437
 30
0.0
 11
-143.2593390566997
 21
957.8158381007098
 31
0.0
  0
LINE
  5
297
330
1F
100
AcDbEntity
  8
0-2
  6
Continuous
 62
     6
370
     5
100
AcDbLine
 10
-63.77090439400963
 20
983.1170548447978
 30
0.0
 11
-127.1922053336211
 21
938.6674599862674
 31
0.0
  0
LINE
  5
298
330
1F
100
AcDbEntity
  8
0-2
  6
Continuous
 62
     6
370
     5
100
AcDbLine
 10
-226.7074294811086
 20
1076.744819572416
 30
0.0
 11
-233.1755064447909
 21
999.5688337721627
 31
0.0
  0
LINE
  5
299
330
1F
100
AcDbEntity
  8
0-2
  6
Continuous
 62
     6
370
     5
100
AcDbLine
 10
-188.8355274276877
 20
1070.226264884916
 30
0.0
 11
-208.5413874625273
 21
995.3287049714869
 31
0.0
  0
LINE
  5
29A
330
1F
100
AcDbEntity
  8
0-2
  6
Continuous
 62
     6
370
     5
100
AcDbLine
 10
-29.46733202281042
 20
906.40922518897
 30
0.0
 11
-104.8790718876753
 21
888.7722095111831
 31
0.0
  0
LINE
  5
29B
330
1F
100
AcDbEntity
  8
0-2
  6
Continuous
 62
     6
370
     5
100
AcDbLine
 10
-44.0652917989927
 20
948.8590114009633
 30
0.0
 11
-114.3743276414758
 21
916.3845141986831
 31
0.0
  0
LINE
  5
29C
330
1F
100
AcDbEntity
  8
0-2
  6
Continuous
 62
     6
370
     5
100
AcDbLine
 10
-101.833582550682
 20
870.5517307316221
 30
0.0
 11
-46.30610683277656
 21
876.2057306788348
 31
0.0
  0
LINE
  5
29D
330
1F
100
AcDbEntity
  8
0-2
  6
Continuous
 62
     6
370
     5
100
AcDbLine
 10
-102.3398444277935
 20
875.5262609258789
 30
0.0
 11
-46.81286358953333
 21
881.1802608730916
 31
0.0
  0
LINE
  5
29E
330
1F
100
AcDbEntity
  8
0-2
  6
Continuous
 62
     6
370
     5
100
AcDbLine
 10
-46.16209685600285
 20
953.3980475073822
 30
0.0
 11
-116.4706378188409
 21
920.9235503051018
 31
0.0
  0
LINE
  5
29F
330
1F
100
AcDbEntity
  8
0-2
  6
Continuous
 62
     6
370
     5
100
AcDbLine
 10
-28.32861395904349
 20
901.5405992388013
 30
0.0
 11
-103.7403538239083
 21
883.903583561014
 31
0.0
  0
LINE
  5
2A0
330
1F
100
AcDbEntity
  8
0-2
  6
Continuous
 62
     6
370
     5
100
AcDbLine
 10
-92.00675743455025
 20
1016.091875368447
 30
0.0
 11
-146.7932746035747
 21
961.3532378051018
 31
0.0
  0
LINE
  5
2A1
330
1F
100
AcDbEntity
  8
0-2
  6
Continuous
 62
     6
370
     5
100
AcDbLine
 10
-60.90159221073254
 20
979.0224206598317
 30
0.0
 11
-124.322398270699
 21
934.5733206809466
 31
0.0
  0
LINE
  5
2A2
330
1F
100
AcDbEntity
  8
0-2
  6
Continuous
 62
     6
370
     5
100
AcDbLine
 10
-158.9975015355849
 20
1060.118348130271
 30
0.0
 11
-190.7274523115562
 21
989.4698248511322
 31
0.0
  0
LINE
  5
2A3
330
1F
100
AcDbEntity
  8
0-2
  6
Continuous
 62
     6
370
     5
100
AcDbLine
 10
-111.5065000971346
 20
1032.699046504426
 30
0.0
 11
-156.8244850132031
 21
969.8963451214025
 31
0.0
  0
LINE
  5
2A4
330
1F
100
AcDbEntity
  8
0-2
  6
Continuous
 62
     6
370
     5
100
AcDbLine
 10
-184.0000584137521
 20
1068.953929316926
 30
0.0
 11
-203.7059184485917
 21
994.0568642831424
 31
0.0
  0
LINE
  5
2A5
330
1F
100
AcDbEntity
  8
0-2
  6
Continuous
 62
     6
370
     5
100
AcDbLine
 10
-231.6898777496896
 20
1077.162003113379
 30
0.0
 11
-238.1579547133721
 21
999.9865121927708
 31
0.0
  0
LINE
  5
2A6
330
1F
100
AcDbEntity
  8
0-2
  6
Continuous
 62
     6
370
     5
100
AcDbLine
 10
-340.5079731888786
 20
910.8948142936999
 30
0.0
 11
-310.5600840155258
 21
893.62846347022
 31
0.0
  0
LINE
  5
2A7
330
1F
100
AcDbEntity
  8
0-2
  6
Continuous
 62
     6
370
     5
100
AcDbLine
 10
-353.5289989754075
 20
875.1189749778216
 30
0.0
 11
-319.4894448949599
 21
869.0957948152369
 31
0.0
  0
LINE
  5
2A8
330
1F
100
AcDbEntity
  8
0-2
  6
Continuous
 62
     6
370
     5
100
AcDbLine
 10
-245.1454078647656
 20
965.9521543485984
 30
0.0
 11
-245.1664402496896
 21
931.3838213671796
 31
0.0
  0
LINE
  5
2A9
330
1F
100
AcDbEntity
  8
0-2
  6
Continuous
 62
     6
370
     5
100
AcDbLine
 10
-315.8676682110495
 20
940.2599826847471
 30
0.0
 11
-293.663408287063
 21
913.7656111159127
 31
0.0
  0
LINE
  5
2AA
330
1F
100
AcDbEntity
  8
0-2
  6
Continuous
 62
     6
370
     5
100
AcDbLine
 10
-282.8965592847404
 20
959.2960231197133
 30
0.0
 11
-271.0538419336
 21
926.8190515192067
 31
0.0
  0
LINE
  5
2AB
330
1F
100
AcDbEntity
  8
0-2
  6
Continuous
 62
     6
370
     5
100
AcDbLine
 10
-207.6520887399768
 20
959.3410571674331
 30
0.0
 11
-219.4557105991406
 21
926.8502289368586
 31
0.0
  0
LINE
  5
2AC
330
1F
100
AcDbEntity
  8
0-2
  6
Continuous
 62
     6
370
     5
100
AcDbLine
 10
-174.4543249361338
 20
940.1743685061153
 30
0.0
 11
-196.6905045972404
 21
913.7067204381254
 31
0.0
  0
LINE
  5
2AD
330
1F
100
AcDbEntity
  8
0-2
  6
Continuous
 62
     6
370
     5
100
AcDbLine
 10
-149.014789331193
 20
909.3013018359296
 30
0.0
 11
-179.245502221818
 21
892.5362640931086
 31
0.0
  0
LINE
  5
2AE
330
1F
100
AcDbEntity
  8
0-2
  6
Continuous
 62
     6
370
     5
100
AcDbLine
 10
-136.5488947867461
 20
873.0518626995275
 30
0.0
 11
-170.6974461090646
 21
867.6779646315377
 31
0.0
  0
LINE
  5
2AF
330
1F
100
AcDbEntity
  8
0-2
  6
Continuous
 62
     6
370
     5
100
AcDbLine
 10
19.48121369087215
 20
889.2858945829734
 30
0.0
 11
22.33419484585522
 21
892.6189089938687
 31
0.0
  0
LINE
  5
2B0
330
1F
100
AcDbEntity
  8
0-2
  6
Continuous
 62
     6
370
     5
100
AcDbLine
 10
-14.90945749789478
 20
892.6189089938687
 30
0.0
 11
22.33419484585522
 21
892.6189089938687
 31
0.0
  0
LINE
  5
2B1
330
1F
100
AcDbEntity
  8
0-2
  6
Continuous
 62
     6
370
     5
100
AcDbLine
 10
-27.44574867188124
 20
889.2858945829734
 30
0.0
 11
19.48121369087215
 21
889.2858945829734
 31
0.0
  0
LINE
  5
2B2
330
1F
100
AcDbEntity
  8
0-2
  6
Continuous
 62
     6
370
     5
100
AcDbLine
 10
-14.90945749789478
 20
892.6189089938687
 30
0.0
 11
-27.44574867188124
 21
889.2858945829734
 31
0.0
  0
LINE
  5
2B3
330
1F
100
AcDbEntity
  8
0-2
  6
JWW_CENTER1
 62
     6
370
     5
100
AcDbLine
 10
8.121251433692969
 20
880.6274803093249
 30
0.0
 11
8.121251433692969
 21
852.1308256957268
 31
0.0
  0
LINE
  5
2B4
330
1F
100
AcDbEntity
  8
0-2
  6
Continuous
 62
     6
370
     5
100
AcDbLine
 10
19.23624826646329
 20
872.6188430099161
 30
0.0
 11
21.34592019425053
 21
872.6188430099161
 31
0.0
  0
LINE
  5
2B5
330
1F
100
AcDbEntity
  8
0-2
  6
Continuous
 62
     6
370
     5
100
AcDbLine
 10
23.08789654560183
 20
869.2858285990208
 30
0.0
 11
24.45871316300053
 21
869.2858285990208
 31
0.0
  0
LINE
  5
2B6
330
1F
100
AcDbEntity
  8
0-2
  6
Continuous
 62
     6
370
     5
100
AcDbLine
 10
21.34592019425053
 20
872.6188430099161
 30
0.0
 11
24.45871316300053
 21
869.2858285990208
 31
0.0
  0
LINE
  5
2B7
330
1F
100
AcDbEntity
  8
0-2
  6
Continuous
 62
     6
370
     5
100
AcDbLine
 10
-509.9050283250698
 20
889.2858945829734
 30
0.0
 11
-512.7580094800528
 21
892.6189089938687
 31
0.0
  0
LINE
  5
2B8
330
1F
100
AcDbEntity
  8
0-2
  6
Continuous
 62
     6
370
     5
100
AcDbLine
 10
-475.5147282960367
 20
892.6189089938687
 30
0.0
 11
-512.7580094800528
 21
892.6189089938687
 31
0.0
  0
LINE
  5
2B9
330
1F
100
AcDbEntity
  8
0-2
  6
Continuous
 62
     6
370
     5
100
AcDbLine
 10
-462.9783134021387
 20
889.2858945829734
 30
0.0
 11
-509.9050283250698
 21
889.2858945829734
 31
0.0
  0
LINE
  5
2BA
330
1F
100
AcDbEntity
  8
0-2
  6
Continuous
 62
     6
370
     5
100
AcDbLine
 10
-475.5147282960367
 20
892.6189089938687
 30
0.0
 11
-462.9783134021387
 21
889.2858945829734
 31
0.0
  0
LINE
  5
2BB
330
1F
100
AcDbEntity
  8
0-2
  6
JWW_CENTER1
 62
     6
370
     5
100
AcDbLine
 10
-498.5453135077132
 20
880.6274803093249
 30
0.0
 11
-498.5453135077132
 21
852.1308256957268
 31
0.0
  0
LINE
  5
2BC
330
1F
100
AcDbEntity
  8
0-2
  6
Continuous
 62
     6
370
     5
100
AcDbLine
 10
-509.6601866205721
 20
872.6188430099161
 30
0.0
 11
-511.7698585483594
 21
872.6188430099161
 31
0.0
  0
LINE
  5
2BD
330
1F
100
AcDbEntity
  8
0-2
  6
Continuous
 62
     6
370
     5
100
AcDbLine
 10
-513.5120823395333
 20
869.2858285990208
 30
0.0
 11
-514.8825277971979
 21
869.2858285990208
 31
0.0
  0
LINE
  5
2BE
330
1F
100
AcDbEntity
  8
0-2
  6
Continuous
 62
     6
370
     5
100
AcDbLine
 10
-511.7698585483594
 20
872.6188430099161
 30
0.0
 11
-514.8825277971979
 21
869.2858285990208
 31
0.0
  0
LINE
  5
2BF
330
1F
100
AcDbEntity
  8
0-2
  6
Continuous
 62
     6
370
     5
100
AcDbLine
 10
-7.712422816729152
 20
857.9525898426864
 30
0.0
 11
-7.712422816729152
 21
855.9522863165039
 31
0.0
  0
LINE
  5
2C0
330
1F
100
AcDbEntity
  8
0-2
  6
Continuous
 62
     6
370
     5
100
AcDbLine
 10
-7.712422816729152
 20
857.9525898426864
 30
0.0
 11
23.95443080447006
 21
857.9525898426864
 31
0.0
  0
LINE
  5
2C1
330
1F
100
AcDbEntity
  8
0-2
  6
Continuous
 62
     6
370
     5
100
AcDbLine
 10
23.95443080447006
 20
857.9525898426864
 30
0.0
 11
23.95443080447006
 21
855.9522863165039
 31
0.0
  0
LINE
  5
2C2
330
1F
100
AcDbEntity
  8
0-2
  6
JWW_CENTER1
 62
     6
370
     5
100
AcDbLine
 10
-498.5450660678906
 20
880.6274803093249
 30
0.0
 11
-498.5450660678906
 21
852.1308256957268
 31
0.0
  0
LINE
  5
2C3
330
1F
100
AcDbEntity
  8
0-2
  6
Continuous
 62
     6
370
     5
100
AcDbLine
 10
-482.7116392572908
 20
857.9525898426864
 30
0.0
 11
-482.7116392572908
 21
855.9522863165039
 31
0.0
  0
LINE
  5
2C4
330
1F
100
AcDbEntity
  8
0-2
  6
Continuous
 62
     6
370
     5
100
AcDbLine
 10
-482.7116392572908
 20
857.9525898426864
 30
0.0
 11
-514.3784928784903
 21
857.9525898426864
 31
0.0
  0
LINE
  5
2C5
330
1F
100
AcDbEntity
  8
0-2
  6
Continuous
 62
     6
370
     5
100
AcDbLine
 10
-514.3784928784903
 20
857.9525898426864
 30
0.0
 11
-514.3784928784903
 21
855.9522863165039
 31
0.0
  0
LINE
  5
2C6
330
1F
100
AcDbEntity
  8
0-1
  6
JWW_CENTER1
 62
     4
370
     9
100
AcDbLine
 10
-428.5453300037012
 20
852.4841697624499
 30
0.0
 11
-428.5450825638789
 21
887.6028089094093
 31
0.0
  0
LINE
  5
2C7
330
1F
100
AcDbEntity
  8
0-1
  6
JWW_CENTER1
 62
     4
370
     9
100
AcDbLine
 10
-180.9555588360495
 20
1030.548794445727
 30
0.0
 11
-126.135142411324
 21
998.8982718528216
 31
0.0
  0
CIRCLE
  5
2C8
330
1F
100
AcDbEntity
  8
0-1
  6
Continuous
 62
     4
370
     9
100
AcDbCircle
 10
-153.5451650438195
 20
1014.723533149274
 30
0.0
 40
13.33333350516654
  0
CIRCLE
  5
2C9
330
1F
100
AcDbEntity
  8
0-1
  6
Continuous
 62
     4
370
     9
100
AcDbCircle
 10
-153.5451650438195
 20
1014.723533149274
 30
0.0
 40
11.07833321030075
  0
ARC
  5
2CA
330
1F
100
AcDbEntity
  8
0-1
  6
Continuous
 62
     4
370
     9
100
AcDbCircle
 10
-428.5450825638789
 20
855.9522863165039
 30
0.0
 40
13.33333350516654
100
AcDbArc
 50
0.0
 51
180.0
  0
ARC
  5
2CB
330
1F
100
AcDbEntity
  8
0-1
  6
Continuous
 62
     4
370
     9
100
AcDbCircle
 10
-428.5450825638789
 20
855.9522863165039
 30
0.0
 40
11.07833321030075
100
AcDbArc
 50
0.0
 51
180.0
  0
ARC
  5
2CC
330
1F
100
AcDbEntity
  8
0-2
  6
Continuous
 62
     6
370
     5
100
AcDbCircle
 10
-245.2119691770544
 20
855.9522863165039
 30
0.0
 40
132.6073775420318
100
AcDbArc
 50
0.0
 51
180.0
  0
ARC
  5
2CD
330
1F
100
AcDbEntity
  8
0-2
  6
Continuous
 62
     6
370
     5
100
AcDbCircle
 10
-369.4569477982539
 20
1039.52591121093
 30
0.0
 40
6.666666752583272
100
AcDbArc
 50
124.0909423828125
 51
215.8140563964844
  0
ARC
  5
2CE
330
1F
100
AcDbEntity
  8
0-2
  6
Continuous
 62
     6
370
     5
100
AcDbCircle
 10
-406.6634841686085
 20
1007.838767524274
 30
0.0
 40
6.666666752583272
100
AcDbArc
 50
45.02505493164062
 51
136.7480926513672
  0
ARC
  5
2CF
330
1F
100
AcDbEntity
  8
0-2
  6
Continuous
 62
     6
370
     5
100
AcDbCircle
 10
-342.0688235900611
 20
1055.338305636605
 30
0.0
 40
6.666666752583272
100
AcDbArc
 50
24.18591308593754
 51
115.9090270996094
  0
ARC
  5
2D0
330
1F
100
AcDbEntity
  8
0-2
  6
Continuous
 62
     6
370
     5
100
AcDbCircle
 10
-245.2119691770544
 20
855.9522863165039
 30
0.0
 40
228.3333391756625
100
AcDbArc
 50
115.9093627929688
 51
124.0906524658203
  0
ARC
  5
2D1
330
1F
100
AcDbEntity
  8
0-2
  6
Continuous
 62
     6
370
     5
100
AcDbCircle
 10
-324.1385917224512
 20
976.723209827906
 30
0.0
 40
6.666666752583272
100
AcDbArc
 50
215.8144683837891
 51
303.1659088134766
  0
ARC
  5
2D2
330
1F
100
AcDbEntity
  8
0-2
  6
Continuous
 62
     6
370
     5
100
AcDbCircle
 10
-310.3391202539125
 20
984.6902772371119
 30
0.0
 40
6.666666752583272
100
AcDbArc
 50
296.8345184326172
 51
24.18582153320317
  0
ARC
  5
2D3
330
1F
100
AcDbEntity
  8
0-2
  6
Continuous
 62
     6
370
     5
100
AcDbCircle
 10
-245.2119691770544
 20
855.9522863165039
 30
0.0
 40
137.607378573031
100
AcDbArc
 50
116.8343963623047
 51
123.1656036376953
  0
ARC
  5
2D4
330
1F
100
AcDbEntity
  8
0-2
  6
Continuous
 62
     6
370
     5
100
AcDbCircle
 10
-245.2119691770544
 20
855.9522863165039
 30
0.0
 40
228.3333391756625
100
AcDbArc
 50
136.7484741210938
 51
143.2513732910157
  0
ARC
  5
2D5
330
1F
100
AcDbEntity
  8
0-2
  6
Continuous
 62
     6
370
     5
100
AcDbCircle
 10
-422.8267482627807
 20
988.5760722117742
 30
0.0
 40
6.666666752583272
100
AcDbArc
 50
143.2457885742188
 51
234.9748840332031
  0
ARC
  5
2D6
330
1F
100
AcDbEntity
  8
0-2
  6
Continuous
 62
     6
370
     5
100
AcDbCircle
 10
-245.2119691770544
 20
855.9522863165039
 30
0.0
 40
228.3333391756625
100
AcDbArc
 50
136.7486267089844
 51
143.2515258789062
  0
ARC
  5
2D7
330
1F
100
AcDbEntity
  8
0-2
  6
Continuous
 62
     6
370
     5
100
AcDbCircle
 10
-351.87659583985
 20
953.0996350812843
 30
0.0
 40
6.666666752583272
100
AcDbArc
 50
317.6735687255859
 51
45.02505493164063
  0
ARC
  5
2D8
330
1F
100
AcDbEntity
  8
0-2
  6
Continuous
 62
     6
370
     5
100
AcDbCircle
 10
-359.4056947629919
 20
944.126972232889
 30
0.0
 40
6.666666752583272
100
AcDbArc
 50
234.9748840332031
 51
322.3265075683594
  0
ARC
  5
2D9
330
1F
100
AcDbEntity
  8
0-2
  6
Continuous
 62
     6
370
     5
100
AcDbCircle
 10
-245.2119691770544
 20
855.9522863165039
 30
0.0
 40
137.607378573031
100
AcDbArc
 50
137.6735382080078
 51
142.3264923095703
  0
ARC
  5
2DA
330
1F
100
AcDbEntity
  8
0-2
  6
Continuous
 62
     6
370
     5
100
AcDbCircle
 10
-270.3597732311086
 20
1076.187585091842
 30
0.0
 40
6.666666752583272
100
AcDbArc
 50
4.790756225585943
 51
96.51379394531251
  0
ARC
  5
2DB
330
1F
100
AcDbEntity
  8
0-2
  6
Continuous
 62
     6
370
     5
100
AcDbCircle
 10
-245.2119691770544
 20
855.9522863165039
 30
0.0
 40
228.3333391756625
100
AcDbArc
 50
96.51417541503908
 51
103.017074584961
  0
ARC
  5
2DC
330
1F
100
AcDbEntity
  8
0-2
  6
Continuous
 62
     6
370
     5
100
AcDbCircle
 10
-295.1408714680172
 20
1071.922712308903
 30
0.0
 40
6.666666752583272
100
AcDbArc
 50
103.0114898681641
 51
194.7405853271484
  0
ARC
  5
2DD
330
1F
100
AcDbEntity
  8
0-2
  6
Continuous
 62
     6
370
     5
100
AcDbCircle
 10
-245.2119691770544
 20
855.9522863165039
 30
0.0
 40
228.3333391756625
100
AcDbArc
 50
96.51432800292969
 51
103.0172271728516
  0
ARC
  5
2DE
330
1F
100
AcDbEntity
  8
0-2
  6
Continuous
 62
     6
370
     5
100
AcDbCircle
 10
-263.891696267426
 20
999.0120941712336
 30
0.0
 40
6.666666752583272
100
AcDbArc
 50
277.4392700195312
 51
4.790756225585949
  0
ARC
  5
2DF
330
1F
100
AcDbEntity
  8
0-2
  6
Continuous
 62
     6
370
     5
100
AcDbCircle
 10
-275.4352588730005
 20
997.0251523954734
 30
0.0
 40
6.666666752583272
100
AcDbArc
 50
194.7405853271484
 51
282.0922088623047
  0
ARC
  5
2E0
330
1F
100
AcDbEntity
  8
0-2
  6
Continuous
 62
     6
370
     5
100
AcDbCircle
 10
-245.2119691770544
 20
855.9522863165039
 30
0.0
 40
137.607378573031
100
AcDbArc
 50
97.43923950195312
 51
102.0921936035156
  0
ARC
  5
2E1
330
1F
100
AcDbEntity
  8
0-2
  6
Continuous
 62
     6
370
     5
100
AcDbCircle
 10
-459.4384392995205
 20
912.9005614959801
 30
0.0
 40
6.666666752583272
100
AcDbArc
 50
165.1135406494141
 51
256.8366546630859
  0
ARC
  5
2E2
330
1F
100
AcDbEntity
  8
0-2
  6
Continuous
 62
     6
370
     5
100
AcDbCircle
 10
-449.1540979513364
 20
942.8066333393081
 30
0.0
 40
6.666666752583272
100
AcDbArc
 50
65.20851135253909
 51
156.931625366211
  0
ARC
  5
2E3
330
1F
100
AcDbEntity
  8
0-2
  6
Continuous
 62
     6
370
     5
100
AcDbCircle
 10
-245.2119691770544
 20
855.9522863165039
 30
0.0
 40
228.3333391756625
100
AcDbArc
 50
156.9319610595703
 51
165.1132507324219
  0
ARC
  5
2E4
330
1F
100
AcDbEntity
  8
0-2
  6
Continuous
 62
     6
370
     5
100
AcDbCircle
 10
-384.0269468744783
 20
895.2640406978383
 30
0.0
 40
6.666666752583272
100
AcDbArc
 50
256.8370666503906
 51
344.1885070800781
  0
ARC
  5
2E5
330
1F
100
AcDbEntity
  8
0-2
  6
Continuous
 62
     6
370
     5
100
AcDbCircle
 10
-378.8450621088533
 20
910.3321361370275
 30
0.0
 40
6.666666752583272
100
AcDbArc
 50
337.8571166992189
 51
65.20841979980474
  0
ARC
  5
2E6
330
1F
100
AcDbEntity
  8
0-2
  6
Continuous
 62
     6
370
     5
100
AcDbCircle
 10
-245.2119691770544
 20
855.9522863165039
 30
0.0
 40
137.607378573031
100
AcDbArc
 50
157.8569946289062
 51
164.1882019042968
  0
ARC
  5
2E7
330
1F
100
AcDbEntity
  8
0-2
  6
Continuous
 62
     6
370
     5
100
AcDbCircle
 10
-389.2658665192208
 20
863.9193537257098
 30
0.0
 40
6.666666752583272
100
AcDbArc
 50
356.8345031738282
 51
84.1858062744141
  0
ARC
  5
2E8
330
1F
100
AcDbEntity
  8
0-2
  6
Continuous
 62
     6
370
     5
100
AcDbCircle
 10
-245.2119691770544
 20
855.9522863165039
 30
0.0
 40
137.607378573031
100
AcDbArc
 50
176.8343811035156
 51
180.0000457763672
  0
ARC
  5
2E9
330
1F
100
AcDbEntity
  8
0-2
  6
Continuous
 62
     6
370
     5
100
AcDbCircle
 10
-444.7930947973036
 20
869.5733536729228
 30
0.0
 40
6.666666752583272
100
AcDbArc
 50
84.18586730957031
 51
176.4768524169922
  0
ARC
  5
2EA
330
1F
100
AcDbEntity
  8
0-2
  6
Continuous
 62
     6
370
     5
100
AcDbCircle
 10
-223.5451485478315
 20
855.9522863165039
 30
0.0
 40
228.3333391756625
100
AcDbArc
 50
176.4770355224609
 51
180.0000305175781
  0
ARC
  5
2EB
330
1F
100
AcDbEntity
  8
0-2
  6
Continuous
 62
     6
370
     5
100
AcDbCircle
 10
-444.7930947973036
 20
869.5733536729228
 30
0.0
 40
11.66666681702072
100
AcDbArc
 50
84.18586730957031
 51
176.4768524169922
  0
ARC
  5
2EC
330
1F
100
AcDbEntity
  8
0-2
  6
Continuous
 62
     6
370
     5
100
AcDbCircle
 10
-228.5451650438195
 20
855.9522863165039
 30
0.0
 40
228.3333391756625
100
AcDbArc
 50
176.5178527832031
 51
180.0000305175782
  0
ARC
  5
2ED
330
1F
100
AcDbEntity
  8
0-2
  6
Continuous
 62
     6
370
     5
100
AcDbCircle
 10
-389.2658665192208
 20
863.9193537257098
 30
0.0
 40
11.66666681702072
100
AcDbArc
 50
356.8345031738282
 51
84.1858062744141
  0
ARC
  5
2EE
330
1F
100
AcDbEntity
  8
0-2
  6
Continuous
 62
     6
370
     5
100
AcDbCircle
 10
-449.1540979513364
 20
942.8066333393081
 30
0.0
 40
11.66666681702072
100
AcDbArc
 50
65.20851135253909
 51
156.931625366211
  0
ARC
  5
2EF
330
1F
100
AcDbEntity
  8
0-2
  6
Continuous
 62
     6
370
     5
100
AcDbCircle
 10
-378.8450621088533
 20
910.3321361370275
 30
0.0
 40
11.66666681702072
100
AcDbArc
 50
337.8571166992189
 51
65.20841979980474
  0
ARC
  5
2F0
330
1F
100
AcDbEntity
  8
0-2
  6
Continuous
 62
     6
370
     5
100
AcDbCircle
 10
-384.0269468744783
 20
895.2640406978383
 30
0.0
 40
11.66666681702072
100
AcDbArc
 50
256.8370666503906
 51
344.1885070800781
  0
ARC
  5
2F1
330
1F
100
AcDbEntity
  8
0-2
  6
Continuous
 62
     6
370
     5
100
AcDbCircle
 10
-459.4384392995205
 20
912.9005614959801
 30
0.0
 40
11.66666681702072
100
AcDbArc
 50
165.1135406494141
 51
256.8366546630859
  0
ARC
  5
2F2
330
1F
100
AcDbEntity
  8
0-2
  6
Continuous
 62
     6
370
     5
100
AcDbCircle
 10
-406.6634841686085
 20
1007.838767524274
 30
0.0
 40
11.66666681702072
100
AcDbArc
 50
45.02505493164062
 51
136.7480926513672
  0
ARC
  5
2F3
330
1F
100
AcDbEntity
  8
0-2
  6
Continuous
 62
     6
370
     5
100
AcDbCircle
 10
-351.87659583985
 20
953.0996350812843
 30
0.0
 40
11.66666681702072
100
AcDbArc
 50
317.6735687255859
 51
45.02505493164063
  0
ARC
  5
2F4
330
1F
100
AcDbEntity
  8
0-2
  6
Continuous
 62
     6
370
     5
100
AcDbCircle
 10
-359.4056947629919
 20
944.126972232889
 30
0.0
 40
11.66666681702072
100
AcDbArc
 50
234.9748840332031
 51
322.3265075683594
  0
ARC
  5
2F5
330
1F
100
AcDbEntity
  8
0-2
  6
Continuous
 62
     6
370
     5
100
AcDbCircle
 10
-422.8267482627807
 20
988.5760722117742
 30
0.0
 40
11.66666681702072
100
AcDbArc
 50
143.2457885742188
 51
234.9748840332031
  0
ARC
  5
2F6
330
1F
100
AcDbEntity
  8
0-2
  6
Continuous
 62
     6
370
     5
100
AcDbCircle
 10
-310.3391202539125
 20
984.6902772371119
 30
0.0
 40
11.66666681702072
100
AcDbArc
 50
296.8345184326172
 51
24.18582153320317
  0
ARC
  5
2F7
330
1F
100
AcDbEntity
  8
0-2
  6
Continuous
 62
     6
370
     5
100
AcDbCircle
 10
-324.1385917224512
 20
976.723209827906
 30
0.0
 40
11.66666681702072
100
AcDbArc
 50
215.8144683837891
 51
303.1659088134766
  0
ARC
  5
2F8
330
1F
100
AcDbEntity
  8
0-2
  6
Continuous
 62
     6
370
     5
100
AcDbCircle
 10
-369.4569477982539
 20
1039.52591121093
 30
0.0
 40
11.66666681702072
100
AcDbArc
 50
124.0909423828125
 51
215.8140563964844
  0
ARC
  5
2F9
330
1F
100
AcDbEntity
  8
0-2
  6
Continuous
 62
     6
370
     5
100
AcDbCircle
 10
-342.0688235900611
 20
1055.338305636605
 30
0.0
 40
11.66666681702072
100
AcDbArc
 50
24.18591308593754
 51
115.9090270996094
  0
ARC
  5
2FA
330
1F
100
AcDbEntity
  8
0-2
  6
Continuous
 62
     6
370
     5
100
AcDbCircle
 10
-275.4352588730005
 20
997.0251523954734
 30
0.0
 40
11.66666681702072
100
AcDbArc
 50
194.7405853271484
 51
282.0922088623047
  0
ARC
  5
2FB
330
1F
100
AcDbEntity
  8
0-2
  6
Continuous
 62
     6
370
     5
100
AcDbCircle
 10
-295.1408714680172
 20
1071.922712308903
 30
0.0
 40
11.66666681702072
100
AcDbArc
 50
103.0114898681641
 51
194.7405853271484
  0
ARC
  5
2FC
330
1F
100
AcDbEntity
  8
0-2
  6
Continuous
 62
     6
370
     5
100
AcDbCircle
 10
-270.3597732311086
 20
1076.187585091842
 30
0.0
 40
11.66666681702072
100
AcDbArc
 50
4.790756225585943
 51
96.51379394531251
  0
ARC
  5
2FD
330
1F
100
AcDbEntity
  8
0-2
  6
Continuous
 62
     6
370
     5
100
AcDbCircle
 10
-263.891696267426
 20
999.0120941712336
 30
0.0
 40
11.66666681702072
100
AcDbArc
 50
277.4392700195312
 51
4.790756225585949
  0
ARC
  5
2FE
330
1F
100
AcDbEntity
  8
0-2
  6
Continuous
 62
     6
370
     5
100
AcDbCircle
 10
-120.9671142757664
 20
1039.52591121093
 30
0.0
 40
6.666666752583272
100
AcDbArc
 50
324.1859436035156
 51
55.90905761718756
  0
ARC
  5
2FF
330
1F
100
AcDbEntity
  8
0-2
  6
Continuous
 62
     6
370
     5
100
AcDbCircle
 10
-83.76057790541171
 20
1007.838767524274
 30
0.0
 40
6.666666752583272
100
AcDbArc
 50
43.25190734863281
 51
134.9749450683594
  0
ARC
  5
300
330
1F
100
AcDbEntity
  8
0-2
  6
Continuous
 62
     6
370
     5
100
AcDbCircle
 10
-148.3551147640476
 20
1055.338305636605
 30
0.0
 40
6.666666752583272
100
AcDbArc
 50
64.09097290039067
 51
155.8140869140625
  0
ARC
  5
301
330
1F
100
AcDbEntity
  8
0-2
  6
Continuous
 62
     6
370
     5
100
AcDbCircle
 10
-245.2119691770544
 20
855.9522863165039
 30
0.0
 40
228.3333391756625
100
AcDbArc
 50
55.90934753417967
 51
64.09063720703125
  0
ARC
  5
302
330
1F
100
AcDbEntity
  8
0-2
  6
Continuous
 62
     6
370
     5
100
AcDbCircle
 10
-166.2850991918349
 20
976.723209827906
 30
0.0
 40
6.666666752583272
100
AcDbArc
 50
236.8340911865234
 51
324.1855316162109
  0
ARC
  5
303
330
1F
100
AcDbEntity
  8
0-2
  6
Continuous
 62
     6
370
     5
100
AcDbCircle
 10
-180.0845706603737
 20
984.6902772371119
 30
0.0
 40
6.666666752583272
100
AcDbArc
 50
155.8141784667969
 51
243.1654815673828
  0
ARC
  5
304
330
1F
100
AcDbEntity
  8
0-2
  6
Continuous
 62
     6
370
     5
100
AcDbCircle
 10
-245.2119691770544
 20
855.9522863165039
 30
0.0
 40
137.607378573031
100
AcDbArc
 50
56.83439636230472
 51
63.16560363769534
  0
ARC
  5
305
330
1F
100
AcDbEntity
  8
0-2
  6
Continuous
 62
     6
370
     5
100
AcDbCircle
 10
-245.2119691770544
 20
855.9522863165039
 30
0.0
 40
228.3333391756625
100
AcDbArc
 50
36.74862670898438
 51
43.25152587890626
  0
ARC
  5
306
330
1F
100
AcDbEntity
  8
0-2
  6
Continuous
 62
     6
370
     5
100
AcDbCircle
 10
-67.5973138112393
 20
988.5760722117742
 30
0.0
 40
6.666666752583272
100
AcDbArc
 50
305.0251159667969
 51
36.75421142578125
  0
ARC
  5
307
330
1F
100
AcDbEntity
  8
0-2
  6
Continuous
 62
     6
370
     5
100
AcDbCircle
 10
-245.2119691770544
 20
855.9522863165039
 30
0.0
 40
228.3333391756625
100
AcDbArc
 50
36.74847412109374
 51
43.25137329101562
  0
ARC
  5
308
330
1F
100
AcDbEntity
  8
0-2
  6
Continuous
 62
     6
370
     5
100
AcDbCircle
 10
-138.5472187943474
 20
953.0996350812843
 30
0.0
 40
6.666666752583272
100
AcDbArc
 50
134.9749450683594
 51
222.3264312744141
  0
ARC
  5
309
330
1F
100
AcDbEntity
  8
0-2
  6
Continuous
 62
     6
370
     5
100
AcDbCircle
 10
-131.0181198712057
 20
944.126972232889
 30
0.0
 40
6.666666752583272
100
AcDbArc
 50
217.6734924316406
 51
305.0251159667969
  0
ARC
  5
30A
330
1F
100
AcDbEntity
  8
0-2
  6
Continuous
 62
     6
370
     5
100
AcDbCircle
 10
-245.2119691770544
 20
855.9522863165039
 30
0.0
 40
137.607378573031
100
AcDbArc
 50
37.67350769042969
 51
42.32646179199219
  0
ARC
  5
30B
330
1F
100
AcDbEntity
  8
0-2
  6
Continuous
 62
     6
370
     5
100
AcDbCircle
 10
-220.0639176831779
 20
1076.187585091842
 30
0.0
 40
6.666666752583272
100
AcDbArc
 50
83.48614501953125
 51
175.2091827392578
  0
ARC
  5
30C
330
1F
100
AcDbEntity
  8
0-2
  6
Continuous
 62
     6
370
     5
100
AcDbCircle
 10
-245.2119691770544
 20
855.9522863165039
 30
0.0
 40
228.3333391756625
100
AcDbArc
 50
76.98291015625006
 51
83.48580932617193
  0
ARC
  5
30D
330
1F
100
AcDbEntity
  8
0-2
  6
Continuous
 62
     6
370
     5
100
AcDbCircle
 10
-195.282819446269
 20
1071.922712308903
 30
0.0
 40
6.666666752583272
100
AcDbArc
 50
345.2593536376953
 51
76.9884490966797
  0
ARC
  5
30E
330
1F
100
AcDbEntity
  8
0-2
  6
Continuous
 62
     6
370
     5
100
AcDbCircle
 10
-245.2119691770544
 20
855.9522863165039
 30
0.0
 40
228.3333391756625
100
AcDbArc
 50
76.98275756835943
 51
83.48565673828125
  0
ARC
  5
30F
330
1F
100
AcDbEntity
  8
0-2
  6
Continuous
 62
     6
370
     5
100
AcDbCircle
 10
-226.5319946468601
 20
999.0120941712336
 30
0.0
 40
6.666666752583272
100
AcDbArc
 50
175.2091827392578
 51
262.5606689453125
  0
ARC
  5
310
330
1F
100
AcDbEntity
  8
0-2
  6
Continuous
 62
     6
370
     5
100
AcDbCircle
 10
-214.9886794811086
 20
997.0251523954734
 30
0.0
 40
6.666666752583272
100
AcDbArc
 50
257.9077301025391
 51
345.2593536376953
  0
ARC
  5
311
330
1F
100
AcDbEntity
  8
0-2
  6
Continuous
 62
     6
370
     5
100
AcDbCircle
 10
-245.2119691770544
 20
855.9522863165039
 30
0.0
 40
137.607378573031
100
AcDbArc
 50
77.90780639648438
 51
82.56076049804688
  0
ARC
  5
312
330
1F
100
AcDbEntity
  8
0-2
  6
Continuous
 62
     6
370
     5
100
AcDbCircle
 10
-30.98562277449947
 20
912.9005614959801
 30
0.0
 40
6.666666752583272
100
AcDbArc
 50
283.1634674072266
 51
14.88658142089844
  0
ARC
  5
313
330
1F
100
AcDbEntity
  8
0-2
  6
Continuous
 62
     6
370
     5
100
AcDbCircle
 10
-41.26971668286092
 20
942.8066333393081
 30
0.0
 40
6.666666752583272
100
AcDbArc
 50
23.06835937500001
 51
114.7914733886719
  0
ARC
  5
314
330
1F
100
AcDbEntity
  8
0-2
  6
Continuous
 62
     6
370
     5
100
AcDbCircle
 10
-245.2119691770544
 20
855.9522863165039
 30
0.0
 40
228.3333391756625
100
AcDbArc
 50
14.88674926757812
 51
23.06803894042968
  0
ARC
  5
315
330
1F
100
AcDbEntity
  8
0-2
  6
Continuous
 62
     6
370
     5
100
AcDbCircle
 10
-106.396867759719
 20
895.2640406978383
 30
0.0
 40
6.666666752583272
100
AcDbArc
 50
195.8116149902344
 51
283.1630554199219
  0
ARC
  5
316
330
1F
100
AcDbEntity
  8
0-2
  6
Continuous
 62
     6
370
     5
100
AcDbCircle
 10
-111.578752525344
 20
910.3321361370275
 30
0.0
 40
6.666666752583272
100
AcDbArc
 50
114.7917022705079
 51
202.1430053710938
  0
ARC
  5
317
330
1F
100
AcDbEntity
  8
0-2
  6
Continuous
 62
     6
370
     5
100
AcDbCircle
 10
-245.2119691770544
 20
855.9522863165039
 30
0.0
 40
137.607378573031
100
AcDbArc
 50
15.81181335449224
 51
22.14302062988286
  0
ARC
  5
318
330
1F
100
AcDbEntity
  8
0-2
  6
Continuous
 62
     6
370
     5
100
AcDbCircle
 10
-101.158071834888
 20
863.9193537257098
 30
0.0
 40
6.666666752583272
100
AcDbArc
 50
95.81420898437503
 51
183.165512084961
  0
ARC
  5
319
330
1F
100
AcDbEntity
  8
0-2
  6
Continuous
 62
     6
370
     5
100
AcDbCircle
 10
-245.2119691770544
 20
855.9522863165039
 30
0.0
 40
137.607378573031
100
AcDbArc
 50
359.9999389648438
 51
3.165603637695302
  0
ARC
  5
31A
330
1F
100
AcDbEntity
  8
0-2
  6
Continuous
 62
     6
370
     5
100
AcDbCircle
 10
-45.63109099662785
 20
869.5733536729228
 30
0.0
 40
6.666666752583272
100
AcDbArc
 50
3.523147583007821
 51
95.81413269042969
  0
ARC
  5
31B
330
1F
100
AcDbEntity
  8
0-2
  6
Continuous
 62
     6
370
     5
100
AcDbCircle
 10
-266.8785423664547
 20
855.9522863165039
 30
0.0
 40
228.3333391756625
100
AcDbArc
 50
359.9999694824219
 51
3.522964477539095
  0
ARC
  5
31C
330
1F
100
AcDbEntity
  8
0-2
  6
Continuous
 62
     6
370
     5
100
AcDbCircle
 10
-45.63109099662785
 20
869.5733536729228
 30
0.0
 40
11.66666681702072
100
AcDbArc
 50
3.523147583007821
 51
95.81413269042969
  0
ARC
  5
31D
330
1F
100
AcDbEntity
  8
0-2
  6
Continuous
 62
     6
370
     5
100
AcDbCircle
 10
-261.8785258704667
 20
855.9522863165039
 30
0.0
 40
228.3333391756625
100
AcDbArc
 50
359.9999694824219
 51
3.482147216796908
  0
ARC
  5
31E
330
1F
100
AcDbEntity
  8
0-2
  6
Continuous
 62
     6
370
     5
100
AcDbCircle
 10
-101.158071834888
 20
863.9193537257098
 30
0.0
 40
11.66666681702072
100
AcDbArc
 50
95.8140869140625
 51
183.1653900146485
  0
ARC
  5
31F
330
1F
100
AcDbEntity
  8
0-2
  6
Continuous
 62
     6
370
     5
100
AcDbCircle
 10
-41.26971668286092
 20
942.8066333393081
 30
0.0
 40
11.66666681702072
100
AcDbArc
 50
23.06849670410157
 51
114.7916107177735
  0
ARC
  5
320
330
1F
100
AcDbEntity
  8
0-2
  6
Continuous
 62
     6
370
     5
100
AcDbCircle
 10
-111.578752525344
 20
910.3321361370275
 30
0.0
 40
11.66666681702072
100
AcDbArc
 50
114.791488647461
 51
202.1427917480469
  0
ARC
  5
321
330
1F
100
AcDbEntity
  8
0-2
  6
Continuous
 62
     6
370
     5
100
AcDbCircle
 10
-106.396867759719
 20
895.2640406978383
 30
0.0
 40
11.66666681702072
100
AcDbArc
 50
195.8114013671875
 51
283.162841796875
  0
ARC
  5
322
330
1F
100
AcDbEntity
  8
0-2
  6
Continuous
 62
     6
370
     5
100
AcDbCircle
 10
-30.98562277449947
 20
912.9005614959801
 30
0.0
 40
11.66666681702072
100
AcDbArc
 50
283.1632537841797
 51
14.88636779785162
  0
ARC
  5
323
330
1F
100
AcDbEntity
  8
0-2
  6
Continuous
 62
     6
370
     5
100
AcDbCircle
 10
-83.76057790541171
 20
1007.838767524274
 30
0.0
 40
11.66666681702072
100
AcDbArc
 50
43.25190734863281
 51
134.9749450683594
  0
ARC
  5
324
330
1F
100
AcDbEntity
  8
0-2
  6
Continuous
 62
     6
370
     5
100
AcDbCircle
 10
-138.5472187943474
 20
953.0996350812843
 30
0.0
 40
11.66666681702072
100
AcDbArc
 50
134.9749450683594
 51
222.3264312744141
  0
ARC
  5
325
330
1F
100
AcDbEntity
  8
0-2
  6
Continuous
 62
     6
370
     5
100
AcDbCircle
 10
-131.0181198712057
 20
944.126972232889
 30
0.0
 40
11.66666681702072
100
AcDbArc
 50
217.6734924316406
 51
305.0251159667969
  0
ARC
  5
326
330
1F
100
AcDbEntity
  8
0-2
  6
Continuous
 62
     6
370
     5
100
AcDbCircle
 10
-67.5973138112393
 20
988.5760722117742
 30
0.0
 40
11.66666681702072
100
AcDbArc
 50
305.0251159667969
 51
36.75421142578125
  0
ARC
  5
327
330
1F
100
AcDbEntity
  8
0-2
  6
Continuous
 62
     6
370
     5
100
AcDbCircle
 10
-180.0845706603737
 20
984.6902772371119
 30
0.0
 40
11.66666681702072
100
AcDbArc
 50
155.8141784667969
 51
243.1654815673828
  0
ARC
  5
328
330
1F
100
AcDbEntity
  8
0-2
  6
Continuous
 62
     6
370
     5
100
AcDbCircle
 10
-166.2850991918349
 20
976.723209827906
 30
0.0
 40
11.66666681702072
100
AcDbArc
 50
236.8340911865234
 51
324.1855316162109
  0
ARC
  5
329
330
1F
100
AcDbEntity
  8
0-2
  6
Continuous
 62
     6
370
     5
100
AcDbCircle
 10
-120.9671142757664
 20
1039.52591121093
 30
0.0
 40
11.66666681702072
100
AcDbArc
 50
324.1859436035156
 51
55.90905761718756
  0
ARC
  5
32A
330
1F
100
AcDbEntity
  8
0-2
  6
Continuous
 62
     6
370
     5
100
AcDbCircle
 10
-148.3551147640476
 20
1055.338305636605
 30
0.0
 40
11.66666681702072
100
AcDbArc
 50
64.09085083007814
 51
155.81396484375
  0
ARC
  5
32B
330
1F
100
AcDbEntity
  8
0-2
  6
Continuous
 62
     6
370
     5
100
AcDbCircle
 10
-214.9886794811086
 20
997.0251523954734
 30
0.0
 40
11.66666681702072
100
AcDbArc
 50
257.9079284667969
 51
345.2595520019531
  0
ARC
  5
32C
330
1F
100
AcDbEntity
  8
0-2
  6
Continuous
 62
     6
370
     5
100
AcDbCircle
 10
-195.282819446269
 20
1071.922712308903
 30
0.0
 40
11.66666681702072
100
AcDbArc
 50
345.2595520019531
 51
76.9886474609375
  0
ARC
  5
32D
330
1F
100
AcDbEntity
  8
0-2
  6
Continuous
 62
     6
370
     5
100
AcDbCircle
 10
-220.0639176831779
 20
1076.187585091842
 30
0.0
 40
11.66666681702072
100
AcDbArc
 50
83.48634338378906
 51
175.2093811035156
  0
ARC
  5
32E
330
1F
100
AcDbEntity
  8
0-2
  6
Continuous
 62
     6
370
     5
100
AcDbCircle
 10
-226.5319946468601
 20
999.0120941712336
 30
0.0
 40
11.66666681702072
100
AcDbArc
 50
175.2093811035156
 51
262.5608673095703
  0
ARC
  5
32F
330
1F
100
AcDbEntity
  8
0-2
  6
Continuous
 62
     6
370
     5
100
AcDbCircle
 10
-317.1800890303062
 20
882.1467608203046
 30
0.0
 40
13.25359408919876
100
AcDbArc
 50
259.9653167724609
 51
60.03437805175782
  0
ARC
  5
330
330
1F
100
AcDbEntity
  8
0-2
  6
Continuous
 62
     6
370
     5
100
AcDbCircle
 10
-328.5435154450021
 20
886.2824700158284
 30
0.0
 40
15.34627096073048
100
AcDbArc
 50
259.9653015136719
 51
60.0345458984375
  0
ARC
  5
331
330
1F
100
AcDbEntity
  8
0-2
  6
Continuous
 62
     6
370
     5
100
AcDbCircle
 10
-283.5055086882453
 20
922.2785307738518
 30
0.0
 40
13.25365981540165
100
AcDbArc
 50
219.9655914306641
 51
20.03446960449222
  0
ARC
  5
332
330
1F
100
AcDbEntity
  8
0-2
  6
Continuous
 62
     6
370
     5
100
AcDbCircle
 10
-289.5517007543349
 20
932.7511738270614
 30
0.0
 40
15.34638598158553
100
AcDbArc
 50
219.9655303955078
 51
20.03440856933596
  0
ARC
  5
333
330
1F
100
AcDbEntity
  8
0-2
  6
Continuous
 62
     6
370
     5
100
AcDbCircle
 10
-331.6986206234226
 20
928.5234170175174
 30
0.0
 40
19.7069889790303
100
AcDbArc
 50
36.55206298828125
 51
243.4478149414062
  0
ARC
  5
334
330
1F
100
AcDbEntity
  8
0-2
  6
Continuous
 62
     6
370
     5
100
AcDbCircle
 10
-264.8168737642588
 20
967.1373910990208
 30
0.0
 40
19.7069889790303
100
AcDbArc
 50
356.5521087646484
 51
203.4478149414063
  0
ARC
  5
335
330
1F
100
AcDbEntity
  8
0-2
  6
Continuous
 62
     6
370
     5
100
AcDbCircle
 10
-188.7617903605427
 20
953.7271424714869
 30
0.0
 40
19.7069889790303
100
AcDbArc
 50
316.5520629882812
 51
163.4478149414062
  0
ARC
  5
336
330
1F
100
AcDbEntity
  8
0-2
  6
Continuous
 62
     6
370
     5
100
AcDbCircle
 10
-231.9128210298838
 20
931.3759032928551
 30
0.0
 40
13.25363371823285
100
AcDbArc
 50
179.9657745361328
 51
340.0345611572266
  0
ARC
  5
337
330
1F
100
AcDbEntity
  8
0-2
  6
Continuous
 62
     6
370
     5
100
AcDbCircle
 10
-229.8127992551794
 20
943.284687076639
 30
0.0
 40
15.34636375066396
100
AcDbArc
 50
178.5965576171875
 51
340.0343627929688
  0
ARC
  5
338
330
1F
100
AcDbEntity
  8
0-2
  6
Continuous
 62
     6
370
     5
100
AcDbCircle
 10
-138.4482428652935
 20
892.6669123194598
 30
0.0
 40
19.7069889790303
100
AcDbArc
 50
275.5294647216797
 51
122.4252166748047
  0
ARC
  5
339
330
1F
100
AcDbEntity
  8
0-2
  6
Continuous
 62
     6
370
     5
100
AcDbCircle
 10
-185.4713355991406
 20
905.1789543908284
 30
0.0
 40
14.07579409109579
100
AcDbArc
 50
142.7604217529297
 51
296.217269897461
  0
ARC
  5
33A
330
1F
100
AcDbEntity
  8
0-2
  6
Continuous
 62
     6
370
     5
100
AcDbCircle
 10
-176.0386821204667
 20
912.9515340994432
 30
0.0
 40
16.29829277863373
100
AcDbArc
 50
139.9656219482422
 51
299.0120544433594
  0
ARC
  5
33B
330
1F
100
AcDbEntity
  8
0-2
  6
Continuous
 62
     6
370
     5
100
AcDbCircle
 10
-358.1120793702554
 20
855.9522863165039
 30
0.0
 40
19.7069889790303
100
AcDbArc
 50
76.5518798828125
 51
180.000244140625
  0
ARC
  5
33C
330
1F
100
AcDbEntity
  8
0-2
  6
Continuous
 62
     6
370
     5
100
AcDbCircle
 10
-245.2119691770544
 20
855.9522863165039
 30
0.0
 40
110.0000381469727
100
AcDbArc
 50
150.0345764160156
 51
169.9653930664062
  0
ARC
  5
33D
330
1F
100
AcDbEntity
  8
0-2
  6
Continuous
 62
     6
370
     5
100
AcDbCircle
 10
-245.2119691770544
 20
855.9522863165039
 30
0.0
 40
110.0000381469727
100
AcDbArc
 50
110.0345306396484
 51
129.9654235839844
  0
ARC
  5
33E
330
1F
100
AcDbEntity
  8
0-2
  6
Continuous
 62
     6
370
     5
100
AcDbCircle
 10
-245.2119691770544
 20
855.9522863165039
 30
0.0
 40
110.0000381469727
100
AcDbArc
 50
70.03456115722656
 51
89.96542358398438
  0
ARC
  5
33F
330
1F
100
AcDbEntity
  8
0-2
  6
Continuous
 62
     6
370
     5
100
AcDbCircle
 10
-245.2119691770544
 20
855.9522863165039
 30
0.0
 40
110.0000381469727
100
AcDbArc
 50
0.0
 51
8.942840576171875
  0
ARC
  5
340
330
1F
100
AcDbEntity
  8
0-2
  6
Continuous
 62
     6
370
     5
100
AcDbCircle
 10
-245.2119691770544
 20
855.9522863165039
 30
0.0
 40
110.0000381469727
100
AcDbArc
 50
29.01193237304688
 51
49.96543884277344
  0
ARC
  5
341
330
1F
100
AcDbEntity
  8
0-2
  6
Continuous
 62
     6
370
     5
100
AcDbCircle
 10
-245.2119691770544
 20
855.9522863165039
 30
0.0
 40
91.46893733256573
100
AcDbArc
 50
0.0
 51
8.94281005859375
  0
ARC
  5
342
330
1F
100
AcDbEntity
  8
0-2
  6
Continuous
 62
     6
370
     5
100
AcDbCircle
 10
-245.2119691770544
 20
855.9522863165039
 30
0.0
 40
88.9048808329814
100
AcDbArc
 50
0.0
 51
8.94281005859375
  0
ARC
  5
343
330
1F
100
AcDbEntity
  8
0-2
  6
Continuous
 62
     6
370
     5
100
AcDbCircle
 10
-245.2119691770544
 20
855.9522863165039
 30
0.0
 40
88.9048808329814
100
AcDbArc
 50
29.011962890625
 51
49.96543884277344
  0
ARC
  5
344
330
1F
100
AcDbEntity
  8
0-2
  6
Continuous
 62
     6
370
     5
100
AcDbCircle
 10
-245.2119691770544
 20
855.9522863165039
 30
0.0
 40
91.46893733256573
100
AcDbArc
 50
29.01193237304688
 51
49.96542358398438
  0
ARC
  5
345
330
1F
100
AcDbEntity
  8
0-2
  6
Continuous
 62
     6
370
     5
100
AcDbCircle
 10
-245.2119691770544
 20
855.9522863165039
 30
0.0
 40
91.46893733256573
100
AcDbArc
 50
70.03457641601562
 51
89.96543884277344
  0
ARC
  5
346
330
1F
100
AcDbEntity
  8
0-2
  6
Continuous
 62
     6
370
     5
100
AcDbCircle
 10
-245.2119691770544
 20
855.9522863165039
 30
0.0
 40
88.9048808329814
100
AcDbArc
 50
70.03457641601562
 51
89.96255493164062
  0
ARC
  5
347
330
1F
100
AcDbEntity
  8
0-2
  6
Continuous
 62
     6
370
     5
100
AcDbCircle
 10
-245.2119691770544
 20
855.9522863165039
 30
0.0
 40
88.9048808329814
100
AcDbArc
 50
110.0345916748047
 51
129.9654846191406
  0
ARC
  5
348
330
1F
100
AcDbEntity
  8
0-2
  6
Continuous
 62
     6
370
     5
100
AcDbCircle
 10
-245.2119691770544
 20
855.9522863165039
 30
0.0
 40
91.46893733256573
100
AcDbArc
 50
110.0345916748047
 51
129.9654846191406
  0
ARC
  5
349
330
1F
100
AcDbEntity
  8
0-2
  6
Continuous
 62
     6
370
     5
100
AcDbCircle
 10
-245.2119691770544
 20
855.9522863165039
 30
0.0
 40
88.9048808329814
100
AcDbArc
 50
150.0346374511719
 51
169.96533203125
  0
ARC
  5
34A
330
1F
100
AcDbEntity
  8
0-2
  6
Continuous
 62
     6
370
     5
100
AcDbCircle
 10
-245.2119691770544
 20
855.9522863165039
 30
0.0
 40
91.46893733256573
100
AcDbArc
 50
150.0345916748047
 51
169.9653167724609
  0
ARC
  5
34B
330
1F
100
AcDbEntity
  8
0-2
  6
Continuous
 62
     6
370
     5
100
AcDbCircle
 10
-170.2213718903146
 20
855.9522863165039
 30
0.0
 40
11.65719934411951
100
AcDbArc
 50
92.32417297363281
 51
180.0
  0
ARC
  5
34C
330
1F
100
AcDbEntity
  8
0-2
  6
Continuous
 62
     6
370
     5
100
AcDbCircle
 10
-158.3806340577555
 20
855.9522863165039
 30
0.0
 40
13.49781526101602
100
AcDbArc
 50
98.94276428222658
 51
179.9998321533203
  0
ARC
  5
34D
330
1F
100
AcDbEntity
  8
0-2
  6
Continuous
 62
     6
370
     5
100
AcDbCircle
 10
8.121251433692969
 20
855.9522863165039
 30
0.0
 40
20.00000025774981
100
AcDbArc
 50
0.0
 51
180.0
  0
ARC
  5
34E
330
1F
100
AcDbEntity
  8
0-2
  6
Continuous
 62
     6
370
     5
100
AcDbCircle
 10
-203.5450825638786
 20
855.9522863165039
 30
0.0
 40
179.226354650549
100
AcDbArc
 50
0.0
 51
10.71855163574219
  0
ARC
  5
34F
330
1F
100
AcDbEntity
  8
0-2
  6
Continuous
 62
     6
370
     5
100
AcDbCircle
 10
-245.2119691770544
 20
855.9522863165039
 30
0.0
 40
233.3333402066617
100
AcDbArc
 50
9.046157836914062
 51
180.0
  0
ARC
  5
350
330
1F
100
AcDbEntity
  8
0-2
  6
Continuous
 62
     6
370
     5
100
AcDbCircle
 10
-203.0358514088956
 20
855.9522863165039
 30
0.0
 40
225.0
100
AcDbArc
 50
4.248001098632812
 51
8.519622802734375
  0
ARC
  5
351
330
1F
100
AcDbEntity
  8
0-2
  6
Continuous
 62
     6
370
     5
100
AcDbCircle
 10
-286.8788557902302
 20
855.9522863165039
 30
0.0
 40
179.226354650549
100
AcDbArc
 50
169.2814483642578
 51
180.0
  0
ARC
  5
352
330
1F
100
AcDbEntity
  8
0-2
  6
Continuous
 62
     6
370
     5
100
AcDbCircle
 10
-287.3878395053906
 20
855.9522863165039
 30
0.0
 40
225.0
100
AcDbArc
 50
171.4803771972657
 51
175.7519989013672
  0
ARC
  5
353
330
1F
100
AcDbEntity
  8
0-2
  6
Continuous
 62
     6
370
     5
100
AcDbCircle
 10
-245.2119691770544
 20
855.9522863165039
 30
0.0
 40
269.9999938140045
100
AcDbArc
 50
2.83056640625
 51
177.16943359375
  0
ARC
  5
354
330
1F
100
AcDbEntity
  8
0-2
  6
Continuous
 62
     6
370
     5
100
AcDbCircle
 10
-498.5450660678906
 20
855.9522863165039
 30
0.0
 40
20.00000025774981
100
AcDbArc
 50
0.0
 51
180.0
  0
ENDSEC
  0
SECTION
  2
OBJECTS
  0
DICTIONARY
  5
C
330
0
100
AcDbDictionary
281
     1
  3
ACAD_GROUP
350
D
  3
ACAD_LAYOUT
350
1A
  3
ACAD_MLEADERSTYLE
350
356
  3
ACAD_MLINESTYLE
350
17
  3
ACAD_PLOTSETTINGS
350
19
  3
ACAD_PLOTSTYLENAME
350
E
  3
ACAD_TABLESTYLE
350
355
  3
ACAD_VISUALSTYLE
350
2A
  0
DICTIONARY
  5
D
102
{ACAD_REACTORS
330
C
102
}
330
C
100
AcDbDictionary
281
     1
  0
DICTIONARY
  5
1A
102
{ACAD_REACTORS
330
C
102
}
330
C
100
AcDbDictionary
281
     1
  3
Layout1
350
1E
  3
Layout2
350
26
  3
Model
350
22
  0
DICTIONARY
  5
356
102
{ACAD_REACTORS
330
C
102
}
330
C
100
AcDbDictionary
281
     1
  0
DICTIONARY
  5
17
102
{ACAD_REACTORS
330
C
102
}
330
C
100
AcDbDictionary
281
     1
  3
Standard
350
18
  0
DICTIONARY
  5
19
102
{ACAD_REACTORS
330
C
102
}
330
C
100
AcDbDictionary
281
     1
  0
ACDBDICTIONARYWDFLT
  5
E
102
{ACAD_REACTORS
330
C
102
}
330
C
100
AcDbDictionary
281
     1
  3
Normal
350
F
100
AcDbDictionaryWithDefault
340
F
  0
DICTIONARY
  5
355
102
{ACAD_REACTORS
330
C
102
}
330
C
100
AcDbDictionary
281
     1
  0
DICTIONARY
  5
2A
102
{ACAD_REACTORS
330
C
102
}
330
C
100
AcDbDictionary
281
     1
  3
2dWireframe
350
2F
  3
3D Hidden
350
31
  3
3dWireframe
350
30
  3
Basic
350
32
  3
Brighten
350
36
  3
ColorChange
350
3A
  3
Conceptual
350
34
  3
Dim
350
35
  3
Facepattern
350
39
  3
Flat
350
2B
  3
FlatWithEdges
350
2C
  3
Gouraud
350
2D
  3
GouraudWithEdges
350
2E
  3
Linepattern
350
38
  3
Realistic
350
33
  3
Thicken
350
37
  0
LAYOUT
  5
1E
102
{ACAD_REACTORS
330
1A
102
}
330
1A
100
AcDbPlotSettings
  1

  2
none_device
  4

  6

 40
0.0
 41
0.0
 42
0.0
 43
0.0
 44
0.0
 45
0.0
 46
0.0
 47
0.0
 48
0.0
 49
0.0
140
0.0
141
0.0
142
1.0
143
1.0
 70
   688
 72
     0
 73
     0
 74
     5
  7

 75
    16
 76
     0
 77
     5
 78
   300
147
1.0
148
0.0
149
0.0
100
AcDbLayout
  1
Layout1
 70
     1
 71
     1
 10
0.0
 20
0.0
 11
420.0
 21
297.0
 12
0.0
 22
0.0
 32
0.0
 14
1.000000000000000E+20
 24
1.000000000000000E+20
 34
1.000000000000000E+20
 15
-1.000000000000000E+20
 25
-1.000000000000000E+20
 35
-1.000000000000000E+20
146
0.0
 13
0.0
 23
0.0
 33
0.0
 16
1.0
 26
0.0
 36
0.0
 17
0.0
 27
1.0
 37
0.0
 76
     0
330
1B
  0
LAYOUT
  5
26
102
{ACAD_REACTORS
330
1A
102
}
330
1A
100
AcDbPlotSettings
  1

  2
none_device
  4

  6

 40
0.0
 41
0.0
 42
0.0
 43
0.0
 44
0.0
 45
0.0
 46
0.0
 47
0.0
 48
0.0
 49
0.0
140
0.0
141
0.0
142
1.0
143
1.0
 70
   688
 72
     0
 73
     0
 74
     5
  7

 75
    16
 76
     0
 77
     5
 78
   300
147
1.0
148
0.0
149
0.0
100
AcDbLayout
  1
Layout2
 70
     1
 71
     2
 10
0.0
 20
0.0
 11
0.0
 21
0.0
 12
0.0
 22
0.0
 32
0.0
 14
0.0
 24
0.0
 34
0.0
 15
0.0
 25
0.0
 35
0.0
146
0.0
 13
0.0
 23
0.0
 33
0.0
 16
1.0
 26
0.0
 36
0.0
 17
0.0
 27
1.0
 37
0.0
 76
     0
330
23
  0
LAYOUT
  5
22
102
{ACAD_REACTORS
330
1A
102
}
330
1A
100
AcDbPlotSettings
  1

  2
none_device
  4

  6

 40
0.0
 41
0.0
 42
0.0
 43
0.0
 44
0.0
 45
0.0
 46
0.0
 47
0.0
 48
0.0
 49
0.0
140
0.0
141
0.0
142
1.0
143
1.0
 70
  1712
 72
     0
 73
     0
 74
     0
  7

 75
     0
 76
     0
 77
     5
 78
   300
147
1.0
148
0.0
149
0.0
100
AcDbLayout
  1
Model
 70
     1
 71
     0
 10
-2100.0
 20
-1485.0
 11
2100.0
 21
1485.0
 12
0.0
 22
0.0
 32
0.0
 14
-2100.0
 24
-1485.0
 34
0.0
 15
2100.0
 25
1485.0
 35
0.0
146
0.0
 13
0.0
 23
0.0
 33
0.0
 16
1.0
 26
0.0
 36
0.0
 17
0.0
 27
1.0
 37
0.0
 76
     0
330
1F
331
29
  0
MLINESTYLE
  5
18
102
{ACAD_REACTORS
330
17
102
}
330
17
100
AcDbMlineStyle
  2
Standard
 70
     0
  3

 62
   256
 51
90.0
 52
90.0
 71
     2
 49
0.5
 62
   256
  6
BYLAYER
 49
-0.5
 62
   256
  6
BYLAYER
  0
ACDBPLACEHOLDER
  5
F
102
{ACAD_REACTORS
330
E
102
}
330
E
  0
VISUALSTYLE
  5
2F
102
{ACAD_REACTORS
330
2A
102
}
330
2A
100
AcDbVisualStyle
  2
2dWireframe
 70
     4
 71
     0
 72
     2
 73
     0
 90
        0
 40
-0.6
 41
-30.0
 62
     5
 63
     7
421
 16777215
 74
     1
 91
        4
 64
     7
 65
   257
 75
     1
175
     1
 42
1.0
 92
        0
 66
   257
 43
1.0
 76
     1
 77
     6
 78
     2
 67
     7
 79
     5
170
     0
171
     0
290
     0
174
     0
 93
        1
 44
0.0
173
     0
291
     0
 45
0.0
1001
ACAD
1000
AcDbSavedByObjectVersion
1070
     0
  0
VISUALSTYLE
  5
31
102
{ACAD_REACTORS
330
2A
102
}
330
2A
100
AcDbVisualStyle
  2
3D Hidden
 70
     6
 71
     1
 72
     2
 73
     2
 90
        0
 40
-0.6
 41
-30.0
 62
     5
 63
     7
421
 16777215
 74
     2
 91
        2
 64
     7
 65
   257
 75
     2
175
     1
 42
40.0
 92
        0
 66
   257
 43
1.0
 76
     1
 77
     6
 78
     2
 67
     7
 79
     3
170
     0
171
     0
290
     0
174
     0
 93
        1
 44
0.0
173
     0
291
     0
 45
0.0
1001
ACAD
1000
AcDbSavedByObjectVersion
1070
     0
  0
VISUALSTYLE
  5
30
102
{ACAD_REACTORS
330
2A
102
}
330
2A
100
AcDbVisualStyle
  2
3dWireframe
 70
     5
 71
     0
 72
     2
 73
     0
 90
        0
 40
-0.6
 41
-30.0
 62
     5
 63
     7
421
 16777215
 74
     1
 91
        4
 64
     7
 65
   257
 75
     1
175
     1
 42
1.0
 92
        0
 66
   257
 43
1.0
 76
     1
 77
     6
 78
     2
 67
     7
 79
     5
170
     0
171
     0
290
     0
174
     0
 93
        1
 44
0.0
173
     0
291
     0
 45
0.0
1001
ACAD
1000
AcDbSavedByObjectVersion
1070
     0
  0
VISUALSTYLE
  5
32
102
{ACAD_REACTORS
330
2A
102
}
330
2A
100
AcDbVisualStyle
  2
Basic
 70
     7
 71
     1
 72
     0
 73
     1
 90
        0
 40
-0.6
 41
-30.0
 62
     5
 63
     7
421
 16777215
 74
     0
 91
        4
 64
     7
 65
   257
 75
     1
175
     1
 42
1.0
 92
        8
 66
     7
 43
1.0
 76
     1
 77
     6
 78
     2
 67
     7
 79
     5
170
     0
171
     0
290
     0
174
     0
 93
        1
 44
0.0
173
     0
291
     1
 45
0.0
1001
ACAD
1000
AcDbSavedByObjectVersion
1070
     0
  0
VISUALSTYLE
  5
36
102
{ACAD_REACTORS
330
2A
102
}
330
2A
100
AcDbVisualStyle
  2
Brighten
 70
    12
 71
     2
 72
     2
 73
     0
 90
        0
 40
-0.6
 41
-30.0
 62
     5
 63
     7
421
 16777215
 74
     1
 91
        4
 64
     7
 65
   257
 75
     1
175
     1
 42
1.0
 92
        8
 66
     7
 43
1.0
 76
     1
 77
     6
 78
     2
 67
     7
 79
     5
170
     0
171
     0
290
     0
174
     0
 93
        1
 44
50.0
173
     0
291
     1
 45
0.0
1001
ACAD
1000
AcDbSavedByObjectVersion
1070
     0
  0
VISUALSTYLE
  5
3A
102
{ACAD_REACTORS
330
2A
102
}
330
2A
100
AcDbVisualStyle
  2
ColorChange
 70
    16
 71
     2
 72
     2
 73
     3
 90
        0
 40
-0.6
 41
-30.0
 62
     5
 63
     8
421
  8421504
 74
     1
 91
        4
 64
     7
 65
   257
 75
     1
175
     1
 42
1.0
 92
        8
 66
     8
424
  8421504
 43
1.0
 76
     1
 77
     6
 78
     2
 67
     7
 79
     5
170
     0
171
     0
290
     0
174
     0
 93
        1
 44
0.0
173
     0
291
     1
 45
0.0
1001
ACAD
1000
AcDbSavedByObjectVersion
1070
     0
  0
VISUALSTYLE
  5
34
102
{ACAD_REACTORS
330
2A
102
}
330
2A
100
AcDbVisualStyle
  2
Conceptual
 70
     9
 71
     3
 72
     2
 73
     0
 90
        0
 40
-0.6
 41
-30.0
 62
     5
 63
     7
421
 16777215
 74
     2
 91
        2
 64
     7
 65
   257
 75
     1
175
     1
 42
40.0
 92
        8
 66
     7
 43
1.0
 76
     1
 77
     6
 78
     2
 67
     7
 79
     3
170
     0
171
     0
290
     0
174
     0
 93
        1
 44
0.0
173
     0
291
     0
 45
0.0
1001
ACAD
1000
AcDbSavedByObjectVersion
1070
     0
  0
VISUALSTYLE
  5
35
102
{ACAD_REACTORS
330
2A
102
}
330
2A
100
AcDbVisualStyle
  2
Dim
 70
    11
 71
     2
 72
     2
 73
     0
 90
        0
 40
-0.6
 41
-30.0
 62
     5
 63
     7
421
 16777215
 74
     1
 91
        4
 64
     7
 65
   257
 75
     1
175
     1
 42
1.0
 92
        8
 66
     7
 43
1.0
 76
     1
 77
     6
 78
     2
 67
     7
 79
     5
170
     0
171
     0
290
     0
174
     0
 93
        1
 44
-50.0
173
     0
291
     1
 45
0.0
1001
ACAD
1000
AcDbSavedByObjectVersion
1070
     0
  0
VISUALSTYLE
  5
39
102
{ACAD_REACTORS
330
2A
102
}
330
2A
100
AcDbVisualStyle
  2
Facepattern
 70
    15
 71
     2
 72
     2
 73
     0
 90
        0
 40
-0.6
 41
-30.0
 62
     5
 63
     7
421
 16777215
 74
     1
 91
        4
 64
     7
 65
   257
 75
     1
175
     1
 42
1.0
 92
        8
 66
     7
 43
1.0
 76
     1
 77
     6
 78
     2
 67
     7
 79
     5
170
     0
171
     0
290
     0
174
     0
 93
        1
 44
0.0
173
     0
291
     1
 45
0.0
1001
ACAD
1000
AcDbSavedByObjectVersion
1070
     0
  0
VISUALSTYLE
  5
2B
102
{ACAD_REACTORS
330
2A
102
}
330
2A
100
AcDbVisualStyle
  2
Flat
 70
     0
 71
     2
 72
     1
 73
     1
 90
        2
 40
-0.6
 41
30.0
 62
     5
 63
     7
421
 16777215
 74
     0
 91
        4
 64
     7
 65
   257
 75
     1
175
     1
 42
1.0
 92
        8
 66
     7
 43
1.0
 76
     1
 77
     6
 78
     2
 67
     7
 79
     5
170
     0
171
     0
290
     0
174
     0
 93
       13
 44
0.0
173
     0
291
     1
 45
0.0
1001
ACAD
1000
AcDbSavedByObjectVersion
1070
     0
  0
VISUALSTYLE
  5
2C
102
{ACAD_REACTORS
330
2A
102
}
330
2A
100
AcDbVisualStyle
  2
FlatWithEdges
 70
     1
 71
     2
 72
     1
 73
     1
 90
        2
 40
-0.6
 41
30.0
 62
     5
 63
     7
421
 16777215
 74
     1
 91
        4
 64
     7
 65
   257
 75
     1
175
     1
 42
1.0
 92
        0
 66
   257
 43
1.0
 76
     1
 77
     6
 78
     2
 67
     7
 79
     5
170
     0
171
     0
290
     0
174
     0
 93
       13
 44
0.0
173
     0
291
     1
 45
0.0
1001
ACAD
1000
AcDbSavedByObjectVersion
1070
     0
  0
VISUALSTYLE
  5
2D
102
{ACAD_REACTORS
330
2A
102
}
330
2A
100
AcDbVisualStyle
  2
Gouraud
 70
     2
 71
     2
 72
     2
 73
     1
 90
        2
 40
-0.6
 41
30.0
 62
     5
 63
     7
421
 16777215
 74
     0
 91
        4
 64
     7
 65
   257
 75
     1
175
     1
 42
1.0
 92
        0
 66
     7
 43
1.0
 76
     1
 77
     6
 78
     2
 67
     7
 79
     5
170
     0
171
     0
290
     0
174
     0
 93
       13
 44
0.0
173
     0
291
     1
 45
0.0
1001
ACAD
1000
AcDbSavedByObjectVersion
1070
     0
  0
VISUALSTYLE
  5
2E
102
{ACAD_REACTORS
330
2A
102
}
330
2A
100
AcDbVisualStyle
  2
GouraudWithEdges
 70
     3
 71
     2
 72
     2
 73
     1
 90
        2
 40
-0.6
 41
30.0
 62
     5
 63
     7
421
 16777215
 74
     1
 91
        4
 64
     7
 65
   257
 75
     1
175
     1
 42
1.0
 92
        0
 66
   257
 43
1.0
 76
     1
 77
     6
 78
     2
 67
     7
 79
     5
170
     0
171
     0
290
     0
174
     0
 93
       13
 44
0.0
173
     0
291
     1
 45
0.0
1001
ACAD
1000
AcDbSavedByObjectVersion
1070
     0
  0
VISUALSTYLE
  5
38
102
{ACAD_REACTORS
330
2A
102
}
330
2A
100
AcDbVisualStyle
  2
Linepattern
 70
    14
 71
     2
 72
     2
 73
     0
 90
        0
 40
-0.6
 41
-30.0
 62
     5
 63
     7
421
 16777215
 74
     1
 91
        4
 64
     7
 65
   257
 75
     7
175
     7
 42
1.0
 92
        8
 66
     7
 43
1.0
 76
     1
 77
     6
 78
     2
 67
     7
 79
     5
170
     0
171
     0
290
     0
174
     0
 93
        1
 44
0.0
173
     0
291
     1
 45
0.0
1001
ACAD
1000
AcDbSavedByObjectVersion
1070
     0
  0
VISUALSTYLE
  5
33
102
{ACAD_REACTORS
330
2A
102
}
330
2A
100
AcDbVisualStyle
  2
Realistic
 70
     8
 71
     2
 72
     2
 73
     0
 90
        0
 40
-0.6
 41
-30.0
 62
     5
 63
     7
421
 16777215
 74
     1
 91
        0
 64
     7
 65
   257
 75
     1
175
     1
 42
1.0
 92
        8
 66
     8
424
  7895160
 43
1.0
 76
     1
 77
     6
 78
     2
 67
     7
 79
     5
170
     0
171
     0
290
     0
174
     0
 93
       13
 44
0.0
173
     0
291
     0
 45
0.0
1001
ACAD
1000
AcDbSavedByObjectVersion
1070
     0
  0
VISUALSTYLE
  5
37
102
{ACAD_REACTORS
330
2A
102
}
330
2A
100
AcDbVisualStyle
  2
Thicken
 70
    13
 71
     2
 72
     2
 73
     0
 90
        0
 40
-0.6
 41
-30.0
 62
     5
 63
     7
421
 16777215
 74
     1
 91
        4
 64
     7
 65
   257
 75
     1
175
     1
 42
1.0
 92
       12
 66
     7
 43
1.0
 76
     1
 77
     6
 78
     2
 67
     7
 79
     5
170
     0
171
     0
290
     0
174
     0
 93
        1
 44
0.0
173
     0
291
     1
 45
0.0
1001
ACAD
1000
AcDbSavedByObjectVersion
1070
     0
  0
ENDSEC
  0
EOF
