  0
SECTION
  2
HEADER
  9
$ACADVER
  1
AC1018
  9
$ACADMAINTVER
 70
     0
  9
$DWGCODEPAGE
  3
ANSI_932
  9
$INSBASE
 10
0.0
 20
0.0
 30
0.0
  9
$EXTMIN
 10
-2100.0
 20
-1485.0
 30
0.0
  9
$EXTMAX
 10
2100.0
 20
1485.0
 30
0.0
  9
$LIMMIN
 10
-2100.0
 20
-1485.0
  9
$LIMMAX
 10
2100.0
 20
1485.0
  9
$ORTHOMODE
 70
     0
  9
$REGENMODE
 70
     1
  9
$FILLMODE
 70
     1
  9
$QTEXTMODE
 70
     0
  9
$MIRRTEXT
 70
     1
  9
$LTSCALE
 40
10.0
  9
$ATTMODE
 70
     1
  9
$TEXTSIZE
 40
2.5
  9
$TRACEWID
 40
1.0
  9
$TEXTSTYLE
  7
Standard
  9
$CLAYER
  8
0
  9
$CELTYPE
  6
ByLayer
  9
$CECOLOR
 62
   256
  9
$CELTSCALE
 40
1.0
  9
$DISPSILH
 70
     0
  9
$DIMSCALE
 40
1.0
  9
$DIMASZ
 40
2.5
  9
$DIMEXO
 40
0.625
  9
$DIMDLI
 40
3.75
  9
$DIMRND
 40
0.0
  9
$DIMDLE
 40
0.0
  9
$DIMEXE
 40
1.25
  9
$DIMTP
 40
0.0
  9
$DIMTM
 40
0.0
  9
$DIMTXT
 40
2.5
  9
$DIMCEN
 40
2.5
  9
$DIMTSZ
 40
0.0
  9
$DIMTOL
 70
     0
  9
$DIMLIM
 70
     0
  9
$DIMTIH
 70
     0
  9
$DIMTOH
 70
     0
  9
$DIMSE1
 70
     0
  9
$DIMSE2
 70
     0
  9
$DIMTAD
 70
     1
  9
$DIMZIN
 70
     8
  9
$DIMBLK
  1

  9
$DIMASO
 70
     1
  9
$DIMSHO
 70
     1
  9
$DIMPOST
  1

  9
$DIMAPOST
  1

  9
$DIMALT
 70
     0
  9
$DIMALTD
 70
     3
  9
$DIMALTF
 40
0.03937007874016
  9
$DIMLFAC
 40
1.0
  9
$DIMTOFL
 70
     1
  9
$DIMTVP
 40
0.0
  9
$DIMTIX
 70
     0
  9
$DIMSOXD
 70
     0
  9
$DIMSAH
 70
     0
  9
$DIMBLK1
  1

  9
$DIMBLK2
  1

  9
$DIMSTYLE
  2
ISO-25
  9
$DIMCLRD
 70
     0
  9
$DIMCLRE
 70
     0
  9
$DIMCLRT
 70
     0
  9
$DIMTFAC
 40
1.0
  9
$DIMGAP
 40
0.625
  9
$DIMJUST
 70
     0
  9
$DIMSD1
 70
     0
  9
$DIMSD2
 70
     0
  9
$DIMTOLJ
 70
     0
  9
$DIMTZIN
 70
     8
  9
$DIMALTZ
 70
     0
  9
$DIMALTTZ
 70
     0
  9
$DIMUPT
 70
     0
  9
$DIMDEC
 70
     2
  9
$DIMTDEC
 70
     2
  9
$DIMALTU
 70
     2
  9
$DIMALTTD
 70
     3
  9
$DIMTXSTY
  7
Standard
  9
$DIMAUNIT
 70
     0
  9
$DIMADEC
 70
     0
  9
$DIMALTRND
 40
0.0
  9
$DIMAZIN
 70
     0
  9
$DIMDSEP
 70
    44
  9
$DIMATFIT
 70
     3
  9
$DIMFRAC
 70
     0
  9
$DIMLDRBLK
  1

  9
$DIMLUNIT
 70
     2
  9
$DIMLWD
 70
    -2
  9
$DIMLWE
 70
    -2
  9
$DIMTMOVE
 70
     0
  9
$LUNITS
 70
     2
  9
$LUPREC
 70
     4
  9
$SKETCHINC
 40
1.0
  9
$FILLETRAD
 40
10.0
  9
$AUNITS
 70
     0
  9
$AUPREC
 70
     0
  9
$MENU
  1
.
  9
$ELEVATION
 40
0.0
  9
$PELEVATION
 40
0.0
  9
$THICKNESS
 40
0.0
  9
$LIMCHECK
 70
     0
  9
$CHAMFERA
 40
10.0
  9
$CHAMFERB
 40
10.0
  9
$CHAMFERC
 40
20.0
  9
$CHAMFERD
 40
0.0
  9
$SKPOLY
 70
     0
  9
$TDCREATE
 40
2456498.819373009
  9
$TDUCREATE
 40
2456498.444373009
  9
$TDUPDATE
 40
2456498.819373021
  9
$TDUUPDATE
 40
2456498.444373021
  9
$TDINDWG
 40
0.0000000116
  9
$TDUSRTIMER
 40
0.0000000116
  9
$USRTIMER
 70
     1
  9
$ANGBASE
 50
0.0
  9
$ANGDIR
 70
     0
  9
$PDMODE
 70
     0
  9
$PDSIZE
 40
0.0
  9
$PLINEWID
 40
0.0
  9
$SPLFRAME
 70
     0
  9
$SPLINETYPE
 70
     6
  9
$SPLINESEGS
 70
     8
  9
$HANDSEED
  5
36E
  9
$SURFTAB1
 70
     6
  9
$SURFTAB2
 70
     6
  9
$SURFTYPE
 70
     6
  9
$SURFU
 70
     6
  9
$SURFV
 70
     6
  9
$UCSBASE
  2

  9
$UCSNAME
  2

  9
$UCSORG
 10
0.0
 20
0.0
 30
0.0
  9
$UCSXDIR
 10
1.0
 20
0.0
 30
0.0
  9
$UCSYDIR
 10
0.0
 20
1.0
 30
0.0
  9
$UCSORTHOREF
  2

  9
$UCSORTHOVIEW
 70
     0
  9
$UCSORGTOP
 10
0.0
 20
0.0
 30
0.0
  9
$UCSORGBOTTOM
 10
0.0
 20
0.0
 30
0.0
  9
$UCSORGLEFT
 10
0.0
 20
0.0
 30
0.0
  9
$UCSORGRIGHT
 10
0.0
 20
0.0
 30
0.0
  9
$UCSORGFRONT
 10
0.0
 20
0.0
 30
0.0
  9
$UCSORGBACK
 10
0.0
 20
0.0
 30
0.0
  9
$PUCSBASE
  2

  9
$PUCSNAME
  2

  9
$PUCSORG
 10
0.0
 20
0.0
 30
0.0
  9
$PUCSXDIR
 10
1.0
 20
0.0
 30
0.0
  9
$PUCSYDIR
 10
0.0
 20
1.0
 30
0.0
  9
$PUCSORTHOREF
  2

  9
$PUCSORTHOVIEW
 70
     0
  9
$PUCSORGTOP
 10
0.0
 20
0.0
 30
0.0
  9
$PUCSORGBOTTOM
 10
0.0
 20
0.0
 30
0.0
  9
$PUCSORGLEFT
 10
0.0
 20
0.0
 30
0.0
  9
$PUCSORGRIGHT
 10
0.0
 20
0.0
 30
0.0
  9
$PUCSORGFRONT
 10
0.0
 20
0.0
 30
0.0
  9
$PUCSORGBACK
 10
0.0
 20
0.0
 30
0.0
  9
$USERI1
 70
     0
  9
$USERI2
 70
     0
  9
$USERI3
 70
     0
  9
$USERI4
 70
     0
  9
$USERI5
 70
     0
  9
$USERR1
 40
0.0
  9
$USERR2
 40
0.0
  9
$USERR3
 40
0.0
  9
$USERR4
 40
0.0
  9
$USERR5
 40
0.0
  9
$WORLDVIEW
 70
     1
  9
$SHADEDGE
 70
     3
  9
$SHADEDIF
 70
    70
  9
$TILEMODE
 70
     1
  9
$MAXACTVP
 70
    64
  9
$PINSBASE
 10
0.0
 20
0.0
 30
0.0
  9
$PLIMCHECK
 70
     0
  9
$PEXTMIN
 10
1.000000000000000E+20
 20
1.000000000000000E+20
 30
1.000000000000000E+20
  9
$PEXTMAX
 10
-1.000000000000000E+20
 20
-1.000000000000000E+20
 30
-1.000000000000000E+20
  9
$PLIMMIN
 10
0.0
 20
0.0
  9
$PLIMMAX
 10
420.0
 20
297.0
  9
$UNITMODE
 70
     0
  9
$VISRETAIN
 70
     1
  9
$PLINEGEN
 70
     0
  9
$PSLTSCALE
 70
     1
  9
$TREEDEPTH
 70
  3020
  9
$CMLSTYLE
  2
Standard
  9
$CMLJUST
 70
     0
  9
$CMLSCALE
 40
20.0
  9
$PROXYGRAPHICS
 70
     1
  9
$MEASUREMENT
 70
     1
  9
$CELWEIGHT
370
    -1
  9
$ENDCAPS
280
     0
  9
$JOINSTYLE
280
     0
  9
$LWDISPLAY
290
     0
  9
$INSUNITS
 70
     4
  9
$HYPERLINKBASE
  1

  9
$STYLESHEET
  1

  9
$XEDIT
290
     1
  9
$CEPSNTYPE
380
     0
  9
$PSTYLEMODE
290
     1
  9
$FINGERPRINTGUID
  2
{D18E66A4-A70E-486D-BBA8-BB2AC9DE0847}
  9
$VERSIONGUID
  2
{FAEB1C32-E019-11D5-929B-00C0DF256EC4}
  9
$EXTNAMES
290
     1
  9
$PSVPSCALE
 40
0.0
  9
$OLESTARTUP
290
     0
  9
$SORTENTS
280
   127
  9
$INDEXCTL
280
     0
  9
$HIDETEXT
280
     1
  9
$XCLIPFRAME
290
     0
  9
$HALOGAP
280
     0
  9
$OBSCOLOR
 70
   257
  9
$OBSLTYPE
280
     0
  9
$INTERSECTIONDISPLAY
280
     0
  9
$INTERSECTIONCOLOR
 70
   257
  9
$DIMASSOC
280
     2
  9
$PROJECTNAME
  1

  0
ENDSEC
  0
SECTION
  2
CLASSES
  0
CLASS
  1
ACDBDICTIONARYWDFLT
  2
AcDbDictionaryWithDefault
  3
ObjectDBX Classes
 90
        0
 91
        4
280
     0
281
     0
  0
CLASS
  1
VISUALSTYLE
  2
AcDbVisualStyle
  3
ObjectDBX Classes
 90
     4095
 91
        4
280
     0
281
     0
  0
ENDSEC
  0
SECTION
  2
TABLES
  0
TABLE
  2
VPORT
  5
8
330
0
100
AcDbSymbolTable
 70
     1
  0
VPORT
  5
29
330
8
100
AcDbSymbolTableRecord
100
AcDbViewportTableRecord
  2
*Active
 70
     0
 10
0.0
 20
0.0
 11
1.0
 21
1.0
 12
0.0
 22
0.0
 13
0.0
 23
0.0
 14
10.0
 24
10.0
 15
10.0
 25
10.0
 16
0.0
 26
0.0
 36
1.0
 17
0.0
 27
0.0
 37
0.0
 40
3267.0
 41
1.414141414141414
 42
50.0
 43
0.0
 44
0.0
 50
0.0
 51
0.0
 71
     0
 72
 10000
 73
     1
 74
     3
 75
     0
 76
     0
 77
     0
 78
     0
281
     0
 65
     1
110
0.0
120
0.0
130
0.0
111
1.0
121
0.0
131
0.0
112
0.0
122
1.0
132
0.0
 79
     0
146
0.0
  0
ENDTAB
  0
TABLE
  2
LTYPE
  5
5
330
0
100
AcDbSymbolTable
 70
     4
  0
LTYPE
  5
14
330
5
100
AcDbSymbolTableRecord
100
AcDbLinetypeTableRecord
  2
ByBlock
 70
     0
  3

 72
    65
 73
     0
 40
0.0
  0
LTYPE
  5
15
330
5
100
AcDbSymbolTableRecord
100
AcDbLinetypeTableRecord
  2
ByLayer
 70
     0
  3

 72
    65
 73
     0
 40
0.0
  0
LTYPE
  5
16
330
5
100
AcDbSymbolTableRecord
100
AcDbLinetypeTableRecord
  2
Continuous
 70
     0
  3
Solid line
 72
    65
 73
     0
 40
0.0
  0
LTYPE
  5
3C
330
5
100
AcDbSymbolTableRecord
100
AcDbLinetypeTableRecord
  2
JWW_DASHED1
 70
     0
  3
-  --  --  --  --  --  --  --  -
 72
    65
 73
     2
 40
1.693333333333333
 49
0.8466666666666667
 74
     0
 49
-0.8466666666666667
 74
     0
  0
LTYPE
  5
3D
330
5
100
AcDbSymbolTableRecord
100
AcDbLinetypeTableRecord
  2
JWW_CENTER1
 70
     0
  3
-----  --  ----------  --  -----
 72
    65
 73
     4
 40
6.773333333333333
 49
4.233333333333333
 74
     0
 49
-0.8466666666666667
 74
     0
 49
0.8466666666666667
 74
     0
 49
-0.8466666666666667
 74
     0
  0
LTYPE
  5
3E
330
5
100
AcDbSymbolTableRecord
100
AcDbLinetypeTableRecord
  2
JWW_PHANTOM1
 70
     0
  3
----  -  -  --------  -  -  ----
 72
    65
 73
     6
 40
6.773333333333333
 49
3.386666666666667
 74
     0
 49
-0.8466666666666667
 74
     0
 49
0.4233333333333333
 74
     0
 49
-0.8466666666666667
 74
     0
 49
0.4233333333333333
 74
     0
 49
-0.8466666666666667
 74
     0
  0
ENDTAB
  0
TABLE
  2
LAYER
  5
2
330
0
100
AcDbSymbolTable
 70
     8
  0
LAYER
  5
10
330
2
100
AcDbSymbolTableRecord
100
AcDbLayerTableRecord
  2
0
 70
     0
 62
     7
  6
Continuous
370
    -3
390
F
  0
LAYER
  5
3F
330
2
100
AcDbSymbolTableRecord
100
AcDbLayerTableRecord
  2
F-4
 70
     0
 62
     7
  6
Continuous
370
    -3
390
F
  0
LAYER
  5
40
330
2
100
AcDbSymbolTableRecord
100
AcDbLayerTableRecord
  2
0-1
 70
     0
 62
     7
  6
Continuous
370
    -3
390
F
  0
LAYER
  5
41
330
2
100
AcDbSymbolTableRecord
100
AcDbLayerTableRecord
  2
0-5
 70
     0
 62
     7
  6
Continuous
370
    -3
390
F
  0
LAYER
  5
42
330
2
100
AcDbSymbolTableRecord
100
AcDbLayerTableRecord
  2
0-4
 70
     0
 62
     7
  6
Continuous
370
    -3
390
F
  0
LAYER
  5
43
330
2
100
AcDbSymbolTableRecord
100
AcDbLayerTableRecord
  2
0-E
 70
     0
 62
     7
  6
Continuous
370
    -3
390
F
  0
LAYER
  5
44
330
2
100
AcDbSymbolTableRecord
100
AcDbLayerTableRecord
  2
0-0
 70
     0
 62
     7
  6
Continuous
370
    -3
390
F
  0
LAYER
  5
45
330
2
100
AcDbSymbolTableRecord
100
AcDbLayerTableRecord
  2
0-2
 70
     0
 62
     7
  6
Continuous
370
    -3
390
F
  0
ENDTAB
  0
TABLE
  2
STYLE
  5
3
330
0
100
AcDbSymbolTable
 70
     2
  0
STYLE
  5
11
330
3
100
AcDbSymbolTableRecord
100
AcDbTextStyleTableRecord
  2
Standard
 70
     0
 40
0.0
 41
1.0
 50
0.0
 71
     0
 42
2.5
  3
txt
  4

1001
ACAD
1000

1071
        0
  0
STYLE
  5
3B
330
3
100
AcDbSymbolTableRecord
100
AcDbTextStyleTableRecord
  2
ＭＳ ゴシック
 70
     0
 40
1.0
 41
1.0
 50
0.0
 71
     0
 42
10.0
  3

  4

1001
ACAD
1000
MS Gothic
1071
    32817
  0
ENDTAB
  0
TABLE
  2
VIEW
  5
6
330
0
100
AcDbSymbolTable
 70
     0
  0
ENDTAB
  0
TABLE
  2
UCS
  5
7
330
0
100
AcDbSymbolTable
 70
     0
  0
ENDTAB
  0
TABLE
  2
APPID
  5
9
330
0
100
AcDbSymbolTable
 70
     1
  0
APPID
  5
12
330
9
100
AcDbSymbolTableRecord
100
AcDbRegAppTableRecord
  2
ACAD
 70
     0
  0
ENDTAB
  0
TABLE
  2
DIMSTYLE
  5
A
330
0
100
AcDbSymbolTable
 70
     1
100
AcDbDimStyleTable
  0
DIMSTYLE
105
27
330
A
100
AcDbSymbolTableRecord
100
AcDbDimStyleTableRecord
  2
ISO-25
 70
     0
 41
2.5
 42
0.625
 43
3.75
 44
1.25
 73
     0
 74
     0
 77
     1
 78
     8
140
2.5
141
2.5
143
0.03937007874016
147
0.625
171
     3
172
     1
271
     2
272
     2
274
     3
278
    44
283
     0
284
     8
340
11
  0
ENDTAB
  0
TABLE
  2
BLOCK_RECORD
  5
1
330
0
100
AcDbSymbolTable
 70
     1
  0
BLOCK_RECORD
  5
1F
330
1
100
AcDbSymbolTableRecord
100
AcDbBlockTableRecord
  2
*Model_Space
340
22
  0
BLOCK_RECORD
  5
1B
330
1
100
AcDbSymbolTableRecord
100
AcDbBlockTableRecord
  2
*Paper_Space
340
1E
  0
BLOCK_RECORD
  5
23
330
1
100
AcDbSymbolTableRecord
100
AcDbBlockTableRecord
  2
*Paper_Space0
340
26
  0
ENDTAB
  0
ENDSEC
  0
SECTION
  2
BLOCKS
  0
BLOCK
  5
20
330
1F
100
AcDbEntity
  8
0
100
AcDbBlockBegin
  2
*Model_Space
 70
     0
 10
0.0
 20
0.0
 30
0.0
  3
*Model_Space
  1

  0
ENDBLK
  5
21
330
1F
100
AcDbEntity
  8
0
100
AcDbBlockEnd
  0
BLOCK
  5
1C
330
1B
100
AcDbEntity
 67
     1
  8
0
100
AcDbBlockBegin
  2
*Paper_Space
 70
     0
 10
0.0
 20
0.0
 30
0.0
  3
*Paper_Space
  1

  0
ENDBLK
  5
1D
330
1B
100
AcDbEntity
 67
     1
  8
0
100
AcDbBlockEnd
  0
BLOCK
  5
24
330
23
100
AcDbEntity
  8
0
100
AcDbBlockBegin
  2
*Paper_Space0
 70
     0
 10
0.0
 20
0.0
 30
0.0
  3
*Paper_Space0
  1

  0
ENDBLK
  5
25
330
23
100
AcDbEntity
  8
0
100
AcDbBlockEnd
  0
ENDSEC
  0
SECTION
  2
ENTITIES
  0
TEXT
  5
46
330
1F
100
AcDbEntity
  8
F-4
  6
Continuous
 62
     6
370
     0
100
AcDbText
 10
-129.7559276445715
 20
-1107.947430053015
 30
0.0
 40
30.48
  1
鋳鉄製　たて引き用　シート防水用　　　ＡＬＣ＝１００
 41
0.7980769230769229
  7
ＭＳ ゴシック
100
AcDbText
  0
TEXT
  5
47
330
1F
100
AcDbEntity
  8
F-4
  6
Continuous
 62
     6
370
     0
100
AcDbText
 10
-178.7883875456722
 20
-1152.965127743575
 30
0.0
 40
30.48
  1
ねじ込み式　ＡＬＣ用　ルーフドレイン　　ＥＡＳＰ－２－７５
 41
0.7982758620689655
  7
ＭＳ ゴシック
100
AcDbText
  0
LINE
  5
48
330
1F
100
AcDbEntity
  8
0-1
  6
Continuous
 62
     2
370
     9
100
AcDbLine
 10
-444.9999835040117
 20
-213.55224609375
 30
0.0
 11
-443.3333525786529
 21
-206.8854749524915
 31
0.0
  0
LINE
  5
49
330
1F
100
AcDbEntity
  8
0-1
  6
Continuous
 62
     2
370
     9
100
AcDbLine
 10
-424.8034503008867
 20
-206.8854749524915
 30
0.0
 11
-443.3333525786529
 21
-206.8854749524915
 31
0.0
  0
LINE
  5
4A
330
1F
100
AcDbEntity
  8
0-1
  6
Continuous
 62
     2
370
     9
100
AcDbLine
 10
-379.9998927760768
 20
-193.5521801097971
 30
0.0
 11
-389.9999257680531
 21
-193.5521801097971
 31
0.0
  0
LINE
  5
4B
330
1F
100
AcDbEntity
  8
0-1
  6
Continuous
 62
     2
370
     9
100
AcDbLine
 10
-391.643544789907
 20
-204.2829028980151
 30
0.0
 11
-389.9999257680531
 21
-193.5521801097971
 31
0.0
  0
LINE
  5
4C
330
1F
100
AcDbEntity
  8
0-1
  6
Continuous
 62
     2
370
     9
100
AcDbLine
 10
-379.9998927760768
 20
-193.5521801097971
 30
0.0
 11
-375.773002005912
 21
-216.1050827438766
 31
0.0
  0
LINE
  5
4D
330
1F
100
AcDbEntity
  8
0-1
  6
Continuous
 62
     2
370
     9
100
AcDbLine
 10
155.0000164959883
 20
-213.55224609375
 30
0.0
 11
153.333261850718
 21
-206.8854749524915
 31
0.0
  0
LINE
  5
4E
330
1F
100
AcDbEntity
  8
0-1
  6
Continuous
 62
     2
370
     9
100
AcDbLine
 10
134.8034832928633
 20
-206.8854749524915
 30
0.0
 11
153.333261850718
 21
-206.8854749524915
 31
0.0
  0
LINE
  5
4F
330
1F
100
AcDbEntity
  8
0-1
  6
Continuous
 62
     2
370
     9
100
AcDbLine
 10
101.6435777818836
 20
-204.2829028980151
 30
0.0
 11
100.0000824799409
 21
-193.5521801097971
 31
0.0
  0
LINE
  5
50
330
1F
100
AcDbEntity
  8
0-1
  6
Continuous
 62
     2
370
     9
100
AcDbLine
 10
-308.3334020666172
 20
-231.8855574324324
 30
0.0
 11
-305.000016495988
 21
-248.5521141258445
 31
0.0
  0
LINE
  5
51
330
1F
100
AcDbEntity
  8
0-1
  6
Continuous
 62
     2
370
     9
100
AcDbLine
 10
-268.333270098712
 20
-231.8855574324324
 30
0.0
 11
-271.6666556693411
 21
-248.5521141258445
 31
0.0
  0
LINE
  5
52
330
1F
100
AcDbEntity
  8
0-1
  6
Continuous
 62
     2
370
     9
100
AcDbLine
 10
-247.5293958509289
 20
-235.9049699113174
 30
0.0
 11
-244.9999422640414
 21
-248.5521141258445
 31
0.0
  0
LINE
  5
53
330
1F
100
AcDbEntity
  8
0-1
  6
Continuous
 62
     2
370
     9
100
AcDbLine
 10
-252.4322922165328
 20
-231.8855574324324
 30
0.0
 11
-331.5015638196789
 21
-231.8855574324324
 31
0.0
  0
LINE
  5
54
330
1F
100
AcDbEntity
  8
0-1
  6
Continuous
 62
     2
370
     9
100
AcDbLine
 10
-331.5015638196789
 20
-231.8855574324324
 30
0.0
 11
-370.9458222260346
 21
-221.3164128483952
 31
0.0
  0
LINE
  5
55
330
1F
100
AcDbEntity
  8
0-1
  6
Continuous
 62
     2
370
     9
100
AcDbLine
 10
-404.1163676493875
 20
-212.4288692989865
 30
0.0
 11
-424.8034503008867
 21
-206.8854749524915
 31
0.0
  0
LINE
  5
56
330
1F
100
AcDbEntity
  8
0-1
  6
JWW_DASHED1
 62
     2
370
     9
100
AcDbLine
 10
-370.9458222260346
 20
-221.3164128483952
 30
0.0
 11
-404.1163676493875
 21
-212.4288692989865
 31
0.0
  0
LINE
  5
57
330
1F
100
AcDbEntity
  8
0-1
  6
Continuous
 62
     2
370
     9
100
AcDbLine
 10
42.59973474451016
 20
-217.6763256176098
 30
0.0
 11
40.74269887563361
 21
-228.1135847761824
 31
0.0
  0
LINE
  5
58
330
1F
100
AcDbEntity
  8
0-1
  6
JWW_DASHED1
 62
     2
370
     9
100
AcDbLine
 10
87.01617266680756
 20
-209.4732006176098
 30
0.0
 11
85.77303499788854
 21
-216.1050827438766
 31
0.0
  0
LINE
  5
59
330
1F
100
AcDbEntity
  8
0-1
  6
Continuous
 62
     2
370
     9
100
AcDbLine
 10
22.84117002744949
 20
-236.8855739284206
 30
0.0
 11
35.9045080236487
 21
-233.385290197424
 31
0.0
  0
LINE
  5
5A
330
1F
100
AcDbEntity
  8
0-1
  6
JWW_DASHED1
 62
     2
370
     9
100
AcDbLine
 10
35.9045080236487
 20
-233.385290197424
 30
0.0
 11
114.1165243612755
 21
-212.4283744193411
 31
0.0
  0
LINE
  5
5B
330
1F
100
AcDbEntity
  8
0-1
  6
Continuous
 62
     2
370
     9
100
AcDbLine
 10
114.1165243612755
 20
-212.4283744193411
 30
0.0
 11
134.8034832928633
 21
-206.8854749524915
 31
0.0
  0
LINE
  5
5C
330
1F
100
AcDbEntity
  8
0-1
  6
Continuous
 62
     2
370
     9
100
AcDbLine
 10
90.00004948796459
 20
-193.5521801097971
 30
0.0
 11
87.01617266680756
 21
-209.4732006176098
 31
0.0
  0
LINE
  5
5D
330
1F
100
AcDbEntity
  8
0-1
  6
Continuous
 62
     2
370
     9
100
AcDbLine
 10
90.00004948796459
 20
-193.5521801097971
 30
0.0
 11
100.0000824799409
 21
-193.5521801097971
 31
0.0
  0
LINE
  5
5E
330
1F
100
AcDbEntity
  8
0-1
  6
Continuous
 62
     4
370
     9
100
AcDbLine
 10
-275.0000412399703
 20
-269.1523453995987
 30
0.0
 11
-301.6666309253588
 21
-269.1523453995987
 31
0.0
  0
LINE
  5
5F
330
1F
100
AcDbEntity
  8
0-1
  6
Continuous
 62
     4
370
     9
100
AcDbLine
 10
-301.6666309253588
 20
-269.1523453995987
 30
0.0
 11
-299.4117118216849
 21
-271.4070170634501
 31
0.0
  0
LINE
  5
60
330
1F
100
AcDbEntity
  8
0-1
  6
Continuous
 62
     4
370
     9
100
AcDbLine
 10
-299.4117118216849
 20
-271.4070170634501
 30
0.0
 11
-277.2549603436443
 21
-271.4070170634501
 31
0.0
  0
LINE
  5
61
330
1F
100
AcDbEntity
  8
0-1
  6
Continuous
 62
     4
370
     9
100
AcDbLine
 10
-277.2549603436443
 20
-271.4070170634501
 30
0.0
 11
-275.0000412399703
 21
-269.1523453995987
 31
0.0
  0
LINE
  5
62
330
1F
100
AcDbEntity
  8
0-1
  6
Continuous
 62
     4
370
     9
100
AcDbLine
 10
-313.3334185626055
 20
-212.6245941986907
 30
0.0
 11
-313.3334185626055
 21
-231.8855574324324
 31
0.0
  0
LINE
  5
63
330
1F
100
AcDbEntity
  8
0-1
  6
Continuous
 62
     4
370
     9
100
AcDbLine
 10
-263.3332536027237
 20
-212.6245941986907
 30
0.0
 11
-263.3332536027237
 21
-231.8855574324324
 31
0.0
  0
LINE
  5
64
330
1F
100
AcDbEntity
  8
0-1
  6
Continuous
 62
     4
370
     9
100
AcDbLine
 10
-300.8240983292862
 20
-212.6245941986907
 30
0.0
 11
-300.8240983292862
 21
-231.8855574324324
 31
0.0
  0
LINE
  5
65
330
1F
100
AcDbEntity
  8
0-1
  6
Continuous
 62
     4
370
     9
100
AcDbLine
 10
-275.842573836043
 20
-212.6245941986907
 30
0.0
 11
-275.842573836043
 21
-231.8855574324324
 31
0.0
  0
LINE
  5
66
330
1F
100
AcDbEntity
  8
0-1
  6
Continuous
 62
     4
370
     9
100
AcDbLine
 10
-307.0786347260346
 20
-210.2187368032094
 30
0.0
 11
-269.5880374392948
 21
-210.2187368032094
 31
0.0
  0
LINE
  5
67
330
1F
100
AcDbEntity
  8
0-1
  6
Continuous
 62
     4
370
     9
100
AcDbLine
 10
-301.6666309253588
 20
-140.3288640202703
 30
0.0
 11
-299.4117118216849
 21
-138.0736974767737
 31
0.0
  0
LINE
  5
68
330
1F
100
AcDbEntity
  8
0-1
  6
Continuous
 62
     4
370
     9
100
AcDbLine
 10
-277.2549603436443
 20
-138.0736974767737
 30
0.0
 11
-275.0000412399703
 21
-140.3288640202703
 31
0.0
  0
LINE
  5
69
330
1F
100
AcDbEntity
  8
0-1
  6
Continuous
 62
     2
370
     9
100
AcDbLine
 10
-301.6666309253588
 20
-248.5521141258445
 30
0.0
 11
-314.3771197344805
 21
-248.5521141258445
 31
0.0
  0
LINE
  5
6A
330
1F
100
AcDbEntity
  8
0-1
  6
Continuous
 62
     2
370
     9
100
AcDbLine
 10
86.66654019742424
 20
-233.5872010926941
 30
0.0
 11
93.33331133868256
 21
-231.8009330130911
 31
0.0
  0
LINE
  5
6B
330
1F
100
AcDbEntity
  8
0-1
  6
Continuous
 62
     2
370
     9
100
AcDbLine
 10
86.66654019742424
 20
-233.5872010926941
 30
0.0
 11
83.33303090688361
 21
-232.7550609691723
 31
0.0
  0
LINE
  5
6C
330
1F
100
AcDbEntity
  8
0-1
  6
Continuous
 62
     2
370
     9
100
AcDbLine
 10
24.37702900654585
 20
-248.5521141258445
 30
0.0
 11
83.33303090688361
 21
-232.7550609691723
 31
0.0
  0
LINE
  5
6D
330
1F
100
AcDbEntity
  8
0-1
  6
Continuous
 62
     2
370
     9
100
AcDbLine
 10
93.33331133868256
 20
-231.8009330130911
 30
0.0
 11
96.66706806904585
 21
-229.1822773701435
 31
0.0
  0
LINE
  5
6E
330
1F
100
AcDbEntity
  8
0-1
  6
Continuous
 62
     2
370
     9
100
AcDbLine
 10
96.66706806904585
 20
-229.1822773701435
 30
0.0
 11
155.0000164959883
 21
-213.55224609375
 31
0.0
  0
LINE
  5
6F
330
1F
100
AcDbEntity
  8
0-1
  6
Continuous
 62
     2
370
     9
100
AcDbLine
 10
-376.6665072054477
 20
-233.5872010926941
 30
0.0
 11
-383.333278346706
 21
-231.8009330130911
 31
0.0
  0
LINE
  5
70
330
1F
100
AcDbEntity
  8
0-1
  6
Continuous
 62
     2
370
     9
100
AcDbLine
 10
-383.333278346706
 20
-231.8009330130911
 30
0.0
 11
-386.6667876372466
 21
-229.1822773701435
 31
0.0
  0
LINE
  5
71
330
1F
100
AcDbEntity
  8
0-1
  6
Continuous
 62
     2
370
     9
100
AcDbLine
 10
-386.6667876372466
 20
-229.1822773701435
 30
0.0
 11
-444.9999835040117
 21
-213.55224609375
 31
0.0
  0
LINE
  5
72
330
1F
100
AcDbEntity
  8
0-1
  6
Continuous
 62
     2
370
     9
100
AcDbLine
 10
-376.6665072054477
 20
-233.5872010926941
 30
0.0
 11
-373.3333690746409
 21
-232.7550609691723
 31
0.0
  0
LINE
  5
73
330
1F
100
AcDbEntity
  8
0-1
  6
Continuous
 62
     2
370
     9
100
AcDbLine
 10
-314.3771197344805
 20
-248.5521141258445
 30
0.0
 11
-373.3333690746409
 21
-232.7550609691723
 31
0.0
  0
LINE
  5
74
330
1F
100
AcDbEntity
  8
0-1
  6
Continuous
 62
     2
370
     9
100
AcDbLine
 10
-275.0000412399703
 20
-248.5521141258445
 30
0.0
 11
24.37702900654585
 21
-248.5521141258445
 31
0.0
  0
LINE
  5
75
330
1F
100
AcDbEntity
  8
0-1
  6
Continuous
 62
     2
370
     9
100
AcDbLine
 10
0.9761501002958539
 20
-239.3030609955657
 30
0.0
 11
-1.666507205447658
 21
-248.5521141258445
 31
0.0
  0
LINE
  5
76
330
1F
100
AcDbEntity
  8
0-1
  6
Continuous
 62
     2
370
     9
100
AcDbLine
 10
-247.3332997914906
 20
-236.8855739284206
 30
0.0
 11
22.84117002744949
 21
-236.8855739284206
 31
0.0
  0
LINE
  5
77
330
1F
100
AcDbEntity
  8
0-1
  6
Continuous
 62
     4
370
     9
100
AcDbLine
 10
-275.0000412399703
 20
-210.2187368032094
 30
0.0
 11
-275.0000412399703
 21
-140.3288640202703
 31
0.0
  0
LINE
  5
78
330
1F
100
AcDbEntity
  8
0-1
  6
Continuous
 62
     4
370
     9
100
AcDbLine
 10
-277.2549603436443
 20
-210.2187368032094
 30
0.0
 11
-277.2549603436443
 21
-138.0736974767737
 31
0.0
  0
LINE
  5
79
330
1F
100
AcDbEntity
  8
0-1
  6
Continuous
 62
     4
370
     9
100
AcDbLine
 10
-299.4117118216849
 20
-210.2187368032094
 30
0.0
 11
-299.4117118216849
 21
-138.0736974767737
 31
0.0
  0
LINE
  5
7A
330
1F
100
AcDbEntity
  8
0-1
  6
Continuous
 62
     4
370
     9
100
AcDbLine
 10
-301.6666309253588
 20
-210.2187368032094
 30
0.0
 11
-301.6666309253588
 21
-140.3288640202703
 31
0.0
  0
LINE
  5
7B
330
1F
100
AcDbEntity
  8
0-1
  6
Continuous
 62
     4
370
     9
100
AcDbLine
 10
-277.2549603436443
 20
-231.8855574324324
 30
0.0
 11
-277.2549603436443
 21
-271.4070170634501
 31
0.0
  0
LINE
  5
7C
330
1F
100
AcDbEntity
  8
0-1
  6
Continuous
 62
     4
370
     9
100
AcDbLine
 10
-275.0000412399703
 20
-231.8855574324324
 30
0.0
 11
-275.0000412399703
 21
-269.1523453995987
 31
0.0
  0
LINE
  5
7D
330
1F
100
AcDbEntity
  8
0-1
  6
Continuous
 62
     4
370
     9
100
AcDbLine
 10
-299.4117118216849
 20
-231.8855574324324
 30
0.0
 11
-299.4117118216849
 21
-271.4070170634501
 31
0.0
  0
LINE
  5
7E
330
1F
100
AcDbEntity
  8
0-1
  6
Continuous
 62
     4
370
     9
100
AcDbLine
 10
-301.6666309253588
 20
-231.8855574324324
 30
0.0
 11
-301.6666309253588
 21
-269.1523453995987
 31
0.0
  0
LINE
  5
7F
330
1F
100
AcDbEntity
  8
0-5
  6
Continuous
 62
     2
370
     9
100
AcDbLine
 10
-475.9467872413427
 20
-482.6195464263091
 30
0.0
 11
-478.3332206107474
 21
-473.0738129486909
 31
0.0
  0
LINE
  5
80
330
1F
100
AcDbEntity
  8
0-5
  6
Continuous
 62
     2
370
     9
100
AcDbLine
 10
-425.9808926968961
 20
-486.4068603515625
 30
0.0
 11
-471.0961006783148
 21
-486.4068603515625
 31
0.0
  0
LINE
  5
81
330
1F
100
AcDbEntity
  8
0-5
  6
Continuous
 62
     2
370
     9
100
AcDbLine
 10
-419.6904775258656
 20
-495.9530887088259
 30
0.0
 11
-421.1302061338682
 21
-490.1944217166384
 31
0.0
  0
LINE
  5
82
330
1F
100
AcDbEntity
  8
0-5
  6
Continuous
 62
     2
370
     9
100
AcDbLine
 10
-415.5706044789906
 20
-473.0738129486909
 30
0.0
 11
-478.3332206107474
 21
-473.0738129486909
 31
0.0
  0
LINE
  5
83
330
1F
100
AcDbEntity
  8
0-5
  6
Continuous
 62
     2
370
     9
100
AcDbLine
 10
-409.2801893079601
 20
-482.6195464263091
 30
0.0
 11
-410.7197941960516
 21
-476.8608794341216
 31
0.0
  0
LINE
  5
84
330
1F
100
AcDbEntity
  8
0-5
  6
Continuous
 62
     2
370
     9
100
AcDbLine
 10
29.05289933488177
 20
-495.9530887088259
 30
0.0
 11
26.66658968538854
 21
-486.4068603515625
 31
0.0
  0
LINE
  5
85
330
1F
100
AcDbEntity
  8
0-5
  6
Continuous
 62
     2
370
     9
100
AcDbLine
 10
185.9470676731419
 20
-482.6195464263091
 30
0.0
 11
188.3333773226352
 21
-473.0735655088682
 31
0.0
  0
LINE
  5
86
330
1F
100
AcDbEntity
  8
0-5
  6
Continuous
 62
     2
370
     9
100
AcDbLine
 10
135.9810494087839
 20
-486.4068603515625
 30
0.0
 11
181.0962573902029
 21
-486.4068603515625
 31
0.0
  0
LINE
  5
87
330
1F
100
AcDbEntity
  8
0-5
  6
Continuous
 62
     2
370
     9
100
AcDbLine
 10
129.6906342377534
 20
-495.9530887088259
 30
0.0
 11
131.1302391258448
 21
-490.1944217166384
 31
0.0
  0
LINE
  5
88
330
1F
100
AcDbEntity
  8
0-5
  6
Continuous
 62
     2
370
     9
100
AcDbLine
 10
120.7199509079393
 20
-476.8608794341216
 30
0.0
 11
119.2803460198482
 21
-482.6195464263091
 31
0.0
  0
LINE
  5
89
330
1F
100
AcDbEntity
  8
0-5
  6
Continuous
 62
     2
370
     9
100
AcDbLine
 10
125.5707611908784
 20
-473.0735655088682
 30
0.0
 11
188.3333773226352
 21
-473.0735655088682
 31
0.0
  0
LINE
  5
8A
330
1F
100
AcDbEntity
  8
0-5
  6
Continuous
 62
     2
370
     9
100
AcDbLine
 10
-392.1165260108739
 20
-489.6512913059543
 30
0.0
 11
-388.3332948426943
 21
-499.7401551942568
 31
0.0
  0
LINE
  5
8B
330
1F
100
AcDbEntity
  8
0-5
  6
Continuous
 62
     2
370
     9
100
AcDbLine
 10
-351.216579127956
 20
-489.6512913059543
 30
0.0
 11
-354.9999340160471
 21
-499.7401551942568
 31
0.0
  0
LINE
  5
8C
330
1F
100
AcDbEntity
  8
0-5
  6
Continuous
 62
     2
370
     9
100
AcDbLine
 10
-319.0531137827278
 20
-495.9530887088259
 30
0.0
 11
-316.6666804133234
 21
-486.4068603515625
 31
0.0
  0
LINE
  5
8D
330
1F
100
AcDbEntity
  8
0-5
  6
Continuous
 62
     2
370
     9
100
AcDbLine
 10
-404.4293790250211
 20
-486.4068603515625
 30
0.0
 11
-385.0000329919763
 21
-486.4068603515625
 31
0.0
  0
LINE
  5
8E
330
1F
100
AcDbEntity
  8
0-1
  6
Continuous
 62
     2
370
     9
100
AcDbLine
 10
74.99975256017763
 20
-213.55224609375
 30
0.0
 11
82.10177034945104
 21
-213.55224609375
 31
0.0
  0
LINE
  5
8F
330
1F
100
AcDbEntity
  8
0-1
  6
Continuous
 62
     2
370
     9
100
AcDbLine
 10
47.52230257601354
 20
-213.55224609375
 30
0.0
 11
58.33319586676538
 21
-213.55224609375
 31
0.0
  0
LINE
  5
90
330
1F
100
AcDbEntity
  8
0-1
  6
Continuous
 62
     4
370
     9
100
AcDbLine
 10
-286.3332799963047
 20
-144.7402211782094
 30
0.0
 11
-286.3332799963047
 21
-138.0736974767737
 31
0.0
  0
LINE
  5
91
330
1F
100
AcDbEntity
  8
0-1
  6
Continuous
 62
     4
370
     9
100
AcDbLine
 10
-286.3332799963047
 20
-144.7402211782094
 30
0.0
 11
-290.333268449113
 21
-144.7402211782094
 31
0.0
  0
LINE
  5
92
330
1F
100
AcDbEntity
  8
0-1
  6
Continuous
 62
     4
370
     9
100
AcDbLine
 10
-290.333268449113
 20
-144.7402211782094
 30
0.0
 11
-290.333268449113
 21
-138.0736974767737
 31
0.0
  0
LINE
  5
93
330
1F
100
AcDbEntity
  8
0-1
  6
Continuous
 62
     4
370
     9
100
AcDbLine
 10
-299.4117118216849
 20
-138.0736974767737
 30
0.0
 11
-290.333268449113
 21
-138.0736974767737
 31
0.0
  0
LINE
  5
94
330
1F
100
AcDbEntity
  8
0-1
  6
Continuous
 62
     4
370
     9
100
AcDbLine
 10
-286.3332799963047
 20
-138.0736974767737
 30
0.0
 11
-277.2549603436443
 21
-138.0736974767737
 31
0.0
  0
LINE
  5
95
330
1F
100
AcDbEntity
  8
0-1
  6
Continuous
 62
     4
370
     9
100
AcDbLine
 10
-275.0000412399703
 20
-140.3288640202703
 30
0.0
 11
-286.3332799963047
 21
-140.3288640202703
 31
0.0
  0
LINE
  5
96
330
1F
100
AcDbEntity
  8
0-1
  6
Continuous
 62
     4
370
     9
100
AcDbLine
 10
-290.333268449113
 20
-140.3288640202703
 30
0.0
 11
-301.6666309253588
 21
-140.3288640202703
 31
0.0
  0
LINE
  5
97
330
1F
100
AcDbEntity
  8
0-1
  6
JWW_CENTER1
 62
     4
370
     9
100
AcDbLine
 10
-288.3333360826646
 20
-130.9405022698479
 30
0.0
 11
-288.3333360826646
 21
-276.6402455922719
 31
0.0
  0
LINE
  5
98
330
1F
100
AcDbEntity
  8
0-5
  6
Continuous
 62
     2
370
     9
100
AcDbLine
 10
114.4295357369089
 20
-486.4068603515625
 30
0.0
 11
-358.3333195866763
 21
-486.4068603515625
 31
0.0
  0
LINE
  5
99
330
1F
100
AcDbEntity
  8
0-5
  6
Continuous
 62
     2
370
     9
100
AcDbLine
 10
124.8398239548143
 20
-499.7401551942568
 30
0.0
 11
-414.8397909628378
 21
-499.7401551942568
 31
0.0
  0
LINE
  5
9A
330
1F
100
AcDbEntity
  8
0-4
  6
Continuous
 62
     7
370
     9
100
AcDbLine
 10
288.333459802576
 20
-406.4068438555742
 30
0.0
 11
288.333459802576
 21
-206.4069263355151
 31
0.0
  0
LINE
  5
9B
330
1F
100
AcDbEntity
  8
0-4
  6
Continuous
 62
     7
370
     9
100
AcDbLine
 10
210.0001979518584
 20
-206.4069263355151
 30
0.0
 11
291.3334202122044
 21
-206.4069263355151
 31
0.0
  0
LINE
  5
9C
330
1F
100
AcDbEntity
  8
0-4
  6
Continuous
 62
     7
370
     9
100
AcDbLine
 10
288.333459802576
 20
-406.4068438555742
 30
0.0
 11
285.0702234216641
 21
-381.6206731023015
 31
0.0
  0
LINE
  5
9D
330
1F
100
AcDbEntity
  8
0-4
  6
Continuous
 62
     7
370
     9
100
AcDbLine
 10
288.333459802576
 20
-406.4068438555742
 30
0.0
 11
291.5966961834883
 21
-381.6206731023015
 31
0.0
  0
LINE
  5
9E
330
1F
100
AcDbEntity
  8
0-4
  6
Continuous
 62
     7
370
     9
100
AcDbLine
 10
288.333459802576
 20
-206.4069263355151
 30
0.0
 11
285.0702234216641
 21
-231.1930970887879
 31
0.0
  0
LINE
  5
9F
330
1F
100
AcDbEntity
  8
0-4
  6
Continuous
 62
     7
370
     9
100
AcDbLine
 10
288.333459802576
 20
-206.4069263355151
 30
0.0
 11
291.5966961834883
 21
-231.1930970887879
 31
0.0
  0
LINE
  5
A0
330
1F
100
AcDbEntity
  8
0-4
  6
Continuous
 62
     7
370
     9
100
AcDbLine
 10
368.3334762985643
 20
-473.0735655088682
 30
0.0
 11
368.3334762985643
 21
-206.4069263355151
 31
0.0
  0
LINE
  5
A1
330
1F
100
AcDbEntity
  8
0-4
  6
Continuous
 62
     7
370
     9
100
AcDbLine
 10
213.333459802576
 20
-473.0735655088682
 30
0.0
 11
371.3334367081927
 21
-473.0735655088682
 31
0.0
  0
LINE
  5
A2
330
1F
100
AcDbEntity
  8
0-4
  6
Continuous
 62
     7
370
     9
100
AcDbLine
 10
210.0001979518584
 20
-206.4069263355151
 30
0.0
 11
371.3334367081927
 21
-206.4069263355151
 31
0.0
  0
LINE
  5
A3
330
1F
100
AcDbEntity
  8
0-4
  6
Continuous
 62
     7
370
     9
100
AcDbLine
 10
368.3334762985643
 20
-473.0735655088682
 30
0.0
 11
365.0702399176521
 21
-448.2873947555954
 31
0.0
  0
LINE
  5
A4
330
1F
100
AcDbEntity
  8
0-4
  6
Continuous
 62
     7
370
     9
100
AcDbLine
 10
368.3334762985643
 20
-473.0735655088682
 30
0.0
 11
371.5967126794766
 21
-448.2873947555954
 31
0.0
  0
LINE
  5
A5
330
1F
100
AcDbEntity
  8
0-4
  6
Continuous
 62
     7
370
     9
100
AcDbLine
 10
368.3334762985643
 20
-206.4069263355151
 30
0.0
 11
365.0702399176521
 21
-231.1930970887879
 31
0.0
  0
LINE
  5
A6
330
1F
100
AcDbEntity
  8
0-4
  6
Continuous
 62
     7
370
     9
100
AcDbLine
 10
368.3334762985643
 20
-206.4069263355151
 30
0.0
 11
371.5967126794766
 21
-231.1930970887879
 31
0.0
  0
LINE
  5
A7
330
1F
100
AcDbEntity
  8
0-4
  6
Continuous
 62
     7
370
     9
100
AcDbLine
 10
-478.3332206107474
 20
-759.740270666174
 30
0.0
 11
188.3333773226352
 21
-759.740270666174
 31
0.0
  0
LINE
  5
A8
330
1F
100
AcDbEntity
  8
0-4
  6
Continuous
 62
     7
370
     9
100
AcDbLine
 10
-478.3332206107474
 20
-498.0737717087204
 30
0.0
 11
-478.3332206107474
 21
-762.7402310758023
 31
0.0
  0
LINE
  5
A9
330
1F
100
AcDbEntity
  8
0-4
  6
Continuous
 62
     7
370
     9
100
AcDbLine
 10
188.3333773226352
 20
-498.0735242688978
 30
0.0
 11
188.3333773226352
 21
-762.7402310758023
 31
0.0
  0
LINE
  5
AA
330
1F
100
AcDbEntity
  8
0-4
  6
Continuous
 62
     7
370
     9
100
AcDbLine
 10
-478.3332206107474
 20
-759.740270666174
 30
0.0
 11
-453.5470498574745
 21
-756.4770342852619
 31
0.0
  0
LINE
  5
AB
330
1F
100
AcDbEntity
  8
0-4
  6
Continuous
 62
     7
370
     9
100
AcDbLine
 10
-478.3332206107474
 20
-759.740270666174
 30
0.0
 11
-453.5470498574745
 21
-763.0033833271748
 31
0.0
  0
LINE
  5
AC
330
1F
100
AcDbEntity
  8
0-4
  6
Continuous
 62
     7
370
     9
100
AcDbLine
 10
188.3333773226352
 20
-759.740270666174
 30
0.0
 11
163.5473302892737
 21
-756.4770342852619
 31
0.0
  0
LINE
  5
AD
330
1F
100
AcDbEntity
  8
0-4
  6
Continuous
 62
     7
370
     9
100
AcDbLine
 10
188.3333773226352
 20
-759.740270666174
 30
0.0
 11
163.5473302892737
 21
-763.0033833271748
 31
0.0
  0
LINE
  5
AE
330
1F
100
AcDbEntity
  8
0-E
  6
Continuous
 62
     7
370
     9
100
AcDbLine
 10
183.5961419182857
 20
-485.7372881915117
 30
0.0
 11
198.8151756492823
 21
-505.5710746146536
 31
0.0
  0
LINE
  5
AF
330
1F
100
AcDbEntity
  8
0-E
  6
Continuous
 62
     7
370
     9
100
AcDbLine
 10
183.5961419182857
 20
-485.7372881915117
 30
0.0
 11
193.1631552206505
 21
-508.8341872756546
 31
0.0
  0
LINE
  5
B0
330
1F
100
AcDbEntity
  8
0-E
  6
Continuous
 62
     7
370
     9
100
AcDbLine
 10
-474.9999587600294
 20
-236.4069015915328
 30
0.0
 11
-484.5670957823057
 21
-259.503924395587
 31
0.0
  0
LINE
  5
B1
330
1F
100
AcDbEntity
  8
0-E
  6
Continuous
 62
     7
370
     9
100
AcDbLine
 10
-474.9999587600294
 20
-236.4069015915328
 30
0.0
 11
-490.218992491026
 21
-256.2406880146747
 31
0.0
  0
LINE
  5
B2
330
1F
100
AcDbEntity
  8
0-E
  6
Continuous
 62
     7
370
     9
100
AcDbLine
 10
-299.4117118216849
 20
-138.0736974767737
 30
0.0
 11
-314.6307455526815
 21
-118.2399110536318
 31
0.0
  0
LINE
  5
B3
330
1F
100
AcDbEntity
  8
0-E
  6
Continuous
 62
     7
370
     9
100
AcDbLine
 10
-299.4117118216849
 20
-138.0736974767737
 30
0.0
 11
-308.9788488439609
 21
-114.9766746727195
 31
0.0
  0
LINE
  5
B4
330
1F
100
AcDbEntity
  8
0-E
  6
Continuous
 62
     7
370
     9
100
AcDbLine
 10
-299.4117118216849
 20
-138.0736974767737
 30
0.0
 11
-538.7358794341217
 21
276.4478858741555
 31
0.0
  0
LINE
  5
B5
330
1F
100
AcDbEntity
  8
0-E
  6
Continuous
 62
     7
370
     9
100
AcDbLine
 10
-538.7358794341217
 20
276.4478858741555
 30
0.0
 11
-864.5935883393157
 21
276.4478858741555
 31
0.0
  0
LINE
  5
B6
330
1F
100
AcDbEntity
  8
0-E
  6
Continuous
 62
     7
370
     9
100
AcDbLine
 10
183.5961419182857
 20
-485.7372881915117
 30
0.0
 11
249.4158770586995
 21
-599.7402376741975
 31
0.0
  0
LINE
  5
B7
330
1F
100
AcDbEntity
  8
0-E
  6
Continuous
 62
     7
370
     9
100
AcDbLine
 10
-474.9999587600294
 20
-236.4069015915328
 30
0.0
 11
-532.7349688555742
 21
-336.4068603515625
 31
0.0
  0
LINE
  5
B8
330
1F
100
AcDbEntity
  8
0-E
  6
Continuous
 62
     7
370
     9
100
AcDbLine
 10
249.4158770586995
 20
-599.7402376741975
 30
0.0
 11
633.229683540963
 21
-599.7402376741975
 31
0.0
  0
LINE
  5
B9
330
1F
100
AcDbEntity
  8
0-E
  6
Continuous
 62
     7
370
     9
100
AcDbLine
 10
-819.3885597022804
 20
-336.4068603515625
 30
0.0
 11
-532.7349688555742
 21
-336.4068603515625
 31
0.0
  0
LINE
  5
BA
330
1F
100
AcDbEntity
  8
0-E
  6
Continuous
 62
     7
370
     9
100
AcDbLine
 10
-382.7449901683909
 20
-539.7402871621621
 30
0.0
 11
-392.3121271906672
 21
-562.8372481062605
 31
0.0
  0
LINE
  5
BB
330
1F
100
AcDbEntity
  8
0-E
  6
Continuous
 62
     7
370
     9
100
AcDbLine
 10
-382.7449901683909
 20
-539.7402871621621
 30
0.0
 11
-397.9640238993875
 21
-559.5741354452596
 31
0.0
  0
LINE
  5
BC
330
1F
100
AcDbEntity
  8
0-E
  6
Continuous
 62
     7
370
     9
100
AcDbLine
 10
-382.7449901683909
 20
-539.7402871621621
 30
0.0
 11
-509.7620371225716
 21
-759.740270666174
 31
0.0
  0
LINE
  5
BD
330
1F
100
AcDbEntity
  8
0-E
  6
Continuous
 62
     7
370
     9
100
AcDbLine
 10
-509.7620371225716
 20
-759.740270666174
 30
0.0
 11
-838.7978631096917
 21
-759.740270666174
 31
0.0
  0
LINE
  5
BE
330
1F
100
AcDbEntity
  8
0-0
  6
Continuous
 62
     3
370
     9
100
AcDbLine
 10
-478.3333443306586
 20
-233.073639740815
 30
0.0
 11
-475.0000824799409
 21
-206.4069263355151
 31
0.0
  0
LINE
  5
BF
330
1F
100
AcDbEntity
  8
0-0
  6
Continuous
 62
     3
370
     9
100
AcDbLine
 10
-478.3333443306586
 20
-233.073639740815
 30
0.0
 11
-468.3333113386823
 21
-233.073639740815
 31
0.0
  0
LINE
  5
C0
330
1F
100
AcDbEntity
  8
0-0
  6
Continuous
 62
     3
370
     9
100
AcDbLine
 10
-388.2843017578125
 20
-239.1021398595861
 30
0.0
 11
-371.7157312341638
 21
-243.5414577174831
 31
0.0
  0
LINE
  5
C1
330
1F
100
AcDbEntity
  8
0-0
  6
Continuous
 62
     3
370
     9
100
AcDbLine
 10
-422.4884033203125
 20
-219.5843340899492
 30
0.0
 11
-412.8293424039273
 21
-222.1724309148014
 31
0.0
  0
LINE
  5
C2
330
1F
100
AcDbEntity
  8
0-0
  6
Continuous
 62
     3
370
     9
100
AcDbLine
 10
-395.5006367451435
 20
-226.8157629064611
 30
0.0
 11
-403.1697866078969
 21
-224.760651459565
 31
0.0
  0
LINE
  5
C3
330
1F
100
AcDbEntity
  8
0-0
  6
Continuous
 62
     3
370
     9
100
AcDbLine
 10
-393.0975011877109
 20
-229.3671149176519
 30
0.0
 11
-391.8885102143159
 21
-235.2747406830657
 31
0.0
  0
LINE
  5
C4
330
1F
100
AcDbEntity
  8
0-0
  6
Continuous
 62
     3
370
     9
100
AcDbLine
 10
-362.6799712309966
 20
-237.5174115155194
 30
0.0
 11
-366.6808257231841
 21
-242.0292292414484
 31
0.0
  0
LINE
  5
C5
330
1F
100
AcDbEntity
  8
0-0
  6
Continuous
 62
     3
370
     9
100
AcDbLine
 10
-471.6665731894003
 20
-206.4069263355151
 30
0.0
 11
-432.1479591163427
 21
-216.9958661053631
 31
0.0
  0
LINE
  5
C6
330
1F
100
AcDbEntity
  8
0-0
  6
Continuous
 62
     3
370
     9
100
AcDbLine
 10
-408.9009877797719
 20
-237.0285941459036
 30
0.0
 11
-439.5268620671453
 21
-228.822499868032
 31
0.0
  0
LINE
  5
C7
330
1F
100
AcDbEntity
  8
0-0
  6
JWW_DASHED1
 62
     3
370
     9
100
AcDbLine
 10
-362.1714823954812
 20
-257.0409084010768
 30
0.0
 11
-359.5379803631755
 21
-254.0707644900759
 31
0.0
  0
LINE
  5
C8
330
1F
100
AcDbEntity
  8
0-0
  6
Continuous
 62
     3
370
     9
100
AcDbLine
 10
-403.2989501953125
 20
-246.0210521801098
 30
0.0
 11
-404.0952115445523
 21
-242.1314218881967
 31
0.0
  0
LINE
  5
C9
330
1F
100
AcDbEntity
  8
0-0
  6
Continuous
 62
     3
370
     9
100
AcDbLine
 10
-351.6538052945523
 20
-238.5643294050887
 30
0.0
 11
-359.3229551573057
 21
-236.5094653980151
 31
0.0
  0
LINE
  5
CA
330
1F
100
AcDbEntity
  8
0-0
  6
Continuous
 62
     3
370
     9
100
AcDbLine
 10
-267.8729083086992
 20
-255.896746661212
 30
0.0
 11
-261.6668701171875
 21
-316.4069180875211
 31
0.0
  0
LINE
  5
CB
330
1F
100
AcDbEntity
  8
0-0
  6
Continuous
 62
     3
370
     9
100
AcDbLine
 10
-322.6093189136401
 20
-339.7402459221917
 30
0.0
 11
-335.0001154719172
 21
-339.7402459221917
 31
0.0
  0
LINE
  5
CC
330
1F
100
AcDbEntity
  8
0-0
  6
Continuous
 62
     3
370
     9
100
AcDbLine
 10
-339.3612423458615
 20
-310.6652007231841
 30
0.0
 11
-335.0001154719172
 21
-339.7402459221917
 31
0.0
  0
LINE
  5
CD
330
1F
100
AcDbEntity
  8
0-0
  6
JWW_DASHED1
 62
     3
370
     9
100
AcDbLine
 10
-343.3368579761401
 20
-254.5965741131756
 30
0.0
 11
-352.8244430954391
 21
-252.0543773754223
 31
0.0
  0
LINE
  5
CE
330
1F
100
AcDbEntity
  8
0-0
  6
Continuous
 62
     3
370
     9
100
AcDbLine
 10
-398.2652818834458
 20
-250.2312407622466
 30
0.0
 11
-399.6947417388091
 21
-249.8483276367188
 31
0.0
  0
LINE
  5
CF
330
1F
100
AcDbEntity
  8
0-0
  6
JWW_DASHED1
 62
     3
370
     9
100
AcDbLine
 10
-398.2652818834458
 20
-250.2312407622466
 30
0.0
 11
-367.2068827861062
 21
-258.5532605970228
 31
0.0
  0
LINE
  5
D0
330
1F
100
AcDbEntity
  8
0-0
  6
Continuous
 62
     3
370
     9
100
AcDbLine
 10
-322.5172712996198
 20
-246.3713032490497
 30
0.0
 11
-341.9944969383445
 21
-241.1525499498521
 31
0.0
  0
LINE
  5
D1
330
1F
100
AcDbEntity
  8
0-0
  6
JWW_DASHED1
 62
     3
370
     9
100
AcDbLine
 10
-282.5104584565034
 20
-296.1323176203547
 30
0.0
 11
-302.6090054898648
 21
-293.9345571157094
 31
0.0
  0
LINE
  5
D2
330
1F
100
AcDbEntity
  8
0-0
  6
JWW_DASHED1
 62
     3
370
     9
100
AcDbLine
 10
-279.584977433488
 20
-298.8979525179475
 30
0.0
 11
-276.6666721653294
 21
-316.4069180875211
 31
0.0
  0
LINE
  5
D3
330
1F
100
AcDbEntity
  8
0-0
  6
JWW_DASHED1
 62
     3
370
     9
100
AcDbLine
 10
-344.3058323215794
 20
-306.407008815456
 30
0.0
 11
-335.0981016416807
 21
-306.407008815456
 31
0.0
  0
LINE
  5
D4
330
1F
100
AcDbEntity
  8
0-0
  6
JWW_DASHED1
 62
     3
370
     9
100
AcDbLine
 10
-335.999772355363
 20
-263.0369939030827
 30
0.0
 11
-326.5817178262245
 21
-339.7402459221917
 31
0.0
  0
LINE
  5
D5
330
1F
100
AcDbEntity
  8
0-0
  6
JWW_DASHED1
 62
     3
370
     9
100
AcDbLine
 10
-311.4473085145693
 20
-285.2125508076435
 30
0.0
 11
-315.1801856788427
 21
-254.8119704787796
 31
0.0
  0
LINE
  5
D6
330
1F
100
AcDbEntity
  8
0-0
  6
Continuous
 62
     3
370
     9
100
AcDbLine
 10
-317.6466658308698
 20
-344.1309418549409
 30
0.0
 11
-310.0000329919763
 21
-406.4068438555742
 31
0.0
  0
LINE
  5
D7
330
1F
100
AcDbEntity
  8
0-0
  6
Continuous
 62
     3
370
     9
100
AcDbLine
 10
-294.9999835040117
 20
-323.0735655088682
 30
0.0
 11
-294.9999835040117
 21
-356.4069263355151
 31
0.0
  0
LINE
  5
D8
330
1F
100
AcDbEntity
  8
0-0
  6
Continuous
 62
     3
370
     9
100
AcDbLine
 10
-277.1605620513091
 20
-323.0735655088682
 30
0.0
 11
-276.6666721653294
 21
-316.4069180875211
 31
0.0
  0
LINE
  5
D9
330
1F
100
AcDbEntity
  8
0-0
  6
Continuous
 62
     3
370
     9
100
AcDbLine
 10
-291.4734711518159
 20
-406.4068438555742
 30
0.0
 11
-288.3483061919341
 21
-356.4069263355151
 31
0.0
  0
LINE
  5
DA
330
1F
100
AcDbEntity
  8
0-0
  6
Continuous
 62
     3
370
     9
100
AcDbLine
 10
188.3333773226352
 20
-233.073639740815
 30
0.0
 11
185.0001154719175
 21
-206.4069263355151
 31
0.0
  0
LINE
  5
DB
330
1F
100
AcDbEntity
  8
0-0
  6
Continuous
 62
     3
370
     9
100
AcDbLine
 10
188.3333773226352
 20
-233.073639740815
 30
0.0
 11
178.3333443306589
 21
-233.073639740815
 31
0.0
  0
LINE
  5
DC
330
1F
100
AcDbEntity
  8
0-0
  6
Continuous
 62
     3
370
     9
100
AcDbLine
 10
132.4884363122891
 20
-219.5843340899492
 30
0.0
 11
122.8293753959039
 21
-222.1724309148014
 31
0.0
  0
LINE
  5
DD
330
1F
100
AcDbEntity
  8
0-0
  6
Continuous
 62
     3
370
     9
100
AcDbLine
 10
181.6666061813768
 20
-206.4069263355151
 30
0.0
 11
142.1479921083193
 21
-216.9958661053631
 31
0.0
  0
LINE
  5
DE
330
1F
100
AcDbEntity
  8
0-0
  6
Continuous
 62
     3
370
     9
100
AcDbLine
 10
118.9010207717484
 20
-237.0285941459036
 30
0.0
 11
149.5268950591216
 21
-228.822499868032
 31
0.0
  0
LINE
  5
DF
330
1F
100
AcDbEntity
  8
0-0
  6
Continuous
 62
     3
370
     9
100
AcDbLine
 10
72.17151538745782
 20
-257.0409084010768
 30
0.0
 11
69.53801335515209
 21
-254.0707644900759
 31
0.0
  0
LINE
  5
E0
330
1F
100
AcDbEntity
  8
0-0
  6
Continuous
 62
     3
370
     9
100
AcDbLine
 10
113.2989831872891
 20
-246.0210521801098
 30
0.0
 11
114.0952445365289
 21
-242.1314218881967
 31
0.0
  0
LINE
  5
E1
330
1F
100
AcDbEntity
  8
0-0
  6
JWW_PHANTOM1
 62
     3
370
     9
100
AcDbLine
 10
49.36127533783804
 20
-310.6652007231841
 30
0.0
 11
45.00014846389377
 21
-339.7402459221917
 31
0.0
  0
LINE
  5
E2
330
1F
100
AcDbEntity
  8
0-0
  6
Continuous
 62
     3
370
     9
100
AcDbLine
 10
53.33689096811668
 20
-254.5965741131756
 30
0.0
 11
62.82447608741563
 21
-252.0543773754223
 31
0.0
  0
LINE
  5
E3
330
1F
100
AcDbEntity
  8
0-0
  6
Continuous
 62
     3
370
     9
100
AcDbLine
 10
108.2653148754224
 20
-250.2312407622466
 30
0.0
 11
109.6947747307857
 21
-249.8483276367188
 31
0.0
  0
LINE
  5
E4
330
1F
100
AcDbEntity
  8
0-0
  6
JWW_PHANTOM1
 62
     3
370
     9
100
AcDbLine
 10
104.5955348659209
 20
-254.4624617293074
 30
0.0
 11
98.86383881440054
 21
-302.0053018105996
 31
0.0
  0
LINE
  5
E5
330
1F
100
AcDbEntity
  8
0-0
  6
Continuous
 62
     3
370
     9
100
AcDbLine
 10
108.2653148754224
 20
-250.2312407622466
 30
0.0
 11
77.20691577808282
 21
-258.5532605970228
 31
0.0
  0
LINE
  5
E6
330
1F
100
AcDbEntity
  8
0-0
  6
JWW_PHANTOM1
 62
     3
370
     9
100
AcDbLine
 10
93.89994853251693
 20
-306.407008815456
 30
0.0
 11
54.30586531355573
 21
-306.407008815456
 31
0.0
  0
LINE
  5
E7
330
1F
100
AcDbEntity
  8
0-0
  6
Continuous
 62
     3
370
     9
100
AcDbLine
 10
45.99980534733959
 20
-263.0369939030827
 30
0.0
 11
36.58175081820104
 21
-339.7402459221917
 31
0.0
  0
LINE
  5
E8
330
1F
100
AcDbEntity
  8
0-0
  6
Continuous
 62
     3
370
     9
100
AcDbLine
 10
5.000016495988291
 20
-323.0735655088682
 30
0.0
 11
5.000016495988291
 21
-356.4069263355151
 31
0.0
  0
LINE
  5
E9
330
1F
100
AcDbEntity
  8
0-0
  6
Continuous
 62
     3
370
     9
100
AcDbLine
 10
-12.8394049567143
 20
-323.0735655088682
 30
0.0
 11
-13.33329484269427
 21
-316.4069180875211
 31
0.0
  0
LINE
  5
EA
330
1F
100
AcDbEntity
  8
0-0
  6
Continuous
 62
     3
370
     9
100
AcDbLine
 10
1.473504143792468
 20
-406.4068438555742
 30
0.0
 11
-1.651660816089304
 21
-356.4069263355151
 31
0.0
  0
LINE
  5
EB
330
1F
100
AcDbEntity
  8
0-0
  6
Continuous
 62
     3
370
     9
100
AcDbLine
 10
-276.6666721653294
 20
-316.4069180875211
 30
0.0
 11
-13.33329484269427
 21
-316.4069180875211
 31
0.0
  0
LINE
  5
EC
330
1F
100
AcDbEntity
  8
0-0
  6
Continuous
 62
     3
370
     9
100
AcDbLine
 10
32.60935190561668
 20
-339.7402459221917
 30
0.0
 11
36.58175081820104
 21
-339.7402459221917
 31
0.0
  0
LINE
  5
ED
330
1F
100
AcDbEntity
  8
0-0
  6
JWW_PHANTOM1
 62
     3
370
     9
100
AcDbLine
 10
36.58175081820104
 20
-339.7402459221917
 30
0.0
 11
45.00014846389377
 21
-339.7402459221917
 31
0.0
  0
LINE
  5
EE
330
1F
100
AcDbEntity
  8
0-0
  6
Continuous
 62
     3
370
     9
100
AcDbLine
 10
-310.0000329919763
 20
-406.4068438555742
 30
0.0
 11
20.00006598395288
 21
-406.4068438555742
 31
0.0
  0
LINE
  5
EF
330
1F
100
AcDbEntity
  8
0-0
  6
Continuous
 62
     3
370
     9
100
AcDbLine
 10
27.64669882284636
 20
-344.1309418549409
 30
0.0
 11
20.00006598395288
 21
-406.4068438555742
 31
0.0
  0
LINE
  5
F0
330
1F
100
AcDbEntity
  8
0-0
  6
Continuous
 62
     3
370
     9
100
AcDbLine
 10
105.5004222972974
 20
-226.8157629064611
 30
0.0
 11
113.1698195998734
 21
-224.760651459565
 31
0.0
  0
LINE
  5
F1
330
1F
100
AcDbEntity
  8
0-0
  6
Continuous
 62
     3
370
     9
100
AcDbLine
 10
103.0975341796875
 20
-229.3671149176519
 30
0.0
 11
101.8885432062925
 21
-235.2747406830657
 31
0.0
  0
LINE
  5
F2
330
1F
100
AcDbEntity
  8
0-0
  6
Continuous
 62
     3
370
     9
100
AcDbLine
 10
98.28433474978908
 20
-239.1021398595861
 30
0.0
 11
81.71576422614038
 21
-243.5414577174831
 31
0.0
  0
LINE
  5
F3
330
1F
100
AcDbEntity
  8
0-0
  6
Continuous
 62
     3
370
     9
100
AcDbLine
 10
61.65383828652892
 20
-238.5643294050887
 30
0.0
 11
69.32298814928231
 21
-236.5094653980151
 31
0.0
  0
LINE
  5
F4
330
1F
100
AcDbEntity
  8
0-0
  6
Continuous
 62
     3
370
     9
100
AcDbLine
 10
72.6800042229732
 20
-237.5174115155194
 30
0.0
 11
76.68061127533804
 21
-242.0291055215371
 31
0.0
  0
LINE
  5
F5
330
1F
100
AcDbEntity
  8
0-0
  6
Continuous
 62
     3
370
     9
100
AcDbLine
 10
32.51730429159636
 20
-246.3713032490497
 30
0.0
 11
51.99452993032111
 21
-241.1525499498521
 31
0.0
  0
LINE
  5
F6
330
1F
100
AcDbEntity
  8
0-0
  6
Continuous
 62
     3
370
     9
100
AcDbLine
 10
21.44734150654585
 20
-285.2125508076435
 30
0.0
 11
25.18021867081927
 21
-254.8118467588682
 31
0.0
  0
LINE
  5
F7
330
1F
100
AcDbEntity
  8
0-0
  6
Continuous
 62
     3
370
     9
100
AcDbLine
 10
-7.489261111697658
 20
-296.1323176203547
 30
0.0
 11
12.60903848184142
 21
-293.9345571157094
 31
0.0
  0
LINE
  5
F8
330
1F
100
AcDbEntity
  8
0-0
  6
Continuous
 62
     3
370
     9
100
AcDbLine
 10
-10.41498957453541
 20
-298.8979525179475
 30
0.0
 11
-13.33329484269427
 21
-316.4069180875211
 31
0.0
  0
LINE
  5
F9
330
1F
100
AcDbEntity
  8
0-0
  6
Continuous
 62
     3
370
     9
100
AcDbLine
 10
-294.9999835040117
 20
-323.0735655088682
 30
0.0
 11
5.000016495988291
 21
-323.0735655088682
 31
0.0
  0
LINE
  5
FA
330
1F
100
AcDbEntity
  8
0-0
  6
Continuous
 62
     3
370
     9
100
AcDbLine
 10
5.000016495988291
 20
-356.4069263355151
 30
0.0
 11
-294.9999835040117
 21
-356.4069263355151
 31
0.0
  0
LINE
  5
FB
330
1F
100
AcDbEntity
  8
0-0
  6
Continuous
 62
     3
370
     9
100
AcDbLine
 10
-286.2147563212625
 20
-401.1482527449324
 30
0.0
 11
-283.4183151657516
 21
-356.4069263355151
 31
0.0
  0
LINE
  5
FC
330
1F
100
AcDbEntity
  8
0-0
  6
Continuous
 62
     3
370
     9
100
AcDbLine
 10
-291.4734711518159
 20
-406.4068438555742
 30
0.0
 11
-286.2147563212625
 21
-401.1482527449324
 31
0.0
  0
LINE
  5
FD
330
1F
100
AcDbEntity
  8
0-0
  6
Continuous
 62
     3
370
     9
100
AcDbLine
 10
1.473504143792468
 20
-406.4068438555742
 30
0.0
 11
-3.785086966849462
 21
-401.1482527449324
 31
0.0
  0
LINE
  5
FE
330
1F
100
AcDbEntity
  8
0-0
  6
Continuous
 62
     3
370
     9
100
AcDbLine
 10
-3.785086966849462
 20
-401.1482527449324
 30
0.0
 11
-6.581651842271867
 21
-356.4069263355151
 31
0.0
  0
LINE
  5
FF
330
1F
100
AcDbEntity
  8
0-0
  6
Continuous
 62
     3
370
     9
100
AcDbLine
 10
-286.2147563212625
 20
-401.1482527449324
 30
0.0
 11
-3.785086966849462
 21
-401.1482527449324
 31
0.0
  0
LINE
  5
100
330
1F
100
AcDbEntity
  8
0-0
  6
Continuous
 62
     3
370
     9
100
AcDbLine
 10
-388.8639295423351
 20
-302.0055492504223
 30
0.0
 11
-394.5955018739443
 21
-254.4624617293074
 31
0.0
  0
LINE
  5
101
330
1F
100
AcDbEntity
  8
0-0
  6
Continuous
 62
     3
370
     9
100
AcDbLine
 10
-272.846696183488
 20
-251.4069510794974
 30
0.0
 11
-275.0000412399703
 21
-251.4069510794974
 31
0.0
  0
LINE
  5
102
330
1F
100
AcDbEntity
  8
0-0
  6
Continuous
 62
     3
370
     9
100
AcDbLine
 10
-301.6666309253588
 20
-251.4069510794974
 30
0.0
 11
-316.238733240076
 21
-251.4069510794974
 31
0.0
  0
LINE
  5
103
330
1F
100
AcDbEntity
  8
0-0
  6
Continuous
 62
     3
370
     9
100
AcDbLine
 10
-475.0000824799409
 20
-206.4069263355151
 30
0.0
 11
-392.213151261613
 21
-206.4069263355151
 31
0.0
  0
LINE
  5
104
330
1F
100
AcDbEntity
  8
0-0
  6
Continuous
 62
     3
370
     9
100
AcDbLine
 10
102.2134316934122
 20
-206.4069263355151
 30
0.0
 11
185.0001154719175
 21
-206.4069263355151
 31
0.0
  0
LINE
  5
105
330
1F
100
AcDbEntity
  8
0-0
  6
Continuous
 62
     4
370
     9
100
AcDbLine
 10
-382.7451138883023
 20
-273.0736479888091
 30
0.0
 11
-360.5883624102617
 21
-273.0736479888091
 31
0.0
  0
LINE
  5
106
330
1F
100
AcDbEntity
  8
0-0
  6
Continuous
 62
     4
370
     9
100
AcDbLine
 10
-385.0000329919763
 20
-275.3285670924831
 30
0.0
 11
-358.3334433065878
 21
-275.3285670924831
 31
0.0
  0
LINE
  5
107
330
1F
100
AcDbEntity
  8
0-0
  6
Continuous
 62
     4
370
     9
100
AcDbLine
 10
-360.5883624102617
 20
-273.0736479888091
 30
0.0
 11
-358.3334433065878
 21
-275.3285670924831
 31
0.0
  0
LINE
  5
108
330
1F
100
AcDbEntity
  8
0-0
  6
Continuous
 62
     4
370
     9
100
AcDbLine
 10
-382.7451138883023
 20
-273.0736479888091
 30
0.0
 11
-385.0000329919763
 21
-275.3285670924831
 31
0.0
  0
LINE
  5
109
330
1F
100
AcDbEntity
  8
0-0
  6
Continuous
 62
     4
370
     9
100
AcDbLine
 10
-360.5883624102617
 20
-539.7402871621621
 30
0.0
 11
-358.3334433065878
 21
-537.4853680584881
 31
0.0
  0
LINE
  5
10A
330
1F
100
AcDbEntity
  8
0-0
  6
Continuous
 62
     4
370
     9
100
AcDbLine
 10
-382.7451138883023
 20
-539.7402871621621
 30
0.0
 11
-385.0000329919763
 21
-537.4853680584881
 31
0.0
  0
LINE
  5
10B
330
1F
100
AcDbEntity
  8
0-0
  6
Continuous
 62
     4
370
     9
100
AcDbLine
 10
-346.6666556693411
 20
-519.0013658678208
 30
0.0
 11
-346.6666556693411
 21
-499.7401551942568
 31
0.0
  0
LINE
  5
10C
330
1F
100
AcDbEntity
  8
0-0
  6
Continuous
 62
     4
370
     9
100
AcDbLine
 10
-396.6668206292229
 20
-519.0013658678208
 30
0.0
 11
-396.6668206292229
 21
-499.7401551942568
 31
0.0
  0
LINE
  5
10D
330
1F
100
AcDbEntity
  8
0-0
  6
Continuous
 62
     4
370
     9
100
AcDbLine
 10
-359.1759759026604
 20
-519.0013658678208
 30
0.0
 11
-359.1759759026604
 21
-499.7401551942568
 31
0.0
  0
LINE
  5
10E
330
1F
100
AcDbEntity
  8
0-0
  6
Continuous
 62
     4
370
     9
100
AcDbLine
 10
-384.1577478357263
 20
-519.0013658678208
 30
0.0
 11
-384.1577478357263
 21
-499.7401551942568
 31
0.0
  0
LINE
  5
10F
330
1F
100
AcDbEntity
  8
0-0
  6
Continuous
 62
     4
370
     9
100
AcDbLine
 10
-352.921439505912
 20
-521.4069758234797
 30
0.0
 11
-390.4125316722971
 21
-521.4069758234797
 31
0.0
  0
LINE
  5
110
330
1F
100
AcDbEntity
  8
0-0
  6
Continuous
 62
     4
370
     9
100
AcDbLine
 10
-358.3334433065878
 20
-537.4853680584881
 30
0.0
 11
-358.3334433065878
 21
-521.4069758234797
 31
0.0
  0
LINE
  5
111
330
1F
100
AcDbEntity
  8
0-0
  6
Continuous
 62
     4
370
     9
100
AcDbLine
 10
-360.5883624102617
 20
-521.4069758234797
 30
0.0
 11
-360.5883624102617
 21
-539.7402871621621
 31
0.0
  0
LINE
  5
112
330
1F
100
AcDbEntity
  8
0-0
  6
Continuous
 62
     4
370
     9
100
AcDbLine
 10
-382.7451138883023
 20
-539.7402871621621
 30
0.0
 11
-382.7451138883023
 21
-521.4069758234797
 31
0.0
  0
LINE
  5
113
330
1F
100
AcDbEntity
  8
0-0
  6
Continuous
 62
     4
370
     9
100
AcDbLine
 10
-385.0000329919763
 20
-521.4069758234797
 30
0.0
 11
-385.0000329919763
 21
-537.4853680584881
 31
0.0
  0
LINE
  5
114
330
1F
100
AcDbEntity
  8
0-0
  6
Continuous
 62
     4
370
     9
100
AcDbLine
 10
-369.6666820629221
 20
-533.0735160209036
 30
0.0
 11
-369.6666820629221
 21
-539.7402871621621
 31
0.0
  0
LINE
  5
115
330
1F
100
AcDbEntity
  8
0-0
  6
Continuous
 62
     4
370
     9
100
AcDbLine
 10
-369.6666820629221
 20
-533.0735160209036
 30
0.0
 11
-373.6667942356419
 21
-533.0735160209036
 31
0.0
  0
LINE
  5
116
330
1F
100
AcDbEntity
  8
0-0
  6
Continuous
 62
     4
370
     9
100
AcDbLine
 10
-373.6667942356419
 20
-533.0735160209036
 30
0.0
 11
-373.6667942356419
 21
-539.7402871621621
 31
0.0
  0
LINE
  5
117
330
1F
100
AcDbEntity
  8
0-0
  6
Continuous
 62
     4
370
     9
100
AcDbLine
 10
-385.0000329919763
 20
-537.4853680584881
 30
0.0
 11
-373.6667942356419
 21
-537.4853680584881
 31
0.0
  0
LINE
  5
118
330
1F
100
AcDbEntity
  8
0-0
  6
Continuous
 62
     4
370
     9
100
AcDbLine
 10
-369.6666820629221
 20
-537.4853680584881
 30
0.0
 11
-358.3334433065878
 21
-537.4853680584881
 31
0.0
  0
LINE
  5
119
330
1F
100
AcDbEntity
  8
0-0
  6
Continuous
 62
     4
370
     9
100
AcDbLine
 10
-382.7451138883023
 20
-539.7402871621621
 30
0.0
 11
-373.6667942356419
 21
-539.7402871621621
 31
0.0
  0
LINE
  5
11A
330
1F
100
AcDbEntity
  8
0-0
  6
Continuous
 62
     4
370
     9
100
AcDbLine
 10
-369.6666820629221
 20
-539.7402871621621
 30
0.0
 11
-360.5883624102617
 21
-539.7402871621621
 31
0.0
  0
LINE
  5
11B
330
1F
100
AcDbEntity
  8
0-0
  6
JWW_CENTER1
 62
     4
370
     9
100
AcDbLine
 10
-371.666738149282
 20
-548.9101595491975
 30
0.0
 11
-371.666738149282
 21
-267.6857695708404
 31
0.0
  0
LINE
  5
11C
330
1F
100
AcDbEntity
  8
0-0
  6
Continuous
 62
     7
370
     9
100
AcDbLine
 10
-395.0000659839526
 20
-393.7517815667229
 30
0.0
 11
-348.3334103146115
 21
-385.5230465450802
 31
0.0
  0
LINE
  5
11D
330
1F
100
AcDbEntity
  8
0-0
  6
Continuous
 62
     7
370
     9
100
AcDbLine
 10
-395.0000659839526
 20
-407.290698902027
 30
0.0
 11
-348.3334103146115
 21
-399.0620876002956
 31
0.0
  0
LINE
  5
11E
330
1F
100
AcDbEntity
  8
0-0
  6
Continuous
 62
     4
370
     9
100
AcDbLine
 10
-385.0000329919763
 20
-275.3285670924831
 30
0.0
 11
-385.0000329919763
 21
-391.988525390625
 31
0.0
  0
LINE
  5
11F
330
1F
100
AcDbEntity
  8
0-0
  6
Continuous
 62
     4
370
     9
100
AcDbLine
 10
-385.0000329919763
 20
-405.5274427259291
 30
0.0
 11
-385.0000329919763
 21
-499.7401551942568
 31
0.0
  0
LINE
  5
120
330
1F
100
AcDbEntity
  8
0-0
  6
Continuous
 62
     4
370
     9
100
AcDbLine
 10
-358.3334433065878
 20
-275.3285670924831
 30
0.0
 11
-358.3334433065878
 21
-387.2863027211781
 31
0.0
  0
LINE
  5
121
330
1F
100
AcDbEntity
  8
0-0
  6
Continuous
 62
     4
370
     9
100
AcDbLine
 10
-358.3334433065878
 20
-400.8253437763935
 30
0.0
 11
-358.3334433065878
 21
-499.7401551942568
 31
0.0
  0
LINE
  5
122
330
1F
100
AcDbEntity
  8
0-0
  6
Continuous
 62
     4
370
     9
100
AcDbLine
 10
-382.7451138883023
 20
-499.7401551942568
 30
0.0
 11
-382.7451138883023
 21
-405.1298069309543
 31
0.0
  0
LINE
  5
123
330
1F
100
AcDbEntity
  8
0-0
  6
Continuous
 62
     4
370
     9
100
AcDbLine
 10
-382.7451138883023
 20
-391.5908895956503
 30
0.0
 11
-382.7451138883023
 21
-273.0736479888091
 31
0.0
  0
LINE
  5
124
330
1F
100
AcDbEntity
  8
0-0
  6
Continuous
 62
     4
370
     9
100
AcDbLine
 10
-360.5883624102617
 20
-273.0736479888091
 30
0.0
 11
-360.5883624102617
 21
-387.6839385161529
 31
0.0
  0
LINE
  5
125
330
1F
100
AcDbEntity
  8
0-0
  6
Continuous
 62
     4
370
     9
100
AcDbLine
 10
-360.5883624102617
 20
-401.2229795713682
 30
0.0
 11
-360.5883624102617
 21
-499.7401551942568
 31
0.0
  0
LINE
  5
126
330
1F
100
AcDbEntity
  8
0-0
  6
Continuous
 62
     3
370
     9
100
AcDbLine
 10
-358.3334433065878
 20
-306.407008815456
 30
0.0
 11
-344.3058323215794
 21
-306.407008815456
 31
0.0
  0
LINE
  5
127
330
1F
100
AcDbEntity
  8
0-4
  6
Continuous
 62
     7
370
     9
100
AcDbLine
 10
45.00014846389377
 20
-406.4068438555742
 30
0.0
 11
291.3334202122044
 21
-406.4068438555742
 31
0.0
  0
LINE
  5
128
330
1F
100
AcDbEntity
  8
0-4
  6
Continuous
 62
     7
370
     9
100
AcDbLine
 10
-286.2147563212625
 20
-599.7402376741975
 30
0.0
 11
-3.785086966849462
 21
-599.7402376741975
 31
0.0
  0
LINE
  5
129
330
1F
100
AcDbEntity
  8
0-4
  6
Continuous
 62
     7
370
     9
100
AcDbLine
 10
-286.2147563212625
 20
-426.148211504962
 30
0.0
 11
-286.2147563212625
 21
-602.7402599437817
 31
0.0
  0
LINE
  5
12A
330
1F
100
AcDbEntity
  8
0-4
  6
Continuous
 62
     7
370
     9
100
AcDbLine
 10
-3.785086966849462
 20
-426.148211504962
 30
0.0
 11
-3.785086966849462
 21
-602.7402599437817
 31
0.0
  0
LINE
  5
12B
330
1F
100
AcDbEntity
  8
0-4
  6
Continuous
 62
     7
370
     9
100
AcDbLine
 10
-286.2147563212625
 20
-599.7402376741975
 30
0.0
 11
-261.4285855679898
 21
-596.4770631532411
 31
0.0
  0
LINE
  5
12C
330
1F
100
AcDbEntity
  8
0-4
  6
Continuous
 62
     7
370
     9
100
AcDbLine
 10
-286.2147563212625
 20
-599.7402376741975
 30
0.0
 11
-261.4285855679898
 21
-603.003412195154
 31
0.0
  0
LINE
  5
12D
330
1F
100
AcDbEntity
  8
0-4
  6
Continuous
 62
     7
370
     9
100
AcDbLine
 10
-3.785086966849462
 20
-599.7402376741975
 30
0.0
 11
-28.57125772012239
 21
-596.4770631532411
 31
0.0
  0
LINE
  5
12E
330
1F
100
AcDbEntity
  8
0-4
  6
Continuous
 62
     7
370
     9
100
AcDbLine
 10
-3.785086966849462
 20
-599.7402376741975
 30
0.0
 11
-28.57125772012239
 21
-603.003412195154
 31
0.0
  0
LINE
  5
12F
330
1F
100
AcDbEntity
  8
0-4
  6
Continuous
 62
     7
370
     9
100
AcDbLine
 10
-310.0000329919763
 20
-679.7402541701858
 30
0.0
 11
20.00006598395288
 21
-679.7402541701858
 31
0.0
  0
LINE
  5
130
330
1F
100
AcDbEntity
  8
0-4
  6
Continuous
 62
     7
370
     9
100
AcDbLine
 10
-310.0000329919763
 20
-431.4068026156037
 30
0.0
 11
-310.0000329919763
 21
-682.7402764397698
 31
0.0
  0
LINE
  5
131
330
1F
100
AcDbEntity
  8
0-4
  6
Continuous
 62
     7
370
     9
100
AcDbLine
 10
20.00006598395288
 20
-431.4068026156037
 30
0.0
 11
20.00006598395288
 21
-682.7402764397698
 31
0.0
  0
LINE
  5
132
330
1F
100
AcDbEntity
  8
0-4
  6
Continuous
 62
     7
370
     9
100
AcDbLine
 10
-310.0000329919763
 20
-679.7402541701858
 30
0.0
 11
-285.2138622387034
 21
-676.4770796492293
 31
0.0
  0
LINE
  5
133
330
1F
100
AcDbEntity
  8
0-4
  6
Continuous
 62
     7
370
     9
100
AcDbLine
 10
-310.0000329919763
 20
-679.7402541701858
 30
0.0
 11
-285.2138622387034
 21
-683.0034286911423
 31
0.0
  0
LINE
  5
134
330
1F
100
AcDbEntity
  8
0-4
  6
Continuous
 62
     7
370
     9
100
AcDbLine
 10
20.00006598395288
 20
-679.7402541701858
 30
0.0
 11
-4.785981049408576
 21
-676.4770796492293
 31
0.0
  0
LINE
  5
135
330
1F
100
AcDbEntity
  8
0-4
  6
Continuous
 62
     7
370
     9
100
AcDbLine
 10
20.00006598395288
 20
-679.7402541701858
 30
0.0
 11
-4.785981049408576
 21
-683.0034286911423
 31
0.0
  0
ARC
  5
136
330
1F
100
AcDbEntity
  8
0-1
  6
Continuous
 62
     2
370
     9
100
AcDbCircle
 10
-369.2204243427997
 20
-214.8770389041384
 30
0.0
 40
6.666666752583272
100
AcDbArc
 50
190.6148834228516
 51
255.000503540039
  0
ARC
  5
137
330
1F
100
AcDbEntity
  8
0-1
  6
JWW_DASHED1
 62
     2
370
     9
100
AcDbCircle
 10
79.2205810546875
 20
-214.8770389041384
 30
0.0
 40
6.666666752583272
100
AcDbArc
 50
284.9994964599609
 51
349.3851165771484
  0
ARC
  5
138
330
1F
100
AcDbEntity
  8
0-1
  6
Continuous
 62
     2
370
     9
100
AcDbCircle
 10
-252.4322922165328
 20
-236.8855739284206
 30
0.0
 40
5.000000064437454
100
AcDbArc
 50
11.31021118164062
 51
90.00000000000001
  0
ARC
  5
139
330
1F
100
AcDbEntity
  8
0-1
  6
Continuous
 62
     2
370
     9
100
AcDbCircle
 10
47.52230257601354
 20
-218.5520151499155
 30
0.0
 40
5.000000064437454
100
AcDbArc
 50
90.0
 51
169.91162109375
  0
ARC
  5
13A
330
1F
100
AcDbEntity
  8
0-1
  6
Continuous
 62
     2
370
     9
100
AcDbCircle
 10
34.17911014041408
 20
-226.9456688133445
 30
0.0
 40
6.666666752583272
100
AcDbArc
 50
284.9994964599609
 51
349.9115142822266
  0
ARC
  5
13B
330
1F
100
AcDbEntity
  8
0-1
  6
Continuous
 62
     2
370
     9
100
AcDbCircle
 10
82.10177034945104
 20
-208.5519821579391
 30
0.0
 40
5.000000064437454
100
AcDbArc
 50
270.0
 51
349.3838348388672
  0
ARC
  5
13C
330
1F
100
AcDbEntity
  8
0-1
  6
Continuous
 62
     2
370
     9
100
AcDbCircle
 10
111.5280563766893
 20
-202.769313502956
 30
0.0
 40
10.00000012887491
100
AcDbArc
 50
188.7071380615235
 51
285.0002746582031
  0
ARC
  5
13D
330
1F
100
AcDbEntity
  8
0-1
  6
Continuous
 62
     2
370
     9
100
AcDbCircle
 10
-401.5281471046239
 20
-202.769313502956
 30
0.0
 40
10.00000012887491
100
AcDbArc
 50
254.9997253417969
 51
351.2928619384766
  0
ARC
  5
13E
330
1F
100
AcDbEntity
  8
0-1
  6
Continuous
 62
     4
370
     9
100
AcDbCircle
 10
-307.0786347260346
 20
-219.5529092324746
 30
0.0
 40
9.333911457577267
100
AcDbArc
 50
47.92556762695313
 51
132.0746307373047
  0
ARC
  5
13F
330
1F
100
AcDbEntity
  8
0-1
  6
Continuous
 62
     4
370
     9
100
AcDbCircle
 10
-288.3333360826646
 20
-243.8502626161316
 30
0.0
 40
33.63136729678592
100
AcDbArc
 50
68.19786071777344
 51
111.8021392822266
  0
ARC
  5
140
330
1F
100
AcDbEntity
  8
0-1
  6
Continuous
 62
     4
370
     9
100
AcDbCircle
 10
-269.5880374392948
 20
-219.5529092324746
 30
0.0
 40
9.33396558503847
100
AcDbArc
 50
47.92572021484374
 51
132.0742797851562
  0
ARC
  5
141
330
1F
100
AcDbEntity
  8
0-1
  6
Continuous
 62
     2
370
     9
100
AcDbCircle
 10
4.180990683065886
 20
-240.2188357791384
 30
0.0
 40
3.333333376291636
100
AcDbArc
 50
90.0
 51
164.0540161132812
  0
ARC
  5
142
330
1F
100
AcDbEntity
  8
0-5
  6
Continuous
 62
     2
370
     9
100
AcDbCircle
 10
-471.0961006783148
 20
-481.4070912953969
 30
0.0
 40
5.000000064437454
100
AcDbArc
 50
194.0364074707032
 51
270.0
  0
ARC
  5
143
330
1F
100
AcDbEntity
  8
0-5
  6
Continuous
 62
     2
370
     9
100
AcDbCircle
 10
-425.9808926968961
 20
-491.4068768475506
 30
0.0
 40
5.000000064437454
100
AcDbArc
 50
14.03511047363281
 51
90.0
  0
ARC
  5
144
330
1F
100
AcDbEntity
  8
0-5
  6
Continuous
 62
     2
370
     9
100
AcDbCircle
 10
-414.8397909628378
 20
-494.7403861380911
 30
0.0
 40
5.000000064437454
100
AcDbArc
 50
194.0364074707032
 51
270.0
  0
ARC
  5
145
330
1F
100
AcDbEntity
  8
0-5
  6
Continuous
 62
     2
370
     9
100
AcDbCircle
 10
-415.5706044789906
 20
-478.0735820048563
 30
0.0
 40
5.000000064437454
100
AcDbArc
 50
14.03640747070313
 51
90.0
  0
ARC
  5
146
330
1F
100
AcDbEntity
  8
0-5
  6
Continuous
 62
     2
370
     9
100
AcDbCircle
 10
-404.4293790250211
 20
-481.4070912953969
 30
0.0
 40
5.000000064437454
100
AcDbArc
 50
194.0364074707032
 51
270.0
  0
ARC
  5
147
330
1F
100
AcDbEntity
  8
0-5
  6
Continuous
 62
     2
370
     9
100
AcDbCircle
 10
33.90370961782111
 20
-494.7403861380911
 30
0.0
 40
5.000000064437454
100
AcDbArc
 50
194.0352783203125
 51
270.0
  0
ARC
  5
148
330
1F
100
AcDbEntity
  8
0-5
  6
Continuous
 62
     2
370
     9
100
AcDbCircle
 10
181.0962573902029
 20
-481.4070912953969
 30
0.0
 40
5.000000064437454
100
AcDbArc
 50
270.0
 51
345.9650573730469
  0
ARC
  5
149
330
1F
100
AcDbEntity
  8
0-5
  6
Continuous
 62
     2
370
     9
100
AcDbCircle
 10
135.9810494087839
 20
-491.4068768475506
 30
0.0
 40
5.000000064437454
100
AcDbArc
 50
90.0
 51
165.9650573730469
  0
ARC
  5
14A
330
1F
100
AcDbEntity
  8
0-5
  6
Continuous
 62
     2
370
     9
100
AcDbCircle
 10
124.8398239548143
 20
-494.7403861380911
 30
0.0
 40
5.000000064437454
100
AcDbArc
 50
270.0
 51
345.9650573730469
  0
ARC
  5
14B
330
1F
100
AcDbEntity
  8
0-5
  6
Continuous
 62
     2
370
     9
100
AcDbCircle
 10
114.4295357369089
 20
-481.4070912953969
 30
0.0
 40
5.000000064437454
100
AcDbArc
 50
270.0
 51
345.9650573730469
  0
ARC
  5
14C
330
1F
100
AcDbEntity
  8
0-5
  6
Continuous
 62
     2
370
     9
100
AcDbCircle
 10
125.5707611908784
 20
-478.0735820048563
 30
0.0
 40
5.000000064437454
100
AcDbArc
 50
90.0
 51
165.9650573730469
  0
ARC
  5
14D
330
1F
100
AcDbEntity
  8
0-5
  6
Continuous
 62
     2
370
     9
100
AcDbCircle
 10
-396.7982111750422
 20
-491.4068768475506
 30
0.0
 40
5.000000064437454
100
AcDbArc
 50
20.55572509765625
 51
90.0
  0
ARC
  5
14E
330
1F
100
AcDbEntity
  8
0-5
  6
Continuous
 62
     2
370
     9
100
AcDbCircle
 10
-346.534893963788
 20
-491.4068768475506
 30
0.0
 40
5.000000064437454
100
AcDbArc
 50
90.0
 51
159.4445037841797
  0
ARC
  5
14F
330
1F
100
AcDbEntity
  8
0-5
  6
Continuous
 62
     2
370
     9
100
AcDbCircle
 10
-323.9038003457557
 20
-494.7403861380911
 30
0.0
 40
5.000000064437454
100
AcDbArc
 50
270.0
 51
345.9647216796875
  0
ARC
  5
150
330
1F
100
AcDbEntity
  8
0-0
  6
Continuous
 62
     3
370
     9
100
AcDbCircle
 10
-449.0169215846706
 20
-264.2396751610008
 30
0.0
 40
36.66666520608438
100
AcDbArc
 50
74.99996948242188
 51
121.7902069091797
  0
ARC
  5
151
330
1F
100
AcDbEntity
  8
0-0
  6
Continuous
 62
     3
370
     9
100
AcDbCircle
 10
-370.421620961782
 20
-238.7119272592905
 30
0.0
 40
5.000000064437454
100
AcDbArc
 50
254.9999084472656
 51
318.4355773925781
  0
ARC
  5
152
330
1F
100
AcDbEntity
  8
0-0
  6
Continuous
 62
     3
370
     9
100
AcDbCircle
 10
-386.9901914854307
 20
-234.2723619615708
 30
0.0
 40
5.000000064437454
100
AcDbArc
 50
191.5648956298828
 51
254.9999084472656
  0
ARC
  5
153
330
1F
100
AcDbEntity
  8
0-0
  6
Continuous
 62
     3
370
     9
100
AcDbCircle
 10
-407.4603931323901
 20
-221.454236829603
 30
0.0
 40
5.416692108721347
100
AcDbArc
 50
187.620590209961
 51
322.37890625
  0
ARC
  5
154
330
1F
100
AcDbEntity
  8
0-0
  6
Continuous
 62
     3
370
     9
100
AcDbCircle
 10
-396.3632119668495
 20
-230.0354498785894
 30
0.0
 40
3.333333376291636
100
AcDbArc
 50
11.56642150878906
 51
75.00077819824219
  0
ARC
  5
155
330
1F
100
AcDbEntity
  8
0-0
  6
Continuous
 62
     3
370
     9
100
AcDbCircle
 10
-360.1857778188344
 20
-239.7290286502322
 30
0.0
 40
3.333333376291636
100
AcDbArc
 50
75.00022888183594
 51
138.4349822998047
  0
ARC
  5
156
330
1F
100
AcDbEntity
  8
0-0
  6
Continuous
 62
     3
370
     9
100
AcDbCircle
 10
-346.2848560230151
 20
-237.8461353198901
 30
0.0
 40
5.416692108721347
100
AcDbArc
 50
187.620590209961
 51
322.37890625
  0
ARC
  5
157
330
1F
100
AcDbEntity
  8
0-0
  6
Continuous
 62
     3
370
     9
100
AcDbCircle
 10
-426.7790098448057
 20
-216.2777957400759
 30
0.0
 40
5.416692108721347
100
AcDbArc
 50
187.6179962158203
 51
322.3796997070312
  0
ARC
  5
158
330
1F
100
AcDbEntity
  8
0-0
  6
Continuous
 62
     3
370
     9
100
AcDbCircle
 10
-410.6263856630068
 20
-243.4680918100717
 30
0.0
 40
6.666666752583272
100
AcDbArc
 50
11.56620788574219
 51
75.00050354003906
  0
ARC
  5
159
330
1F
100
AcDbEntity
  8
0-0
  6
JWW_DASHED1
 62
     3
370
     9
100
AcDbCircle
 10
-354.549840978674
 20
-258.4938750395904
 30
0.0
 40
6.666666752583272
100
AcDbArc
 50
74.99948120117188
 51
138.4350738525391
  0
ARC
  5
15A
330
1F
100
AcDbEntity
  8
0-0
  6
JWW_DASHED1
 62
     3
370
     9
100
AcDbCircle
 10
-365.9127725137245
 20
-253.7236064189189
 30
0.0
 40
5.000000064437454
100
AcDbArc
 50
255.0012817382812
 51
318.4365081787109
  0
ARC
  5
15B
330
1F
100
AcDbEntity
  8
0-0
  6
Continuous
 62
     3
370
     9
100
AcDbCircle
 10
-398.4006314664273
 20
-245.0186734586148
 30
0.0
 40
5.000000064437454
100
AcDbArc
 50
191.5646057128906
 51
254.9999084472656
  0
ARC
  5
15C
330
1F
100
AcDbEntity
  8
0-0
  6
Continuous
 62
     3
370
     9
100
AcDbCircle
 10
-272.846696183488
 20
-256.4069675754855
 30
0.0
 40
5.000000064437454
100
AcDbArc
 50
5.856887817382812
 51
90.0
  0
ARC
  5
15D
330
1F
100
AcDbEntity
  8
0-0
  6
Continuous
 62
     3
370
     9
100
AcDbCircle
 10
-322.6093189136401
 20
-344.7402624181798
 30
0.0
 40
5.000000064437454
100
AcDbArc
 50
7.000335693359375
 51
90.00000000000001
  0
ARC
  5
15E
330
1F
100
AcDbEntity
  8
0-0
  6
Continuous
 62
     3
370
     9
100
AcDbCircle
 10
-344.3058323215794
 20
-311.4070253114442
 30
0.0
 40
5.000000064437454
100
AcDbArc
 50
8.53070068359375
 51
90.0
  0
ARC
  5
15F
330
1F
100
AcDbEntity
  8
0-0
  6
JWW_DASHED1
 62
     3
370
     9
100
AcDbCircle
 10
-335.0981016416807
 20
-311.4070253114442
 30
0.0
 40
5.000000064437454
100
AcDbArc
 50
7.000518798828125
 51
89.99999999999999
  0
ARC
  5
160
330
1F
100
AcDbEntity
  8
0-0
  6
JWW_DASHED1
 62
     3
370
     9
100
AcDbCircle
 10
-345.9250785209036
 20
-264.255758749472
 30
0.0
 40
10.00000012887491
100
AcDbArc
 50
7.000076293945313
 51
74.99972534179688
  0
ARC
  5
161
330
1F
100
AcDbEntity
  8
0-0
  6
Continuous
 62
     3
370
     9
100
AcDbCircle
 10
-399.5593921558276
 20
-255.0608949403504
 30
0.0
 40
5.000000064437454
100
AcDbArc
 50
6.874084472656249
 51
74.99990844726562
  0
ARC
  5
162
330
1F
100
AcDbEntity
  8
0-0
  6
Continuous
 62
     3
370
     9
100
AcDbCircle
 10
-325.1054918443833
 20
-256.0306116052575
 30
0.0
 40
10.00000012887491
100
AcDbArc
 50
27.5399169921875
 51
74.99990844726562
  0
ARC
  5
163
330
1F
100
AcDbEntity
  8
0-0
  6
JWW_DASHED1
 62
     3
370
     9
100
AcDbCircle
 10
-325.1054918443833
 20
-256.0306116052575
 30
0.0
 40
10.00000012887491
100
AcDbArc
 50
6.999725341796876
 51
27.5399169921875
  0
ARC
  5
164
330
1F
100
AcDbEntity
  8
0-0
  6
JWW_DASHED1
 62
     3
370
     9
100
AcDbCircle
 10
-301.5220023490286
 20
-283.9937859612542
 30
0.0
 40
10.00000012887491
100
AcDbArc
 50
187.0004272460938
 51
263.7596130371094
  0
ARC
  5
165
330
1F
100
AcDbEntity
  8
0-0
  6
JWW_DASHED1
 62
     3
370
     9
100
AcDbCircle
 10
-282.8729577966638
 20
-299.4460317250844
 30
0.0
 40
3.333333376291636
100
AcDbArc
 50
9.462677001953127
 51
83.75891113281251
  0
ARC
  5
166
330
1F
100
AcDbEntity
  8
0-0
  6
Continuous
 62
     3
370
     9
100
AcDbCircle
 10
159.0169545766472
 20
-264.2396751610008
 30
0.0
 40
36.66666520608438
100
AcDbArc
 50
58.20979309082032
 51
105.0000305175781
  0
ARC
  5
167
330
1F
100
AcDbEntity
  8
0-0
  6
Continuous
 62
     3
370
     9
100
AcDbCircle
 10
80.42165395375861
 20
-238.7119272592905
 30
0.0
 40
5.000000064437454
100
AcDbArc
 50
221.5644226074219
 51
285.0000915527344
  0
ARC
  5
168
330
1F
100
AcDbEntity
  8
0-0
  6
Continuous
 62
     3
370
     9
100
AcDbCircle
 10
96.99022447740731
 20
-234.2723619615708
 30
0.0
 40
5.000000064437454
100
AcDbArc
 50
285.0000915527344
 51
348.4351043701172
  0
ARC
  5
169
330
1F
100
AcDbEntity
  8
0-0
  6
Continuous
 62
     3
370
     9
100
AcDbCircle
 10
117.4604261243667
 20
-221.454236829603
 30
0.0
 40
5.416692108721347
100
AcDbArc
 50
217.62109375
 51
352.3794097900391
  0
ARC
  5
16A
330
1F
100
AcDbEntity
  8
0-0
  6
Continuous
 62
     3
370
     9
100
AcDbCircle
 10
106.363244958826
 20
-230.0354498785894
 30
0.0
 40
3.333333376291636
100
AcDbArc
 50
104.9992218017578
 51
168.4335784912109
  0
ARC
  5
16B
330
1F
100
AcDbEntity
  8
0-0
  6
Continuous
 62
     3
370
     9
100
AcDbCircle
 10
70.18581081081095
 20
-239.7290286502322
 30
0.0
 40
3.333333376291636
100
AcDbArc
 50
41.56501770019532
 51
104.9997711181641
  0
ARC
  5
16C
330
1F
100
AcDbEntity
  8
0-0
  6
Continuous
 62
     3
370
     9
100
AcDbCircle
 10
56.28488901499168
 20
-237.8461353198901
 30
0.0
 40
5.416692108721347
100
AcDbArc
 50
217.62109375
 51
352.3794097900391
  0
ARC
  5
16D
330
1F
100
AcDbEntity
  8
0-0
  6
Continuous
 62
     3
370
     9
100
AcDbCircle
 10
136.7790428367823
 20
-216.2777957400759
 30
0.0
 40
5.416692108721347
100
AcDbArc
 50
217.6203002929688
 51
352.3820037841797
  0
ARC
  5
16E
330
1F
100
AcDbEntity
  8
0-0
  6
Continuous
 62
     3
370
     9
100
AcDbCircle
 10
120.6264186549834
 20
-243.4680918100717
 30
0.0
 40
6.666666752583272
100
AcDbArc
 50
104.9994964599609
 51
168.4337921142578
  0
ARC
  5
16F
330
1F
100
AcDbEntity
  8
0-0
  6
Continuous
 62
     3
370
     9
100
AcDbCircle
 10
64.54987397065054
 20
-258.4938750395904
 30
0.0
 40
6.666666752583272
100
AcDbArc
 50
41.56492614746094
 51
105.0005187988281
  0
ARC
  5
170
330
1F
100
AcDbEntity
  8
0-0
  6
Continuous
 62
     3
370
     9
100
AcDbCircle
 10
75.91280550570104
 20
-253.7236064189189
 30
0.0
 40
5.000000064437454
100
AcDbArc
 50
221.5634918212891
 51
284.9987182617188
  0
ARC
  5
171
330
1F
100
AcDbEntity
  8
0-0
  6
Continuous
 62
     3
370
     9
100
AcDbCircle
 10
108.4006644584039
 20
-245.0186734586148
 30
0.0
 40
5.000000064437454
100
AcDbArc
 50
285.0000915527344
 51
348.4353942871094
  0
ARC
  5
172
330
1F
100
AcDbEntity
  8
0-0
  6
Continuous
 62
     3
370
     9
100
AcDbCircle
 10
32.60935190561668
 20
-344.7402624181798
 30
0.0
 40
5.000000064437454
100
AcDbArc
 50
90.0
 51
172.9996643066406
  0
ARC
  5
173
330
1F
100
AcDbEntity
  8
0-0
  6
JWW_PHANTOM1
 62
     3
370
     9
100
AcDbCircle
 10
54.30586531355573
 20
-311.4070253114442
 30
0.0
 40
5.000000064437454
100
AcDbArc
 50
90.0
 51
171.4692993164062
  0
ARC
  5
174
330
1F
100
AcDbEntity
  8
0-0
  6
Continuous
 62
     3
370
     9
100
AcDbCircle
 10
55.92511151288022
 20
-264.255758749472
 30
0.0
 40
10.00000012887491
100
AcDbArc
 50
105.0002746582031
 51
172.9999237060547
  0
ARC
  5
175
330
1F
100
AcDbEntity
  8
0-0
  6
JWW_PHANTOM1
 62
     3
370
     9
100
AcDbCircle
 10
93.89994853251693
 20
-301.4069923194678
 30
0.0
 40
5.000000064437454
100
AcDbArc
 50
270.0
 51
353.1259155273438
  0
ARC
  5
176
330
1F
100
AcDbEntity
  8
0-0
  6
JWW_PHANTOM1
 62
     3
370
     9
100
AcDbCircle
 10
109.5594251478042
 20
-255.0608949403504
 30
0.0
 40
5.000000064437454
100
AcDbArc
 50
105.0000915527344
 51
173.1259155273438
  0
ARC
  5
177
330
1F
100
AcDbEntity
  8
0-0
  6
Continuous
 62
     3
370
     9
100
AcDbCircle
 10
35.1055248363599
 20
-256.0306116052575
 30
0.0
 40
10.00000012887491
100
AcDbArc
 50
105.0000915527344
 51
173.0002746582031
  0
ARC
  5
178
330
1F
100
AcDbEntity
  8
0-0
  6
Continuous
 62
     3
370
     9
100
AcDbCircle
 10
11.52203534100522
 20
-283.9937859612542
 30
0.0
 40
10.00000012887491
100
AcDbArc
 50
276.2403869628906
 51
352.9995727539063
  0
ARC
  5
179
330
1F
100
AcDbEntity
  8
0-0
  6
Continuous
 62
     3
370
     9
100
AcDbCircle
 10
-7.127009211359621
 20
-299.4460317250844
 30
0.0
 40
3.333333376291636
100
AcDbArc
 50
96.24108886718754
 51
170.5373229980469
  0
ARC
  5
17A
330
1F
100
AcDbEntity
  8
0-0
  6
Continuous
 62
     4
370
     9
100
AcDbCircle
 10
-352.921439505912
 20
-512.0730508340371
 30
0.0
 40
9.333911457577267
100
AcDbArc
 50
227.9255676269531
 51
312.0746307373047
  0
ARC
  5
17B
330
1F
100
AcDbEntity
  8
0-0
  6
Continuous
 62
     4
370
     9
100
AcDbCircle
 10
-371.6669855891047
 20
-487.7754500105574
 30
0.0
 40
33.63136729678592
100
AcDbArc
 50
248.1978607177734
 51
291.8021392822266
  0
ARC
  5
17C
330
1F
100
AcDbEntity
  8
0-0
  6
Continuous
 62
     4
370
     9
100
AcDbCircle
 10
-390.4125316722971
 20
-512.0728033942145
 30
0.0
 40
9.33396558503847
100
AcDbArc
 50
227.9257202148438
 51
312.0742797851562
  0
ARC
  5
17D
330
1F
100
AcDbEntity
  8
0-0
  6
Continuous
 62
     3
370
     9
100
AcDbCircle
 10
-383.8997918206292
 20
-301.4069923194678
 30
0.0
 40
5.000000064437454
100
AcDbArc
 50
186.8746185302734
 51
257.2880401611328
  0
TEXT
  5
17E
330
1F
100
AcDbEntity
  8
0-4
  6
Continuous
 62
     2
370
     9
100
AcDbText
 10
-200.0000453639673
 20
-744.1002376741977
 30
0.0
 40
30.48
  1
φ200
 41
1.1
  7
ＭＳ ゴシック
100
AcDbText
  0
TEXT
  5
17F
330
1F
100
AcDbEntity
  8
0-E
  6
Continuous
 62
     7
370
     9
100
AcDbText
 10
253.2296752929689
 20
-585.3092835462415
 30
0.0
 40
22.86
  1
クランプ板：ＦＣ１５０
 41
1.151515151515152
  7
ＭＳ ゴシック
100
AcDbText
  0
TEXT
  5
180
330
1F
100
AcDbEntity
  8
0-E
  6
Continuous
 62
     7
370
     9
100
AcDbText
 10
363.3936206714529
 20
-636.399792084565
 30
0.0
 40
22.86
  1
樹脂系塗装
 41
1.133333333333333
  7
ＭＳ ゴシック
100
AcDbText
  0
TEXT
  5
181
330
1F
100
AcDbEntity
  8
0-E
  6
Continuous
 62
     7
370
     9
100
AcDbText
 10
-857.4042077966637
 20
289.4701650918498
 30
0.0
 40
22.86
  1
ボルト：Ｃ３６０２
 41
1.148148148148148
  7
ＭＳ ゴシック
100
AcDbText
  0
TEXT
  5
182
330
1F
100
AcDbEntity
  8
0-E
  6
Continuous
 62
     7
370
     9
100
AcDbText
 10
-812.1255616883973
 20
-318.899981788429
 30
0.0
 40
22.86
  1
本体：ＦＣ１５０
 41
1.145833333333333
  7
ＭＳ ゴシック
100
AcDbText
  0
TEXT
  5
183
330
1F
100
AcDbEntity
  8
0-E
  6
Continuous
 62
     7
370
     9
100
AcDbText
 10
-826.1659199482685
 20
-744.0014733556798
 30
0.0
 40
22.86
  1
ボルト：Ｃ３６０２
 41
1.148148148148148
  7
ＭＳ ゴシック
100
AcDbText
  0
TEXT
  5
184
330
1F
100
AcDbEntity
  8
0-E
  6
Continuous
 62
     7
370
     9
100
AcDbText
 10
-793.2145278518265
 20
240.0933010451859
 30
0.0
 40
22.86
  1
Ｍ８×４０
 41
1.133333333333333
  7
ＭＳ ゴシック
100
AcDbText
  0
TEXT
  5
185
330
1F
100
AcDbEntity
  8
0-E
  6
Continuous
 62
     7
370
     9
100
AcDbText
 10
-776.412732923353
 20
-797.7888285209036
 30
0.0
 40
22.86
  1
Ｍ８
 41
1.083333333333333
  7
ＭＳ ゴシック
100
AcDbText
  0
TEXT
  5
186
330
1F
100
AcDbEntity
  8
0-E
  6
Continuous
 62
     7
370
     9
100
AcDbText
 10
-761.2856354584563
 20
-377.0029349002322
 30
0.0
 40
22.86
  1
樹脂系塗装
 41
1.133333333333333
  7
ＭＳ ゴシック
100
AcDbText
  0
TEXT
  5
187
330
1F
100
AcDbEntity
  8
0-4
  6
Continuous
 62
     2
370
     9
100
AcDbText
 10
272.6934268105998
 20
-327.6568850955447
 30
0.0
 40
30.48
  1
60
 50
90.0
 41
1.0625
  7
ＭＳ ゴシック
100
AcDbText
  0
TEXT
  5
188
330
1F
100
AcDbEntity
  8
0-4
  6
Continuous
 62
     2
370
     9
100
AcDbText
 10
-177.4999835040117
 20
-584.100266542177
 30
0.0
 40
30.48
  1
Rc3
 41
1.083333333333333
  7
ＭＳ ゴシック
100
AcDbText
  0
TEXT
  5
189
330
1F
100
AcDbEntity
  8
0-4
  6
Continuous
 62
     2
370
     9
100
AcDbText
 10
-188.7500453639674
 20
-664.1002830381651
 30
0.0
 40
30.48
  1
φ99
 41
1.09375
  7
ＭＳ ゴシック
100
AcDbText
  0
LINE
  5
18A
330
1F
100
AcDbEntity
  8
0-2
  6
Continuous
 62
     6
370
     5
100
AcDbLine
 10
46.66665566934142
 20
-181.5520021077747
 30
0.0
 11
46.66665566934142
 21
-190.218829335393
 31
0.0
  0
LINE
  5
18B
330
1F
100
AcDbEntity
  8
0-2
  6
Continuous
 62
     6
370
     5
100
AcDbLine
 10
86.66654019742396
 20
-181.5520021077747
 30
0.0
 11
86.66654019742396
 21
-190.218829335393
 31
0.0
  0
LINE
  5
18C
330
1F
100
AcDbEntity
  8
0-2
  6
Continuous
 62
     6
370
     5
100
AcDbLine
 10
68.26369826858127
 20
-176.9937894151016
 30
0.0
 11
65.06999247782943
 21
-176.9937894151016
 31
0.0
  0
LINE
  5
18D
330
1F
100
AcDbEntity
  8
0-2
  6
Continuous
 62
     6
370
     5
100
AcDbLine
 10
65.06999247782943
 20
-174.9235841390247
 30
0.0
 11
65.06999247782943
 21
-176.9937894151016
 31
0.0
  0
LINE
  5
18E
330
1F
100
AcDbEntity
  8
0-2
  6
Continuous
 62
     6
370
     5
100
AcDbLine
 10
68.26369826858127
 20
-174.9235841390247
 30
0.0
 11
68.26369826858127
 21
-176.9937894151016
 31
0.0
  0
LINE
  5
18F
330
1F
100
AcDbEntity
  8
0-2
  6
Continuous
 62
     6
370
     5
100
AcDbLine
 10
56.66668866131772
 20
-196.8853530368287
 30
0.0
 11
76.66675464527032
 21
-196.8853530368287
 31
0.0
  0
LINE
  5
190
330
1F
100
AcDbEntity
  8
0-2
  6
Continuous
 62
     6
370
     5
100
AcDbLine
 10
73.76675992398646
 20
-196.8853530368287
 30
0.0
 11
77.27347709037161
 21
-190.6439309506802
 31
0.0
  0
LINE
  5
191
330
1F
100
AcDbEntity
  8
0-2
  6
Continuous
 62
     6
370
     5
100
AcDbLine
 10
76.66675464527032
 20
-196.8853530368287
 30
0.0
 11
75.19696209881772
 21
-194.3399395813811
 31
0.0
  0
LINE
  5
192
330
1F
100
AcDbEntity
  8
0-2
  6
Continuous
 62
     6
370
     5
100
AcDbLine
 10
46.66665566934142
 20
-190.218829335393
 30
0.0
 11
86.66654019742396
 21
-190.218829335393
 31
0.0
  0
LINE
  5
193
330
1F
100
AcDbEntity
  8
0-2
  6
Continuous
 62
     6
370
     5
100
AcDbLine
 10
59.56668338260158
 20
-196.8853530368287
 30
0.0
 11
56.05996621621642
 21
-190.6439309506802
 31
0.0
  0
LINE
  5
194
330
1F
100
AcDbEntity
  8
0-2
  6
Continuous
 62
     6
370
     5
100
AcDbLine
 10
56.66668866131772
 20
-196.8853530368287
 30
0.0
 11
58.13648120777032
 21
-194.3399395813811
 31
0.0
  0
LINE
  5
195
330
1F
100
AcDbEntity
  8
0-2
  6
Continuous
 62
     6
370
     5
100
AcDbLine
 10
73.76675992398646
 20
-230.2189613032984
 30
0.0
 11
76.66675464527032
 21
-227.3189665820146
 31
0.0
  0
LINE
  5
196
330
1F
100
AcDbEntity
  8
0-2
  6
Continuous
 62
     6
370
     5
100
AcDbLine
 10
59.56668338260158
 20
-230.2189613032984
 30
0.0
 11
56.66668866131772
 21
-227.3189665820146
 31
0.0
  0
LINE
  5
197
330
1F
100
AcDbEntity
  8
0-2
  6
Continuous
 62
     6
370
     5
100
AcDbLine
 10
59.56668338260158
 20
-196.8853530368287
 30
0.0
 11
59.56668338260158
 21
-230.2189613032984
 31
0.0
  0
LINE
  5
198
330
1F
100
AcDbEntity
  8
0-2
  6
Continuous
 62
     6
370
     5
100
AcDbLine
 10
73.76675992398646
 20
-196.8853530368287
 30
0.0
 11
73.76675992398646
 21
-230.2189613032984
 31
0.0
  0
LINE
  5
199
330
1F
100
AcDbEntity
  8
0-2
  6
Continuous
 62
     6
370
     5
100
AcDbLine
 10
59.56668338260158
 20
-230.2189613032984
 30
0.0
 11
73.76675992398646
 21
-230.2189613032984
 31
0.0
  0
LINE
  5
19A
330
1F
100
AcDbEntity
  8
0-2
  6
Continuous
 62
     6
370
     5
100
AcDbLine
 10
56.66668866131772
 20
-227.3189665820146
 30
0.0
 11
76.66675464527032
 21
-227.3189665820146
 31
0.0
  0
LINE
  5
19B
330
1F
100
AcDbEntity
  8
0-2
  6
Continuous
 62
     6
370
     5
100
AcDbLine
 10
56.66668866131772
 20
-196.8853530368287
 30
0.0
 11
56.66668866131772
 21
-227.3189665820146
 31
0.0
  0
LINE
  5
19C
330
1F
100
AcDbEntity
  8
0-2
  6
Continuous
 62
     6
370
     5
100
AcDbLine
 10
79.28021405194272
 20
-209.7648432448103
 30
0.0
 11
83.33327834670627
 21
-193.5523386259336
 31
0.0
  0
LINE
  5
19D
330
1F
100
AcDbEntity
  8
0-2
  6
Continuous
 62
     6
370
     5
100
AcDbLine
 10
46.66665566934142
 20
-193.5523386259336
 30
0.0
 11
-27.96663851351354
 21
-173.554252160562
 31
0.0
  0
LINE
  5
19E
330
1F
100
AcDbEntity
  8
0-2
  6
Continuous
 62
     6
370
     5
100
AcDbLine
 10
41.66663917335313
 20
-213.5521571700637
 30
0.0
 11
46.66665566934142
 21
-193.5523386259336
 31
0.0
  0
LINE
  5
19F
330
1F
100
AcDbEntity
  8
0-2
  6
Continuous
 62
     6
370
     5
100
AcDbLine
 10
31.66660618137684
 20
-206.7876472988643
 30
0.0
 11
41.66663917335313
 21
-213.5521571700637
 31
0.0
  0
LINE
  5
1A0
330
1F
100
AcDbEntity
  8
0-2
  6
Continuous
 62
     6
370
     5
100
AcDbLine
 10
31.66660618137684
 20
-206.7876472988643
 30
0.0
 11
-47.16871106946769
 21
-185.6637096405029
 31
0.0
  0
LINE
  5
1A1
330
1F
100
AcDbEntity
  8
0-2
  6
Continuous
 62
     6
370
     5
100
AcDbLine
 10
-27.96663851351354
 20
-173.554252160562
 30
0.0
 11
-52.28230244404557
 21
174.1786217045141
 31
0.0
  0
LINE
  5
1A2
330
1F
100
AcDbEntity
  8
0-2
  6
Continuous
 62
     6
370
     5
100
AcDbLine
 10
-22.96662201752525
 20
-192.1486125121245
 30
0.0
 11
-27.96663851351354
 21
-173.554252160562
 31
0.0
  0
LINE
  5
1A3
330
1F
100
AcDbEntity
  8
0-2
  6
Continuous
 62
     6
370
     5
100
AcDbLine
 10
-47.16871106946769
 20
-185.6637096405029
 30
0.0
 11
-144.9999835040117
 21
-185.6637096405029
 31
0.0
  0
LINE
  5
1A4
330
1F
100
AcDbEntity
  8
0-2
  6
Continuous
 62
     6
370
     5
100
AcDbLine
 10
-49.26650588576848
 20
-155.663734384485
 30
0.0
 11
-144.9999835040117
 21
-155.663734384485
 31
0.0
  0
LINE
  5
1A5
330
1F
100
AcDbEntity
  8
0-2
  6
Continuous
 62
     6
370
     5
100
AcDbLine
 10
-47.16871106946769
 20
-185.6637096405029
 30
0.0
 11
-47.86797600823462
 21
-175.6636766485264
 31
0.0
  0
LINE
  5
1A6
330
1F
100
AcDbEntity
  8
0-2
  6
Continuous
 62
     6
370
     5
100
AcDbLine
 10
-48.21760847761823
 20
-165.6638910963728
 30
0.0
 11
-144.9999835040117
 21
-165.6638910963728
 31
0.0
  0
LINE
  5
1A7
330
1F
100
AcDbEntity
  8
0-2
  6
Continuous
 62
     6
370
     5
100
AcDbLine
 10
-48.21760847761823
 20
-175.6636766485264
 30
0.0
 11
-144.9999835040117
 21
-175.6636766485264
 31
0.0
  0
LINE
  5
1A8
330
1F
100
AcDbEntity
  8
0-2
  6
Continuous
 62
     6
370
     5
100
AcDbLine
 10
-77.2192877692143
 20
79.23138412269402
 30
0.0
 11
-65.93306257918073
 21
82.6811901298732
 31
0.0
  0
LINE
  5
1A9
330
1F
100
AcDbEntity
  8
0-2
  6
Continuous
 62
     6
370
     5
100
AcDbLine
 10
-75.97466546135962
 20
49.70971004382996
 30
0.0
 11
-63.36909113703541
 21
46.01456745250808
 31
0.0
  0
LINE
  5
1AA
330
1F
100
AcDbEntity
  8
0-2
  6
Continuous
 62
     6
370
     5
100
AcDbLine
 10
-80.74975915857266
 20
55.6420797915073
 30
0.0
 11
-81.92113927892734
 21
72.39091022594558
 31
0.0
  0
LINE
  5
1AB
330
1F
100
AcDbEntity
  8
0-2
  6
Continuous
 62
     6
370
     5
100
AcDbLine
 10
-78.33326185071769
 20
189.7934354318156
 30
0.0
 11
-85.0000329919763
 21
219.7002495946112
 31
0.0
  0
LINE
  5
1AC
330
1F
100
AcDbEntity
  8
0-2
  6
Continuous
 62
     6
370
     5
100
AcDbLine
 10
-369.2801810599661
 20
-209.7648432448103
 30
0.0
 11
-373.3332453547297
 21
-193.5523386259336
 31
0.0
  0
LINE
  5
1AD
330
1F
100
AcDbEntity
  8
0-2
  6
Continuous
 62
     6
370
     5
100
AcDbLine
 10
-331.6666061813766
 20
-213.5521571700637
 30
0.0
 11
-336.6666226773648
 21
-193.5523386259336
 31
0.0
  0
LINE
  5
1AE
330
1F
100
AcDbEntity
  8
0-2
  6
Continuous
 62
     6
370
     5
100
AcDbLine
 10
-321.6665731894003
 20
-206.7876472988643
 30
0.0
 11
-331.6666061813766
 21
-213.5521571700637
 31
0.0
  0
LINE
  5
1AF
330
1F
100
AcDbEntity
  8
0-2
  6
Continuous
 62
     6
370
     5
100
AcDbLine
 10
-262.0333284945102
 20
-173.554252160562
 30
0.0
 11
-237.7176645639778
 21
174.1786217045141
 31
0.0
  0
LINE
  5
1B0
330
1F
100
AcDbEntity
  8
0-2
  6
Continuous
 62
     6
370
     5
100
AcDbLine
 10
-267.0333449904982
 20
-192.1486125121245
 30
0.0
 11
-262.0333284945102
 21
-173.554252160562
 31
0.0
  0
LINE
  5
1B1
330
1F
100
AcDbEntity
  8
0-2
  6
Continuous
 62
     6
370
     5
100
AcDbLine
 10
-242.8312559385557
 20
-185.6637096405029
 30
0.0
 11
-144.9999835040117
 21
-185.6637096405029
 31
0.0
  0
LINE
  5
1B2
330
1F
100
AcDbEntity
  8
0-2
  6
Continuous
 62
     6
370
     5
100
AcDbLine
 10
-240.7334611222549
 20
-155.663734384485
 30
0.0
 11
-144.9999835040117
 21
-155.663734384485
 31
0.0
  0
LINE
  5
1B3
330
1F
100
AcDbEntity
  8
0-2
  6
Continuous
 62
     6
370
     5
100
AcDbLine
 10
-241.4327260610219
 20
-165.6638910963728
 30
0.0
 11
-217.7660967852617
 21
172.7834322645859
 31
0.0
  0
LINE
  5
1B4
330
1F
100
AcDbEntity
  8
0-2
  6
Continuous
 62
     6
370
     5
100
AcDbLine
 10
-242.8312559385557
 20
-185.6637096405029
 30
0.0
 11
-242.1319909997888
 21
-175.6636766485264
 31
0.0
  0
LINE
  5
1B5
330
1F
100
AcDbEntity
  8
0-2
  6
Continuous
 62
     6
370
     5
100
AcDbLine
 10
-241.7823585304052
 20
-165.6638910963728
 30
0.0
 11
-144.9999835040117
 21
-165.6638910963728
 31
0.0
  0
LINE
  5
1B6
330
1F
100
AcDbEntity
  8
0-2
  6
Continuous
 62
     6
370
     5
100
AcDbLine
 10
-241.7823585304052
 20
-175.6636766485264
 30
0.0
 11
-144.9999835040117
 21
-175.6636766485264
 31
0.0
  0
LINE
  5
1B7
330
1F
100
AcDbEntity
  8
0-2
  6
Continuous
 62
     6
370
     5
100
AcDbLine
 10
-212.7806792388091
 20
79.23138412269402
 30
0.0
 11
-224.0669044288427
 21
82.6811901298732
 31
0.0
  0
LINE
  5
1B8
330
1F
100
AcDbEntity
  8
0-2
  6
Continuous
 62
     6
370
     5
100
AcDbLine
 10
-214.0253015466638
 20
49.70971004382996
 30
0.0
 11
-226.630875870988
 21
46.01456745250808
 31
0.0
  0
LINE
  5
1B9
330
1F
100
AcDbEntity
  8
0-2
  6
Continuous
 62
     6
370
     5
100
AcDbLine
 10
-209.250207849451
 20
55.6420797915073
 30
0.0
 11
-208.0790751689187
 21
72.39091022594558
 31
0.0
  0
LINE
  5
1BA
330
1F
100
AcDbEntity
  8
0-2
  6
Continuous
 62
     6
370
     5
100
AcDbLine
 10
-211.6667051573057
 20
189.7934354318156
 30
0.0
 11
-204.9999340160471
 21
219.7002495946112
 31
0.0
  0
LINE
  5
1BB
330
1F
100
AcDbEntity
  8
0-2
  6
Continuous
 62
     6
370
     5
100
AcDbLine
 10
80.00001649598829
 20
-190.218829335393
 30
0.0
 11
83.33327834670627
 21
-193.5523386259336
 31
0.0
  0
LINE
  5
1BC
330
1F
100
AcDbEntity
  8
0-2
  6
Continuous
 62
     6
370
     5
100
AcDbLine
 10
34.22637114653725
 20
-190.218829335393
 30
0.0
 11
80.00001649598829
 21
-190.218829335393
 31
0.0
  0
LINE
  5
1BD
330
1F
100
AcDbEntity
  8
0-2
  6
Continuous
 62
     6
370
     5
100
AcDbLine
 10
48.33341031461146
 20
-213.5521571700637
 30
0.0
 11
53.33342681059975
 21
-193.5523386259336
 31
0.0
  0
LINE
  5
1BE
330
1F
100
AcDbEntity
  8
0-2
  6
Continuous
 62
     6
370
     5
100
AcDbLine
 10
50.00016495988177
 20
-190.218829335393
 30
0.0
 11
53.33342681059975
 21
-193.5523386259336
 31
0.0
  0
LINE
  5
1BF
330
1F
100
AcDbEntity
  8
0-2
  6
Continuous
 62
     6
370
     5
100
AcDbLine
 10
46.66665566934142
 20
-193.5523386259336
 30
0.0
 11
57.6940588048987
 21
-193.5523386259336
 31
0.0
  0
LINE
  5
1C0
330
1F
100
AcDbEntity
  8
0-2
  6
Continuous
 62
     6
370
     5
100
AcDbLine
 10
75.63938450168934
 20
-193.5523386259336
 30
0.0
 11
83.33327834670627
 21
-193.5523386259336
 31
0.0
  0
LINE
  5
1C1
330
1F
100
AcDbEntity
  8
0-2
  6
Continuous
 62
     6
370
     5
100
AcDbLine
 10
76.66675464527032
 20
-196.8853530368287
 30
0.0
 11
76.66675464527032
 21
-227.3189665820146
 31
0.0
  0
LINE
  5
1C2
330
1F
100
AcDbEntity
  8
0-2
  6
Continuous
 62
     6
370
     5
100
AcDbLine
 10
-369.2801810599661
 20
-209.7648432448103
 30
0.0
 11
-373.3332453547297
 21
-193.5523386259336
 31
0.0
  0
LINE
  5
1C3
330
1F
100
AcDbEntity
  8
0-2
  6
Continuous
 62
     6
370
     5
100
AcDbLine
 10
-336.6666226773648
 20
-193.5523386259336
 30
0.0
 11
-347.6940258129221
 21
-193.5523386259336
 31
0.0
  0
LINE
  5
1C4
330
1F
100
AcDbEntity
  8
0-2
  6
Continuous
 62
     6
370
     5
100
AcDbLine
 10
-336.6666226773648
 20
-193.5523386259336
 30
0.0
 11
-347.6937783730995
 21
-193.5523386259336
 31
0.0
  0
LINE
  5
1C5
330
1F
100
AcDbEntity
  8
0-2
  6
Continuous
 62
     6
370
     5
100
AcDbLine
 10
-365.6393515097128
 20
-193.5523386259336
 30
0.0
 11
-373.3332453547297
 21
-193.5523386259336
 31
0.0
  0
LINE
  5
1C6
330
1F
100
AcDbEntity
  8
0-2
  6
JWW_CENTER1
 62
     6
370
     5
100
AcDbLine
 10
66.66672165329402
 20
-170.0690622587461
 30
0.0
 11
66.66672165329402
 21
-235.8247104850974
 31
0.0
  0
LINE
  5
1C7
330
1F
100
AcDbEntity
  8
0-2
  6
Continuous
 62
     6
370
     5
100
AcDbLine
 10
-224.0666569890203
 20
82.6811901298732
 30
0.0
 11
-144.9999835040117
 21
82.6811901298732
 31
0.0
  0
LINE
  5
1C8
330
1F
100
AcDbEntity
  8
0-2
  6
Continuous
 62
     6
370
     5
100
AcDbLine
 10
-226.6306284311653
 20
46.01456745250808
 30
0.0
 11
-144.9999835040117
 21
46.01456745250808
 31
0.0
  0
LINE
  5
1C9
330
1F
100
AcDbEntity
  8
0-2
  6
Continuous
 62
     6
370
     5
100
AcDbLine
 10
-210.129114099451
 20
77.68117363388491
 30
0.0
 11
-144.9999835040117
 21
77.68117363388491
 31
0.0
  0
LINE
  5
1CA
330
1F
100
AcDbEntity
  8
0-2
  6
Continuous
 62
     6
370
     5
100
AcDbLine
 10
-211.5981643264357
 20
51.01458394849637
 30
0.0
 11
-144.9999835040117
 21
51.01458394849637
 31
0.0
  0
LINE
  5
1CB
330
1F
100
AcDbEntity
  8
0-2
  6
Continuous
 62
     6
370
     5
100
AcDbLine
 10
-65.93331001900339
 20
82.6811901298732
 30
0.0
 11
-144.9999835040117
 21
82.6811901298732
 31
0.0
  0
LINE
  5
1CC
330
1F
100
AcDbEntity
  8
0-2
  6
Continuous
 62
     6
370
     5
100
AcDbLine
 10
-63.36909113703541
 20
46.01456745250808
 30
0.0
 11
-144.9999835040117
 21
46.01456745250808
 31
0.0
  0
LINE
  5
1CD
330
1F
100
AcDbEntity
  8
0-2
  6
Continuous
 62
     6
370
     5
100
AcDbLine
 10
-79.87035802892734
 20
77.68117363388491
 30
0.0
 11
-144.9999835040117
 21
77.68117363388491
 31
0.0
  0
LINE
  5
1CE
330
1F
100
AcDbEntity
  8
0-2
  6
Continuous
 62
     6
370
     5
100
AcDbLine
 10
-78.40180268158775
 20
51.01458394849637
 30
0.0
 11
-144.9999835040117
 21
51.01458394849637
 31
0.0
  0
LINE
  5
1CF
330
1F
100
AcDbEntity
  8
0-2
  6
Continuous
 62
     6
370
     5
100
AcDbLine
 10
-346.7454652528505
 20
-193.5523386259336
 30
0.0
 11
-373.3332453547297
 21
-193.5523386259336
 31
0.0
  0
LINE
  5
1D0
330
1F
100
AcDbEntity
  8
0-2
  6
Continuous
 62
     6
370
     5
100
AcDbLine
 10
-48.56724094700155
 20
-165.6638910963728
 30
0.0
 11
-72.23387022276171
 21
172.7834322645859
 31
0.0
  0
LINE
  5
1D1
330
1F
100
AcDbEntity
  8
0-2
  6
Continuous
 62
     6
370
     5
100
AcDbLine
 10
-364.4293707770271
 20
-213.5521571700637
 30
0.0
 11
-313.3334185626055
 21
-213.5521571700637
 31
0.0
  0
LINE
  5
1D2
330
1F
100
AcDbEntity
  8
0-2
  6
Continuous
 62
     6
370
     5
100
AcDbLine
 10
-263.3331298828125
 20
-213.5521571700637
 30
0.0
 11
56.66668866131772
 21
-213.5521571700637
 31
0.0
  0
LINE
  5
1D3
330
1F
100
AcDbEntity
  8
0-2
  6
Continuous
 62
     6
370
     5
100
AcDbLine
 10
-336.6666226773648
 20
-193.5523386259336
 30
0.0
 11
-301.6666309253588
 21
-184.173998188328
 31
0.0
  0
LINE
  5
1D4
330
1F
100
AcDbEntity
  8
0-2
  6
Continuous
 62
     6
370
     5
100
AcDbLine
 10
-275.0001649598818
 20
-177.0286784300932
 30
0.0
 11
-262.0333284945102
 21
-173.554252160562
 31
0.0
  0
LINE
  5
1D5
330
1F
100
AcDbEntity
  8
0-2
  6
Continuous
 62
     6
370
     5
100
AcDbLine
 10
-321.6665731894003
 20
-206.7876472988643
 30
0.0
 11
-301.6666309253588
 21
-201.4287193401439
 31
0.0
  0
LINE
  5
1D6
330
1F
100
AcDbEntity
  8
0-2
  6
Continuous
 62
     6
370
     5
100
AcDbLine
 10
-275.0001649598818
 20
-194.2833995819091
 30
0.0
 11
-242.8312559385557
 21
-185.6637096405029
 31
0.0
  0
ARC
  5
1D7
330
1F
100
AcDbEntity
  8
0-2
  6
Continuous
 62
     6
370
     5
100
AcDbCircle
 10
66.66672165329402
 20
-208.2188392329859
 30
0.0
 40
33.33333762916359
100
AcDbArc
 50
92.74569702148438
 51
126.869873046875
  0
ARC
  5
1D8
330
1F
100
AcDbEntity
  8
0-2
  6
Continuous
 62
     6
370
     5
100
AcDbCircle
 10
66.66672165329402
 20
-208.2188392329859
 30
0.0
 40
33.33333762916359
100
AcDbArc
 50
53.130126953125
 51
87.25408935546875
  0
ARC
  5
1D9
330
1F
100
AcDbEntity
  8
0-2
  6
Continuous
 62
     6
370
     5
100
AcDbCircle
 10
77.99996040962839
 20
-191.0522066580281
 30
0.0
 40
0.833333344072909
100
AcDbArc
 50
90.0
 51
150.6708221435547
  0
ARC
  5
1DA
330
1F
100
AcDbEntity
  8
0-2
  6
Continuous
 62
     6
370
     5
100
AcDbCircle
 10
55.33323545713699
 20
-191.0522066580281
 30
0.0
 40
0.833333344072909
100
AcDbArc
 50
29.32917785644531
 51
90.0
  0
ARC
  5
1DB
330
1F
100
AcDbEntity
  8
0-2
  6
Continuous
 62
     6
370
     5
100
AcDbCircle
 10
-144.9999835040117
 20
43.1145727312245
 30
0.0
 40
166.6666804133235
100
AcDbArc
 50
72.76116943359375
 51
90.0
  0
ARC
  5
1DC
330
1F
100
AcDbEntity
  8
0-2
  6
Continuous
 62
     6
370
     5
100
AcDbCircle
 10
-144.9999835040117
 20
43.1145727312245
 30
0.0
 40
186.6666690723316
100
AcDbArc
 50
72.76118469238281
 51
90.0
  0
ARC
  5
1DD
330
1F
100
AcDbEntity
  8
0-2
  6
Continuous
 62
     6
370
     5
100
AcDbCircle
 10
-105.4858233477617
 20
170.4582402512836
 30
0.0
 40
33.33333762916359
100
AcDbArc
 50
3.999954223632812
 51
72.7611541748047
  0
ARC
  5
1DE
330
1F
100
AcDbEntity
  8
0-2
  6
Continuous
 62
     6
370
     5
100
AcDbCircle
 10
-105.4858233477617
 20
170.4582402512836
 30
0.0
 40
53.33333402066618
100
AcDbArc
 50
4.000030517578125
 51
72.76119995117189
  0
ARC
  5
1DF
330
1F
100
AcDbEntity
  8
0-2
  6
Continuous
 62
     6
370
     5
100
AcDbCircle
 10
-48.21760847761823
 20
-170.6639075923609
 30
0.0
 40
4.999954636032516
100
AcDbArc
 50
270.0
 51
90.0
  0
ARC
  5
1E0
330
1F
100
AcDbEntity
  8
0-2
  6
Continuous
 62
     6
370
     5
100
AcDbCircle
 10
-75.2704517261401
 20
72.8558496526771
 30
0.0
 40
6.666666752583272
100
AcDbArc
 50
106.9960174560547
 51
183.9990997314453
  0
ARC
  5
1E1
330
1F
100
AcDbEntity
  8
0-2
  6
Continuous
 62
     6
370
     5
100
AcDbCircle
 10
-74.09956648543073
 20
56.10714293815001
 30
0.0
 40
6.666666752583272
100
AcDbArc
 50
184.000244140625
 51
253.6630249023438
  0
ARC
  5
1E2
330
1F
100
AcDbEntity
  8
0-2
  6
Continuous
 62
     6
370
     5
100
AcDbCircle
 10
-144.9999835040117
 20
43.1145727312245
 30
0.0
 40
166.6666804133235
100
AcDbArc
 50
90.0
 51
107.2388305664062
  0
ARC
  5
1E3
330
1F
100
AcDbEntity
  8
0-2
  6
Continuous
 62
     6
370
     5
100
AcDbCircle
 10
-144.9999835040117
 20
43.1145727312245
 30
0.0
 40
186.6666690723316
100
AcDbArc
 50
90.0
 51
107.2388153076172
  0
ARC
  5
1E4
330
1F
100
AcDbEntity
  8
0-2
  6
Continuous
 62
     6
370
     5
100
AcDbCircle
 10
-184.5141436602617
 20
170.4582402512836
 30
0.0
 40
33.33333762916359
100
AcDbArc
 50
107.2388458251954
 51
176.0000457763672
  0
ARC
  5
1E5
330
1F
100
AcDbEntity
  8
0-2
  6
Continuous
 62
     6
370
     5
100
AcDbCircle
 10
-184.5141436602617
 20
170.4582402512836
 30
0.0
 40
53.33333402066618
100
AcDbArc
 50
107.2388000488282
 51
175.9999694824219
  0
ARC
  5
1E6
330
1F
100
AcDbEntity
  8
0-2
  6
Continuous
 62
     6
370
     5
100
AcDbCircle
 10
-241.7823585304052
 20
-170.6639075923609
 30
0.0
 40
4.999954636032516
100
AcDbArc
 50
90.0
 51
270.0
  0
ARC
  5
1E7
330
1F
100
AcDbEntity
  8
0-2
  6
Continuous
 62
     6
370
     5
100
AcDbCircle
 10
-214.7292678420607
 20
72.8558496526771
 30
0.0
 40
6.666666752583272
100
AcDbArc
 50
356.0009002685547
 51
73.00398254394531
  0
ARC
  5
1E8
330
1F
100
AcDbEntity
  8
0-2
  6
Continuous
 62
     6
370
     5
100
AcDbCircle
 10
-215.9006479624153
 20
56.10714293815001
 30
0.0
 40
6.666666752583272
100
AcDbArc
 50
286.3369750976562
 51
355.999755859375
  0
ARC
  5
1E9
330
1F
100
AcDbEntity
  8
0-2
  6
Continuous
 62
     6
370
     5
100
AcDbCircle
 10
74.42940376900339
 20
-208.5521406740754
 30
0.0
 40
5.000000064437453
100
AcDbArc
 50
296.58154296875
 51
345.9637603759766
  0
ARC
  5
1EA
330
1F
100
AcDbEntity
  8
0-2
  6
Continuous
 62
     6
370
     5
100
AcDbCircle
 10
-364.4293707770271
 20
-208.5521406740754
 30
0.0
 40
5.000000064437453
100
AcDbArc
 50
194.0362396240234
 51
243.41845703125
  0
ARC
  5
1EB
330
1F
100
AcDbEntity
  8
0-2
  6
Continuous
 62
     6
370
     5
100
AcDbCircle
 10
-364.4293707770271
 20
-208.5521406740754
 30
0.0
 40
5.000000064437453
100
AcDbArc
 50
194.0362396240234
 51
270.0
  0
LINE
  5
1EC
330
1F
100
AcDbEntity
  8
0-4
  6
Continuous
 62
     7
370
     9
100
AcDbLine
 10
-393.3333113386823
 20
329.7810652449324
 30
0.0
 11
63.33321236275367
 21
329.7810652449324
 31
0.0
  0
LINE
  5
1ED
330
1F
100
AcDbEntity
  8
0-4
  6
Continuous
 62
     7
370
     9
100
AcDbLine
 10
-393.3333113386823
 20
-183.5525182775548
 30
0.0
 11
-393.3333113386823
 21
332.7810256545607
 31
0.0
  0
LINE
  5
1EE
330
1F
100
AcDbEntity
  8
0-4
  6
Continuous
 62
     7
370
     9
100
AcDbLine
 10
63.33321236275367
 20
-183.5525182775548
 30
0.0
 11
63.33321236275367
 21
332.7810256545607
 31
0.0
  0
LINE
  5
1EF
330
1F
100
AcDbEntity
  8
0-4
  6
Continuous
 62
     7
370
     9
100
AcDbLine
 10
-393.3333113386823
 20
329.7810652449324
 30
0.0
 11
-368.5470168654982
 21
333.0441779059335
 31
0.0
  0
LINE
  5
1F0
330
1F
100
AcDbEntity
  8
0-4
  6
Continuous
 62
     7
370
     9
100
AcDbLine
 10
-393.3333113386823
 20
329.7810652449324
 30
0.0
 11
-368.5470168654982
 21
326.5178288640204
 31
0.0
  0
LINE
  5
1F1
330
1F
100
AcDbEntity
  8
0-4
  6
Continuous
 62
     7
370
     9
100
AcDbLine
 10
63.33321236275367
 20
329.7810652449324
 30
0.0
 11
38.54716532939221
 21
333.0441779059335
 31
0.0
  0
LINE
  5
1F2
330
1F
100
AcDbEntity
  8
0-4
  6
Continuous
 62
     7
370
     9
100
AcDbLine
 10
63.33321236275367
 20
329.7810652449324
 30
0.0
 11
38.54716532939221
 21
326.5178288640204
 31
0.0
  0
LINE
  5
1F3
330
1F
100
AcDbEntity
  8
0-4
  6
Continuous
 62
     7
370
     9
100
AcDbLine
 10
-465.0000494879643
 20
429.7811477248732
 30
0.0
 11
134.9999505120357
 21
429.7811477248732
 31
0.0
  0
LINE
  5
1F4
330
1F
100
AcDbEntity
  8
0-4
  6
Continuous
 62
     7
370
     9
100
AcDbLine
 10
-465.0000494879643
 20
-183.5522708377322
 30
0.0
 11
-465.0000494879643
 21
432.7808606946789
 31
0.0
  0
LINE
  5
1F5
330
1F
100
AcDbEntity
  8
0-4
  6
Continuous
 62
     7
370
     9
100
AcDbLine
 10
134.9999505120357
 20
-183.5522708377322
 30
0.0
 11
134.9999505120357
 21
432.7808606946789
 31
0.0
  0
LINE
  5
1F6
330
1F
100
AcDbEntity
  8
0-4
  6
Continuous
 62
     7
370
     9
100
AcDbLine
 10
-465.0000494879643
 20
429.7811477248732
 30
0.0
 11
-440.2138787346917
 21
433.0441366659628
 31
0.0
  0
LINE
  5
1F7
330
1F
100
AcDbEntity
  8
0-4
  6
Continuous
 62
     7
370
     9
100
AcDbLine
 10
-465.0000494879643
 20
429.7811477248732
 30
0.0
 11
-440.2138787346917
 21
426.5179113439613
 31
0.0
  0
LINE
  5
1F8
330
1F
100
AcDbEntity
  8
0-4
  6
Continuous
 62
     7
370
     9
100
AcDbLine
 10
134.9999505120357
 20
429.7811477248732
 30
0.0
 11
110.2139034786742
 21
433.0441366659628
 31
0.0
  0
LINE
  5
1F9
330
1F
100
AcDbEntity
  8
0-4
  6
Continuous
 62
     7
370
     9
100
AcDbLine
 10
134.9999505120357
 20
429.7811477248732
 30
0.0
 11
110.2139034786742
 21
426.5179113439613
 31
0.0
  0
LINE
  5
1FA
330
1F
100
AcDbEntity
  8
0-4
  6
Continuous
 62
     7
370
     9
100
AcDbLine
 10
-498.3334103146112
 20
529.7808590450803
 30
0.0
 11
168.3333113386826
 21
529.7808590450803
 31
0.0
  0
LINE
  5
1FB
330
1F
100
AcDbEntity
  8
0-4
  6
Continuous
 62
     7
370
     9
100
AcDbLine
 10
-498.3334103146112
 20
-203.0736644847973
 30
0.0
 11
-498.3334103146112
 21
532.7808194547085
 31
0.0
  0
LINE
  5
1FC
330
1F
100
AcDbEntity
  8
0-4
  6
Continuous
 62
     7
370
     9
100
AcDbLine
 10
168.3333113386826
 20
-203.0736644847973
 30
0.0
 11
168.3333113386826
 21
532.7808194547085
 31
0.0
  0
LINE
  5
1FD
330
1F
100
AcDbEntity
  8
0-4
  6
Continuous
 62
     7
370
     9
100
AcDbLine
 10
-498.3334103146112
 20
529.7808590450803
 30
0.0
 11
-473.5472395613385
 21
533.043971706081
 31
0.0
  0
LINE
  5
1FE
330
1F
100
AcDbEntity
  8
0-4
  6
Continuous
 62
     7
370
     9
100
AcDbLine
 10
-498.3334103146112
 20
529.7808590450803
 30
0.0
 11
-473.5472395613385
 21
526.5177463840794
 31
0.0
  0
LINE
  5
1FF
330
1F
100
AcDbEntity
  8
0-4
  6
Continuous
 62
     7
370
     9
100
AcDbLine
 10
168.3333113386826
 20
529.7808590450803
 30
0.0
 11
143.5472643053211
 21
533.043971706081
 31
0.0
  0
LINE
  5
200
330
1F
100
AcDbEntity
  8
0-4
  6
Continuous
 62
     7
370
     9
100
AcDbLine
 10
168.3333113386826
 20
529.7808590450803
 30
0.0
 11
143.5472643053211
 21
526.5177463840794
 31
0.0
  0
LINE
  5
201
330
1F
100
AcDbEntity
  8
0-4
  6
Continuous
 62
     7
370
     9
100
AcDbLine
 10
368.3334762985643
 20
-206.4069263355151
 30
0.0
 11
368.3334762985643
 21
229.7811064849029
 31
0.0
  0
LINE
  5
202
330
1F
100
AcDbEntity
  8
0-4
  6
Continuous
 62
     7
370
     9
100
AcDbLine
 10
368.3334762985643
 20
-206.4069263355151
 30
0.0
 11
365.0702399176524
 21
-181.6207555822423
 31
0.0
  0
LINE
  5
203
330
1F
100
AcDbEntity
  8
0-4
  6
Continuous
 62
     7
370
     9
100
AcDbLine
 10
368.3334762985643
 20
-206.4069263355151
 30
0.0
 11
371.5967126794766
 21
-181.6207555822423
 31
0.0
  0
LINE
  5
204
330
1F
100
AcDbEntity
  8
0-4
  6
Continuous
 62
     7
370
     9
100
AcDbLine
 10
368.3334762985643
 20
229.7811064849029
 30
0.0
 11
365.0702399176524
 21
204.9949357316301
 31
0.0
  0
LINE
  5
205
330
1F
100
AcDbEntity
  8
0-4
  6
Continuous
 62
     7
370
     9
100
AcDbLine
 10
368.3334762985643
 20
229.7811064849029
 30
0.0
 11
371.5967126794766
 21
204.9949357316301
 31
0.0
  0
LINE
  5
206
330
1F
100
AcDbEntity
  8
0-4
  6
Continuous
 62
     7
370
     9
100
AcDbLine
 10
-598.3333690746408
 20
229.7811064849029
 30
0.0
 11
-601.5964817356415
 21
204.9949357316301
 31
0.0
  0
LINE
  5
207
330
1F
100
AcDbEntity
  8
0-4
  6
Continuous
 62
     7
370
     9
100
AcDbLine
 10
-598.3333690746408
 20
229.7811064849029
 30
0.0
 11
-595.0702564136401
 21
204.9949357316301
 31
0.0
  0
LINE
  5
208
330
1F
100
AcDbEntity
  8
0-4
  6
Continuous
 62
     7
370
     9
100
AcDbLine
 10
-105.0000989759289
 20
229.7811064849029
 30
0.0
 11
371.3334367081927
 21
229.7811064849029
 31
0.0
  0
LINE
  5
209
330
1F
100
AcDbEntity
  8
0-4
  6
Continuous
 62
     7
370
     9
100
AcDbLine
 10
-224.9999999999997
 20
229.7811064849029
 30
0.0
 11
-601.3333294842693
 21
229.7811064849029
 31
0.0
  0
TEXT
  5
20A
330
1F
100
AcDbEntity
  8
0-4
  6
Continuous
 62
     2
370
     9
100
AcDbText
 10
-219.9999876280087
 20
545.4208920370564
 30
0.0
 40
30.48
  1
φ200
 41
1.1
  7
ＭＳ ゴシック
100
AcDbText
  0
TEXT
  5
20B
330
1F
100
AcDbEntity
  8
0-4
  6
Continuous
 62
     2
370
     9
100
AcDbText
 10
-219.9999876280087
 20
445.4210569969383
 30
0.0
 40
30.48
  1
φ180
 41
1.1
  7
ＭＳ ゴシック
100
AcDbText
  0
TEXT
  5
20C
330
1F
100
AcDbEntity
  8
0-4
  6
Continuous
 62
     2
370
     9
100
AcDbText
 10
-219.9999876280087
 20
345.421098236909
 30
0.0
 40
30.48
  1
φ137
 41
1.1
  7
ＭＳ ゴシック
100
AcDbText
  0
TEXT
  5
20D
330
1F
100
AcDbEntity
  8
0-4
  6
Continuous
 62
     2
370
     9
100
AcDbText
 10
352.6934433065881
 20
-20.81297178526171
 30
0.0
 40
30.48
  1
131
 50
90.0
 41
1.083333333333333
  7
ＭＳ ゴシック
100
AcDbText
  0
TEXT
  5
20E
330
1F
100
AcDbEntity
  8
0-4
  6
Continuous
 62
     2
370
     9
100
AcDbText
 10
-613.9734020666172
 20
-24.38563166437916
 30
0.0
 40
30.48
  1
133
 50
90.0
 41
1.083333333333333
  7
ＭＳ ゴシック
100
AcDbText
  0
LINE
  5
20F
330
1F
100
AcDbEntity
  8
0-4
  6
Continuous
 62
     7
370
     9
100
AcDbLine
 10
-409.4292718010979
 20
-213.55224609375
 30
0.0
 11
-601.3333294842693
 21
-213.55224609375
 31
0.0
  0
LINE
  5
210
330
1F
100
AcDbEntity
  8
0-4
  6
Continuous
 62
     7
370
     9
100
AcDbLine
 10
-598.3333690746408
 20
-213.55224609375
 30
0.0
 11
-595.0702564136401
 21
-188.7660753404771
 31
0.0
  0
LINE
  5
211
330
1F
100
AcDbEntity
  8
0-4
  6
Continuous
 62
     7
370
     9
100
AcDbLine
 10
-598.3333690746408
 20
-213.55224609375
 30
0.0
 11
-601.5964817356415
 21
-188.7660753404771
 31
0.0
  0
LINE
  5
212
330
1F
100
AcDbEntity
  8
0-4
  6
Continuous
 62
     7
370
     9
100
AcDbLine
 10
-598.3333690746408
 20
-213.55224609375
 30
0.0
 11
-598.3333690746408
 21
229.7811064849029
 31
0.0
  0
LINE
  5
213
330
1F
100
AcDbEntity
  8
0-0
  6
JWW_CENTER1
 62
     3
370
     9
100
AcDbLine
 10
-144.9999835040117
 20
258.3374776043443
 30
0.0
 11
-144.9999835040117
 21
-526.4474487304688
 31
0.0
  0
LINE
  5
214
330
1F
100
AcDbEntity
  8
0-E
  6
Continuous
 62
     7
370
     9
100
AcDbLine
 10
100.0000824799409
 20
-193.5523386259337
 30
0.0
 11
103.2633188608531
 21
-168.7661678726609
 31
0.0
  0
LINE
  5
215
330
1F
100
AcDbEntity
  8
0-E
  6
Continuous
 62
     7
370
     9
100
AcDbLine
 10
100.0000824799409
 20
-193.5523386259337
 30
0.0
 11
109.5670957823057
 21
-170.4553158218796
 31
0.0
  0
LINE
  5
216
330
1F
100
AcDbEntity
  8
0-E
  6
Continuous
 62
     7
370
     9
100
AcDbLine
 10
75.29395850929063
 20
-176.0213509121456
 30
0.0
 11
78.55719489020288
 21
-151.2351801588729
 31
0.0
  0
LINE
  5
217
330
1F
100
AcDbEntity
  8
0-E
  6
Continuous
 62
     7
370
     9
100
AcDbLine
 10
75.29395850929063
 20
-176.0213509121456
 30
0.0
 11
84.86097181165547
 21
-152.9243281080916
 31
0.0
  0
LINE
  5
218
330
1F
100
AcDbEntity
  8
0-E
  6
Continuous
 62
     7
370
     9
100
AcDbLine
 10
-96.68711069467889
 20
223.4207547677531
 30
0.0
 11
-93.42399803367812
 21
248.206925521026
 31
0.0
  0
LINE
  5
219
330
1F
100
AcDbEntity
  8
0-E
  6
Continuous
 62
     7
370
     9
100
AcDbLine
 10
-96.68711069467889
 20
223.4207547677531
 30
0.0
 11
-87.11997367240286
 21
246.5177775718073
 31
0.0
  0
LINE
  5
21A
330
1F
100
AcDbEntity
  8
0-E
  6
Continuous
 62
     7
370
     9
100
AcDbLine
 10
100.0000824799409
 20
-193.5523386259337
 30
0.0
 11
261.6626636402029
 21
409.7809232247843
 31
0.0
  0
LINE
  5
21B
330
1F
100
AcDbEntity
  8
0-E
  6
Continuous
 62
     7
370
     9
100
AcDbLine
 10
75.29395850929063
 20
-176.0213509121456
 30
0.0
 11
264.4132047086148
 21
529.7809479687667
 31
0.0
  0
LINE
  5
21C
330
1F
100
AcDbEntity
  8
0-E
  6
Continuous
 62
     7
370
     9
100
AcDbLine
 10
-96.68711069467889
 20
223.4207547677531
 30
0.0
 11
17.55585541596304
 21
649.780972712749
 31
0.0
  0
LINE
  5
21D
330
1F
100
AcDbEntity
  8
0-E
  6
Continuous
 62
     7
370
     9
100
AcDbLine
 10
17.55585541596304
 20
649.780972712749
 30
0.0
 11
447.5547996727198
 21
649.780972712749
 31
0.0
  0
LINE
  5
21E
330
1F
100
AcDbEntity
  8
0-E
  6
Continuous
 62
     7
370
     9
100
AcDbLine
 10
264.4132047086148
 20
529.7809479687667
 30
0.0
 11
630.6231524493242
 21
529.7809479687667
 31
0.0
  0
LINE
  5
21F
330
1F
100
AcDbEntity
  8
0-E
  6
Continuous
 62
     7
370
     9
100
AcDbLine
 10
261.6626636402029
 20
409.7809232247843
 30
0.0
 11
648.4826165276606
 21
409.7809232247843
 31
0.0
  0
TEXT
  5
220
330
1F
100
AcDbEntity
  8
0-E
  6
Continuous
 62
     7
370
     9
100
AcDbText
 10
31.1637507258235
 20
667.0668875142692
 30
0.0
 40
22.86
  1
ストレーナー：ＦＣ１５０
 41
1.152777777777778
  7
ＭＳ ゴシック
100
AcDbText
  0
TEXT
  5
221
330
1F
100
AcDbEntity
  8
0-E
  6
Continuous
 62
     7
370
     9
100
AcDbText
 10
138.8511369035052
 20
618.6076540498476
 30
0.0
 40
22.86
  1
樹脂系塗装
 41
1.133333333333334
  7
ＭＳ ゴシック
100
AcDbText
  0
TEXT
  5
222
330
1F
100
AcDbEntity
  8
0-E
  6
Continuous
 62
     7
370
     9
100
AcDbText
 10
271.6653689822635
 20
548.6108872635302
 30
0.0
 40
22.86
  1
丸小ネジ：Ｃ２７００
 41
1.15
  7
ＭＳ ゴシック
100
AcDbText
  0
TEXT
  5
223
330
1F
100
AcDbEntity
  8
0-E
  6
Continuous
 62
     7
370
     9
100
AcDbText
 10
372.173775337838
 20
492.9724347851729
 30
0.0
 40
22.86
  1
Ｍ６×１２
 41
1.133333333333333
  7
ＭＳ ゴシック
100
AcDbText
  0
TEXT
  5
224
330
1F
100
AcDbEntity
  8
0-E
  6
Continuous
 62
     7
370
     9
100
AcDbText
 10
270.2654122017526
 20
423.0831806017903
 30
0.0
 40
22.86
  1
防水層押え：ＦＣ１５０
 41
1.151515151515152
  7
ＭＳ ゴシック
100
AcDbText
  0
TEXT
  5
225
330
1F
100
AcDbEntity
  8
0-E
  6
Continuous
 62
     7
370
     9
100
AcDbText
 10
370.8809022645693
 20
374.5937594790072
 30
0.0
 40
22.86
  1
樹脂系塗装
 41
1.133333333333333
  7
ＭＳ ゴシック
100
AcDbText
  0
LINE
  5
226
330
1F
100
AcDbEntity
  8
0-4
  6
Continuous
 62
     7
370
     9
100
AcDbLine
 10
-56.39930486676502
 20
-53.66057033827767
 30
0.0
 11
-81.35262122022777
 21
-52.13436151226412
 31
0.0
  0
LINE
  5
227
330
1F
100
AcDbEntity
  8
0-4
  6
Continuous
 62
     7
370
     9
100
AcDbLine
 10
-56.39930486676502
 20
-53.66057033827767
 30
0.0
 11
-80.89733194657907
 21
-58.64475068561725
 31
0.0
  0
LINE
  5
228
330
1F
100
AcDbEntity
  8
0-4
  6
Continuous
 62
     7
370
     9
100
AcDbLine
 10
-36.44790868085406
 20
-52.26550356866099
 30
0.0
 11
-11.94988160103973
 21
-47.28132322132168
 31
0.0
  0
LINE
  5
229
330
1F
100
AcDbEntity
  8
0-4
  6
Continuous
 62
     7
370
     9
100
AcDbLine
 10
-36.44790868085406
 20
-52.26550356866099
 30
0.0
 11
-11.49459232739103
 21
-53.79171239467453
 31
0.0
  0
LINE
  5
22A
330
1F
100
AcDbEntity
  8
0-4
  6
Continuous
 62
     7
370
     9
100
AcDbLine
 10
6.648345322810599
 20
-49.25207276435824
 30
0.0
 11
-95.59639595650339
 21
-56.40135893950585
 31
0.0
  0
TEXT
  5
22B
330
1F
100
AcDbEntity
  8
0-4
  6
Continuous
 62
     2
370
     9
100
AcDbText
 10
-21.91458169922705
 20
-38.22567889026998
 30
0.0
 40
30.48
  1
6
 50
4.000163508
 41
0.9999999999999998
  7
ＭＳ ゴシック
100
AcDbText
  0
LINE
  5
22C
330
1F
100
AcDbEntity
  8
0-1
  6
Continuous
 62
     2
370
     9
100
AcDbLine
 10
-323.6274100638724
 20
1030.74834180176
 30
0.0
 11
-330.7191591005068
 21
1037.839967118483
 31
0.0
  0
LINE
  5
22D
330
1F
100
AcDbEntity
  8
0-1
  6
Continuous
 62
     2
370
     9
100
AcDbLine
 10
-316.7891631255279
 20
1030.98118267486
 30
0.0
 11
-329.7730729386612
 21
1043.965092487993
 31
0.0
  0
LINE
  5
22E
330
1F
100
AcDbEntity
  8
0-1
  6
Continuous
 62
     2
370
     9
100
AcDbLine
 10
-366.5557448928419
 20
956.3941597388379
 30
0.0
 11
-376.2432613888302
 21
958.9898034782802
 31
0.0
  0
LINE
  5
22F
330
1F
100
AcDbEntity
  8
0-1
  6
Continuous
 62
     2
370
     9
100
AcDbLine
 10
-363.3384085990286
 20
950.35563830725
 30
0.0
 11
-381.0746476456924
 21
955.1079675407802
 31
0.0
  0
LINE
  5
230
330
1F
100
AcDbEntity
  8
0-1
  6
Continuous
 62
     2
370
     9
100
AcDbLine
 10
-381.0746476456924
 20
955.1079675407802
 30
0.0
 11
-376.2432613888302
 21
958.9898034782802
 31
0.0
  0
LINE
  5
231
330
1F
100
AcDbEntity
  8
0-1
  6
Continuous
 62
     2
370
     9
100
AcDbLine
 10
-366.5557448928419
 20
956.3941597388379
 30
0.0
 11
-363.3384085990286
 21
950.35563830725
 31
0.0
  0
LINE
  5
232
330
1F
100
AcDbEntity
  8
0-1
  6
Continuous
 62
     2
370
     9
100
AcDbLine
 10
-323.6274100638724
 20
1030.74834180176
 30
0.0
 11
-316.7891631255279
 21
1030.98118267486
 31
0.0
  0
LINE
  5
233
330
1F
100
AcDbEntity
  8
0-1
  6
Continuous
 62
     2
370
     9
100
AcDbLine
 10
-329.7730729386612
 20
1043.965092487993
 30
0.0
 11
-330.7191591005068
 21
1037.839967118483
 31
0.0
  0
LINE
  5
234
330
1F
100
AcDbEntity
  8
0-1
  6
Continuous
 62
     2
370
     9
100
AcDbLine
 10
-223.3459885055953
 20
1099.603916126084
 30
0.0
 11
-225.941632245038
 21
1109.291432622073
 31
0.0
  0
LINE
  5
235
330
1F
100
AcDbEntity
  8
0-1
  6
Continuous
 62
     2
370
     9
100
AcDbLine
 10
-217.3073433540961
 20
1096.386703552182
 30
0.0
 11
-222.059796307538
 21
1114.123190038669
 31
0.0
  0
LINE
  5
236
330
1F
100
AcDbEntity
  8
0-1
  6
Continuous
 62
     2
370
     9
100
AcDbLine
 10
-297.7000468486062
 20
1056.675581297115
 30
0.0
 11
-304.7917958852406
 21
1063.767206613838
 31
0.0
  0
LINE
  5
237
330
1F
100
AcDbEntity
  8
0-1
  6
Continuous
 62
     2
370
     9
100
AcDbLine
 10
-297.9330114416172
 20
1049.83733435877
 30
0.0
 11
-310.9167975348393
 21
1062.820996732081
 31
0.0
  0
LINE
  5
238
330
1F
100
AcDbEntity
  8
0-1
  6
Continuous
 62
     2
370
     9
100
AcDbLine
 10
-310.9167975348393
 20
1062.820996732081
 30
0.0
 11
-304.7917958852406
 21
1063.767206613838
 31
0.0
  0
LINE
  5
239
330
1F
100
AcDbEntity
  8
0-1
  6
Continuous
 62
     2
370
     9
100
AcDbLine
 10
-297.7000468486062
 20
1056.675581297115
 30
0.0
 11
-297.9330114416172
 21
1049.83733435877
 31
0.0
  0
LINE
  5
23A
330
1F
100
AcDbEntity
  8
0-1
  6
Continuous
 62
     2
370
     9
100
AcDbLine
 10
-222.059796307538
 20
1114.123190038669
 30
0.0
 11
-225.941632245038
 21
1109.291432622073
 31
0.0
  0
LINE
  5
23B
330
1F
100
AcDbEntity
  8
0-1
  6
Continuous
 62
     2
370
     9
100
AcDbLine
 10
-102.0716486750422
 20
1109.09397564361
 30
0.0
 11
-99.47600493559946
 21
1118.781739579421
 31
0.0
  0
LINE
  5
23C
330
1F
100
AcDbEntity
  8
0-1
  6
Continuous
 62
     2
370
     9
100
AcDbLine
 10
-98.45061431059946
 20
1103.288295085122
 30
0.0
 11
-93.69828507706927
 21
1121.024781571608
 31
0.0
  0
LINE
  5
23D
330
1F
100
AcDbEntity
  8
0-1
  6
Continuous
 62
     2
370
     9
100
AcDbLine
 10
-187.9284420528927
 20
1109.09397564361
 30
0.0
 11
-190.5242095122466
 21
1118.781492139598
 31
0.0
  0
LINE
  5
23E
330
1F
100
AcDbEntity
  8
0-1
  6
Continuous
 62
     2
370
     9
100
AcDbLine
 10
-191.549352697424
 20
1103.288295085122
 30
0.0
 11
-196.3016819309541
 21
1121.024781571608
 31
0.0
  0
LINE
  5
23F
330
1F
100
AcDbEntity
  8
0-1
  6
Continuous
 62
     2
370
     9
100
AcDbLine
 10
-196.3016819309541
 20
1121.024781571608
 30
0.0
 11
-190.5242095122466
 21
1118.781492139598
 31
0.0
  0
LINE
  5
240
330
1F
100
AcDbEntity
  8
0-1
  6
Continuous
 62
     2
370
     9
100
AcDbLine
 10
-187.9284420528927
 20
1109.09397564361
 30
0.0
 11
-191.549352697424
 21
1103.288295085122
 31
0.0
  0
LINE
  5
241
330
1F
100
AcDbEntity
  8
0-1
  6
Continuous
 62
     2
370
     9
100
AcDbLine
 10
-102.0716486750422
 20
1109.09397564361
 30
0.0
 11
-98.45061431059946
 21
1103.288295085122
 31
0.0
  0
LINE
  5
242
330
1F
100
AcDbEntity
  8
0-1
  6
Continuous
 62
     2
370
     9
100
AcDbLine
 10
-93.69828507706927
 20
1121.024781571608
 30
0.0
 11
-99.47600493559946
 21
1118.781739579421
 31
0.0
  0
LINE
  5
243
330
1F
100
AcDbEntity
  8
0-1
  6
Continuous
 62
     2
370
     9
100
AcDbLine
 10
7.699832400760158
 20
1056.675581297115
 30
0.0
 11
14.79170515730573
 21
1063.76745405366
 31
0.0
  0
LINE
  5
244
330
1F
100
AcDbEntity
  8
0-1
  6
Continuous
 62
     2
370
     9
100
AcDbLine
 10
7.932920713682563
 20
1049.83733435877
 30
0.0
 11
20.91683052681589
 21
1062.821491611726
 31
0.0
  0
LINE
  5
245
330
1F
100
AcDbEntity
  8
0-1
  6
Continuous
 62
     2
370
     9
100
AcDbLine
 10
-66.6541022223393
 20
1099.603916126084
 30
0.0
 11
-64.05845848289687
 21
1109.291680061895
 31
0.0
  0
LINE
  5
246
330
1F
100
AcDbEntity
  8
0-1
  6
Continuous
 62
     2
370
     9
100
AcDbLine
 10
-72.69262365392734
 20
1096.386703552182
 30
0.0
 11
-67.94029442039687
 21
1114.123190038669
 31
0.0
  0
LINE
  5
247
330
1F
100
AcDbEntity
  8
0-1
  6
Continuous
 62
     2
370
     9
100
AcDbLine
 10
-67.94029442039687
 20
1114.123190038669
 30
0.0
 11
-64.05845848289687
 21
1109.291680061895
 31
0.0
  0
LINE
  5
248
330
1F
100
AcDbEntity
  8
0-1
  6
Continuous
 62
     2
370
     9
100
AcDbLine
 10
-66.6541022223393
 20
1099.603916126084
 30
0.0
 11
-72.69262365392734
 21
1096.386703552182
 31
0.0
  0
LINE
  5
249
330
1F
100
AcDbEntity
  8
0-1
  6
Continuous
 62
     2
370
     9
100
AcDbLine
 10
7.699832400760158
 20
1056.675581297115
 30
0.0
 11
7.932920713682563
 21
1049.83733435877
 31
0.0
  0
LINE
  5
24A
330
1F
100
AcDbEntity
  8
0-1
  6
Continuous
 62
     2
370
     9
100
AcDbLine
 10
20.91683052681589
 20
1062.821491611726
 30
0.0
 11
14.79170515730573
 21
1063.76745405366
 31
0.0
  0
LINE
  5
24B
330
1F
100
AcDbEntity
  8
0-1
  6
Continuous
 62
     2
370
     9
100
AcDbLine
 10
76.55565416490731
 20
956.3941597388379
 30
0.0
 11
86.24317066089532
 21
958.9898034782802
 31
0.0
  0
LINE
  5
24C
330
1F
100
AcDbEntity
  8
0-1
  6
Continuous
 62
     2
370
     9
100
AcDbLine
 10
73.33844159100522
 20
950.35563830725
 30
0.0
 11
91.07468063766902
 21
955.1079675407802
 31
0.0
  0
LINE
  5
24D
330
1F
100
AcDbEntity
  8
0-1
  6
Continuous
 62
     2
370
     9
100
AcDbLine
 10
33.6273193359375
 20
1030.74834180176
 30
0.0
 11
40.7189446526607
 21
1037.839967118483
 31
0.0
  0
LINE
  5
24E
330
1F
100
AcDbEntity
  8
0-1
  6
Continuous
 62
     2
370
     9
100
AcDbLine
 10
26.78907239759297
 20
1030.98118267486
 30
0.0
 11
39.77298221072658
 21
1043.965092487993
 31
0.0
  0
LINE
  5
24F
330
1F
100
AcDbEntity
  8
0-1
  6
Continuous
 62
     2
370
     9
100
AcDbLine
 10
39.77298221072658
 20
1043.965092487993
 30
0.0
 11
40.7189446526607
 21
1037.839967118483
 31
0.0
  0
LINE
  5
250
330
1F
100
AcDbEntity
  8
0-1
  6
Continuous
 62
     2
370
     9
100
AcDbLine
 10
33.6273193359375
 20
1030.74834180176
 30
0.0
 11
26.78907239759297
 21
1030.98118267486
 31
0.0
  0
LINE
  5
251
330
1F
100
AcDbEntity
  8
0-1
  6
Continuous
 62
     2
370
     9
100
AcDbLine
 10
76.55565416490731
 20
956.3941597388379
 30
0.0
 11
73.33844159100522
 21
950.35563830725
 31
0.0
  0
LINE
  5
252
330
1F
100
AcDbEntity
  8
0-1
  6
Continuous
 62
     2
370
     9
100
AcDbLine
 10
91.07468063766902
 20
955.1079675407802
 30
0.0
 11
86.24317066089532
 21
958.9898034782802
 31
0.0
  0
LINE
  5
253
330
1F
100
AcDbEntity
  8
0-1
  6
Continuous
 62
     2
370
     9
100
AcDbLine
 10
86.04571368243256
 20
920.9766132861353
 30
0.0
 11
95.73347761824323
 21
923.5725044654004
 31
0.0
  0
LINE
  5
254
330
1F
100
AcDbEntity
  8
0-1
  6
Continuous
 62
     2
370
     9
100
AcDbLine
 10
80.24028056376693
 20
924.5976476505778
 30
0.0
 11
97.97651961043073
 21
929.3499768841082
 31
0.0
  0
LINE
  5
255
330
1F
100
AcDbEntity
  8
0-1
  6
Continuous
 62
     2
370
     9
100
AcDbLine
 10
97.97651961043073
 20
929.3499768841082
 30
0.0
 11
95.73347761824323
 21
923.5725044654004
 31
0.0
  0
LINE
  5
256
330
1F
100
AcDbEntity
  8
0-1
  6
Continuous
 62
     2
370
     9
100
AcDbLine
 10
86.04571368243256
 20
920.9766132861353
 30
0.0
 11
80.24028056376693
 21
924.5976476505778
 31
0.0
  0
LINE
  5
257
330
1F
100
AcDbEntity
  8
0-1
  6
Continuous
 62
     2
370
     9
100
AcDbLine
 10
-376.045680690456
 20
920.9766132861353
 30
0.0
 11
-385.7331971864443
 21
923.5725044654004
 31
0.0
  0
LINE
  5
258
330
1F
100
AcDbEntity
  8
0-1
  6
Continuous
 62
     2
370
     9
100
AcDbLine
 10
-370.2402475717903
 20
924.5976476505778
 30
0.0
 11
-387.9764866184544
 21
929.3499768841082
 31
0.0
  0
LINE
  5
259
330
1F
100
AcDbEntity
  8
0-1
  6
Continuous
 62
     2
370
     9
100
AcDbLine
 10
-387.9764866184544
 20
929.3499768841082
 30
0.0
 11
-385.7331971864443
 21
923.5725044654004
 31
0.0
  0
LINE
  5
25A
330
1F
100
AcDbEntity
  8
0-1
  6
Continuous
 62
     2
370
     9
100
AcDbLine
 10
-376.045680690456
 20
920.9766132861353
 30
0.0
 11
-370.2402475717903
 21
924.5976476505778
 31
0.0
  0
LINE
  5
25B
330
1F
100
AcDbEntity
  8
0-1
  6
Continuous
 62
     2
370
     9
100
AcDbLine
 10
-223.3459885055953
 20
1099.603916126084
 30
0.0
 11
-217.3073433540961
 21
1096.386703552182
 31
0.0
  0
LINE
  5
25C
330
1F
100
AcDbEntity
  8
0-0
  6
JWW_CENTER1
 62
     3
370
     9
100
AcDbLine
 10
-516.336884369721
 20
878.0482784571655
 30
0.0
 11
219.340803816512
 21
878.0482784571655
 31
0.0
  0
LINE
  5
25D
330
1F
100
AcDbEntity
  8
0-0
  6
JWW_CENTER1
 62
     3
370
     9
100
AcDbLine
 10
-144.9999835040117
 20
1235.790588027478
 30
0.0
 11
-144.9999835040117
 21
857.1200656985084
 31
0.0
  0
ARC
  5
25E
330
1F
100
AcDbEntity
  8
0-0
  6
Continuous
 62
     3
370
     9
100
AcDbCircle
 10
-144.9999835040117
 20
878.0482784571655
 30
0.0
 40
330.0000061859956
100
AcDbArc
 50
0.0
 51
180.0
  0
ARC
  5
25F
330
1F
100
AcDbEntity
  8
0-0
  6
Continuous
 62
     3
370
     9
100
AcDbCircle
 10
-144.9999835040117
 20
878.0482784571655
 30
0.0
 40
333.3333298966692
100
AcDbArc
 50
0.0
 51
180.0
  0
ARC
  5
260
330
1F
100
AcDbEntity
  8
0-1
  6
Continuous
 62
     2
370
     9
100
AcDbCircle
 10
-144.9999835040117
 20
878.0482784571655
 30
0.0
 40
299.9999690700222
100
AcDbArc
 50
0.0
 51
180.0
  0
ARC
  5
261
330
1F
100
AcDbEntity
  8
0-1
  6
Continuous
 62
     2
370
     9
100
AcDbCircle
 10
-144.9999835040117
 20
878.0482784571655
 30
0.0
 40
279.803466796875
100
AcDbArc
 50
0.0
 51
180.0
  0
ARC
  5
262
330
1F
100
AcDbEntity
  8
0-1
  6
Continuous
 62
     2
370
     9
100
AcDbCircle
 10
-144.9999835040117
 20
878.0482784571655
 30
0.0
 40
298.3333381446632
100
AcDbArc
 50
0.0
 51
180.0
  0
ARC
  5
263
330
1F
100
AcDbEntity
  8
0-1
  6
Continuous
 62
     2
370
     9
100
AcDbCircle
 10
-144.9999835040117
 20
878.0482784571655
 30
0.0
 40
244.9999731940192
100
AcDbArc
 50
139.291488647461
 51
160.7085418701172
  0
ARC
  5
264
330
1F
100
AcDbEntity
  8
0-1
  6
Continuous
 62
     2
370
     9
100
AcDbCircle
 10
-144.9999835040117
 20
878.0482784571655
 30
0.0
 40
248.3333432996595
100
AcDbArc
 50
138.0777740478516
 51
161.9222412109375
  0
ARC
  5
265
330
1F
100
AcDbEntity
  8
0-1
  6
Continuous
 62
     2
370
     9
100
AcDbCircle
 10
-144.9999835040117
 20
878.0482784571655
 30
0.0
 40
234.9999711320207
100
AcDbArc
 50
139.4744873046875
 51
160.5255737304688
  0
ARC
  5
266
330
1F
100
AcDbEntity
  8
0-1
  6
Continuous
 62
     2
370
     9
100
AcDbCircle
 10
-144.9999835040117
 20
878.0482784571655
 30
0.0
 40
229.9999701010215
100
AcDbArc
 50
138.3233795166016
 51
161.6766510009766
  0
ARC
  5
267
330
1F
100
AcDbEntity
  8
0-1
  6
Continuous
 62
     2
370
     9
100
AcDbCircle
 10
-144.9999835040117
 20
878.0482784571655
 30
0.0
 40
244.9999731940192
100
AcDbArc
 50
109.2914886474609
 51
130.7085418701172
  0
ARC
  5
268
330
1F
100
AcDbEntity
  8
0-1
  6
Continuous
 62
     2
370
     9
100
AcDbCircle
 10
-144.9999835040117
 20
878.0482784571655
 30
0.0
 40
248.3333432996595
100
AcDbArc
 50
108.0777740478516
 51
131.9222412109375
  0
ARC
  5
269
330
1F
100
AcDbEntity
  8
0-1
  6
Continuous
 62
     2
370
     9
100
AcDbCircle
 10
-144.9999835040117
 20
878.0482784571655
 30
0.0
 40
234.9999711320207
100
AcDbArc
 50
109.4744873046875
 51
130.5255737304688
  0
ARC
  5
26A
330
1F
100
AcDbEntity
  8
0-1
  6
Continuous
 62
     2
370
     9
100
AcDbCircle
 10
-144.9999835040117
 20
878.0482784571655
 30
0.0
 40
229.9999701010215
100
AcDbArc
 50
108.3233795166016
 51
131.6766510009766
  0
ARC
  5
26B
330
1F
100
AcDbEntity
  8
0-1
  6
Continuous
 62
     2
370
     9
100
AcDbCircle
 10
-144.9999835040117
 20
878.0482784571655
 30
0.0
 40
244.9999731940192
100
AcDbArc
 50
79.29148864746094
 51
100.7085418701172
  0
ARC
  5
26C
330
1F
100
AcDbEntity
  8
0-1
  6
Continuous
 62
     2
370
     9
100
AcDbCircle
 10
-144.9999835040117
 20
878.0482784571655
 30
0.0
 40
248.3333432996595
100
AcDbArc
 50
78.07777404785156
 51
101.9222412109375
  0
ARC
  5
26D
330
1F
100
AcDbEntity
  8
0-1
  6
Continuous
 62
     2
370
     9
100
AcDbCircle
 10
-144.9999835040117
 20
878.0482784571655
 30
0.0
 40
234.9999711320207
100
AcDbArc
 50
79.47448730468751
 51
100.5255737304688
  0
ARC
  5
26E
330
1F
100
AcDbEntity
  8
0-1
  6
Continuous
 62
     2
370
     9
100
AcDbCircle
 10
-144.9999835040117
 20
878.0482784571655
 30
0.0
 40
244.9999731940192
100
AcDbArc
 50
49.29148864746094
 51
70.70854187011719
  0
ARC
  5
26F
330
1F
100
AcDbEntity
  8
0-1
  6
Continuous
 62
     2
370
     9
100
AcDbCircle
 10
-144.9999835040117
 20
878.0482784571655
 30
0.0
 40
248.3333432996595
100
AcDbArc
 50
48.07777404785157
 51
71.9222412109375
  0
ARC
  5
270
330
1F
100
AcDbEntity
  8
0-1
  6
Continuous
 62
     2
370
     9
100
AcDbCircle
 10
-144.9999835040117
 20
878.0482784571655
 30
0.0
 40
234.9999711320207
100
AcDbArc
 50
49.4744873046875
 51
70.52557373046875
  0
ARC
  5
271
330
1F
100
AcDbEntity
  8
0-1
  6
Continuous
 62
     2
370
     9
100
AcDbCircle
 10
-144.9999835040117
 20
878.0482784571655
 30
0.0
 40
229.9999701010215
100
AcDbArc
 50
48.32337951660157
 51
71.67665100097656
  0
ARC
  5
272
330
1F
100
AcDbEntity
  8
0-1
  6
Continuous
 62
     2
370
     9
100
AcDbCircle
 10
-144.9999835040117
 20
878.0482784571655
 30
0.0
 40
244.9999731940192
100
AcDbArc
 50
19.29148864746094
 51
40.70854187011719
  0
ARC
  5
273
330
1F
100
AcDbEntity
  8
0-1
  6
Continuous
 62
     2
370
     9
100
AcDbCircle
 10
-144.9999835040117
 20
878.0482784571655
 30
0.0
 40
248.3333432996595
100
AcDbArc
 50
18.07777404785156
 51
41.92224121093751
  0
ARC
  5
274
330
1F
100
AcDbEntity
  8
0-1
  6
Continuous
 62
     2
370
     9
100
AcDbCircle
 10
-144.9999835040117
 20
878.0482784571655
 30
0.0
 40
234.9999711320207
100
AcDbArc
 50
19.4744873046875
 51
40.52557373046876
  0
ARC
  5
275
330
1F
100
AcDbEntity
  8
0-1
  6
Continuous
 62
     2
370
     9
100
AcDbCircle
 10
-144.9999835040117
 20
878.0482784571655
 30
0.0
 40
229.9999701010215
100
AcDbArc
 50
18.32337951660156
 51
41.67665100097656
  0
ARC
  5
276
330
1F
100
AcDbEntity
  8
0-1
  6
Continuous
 62
     2
370
     9
100
AcDbCircle
 10
-144.9999835040117
 20
878.0482784571655
 30
0.0
 40
234.9999711320207
100
AcDbArc
 50
0.0
 51
10.52557373046875
  0
ARC
  5
277
330
1F
100
AcDbEntity
  8
0-1
  6
Continuous
 62
     2
370
     9
100
AcDbCircle
 10
-144.9999835040117
 20
878.0482784571655
 30
0.0
 40
244.9999731940192
100
AcDbArc
 50
0.0
 51
10.70854187011719
  0
ARC
  5
278
330
1F
100
AcDbEntity
  8
0-1
  6
Continuous
 62
     2
370
     9
100
AcDbCircle
 10
-144.9999835040117
 20
878.0482784571655
 30
0.0
 40
248.3333432996595
100
AcDbArc
 50
0.0
 51
11.9222412109375
  0
ARC
  5
279
330
1F
100
AcDbEntity
  8
0-1
  6
Continuous
 62
     2
370
     9
100
AcDbCircle
 10
-144.9999835040117
 20
878.0482784571655
 30
0.0
 40
229.9999701010215
100
AcDbArc
 50
8.58367919921875
 51
11.67665100097656
  0
ARC
  5
27A
330
1F
100
AcDbEntity
  8
0-1
  6
Continuous
 62
     2
370
     9
100
AcDbCircle
 10
-144.9999835040117
 20
878.0482784571655
 30
0.0
 40
231.2515825838656
100
AcDbArc
 50
0.0
 51
7.676528930664062
  0
ARC
  5
27B
330
1F
100
AcDbEntity
  8
0-1
  6
Continuous
 62
     2
370
     9
100
AcDbCircle
 10
-144.9999835040117
 20
878.0482784571655
 30
0.0
 40
234.9999711320207
100
AcDbArc
 50
169.4744110107422
 51
179.999984741211
  0
ARC
  5
27C
330
1F
100
AcDbEntity
  8
0-1
  6
Continuous
 62
     2
370
     9
100
AcDbCircle
 10
-144.9999835040117
 20
878.0482784571655
 30
0.0
 40
244.9999731940192
100
AcDbArc
 50
169.2914428710937
 51
179.9999847412109
  0
ARC
  5
27D
330
1F
100
AcDbEntity
  8
0-1
  6
Continuous
 62
     2
370
     9
100
AcDbCircle
 10
-144.9999835040117
 20
878.0482784571655
 30
0.0
 40
248.3333432996595
100
AcDbArc
 50
168.0777740478516
 51
180.000015258789
  0
ARC
  5
27E
330
1F
100
AcDbEntity
  8
0-1
  6
Continuous
 62
     2
370
     9
100
AcDbCircle
 10
-144.9999835040117
 20
878.0482784571655
 30
0.0
 40
229.9999701010215
100
AcDbArc
 50
168.3233489990234
 51
171.4163208007812
  0
ARC
  5
27F
330
1F
100
AcDbEntity
  8
0-1
  6
Continuous
 62
     2
370
     9
100
AcDbCircle
 10
-144.9999835040117
 20
878.0482784571655
 30
0.0
 40
231.2515825838656
100
AcDbArc
 50
172.3234710693359
 51
180.0
  0
ARC
  5
280
330
1F
100
AcDbEntity
  8
0-1
  6
Continuous
 62
     2
370
     9
100
AcDbCircle
 10
-144.9999835040117
 20
878.0482784571655
 30
0.0
 40
229.9999701010215
100
AcDbArc
 50
95.13783264160156
 51
101.6766510009766
  0
ARC
  5
281
330
1F
100
AcDbEntity
  8
0-1
  6
Continuous
 62
     2
370
     9
100
AcDbCircle
 10
-144.9999835040117
 20
878.0482784571655
 30
0.0
 40
229.9999701010215
100
AcDbArc
 50
78.32337951660156
 51
84.86216735839844
  0
ARC
  5
282
330
1F
100
AcDbEntity
  8
0-1
  6
Continuous
 62
     2
370
     9
100
AcDbCircle
 10
-144.9999835040117
 20
878.0482784571655
 30
0.0
 40
231.2515825838656
100
AcDbArc
 50
86.596435546875
 51
93.403564453125
  0
ARC
  5
283
330
1F
100
AcDbEntity
  8
0-1
  6
Continuous
 62
     2
370
     9
100
AcDbCircle
 10
75.83164524387684
 20
911.3816392838125
 30
0.0
 40
6.666666752583272
100
AcDbArc
 50
326.6130981445313
 51
8.583190917968803
  0
ARC
  5
284
330
1F
100
AcDbEntity
  8
0-1
  6
Continuous
 62
     2
370
     9
100
AcDbCircle
 10
77.57238439611513
 20
908.0483774330946
 30
0.0
 40
6.666666752583272
100
AcDbArc
 50
311.1853179931641
 51
7.676574707031284
  0
ARC
  5
285
330
1F
100
AcDbEntity
  8
0-1
  6
Continuous
 62
     2
370
     9
100
AcDbCircle
 10
-164.9999257680531
 20
1100.48430701502
 30
0.0
 40
6.666666752583272
100
AcDbArc
 50
53.16412353515626
 51
95.13787841796876
  0
ARC
  5
286
330
1F
100
AcDbEntity
  8
0-1
  6
Continuous
 62
     2
370
     9
100
AcDbCircle
 10
-158.333278346706
 20
1102.237170718568
 30
0.0
 40
6.666666752583272
100
AcDbArc
 50
36.91690063476562
 51
93.40336608886719
  0
ARC
  5
287
330
1F
100
AcDbEntity
  8
0-1
  6
Continuous
 62
     2
370
     9
100
AcDbCircle
 10
-131.6666886613174
 20
1102.237170718568
 30
0.0
 40
6.666666752583272
100
AcDbArc
 50
86.59663391113281
 51
143.0830993652344
  0
ARC
  5
288
330
1F
100
AcDbEntity
  8
0-1
  6
Continuous
 62
     2
370
     9
100
AcDbCircle
 10
-125.0000412399703
 20
1100.48430701502
 30
0.0
 40
6.666666752583272
100
AcDbArc
 50
84.86212158203125
 51
126.8358764648438
  0
ARC
  5
289
330
1F
100
AcDbEntity
  8
0-1
  6
Continuous
 62
     2
370
     9
100
AcDbCircle
 10
-367.5722276842271
 20
908.0483774330946
 30
0.0
 40
6.666666752583272
100
AcDbArc
 50
172.3234252929688
 51
228.8124694824219
  0
ARC
  5
28A
330
1F
100
AcDbEntity
  8
0-1
  6
Continuous
 62
     2
370
     9
100
AcDbCircle
 10
-365.8317359718114
 20
911.3816392838125
 30
0.0
 40
6.666666752583272
100
AcDbArc
 50
171.4168090820313
 51
213.388671875
  0
LINE
  5
28B
330
1F
100
AcDbEntity
  8
0-1
  6
Continuous
 62
     4
370
     9
100
AcDbLine
 10
-83.65148595861484
 20
998.1459182111771
 30
0.0
 11
-64.68151195629218
 21
1009.098099640653
 31
0.0
  0
LINE
  5
28C
330
1F
100
AcDbEntity
  8
0-1
  6
Continuous
 62
     4
370
     9
100
AcDbLine
 10
-81.98473131334453
 20
995.2592852403156
 30
0.0
 11
-63.01500475084453
 21
1006.211466669792
 31
0.0
  0
LINE
  5
28D
330
1F
100
AcDbEntity
  8
0-1
  6
JWW_CENTER1
 62
     4
370
     9
100
AcDbLine
 10
-55.82860998205234
 20
1032.497493907968
 30
0.0
 11
-90.8423346442143
 21
971.8519728986771
 31
0.0
  0
LINE
  5
28E
330
1F
100
AcDbEntity
  8
0-1
  6
JWW_CENTER1
 62
     4
370
     9
100
AcDbLine
 10
-100.7433917071367
 20
1018.00420117676
 30
0.0
 11
-45.92309900232266
 21
986.3534311440319
 31
0.0
  0
LINE
  5
28F
330
1F
100
AcDbEntity
  8
0-1
  6
Continuous
 62
     4
370
     9
100
AcDbLine
 10
-285.0001979518581
 20
878.0482784571655
 30
0.0
 11
-296.9849457611909
 21
884.9676856573342
 31
0.0
  0
LINE
  5
290
330
1F
100
AcDbEntity
  8
0-1
  6
Continuous
 62
     4
370
     9
100
AcDbLine
 10
-291.6667216532937
 20
878.0482784571655
 30
0.0
 11
-298.6515766865497
 21
882.0810526864727
 31
0.0
  0
LINE
  5
291
330
1F
100
AcDbEntity
  8
0-1
  6
JWW_CENTER1
 62
     4
370
     9
100
AcDbLine
 10
-288.333459802576
 20
858.0482124732125
 30
0.0
 11
-288.3333360826646
 21
909.6988010500706
 31
0.0
  0
LINE
  5
292
330
1F
100
AcDbEntity
  8
0-2
  6
JWW_CENTER1
 62
     6
370
     5
100
AcDbLine
 10
66.66672165329402
 20
873.3258894421738
 30
0.0
 11
66.66672165329402
 21
902.4129354725792
 31
0.0
  0
LINE
  5
293
330
1F
100
AcDbEntity
  8
0-2
  6
Continuous
 62
     6
370
     5
100
AcDbLine
 10
31.09922666807449
 20
911.3816392838123
 30
0.0
 11
43.1267815667232
 21
914.7149011345302
 31
0.0
  0
LINE
  5
294
330
1F
100
AcDbEntity
  8
0-2
  6
Continuous
 62
     6
370
     5
100
AcDbLine
 10
77.51720531566747
 20
911.3816392838123
 30
0.0
 11
80.37018647065054
 21
914.7149011345302
 31
0.0
  0
LINE
  5
295
330
1F
100
AcDbEntity
  8
0-2
  6
Continuous
 62
     6
370
     5
100
AcDbLine
 10
31.09922666807449
 20
911.3816392838123
 30
0.0
 11
77.51720531566747
 21
911.3816392838123
 31
0.0
  0
LINE
  5
296
330
1F
100
AcDbEntity
  8
0-2
  6
Continuous
 62
     6
370
     5
100
AcDbLine
 10
43.1267815667232
 20
914.7149011345302
 30
0.0
 11
80.37018647065054
 21
914.7149011345302
 31
0.0
  0
LINE
  5
297
330
1F
100
AcDbEntity
  8
0-2
  6
Continuous
 62
     6
370
     5
100
AcDbLine
 10
77.72208548880911
 20
894.7148351505774
 30
0.0
 11
79.38191181904557
 21
894.7148351505774
 31
0.0
  0
LINE
  5
298
330
1F
100
AcDbEntity
  8
0-2
  6
Continuous
 62
     6
370
     5
100
AcDbLine
 10
81.57398120777032
 20
891.3815732998597
 30
0.0
 11
82.94380806587839
 21
891.3815732998597
 31
0.0
  0
LINE
  5
299
330
1F
100
AcDbEntity
  8
0-2
  6
Continuous
 62
     6
370
     5
100
AcDbLine
 10
79.38191181904557
 20
894.7148351505774
 30
0.0
 11
82.94380806587839
 21
891.3815732998597
 31
0.0
  0
LINE
  5
29A
330
1F
100
AcDbEntity
  8
0-2
  6
JWW_CENTER1
 62
     6
370
     5
100
AcDbLine
 10
-356.6666886613174
 20
873.3258894421738
 30
0.0
 11
-356.6666886613174
 21
902.4129354725792
 31
0.0
  0
LINE
  5
29B
330
1F
100
AcDbEntity
  8
0-2
  6
Continuous
 62
     6
370
     5
100
AcDbLine
 10
-321.0991936760979
 20
911.3816392838123
 30
0.0
 11
-333.1267485747466
 21
914.7149011345302
 31
0.0
  0
LINE
  5
29C
330
1F
100
AcDbEntity
  8
0-2
  6
Continuous
 62
     6
370
     5
100
AcDbLine
 10
-367.5171723236909
 20
911.3816392838123
 30
0.0
 11
-370.370153478674
 21
914.7149011345302
 31
0.0
  0
LINE
  5
29D
330
1F
100
AcDbEntity
  8
0-2
  6
Continuous
 62
     6
370
     5
100
AcDbLine
 10
-321.0991936760979
 20
911.3816392838123
 30
0.0
 11
-367.5171723236909
 21
911.3816392838123
 31
0.0
  0
LINE
  5
29E
330
1F
100
AcDbEntity
  8
0-2
  6
Continuous
 62
     6
370
     5
100
AcDbLine
 10
-333.1267485747466
 20
914.7149011345302
 30
0.0
 11
-370.370153478674
 21
914.7149011345302
 31
0.0
  0
LINE
  5
29F
330
1F
100
AcDbEntity
  8
0-2
  6
Continuous
 62
     6
370
     5
100
AcDbLine
 10
-367.7220524968328
 20
894.7148351505774
 30
0.0
 11
-369.3818788270693
 21
894.7148351505774
 31
0.0
  0
LINE
  5
2A0
330
1F
100
AcDbEntity
  8
0-2
  6
Continuous
 62
     6
370
     5
100
AcDbLine
 10
-371.5739482157937
 20
891.3815732998597
 30
0.0
 11
-372.9437750739021
 21
891.3815732998597
 31
0.0
  0
LINE
  5
2A1
330
1F
100
AcDbEntity
  8
0-2
  6
Continuous
 62
     6
370
     5
100
AcDbLine
 10
-369.3818788270693
 20
894.7148351505774
 30
0.0
 11
-372.9437750739021
 21
891.3815732998597
 31
0.0
  0
LINE
  5
2A2
330
1F
100
AcDbEntity
  8
0-2
  6
Continuous
 62
     6
370
     5
100
AcDbLine
 10
-241.4030332823057
 20
894.7148351505774
 30
0.0
 11
-253.0930802628799
 21
890.6370268735507
 31
0.0
  0
LINE
  5
2A3
330
1F
100
AcDbEntity
  8
0-2
  6
Continuous
 62
     6
370
     5
100
AcDbLine
 10
-229.5622954497466
 20
927.2477281509998
 30
0.0
 11
-235.8965074693833
 21
937.8861558853748
 31
0.0
  0
LINE
  5
2A4
330
1F
100
AcDbEntity
  8
0-2
  6
Continuous
 62
     6
370
     5
100
AcDbLine
 10
-229.5622954497466
 20
927.2477281509998
 30
0.0
 11
-208.1362337679477
 21
916.01445508301
 31
0.0
  0
LINE
  5
2A5
330
1F
100
AcDbEntity
  8
0-2
  6
Continuous
 62
     6
370
     5
100
AcDbLine
 10
-241.4030332823057
 20
894.7148351505774
 30
0.0
 11
-217.7695609427786
 21
889.5475493344882
 31
0.0
  0
LINE
  5
2A6
330
1F
100
AcDbEntity
  8
0-2
  6
Continuous
 62
     6
370
     5
100
AcDbLine
 10
-208.135986328125
 20
952.7825280876552
 30
0.0
 11
-219.7119635504646
 21
957.1728528606704
 31
0.0
  0
LINE
  5
2A7
330
1F
100
AcDbEntity
  8
0-2
  6
Continuous
 62
     6
370
     5
100
AcDbLine
 10
-178.1537030194255
 20
970.0929231995639
 30
0.0
 11
-176.1675035631333
 21
982.3139760395134
 31
0.0
  0
LINE
  5
2A8
330
1F
100
AcDbEntity
  8
0-2
  6
Continuous
 62
     6
370
     5
100
AcDbLine
 10
-178.1537030194255
 20
970.0929231995639
 30
0.0
 11
-168.9610661687078
 21
947.715455399733
 31
0.0
  0
LINE
  5
2A9
330
1F
100
AcDbEntity
  8
0-2
  6
Continuous
 62
     6
370
     5
100
AcDbLine
 10
-208.135986328125
 20
952.7825280876552
 30
0.0
 11
-193.3531890044341
 21
933.6326653342769
 31
0.0
  0
LINE
  5
2AA
330
1F
100
AcDbEntity
  8
0-2
  6
Continuous
 62
     6
370
     5
100
AcDbLine
 10
-145.3266040698901
 20
975.8810355306451
 30
0.0
 11
-151.372548696157
 21
986.6852479461854
 31
0.0
  0
LINE
  5
2AB
330
1F
100
AcDbEntity
  8
0-2
  6
Continuous
 62
     6
370
     5
100
AcDbLine
 10
-111.2323657886401
 20
969.8692375999019
 30
0.0
 11
-101.8551388302365
 21
977.9545812443274
 31
0.0
  0
LINE
  5
2AC
330
1F
100
AcDbEntity
  8
0-2
  6
Continuous
 62
     6
370
     5
100
AcDbLine
 10
-111.2323657886401
 20
969.8692375999019
 30
0.0
 11
-118.5739053262245
 21
946.818238602858
 31
0.0
  0
LINE
  5
2AD
330
1F
100
AcDbEntity
  8
0-2
  6
Continuous
 62
     6
370
     5
100
AcDbLine
 10
-145.3266040698901
 20
975.8810355306451
 30
0.0
 11
-146.3116620038005
 21
951.7091341370639
 31
0.0
  0
LINE
  5
2AE
330
1F
100
AcDbEntity
  8
0-2
  6
Continuous
 62
     6
370
     5
100
AcDbLine
 10
-82.3645514410893
 20
953.2026809064896
 30
0.0
 11
-80.05098909945104
 21
965.3653379482972
 31
0.0
  0
LINE
  5
2AF
330
1F
100
AcDbEntity
  8
0-2
  6
Continuous
 62
     6
370
     5
100
AcDbLine
 10
-60.11080355257604
 20
926.6815858368104
 30
0.0
 11
-47.73064690667212
 21
926.8478653976215
 31
0.0
  0
LINE
  5
2B0
330
1F
100
AcDbEntity
  8
0-2
  6
Continuous
 62
     6
370
     5
100
AcDbLine
 10
-60.11080355257604
 20
926.6815858368104
 30
0.0
 11
-80.55205474028696
 21
913.7429575112194
 31
0.0
  0
LINE
  5
2B1
330
1F
100
AcDbEntity
  8
0-2
  6
Continuous
 62
     6
370
     5
100
AcDbLine
 10
-82.3645514410893
 20
953.2026809064896
 30
0.0
 11
-98.65648424303203
 21
935.3189677255352
 31
0.0
  0
LINE
  5
2B2
330
1F
100
AcDbEntity
  8
0-2
  6
Continuous
 62
     6
370
     5
100
AcDbLine
 10
-48.71026116448462
 20
895.358673569074
 30
0.0
 11
-39.11998851879218
 21
903.1886593165405
 31
0.0
  0
LINE
  5
2B3
330
1F
100
AcDbEntity
  8
0-2
  6
Continuous
 62
     6
370
     5
100
AcDbLine
 10
-48.71026116448462
 20
895.358673569074
 30
0.0
 11
-72.68594277871614
 21
892.1310685226215
 31
0.0
  0
LINE
  5
2B4
330
1F
100
AcDbEntity
  8
0-2
  6
Continuous
 62
     6
370
     5
100
AcDbLine
 10
-308.0083898595862
 20
954.0998977033646
 30
0.0
 11
-261.4743619351773
 21
932.389527665358
 31
0.0
  0
LINE
  5
2B5
330
1F
100
AcDbEntity
  8
0-2
  6
Continuous
 62
     6
370
     5
100
AcDbLine
 10
-318.7566808752112
 20
924.5689446311519
 30
0.0
 11
-269.1543991501266
 21
911.288849350324
 31
0.0
  0
LINE
  5
2B6
330
1F
100
AcDbEntity
  8
0-2
  6
Continuous
 62
     6
370
     5
100
AcDbLine
 10
-310.5302965318833
 20
960.7941346649354
 30
0.0
 11
-254.975602433488
 21
934.8748132439052
 31
0.0
  0
LINE
  5
2B7
330
1F
100
AcDbEntity
  8
0-2
  6
Continuous
 62
     6
370
     5
100
AcDbLine
 10
-324.9916695259711
 20
921.0622274647667
 30
0.0
 11
-265.7736288534628
 21
905.2075208294204
 31
0.0
  0
LINE
  5
2B8
330
1F
100
AcDbEntity
  8
0-2
  6
Continuous
 62
     6
370
     5
100
AcDbLine
 10
-292.3667289115286
 20
981.1918364438632
 30
0.0
 11
-250.2980000263935
 21
951.7474873095725
 31
0.0
  0
LINE
  5
2B9
330
1F
100
AcDbEntity
  8
0-2
  6
Continuous
 62
     6
370
     5
100
AcDbLine
 10
-272.1662366712414
 20
1005.265504227858
 30
0.0
 11
-235.8643402924409
 21
968.9490088995217
 31
0.0
  0
LINE
  5
2BA
330
1F
100
AcDbEntity
  8
0-2
  6
Continuous
 62
     6
370
     5
100
AcDbLine
 10
-272.2469020534206
 20
1012.418742060417
 30
0.0
 11
-228.9073222392312
 21
969.0618414586434
 31
0.0
  0
LINE
  5
2BB
330
1F
100
AcDbEntity
  8
0-2
  6
Continuous
 62
     6
370
     5
100
AcDbLine
 10
-299.4251972920185
 20
980.0291167173007
 30
0.0
 11
-249.2010992926521
 21
944.8768257544625
 31
0.0
  0
LINE
  5
2BC
330
1F
100
AcDbEntity
  8
0-2
  6
Continuous
 62
     6
370
     5
100
AcDbLine
 10
-215.2565621040961
 20
1043.636987283179
 30
0.0
 11
-195.2003272804052
 21
996.366578446608
 31
0.0
  0
LINE
  5
2BD
330
1F
100
AcDbEntity
  8
0-2
  6
Continuous
 62
     6
370
     5
100
AcDbLine
 10
-260.3477684227195
 20
1022.761974086388
 30
0.0
 11
-223.446325353674
 21
973.8087270160759
 31
0.0
  0
LINE
  5
2BE
330
1F
100
AcDbEntity
  8
0-2
  6
Continuous
 62
     6
370
     5
100
AcDbLine
 10
-212.6517630912161
 20
1050.299551947453
 30
0.0
 11
-188.707753774282
 21
993.8652092795894
 31
0.0
  0
LINE
  5
2BF
330
1F
100
AcDbEntity
  8
0-2
  6
Continuous
 62
     6
370
     5
100
AcDbLine
 10
-253.2756908519846
 20
1021.686600617216
 30
0.0
 11
-222.366003088049
 21
980.6821104092347
 31
0.0
  0
LINE
  5
2C0
330
1F
100
AcDbEntity
  8
0-2
  6
Continuous
 62
     6
370
     5
100
AcDbLine
 10
-160.6413970122466
 20
1057.243455690062
 30
0.0
 11
-156.1763454127956
 21
1006.088489077942
 31
0.0
  0
LINE
  5
2C1
330
1F
100
AcDbEntity
  8
0-2
  6
Continuous
 62
     6
370
     5
100
AcDbLine
 10
-191.5901802681586
 20
1051.786417841667
 30
0.0
 11
-178.2900423616977
 21
1002.189332352858
 31
0.0
  0
LINE
  5
2C2
330
1F
100
AcDbEntity
  8
0-2
  6
Continuous
 62
     6
370
     5
100
AcDbLine
 10
-156.1050827438766
 20
1062.774725485248
 30
0.0
 11
-150.7744866448479
 21
1001.703360541202
 31
0.0
  0
LINE
  5
2C3
330
1F
100
AcDbEntity
  8
0-2
  6
Continuous
 62
     6
370
     5
100
AcDbLine
 10
-197.7447509765625
 20
1055.432443628196
 30
0.0
 11
-181.8660426784206
 21
996.2210838308986
 31
0.0
  0
LINE
  5
2C4
330
1F
100
AcDbEntity
  8
0-2
  6
Continuous
 62
     6
370
     5
100
AcDbLine
 10
-129.3583225559544
 20
1057.243455690062
 30
0.0
 11
-133.8236215952278
 21
1006.088489077942
 31
0.0
  0
LINE
  5
2C5
330
1F
100
AcDbEntity
  8
0-2
  6
Continuous
 62
     6
370
     5
100
AcDbLine
 10
-98.40953930004218
 20
1051.786170401844
 30
0.0
 11
-111.709924646326
 21
1002.189332352858
 31
0.0
  0
LINE
  5
2C6
330
1F
100
AcDbEntity
  8
0-2
  6
Continuous
 62
     6
370
     5
100
AcDbLine
 10
-92.2552160314612
 20
1055.432443628196
 30
0.0
 11
-108.1336768897802
 21
996.2210838308986
 31
0.0
  0
LINE
  5
2C7
330
1F
100
AcDbEntity
  8
0-2
  6
Continuous
 62
     6
370
     5
100
AcDbLine
 10
-133.8948842641469
 20
1062.774725485248
 30
0.0
 11
-139.2254803631755
 21
1001.703360541202
 31
0.0
  0
LINE
  5
2C8
330
1F
100
AcDbEntity
  8
0-2
  6
Continuous
 62
     6
370
     5
100
AcDbLine
 10
-36.7242761560388
 20
1021.686600617216
 30
0.0
 11
-67.63346904032943
 21
980.6821104092347
 31
0.0
  0
LINE
  5
2C9
330
1F
100
AcDbEntity
  8
0-2
  6
Continuous
 62
     6
370
     5
100
AcDbLine
 10
-77.34795647698462
 20
1050.29930450763
 30
0.0
 11
-101.2922132337414
 21
993.8649618397667
 31
0.0
  0
LINE
  5
2CA
330
1F
100
AcDbEntity
  8
0-2
  6
Continuous
 62
     6
370
     5
100
AcDbLine
 10
-29.65195114548123
 20
1022.761974086388
 30
0.0
 11
-66.5533942145268
 21
973.8087270160759
 31
0.0
  0
LINE
  5
2CB
330
1F
100
AcDbEntity
  8
0-2
  6
Continuous
 62
     6
370
     5
100
AcDbLine
 10
-74.74340490392734
 20
1043.636739843356
 30
0.0
 11
-94.79939228779557
 21
996.3660835669625
 31
0.0
  0
LINE
  5
2CC
330
1F
100
AcDbEntity
  8
0-2
  6
Continuous
 62
     6
370
     5
100
AcDbLine
 10
2.366761903505221
 20
981.1918364438632
 30
0.0
 11
-39.70196698162994
 21
951.7474873095725
 31
0.0
  0
LINE
  5
2CD
330
1F
100
AcDbEntity
  8
0-2
  6
Continuous
 62
     6
370
     5
100
AcDbLine
 10
-17.83348289695937
 20
1005.265504227858
 30
0.0
 11
-54.13562671558282
 21
968.948761459699
 31
0.0
  0
LINE
  5
2CE
330
1F
100
AcDbEntity
  8
0-2
  6
Continuous
 62
     6
370
     5
100
AcDbLine
 10
9.425230283995063
 20
980.028869277478
 30
0.0
 11
-40.79886771537161
 21
944.8765783146399
 31
0.0
  0
LINE
  5
2CF
330
1F
100
AcDbEntity
  8
0-2
  6
Continuous
 62
     6
370
     5
100
AcDbLine
 10
-17.75306495460285
 20
1012.418742060417
 30
0.0
 11
-61.09264476879218
 21
969.0615940188206
 31
0.0
  0
LINE
  5
2D0
330
1F
100
AcDbEntity
  8
0-2
  6
Continuous
 62
     6
370
     5
100
AcDbLine
 10
18.0084228515625
 20
954.0998977033646
 30
0.0
 11
-28.52560507284608
 21
932.3892802255352
 31
0.0
  0
LINE
  5
2D1
330
1F
100
AcDbEntity
  8
0-2
  6
Continuous
 62
     6
370
     5
100
AcDbLine
 10
28.7567138671875
 20
924.5689446311519
 30
0.0
 11
-20.84556785789687
 21
911.2886019105014
 31
0.0
  0
LINE
  5
2D2
330
1F
100
AcDbEntity
  8
0-2
  6
Continuous
 62
     6
370
     5
100
AcDbLine
 10
34.99170251794766
 20
921.0622274647667
 30
0.0
 11
-24.22609071473801
 21
905.2075208294204
 31
0.0
  0
LINE
  5
2D3
330
1F
100
AcDbEntity
  8
0-2
  6
Continuous
 62
     6
370
     5
100
AcDbLine
 10
20.53057696368256
 20
960.7941346649354
 30
0.0
 11
-35.02436457453541
 21
934.8748132439052
 31
0.0
  0
LINE
  5
2D4
330
1F
100
AcDbEntity
  8
0-2
  6
Continuous
 62
     6
370
     5
100
AcDbLine
 10
-302.0104485589104
 20
897.352543659868
 30
0.0
 11
-272.5668417440878
 21
893.732499054716
 31
0.0
  0
LINE
  5
2D5
330
1F
100
AcDbEntity
  8
0-2
  6
Continuous
 62
     6
370
     5
100
AcDbLine
 10
-306.4940581450591
 20
902.9417143735507
 30
0.0
 11
-267.1540956239443
 21
898.1047607206788
 31
0.0
  0
LINE
  5
2D6
330
1F
100
AcDbEntity
  8
0-2
  6
Continuous
 62
     6
370
     5
100
AcDbLine
 10
16.4940911370357
 20
902.941466933728
 30
0.0
 11
-22.84587138407943
 21
898.1047607206788
 31
0.0
  0
LINE
  5
2D7
330
1F
100
AcDbEntity
  8
0-2
  6
Continuous
 62
     6
370
     5
100
AcDbLine
 10
12.01072899070965
 20
897.352543659868
 30
0.0
 11
-17.43337270375832
 21
893.732499054716
 31
0.0
  0
LINE
  5
2D8
330
1F
100
AcDbEntity
  8
0-2
  6
Continuous
 62
     6
370
     5
100
AcDbLine
 10
50.83329484269427
 20
878.0482784571655
 30
0.0
 11
50.83329484269427
 21
880.048334543525
 31
0.0
  0
LINE
  5
2D9
330
1F
100
AcDbEntity
  8
0-2
  6
Continuous
 62
     6
370
     5
100
AcDbLine
 10
50.83329484269427
 20
880.048334543525
 30
0.0
 11
82.50014846389377
 21
880.048334543525
 31
0.0
  0
LINE
  5
2DA
330
1F
100
AcDbEntity
  8
0-2
  6
Continuous
 62
     6
370
     5
100
AcDbLine
 10
82.50014846389377
 20
878.0482784571655
 30
0.0
 11
82.50014846389377
 21
880.048334543525
 31
0.0
  0
LINE
  5
2DB
330
1F
100
AcDbEntity
  8
0-2
  6
Continuous
 62
     6
370
     5
100
AcDbLine
 10
-340.8332618507177
 20
878.0482784571655
 30
0.0
 11
-340.8332618507177
 21
880.048334543525
 31
0.0
  0
LINE
  5
2DC
330
1F
100
AcDbEntity
  8
0-2
  6
Continuous
 62
     6
370
     5
100
AcDbLine
 10
-340.8332618507177
 20
880.048334543525
 30
0.0
 11
-372.5001154719172
 21
880.048334543525
 31
0.0
  0
LINE
  5
2DD
330
1F
100
AcDbEntity
  8
0-2
  6
Continuous
 62
     6
370
     5
100
AcDbLine
 10
-372.5001154719172
 20
878.0482784571655
 30
0.0
 11
-372.5001154719172
 21
880.048334543525
 31
0.0
  0
CIRCLE
  5
2DE
330
1F
100
AcDbEntity
  8
0-1
  6
Continuous
 62
     4
370
     9
100
AcDbCircle
 10
-73.33324535472968
 20
1002.178692440485
 30
0.0
 40
13.33333350516654
  0
CIRCLE
  5
2DF
330
1F
100
AcDbEntity
  8
0-1
  6
Continuous
 62
     4
370
     9
100
AcDbCircle
 10
-73.33324535472968
 20
1002.178692440485
 30
0.0
 40
11.07833321030075
  0
ARC
  5
2E0
330
1F
100
AcDbEntity
  8
0-1
  6
Continuous
 62
     4
370
     9
100
AcDbCircle
 10
-288.333459802576
 20
878.0482784571655
 30
0.0
 40
13.33333350516654
100
AcDbArc
 50
0.0
 51
180.0
  0
ARC
  5
2E1
330
1F
100
AcDbEntity
  8
0-1
  6
Continuous
 62
     4
370
     9
100
AcDbCircle
 10
-288.333459802576
 20
878.0482784571655
 30
0.0
 40
11.07833321030075
100
AcDbArc
 50
0.0
 51
180.0
  0
ARC
  5
2E2
330
1F
100
AcDbEntity
  8
0-2
  6
Continuous
 62
     6
370
     5
100
AcDbCircle
 10
66.66672165329402
 20
878.0482784571655
 30
0.0
 40
20.00000025774981
100
AcDbArc
 50
0.0
 51
180.0
  0
ARC
  5
2E3
330
1F
100
AcDbEntity
  8
0-2
  6
Continuous
 62
     6
370
     5
100
AcDbCircle
 10
-144.9999835040117
 20
878.0482784571655
 30
0.0
 40
117.0333372580039
100
AcDbArc
 50
0.0
 51
180.0
  0
ARC
  5
2E4
330
1F
100
AcDbEntity
  8
0-2
  6
Continuous
 62
     6
370
     5
100
AcDbCircle
 10
-144.9999835040117
 20
878.0482784571655
 30
0.0
 40
179.226354650549
100
AcDbArc
 50
0.0
 51
10.71855163574219
  0
ARC
  5
2E5
330
1F
100
AcDbEntity
  8
0-2
  6
Continuous
 62
     6
370
     5
100
AcDbCircle
 10
-144.9999835040117
 20
878.0482784571655
 30
0.0
 40
225.0
100
AcDbArc
 50
4.248031616210938
 51
8.519622802734375
  0
ARC
  5
2E6
330
1F
100
AcDbEntity
  8
0-2
  6
Continuous
 62
     6
370
     5
100
AcDbCircle
 10
-356.6666886613174
 20
878.0482784571655
 30
0.0
 40
20.00000025774981
100
AcDbArc
 50
0.0
 51
180.0
  0
ARC
  5
2E7
330
1F
100
AcDbEntity
  8
0-2
  6
Continuous
 62
     6
370
     5
100
AcDbCircle
 10
-144.9999835040117
 20
878.0482784571655
 30
0.0
 40
179.226354650549
100
AcDbArc
 50
169.2814483642578
 51
180.0
  0
ARC
  5
2E8
330
1F
100
AcDbEntity
  8
0-2
  6
Continuous
 62
     6
370
     5
100
AcDbCircle
 10
-144.9999835040117
 20
878.0482784571655
 30
0.0
 40
225.0
100
AcDbArc
 50
171.4803771972657
 51
175.7519683837891
  0
ARC
  5
2E9
330
1F
100
AcDbEntity
  8
0-2
  6
Continuous
 62
     6
370
     5
100
AcDbCircle
 10
-144.9999835040117
 20
878.0482784571655
 30
0.0
 40
228.3333546406514
100
AcDbArc
 50
3.347625732421875
 51
176.6523590087891
  0
ARC
  5
2EA
330
1F
100
AcDbEntity
  8
0-2
  6
Continuous
 62
     6
370
     5
100
AcDbCircle
 10
-144.9999835040117
 20
878.0482784571655
 30
0.0
 40
191.6666701033309
100
AcDbArc
 50
11.0289306640625
 51
168.9710693359375
  0
ARC
  5
2EB
330
1F
100
AcDbEntity
  8
0-2
  6
Continuous
 62
     6
370
     5
100
AcDbCircle
 10
-224.4388064822635
 20
944.7053499573764
 30
0.0
 40
13.33333350516654
100
AcDbArc
 50
140.0002288818359
 51
210.7597961425781
  0
ARC
  5
2EC
330
1F
100
AcDbEntity
  8
0-2
  6
Continuous
 62
     6
370
     5
100
AcDbCircle
 10
-248.7000336518159
 20
878.0482784571655
 30
0.0
 40
13.33333350516654
100
AcDbArc
 50
109.2370758056641
 51
180.0
  0
ARC
  5
2ED
330
1F
100
AcDbEntity
  8
0-2
  6
Continuous
 62
     6
370
     5
100
AcDbCircle
 10
-214.7344640783362
 20
903.4296657037871
 30
0.0
 40
14.20981465159236
100
AcDbArc
 50
257.6666870117188
 51
62.33323669433597
  0
ARC
  5
2EE
330
1F
100
AcDbEntity
  8
0-2
  6
Continuous
 62
     6
370
     5
100
AcDbCircle
 10
-221.9634184966216
 20
906.0606933378663
 30
0.0
 40
15.23615733997242
100
AcDbArc
 50
257.6666412353516
 51
62.33337402343751
  0
ARC
  5
2EF
330
1F
100
AcDbEntity
  8
0-2
  6
Continuous
 62
     6
370
     5
100
AcDbCircle
 10
-144.9999835040117
 20
878.0482784571655
 30
0.0
 40
97.83333701056404
100
AcDbArc
 50
149.8086700439453
 51
170.1913604736328
  0
ARC
  5
2F0
330
1F
100
AcDbEntity
  8
0-2
  6
Continuous
 62
     6
370
     5
100
AcDbCircle
 10
-144.9999835040117
 20
878.0482784571655
 30
0.0
 40
81.63077637955948
100
AcDbArc
 50
149.2942047119141
 51
170.7057495117188
  0
ARC
  5
2F1
330
1F
100
AcDbEntity
  8
0-2
  6
Continuous
 62
     6
370
     5
100
AcDbCircle
 10
-144.9999835040117
 20
878.0482784571655
 30
0.0
 40
79.06679720491977
100
AcDbArc
 50
149.3260803222656
 51
170.6738891601562
  0
ARC
  5
2F2
330
1F
100
AcDbEntity
  8
0-2
  6
Continuous
 62
     6
370
     5
100
AcDbCircle
 10
-163.0071691564612
 20
980.1728792542514
 30
0.0
 40
13.33333350516654
100
AcDbArc
 50
100.0002288818359
 51
170.7597961425781
  0
ARC
  5
2F3
330
1F
100
AcDbEntity
  8
0-2
  6
Continuous
 62
     6
370
     5
100
AcDbCircle
 10
-224.4388064822635
 20
944.7053499573764
 30
0.0
 40
13.33333350516654
100
AcDbArc
 50
69.23707580566406
 51
140.0
  0
ARC
  5
2F4
330
1F
100
AcDbEntity
  8
0-2
  6
Continuous
 62
     6
370
     5
100
AcDbCircle
 10
-182.1048221072635
 20
942.3158235901889
 30
0.0
 40
14.20981465159236
100
AcDbArc
 50
217.6666870117188
 51
22.33323669433596
  0
ARC
  5
2F5
330
1F
100
AcDbEntity
  8
0-2
  6
Continuous
 62
     6
370
     5
100
AcDbCircle
 10
-185.9512741501266
 20
948.9781408146399
 30
0.0
 40
15.23615733997242
100
AcDbArc
 50
217.6666412353516
 51
22.3333740234375
  0
ARC
  5
2F6
330
1F
100
AcDbEntity
  8
0-2
  6
Continuous
 62
     6
370
     5
100
AcDbCircle
 10
-144.9999835040117
 20
878.0482784571655
 30
0.0
 40
97.83333701056404
100
AcDbArc
 50
109.8086700439453
 51
130.1913604736328
  0
ARC
  5
2F7
330
1F
100
AcDbEntity
  8
0-2
  6
Continuous
 62
     6
370
     5
100
AcDbCircle
 10
-144.9999835040117
 20
878.0482784571655
 30
0.0
 40
81.63077637955948
100
AcDbArc
 50
109.2942047119141
 51
130.7057495117188
  0
ARC
  5
2F8
330
1F
100
AcDbEntity
  8
0-2
  6
Continuous
 62
     6
370
     5
100
AcDbCircle
 10
-144.9999835040117
 20
878.0482784571655
 30
0.0
 40
79.06679720491977
100
AcDbArc
 50
109.3260803222656
 51
130.6738891601562
  0
ARC
  5
2F9
330
1F
100
AcDbEntity
  8
0-2
  6
Continuous
 62
     6
370
     5
100
AcDbCircle
 10
-93.14995843010962
 20
967.8550774436519
 30
0.0
 40
13.33333350516654
100
AcDbArc
 50
60.00022888183594
 51
130.7597961425781
  0
ARC
  5
2FA
330
1F
100
AcDbEntity
  8
0-2
  6
Continuous
 62
     6
370
     5
100
AcDbCircle
 10
-163.0071691564612
 20
980.1728792542514
 30
0.0
 40
13.33333350516654
100
AcDbArc
 50
29.23707580566406
 51
100.0
  0
ARC
  5
2FB
330
1F
100
AcDbEntity
  8
0-2
  6
Continuous
 62
     6
370
     5
100
AcDbCircle
 10
-132.1135649809966
 20
951.130619831743
 30
0.0
 40
14.20981465159236
100
AcDbArc
 50
177.6666870117188
 51
342.3332366943359
  0
ARC
  5
2FC
330
1F
100
AcDbEntity
  8
0-2
  6
Continuous
 62
     6
370
     5
100
AcDbCircle
 10
-130.7776373785893
 20
958.7067323211854
 30
0.0
 40
15.23615733997242
100
AcDbArc
 50
177.6666412353516
 51
342.3333740234375
  0
ARC
  5
2FD
330
1F
100
AcDbEntity
  8
0-2
  6
Continuous
 62
     6
370
     5
100
AcDbCircle
 10
-144.9999835040117
 20
878.0482784571655
 30
0.0
 40
97.83333701056404
100
AcDbArc
 50
69.80867004394531
 51
90.19136047363281
  0
ARC
  5
2FE
330
1F
100
AcDbEntity
  8
0-2
  6
Continuous
 62
     6
370
     5
100
AcDbCircle
 10
-144.9999835040117
 20
878.0482784571655
 30
0.0
 40
81.63077637955948
100
AcDbArc
 50
69.29420471191406
 51
90.70574951171875
  0
ARC
  5
2FF
330
1F
100
AcDbEntity
  8
0-2
  6
Continuous
 62
     6
370
     5
100
AcDbCircle
 10
-144.9999835040117
 20
878.0482784571655
 30
0.0
 40
79.06679720491977
100
AcDbArc
 50
69.32608032226561
 51
90.67388916015624
  0
ARC
  5
300
330
1F
100
AcDbEntity
  8
0-2
  6
Continuous
 62
     6
370
     5
100
AcDbCircle
 10
-47.55372743348801
 20
913.5158077540405
 30
0.0
 40
13.33333350516654
100
AcDbArc
 50
20.00022888183599
 51
90.75979614257818
  0
ARC
  5
301
330
1F
100
AcDbEntity
  8
0-2
  6
Continuous
 62
     6
370
     5
100
AcDbCircle
 10
-93.14995843010962
 20
967.8550774436519
 30
0.0
 40
13.33333350516654
100
AcDbArc
 50
349.2370758056641
 51
59.99999999999999
  0
ARC
  5
302
330
1F
100
AcDbEntity
  8
0-2
  6
Continuous
 62
     6
370
     5
100
AcDbCircle
 10
-88.15216889252525
 20
925.7492325851215
 30
0.0
 40
14.20981465159236
100
AcDbArc
 50
137.6666870117187
 51
302.3332366943359
  0
ARC
  5
303
330
1F
100
AcDbEntity
  8
0-2
  6
Continuous
 62
     6
370
     5
100
AcDbCircle
 10
-82.25864719700155
 20
930.6943174404847
 30
0.0
 40
15.23615733997242
100
AcDbArc
 50
137.6666412353515
 51
302.3333740234375
  0
ARC
  5
304
330
1F
100
AcDbEntity
  8
0-2
  6
Continuous
 62
     6
370
     5
100
AcDbCircle
 10
-144.9999835040117
 20
878.0482784571655
 30
0.0
 40
97.83333701056404
100
AcDbArc
 50
29.8086700439453
 51
50.1913604736328
  0
ARC
  5
305
330
1F
100
AcDbEntity
  8
0-2
  6
Continuous
 62
     6
370
     5
100
AcDbCircle
 10
-144.9999835040117
 20
878.0482784571655
 30
0.0
 40
81.63077637955948
100
AcDbArc
 50
29.29420471191406
 51
50.70574951171874
  0
ARC
  5
306
330
1F
100
AcDbEntity
  8
0-2
  6
Continuous
 62
     6
370
     5
100
AcDbCircle
 10
-144.9999835040117
 20
878.0482784571655
 30
0.0
 40
79.06679720491977
100
AcDbArc
 50
29.32608032226561
 51
50.67388916015624
  0
ARC
  5
307
330
1F
100
AcDbEntity
  8
0-2
  6
Continuous
 62
     6
370
     5
100
AcDbCircle
 10
-47.55372743348801
 20
913.5158077540405
 30
0.0
 40
13.33333350516654
100
AcDbArc
 50
309.2370758056641
 51
20.00000000000004
  0
ARC
  5
308
330
1F
100
AcDbEntity
  8
0-2
  6
Continuous
 62
     6
370
     5
100
AcDbCircle
 10
-70.79030629750832
 20
878.0482784571655
 30
0.0
 40
14.20981465159236
100
AcDbArc
 50
97.66668701171875
 51
180.0
  0
ARC
  5
309
330
1F
100
AcDbEntity
  8
0-2
  6
Continuous
 62
     6
370
     5
100
AcDbCircle
 10
-63.09715477195937
 20
878.0482784571655
 30
0.0
 40
15.23615733997242
100
AcDbArc
 50
97.66664123535156
 51
180.0000000000001
  0
ARC
  5
30A
330
1F
100
AcDbEntity
  8
0-2
  6
Continuous
 62
     6
370
     5
100
AcDbCircle
 10
-144.9999835040117
 20
878.0482784571655
 30
0.0
 40
79.06679720491977
100
AcDbArc
 50
0.0000000000000254
 51
10.67388916015627
  0
ARC
  5
30B
330
1F
100
AcDbEntity
  8
0-2
  6
Continuous
 62
     6
370
     5
100
AcDbCircle
 10
-144.9999835040117
 20
878.0482784571655
 30
0.0
 40
81.63077637955948
100
AcDbArc
 50
0.0000000000000254
 51
10.70574951171877
  0
ARC
  5
30C
330
1F
100
AcDbEntity
  8
0-2
  6
Continuous
 62
     6
370
     5
100
AcDbCircle
 10
-144.9999835040117
 20
878.0482784571655
 30
0.0
 40
97.83333701056404
100
AcDbArc
 50
0.0000000000000254
 51
10.19136047363284
  0
ARC
  5
30D
330
1F
100
AcDbEntity
  8
0-2
  6
Continuous
 62
     6
370
     5
100
AcDbCircle
 10
-144.9999835040117
 20
878.0482784571655
 30
0.0
 40
186.6666690723316
100
AcDbArc
 50
157.1110687255859
 51
162.8889312744141
  0
ARC
  5
30E
330
1F
100
AcDbEntity
  8
0-2
  6
Continuous
 62
     6
370
     5
100
AcDbCircle
 10
-323.2675088418495
 20
927.5020962886688
 30
0.0
 40
6.666666752583272
100
AcDbArc
 50
164.4946746826172
 51
255.0115966796875
  0
ARC
  5
30F
330
1F
100
AcDbEntity
  8
0-2
  6
Continuous
 62
     6
370
     5
100
AcDbCircle
 10
-313.3491309913427
 20
954.7526439554761
 30
0.0
 40
6.666666752583272
100
AcDbArc
 50
64.98817443847658
 51
155.50439453125
  0
ARC
  5
310
330
1F
100
AcDbEntity
  8
0-2
  6
Continuous
 62
     6
370
     5
100
AcDbCircle
 10
-310.8267294394003
 20
948.0584069939052
 30
0.0
 40
6.666666752583272
100
AcDbArc
 50
64.98869323730469
 51
157.1107940673828
  0
ARC
  5
311
330
1F
100
AcDbEntity
  8
0-2
  6
Continuous
 62
     6
370
     5
100
AcDbCircle
 10
-317.0325201910896
 20
931.008813455054
 30
0.0
 40
6.666666752583272
100
AcDbArc
 50
162.8892974853516
 51
255.0113220214844
  0
ARC
  5
312
330
1F
100
AcDbEntity
  8
0-2
  6
Continuous
 62
     6
370
     5
100
AcDbCircle
 10
-257.7944368929477
 20
928.8333225344456
 30
0.0
 40
6.666666752583272
100
AcDbArc
 50
335.7603759765626
 51
64.98817443847662
  0
ARC
  5
313
330
1F
100
AcDbEntity
  8
0-2
  6
Continuous
 62
     6
370
     5
100
AcDbCircle
 10
-264.0494681693411
 20
911.6473896533225
 30
0.0
 40
6.666666752583272
100
AcDbArc
 50
255.0115966796875
 51
344.2395172119141
  0
ARC
  5
314
330
1F
100
AcDbEntity
  8
0-2
  6
Continuous
 62
     6
370
     5
100
AcDbCircle
 10
-144.9999835040117
 20
878.0482784571655
 30
0.0
 40
122.0333460214976
100
AcDbArc
 50
157.957763671875
 51
162.0422210693359
  0
ARC
  5
315
330
1F
100
AcDbEntity
  8
0-2
  6
Continuous
 62
     6
370
     5
100
AcDbCircle
 10
-267.4302384660049
 20
917.7287181742261
 30
0.0
 40
6.666666752583272
100
AcDbArc
 50
255.0113220214844
 51
342.0418548583985
  0
ARC
  5
316
330
1F
100
AcDbEntity
  8
0-2
  6
Continuous
 62
     6
370
     5
100
AcDbCircle
 10
-264.2929489548141
 20
926.3480369558986
 30
0.0
 40
6.666666752583272
100
AcDbArc
 50
337.9580993652344
 51
64.98869323730469
  0
ARC
  5
317
330
1F
100
AcDbEntity
  8
0-2
  6
Continuous
 62
     6
370
     5
100
AcDbCircle
 10
-144.9999835040117
 20
878.0482784571655
 30
0.0
 40
122.0333460214976
100
AcDbArc
 50
137.9577484130859
 51
142.0421295166016
  0
ARC
  5
318
330
1F
100
AcDbEntity
  8
0-2
  6
Continuous
 62
     6
370
     5
100
AcDbCircle
 10
-245.3784014727617
 20
950.3383175196655
 30
0.0
 40
6.666666752583272
100
AcDbArc
 50
235.0116424560547
 51
324.2398376464844
  0
ARC
  5
319
330
1F
100
AcDbEntity
  8
0-2
  6
Continuous
 62
     6
370
     5
100
AcDbCircle
 10
-233.6225354993664
 20
964.3488551569121
 30
0.0
 40
6.666666752583272
100
AcDbArc
 50
315.7601470947266
 51
44.98872375488278
  0
ARC
  5
31A
330
1F
100
AcDbEntity
  8
0-2
  6
Continuous
 62
     6
370
     5
100
AcDbCircle
 10
-240.5790586729307
 20
964.2360225977905
 30
0.0
 40
6.666666752583272
100
AcDbArc
 50
317.9576263427734
 51
44.98872375488285
  0
ARC
  5
31B
330
1F
100
AcDbEntity
  8
0-2
  6
Continuous
 62
     6
370
     5
100
AcDbCircle
 10
-246.4750547666807
 20
957.2092265145977
 30
0.0
 40
6.666666752583272
100
AcDbArc
 50
235.0116424560547
 51
322.04248046875
  0
ARC
  5
31C
330
1F
100
AcDbEntity
  8
0-2
  6
Continuous
 62
     6
370
     5
100
AcDbCircle
 10
-144.9999835040117
 20
878.0482784571655
 30
0.0
 40
186.6666690723316
100
AcDbArc
 50
137.1110687255859
 51
142.8889007568359
  0
ARC
  5
31D
330
1F
100
AcDbEntity
  8
0-2
  6
Continuous
 62
     6
370
     5
100
AcDbCircle
 10
-295.6022520323057
 20
985.4908559223259
 30
0.0
 40
6.666666752583272
100
AcDbArc
 50
144.4950714111328
 51
235.0113830566406
  0
ARC
  5
31E
330
1F
100
AcDbEntity
  8
0-2
  6
Continuous
 62
     6
370
     5
100
AcDbCircle
 10
-288.5440310916385
 20
986.6535756488884
 30
0.0
 40
6.666666752583272
100
AcDbArc
 50
142.8893737792969
 51
235.0116424560547
  0
ARC
  5
31F
330
1F
100
AcDbEntity
  8
0-2
  6
Continuous
 62
     6
370
     5
100
AcDbCircle
 10
-276.8814499313766
 20
1000.552517926126
 30
0.0
 40
6.666666752583272
100
AcDbArc
 50
44.98872375488282
 51
137.1116943359375
  0
ARC
  5
320
330
1F
100
AcDbEntity
  8
0-2
  6
Continuous
 62
     6
370
     5
100
AcDbCircle
 10
-276.9621153135557
 20
1007.705755758685
 30
0.0
 40
6.666666752583272
100
AcDbArc
 50
44.98872375488282
 51
135.5052642822266
  0
ARC
  5
321
330
1F
100
AcDbEntity
  8
0-2
  6
Continuous
 62
     6
370
     5
100
AcDbCircle
 10
-144.9999835040117
 20
878.0482784571655
 30
0.0
 40
186.6666690723316
100
AcDbArc
 50
115.1132354736328
 51
124.8867340087891
  0
ARC
  5
322
330
1F
100
AcDbEntity
  8
0-2
  6
Continuous
 62
     6
370
     5
100
AcDbCircle
 10
-144.9999835040117
 20
878.0482784571655
 30
0.0
 40
122.0333460214976
100
AcDbArc
 50
115.9599151611328
 51
124.0400085449219
  0
ARC
  5
323
330
1F
100
AcDbEntity
  8
0-2
  6
Continuous
 62
     6
370
     5
100
AcDbCircle
 10
-194.8447562552786
 20
991.2614000259998
 30
0.0
 40
6.666666752583272
100
AcDbArc
 50
293.7626495361328
 51
22.99111938476566
  0
ARC
  5
324
330
1F
100
AcDbEntity
  8
0-2
  6
Continuous
 62
     6
370
     5
100
AcDbCircle
 10
-218.1229050095016
 20
977.8217060595725
 30
0.0
 40
6.666666752583272
100
AcDbArc
 50
217.0096130371094
 51
306.2374267578126
  0
ARC
  5
325
330
1F
100
AcDbEntity
  8
0-2
  6
Continuous
 62
     6
370
     5
100
AcDbCircle
 10
-217.0425827438766
 20
984.6950894527313
 30
0.0
 40
6.666666752583272
100
AcDbArc
 50
217.0096130371094
 51
304.0401306152344
  0
ARC
  5
326
330
1F
100
AcDbEntity
  8
0-2
  6
Continuous
 62
     6
370
     5
100
AcDbCircle
 10
-201.3375772012245
 20
993.7625217531956
 30
0.0
 40
6.666666752583272
100
AcDbArc
 50
295.9601745605469
 51
22.99111938476565
  0
ARC
  5
327
330
1F
100
AcDbEntity
  8
0-2
  6
Continuous
 62
     6
370
     5
100
AcDbCircle
 10
-218.7890130120354
 20
1047.69549525404
 30
0.0
 40
6.666666752583272
100
AcDbArc
 50
22.99111938476562
 51
113.5064544677734
  0
ARC
  5
328
330
1F
100
AcDbEntity
  8
0-2
  6
Continuous
 62
     6
370
     5
100
AcDbCircle
 10
-255.0241006387245
 20
1026.774953129885
 30
0.0
 40
6.666666752583272
100
AcDbArc
 50
126.4930725097656
 51
217.0096130371094
  0
ARC
  5
329
330
1F
100
AcDbEntity
  8
0-2
  6
Continuous
 62
     6
370
     5
100
AcDbCircle
 10
-247.9520230679898
 20
1025.699579660713
 30
0.0
 40
6.666666752583272
100
AcDbArc
 50
124.8868713378906
 51
217.0096130371094
  0
ARC
  5
32A
330
1F
100
AcDbEntity
  8
0-2
  6
Continuous
 62
     6
370
     5
100
AcDbCircle
 10
-221.3935645850927
 20
1041.032930589767
 30
0.0
 40
6.666666752583272
100
AcDbArc
 50
22.99111938476562
 51
115.1131134033203
  0
ARC
  5
32B
330
1F
100
AcDbEntity
  8
0-2
  6
Continuous
 62
     6
370
     5
100
AcDbCircle
 10
-144.9999835040117
 20
878.0482784571655
 30
0.0
 40
186.6666690723316
100
AcDbArc
 50
97.11106872558597
 51
102.8889312744141
  0
ARC
  5
32C
330
1F
100
AcDbEntity
  8
0-2
  6
Continuous
 62
     6
370
     5
100
AcDbCircle
 10
-191.3053770323057
 20
1057.159326150366
 30
0.0
 40
6.666666752583272
100
AcDbArc
 50
104.4946746826172
 51
195.0115966796875
  0
ARC
  5
32D
330
1F
100
AcDbEntity
  8
0-2
  6
Continuous
 62
     6
370
     5
100
AcDbCircle
 10
-162.7466150232263
 20
1062.194973980814
 30
0.0
 40
6.666666752583272
100
AcDbArc
 50
4.988174438476587
 51
95.50439453125003
  0
ARC
  5
32E
330
1F
100
AcDbEntity
  8
0-2
  6
Continuous
 62
     6
370
     5
100
AcDbCircle
 10
-167.2829292915961
 20
1056.663704185628
 30
0.0
 40
6.666666752583272
100
AcDbArc
 50
4.988693237304701
 51
97.11079406738283
  0
ARC
  5
32F
330
1F
100
AcDbEntity
  8
0-2
  6
Continuous
 62
     6
370
     5
100
AcDbCircle
 10
-185.1510537637245
 20
1053.513052924015
 30
0.0
 40
6.666666752583272
100
AcDbArc
 50
102.8892974853516
 51
195.0113220214844
  0
ARC
  5
330
330
1F
100
AcDbEntity
  8
0-2
  6
Continuous
 62
     6
370
     5
100
AcDbCircle
 10
-157.4160189241977
 20
1001.123609036768
 30
0.0
 40
6.666666752583272
100
AcDbArc
 50
275.7603759765626
 51
4.988174438476638
  0
ARC
  5
331
330
1F
100
AcDbEntity
  8
0-2
  6
Continuous
 62
     6
370
     5
100
AcDbCircle
 10
-175.4271636138091
 20
997.9477189132465
 30
0.0
 40
6.666666752583272
100
AcDbArc
 50
195.0115966796875
 51
284.2395172119141
  0
ARC
  5
332
330
1F
100
AcDbEntity
  8
0-2
  6
Continuous
 62
     6
370
     5
100
AcDbCircle
 10
-144.9999835040117
 20
878.0482784571655
 30
0.0
 40
122.0333460214976
100
AcDbArc
 50
97.95776367187503
 51
102.042221069336
  0
ARC
  5
333
330
1F
100
AcDbEntity
  8
0-2
  6
Continuous
 62
     6
370
     5
100
AcDbCircle
 10
-171.8509158572635
 20
1003.915967435206
 30
0.0
 40
6.666666752583272
100
AcDbArc
 50
195.0113220214844
 51
282.0418548583985
  0
ARC
  5
334
330
1F
100
AcDbEntity
  8
0-2
  6
Continuous
 62
     6
370
     5
100
AcDbCircle
 10
-162.8176302523227
 20
1005.508985013331
 30
0.0
 40
6.666666752583272
100
AcDbArc
 50
277.9580993652344
 51
4.988693237304701
  0
ARC
  5
335
330
1F
100
AcDbEntity
  8
0-2
  6
Continuous
 62
     6
370
     5
100
AcDbCircle
 10
-144.9999835040117
 20
878.0482784571655
 30
0.0
 40
122.0333460214976
100
AcDbArc
 50
77.95774841308595
 51
82.04212951660158
  0
ARC
  5
336
330
1F
100
AcDbEntity
  8
0-2
  6
Continuous
 62
     6
370
     5
100
AcDbCircle
 10
-132.583948083826
 20
1001.123609036768
 30
0.0
 40
6.666666752583272
100
AcDbArc
 50
175.0116424560547
 51
264.2398376464844
  0
ARC
  5
337
330
1F
100
AcDbEntity
  8
0-2
  6
Continuous
 62
     6
370
     5
100
AcDbCircle
 10
-114.5728033942143
 20
997.9477189132465
 30
0.0
 40
6.666666752583272
100
AcDbArc
 50
255.7601470947266
 51
344.9887237548828
  0
ARC
  5
338
330
1F
100
AcDbEntity
  8
0-2
  6
Continuous
 62
     6
370
     5
100
AcDbCircle
 10
-118.1488037109375
 20
1003.915967435206
 30
0.0
 40
6.666666752583272
100
AcDbArc
 50
257.9576263427735
 51
344.9887237548829
  0
ARC
  5
339
330
1F
100
AcDbEntity
  8
0-2
  6
Continuous
 62
     6
370
     5
100
AcDbCircle
 10
-127.182336755701
 20
1005.508985013331
 30
0.0
 40
6.666666752583272
100
AcDbArc
 50
175.0116424560547
 51
262.04248046875
  0
ARC
  5
33A
330
1F
100
AcDbEntity
  8
0-2
  6
Continuous
 62
     6
370
     5
100
AcDbCircle
 10
-144.9999835040117
 20
878.0482784571655
 30
0.0
 40
186.6666690723316
100
AcDbArc
 50
77.11106872558595
 51
82.88890075683597
  0
ARC
  5
33B
330
1F
100
AcDbEntity
  8
0-2
  6
Continuous
 62
     6
370
     5
100
AcDbCircle
 10
-127.2531045449745
 20
1062.194973980814
 30
0.0
 40
6.666666752583272
100
AcDbArc
 50
84.49507141113284
 51
175.0113830566407
  0
ARC
  5
33C
330
1F
100
AcDbEntity
  8
0-2
  6
Continuous
 62
     6
370
     5
100
AcDbCircle
 10
-122.7170377164273
 20
1056.663704185628
 30
0.0
 40
6.666666752583272
100
AcDbArc
 50
82.88937377929689
 51
175.0116424560547
  0
ARC
  5
33D
330
1F
100
AcDbEntity
  8
0-2
  6
Continuous
 62
     6
370
     5
100
AcDbCircle
 10
-104.848913244299
 20
1053.513052924015
 30
0.0
 40
6.666666752583272
100
AcDbArc
 50
344.9887237548828
 51
77.11169433593753
  0
ARC
  5
33E
330
1F
100
AcDbEntity
  8
0-2
  6
Continuous
 62
     6
370
     5
100
AcDbCircle
 10
-98.69458997571769
 20
1057.159573590189
 30
0.0
 40
6.666666752583272
100
AcDbArc
 50
344.9887237548828
 51
75.50526428222658
  0
ARC
  5
33F
330
1F
100
AcDbEntity
  8
0-2
  6
Continuous
 62
     6
370
     5
100
AcDbCircle
 10
-144.9999835040117
 20
878.0482784571655
 30
0.0
 40
186.6666690723316
100
AcDbArc
 50
55.11323547363283
 51
64.88673400878909
  0
ARC
  5
340
330
1F
100
AcDbEntity
  8
0-2
  6
Continuous
 62
     6
370
     5
100
AcDbCircle
 10
-144.9999835040117
 20
878.0482784571655
 30
0.0
 40
122.0333460214976
100
AcDbArc
 50
55.95991516113286
 51
64.04000854492192
  0
ARC
  5
341
330
1F
100
AcDbEntity
  8
0-2
  6
Continuous
 62
     6
370
     5
100
AcDbCircle
 10
-71.87706199852187
 20
977.8214586197498
 30
0.0
 40
6.666666752583272
100
AcDbArc
 50
233.7626495361328
 51
322.9911193847657
  0
ARC
  5
342
330
1F
100
AcDbEntity
  8
0-2
  6
Continuous
 62
     6
370
     5
100
AcDbCircle
 10
-95.15521075274478
 20
991.2611525861771
 30
0.0
 40
6.666666752583272
100
AcDbArc
 50
157.0096130371094
 51
246.2374267578126
  0
ARC
  5
343
330
1F
100
AcDbEntity
  8
0-2
  6
Continuous
 62
     6
370
     5
100
AcDbCircle
 10
-88.66238980679896
 20
993.7625217531956
 30
0.0
 40
6.666666752583272
100
AcDbArc
 50
157.0096130371094
 51
244.0401306152344
  0
ARC
  5
344
330
1F
100
AcDbEntity
  8
0-2
  6
Continuous
 62
     6
370
     5
100
AcDbCircle
 10
-72.95738426414687
 20
984.6950894527313
 30
0.0
 40
6.666666752583272
100
AcDbArc
 50
235.9601745605469
 51
322.9911193847657
  0
ARC
  5
345
330
1F
100
AcDbEntity
  8
0-2
  6
Continuous
 62
     6
370
     5
100
AcDbCircle
 10
-34.9756189294763
 20
1026.774953129885
 30
0.0
 40
6.666666752583272
100
AcDbArc
 50
322.9911193847656
 51
53.50645446777346
  0
ARC
  5
346
330
1F
100
AcDbEntity
  8
0-2
  6
Continuous
 62
     6
370
     5
100
AcDbCircle
 10
-71.210953995988
 20
1047.69549525404
 30
0.0
 40
6.666666752583272
100
AcDbArc
 50
66.49307250976564
 51
157.0096130371094
  0
ARC
  5
347
330
1F
100
AcDbEntity
  8
0-2
  6
Continuous
 62
     6
370
     5
100
AcDbCircle
 10
-68.60640242293073
 20
1041.032930589767
 30
0.0
 40
6.666666752583272
100
AcDbArc
 50
64.88687133789065
 51
157.0096130371094
  0
ARC
  5
348
330
1F
100
AcDbEntity
  8
0-2
  6
Continuous
 62
     6
370
     5
100
AcDbCircle
 10
-42.04769650021092
 20
1025.699579660713
 30
0.0
 40
6.666666752583272
100
AcDbArc
 50
322.9911193847656
 51
55.11311340332034
  0
ARC
  5
349
330
1F
100
AcDbEntity
  8
0-2
  6
Continuous
 62
     6
370
     5
100
AcDbCircle
 10
-144.9999835040117
 20
878.0482784571655
 30
0.0
 40
186.6666690723316
100
AcDbArc
 50
37.11106872558592
 51
42.88893127441405
  0
ARC
  5
34A
330
1F
100
AcDbEntity
  8
0-2
  6
Continuous
 62
     6
370
     5
100
AcDbCircle
 10
-13.03785169446769
 20
1007.705508318863
 30
0.0
 40
6.666666752583272
100
AcDbArc
 50
44.49467468261717
 51
135.0115966796875
  0
ARC
  5
34B
330
1F
100
AcDbEntity
  8
0-2
  6
Continuous
 62
     6
370
     5
100
AcDbCircle
 10
5.602532464104684
 20
985.4906084825031
 30
0.0
 40
6.666666752583272
100
AcDbArc
 50
304.9881744384766
 51
35.50439453124999
  0
ARC
  5
34C
330
1F
100
AcDbEntity
  8
0-2
  6
Continuous
 62
     6
370
     5
100
AcDbCircle
 10
-1.455935916385158
 20
986.6535756488884
 30
0.0
 40
6.666666752583272
100
AcDbArc
 50
304.9886932373047
 51
37.11079406738279
  0
ARC
  5
34D
330
1F
100
AcDbEntity
  8
0-2
  6
Continuous
 62
     6
370
     5
100
AcDbCircle
 10
-13.11851707664687
 20
1000.552517926126
 30
0.0
 40
6.666666752583272
100
AcDbArc
 50
42.88929748535155
 51
135.0113220214843
  0
ARC
  5
34E
330
1F
100
AcDbEntity
  8
0-2
  6
Continuous
 62
     6
370
     5
100
AcDbCircle
 10
-44.62156553526171
 20
950.3383175196655
 30
0.0
 40
6.666666752583272
100
AcDbArc
 50
215.7603759765626
 51
304.9881744384766
  0
ARC
  5
34F
330
1F
100
AcDbEntity
  8
0-2
  6
Continuous
 62
     6
370
     5
100
AcDbCircle
 10
-56.37743150865703
 20
964.3486077170894
 30
0.0
 40
6.666666752583272
100
AcDbArc
 50
135.0115966796875
 51
224.239517211914
  0
ARC
  5
350
330
1F
100
AcDbEntity
  8
0-2
  6
Continuous
 62
     6
370
     5
100
AcDbCircle
 10
-144.9999835040117
 20
878.0482784571655
 30
0.0
 40
122.0333460214976
100
AcDbArc
 50
37.95776367187499
 51
42.04222106933593
  0
ARC
  5
351
330
1F
100
AcDbEntity
  8
0-2
  6
Continuous
 62
     6
370
     5
100
AcDbCircle
 10
-49.42066089527032
 20
964.2357751579677
 30
0.0
 40
6.666666752583272
100
AcDbArc
 50
135.0113220214844
 51
222.0418548583985
  0
ARC
  5
352
330
1F
100
AcDbEntity
  8
0-2
  6
Continuous
 62
     6
370
     5
100
AcDbCircle
 10
-43.52466480152032
 20
957.2092265145977
 30
0.0
 40
6.666666752583272
100
AcDbArc
 50
217.9580993652344
 51
304.9886932373047
  0
ARC
  5
353
330
1F
100
AcDbEntity
  8
0-2
  6
Continuous
 62
     6
370
     5
100
AcDbCircle
 10
-144.9999835040117
 20
878.0482784571655
 30
0.0
 40
122.0333460214976
100
AcDbArc
 50
17.95774841308592
 51
22.04212951660154
  0
ARC
  5
354
330
1F
100
AcDbEntity
  8
0-2
  6
Continuous
 62
     6
370
     5
100
AcDbCircle
 10
-32.20577755489842
 20
928.8333225344456
 30
0.0
 40
6.666666752583272
100
AcDbArc
 50
115.0116424560547
 51
204.2398376464843
  0
ARC
  5
355
330
1F
100
AcDbEntity
  8
0-2
  6
Continuous
 62
     6
370
     5
100
AcDbCircle
 10
-25.95049883868228
 20
911.6471422134998
 30
0.0
 40
6.666666752583272
100
AcDbArc
 50
195.7601470947265
 51
284.9887237548828
  0
ARC
  5
356
330
1F
100
AcDbEntity
  8
0-2
  6
Continuous
 62
     6
370
     5
100
AcDbCircle
 10
-22.56972854201848
 20
917.7284707344035
 30
0.0
 40
6.666666752583272
100
AcDbArc
 50
197.9576263427734
 51
284.9887237548828
  0
ARC
  5
357
330
1F
100
AcDbEntity
  8
0-2
  6
Continuous
 62
     6
370
     5
100
AcDbCircle
 10
-25.70701805320937
 20
926.3480369558986
 30
0.0
 40
6.666666752583272
100
AcDbArc
 50
115.0116424560547
 51
202.04248046875
  0
ARC
  5
358
330
1F
100
AcDbEntity
  8
0-2
  6
Continuous
 62
     6
370
     5
100
AcDbCircle
 10
-144.9999835040117
 20
878.0482784571655
 30
0.0
 40
186.6666690723316
100
AcDbArc
 50
17.11106872558592
 51
22.88890075683592
  0
ARC
  5
359
330
1F
100
AcDbEntity
  8
0-2
  6
Continuous
 62
     6
370
     5
100
AcDbCircle
 10
23.34916398331927
 20
954.7526439554761
 30
0.0
 40
6.666666752583272
100
AcDbArc
 50
24.4950714111328
 51
115.0113830566406
  0
ARC
  5
35A
330
1F
100
AcDbEntity
  8
0-2
  6
Continuous
 62
     6
370
     5
100
AcDbCircle
 10
20.82700987119949
 20
948.0584069939052
 30
0.0
 40
6.666666752583272
100
AcDbArc
 50
22.88937377929685
 51
115.0116424560546
  0
ARC
  5
35B
330
1F
100
AcDbEntity
  8
0-2
  6
Continuous
 62
     6
370
     5
100
AcDbCircle
 10
27.03255318306589
 20
931.008813455054
 30
0.0
 40
6.666666752583272
100
AcDbArc
 50
284.9887237548828
 51
17.11169433593749
  0
ARC
  5
35C
330
1F
100
AcDbEntity
  8
0-2
  6
Continuous
 62
     6
370
     5
100
AcDbCircle
 10
33.26754183382604
 20
927.5020962886688
 30
0.0
 40
6.666666752583272
100
AcDbArc
 50
284.9887237548828
 51
15.50526428222655
  0
ARC
  5
35D
330
1F
100
AcDbEntity
  8
0-2
  6
Continuous
 62
     6
370
     5
100
AcDbCircle
 10
-22.03228924725494
 20
891.4877249837701
 30
0.0
 40
6.666666752583272
100
AcDbArc
 50
97.00961303710938
 51
186.2374267578125
  0
ARC
  5
35E
330
1F
100
AcDbEntity
  8
0-2
  6
Continuous
 62
     6
370
     5
100
AcDbCircle
 10
-16.61979056693411
 20
887.1154633178071
 30
0.0
 40
6.666666752583272
100
AcDbArc
 50
97.00961303710938
 51
184.0401306152344
  0
ARC
  5
35F
330
1F
100
AcDbEntity
  8
0-2
  6
Continuous
 62
     6
370
     5
100
AcDbCircle
 10
-267.9676777607685
 20
891.4879724235927
 30
0.0
 40
6.666666752583272
100
AcDbArc
 50
353.7626495361328
 51
82.99111938476565
  0
ARC
  5
360
330
1F
100
AcDbEntity
  8
0-2
  6
Continuous
 62
     6
370
     5
100
AcDbCircle
 10
-273.3801764410896
 20
887.1157107576298
 30
0.0
 40
6.666666752583272
100
AcDbArc
 50
355.9601745605469
 51
82.99111938476564
  0
ARC
  5
361
330
1F
100
AcDbEntity
  8
0-2
  6
Continuous
 62
     6
370
     5
100
AcDbCircle
 10
-144.9999835040117
 20
878.0482784571655
 30
0.0
 40
122.0333460214976
100
AcDbArc
 50
175.9599151611328
 51
180.0
  0
ARC
  5
362
330
1F
100
AcDbEntity
  8
0-2
  6
Continuous
 62
     6
370
     5
100
AcDbCircle
 10
-144.9999835040117
 20
878.0482784571655
 30
0.0
 40
122.0333460214976
100
AcDbArc
 50
0.0
 51
4.040008544921849
  0
ARC
  5
363
330
1F
100
AcDbEntity
  8
0-2
  6
Continuous
 62
     6
370
     5
100
AcDbCircle
 10
-144.9999835040117
 20
878.0482784571655
 30
0.0
 40
165.0000030929978
100
AcDbArc
 50
175.4038391113281
 51
180.0
  0
ARC
  5
364
330
1F
100
AcDbEntity
  8
0-2
  6
Continuous
 62
     6
370
     5
100
AcDbCircle
 10
-144.9999835040117
 20
878.0482784571655
 30
0.0
 40
170.000004123997
100
AcDbArc
 50
173.5753021240235
 51
180.0
  0
ARC
  5
365
330
1F
100
AcDbEntity
  8
0-2
  6
Continuous
 62
     6
370
     5
100
AcDbCircle
 10
-307.3076402818833
 20
896.3246786366417
 30
0.0
 40
6.666666752583272
100
AcDbArc
 50
82.99024963378906
 51
173.5749206542969
  0
ARC
  5
366
330
1F
100
AcDbEntity
  8
0-2
  6
Continuous
 62
     6
370
     5
100
AcDbCircle
 10
-302.8240306957346
 20
890.7360028026045
 30
0.0
 40
6.666666752583272
100
AcDbArc
 50
82.99024963378906
 51
175.4037780761719
  0
ARC
  5
367
330
1F
100
AcDbEntity
  8
0-2
  6
Continuous
 62
     6
370
     5
100
AcDbCircle
 10
-144.9999835040117
 20
878.0482784571655
 30
0.0
 40
170.000004123997
100
AcDbArc
 50
0.0
 51
6.424575805664062
  0
ARC
  5
368
330
1F
100
AcDbEntity
  8
0-2
  6
Continuous
 62
     6
370
     5
100
AcDbCircle
 10
-144.9999835040117
 20
878.0482784571655
 30
0.0
 40
165.0000030929978
100
AcDbArc
 50
0.0
 51
4.596084594726562
  0
ARC
  5
369
330
1F
100
AcDbEntity
  8
0-2
  6
Continuous
 62
     6
370
     5
100
AcDbCircle
 10
17.3076732738599
 20
896.3246786366417
 30
0.0
 40
6.666666752583272
100
AcDbArc
 50
6.424148559570313
 51
97.00961303710938
  0
ARC
  5
36A
330
1F
100
AcDbEntity
  8
0-2
  6
Continuous
 62
     6
370
     5
100
AcDbCircle
 10
12.82431112753386
 20
890.7355079229592
 30
0.0
 40
6.666666752583272
100
AcDbArc
 50
4.596221923828126
 51
97.00961303710938
  0
LINE
  5
36B
330
1F
100
AcDbEntity
  8
0-4
  6
Continuous
 62
     7
370
     9
100
AcDbLine
 10
199.8736537734111
 20
-206.4069263355151
 30
0.0
 11
371.3334367081927
 21
-206.4069263355151
 31
0.0
  0
ENDSEC
  0
SECTION
  2
OBJECTS
  0
DICTIONARY
  5
C
330
0
100
AcDbDictionary
281
     1
  3
ACAD_GROUP
350
D
  3
ACAD_LAYOUT
350
1A
  3
ACAD_MLEADERSTYLE
350
36D
  3
ACAD_MLINESTYLE
350
17
  3
ACAD_PLOTSETTINGS
350
19
  3
ACAD_PLOTSTYLENAME
350
E
  3
ACAD_TABLESTYLE
350
36C
  3
ACAD_VISUALSTYLE
350
2A
  0
DICTIONARY
  5
D
102
{ACAD_REACTORS
330
C
102
}
330
C
100
AcDbDictionary
281
     1
  0
DICTIONARY
  5
1A
102
{ACAD_REACTORS
330
C
102
}
330
C
100
AcDbDictionary
281
     1
  3
Layout1
350
1E
  3
Layout2
350
26
  3
Model
350
22
  0
DICTIONARY
  5
36D
102
{ACAD_REACTORS
330
C
102
}
330
C
100
AcDbDictionary
281
     1
  0
DICTIONARY
  5
17
102
{ACAD_REACTORS
330
C
102
}
330
C
100
AcDbDictionary
281
     1
  3
Standard
350
18
  0
DICTIONARY
  5
19
102
{ACAD_REACTORS
330
C
102
}
330
C
100
AcDbDictionary
281
     1
  0
ACDBDICTIONARYWDFLT
  5
E
102
{ACAD_REACTORS
330
C
102
}
330
C
100
AcDbDictionary
281
     1
  3
Normal
350
F
100
AcDbDictionaryWithDefault
340
F
  0
DICTIONARY
  5
36C
102
{ACAD_REACTORS
330
C
102
}
330
C
100
AcDbDictionary
281
     1
  0
DICTIONARY
  5
2A
102
{ACAD_REACTORS
330
C
102
}
330
C
100
AcDbDictionary
281
     1
  3
2dWireframe
350
2F
  3
3D Hidden
350
31
  3
3dWireframe
350
30
  3
Basic
350
32
  3
Brighten
350
36
  3
ColorChange
350
3A
  3
Conceptual
350
34
  3
Dim
350
35
  3
Facepattern
350
39
  3
Flat
350
2B
  3
FlatWithEdges
350
2C
  3
Gouraud
350
2D
  3
GouraudWithEdges
350
2E
  3
Linepattern
350
38
  3
Realistic
350
33
  3
Thicken
350
37
  0
LAYOUT
  5
1E
102
{ACAD_REACTORS
330
1A
102
}
330
1A
100
AcDbPlotSettings
  1

  2
none_device
  4

  6

 40
0.0
 41
0.0
 42
0.0
 43
0.0
 44
0.0
 45
0.0
 46
0.0
 47
0.0
 48
0.0
 49
0.0
140
0.0
141
0.0
142
1.0
143
1.0
 70
   688
 72
     0
 73
     0
 74
     5
  7

 75
    16
 76
     0
 77
     5
 78
   300
147
1.0
148
0.0
149
0.0
100
AcDbLayout
  1
Layout1
 70
     1
 71
     1
 10
0.0
 20
0.0
 11
420.0
 21
297.0
 12
0.0
 22
0.0
 32
0.0
 14
1.000000000000000E+20
 24
1.000000000000000E+20
 34
1.000000000000000E+20
 15
-1.000000000000000E+20
 25
-1.000000000000000E+20
 35
-1.000000000000000E+20
146
0.0
 13
0.0
 23
0.0
 33
0.0
 16
1.0
 26
0.0
 36
0.0
 17
0.0
 27
1.0
 37
0.0
 76
     0
330
1B
  0
LAYOUT
  5
26
102
{ACAD_REACTORS
330
1A
102
}
330
1A
100
AcDbPlotSettings
  1

  2
none_device
  4

  6

 40
0.0
 41
0.0
 42
0.0
 43
0.0
 44
0.0
 45
0.0
 46
0.0
 47
0.0
 48
0.0
 49
0.0
140
0.0
141
0.0
142
1.0
143
1.0
 70
   688
 72
     0
 73
     0
 74
     5
  7

 75
    16
 76
     0
 77
     5
 78
   300
147
1.0
148
0.0
149
0.0
100
AcDbLayout
  1
Layout2
 70
     1
 71
     2
 10
0.0
 20
0.0
 11
0.0
 21
0.0
 12
0.0
 22
0.0
 32
0.0
 14
0.0
 24
0.0
 34
0.0
 15
0.0
 25
0.0
 35
0.0
146
0.0
 13
0.0
 23
0.0
 33
0.0
 16
1.0
 26
0.0
 36
0.0
 17
0.0
 27
1.0
 37
0.0
 76
     0
330
23
  0
LAYOUT
  5
22
102
{ACAD_REACTORS
330
1A
102
}
330
1A
100
AcDbPlotSettings
  1

  2
none_device
  4

  6

 40
0.0
 41
0.0
 42
0.0
 43
0.0
 44
0.0
 45
0.0
 46
0.0
 47
0.0
 48
0.0
 49
0.0
140
0.0
141
0.0
142
1.0
143
1.0
 70
  1712
 72
     0
 73
     0
 74
     0
  7

 75
     0
 76
     0
 77
     5
 78
   300
147
1.0
148
0.0
149
0.0
100
AcDbLayout
  1
Model
 70
     1
 71
     0
 10
-2100.0
 20
-1485.0
 11
2100.0
 21
1485.0
 12
0.0
 22
0.0
 32
0.0
 14
-2100.0
 24
-1485.0
 34
0.0
 15
2100.0
 25
1485.0
 35
0.0
146
0.0
 13
0.0
 23
0.0
 33
0.0
 16
1.0
 26
0.0
 36
0.0
 17
0.0
 27
1.0
 37
0.0
 76
     0
330
1F
331
29
  0
MLINESTYLE
  5
18
102
{ACAD_REACTORS
330
17
102
}
330
17
100
AcDbMlineStyle
  2
Standard
 70
     0
  3

 62
   256
 51
90.0
 52
90.0
 71
     2
 49
0.5
 62
   256
  6
BYLAYER
 49
-0.5
 62
   256
  6
BYLAYER
  0
ACDBPLACEHOLDER
  5
F
102
{ACAD_REACTORS
330
E
102
}
330
E
  0
VISUALSTYLE
  5
2F
102
{ACAD_REACTORS
330
2A
102
}
330
2A
100
AcDbVisualStyle
  2
2dWireframe
 70
     4
 71
     0
 72
     2
 73
     0
 90
        0
 40
-0.6
 41
-30.0
 62
     5
 63
     7
421
 16777215
 74
     1
 91
        4
 64
     7
 65
   257
 75
     1
175
     1
 42
1.0
 92
        0
 66
   257
 43
1.0
 76
     1
 77
     6
 78
     2
 67
     7
 79
     5
170
     0
171
     0
290
     0
174
     0
 93
        1
 44
0.0
173
     0
291
     0
 45
0.0
1001
ACAD
1000
AcDbSavedByObjectVersion
1070
     0
  0
VISUALSTYLE
  5
31
102
{ACAD_REACTORS
330
2A
102
}
330
2A
100
AcDbVisualStyle
  2
3D Hidden
 70
     6
 71
     1
 72
     2
 73
     2
 90
        0
 40
-0.6
 41
-30.0
 62
     5
 63
     7
421
 16777215
 74
     2
 91
        2
 64
     7
 65
   257
 75
     2
175
     1
 42
40.0
 92
        0
 66
   257
 43
1.0
 76
     1
 77
     6
 78
     2
 67
     7
 79
     3
170
     0
171
     0
290
     0
174
     0
 93
        1
 44
0.0
173
     0
291
     0
 45
0.0
1001
ACAD
1000
AcDbSavedByObjectVersion
1070
     0
  0
VISUALSTYLE
  5
30
102
{ACAD_REACTORS
330
2A
102
}
330
2A
100
AcDbVisualStyle
  2
3dWireframe
 70
     5
 71
     0
 72
     2
 73
     0
 90
        0
 40
-0.6
 41
-30.0
 62
     5
 63
     7
421
 16777215
 74
     1
 91
        4
 64
     7
 65
   257
 75
     1
175
     1
 42
1.0
 92
        0
 66
   257
 43
1.0
 76
     1
 77
     6
 78
     2
 67
     7
 79
     5
170
     0
171
     0
290
     0
174
     0
 93
        1
 44
0.0
173
     0
291
     0
 45
0.0
1001
ACAD
1000
AcDbSavedByObjectVersion
1070
     0
  0
VISUALSTYLE
  5
32
102
{ACAD_REACTORS
330
2A
102
}
330
2A
100
AcDbVisualStyle
  2
Basic
 70
     7
 71
     1
 72
     0
 73
     1
 90
        0
 40
-0.6
 41
-30.0
 62
     5
 63
     7
421
 16777215
 74
     0
 91
        4
 64
     7
 65
   257
 75
     1
175
     1
 42
1.0
 92
        8
 66
     7
 43
1.0
 76
     1
 77
     6
 78
     2
 67
     7
 79
     5
170
     0
171
     0
290
     0
174
     0
 93
        1
 44
0.0
173
     0
291
     1
 45
0.0
1001
ACAD
1000
AcDbSavedByObjectVersion
1070
     0
  0
VISUALSTYLE
  5
36
102
{ACAD_REACTORS
330
2A
102
}
330
2A
100
AcDbVisualStyle
  2
Brighten
 70
    12
 71
     2
 72
     2
 73
     0
 90
        0
 40
-0.6
 41
-30.0
 62
     5
 63
     7
421
 16777215
 74
     1
 91
        4
 64
     7
 65
   257
 75
     1
175
     1
 42
1.0
 92
        8
 66
     7
 43
1.0
 76
     1
 77
     6
 78
     2
 67
     7
 79
     5
170
     0
171
     0
290
     0
174
     0
 93
        1
 44
50.0
173
     0
291
     1
 45
0.0
1001
ACAD
1000
AcDbSavedByObjectVersion
1070
     0
  0
VISUALSTYLE
  5
3A
102
{ACAD_REACTORS
330
2A
102
}
330
2A
100
AcDbVisualStyle
  2
ColorChange
 70
    16
 71
     2
 72
     2
 73
     3
 90
        0
 40
-0.6
 41
-30.0
 62
     5
 63
     8
421
  8421504
 74
     1
 91
        4
 64
     7
 65
   257
 75
     1
175
     1
 42
1.0
 92
        8
 66
     8
424
  8421504
 43
1.0
 76
     1
 77
     6
 78
     2
 67
     7
 79
     5
170
     0
171
     0
290
     0
174
     0
 93
        1
 44
0.0
173
     0
291
     1
 45
0.0
1001
ACAD
1000
AcDbSavedByObjectVersion
1070
     0
  0
VISUALSTYLE
  5
34
102
{ACAD_REACTORS
330
2A
102
}
330
2A
100
AcDbVisualStyle
  2
Conceptual
 70
     9
 71
     3
 72
     2
 73
     0
 90
        0
 40
-0.6
 41
-30.0
 62
     5
 63
     7
421
 16777215
 74
     2
 91
        2
 64
     7
 65
   257
 75
     1
175
     1
 42
40.0
 92
        8
 66
     7
 43
1.0
 76
     1
 77
     6
 78
     2
 67
     7
 79
     3
170
     0
171
     0
290
     0
174
     0
 93
        1
 44
0.0
173
     0
291
     0
 45
0.0
1001
ACAD
1000
AcDbSavedByObjectVersion
1070
     0
  0
VISUALSTYLE
  5
35
102
{ACAD_REACTORS
330
2A
102
}
330
2A
100
AcDbVisualStyle
  2
Dim
 70
    11
 71
     2
 72
     2
 73
     0
 90
        0
 40
-0.6
 41
-30.0
 62
     5
 63
     7
421
 16777215
 74
     1
 91
        4
 64
     7
 65
   257
 75
     1
175
     1
 42
1.0
 92
        8
 66
     7
 43
1.0
 76
     1
 77
     6
 78
     2
 67
     7
 79
     5
170
     0
171
     0
290
     0
174
     0
 93
        1
 44
-50.0
173
     0
291
     1
 45
0.0
1001
ACAD
1000
AcDbSavedByObjectVersion
1070
     0
  0
VISUALSTYLE
  5
39
102
{ACAD_REACTORS
330
2A
102
}
330
2A
100
AcDbVisualStyle
  2
Facepattern
 70
    15
 71
     2
 72
     2
 73
     0
 90
        0
 40
-0.6
 41
-30.0
 62
     5
 63
     7
421
 16777215
 74
     1
 91
        4
 64
     7
 65
   257
 75
     1
175
     1
 42
1.0
 92
        8
 66
     7
 43
1.0
 76
     1
 77
     6
 78
     2
 67
     7
 79
     5
170
     0
171
     0
290
     0
174
     0
 93
        1
 44
0.0
173
     0
291
     1
 45
0.0
1001
ACAD
1000
AcDbSavedByObjectVersion
1070
     0
  0
VISUALSTYLE
  5
2B
102
{ACAD_REACTORS
330
2A
102
}
330
2A
100
AcDbVisualStyle
  2
Flat
 70
     0
 71
     2
 72
     1
 73
     1
 90
        2
 40
-0.6
 41
30.0
 62
     5
 63
     7
421
 16777215
 74
     0
 91
        4
 64
     7
 65
   257
 75
     1
175
     1
 42
1.0
 92
        8
 66
     7
 43
1.0
 76
     1
 77
     6
 78
     2
 67
     7
 79
     5
170
     0
171
     0
290
     0
174
     0
 93
       13
 44
0.0
173
     0
291
     1
 45
0.0
1001
ACAD
1000
AcDbSavedByObjectVersion
1070
     0
  0
VISUALSTYLE
  5
2C
102
{ACAD_REACTORS
330
2A
102
}
330
2A
100
AcDbVisualStyle
  2
FlatWithEdges
 70
     1
 71
     2
 72
     1
 73
     1
 90
        2
 40
-0.6
 41
30.0
 62
     5
 63
     7
421
 16777215
 74
     1
 91
        4
 64
     7
 65
   257
 75
     1
175
     1
 42
1.0
 92
        0
 66
   257
 43
1.0
 76
     1
 77
     6
 78
     2
 67
     7
 79
     5
170
     0
171
     0
290
     0
174
     0
 93
       13
 44
0.0
173
     0
291
     1
 45
0.0
1001
ACAD
1000
AcDbSavedByObjectVersion
1070
     0
  0
VISUALSTYLE
  5
2D
102
{ACAD_REACTORS
330
2A
102
}
330
2A
100
AcDbVisualStyle
  2
Gouraud
 70
     2
 71
     2
 72
     2
 73
     1
 90
        2
 40
-0.6
 41
30.0
 62
     5
 63
     7
421
 16777215
 74
     0
 91
        4
 64
     7
 65
   257
 75
     1
175
     1
 42
1.0
 92
        0
 66
     7
 43
1.0
 76
     1
 77
     6
 78
     2
 67
     7
 79
     5
170
     0
171
     0
290
     0
174
     0
 93
       13
 44
0.0
173
     0
291
     1
 45
0.0
1001
ACAD
1000
AcDbSavedByObjectVersion
1070
     0
  0
VISUALSTYLE
  5
2E
102
{ACAD_REACTORS
330
2A
102
}
330
2A
100
AcDbVisualStyle
  2
GouraudWithEdges
 70
     3
 71
     2
 72
     2
 73
     1
 90
        2
 40
-0.6
 41
30.0
 62
     5
 63
     7
421
 16777215
 74
     1
 91
        4
 64
     7
 65
   257
 75
     1
175
     1
 42
1.0
 92
        0
 66
   257
 43
1.0
 76
     1
 77
     6
 78
     2
 67
     7
 79
     5
170
     0
171
     0
290
     0
174
     0
 93
       13
 44
0.0
173
     0
291
     1
 45
0.0
1001
ACAD
1000
AcDbSavedByObjectVersion
1070
     0
  0
VISUALSTYLE
  5
38
102
{ACAD_REACTORS
330
2A
102
}
330
2A
100
AcDbVisualStyle
  2
Linepattern
 70
    14
 71
     2
 72
     2
 73
     0
 90
        0
 40
-0.6
 41
-30.0
 62
     5
 63
     7
421
 16777215
 74
     1
 91
        4
 64
     7
 65
   257
 75
     7
175
     7
 42
1.0
 92
        8
 66
     7
 43
1.0
 76
     1
 77
     6
 78
     2
 67
     7
 79
     5
170
     0
171
     0
290
     0
174
     0
 93
        1
 44
0.0
173
     0
291
     1
 45
0.0
1001
ACAD
1000
AcDbSavedByObjectVersion
1070
     0
  0
VISUALSTYLE
  5
33
102
{ACAD_REACTORS
330
2A
102
}
330
2A
100
AcDbVisualStyle
  2
Realistic
 70
     8
 71
     2
 72
     2
 73
     0
 90
        0
 40
-0.6
 41
-30.0
 62
     5
 63
     7
421
 16777215
 74
     1
 91
        0
 64
     7
 65
   257
 75
     1
175
     1
 42
1.0
 92
        8
 66
     8
424
  7895160
 43
1.0
 76
     1
 77
     6
 78
     2
 67
     7
 79
     5
170
     0
171
     0
290
     0
174
     0
 93
       13
 44
0.0
173
     0
291
     0
 45
0.0
1001
ACAD
1000
AcDbSavedByObjectVersion
1070
     0
  0
VISUALSTYLE
  5
37
102
{ACAD_REACTORS
330
2A
102
}
330
2A
100
AcDbVisualStyle
  2
Thicken
 70
    13
 71
     2
 72
     2
 73
     0
 90
        0
 40
-0.6
 41
-30.0
 62
     5
 63
     7
421
 16777215
 74
     1
 91
        4
 64
     7
 65
   257
 75
     1
175
     1
 42
1.0
 92
       12
 66
     7
 43
1.0
 76
     1
 77
     6
 78
     2
 67
     7
 79
     5
170
     0
171
     0
290
     0
174
     0
 93
        1
 44
0.0
173
     0
291
     1
 45
0.0
1001
ACAD
1000
AcDbSavedByObjectVersion
1070
     0
  0
ENDSEC
  0
EOF
