  0
SECTION
  2
HEADER
  9
$ACADVER
  1
AC1015
  9
$ACADMAINTVER
 70
     6
  9
$DWGCODEPAGE
  3
ANSI_932
  9
$INSBASE
 10
0.0
 20
0.0
 30
0.0
  9
$EXTMIN
 10
-2100.0
 20
-1485.0
 30
0.0
  9
$EXTMAX
 10
2100.0
 20
1485.0
 30
0.0
  9
$LIMMIN
 10
-2100.0
 20
-1485.0
  9
$LIMMAX
 10
2100.0
 20
1485.0
  9
$ORTHOMODE
 70
     0
  9
$REGENMODE
 70
     1
  9
$FILLMODE
 70
     1
  9
$QTEXTMODE
 70
     0
  9
$MIRRTEXT
 70
     1
  9
$LTSCALE
 40
10.0
  9
$ATTMODE
 70
     1
  9
$TEXTSIZE
 40
2.5
  9
$TRACEWID
 40
1.0
  9
$TEXTSTYLE
  7
Standard
  9
$CLAYER
  8
0
  9
$CELTYPE
  6
ByLayer
  9
$CECOLOR
 62
   256
  9
$CELTSCALE
 40
1.0
  9
$DISPSILH
 70
     0
  9
$DIMSCALE
 40
1.0
  9
$DIMASZ
 40
2.5
  9
$DIMEXO
 40
0.625
  9
$DIMDLI
 40
3.75
  9
$DIMRND
 40
0.0
  9
$DIMDLE
 40
0.0
  9
$DIMEXE
 40
1.25
  9
$DIMTP
 40
0.0
  9
$DIMTM
 40
0.0
  9
$DIMTXT
 40
2.5
  9
$DIMCEN
 40
2.5
  9
$DIMTSZ
 40
0.0
  9
$DIMTOL
 70
     0
  9
$DIMLIM
 70
     0
  9
$DIMTIH
 70
     0
  9
$DIMTOH
 70
     0
  9
$DIMSE1
 70
     0
  9
$DIMSE2
 70
     0
  9
$DIMTAD
 70
     1
  9
$DIMZIN
 70
     8
  9
$DIMBLK
  1

  9
$DIMASO
 70
     1
  9
$DIMSHO
 70
     1
  9
$DIMPOST
  1

  9
$DIMAPOST
  1

  9
$DIMALT
 70
     0
  9
$DIMALTD
 70
     3
  9
$DIMALTF
 40
0.03937007874016
  9
$DIMLFAC
 40
1.0
  9
$DIMTOFL
 70
     1
  9
$DIMTVP
 40
0.0
  9
$DIMTIX
 70
     0
  9
$DIMSOXD
 70
     0
  9
$DIMSAH
 70
     0
  9
$DIMBLK1
  1

  9
$DIMBLK2
  1

  9
$DIMSTYLE
  2
ISO-25
  9
$DIMCLRD
 70
     0
  9
$DIMCLRE
 70
     0
  9
$DIMCLRT
 70
     0
  9
$DIMTFAC
 40
1.0
  9
$DIMGAP
 40
0.625
  9
$DIMJUST
 70
     0
  9
$DIMSD1
 70
     0
  9
$DIMSD2
 70
     0
  9
$DIMTOLJ
 70
     0
  9
$DIMTZIN
 70
     8
  9
$DIMALTZ
 70
     0
  9
$DIMALTTZ
 70
     0
  9
$DIMUPT
 70
     0
  9
$DIMDEC
 70
     2
  9
$DIMTDEC
 70
     2
  9
$DIMALTU
 70
     2
  9
$DIMALTTD
 70
     3
  9
$DIMTXSTY
  7
Standard
  9
$DIMAUNIT
 70
     0
  9
$DIMADEC
 70
     0
  9
$DIMALTRND
 40
0.0
  9
$DIMAZIN
 70
     0
  9
$DIMDSEP
 70
    44
  9
$DIMATFIT
 70
     3
  9
$DIMFRAC
 70
     0
  9
$DIMLDRBLK
  1

  9
$DIMLUNIT
 70
     2
  9
$DIMLWD
 70
    -2
  9
$DIMLWE
 70
    -2
  9
$DIMTMOVE
 70
     0
  9
$LUNITS
 70
     2
  9
$LUPREC
 70
     4
  9
$SKETCHINC
 40
1.0
  9
$FILLETRAD
 40
10.0
  9
$AUNITS
 70
     0
  9
$AUPREC
 70
     0
  9
$MENU
  1
.
  9
$ELEVATION
 40
0.0
  9
$PELEVATION
 40
0.0
  9
$THICKNESS
 40
0.0
  9
$LIMCHECK
 70
     0
  9
$CHAMFERA
 40
10.0
  9
$CHAMFERB
 40
10.0
  9
$CHAMFERC
 40
20.0
  9
$CHAMFERD
 40
0.0
  9
$SKPOLY
 70
     0
  9
$TDCREATE
 40
2456902.409652083
  9
$TDUCREATE
 40
2456902.034652083
  9
$TDUPDATE
 40
2456902.409652095
  9
$TDUUPDATE
 40
2456902.034652095
  9
$TDINDWG
 40
0.0000000116
  9
$TDUSRTIMER
 40
0.0000000116
  9
$USRTIMER
 70
     1
  9
$ANGBASE
 50
0.0
  9
$ANGDIR
 70
     0
  9
$PDMODE
 70
     0
  9
$PDSIZE
 40
0.0
  9
$PLINEWID
 40
0.0
  9
$SPLFRAME
 70
     0
  9
$SPLINETYPE
 70
     6
  9
$SPLINESEGS
 70
     8
  9
$HANDSEED
  5
31C
  9
$SURFTAB1
 70
     6
  9
$SURFTAB2
 70
     6
  9
$SURFTYPE
 70
     6
  9
$SURFU
 70
     6
  9
$SURFV
 70
     6
  9
$UCSBASE
  2

  9
$UCSNAME
  2

  9
$UCSORG
 10
0.0
 20
0.0
 30
0.0
  9
$UCSXDIR
 10
1.0
 20
0.0
 30
0.0
  9
$UCSYDIR
 10
0.0
 20
1.0
 30
0.0
  9
$UCSORTHOREF
  2

  9
$UCSORTHOVIEW
 70
     0
  9
$UCSORGTOP
 10
0.0
 20
0.0
 30
0.0
  9
$UCSORGBOTTOM
 10
0.0
 20
0.0
 30
0.0
  9
$UCSORGLEFT
 10
0.0
 20
0.0
 30
0.0
  9
$UCSORGRIGHT
 10
0.0
 20
0.0
 30
0.0
  9
$UCSORGFRONT
 10
0.0
 20
0.0
 30
0.0
  9
$UCSORGBACK
 10
0.0
 20
0.0
 30
0.0
  9
$PUCSBASE
  2

  9
$PUCSNAME
  2

  9
$PUCSORG
 10
0.0
 20
0.0
 30
0.0
  9
$PUCSXDIR
 10
1.0
 20
0.0
 30
0.0
  9
$PUCSYDIR
 10
0.0
 20
1.0
 30
0.0
  9
$PUCSORTHOREF
  2

  9
$PUCSORTHOVIEW
 70
     0
  9
$PUCSORGTOP
 10
0.0
 20
0.0
 30
0.0
  9
$PUCSORGBOTTOM
 10
0.0
 20
0.0
 30
0.0
  9
$PUCSORGLEFT
 10
0.0
 20
0.0
 30
0.0
  9
$PUCSORGRIGHT
 10
0.0
 20
0.0
 30
0.0
  9
$PUCSORGFRONT
 10
0.0
 20
0.0
 30
0.0
  9
$PUCSORGBACK
 10
0.0
 20
0.0
 30
0.0
  9
$USERI1
 70
     0
  9
$USERI2
 70
     0
  9
$USERI3
 70
     0
  9
$USERI4
 70
     0
  9
$USERI5
 70
     0
  9
$USERR1
 40
0.0
  9
$USERR2
 40
0.0
  9
$USERR3
 40
0.0
  9
$USERR4
 40
0.0
  9
$USERR5
 40
0.0
  9
$WORLDVIEW
 70
     1
  9
$SHADEDGE
 70
     3
  9
$SHADEDIF
 70
    70
  9
$TILEMODE
 70
     1
  9
$MAXACTVP
 70
    64
  9
$PINSBASE
 10
0.0
 20
0.0
 30
0.0
  9
$PLIMCHECK
 70
     0
  9
$PEXTMIN
 10
1.000000000000000E+20
 20
1.000000000000000E+20
 30
1.000000000000000E+20
  9
$PEXTMAX
 10
-1.000000000000000E+20
 20
-1.000000000000000E+20
 30
-1.000000000000000E+20
  9
$PLIMMIN
 10
0.0
 20
0.0
  9
$PLIMMAX
 10
420.0
 20
297.0
  9
$UNITMODE
 70
     0
  9
$VISRETAIN
 70
     1
  9
$PLINEGEN
 70
     0
  9
$PSLTSCALE
 70
     1
  9
$TREEDEPTH
 70
  3020
  9
$CMLSTYLE
  2
Standard
  9
$CMLJUST
 70
     0
  9
$CMLSCALE
 40
20.0
  9
$PROXYGRAPHICS
 70
     1
  9
$MEASUREMENT
 70
     1
  9
$CELWEIGHT
370
    -1
  9
$ENDCAPS
280
     0
  9
$JOINSTYLE
280
     0
  9
$LWDISPLAY
290
     0
  9
$INSUNITS
 70
     4
  9
$HYPERLINKBASE
  1

  9
$STYLESHEET
  1

  9
$XEDIT
290
     1
  9
$CEPSNTYPE
380
     0
  9
$PSTYLEMODE
290
     1
  9
$FINGERPRINTGUID
  2
{DAA09AC2-5CF9-4084-AF38-80ED62125900}
  9
$VERSIONGUID
  2
{FAEB1C32-E019-11D5-929B-00C0DF256EC4}
  9
$EXTNAMES
290
     1
  9
$PSVPSCALE
 40
0.0
  9
$OLESTARTUP
290
     0
  0
ENDSEC
  0
SECTION
  2
CLASSES
  0
CLASS
  1
ACDBDICTIONARYWDFLT
  2
AcDbDictionaryWithDefault
  3
ObjectDBX Classes
 90
        0
280
     0
281
     0
  0
CLASS
  1
VISUALSTYLE
  2
AcDbVisualStyle
  3
ObjectDBX Classes
 90
     4095
280
     0
281
     0
  0
CLASS
  1
DICTIONARYVAR
  2
AcDbDictionaryVar
  3
ObjectDBX Classes
 90
        0
280
     0
281
     0
  0
CLASS
  1
ACDBPLACEHOLDER
  2
AcDbPlaceHolder
  3
ObjectDBX Classes
 90
        0
280
     0
281
     0
  0
CLASS
  1
LAYOUT
  2
AcDbLayout
  3
ObjectDBX Classes
 90
        0
280
     0
281
     0
  0
ENDSEC
  0
SECTION
  2
TABLES
  0
TABLE
  2
VPORT
  5
8
330
0
100
AcDbSymbolTable
 70
     1
  0
VPORT
  5
29
330
8
100
AcDbSymbolTableRecord
100
AcDbViewportTableRecord
  2
*Active
 70
     0
 10
0.0
 20
0.0
 11
1.0
 21
1.0
 12
0.0
 22
0.0
 13
0.0
 23
0.0
 14
10.0
 24
10.0
 15
10.0
 25
10.0
 16
0.0
 26
0.0
 36
1.0
 17
0.0
 27
0.0
 37
0.0
 40
3267.0
 41
1.414141414141414
 42
50.0
 43
0.0
 44
0.0
 50
0.0
 51
0.0
 71
     0
 72
 10000
 73
     1
 74
     3
 75
     0
 76
     0
 77
     0
 78
     0
281
     0
 65
     1
110
0.0
120
0.0
130
0.0
111
1.0
121
0.0
131
0.0
112
0.0
122
1.0
132
0.0
 79
     0
146
0.0
  0
ENDTAB
  0
TABLE
  2
LTYPE
  5
5
330
0
100
AcDbSymbolTable
 70
     3
  0
LTYPE
  5
14
330
5
100
AcDbSymbolTableRecord
100
AcDbLinetypeTableRecord
  2
ByBlock
 70
     0
  3

 72
    65
 73
     0
 40
0.0
  0
LTYPE
  5
15
330
5
100
AcDbSymbolTableRecord
100
AcDbLinetypeTableRecord
  2
ByLayer
 70
     0
  3

 72
    65
 73
     0
 40
0.0
  0
LTYPE
  5
16
330
5
100
AcDbSymbolTableRecord
100
AcDbLinetypeTableRecord
  2
Continuous
 70
     0
  3
Solid line
 72
    65
 73
     0
 40
0.0
  0
LTYPE
  5
3C
330
5
100
AcDbSymbolTableRecord
100
AcDbLinetypeTableRecord
  2
JWW_DASHED1
 70
     0
  3
-  --  --  --  --  --  --  --  -
 72
    65
 73
     2
 40
1.693333333333333
 49
0.8466666666666667
 74
     0
 49
-0.8466666666666667
 74
     0
  0
LTYPE
  5
3D
330
5
100
AcDbSymbolTableRecord
100
AcDbLinetypeTableRecord
  2
JWW_CENTER1
 70
     0
  3
-----  --  ----------  --  -----
 72
    65
 73
     4
 40
6.773333333333333
 49
4.233333333333333
 74
     0
 49
-0.8466666666666667
 74
     0
 49
0.8466666666666667
 74
     0
 49
-0.8466666666666667
 74
     0
  0
ENDTAB
  0
TABLE
  2
LAYER
  5
2
330
0
100
AcDbSymbolTable
 70
     8
  0
LAYER
  5
10
330
2
100
AcDbSymbolTableRecord
100
AcDbLayerTableRecord
  2
0
 70
     0
 62
     7
  6
Continuous
370
    -3
390
F
  0
LAYER
  5
3E
330
2
100
AcDbSymbolTableRecord
100
AcDbLayerTableRecord
  2
F-4
 70
     0
 62
     7
  6
Continuous
370
    -3
390
F
  0
LAYER
  5
3F
330
2
100
AcDbSymbolTableRecord
100
AcDbLayerTableRecord
  2
0-0
 70
     0
 62
     7
  6
Continuous
370
    -3
390
F
  0
LAYER
  5
40
330
2
100
AcDbSymbolTableRecord
100
AcDbLayerTableRecord
  2
0-1
 70
     0
 62
     7
  6
Continuous
370
    -3
390
F
  0
LAYER
  5
41
330
2
100
AcDbSymbolTableRecord
100
AcDbLayerTableRecord
  2
0-2
 70
     0
 62
     7
  6
Continuous
370
    -3
390
F
  0
LAYER
  5
42
330
2
100
AcDbSymbolTableRecord
100
AcDbLayerTableRecord
  2
0-5
 70
     0
 62
     7
  6
Continuous
370
    -3
390
F
  0
LAYER
  5
43
330
2
100
AcDbSymbolTableRecord
100
AcDbLayerTableRecord
  2
0-4
 70
     0
 62
     7
  6
Continuous
370
    -3
390
F
  0
LAYER
  5
44
330
2
100
AcDbSymbolTableRecord
100
AcDbLayerTableRecord
  2
0-E
 70
     0
 62
     7
  6
Continuous
370
    -3
390
F
  0
ENDTAB
  0
TABLE
  2
STYLE
  5
3
330
0
100
AcDbSymbolTable
 70
     2
  0
STYLE
  5
11
330
3
100
AcDbSymbolTableRecord
100
AcDbTextStyleTableRecord
  2
Standard
 70
     0
 40
0.0
 41
1.0
 50
0.0
 71
     0
 42
2.5
  3
txt
  4

1001
ACAD
1000

1071
        0
  0
STYLE
  5
3B
330
3
100
AcDbSymbolTableRecord
100
AcDbTextStyleTableRecord
  2
ＭＳ ゴシック
 70
     0
 40
1.0
 41
1.0
 50
0.0
 71
     0
 42
10.0
  3

  4

1001
ACAD
1000
MS Gothic
1071
    32817
  0
ENDTAB
  0
TABLE
  2
VIEW
  5
6
330
0
100
AcDbSymbolTable
 70
     0
  0
ENDTAB
  0
TABLE
  2
UCS
  5
7
330
0
100
AcDbSymbolTable
 70
     0
  0
ENDTAB
  0
TABLE
  2
APPID
  5
9
330
0
100
AcDbSymbolTable
 70
     1
  0
APPID
  5
12
330
9
100
AcDbSymbolTableRecord
100
AcDbRegAppTableRecord
  2
ACAD
 70
     0
  0
ENDTAB
  0
TABLE
  2
DIMSTYLE
  5
A
330
0
100
AcDbSymbolTable
 70
     1
100
AcDbDimStyleTable
  0
DIMSTYLE
105
27
330
A
100
AcDbSymbolTableRecord
100
AcDbDimStyleTableRecord
  2
ISO-25
 70
     0
 41
2.5
 42
0.625
 43
3.75
 44
1.25
 73
     0
 74
     0
 77
     1
 78
     8
140
2.5
141
2.5
143
0.03937007874016
147
0.625
171
     3
172
     1
271
     2
272
     2
274
     3
278
    44
283
     0
284
     8
340
11
  0
ENDTAB
  0
TABLE
  2
BLOCK_RECORD
  5
1
330
0
100
AcDbSymbolTable
 70
     1
  0
BLOCK_RECORD
  5
1F
330
1
100
AcDbSymbolTableRecord
100
AcDbBlockTableRecord
  2
*Model_Space
340
22
  0
BLOCK_RECORD
  5
1B
330
1
100
AcDbSymbolTableRecord
100
AcDbBlockTableRecord
  2
*Paper_Space
340
1E
  0
BLOCK_RECORD
  5
23
330
1
100
AcDbSymbolTableRecord
100
AcDbBlockTableRecord
  2
*Paper_Space0
340
26
  0
ENDTAB
  0
ENDSEC
  0
SECTION
  2
BLOCKS
  0
BLOCK
  5
20
330
1F
100
AcDbEntity
  8
0
100
AcDbBlockBegin
  2
*Model_Space
 70
     0
 10
0.0
 20
0.0
 30
0.0
  3
*Model_Space
  1

  0
ENDBLK
  5
21
330
1F
100
AcDbEntity
  8
0
100
AcDbBlockEnd
  0
BLOCK
  5
1C
330
1B
100
AcDbEntity
 67
     1
  8
0
100
AcDbBlockBegin
  2
*Paper_Space
 70
     0
 10
0.0
 20
0.0
 30
0.0
  3
*Paper_Space
  1

  0
ENDBLK
  5
1D
330
1B
100
AcDbEntity
 67
     1
  8
0
100
AcDbBlockEnd
  0
BLOCK
  5
24
330
23
100
AcDbEntity
  8
0
100
AcDbBlockBegin
  2
*Paper_Space0
 70
     0
 10
0.0
 20
0.0
 30
0.0
  3
*Paper_Space0
  1

  0
ENDBLK
  5
25
330
23
100
AcDbEntity
  8
0
100
AcDbBlockEnd
  0
ENDSEC
  0
SECTION
  2
ENTITIES
  0
TEXT
  5
45
330
1F
100
AcDbEntity
  8
F-4
  6
Continuous
 62
     6
370
     0
100
AcDbText
 10
-117.727036705616
 20
-1109.952245209508
 30
0.0
 40
30.48
  1
鋳鉄製　たて引き用　シート防水用　　　ＡＬＣ＝１００
 41
0.7980769230769229
  7
ＭＳ ゴシック
100
AcDbText
  0
LINE
  5
46
330
1F
100
AcDbEntity
  8
0-0
  6
Continuous
 62
     3
370
     9
100
AcDbLine
 10
-482.7250694219084
 20
95.13517268004009
 30
0.0
 11
-479.3915601313678
 21
121.8017623654286
 31
0.0
  0
LINE
  5
47
330
1F
100
AcDbEntity
  8
0-0
  6
Continuous
 62
     3
370
     9
100
AcDbLine
 10
-482.7250694219084
 20
95.13517268004009
 30
0.0
 11
-472.7250364299322
 21
95.13517268004009
 31
0.0
  0
LINE
  5
48
330
1F
100
AcDbEntity
  8
0-0
  6
Continuous
 62
     3
370
     9
100
AcDbLine
 10
-476.0582982806499
 20
121.8017623654286
 30
0.0
 11
-436.5395604876811
 21
111.2128225955807
 31
0.0
  0
LINE
  5
49
330
1F
100
AcDbEntity
  8
0-0
  6
Continuous
 62
     3
370
     9
100
AcDbLine
 10
-426.8802521314735
 20
108.6243546109945
 30
0.0
 11
-417.2208200553542
 21
106.0363815060536
 31
0.0
  0
LINE
  5
4A
330
1F
100
AcDbEntity
  8
0-0
  6
Continuous
 62
     3
370
     9
100
AcDbLine
 10
-399.8921143965707
 20
101.3931732343052
 30
0.0
 11
-407.5615116991464
 21
103.4481609612901
 31
0.0
  0
LINE
  5
4B
330
1F
100
AcDbEntity
  8
0-0
  6
Continuous
 62
     3
370
     9
100
AcDbLine
 10
-396.0738704934879
 20
91.92488842117186
 30
0.0
 11
-397.4892262789608
 21
98.84157378329192
 31
0.0
  0
LINE
  5
4C
330
1F
100
AcDbEntity
  8
0-0
  6
Continuous
 62
     3
370
     9
100
AcDbLine
 10
-375.1125007985975
 20
84.40049085466015
 30
0.0
 11
-393.670982375878
 21
89.37328897015831
 31
0.0
  0
LINE
  5
4D
330
1F
100
AcDbEntity
  8
0-0
  6
Continuous
 62
     3
370
     9
100
AcDbLine
 10
-367.0716963222462
 20
90.691153465513
 30
0.0
 11
-371.7557321647292
 21
85.40880813189816
 31
0.0
  0
LINE
  5
4E
330
1F
100
AcDbEntity
  8
0-0
  6
JWW_DASHED1
 62
     3
370
     9
100
AcDbLine
 10
-363.9297054544254
 20
74.13767677104502
 30
0.0
 11
-366.5637023663764
 21
71.16765657995572
 31
0.0
  0
LINE
  5
4F
330
1F
100
AcDbEntity
  8
0-0
  6
Continuous
 62
     3
370
     9
100
AcDbLine
 10
-408.4866891959792
 20
86.076895653013
 30
0.0
 11
-407.6909227263848
 21
82.18788396065676
 31
0.0
  0
LINE
  5
50
330
1F
100
AcDbEntity
  8
0-0
  6
Continuous
 62
     3
370
     9
100
AcDbLine
 10
-413.2927128710214
 20
91.17984711521743
 30
0.0
 11
-443.9185871583949
 21
99.3861888329117
 31
0.0
  0
LINE
  5
51
330
1F
100
AcDbEntity
  8
0-0
  6
Continuous
 62
     3
370
     9
100
AcDbLine
 10
-363.7150514082895
 20
91.69947074275129
 30
0.0
 11
-356.0456541057134
 21
89.64423557594372
 31
0.0
  0
LINE
  5
52
330
1F
100
AcDbEntity
  8
0-0
  6
Continuous
 62
     3
370
     9
100
AcDbLine
 10
-391.9009216046577
 20
75.09526888464322
 30
0.0
 11
-404.0863431101475
 21
78.36048478413645
 31
0.0
  0
LINE
  5
53
330
1F
100
AcDbEntity
  8
0-0
  6
JWW_DASHED1
 62
     3
370
     9
100
AcDbLine
 10
-371.5987315972673
 20
69.65555182383227
 30
0.0
 11
-391.9007978847462
 21
75.09526888464322
 31
0.0
  0
LINE
  5
54
330
1F
100
AcDbEntity
  8
0-0
  6
JWW_DASHED1
 62
     3
370
     9
100
AcDbLine
 10
-339.7450609099785
 20
71.47324476091015
 30
0.0
 11
-357.2161681866889
 21
76.1543113255216
 31
0.0
  0
LINE
  5
55
330
1F
100
AcDbEntity
  8
0-0
  6
JWW_DASHED1
 62
     3
370
     9
100
AcDbLine
 10
-332.4078515692902
 20
63.03257753118011
 30
0.0
 11
-330.1104965360342
 21
44.32241534262438
 31
0.0
  0
LINE
  5
56
330
1F
100
AcDbEntity
  8
0-0
  6
Continuous
 62
     3
370
     9
100
AcDbLine
 10
-327.6072715703459
 20
82.02432623789477
 30
0.0
 11
-346.3862220295941
 21
87.05601503118018
 31
0.0
  0
LINE
  5
57
330
1F
100
AcDbEntity
  8
0-0
  6
Continuous
 62
     3
370
     9
100
AcDbLine
 10
-331.9211374381667
 20
25.82109236437283
 30
0.0
 11
-329.9276385071068
 21
35.78895817940669
 31
0.0
  0
LINE
  5
58
330
1F
100
AcDbEntity
  8
0-0
  6
JWW_DASHED1
 62
     3
370
     9
100
AcDbLine
 10
-319.1970394388004
 20
64.84705375056372
 30
0.0
 11
-320.2699385097462
 21
73.58390644798774
 31
0.0
  0
LINE
  5
59
330
1F
100
AcDbEntity
  8
0-0
  6
JWW_DASHED1
 62
     3
370
     9
100
AcDbLine
 10
-268.8468708498011
 20
53.21441280884081
 30
0.0
 11
-309.969266133268
 21
56.0899109876835
 31
0.0
  0
LINE
  5
5A
330
1F
100
AcDbEntity
  8
0-0
  6
Continuous
 62
     3
370
     9
100
AcDbLine
 10
-247.2003402860342
 20
31.60054430166163
 30
0.0
 11
-237.6911041822548
 21
-101.5317304291238
 31
0.0
  0
LINE
  5
5B
330
1F
100
AcDbEntity
  8
0-0
  6
Continuous
 62
     3
370
     9
100
AcDbLine
 10
-260.3948213882303
 20
29.18083027611267
 30
0.0
 11
-251.0584220005613
 21
-101.5317304291238
 31
0.0
  0
LINE
  5
5C
330
1F
100
AcDbEntity
  8
0-0
  6
Continuous
 62
     3
370
     9
100
AcDbLine
 10
-271.7018315233652
 20
73.1513816380216
 30
0.0
 11
-266.0081174846196
 21
52.84003635719365
 31
0.0
  0
LINE
  5
5D
330
1F
100
AcDbEntity
  8
0-0
  6
Continuous
 62
     3
370
     9
100
AcDbLine
 10
183.9417759512968
 20
95.13517268004009
 30
0.0
 11
173.9417429593205
 21
95.13517268004009
 31
0.0
  0
LINE
  5
5E
330
1F
100
AcDbEntity
  8
0-0
  6
Continuous
 62
     3
370
     9
100
AcDbLine
 10
177.2747573702158
 20
121.8017623654286
 30
0.0
 11
137.7561432971582
 21
111.2128225955807
 31
0.0
  0
LINE
  5
5F
330
1F
100
AcDbEntity
  8
0-0
  6
Continuous
 62
     3
370
     9
100
AcDbLine
 10
128.0970823807733
 20
108.6243546109945
 30
0.0
 11
118.4375265847429
 21
106.0363815060536
 31
0.0
  0
LINE
  5
60
330
1F
100
AcDbEntity
  8
0-0
  6
Continuous
 62
     3
370
     9
100
AcDbLine
 10
65.14641198381369
 20
74.13767677104502
 30
0.0
 11
67.7806563355874
 21
71.16765657995572
 31
0.0
  0
LINE
  5
61
330
1F
100
AcDbEntity
  8
0-0
  6
Continuous
 62
     3
370
     9
100
AcDbLine
 10
109.7033957253679
 20
86.076895653013
 30
0.0
 11
108.9076292557733
 21
82.18788396065676
 31
0.0
  0
LINE
  5
62
330
1F
100
AcDbEntity
  8
0-0
  6
Continuous
 62
     3
370
     9
100
AcDbLine
 10
114.5091719605874
 20
91.17984711521743
 30
0.0
 11
145.1352936877832
 21
99.3861888329117
 31
0.0
  0
LINE
  5
63
330
1F
100
AcDbEntity
  8
0-0
  6
Continuous
 62
     3
370
     9
100
AcDbLine
 10
93.11799929377983
 20
75.09526888464322
 30
0.0
 11
105.30342079927
 21
78.36048478413645
 31
0.0
  0
LINE
  5
64
330
1F
100
AcDbEntity
  8
0-0
  6
Continuous
 62
     3
370
     9
100
AcDbLine
 10
72.81506696692176
 20
69.65555182383227
 30
0.0
 11
93.1175044141348
 21
75.09526888464322
 31
0.0
  0
LINE
  5
65
330
1F
100
AcDbEntity
  8
0-0
  6
Continuous
 62
     3
370
     9
100
AcDbLine
 10
40.96164371945562
 20
71.47324476091015
 30
0.0
 11
58.43287471607724
 21
76.1543113255216
 31
0.0
  0
LINE
  5
66
330
1F
100
AcDbEntity
  8
0-0
  6
Continuous
 62
     3
370
     9
100
AcDbLine
 10
33.62455809867853
 20
63.03257753118011
 30
0.0
 11
31.32683190568869
 21
44.32241534262438
 31
0.0
  0
LINE
  5
67
330
1F
100
AcDbEntity
  8
0-0
  6
Continuous
 62
     3
370
     9
100
AcDbLine
 10
183.9417759512968
 20
95.13517268004009
 30
0.0
 11
180.6082666607564
 21
121.8017623654286
 31
0.0
  0
LINE
  5
68
330
1F
100
AcDbEntity
  8
0-0
  6
Continuous
 62
     3
370
     9
100
AcDbLine
 10
-47.72487147005036
 20
-101.5317304291238
 30
0.0
 11
-251.0584220005613
 21
-101.5317304291238
 31
0.0
  0
LINE
  5
69
330
1F
100
AcDbEntity
  8
0-0
  6
Continuous
 62
     3
370
     9
100
AcDbLine
 10
-38.38847208238134
 20
29.18083027611267
 30
0.0
 11
-47.72487147005036
 21
-101.5317304291238
 31
0.0
  0
LINE
  5
6A
330
1F
100
AcDbEntity
  8
0-0
  6
Continuous
 62
     3
370
     9
100
AcDbLine
 10
-28.41355423240243
 20
38.46848401872258
 30
0.0
 11
24.70979616877983
 21
38.46848401872258
 31
0.0
  0
LINE
  5
6B
330
1F
100
AcDbEntity
  8
0-0
  6
Continuous
 62
     3
370
     9
100
AcDbLine
 10
-51.58295318457716
 20
31.60054430166163
 30
0.0
 11
-61.09206556844539
 21
-101.5317304291238
 31
0.0
  0
LINE
  5
6C
330
1F
100
AcDbEntity
  8
0-0
  6
Continuous
 62
     3
370
     9
100
AcDbLine
 10
-29.93667006063289
 20
53.21441280884081
 30
0.0
 11
11.18572522283401
 21
56.0899109876835
 31
0.0
  0
LINE
  5
6D
330
1F
100
AcDbEntity
  8
0-0
  6
Continuous
 62
     3
370
     9
100
AcDbLine
 10
20.41374596818869
 20
64.84705375056372
 30
0.0
 11
21.4866450391348
 21
73.58390644798774
 31
0.0
  0
LINE
  5
6E
330
1F
100
AcDbEntity
  8
0-0
  6
Continuous
 62
     3
370
     9
100
AcDbLine
 10
28.8237306599116
 20
82.02432623789477
 30
0.0
 11
47.60243367933739
 21
87.05601503118018
 31
0.0
  0
LINE
  5
6F
330
1F
100
AcDbEntity
  8
0-0
  6
Continuous
 62
     3
370
     9
100
AcDbLine
 10
64.93163421776657
 20
91.69947074275129
 30
0.0
 11
57.26198947536787
 21
89.64423557594372
 31
0.0
  0
LINE
  5
70
330
1F
100
AcDbEntity
  8
0-0
  6
Continuous
 62
     3
370
     9
100
AcDbLine
 10
68.2884028516348
 20
90.691153465513
 30
0.0
 11
72.97243869411787
 21
85.40880813189816
 31
0.0
  0
LINE
  5
71
330
1F
100
AcDbEntity
  8
0-0
  6
Continuous
 62
     3
370
     9
100
AcDbLine
 10
76.3292073279861
 20
84.40049085466015
 30
0.0
 11
94.88768890526657
 21
89.37328897015831
 31
0.0
  0
LINE
  5
72
330
1F
100
AcDbEntity
  8
0-0
  6
Continuous
 62
     3
370
     9
100
AcDbLine
 10
97.29082446269885
 20
91.92488842117186
 30
0.0
 11
98.70618024817176
 21
98.84157378329192
 31
0.0
  0
LINE
  5
73
330
1F
100
AcDbEntity
  8
0-0
  6
Continuous
 62
     3
370
     9
100
AcDbLine
 10
101.108820925959
 20
101.3929257944825
 30
0.0
 11
108.7784656683577
 21
103.4481609612901
 31
0.0
  0
LINE
  5
74
330
1F
100
AcDbEntity
  8
0-1
  6
Continuous
 62
     2
370
     9
100
AcDbLine
 10
-449.3917085952615
 20
114.6564426071937
 30
0.0
 11
-447.7250776699025
 21
121.3229663086297
 31
0.0
  0
LINE
  5
75
330
1F
100
AcDbEntity
  8
0-1
  6
Continuous
 62
     2
370
     9
100
AcDbLine
 10
-429.1951753921365
 20
121.3229663086297
 30
0.0
 11
-447.7250776699025
 21
121.3229663086297
 31
0.0
  0
LINE
  5
76
330
1F
100
AcDbEntity
  8
0-1
  6
Continuous
 62
     2
370
     9
100
AcDbLine
 10
-384.3916178673264
 20
134.6562611513239
 30
0.0
 11
-394.3916508593027
 21
134.6562611513239
 31
0.0
  0
LINE
  5
77
330
1F
100
AcDbEntity
  8
0-1
  6
Continuous
 62
     2
370
     9
100
AcDbLine
 10
-396.0350224413339
 20
123.9252909232833
 30
0.0
 11
-394.3916508593027
 21
134.6562611513239
 31
0.0
  0
LINE
  5
78
330
1F
100
AcDbEntity
  8
0-1
  6
Continuous
 62
     2
370
     9
100
AcDbLine
 10
-384.3916178673264
 20
134.6562611513239
 30
0.0
 11
-380.1647270971619
 21
112.1031110774219
 31
0.0
  0
LINE
  5
79
330
1F
100
AcDbEntity
  8
0-1
  6
Continuous
 62
     2
370
     9
100
AcDbLine
 10
150.6081676848272
 20
114.6564426071937
 30
0.0
 11
148.9419079192022
 21
121.3229663086297
 31
0.0
  0
LINE
  5
7A
330
1F
100
AcDbEntity
  8
0-1
  6
Continuous
 62
     2
370
     9
100
AcDbLine
 10
130.4116344817022
 20
121.3229663086297
 30
0.0
 11
148.9419079192022
 21
121.3229663086297
 31
0.0
  0
LINE
  5
7B
330
1F
100
AcDbEntity
  8
0-1
  6
Continuous
 62
     2
370
     9
100
AcDbLine
 10
97.25172897072255
 20
123.9252909232833
 30
0.0
 11
95.60823366877983
 21
134.6562611513239
 31
0.0
  0
LINE
  5
7C
330
1F
100
AcDbEntity
  8
0-1
  6
Continuous
 62
     2
370
     9
100
AcDbLine
 10
-312.725127157867
 20
96.32288382868879
 30
0.0
 11
-309.3917415872378
 21
79.65632713527654
 31
0.0
  0
LINE
  5
7D
330
1F
100
AcDbEntity
  8
0-1
  6
Continuous
 62
     2
370
     9
100
AcDbLine
 10
-272.7249951899615
 20
96.32288382868879
 30
0.0
 11
-276.0583807605907
 21
79.65632713527654
 31
0.0
  0
LINE
  5
7E
330
1F
100
AcDbEntity
  8
0-1
  6
Continuous
 62
     2
370
     9
100
AcDbLine
 10
-251.9209972222673
 20
92.30347134980363
 30
0.0
 11
-249.3915436353798
 21
79.65632713527654
 31
0.0
  0
LINE
  5
7F
330
1F
100
AcDbEntity
  8
0-1
  6
Continuous
 62
     2
370
     9
100
AcDbLine
 10
-256.8240173077826
 20
96.32288382868879
 30
0.0
 11
-335.8932889109287
 21
96.32288382868879
 31
0.0
  0
LINE
  5
80
330
1F
100
AcDbEntity
  8
0-1
  6
Continuous
 62
     2
370
     9
100
AcDbLine
 10
-335.8932889109287
 20
96.32288382868879
 30
0.0
 11
-375.3375473172842
 21
106.892028412726
 31
0.0
  0
LINE
  5
81
330
1F
100
AcDbEntity
  8
0-1
  6
Continuous
 62
     2
370
     9
100
AcDbLine
 10
-408.5079690207259
 20
115.7798194019573
 30
0.0
 11
-429.1951753921365
 21
121.3229663086297
 31
0.0
  0
LINE
  5
82
330
1F
100
AcDbEntity
  8
0-1
  6
JWW_DASHED1
 62
     2
370
     9
100
AcDbLine
 10
-375.3375473172842
 20
106.892028412726
 30
0.0
 11
-408.5079690207259
 21
115.7798194019573
 31
0.0
  0
LINE
  5
83
330
1F
100
AcDbEntity
  8
0-1
  6
Continuous
 62
     2
370
     9
100
AcDbLine
 10
38.20813337317176
 20
110.5321156435114
 30
0.0
 11
36.35085006447255
 21
100.0951039247614
 31
0.0
  0
LINE
  5
84
330
1F
100
AcDbEntity
  8
0-1
  6
JWW_DASHED1
 62
     2
370
     9
100
AcDbLine
 10
82.62457129546917
 20
118.7352406435114
 30
0.0
 11
81.38143362655015
 21
112.1031110774219
 31
0.0
  0
LINE
  5
85
330
1F
100
AcDbEntity
  8
0-1
  6
Continuous
 62
     2
370
     9
100
AcDbLine
 10
18.4495686561111
 20
91.3228673327005
 30
0.0
 11
31.51290665231031
 21
94.82315106369711
 31
0.0
  0
LINE
  5
86
330
1F
100
AcDbEntity
  8
0-1
  6
JWW_DASHED1
 62
     2
370
     9
100
AcDbLine
 10
31.51290665231031
 20
94.82315106369711
 30
0.0
 11
109.7246755501145
 21
115.7800668417799
 31
0.0
  0
LINE
  5
87
330
1F
100
AcDbEntity
  8
0-1
  6
Continuous
 62
     2
370
     9
100
AcDbLine
 10
109.7246755501145
 20
115.7800668417799
 30
0.0
 11
130.4116344817022
 21
121.3229663086297
 31
0.0
  0
LINE
  5
88
330
1F
100
AcDbEntity
  8
0-1
  6
Continuous
 62
     2
370
     9
100
AcDbLine
 10
85.60820067680353
 20
134.6562611513239
 30
0.0
 11
82.62457129546917
 21
118.7352406435114
 31
0.0
  0
LINE
  5
89
330
1F
100
AcDbEntity
  8
0-1
  6
Continuous
 62
     2
370
     9
100
AcDbLine
 10
85.60820067680353
 20
134.6562611513239
 30
0.0
 11
95.60823366877983
 21
134.6562611513239
 31
0.0
  0
LINE
  5
8A
330
1F
100
AcDbEntity
  8
0-1
  6
Continuous
 62
     2
370
     9
100
AcDbLine
 10
-279.3917663312201
 20
59.05659074116762
 30
0.0
 11
-306.0583560166084
 21
59.05659074116762
 31
0.0
  0
LINE
  5
8B
330
1F
100
AcDbEntity
  8
0-1
  6
Continuous
 62
     2
370
     9
100
AcDbLine
 10
-306.0583560166084
 20
59.05659074116762
 30
0.0
 11
-303.8034369129344
 21
56.80191907731633
 31
0.0
  0
LINE
  5
8C
330
1F
100
AcDbEntity
  8
0-1
  6
Continuous
 62
     2
370
     9
100
AcDbLine
 10
-303.8034369129344
 20
56.80191907731633
 30
0.0
 11
-281.6466854348941
 21
56.80191907731633
 31
0.0
  0
LINE
  5
8D
330
1F
100
AcDbEntity
  8
0-1
  6
Continuous
 62
     2
370
     9
100
AcDbLine
 10
-281.6466854348941
 20
56.80191907731633
 30
0.0
 11
-279.3917663312201
 21
59.05659074116762
 31
0.0
  0
LINE
  5
8E
330
1F
100
AcDbEntity
  8
0-1
  6
Continuous
 62
     2
370
     9
100
AcDbLine
 10
-317.7252673737665
 20
115.5838470624302
 30
0.0
 11
-317.7252673737665
 21
96.32288382868879
 31
0.0
  0
LINE
  5
8F
330
1F
100
AcDbEntity
  8
0-1
  6
Continuous
 62
     2
370
     9
100
AcDbLine
 10
-267.7249786939735
 20
115.5838470624302
 30
0.0
 11
-267.7249786939735
 21
96.32288382868879
 31
0.0
  0
LINE
  5
90
330
1F
100
AcDbEntity
  8
0-1
  6
Continuous
 62
     2
370
     9
100
AcDbLine
 10
-317.7252673737665
 20
96.32288382868879
 30
0.0
 11
-267.7249786939735
 21
96.32288382868879
 31
0.0
  0
LINE
  5
91
330
1F
100
AcDbEntity
  8
0-1
  6
Continuous
 62
     2
370
     9
100
AcDbLine
 10
-305.2159471404472
 20
115.5838470624302
 30
0.0
 11
-305.2159471404472
 21
96.32288382868879
 31
0.0
  0
LINE
  5
92
330
1F
100
AcDbEntity
  8
0-1
  6
Continuous
 62
     2
370
     9
100
AcDbLine
 10
-280.2341752073813
 20
115.5838470624302
 30
0.0
 11
-280.2341752073813
 21
96.32288382868879
 31
0.0
  0
LINE
  5
93
330
1F
100
AcDbEntity
  8
0-1
  6
Continuous
 62
     2
370
     9
100
AcDbLine
 10
-311.4703598172842
 20
117.9897044579117
 30
0.0
 11
-273.9797625305443
 21
117.9897044579117
 31
0.0
  0
LINE
  5
94
330
1F
100
AcDbEntity
  8
0-1
  6
Continuous
 62
     2
370
     9
100
AcDbLine
 10
-306.0583560166084
 20
187.8799484005849
 30
0.0
 11
-303.8034369129344
 21
190.1351149440815
 31
0.0
  0
LINE
  5
95
330
1F
100
AcDbEntity
  8
0-1
  6
Continuous
 62
     2
370
     9
100
AcDbLine
 10
-281.6466854348941
 20
190.1351149440815
 30
0.0
 11
-279.3917663312201
 21
187.8799484005849
 31
0.0
  0
LINE
  5
96
330
1F
100
AcDbEntity
  8
0-1
  6
Continuous
 62
     2
370
     9
100
AcDbLine
 10
-306.0583560166084
 20
79.65632713527654
 30
0.0
 11
-318.7687211058188
 21
79.65632713527654
 31
0.0
  0
LINE
  5
97
330
1F
100
AcDbEntity
  8
0-1
  6
Continuous
 62
     2
370
     9
100
AcDbLine
 10
-328.0191351551219
 20
998.6587157543645
 30
0.0
 11
-335.1110079116678
 21
1005.75058851091
 31
0.0
  0
LINE
  5
98
330
1F
100
AcDbEntity
  8
0-1
  6
Continuous
 62
     2
370
     9
100
AcDbLine
 10
-321.1807644968662
 20
998.8915566274638
 30
0.0
 11
-334.164798029911
 21
1011.87571388042
 31
0.0
  0
LINE
  5
99
330
1F
100
AcDbEntity
  8
0-1
  6
Continuous
 62
     2
370
     9
100
AcDbLine
 10
-370.9473462641803
 20
924.3047811312647
 30
0.0
 11
-380.6349864800798
 21
926.9004248707072
 31
0.0
  0
LINE
  5
9A
330
1F
100
AcDbEntity
  8
0-1
  6
Continuous
 62
     2
370
     9
100
AcDbLine
 10
-367.7301336902782
 20
918.266259699677
 30
0.0
 11
-385.4663727369423
 21
923.0185889332072
 31
0.0
  0
LINE
  5
9B
330
1F
100
AcDbEntity
  8
0-1
  6
Continuous
 62
     2
370
     9
100
AcDbLine
 10
-385.4663727369423
 20
923.0185889332072
 30
0.0
 11
-380.6349864800798
 21
926.9004248707072
 31
0.0
  0
LINE
  5
9C
330
1F
100
AcDbEntity
  8
0-1
  6
Continuous
 62
     2
370
     9
100
AcDbLine
 10
-370.9473462641803
 20
924.3047811312647
 30
0.0
 11
-367.7301336902782
 21
918.266259699677
 31
0.0
  0
LINE
  5
9D
330
1F
100
AcDbEntity
  8
0-1
  6
Continuous
 62
     2
370
     9
100
AcDbLine
 10
-328.0191351551219
 20
998.6587157543645
 30
0.0
 11
-321.1807644968662
 21
998.8915566274638
 31
0.0
  0
LINE
  5
9E
330
1F
100
AcDbEntity
  8
0-1
  6
Continuous
 62
     2
370
     9
100
AcDbLine
 10
-334.164798029911
 20
1011.87571388042
 30
0.0
 11
-335.1110079116678
 21
1005.75058851091
 31
0.0
  0
LINE
  5
9F
330
1F
100
AcDbEntity
  8
0-1
  6
Continuous
 62
     2
370
     9
100
AcDbLine
 10
-227.7377135968451
 20
1067.514537518511
 30
0.0
 11
-230.3332336163764
 21
1077.201806574677
 31
0.0
  0
LINE
  5
A0
330
1F
100
AcDbEntity
  8
0-1
  6
Continuous
 62
     2
370
     9
100
AcDbLine
 10
-221.6990684453459
 20
1064.297324944609
 30
0.0
 11
-226.4513976788764
 21
1082.033563991273
 31
0.0
  0
LINE
  5
A1
330
1F
100
AcDbEntity
  8
0-1
  6
Continuous
 62
     2
370
     9
100
AcDbLine
 10
-302.0916482199446
 20
1024.585955249719
 30
0.0
 11
-309.183397256579
 21
1031.677828006265
 31
0.0
  0
LINE
  5
A2
330
1F
100
AcDbEntity
  8
0-1
  6
Continuous
 62
     2
370
     9
100
AcDbLine
 10
-302.324736532867
 20
1017.747955751197
 30
0.0
 11
-315.3083989061777
 21
1030.731865564331
 31
0.0
  0
LINE
  5
A3
330
1F
100
AcDbEntity
  8
0-1
  6
Continuous
 62
     2
370
     9
100
AcDbLine
 10
-315.3083989061777
 20
1030.731865564331
 30
0.0
 11
-309.183397256579
 21
1031.677828006265
 31
0.0
  0
LINE
  5
A4
330
1F
100
AcDbEntity
  8
0-1
  6
Continuous
 62
     2
370
     9
100
AcDbLine
 10
-302.0916482199446
 20
1024.585955249719
 30
0.0
 11
-302.324736532867
 21
1017.747955751197
 31
0.0
  0
LINE
  5
A5
330
1F
100
AcDbEntity
  8
0-1
  6
Continuous
 62
     2
370
     9
100
AcDbLine
 10
-227.7377135968451
 20
1067.514537518511
 30
0.0
 11
-221.6990684453459
 21
1064.297324944609
 31
0.0
  0
LINE
  5
A6
330
1F
100
AcDbEntity
  8
0-1
  6
Continuous
 62
     2
370
     9
100
AcDbLine
 10
-226.4513976788764
 20
1082.033563991273
 30
0.0
 11
-230.3332336163764
 21
1077.201806574677
 31
0.0
  0
LINE
  5
A7
330
1F
100
AcDbEntity
  8
0-1
  6
Continuous
 62
     2
370
     9
100
AcDbLine
 10
-106.4633737662918
 20
1077.004597036037
 30
0.0
 11
-103.8677300268493
 21
1086.692360971847
 31
0.0
  0
LINE
  5
A8
330
1F
100
AcDbEntity
  8
0-1
  6
Continuous
 62
     2
370
     9
100
AcDbLine
 10
-102.8422156819378
 20
1071.199411357194
 30
0.0
 11
-98.08988644840765
 21
1088.935402964035
 31
0.0
  0
LINE
  5
A9
330
1F
100
AcDbEntity
  8
0-1
  6
Continuous
 62
     2
370
     9
100
AcDbLine
 10
-192.3202908640538
 20
1077.004597036037
 30
0.0
 11
-194.9160583234077
 21
1086.692113532025
 31
0.0
  0
LINE
  5
AA
330
1F
100
AcDbEntity
  8
0-1
  6
Continuous
 62
     2
370
     9
100
AcDbLine
 10
-195.9409540687624
 20
1071.199411357194
 30
0.0
 11
-200.693407022204
 21
1088.935402964035
 31
0.0
  0
LINE
  5
AB
330
1F
100
AcDbEntity
  8
0-1
  6
Continuous
 62
     2
370
     9
100
AcDbLine
 10
-200.693407022204
 20
1088.935402964035
 30
0.0
 11
-194.9160583234077
 21
1086.692113532025
 31
0.0
  0
LINE
  5
AC
330
1F
100
AcDbEntity
  8
0-1
  6
Continuous
 62
     2
370
     9
100
AcDbLine
 10
-192.3202908640538
 20
1077.004597036037
 30
0.0
 11
-195.9409540687624
 21
1071.199411357194
 31
0.0
  0
LINE
  5
AD
330
1F
100
AcDbEntity
  8
0-1
  6
Continuous
 62
     2
370
     9
100
AcDbLine
 10
-106.4633737662918
 20
1077.004597036037
 30
0.0
 11
-102.8422156819378
 21
1071.199411357194
 31
0.0
  0
LINE
  5
AE
330
1F
100
AcDbEntity
  8
0-1
  6
Continuous
 62
     2
370
     9
100
AcDbLine
 10
-98.08988644840765
 20
1088.935402964035
 30
0.0
 11
-103.8677300268493
 21
1086.692360971847
 31
0.0
  0
LINE
  5
AF
330
1F
100
AcDbEntity
  8
0-1
  6
Continuous
 62
     2
370
     9
100
AcDbLine
 10
3.30823102942178
 20
1024.585955249719
 30
0.0
 11
10.39985634614496
 21
1031.67832288591
 31
0.0
  0
LINE
  5
B0
330
1F
100
AcDbEntity
  8
0-1
  6
Continuous
 62
     2
370
     9
100
AcDbLine
 10
3.541319342344185
 20
1017.747955751197
 30
0.0
 11
16.52498171565483
 21
1030.732113004153
 31
0.0
  0
LINE
  5
B1
330
1F
100
AcDbEntity
  8
0-1
  6
Continuous
 62
     2
370
     9
100
AcDbLine
 10
-71.0455798737665
 20
1067.514537518511
 30
0.0
 11
-68.44993613432378
 21
1077.202301454322
 31
0.0
  0
LINE
  5
B2
330
1F
100
AcDbEntity
  8
0-1
  6
Continuous
 62
     2
370
     9
100
AcDbLine
 10
-77.08434874517691
 20
1064.297324944609
 30
0.0
 11
-72.33177207182378
 21
1082.033563991273
 31
0.0
  0
LINE
  5
B3
330
1F
100
AcDbEntity
  8
0-1
  6
Continuous
 62
     2
370
     9
100
AcDbLine
 10
-72.33177207182378
 20
1082.033563991273
 30
0.0
 11
-68.44993613432378
 21
1077.202301454322
 31
0.0
  0
LINE
  5
B4
330
1F
100
AcDbEntity
  8
0-1
  6
Continuous
 62
     2
370
     9
100
AcDbLine
 10
-71.0455798737665
 20
1067.514537518511
 30
0.0
 11
-77.08434874517691
 21
1064.297324944609
 31
0.0
  0
LINE
  5
B5
330
1F
100
AcDbEntity
  8
0-1
  6
Continuous
 62
     2
370
     9
100
AcDbLine
 10
3.30823102942178
 20
1024.585955249719
 30
0.0
 11
3.541319342344185
 21
1017.747955751197
 31
0.0
  0
LINE
  5
B6
330
1F
100
AcDbEntity
  8
0-1
  6
Continuous
 62
     2
370
     9
100
AcDbLine
 10
16.52498171565483
 20
1030.732113004153
 30
0.0
 11
10.39985634614496
 21
1031.67832288591
 31
0.0
  0
LINE
  5
B7
330
1F
100
AcDbEntity
  8
0-1
  6
Continuous
 62
     2
370
     9
100
AcDbLine
 10
72.16380535374626
 20
924.3047811312647
 30
0.0
 11
81.85156928955692
 21
926.9004248707072
 31
0.0
  0
LINE
  5
B8
330
1F
100
AcDbEntity
  8
0-1
  6
Continuous
 62
     2
370
     9
100
AcDbLine
 10
68.94659277984417
 20
918.266259699677
 30
0.0
 11
86.68307926633062
 21
923.0185889332072
 31
0.0
  0
LINE
  5
B9
330
1F
100
AcDbEntity
  8
0-1
  6
Continuous
 62
     2
370
     9
100
AcDbLine
 10
29.23547052477645
 20
998.6589631941871
 30
0.0
 11
36.32709584149964
 21
1005.75058851091
 31
0.0
  0
LINE
  5
BA
330
1F
100
AcDbEntity
  8
0-1
  6
Continuous
 62
     2
370
     9
100
AcDbLine
 10
22.39722358643192
 20
998.8915566274638
 30
0.0
 11
35.38138083938819
 21
1011.87571388042
 31
0.0
  0
LINE
  5
BB
330
1F
100
AcDbEntity
  8
0-1
  6
Continuous
 62
     2
370
     9
100
AcDbLine
 10
35.38138083938819
 20
1011.87571388042
 30
0.0
 11
36.32709584149964
 21
1005.75058851091
 31
0.0
  0
LINE
  5
BC
330
1F
100
AcDbEntity
  8
0-1
  6
Continuous
 62
     2
370
     9
100
AcDbLine
 10
29.23547052477645
 20
998.6589631941871
 30
0.0
 11
22.39722358643192
 21
998.8915566274638
 31
0.0
  0
LINE
  5
BD
330
1F
100
AcDbEntity
  8
0-1
  6
Continuous
 62
     2
370
     9
100
AcDbLine
 10
72.16380535374626
 20
924.3047811312647
 30
0.0
 11
68.94659277984417
 21
918.266259699677
 31
0.0
  0
LINE
  5
BE
330
1F
100
AcDbEntity
  8
0-1
  6
Continuous
 62
     2
370
     9
100
AcDbLine
 10
86.68307926633062
 20
923.0185889332072
 30
0.0
 11
81.85156928955692
 21
926.9004248707072
 31
0.0
  0
LINE
  5
BF
330
1F
100
AcDbEntity
  8
0-1
  6
Continuous
 62
     2
370
     9
100
AcDbLine
 10
81.65411231109417
 20
888.8872346785621
 30
0.0
 11
91.34187624690483
 21
891.4831258578272
 31
0.0
  0
LINE
  5
C0
330
1F
100
AcDbEntity
  8
0-1
  6
Continuous
 62
     2
370
     9
100
AcDbLine
 10
75.84867919242853
 20
892.5082690430045
 30
0.0
 11
93.58467079926996
 21
897.260598276535
 31
0.0
  0
LINE
  5
C1
330
1F
100
AcDbEntity
  8
0-1
  6
Continuous
 62
     2
370
     9
100
AcDbLine
 10
93.58467079926996
 20
897.260598276535
 30
0.0
 11
91.34187624690483
 21
891.4831258578272
 31
0.0
  0
LINE
  5
C2
330
1F
100
AcDbEntity
  8
0-1
  6
Continuous
 62
     2
370
     9
100
AcDbLine
 10
81.65411231109417
 20
888.8872346785621
 30
0.0
 11
75.84867919242853
 21
892.5082690430045
 31
0.0
  0
LINE
  5
C3
330
1F
100
AcDbEntity
  8
0-1
  6
Continuous
 62
     2
370
     9
100
AcDbLine
 10
82.27469138626319
 20
94.62099272860442
 30
0.0
 11
88.94170996734417
 21
96.40750824802993
 31
0.0
  0
LINE
  5
C4
330
1F
100
AcDbEntity
  8
0-1
  6
Continuous
 62
     2
370
     9
100
AcDbLine
 10
82.27469138626319
 20
94.62099272860442
 30
0.0
 11
78.94167697536787
 21
95.45338029194895
 31
0.0
  0
LINE
  5
C5
330
1F
100
AcDbEntity
  8
0-1
  6
Continuous
 62
     2
370
     9
100
AcDbLine
 10
19.9851801953848
 20
79.65632713527654
 30
0.0
 11
78.94167697536787
 21
95.45338029194895
 31
0.0
  0
LINE
  5
C6
330
1F
100
AcDbEntity
  8
0-1
  6
Continuous
 62
     2
370
     9
100
AcDbLine
 10
88.94170996734417
 20
96.40750824802993
 30
0.0
 11
92.2752192578848
 21
99.02616389097759
 31
0.0
  0
LINE
  5
C7
330
1F
100
AcDbEntity
  8
0-1
  6
Continuous
 62
     2
370
     9
100
AcDbLine
 10
92.2752192578848
 20
99.02616389097759
 30
0.0
 11
150.6081676848272
 21
114.6564426071937
 31
0.0
  0
LINE
  5
C8
330
1F
100
AcDbEntity
  8
0-1
  6
Continuous
 62
     2
370
     9
100
AcDbLine
 10
-381.0582322966973
 20
94.62099272860442
 30
0.0
 11
-387.7250034379556
 21
96.40750824802993
 31
0.0
  0
LINE
  5
C9
330
1F
100
AcDbEntity
  8
0-1
  6
Continuous
 62
     2
370
     9
100
AcDbLine
 10
-387.7250034379556
 20
96.40750824802993
 30
0.0
 11
-391.058389008585
 21
99.02616389097759
 31
0.0
  0
LINE
  5
CA
330
1F
100
AcDbEntity
  8
0-1
  6
Continuous
 62
     2
370
     9
100
AcDbLine
 10
-391.058389008585
 20
99.02616389097759
 30
0.0
 11
-449.3917085952615
 21
114.6564426071937
 31
0.0
  0
LINE
  5
CB
330
1F
100
AcDbEntity
  8
0-1
  6
Continuous
 62
     2
370
     9
100
AcDbLine
 10
-381.0582322966973
 20
94.62099272860442
 30
0.0
 11
-377.7249704459792
 21
95.45338029194895
 31
0.0
  0
LINE
  5
CC
330
1F
100
AcDbEntity
  8
0-1
  6
Continuous
 62
     2
370
     9
100
AcDbLine
 10
-380.4374057817056
 20
888.8872346785621
 30
0.0
 11
-390.1249222776938
 21
891.4831258578272
 31
0.0
  0
LINE
  5
CD
330
1F
100
AcDbEntity
  8
0-1
  6
Continuous
 62
     2
370
     9
100
AcDbLine
 10
-374.6318489431287
 20
892.5082690430045
 30
0.0
 11
-392.368211709704
 21
897.260598276535
 31
0.0
  0
LINE
  5
CE
330
1F
100
AcDbEntity
  8
0-1
  6
Continuous
 62
     2
370
     9
100
AcDbLine
 10
-392.368211709704
 20
897.260598276535
 30
0.0
 11
-390.1249222776938
 21
891.4831258578272
 31
0.0
  0
LINE
  5
CF
330
1F
100
AcDbEntity
  8
0-1
  6
Continuous
 62
     2
370
     9
100
AcDbLine
 10
-380.4374057817056
 20
888.8872346785621
 30
0.0
 11
-374.6318489431287
 21
892.5082690430045
 31
0.0
  0
LINE
  5
D0
330
1F
100
AcDbEntity
  8
0-1
  6
Continuous
 62
     2
370
     9
100
AcDbLine
 10
-279.3917663312201
 20
79.65632713527654
 30
0.0
 11
19.9851801953848
 21
79.65632713527654
 31
0.0
  0
LINE
  5
D1
330
1F
100
AcDbEntity
  8
0-1
  6
Continuous
 62
     2
370
     9
100
AcDbLine
 10
-3.41520383122015
 20
88.90538026555518
 30
0.0
 11
-6.057861136963378
 21
79.65632713527654
 31
0.0
  0
LINE
  5
D2
330
1F
100
AcDbEntity
  8
0-1
  6
Continuous
 62
     2
370
     9
100
AcDbLine
 10
-251.7250248827402
 20
91.3228673327005
 30
0.0
 11
18.4495686561111
 21
91.3228673327005
 31
0.0
  0
LINE
  5
D3
330
1F
100
AcDbEntity
  8
0-2
  6
Continuous
 62
     6
370
     9
100
AcDbLine
 10
44.77469138626319
 20
138.2221164353187
 30
0.0
 11
79.77505429800303
 21
138.2221164353187
 31
0.0
  0
LINE
  5
D4
330
1F
100
AcDbEntity
  8
0-2
  6
Continuous
 62
     6
370
     9
100
AcDbLine
 10
60.60787075703999
 20
141.5553782860367
 30
0.0
 11
63.94138004758062
 21
141.5553782860367
 31
0.0
  0
LINE
  5
D5
330
1F
100
AcDbEntity
  8
0-2
  6
Continuous
 62
     6
370
     9
100
AcDbLine
 10
63.94138004758062
 20
151.1619819600232
 30
0.0
 11
63.94138004758062
 21
141.5553782860367
 31
0.0
  0
LINE
  5
D6
330
1F
100
AcDbEntity
  8
0-2
  6
Continuous
 62
     6
370
     9
100
AcDbLine
 10
60.60787075703999
 20
151.1619819600232
 30
0.0
 11
60.60787075703999
 21
141.5553782860367
 31
0.0
  0
LINE
  5
D7
330
1F
100
AcDbEntity
  8
0-2
  6
Continuous
 62
     6
370
     9
100
AcDbLine
 10
53.94134705560433
 20
98.22198446741353
 30
0.0
 11
70.60790374901657
 21
98.22198446741353
 31
0.0
  0
LINE
  5
D8
330
1F
100
AcDbEntity
  8
0-2
  6
Continuous
 62
     6
370
     9
100
AcDbLine
 10
52.27459241033401
 20
99.88898655250622
 30
0.0
 11
72.27515327393192
 21
99.88898655250622
 31
0.0
  0
LINE
  5
D9
330
1F
100
AcDbEntity
  8
0-2
  6
Continuous
 62
     6
370
     9
100
AcDbLine
 10
52.27459241033401
 20
99.88898655250622
 30
0.0
 11
53.94134705560433
 21
98.22198446741353
 31
0.0
  0
LINE
  5
DA
330
1F
100
AcDbEntity
  8
0-2
  6
Continuous
 62
     6
370
     9
100
AcDbLine
 10
72.27515327393192
 20
99.88898655250622
 30
0.0
 11
70.60790374901657
 21
98.22198446741353
 31
0.0
  0
LINE
  5
DB
330
1F
100
AcDbEntity
  8
0-2
  6
Continuous
 62
     6
370
     9
100
AcDbLine
 10
70.60790374901657
 20
138.2221164353187
 30
0.0
 11
70.60790374901657
 21
98.22198446741353
 31
0.0
  0
LINE
  5
DC
330
1F
100
AcDbEntity
  8
0-2
  6
Continuous
 62
     6
370
     9
100
AcDbLine
 10
53.94134705560433
 20
138.2221164353187
 30
0.0
 11
53.94134705560433
 21
98.22198446741353
 31
0.0
  0
LINE
  5
DD
330
1F
100
AcDbEntity
  8
0-2
  6
Continuous
 62
     6
370
     9
100
AcDbLine
 10
52.27459241033401
 20
138.2221164353187
 30
0.0
 11
52.27459241033401
 21
99.88898655250622
 31
0.0
  0
LINE
  5
DE
330
1F
100
AcDbEntity
  8
0-2
  6
Continuous
 62
     6
370
     9
100
AcDbLine
 10
-374.8893100785806
 20
117.3933744853609
 30
0.0
 11
-377.7249704459792
 21
132.9897539458763
 31
0.0
  0
LINE
  5
DF
330
1F
100
AcDbEntity
  8
0-2
  6
Continuous
 62
     6
370
     9
100
AcDbLine
 10
-169.3917745792142
 20
264.4164259792377
 30
0.0
 11
-164.3916343633147
 21
249.5188165778443
 31
0.0
  0
LINE
  5
E0
330
1F
100
AcDbEntity
  8
0-2
  6
Continuous
 62
     6
370
     9
100
AcDbLine
 10
-194.3916096193324
 20
263.4402758789422
 30
0.0
 11
-199.3916261153207
 21
248.1277098949893
 31
0.0
  0
LINE
  5
E1
330
1F
100
AcDbEntity
  8
0-2
  6
Continuous
 62
     6
370
     9
100
AcDbLine
 10
-216.0584302485553
 20
258.6411805189335
 30
0.0
 11
-212.7251683978373
 21
262.2461312949049
 31
0.0
  0
LINE
  5
E2
330
1F
100
AcDbEntity
  8
0-2
  6
Continuous
 62
     6
370
     9
100
AcDbLine
 10
-216.0584302485553
 20
258.6411805189335
 30
0.0
 11
-211.0582900326558
 21
247.3297164669911
 31
0.0
  0
LINE
  5
E3
330
1F
100
AcDbEntity
  8
0-2
  6
Continuous
 62
     6
370
     9
100
AcDbLine
 10
-286.0584137525673
 20
253.1415830210453
 30
0.0
 11
-282.7251519018493
 21
250.5434648833763
 31
0.0
  0
LINE
  5
E4
330
1F
100
AcDbEntity
  8
0-2
  6
Continuous
 62
     6
370
     9
100
AcDbLine
 10
-282.7251519018493
 20
250.5434648833763
 30
0.0
 11
-287.7251683978373
 21
236.549010834601
 31
0.0
  0
LINE
  5
E5
330
1F
100
AcDbEntity
  8
0-2
  6
Continuous
 62
     6
370
     9
100
AcDbLine
 10
-298.1366938148561
 20
227.9895724900062
 30
0.0
 11
-315.4762868258358
 21
227.9895724900062
 31
0.0
  0
LINE
  5
E6
330
1F
100
AcDbEntity
  8
0-2
  6
Continuous
 62
     6
370
     9
100
AcDbLine
 10
76.10601660796917
 20
117.3933744853609
 30
0.0
 11
78.94167697536787
 21
132.9897539458763
 31
0.0
  0
LINE
  5
E7
330
1F
100
AcDbEntity
  8
0-2
  6
Continuous
 62
     6
370
     9
100
AcDbLine
 10
30.11833581193869
 20
122.0682550544068
 30
0.0
 11
4.560771411600957
 21
217.4516053236211
 31
0.0
  0
LINE
  5
E8
330
1F
100
AcDbEntity
  8
0-2
  6
Continuous
 62
     6
370
     9
100
AcDbLine
 10
-129.3916426113087
 20
264.4164259792377
 30
0.0
 11
-134.391659107297
 21
249.5188165778443
 31
0.0
  0
LINE
  5
E9
330
1F
100
AcDbEntity
  8
0-2
  6
Continuous
 62
     6
370
     9
100
AcDbLine
 10
-104.3918075711905
 20
263.4402758789422
 30
0.0
 11
-99.39166735529098
 21
248.1277098949893
 31
0.0
  0
LINE
  5
EA
330
1F
100
AcDbEntity
  8
0-2
  6
JWW_DASHED1
 62
     6
370
     9
100
AcDbLine
 10
-0.6463522159329038
 20
227.9895724900062
 30
0.0
 11
16.69274591540145
 21
227.9895724900062
 31
0.0
  0
LINE
  5
EB
330
1F
100
AcDbEntity
  8
0-2
  6
Continuous
 62
     6
370
     9
100
AcDbLine
 10
-345.9324173948813
 20
134.4348025100653
 30
0.0
 11
-377.7249704459792
 21
132.9897539458763
 31
0.0
  0
LINE
  5
EC
330
1F
100
AcDbEntity
  8
0-2
  6
Continuous
 62
     6
370
     9
100
AcDbLine
 10
-345.0933489563256
 20
119.5975684253948
 30
0.0
 11
-317.8331511364355
 21
221.334183580589
 31
0.0
  0
LINE
  5
ED
330
1F
100
AcDbEntity
  8
0-2
  6
Continuous
 62
     6
370
     9
100
AcDbLine
 10
41.01212144327334
 20
139.3692474530552
 30
0.0
 11
19.04936278617853
 21
221.334183580589
 31
0.0
  0
LINE
  5
EE
330
1F
100
AcDbEntity
  8
0-2
  6
Continuous
 62
     6
370
     9
100
AcDbLine
 10
75.60816768482724
 20
136.4779131255638
 30
0.0
 11
78.94167697536787
 21
132.9897539458763
 31
0.0
  0
LINE
  5
EF
330
1F
100
AcDbEntity
  8
0-2
  6
Continuous
 62
     6
370
     9
100
AcDbLine
 10
45.73327325915173
 20
118.4237139068138
 30
0.0
 11
49.77446044242853
 21
134.3152890757325
 31
0.0
  0
LINE
  5
F0
330
1F
100
AcDbEntity
  8
0-2
  6
Continuous
 62
     6
370
     9
100
AcDbLine
 10
-332.6723647396871
 20
902.0322278162308
 30
0.0
 11
-312.9210994973941
 21
895.9897473474808
 31
0.0
  0
LINE
  5
F1
330
1F
100
AcDbEntity
  8
0-2
  6
Continuous
 62
     6
370
     9
100
AcDbLine
 10
-340.1795652385259
 20
864.2922111882749
 30
0.0
 11
-319.6191717762157
 21
862.3161567647105
 31
0.0
  0
LINE
  5
F2
330
1F
100
AcDbEntity
  8
0-2
  6
Continuous
 62
     6
370
     9
100
AcDbLine
 10
-297.262488921486
 20
967.902688120285
 30
0.0
 11
-281.3271169039608
 21
954.7611591401329
 31
0.0
  0
LINE
  5
F3
330
1F
100
AcDbEntity
  8
0-2
  6
Continuous
 62
     6
370
     9
100
AcDbLine
 10
-318.6407947175165
 20
935.9079767340941
 30
0.0
 11
-300.4015105114355
 21
926.2142742425399
 31
0.0
  0
LINE
  5
F4
330
1F
100
AcDbEntity
  8
0-2
  6
Continuous
 62
     6
370
     9
100
AcDbLine
 10
-239.3407854797631
 20
1015.20823341167
 30
0.0
 11
-229.6473304280316
 21
996.9687017657662
 31
0.0
  0
LINE
  5
F5
330
1F
100
AcDbEntity
  8
0-2
  6
Continuous
 62
     6
370
     9
100
AcDbLine
 10
-271.3353731460428
 20
993.8299276156397
 30
0.0
 11
-258.1942153256246
 21
977.8943081582918
 31
0.0
  0
LINE
  5
F6
330
1F
100
AcDbEntity
  8
0-2
  6
Continuous
 62
     6
370
     9
100
AcDbLine
 10
-167.7250199339439
 20
1036.746385333123
 30
0.0
 11
-165.7492129502022
 21
1016.186115590724
 31
0.0
  0
LINE
  5
F7
330
1F
100
AcDbEntity
  8
0-2
  6
Continuous
 62
     6
370
     9
100
AcDbLine
 10
-205.4651602818113
 20
1029.239803433841
 30
0.0
 11
-199.4224323732386
 21
1009.488414471636
 31
0.0
  0
LINE
  5
F8
330
1F
100
AcDbEntity
  8
0-2
  6
Continuous
 62
     6
370
     9
100
AcDbLine
 10
-93.31813318880036
 20
1029.239555994018
 30
0.0
 11
-99.36086109737302
 21
1009.488414471636
 31
0.0
  0
LINE
  5
F9
330
1F
100
AcDbEntity
  8
0-2
  6
Continuous
 62
     6
370
     9
100
AcDbLine
 10
-131.058397256579
 20
1036.746880212768
 30
0.0
 11
-133.0342042403207
 21
1016.186115590724
 31
0.0
  0
LINE
  5
FA
330
1F
100
AcDbEntity
  8
0-2
  6
Continuous
 62
     6
370
     9
100
AcDbLine
 10
-27.44754916483499
 20
993.8299276156397
 30
0.0
 11
-40.58920186489827
 21
977.8943081582918
 31
0.0
  0
LINE
  5
FB
330
1F
100
AcDbEntity
  8
0-2
  6
Continuous
 62
     6
370
     9
100
AcDbLine
 10
-59.44263171075973
 20
1015.20823341167
 30
0.0
 11
-69.13608676249125
 21
996.9689492055888
 31
0.0
  0
LINE
  5
FC
330
1F
100
AcDbEntity
  8
0-2
  6
Continuous
 62
     6
370
     9
100
AcDbLine
 10
19.8570063672598
 20
935.9079767340941
 30
0.0
 11
1.618217040823868
 21
926.2142742425399
 31
0.0
  0
LINE
  5
FD
330
1F
100
AcDbEntity
  8
0-2
  6
Continuous
 62
     6
370
     9
100
AcDbLine
 10
-1.520804549125341
 20
967.902688120285
 30
0.0
 11
-17.45592912682822
 21
954.7611591401329
 31
0.0
  0
LINE
  5
FE
330
1F
100
AcDbEntity
  8
0-2
  6
Continuous
 62
     6
370
     9
100
AcDbLine
 10
41.39614804800303
 20
864.2922111882749
 30
0.0
 11
20.83587830560433
 21
862.3161567647105
 31
0.0
  0
LINE
  5
FF
330
1F
100
AcDbEntity
  8
0-2
  6
Continuous
 62
     6
370
     9
100
AcDbLine
 10
33.88882382925303
 20
902.0322278162308
 30
0.0
 11
14.13768230687126
 21
895.9897473474808
 31
0.0
  0
LINE
  5
100
330
1F
100
AcDbEntity
  8
0-2
  6
Continuous
 62
     6
370
     9
100
AcDbLine
 10
-214.5397683371321
 20
873.9495400259013
 30
0.0
 11
-264.0966448547631
 21
902.5615015968475
 31
0.0
  0
LINE
  5
101
330
1F
100
AcDbEntity
  8
0-2
  6
Continuous
 62
     6
370
     9
100
AcDbLine
 10
-277.0305718237243
 20
854.2921781962986
 30
0.0
 11
-219.8071435614777
 21
854.2921781962986
 31
0.0
  0
LINE
  5
102
330
1F
100
AcDbEntity
  8
0-2
  6
Continuous
 62
     6
370
     9
100
AcDbLine
 10
-212.8732611316844
 20
876.8364204365855
 30
0.0
 11
-262.4301376493154
 21
905.4478871278864
 31
0.0
  0
LINE
  5
103
330
1F
100
AcDbEntity
  8
0-2
  6
Continuous
 62
     6
370
     9
100
AcDbLine
 10
-277.0305718237243
 20
850.9589163455805
 30
0.0
 11
-219.8071435614777
 21
850.9589163455805
 31
0.0
  0
LINE
  5
104
330
1F
100
AcDbEntity
  8
0-2
  6
Continuous
 62
     6
370
     9
100
AcDbLine
 10
-216.4912024983441
 20
867.3782806561803
 30
0.0
 11
-266.6737306075082
 21
896.351256928351
 31
0.0
  0
LINE
  5
105
330
1F
100
AcDbEntity
  8
0-2
  6
Continuous
 62
     6
370
     9
100
AcDbLine
 10
-191.8162559453459
 20
902.7735575248457
 30
0.0
 11
-220.4277226366464
 21
952.3308052022105
 31
0.0
  0
LINE
  5
106
330
1F
100
AcDbEntity
  8
0-2
  6
Continuous
 62
     6
370
     9
100
AcDbLine
 10
-255.7636139478798
 20
916.9954087706228
 30
0.0
 11
-206.2066137103373
 21
888.383447199677
 31
0.0
  0
LINE
  5
107
330
1F
100
AcDbEntity
  8
0-2
  6
Continuous
 62
     6
370
     9
100
AcDbLine
 10
-188.929499254573
 20
904.4400647302933
 30
0.0
 11
-217.5413371056076
 21
953.9970649678355
 31
0.0
  0
LINE
  5
108
330
1F
100
AcDbEntity
  8
0-2
  6
Continuous
 62
     6
370
     9
100
AcDbLine
 10
-257.4303685931498
 20
914.1082809201159
 30
0.0
 11
-207.8732446356964
 21
885.4968142288152
 31
0.0
  0
LINE
  5
109
330
1F
100
AcDbEntity
  8
0-2
  6
Continuous
 62
     6
370
     9
100
AcDbLine
 10
-196.7916521789819
 20
898.0583442647105
 30
0.0
 11
-225.7646284511524
 21
948.2408723738746
 31
0.0
  0
LINE
  5
10A
330
1F
100
AcDbEntity
  8
0-2
  6
Continuous
 62
     6
370
     9
100
AcDbLine
 10
-157.7249869419675
 20
916.3743348158087
 30
0.0
 11
-157.7249869419675
 21
973.5977630780553
 31
0.0
  0
LINE
  5
10B
330
1F
100
AcDbEntity
  8
0-2
  6
Continuous
 62
     6
370
     9
100
AcDbLine
 10
-205.9943103425165
 20
960.6640835489168
 30
0.0
 11
-177.3825962113931
 21
911.1070833113746
 31
0.0
  0
LINE
  5
10C
330
1F
100
AcDbEntity
  8
0-2
  6
Continuous
 62
     6
370
     9
100
AcDbLine
 10
-154.3917250912496
 20
916.3743348158087
 30
0.0
 11
-154.391848811161
 21
973.5977630780553
 31
0.0
  0
LINE
  5
10D
330
1F
100
AcDbEntity
  8
0-2
  6
Continuous
 62
     6
370
     9
100
AcDbLine
 10
-208.8809433133779
 20
958.9973289036465
 30
0.0
 11
-180.2691054623433
 21
909.440576105927
 31
0.0
  0
LINE
  5
10E
330
1F
100
AcDbEntity
  8
0-2
  6
Continuous
 62
     6
370
     9
100
AcDbLine
 10
-164.3915106434032
 20
914.7783479598121
 30
0.0
 11
-164.3915106434032
 21
972.7243005041532
 31
0.0
  0
LINE
  5
10F
330
1F
100
AcDbEntity
  8
0-2
  6
Continuous
 62
     6
370
     9
100
AcDbLine
 10
-121.4008209791298
 20
911.1070833113746
 30
0.0
 11
-92.78910684800634
 21
960.6640835489168
 31
0.0
  0
LINE
  5
110
330
1F
100
AcDbEntity
  8
0-2
  6
Continuous
 62
     6
370
     9
100
AcDbLine
 10
-141.0584302485553
 20
973.5977630780553
 30
0.0
 11
-141.0584302485553
 21
916.3743348158087
 31
0.0
  0
LINE
  5
111
330
1F
100
AcDbEntity
  8
0-2
  6
Continuous
 62
     6
370
     9
100
AcDbLine
 10
-118.5141880082681
 20
909.440576105927
 30
0.0
 11
-89.90247387714489
 21
958.9973289036465
 31
0.0
  0
LINE
  5
112
330
1F
100
AcDbEntity
  8
0-2
  6
Continuous
 62
     6
370
     9
100
AcDbLine
 10
-144.3916920992733
 20
973.5977630780553
 30
0.0
 11
-144.3916920992733
 21
916.3743348158087
 31
0.0
  0
LINE
  5
113
330
1F
100
AcDbEntity
  8
0-2
  6
Continuous
 62
     6
370
     9
100
AcDbLine
 10
-127.9723277886735
 20
913.0581463128524
 30
0.0
 11
-98.99922779659177
 21
963.2409218618388
 31
0.0
  0
LINE
  5
114
330
1F
100
AcDbEntity
  8
0-2
  6
Continuous
 62
     6
370
     9
100
AcDbLine
 10
-92.57680348018552
 20
888.383447199677
 30
0.0
 11
-43.01980324264305
 21
916.9954087706228
 31
0.0
  0
LINE
  5
115
330
1F
100
AcDbEntity
  8
0-2
  6
Continuous
 62
     6
370
     9
100
AcDbLine
 10
-78.35544711405375
 20
952.3308052022105
 30
0.0
 11
-106.9670375252657
 21
902.7735575248457
 31
0.0
  0
LINE
  5
116
330
1F
100
AcDbEntity
  8
0-2
  6
Continuous
 62
     6
370
     9
100
AcDbLine
 10
-90.91029627473786
 20
885.4968142288152
 30
0.0
 11
-41.35329603719539
 21
914.1082809201159
 31
0.0
  0
LINE
  5
117
330
1F
100
AcDbEntity
  8
0-2
  6
Continuous
 62
     6
370
     9
100
AcDbLine
 10
-81.2420800849152
 20
953.9970649678355
 30
0.0
 11
-109.8537942160384
 21
904.4403121701159
 31
0.0
  0
LINE
  5
118
330
1F
100
AcDbEntity
  8
0-2
  6
Continuous
 62
     6
370
     9
100
AcDbLine
 10
-97.29214046023186
 20
893.3589671532241
 30
0.0
 11
-47.10948863115659
 21
922.3319434253947
 31
0.0
  0
LINE
  5
119
330
1F
100
AcDbEntity
  8
0-2
  6
Continuous
 62
     6
370
     9
100
AcDbLine
 10
-78.97627362904514
 20
854.2921781962986
 30
0.0
 11
-21.75296908670999
 21
854.2921781962986
 31
0.0
  0
LINE
  5
11A
330
1F
100
AcDbEntity
  8
0-2
  6
Continuous
 62
     6
370
     9
100
AcDbLine
 10
-34.68652489593707
 20
902.5615015968475
 30
0.0
 11
-84.24352513347925
 21
873.9495400259013
 31
0.0
  0
LINE
  5
11B
330
1F
100
AcDbEntity
  8
0-2
  6
Continuous
 62
     6
370
     9
100
AcDbLine
 10
-78.97627362904514
 20
850.9589163455805
 30
0.0
 11
-21.75296908670999
 21
850.9589163455805
 31
0.0
  0
LINE
  5
11C
330
1F
100
AcDbEntity
  8
0-2
  6
Continuous
 62
     6
370
     9
100
AcDbLine
 10
-36.35303210138473
 20
905.4478871278864
 30
0.0
 11
-85.91003233892691
 21
876.8364204365855
 31
0.0
  0
LINE
  5
11D
330
1F
100
AcDbEntity
  8
0-2
  6
Continuous
 62
     6
370
     9
100
AcDbLine
 10
-80.57226048504175
 20
860.9587018977343
 30
0.0
 11
-22.62593678096676
 21
860.9587018977343
 31
0.0
  0
LINE
  5
11E
330
1F
100
AcDbEntity
  8
0-2
  6
Continuous
 62
     6
370
     9
100
AcDbLine
 10
-176.9295338961483
 20
865.9589658335451
 30
0.0
 11
-121.8537595744634
 21
865.9589658335451
 31
0.0
  0
LINE
  5
11F
330
1F
100
AcDbEntity
  8
0-2
  6
Continuous
 62
     6
370
     9
100
AcDbLine
 10
74.99055788752983
 20
862.6254565430045
 30
0.0
 11
78.55171181489496
 21
859.2921946922866
 31
0.0
  0
LINE
  5
120
330
1F
100
AcDbEntity
  8
0-2
  6
Continuous
 62
     6
370
     9
100
AcDbLine
 10
73.12535650450641
 20
879.2922606762395
 30
0.0
 11
75.9788325391348
 21
882.6255225269572
 31
0.0
  0
LINE
  5
121
330
1F
100
AcDbEntity
  8
0-2
  6
Continuous
 62
     6
370
     9
100
AcDbLine
 10
73.60984367722594
 20
859.2921946922866
 30
0.0
 11
78.55171181489496
 21
859.2921946922866
 31
0.0
  0
LINE
  5
122
330
1F
100
AcDbEntity
  8
0-2
  6
Continuous
 62
     6
370
     9
100
AcDbLine
 10
67.6109126172598
 20
862.6254565430045
 30
0.0
 11
74.99055788752983
 21
862.6254565430045
 31
0.0
  0
LINE
  5
123
330
1F
100
AcDbEntity
  8
0-2
  6
Continuous
 62
     6
370
     9
100
AcDbLine
 10
39.35377975197255
 20
879.2922606762395
 30
0.0
 11
73.12535650450641
 21
879.2922606762395
 31
0.0
  0
LINE
  5
124
330
1F
100
AcDbEntity
  8
0-2
  6
Continuous
 62
     6
370
     9
100
AcDbLine
 10
38.73468531573948
 20
882.6255225269572
 30
0.0
 11
75.9788325391348
 21
882.6255225269572
 31
0.0
  0
LINE
  5
125
330
1F
100
AcDbEntity
  8
0-2
  6
Continuous
 62
     6
370
     9
100
AcDbLine
 10
-373.7734801984077
 20
862.6254565430045
 30
0.0
 11
-377.3355001651516
 21
859.2921946922866
 31
0.0
  0
LINE
  5
126
330
1F
100
AcDbEntity
  8
0-2
  6
Continuous
 62
     6
370
     9
100
AcDbLine
 10
-371.9087736950293
 20
879.2922606762395
 30
0.0
 11
-374.7616311301009
 21
882.6255225269572
 31
0.0
  0
LINE
  5
127
330
1F
100
AcDbEntity
  8
0-2
  6
Continuous
 62
     6
370
     9
100
AcDbLine
 10
-366.3945772476053
 20
862.6254565430045
 30
0.0
 11
-373.7734801984077
 21
862.6254565430045
 31
0.0
  0
LINE
  5
128
330
1F
100
AcDbEntity
  8
0-2
  6
Continuous
 62
     6
370
     9
100
AcDbLine
 10
-338.1374443823181
 20
879.2922606762395
 30
0.0
 11
-371.9087736950293
 21
879.2922606762395
 31
0.0
  0
LINE
  5
129
330
1F
100
AcDbEntity
  8
0-2
  6
Continuous
 62
     6
370
     9
100
AcDbLine
 10
-337.5184736659962
 20
882.6255225269572
 30
0.0
 11
-374.7616311301009
 21
882.6255225269572
 31
0.0
  0
LINE
  5
12A
330
1F
100
AcDbEntity
  8
0-2
  6
Continuous
 62
     6
370
     9
100
AcDbLine
 10
-372.3928897080146
 20
859.2921946922866
 30
0.0
 11
-377.3355001651516
 21
859.2921946922866
 31
0.0
  0
LINE
  5
12B
330
1F
100
AcDbEntity
  8
0-2
  6
Continuous
 62
     6
370
     9
100
AcDbLine
 10
72.27515327393192
 20
138.2221164353187
 30
0.0
 11
72.27515327393192
 21
99.88898655250622
 31
0.0
  0
LINE
  5
12C
330
1F
100
AcDbEntity
  8
0-2
  6
Continuous
 62
     6
370
     9
100
AcDbLine
 10
-149.3915848753501
 20
114.6564426071937
 30
0.0
 11
52.27459241033401
 21
114.6564426071937
 31
0.0
  0
LINE
  5
12D
330
1F
100
AcDbEntity
  8
0-2
  6
Continuous
 62
     6
370
     9
100
AcDbLine
 10
72.27515327393192
 20
114.6564426071937
 30
0.0
 11
72.82644919876319
 21
114.6564426071937
 31
0.0
  0
LINE
  5
12E
330
1F
100
AcDbEntity
  8
0-2
  6
Continuous
 62
     6
370
     9
100
AcDbLine
 10
72.27515327393192
 20
133.2928677286044
 30
0.0
 11
78.94167697536787
 21
132.9897539458763
 31
0.0
  0
LINE
  5
12F
330
1F
100
AcDbEntity
  8
0-2
  6
Continuous
 62
     6
370
     9
100
AcDbLine
 10
72.27515327393192
 20
136.629593736839
 30
0.0
 11
75.60816768482724
 21
136.4779131255638
 31
0.0
  0
LINE
  5
130
330
1F
100
AcDbEntity
  8
0-2
  6
Continuous
 62
     6
370
     9
100
AcDbLine
 10
47.14862904462464
 20
134.4348025100653
 30
0.0
 11
52.27459241033401
 21
134.2017141971432
 31
0.0
  0
LINE
  5
131
330
1F
100
AcDbEntity
  8
0-2
  6
Continuous
 62
     6
370
     9
100
AcDbLine
 10
46.24398905307046
 20
137.8126035288575
 30
0.0
 11
52.27459241033401
 21
137.5384402053778
 31
0.0
  0
LINE
  5
132
330
1F
100
AcDbEntity
  8
0-2
  6
Continuous
 62
     6
370
     9
100
AcDbLine
 10
-374.3917085952615
 20
845.9588998495923
 30
0.0
 11
-374.3917085952615
 21
847.9587084961295
 31
0.0
  0
LINE
  5
133
330
1F
100
AcDbEntity
  8
0-2
  6
Continuous
 62
     6
370
     9
100
AcDbLine
 10
-347.725118909873
 20
847.9587084961295
 30
0.0
 11
-374.3917085952615
 21
847.9587084961295
 31
0.0
  0
LINE
  5
134
330
1F
100
AcDbEntity
  8
0-2
  6
Continuous
 62
     6
370
     9
100
AcDbLine
 10
-347.725118909873
 20
845.9588998495923
 30
0.0
 11
-347.725118909873
 21
847.9587084961295
 31
0.0
  0
LINE
  5
135
330
1F
100
AcDbEntity
  8
0-2
  6
Continuous
 62
     6
370
     9
100
AcDbLine
 10
75.60816768482724
 20
845.9588998495923
 30
0.0
 11
75.60816768482724
 21
847.9587084961295
 31
0.0
  0
LINE
  5
136
330
1F
100
AcDbEntity
  8
0-2
  6
Continuous
 62
     6
370
     9
100
AcDbLine
 10
48.94157799943869
 20
847.9587084961295
 30
0.0
 11
75.60816768482724
 21
847.9587084961295
 31
0.0
  0
LINE
  5
137
330
1F
100
AcDbEntity
  8
0-2
  6
Continuous
 62
     6
370
     9
100
AcDbLine
 10
48.94157799943869
 20
845.9588998495923
 30
0.0
 11
48.94157799943869
 21
847.9587084961295
 31
0.0
  0
LINE
  5
138
330
1F
100
AcDbEntity
  8
0-2
  6
Continuous
 62
     6
370
     9
100
AcDbLine
 10
-149.3915848753501
 20
114.6564426071937
 30
0.0
 11
-267.7249786939735
 21
114.6564426071937
 31
0.0
  0
LINE
  5
139
330
1F
100
AcDbEntity
  8
0-2
  6
Continuous
 62
     6
370
     9
100
AcDbLine
 10
-317.7252673737665
 20
114.6564426071937
 30
0.0
 11
-371.6097426693746
 21
114.6564426071937
 31
0.0
  0
LINE
  5
13A
330
1F
100
AcDbEntity
  8
0-2
  6
Continuous
 62
     6
370
     9
100
AcDbLine
 10
-328.901876722373
 20
122.0682550544068
 30
0.0
 11
-303.344312322035
 21
217.4516053236211
 31
0.0
  0
LINE
  5
13B
330
1F
100
AcDbEntity
  8
0-0
  6
Continuous
 62
     3
370
     9
100
AcDbLine
 10
-380.064266529172
 20
26.01335310656033
 30
0.0
 11
-387.0431830066844
 21
69.707266746763
 31
0.0
  0
LINE
  5
13C
330
1F
100
AcDbEntity
  8
0-5
  6
Continuous
 62
     2
370
     9
100
AcDbLine
 10
-480.3385123325926
 20
-154.4108577253655
 30
0.0
 11
-482.7248219820858
 21
-144.8648768079245
 31
0.0
  0
LINE
  5
13D
330
1F
100
AcDbEntity
  8
0-5
  6
Continuous
 62
     2
370
     9
100
AcDbLine
 10
-430.3726177881457
 20
-158.1981716506188
 30
0.0
 11
-475.4877020496532
 21
-158.1981716506188
 31
0.0
  0
LINE
  5
13E
330
1F
100
AcDbEntity
  8
0-5
  6
Continuous
 62
     2
370
     9
100
AcDbLine
 10
-424.082078897204
 20
-167.7441525680596
 30
0.0
 11
-425.5218075052067
 21
-161.9854855758721
 31
0.0
  0
LINE
  5
13F
330
1F
100
AcDbEntity
  8
0-5
  6
Continuous
 62
     2
370
     9
100
AcDbLine
 10
-419.962205850329
 20
-144.8648768079245
 30
0.0
 11
-482.7248219820858
 21
-144.8648768079245
 31
0.0
  0
LINE
  5
140
330
1F
100
AcDbEntity
  8
0-5
  6
Continuous
 62
     2
370
     9
100
AcDbLine
 10
-413.6717906792985
 20
-154.4108577253655
 30
0.0
 11
-415.11139556739
 21
-148.652190733178
 31
0.0
  0
LINE
  5
141
330
1F
100
AcDbEntity
  8
0-5
  6
Continuous
 62
     2
370
     9
100
AcDbLine
 10
1.328217568695482
 20
-167.7441525680596
 30
0.0
 11
-1.058092080797746
 21
-158.1981716506188
 31
0.0
  0
LINE
  5
142
330
1F
100
AcDbEntity
  8
0-5
  6
Continuous
 62
     2
370
     9
100
AcDbLine
 10
181.5554663018035
 20
-154.4108577253655
 30
0.0
 11
183.9417759512968
 21
-144.8648768079245
 31
0.0
  0
LINE
  5
143
330
1F
100
AcDbEntity
  8
0-5
  6
Continuous
 62
     2
370
     9
100
AcDbLine
 10
131.5894480374455
 20
-158.1981716506188
 30
0.0
 11
176.7046560188645
 21
-158.1981716506188
 31
0.0
  0
LINE
  5
144
330
1F
100
AcDbEntity
  8
0-5
  6
Continuous
 62
     2
370
     9
100
AcDbLine
 10
125.299032866415
 20
-167.7441525680596
 30
0.0
 11
126.7386377545064
 21
-161.9854855758721
 31
0.0
  0
LINE
  5
145
330
1F
100
AcDbEntity
  8
0-5
  6
Continuous
 62
     2
370
     9
100
AcDbLine
 10
116.3283495366009
 20
-148.652190733178
 30
0.0
 11
114.8887446485098
 21
-154.4108577253655
 31
0.0
  0
LINE
  5
146
330
1F
100
AcDbEntity
  8
0-5
  6
Continuous
 62
     2
370
     9
100
AcDbLine
 10
121.17915981954
 20
-144.8648768079245
 30
0.0
 11
183.9417759512968
 21
-144.8648768079245
 31
0.0
  0
LINE
  5
147
330
1F
100
AcDbEntity
  8
0-0
  6
Continuous
 62
     3
370
     9
100
AcDbLine
 10
-270.3694917983865
 20
38.46823657889992
 30
0.0
 11
-326.6589584500967
 21
38.46823657889992
 31
0.0
  0
LINE
  5
148
330
1F
100
AcDbEntity
  8
0-1
  6
Continuous
 62
     2
370
     9
100
AcDbLine
 10
-279.3917663312201
 20
96.32288382868879
 30
0.0
 11
-279.3917663312201
 21
59.05659074116762
 31
0.0
  0
LINE
  5
149
330
1F
100
AcDbEntity
  8
0-1
  6
Continuous
 62
     2
370
     9
100
AcDbLine
 10
-281.6466854348941
 20
96.32288382868879
 30
0.0
 11
-281.6466854348941
 21
56.80191907731633
 31
0.0
  0
LINE
  5
14A
330
1F
100
AcDbEntity
  8
0-1
  6
Continuous
 62
     2
370
     9
100
AcDbLine
 10
-303.8034369129344
 20
96.32288382868879
 30
0.0
 11
-303.8034369129344
 21
56.80191907731633
 31
0.0
  0
LINE
  5
14B
330
1F
100
AcDbEntity
  8
0-1
  6
Continuous
 62
     2
370
     9
100
AcDbLine
 10
-306.0583560166084
 20
96.32288382868879
 30
0.0
 11
-306.0583560166084
 21
59.05659074116762
 31
0.0
  0
LINE
  5
14C
330
1F
100
AcDbEntity
  8
0-1
  6
Continuous
 62
     2
370
     9
100
AcDbLine
 10
-279.3917663312201
 20
117.9897044579117
 30
0.0
 11
-279.3917663312201
 21
187.8799484005849
 31
0.0
  0
LINE
  5
14D
330
1F
100
AcDbEntity
  8
0-1
  6
Continuous
 62
     2
370
     9
100
AcDbLine
 10
-281.6466854348941
 20
117.9897044579117
 30
0.0
 11
-281.6466854348941
 21
190.1351149440815
 31
0.0
  0
LINE
  5
14E
330
1F
100
AcDbEntity
  8
0-1
  6
Continuous
 62
     2
370
     9
100
AcDbLine
 10
-303.8034369129344
 20
117.9897044579117
 30
0.0
 11
-303.8034369129344
 21
190.1351149440815
 31
0.0
  0
LINE
  5
14F
330
1F
100
AcDbEntity
  8
0-1
  6
Continuous
 62
     2
370
     9
100
AcDbLine
 10
-306.0583560166084
 20
117.9897044579117
 30
0.0
 11
-306.0583560166084
 21
187.8799484005849
 31
0.0
  0
LINE
  5
150
330
1F
100
AcDbEntity
  8
0-0
  6
Continuous
 62
     3
370
     9
100
AcDbLine
 10
177.2747573702158
 20
121.8017623654286
 30
0.0
 11
180.6082666607564
 21
121.8017623654286
 31
0.0
  0
LINE
  5
151
330
1F
100
AcDbEntity
  8
0-0
  6
Continuous
 62
     3
370
     9
100
AcDbLine
 10
-479.3915601313678
 20
121.8017623654286
 30
0.0
 11
-476.0582982806499
 21
121.8017623654286
 31
0.0
  0
LINE
  5
152
330
1F
100
AcDbEntity
  8
0-1
  6
Continuous
 62
     2
370
     9
100
AcDbLine
 10
-318.7687211058188
 20
79.65632713527654
 30
0.0
 11
-377.7249704459792
 21
95.45338029194895
 31
0.0
  0
LINE
  5
153
330
1F
100
AcDbEntity
  8
0-0
  6
Continuous
 62
     4
370
     9
100
AcDbLine
 10
-337.7249621979853
 20
-190.7926771668771
 30
0.0
 11
-337.7249621979853
 21
-171.531466493313
 31
0.0
  0
LINE
  5
154
330
1F
100
AcDbEntity
  8
0-0
  6
Continuous
 62
     4
370
     9
100
AcDbLine
 10
-387.7250034379556
 20
-190.7926771668771
 30
0.0
 11
-387.7250034379556
 21
-171.531466493313
 31
0.0
  0
LINE
  5
155
330
1F
100
AcDbEntity
  8
0-5
  6
Continuous
 62
     4
370
     9
100
AcDbLine
 10
-337.7249621979853
 20
-171.531466493313
 30
0.0
 11
-387.7250034379556
 21
-171.531466493313
 31
0.0
  0
LINE
  5
156
330
1F
100
AcDbEntity
  8
0-0
  6
Continuous
 62
     4
370
     9
100
AcDbLine
 10
-350.2341587113931
 20
-190.7926771668771
 30
0.0
 11
-350.2341587113931
 21
-171.531466493313
 31
0.0
  0
LINE
  5
157
330
1F
100
AcDbEntity
  8
0-0
  6
Continuous
 62
     4
370
     9
100
AcDbLine
 10
-375.2158069245478
 20
-190.7926771668771
 30
0.0
 11
-375.2158069245478
 21
-171.531466493313
 31
0.0
  0
LINE
  5
158
330
1F
100
AcDbEntity
  8
0-0
  6
Continuous
 62
     4
370
     9
100
AcDbLine
 10
-343.9796223146449
 20
-193.198287122536
 30
0.0
 11
-381.4704670412074
 21
-193.198287122536
 31
0.0
  0
LINE
  5
159
330
1F
100
AcDbEntity
  8
0-0
  6
Continuous
 62
     4
370
     9
100
AcDbLine
 10
-376.0583395206204
 20
55.54678057699938
 30
0.0
 11
-349.3916261153207
 21
55.54678057699938
 31
0.0
  0
LINE
  5
15A
330
1F
100
AcDbEntity
  8
0-0
  6
Continuous
 62
     4
370
     9
100
AcDbLine
 10
-349.3916261153207
 20
55.54678057699938
 30
0.0
 11
-351.6465452189947
 21
57.80169968067334
 31
0.0
  0
LINE
  5
15B
330
1F
100
AcDbEntity
  8
0-0
  6
Continuous
 62
     4
370
     9
100
AcDbLine
 10
-351.6465452189947
 20
57.80169968067334
 30
0.0
 11
-373.803296697035
 21
57.80169968067334
 31
0.0
  0
LINE
  5
15C
330
1F
100
AcDbEntity
  8
0-0
  6
Continuous
 62
     3
370
     9
100
AcDbLine
 10
-351.6465452189947
 20
61.80181185339315
 30
0.0
 11
-373.803296697035
 21
61.80181185339315
 31
0.0
  0
LINE
  5
15D
330
1F
100
AcDbEntity
  8
0-0
  6
Continuous
 62
     3
370
     9
100
AcDbLine
 10
-351.6465452189947
 20
61.80181185339315
 30
0.0
 11
-362.7249209580146
 21
68.19788382868879
 31
0.0
  0
LINE
  5
15E
330
1F
100
AcDbEntity
  8
0-0
  6
Continuous
 62
     3
370
     9
100
AcDbLine
 10
-373.803296697035
 20
61.80181185339315
 30
0.0
 11
-362.7249209580146
 21
68.19788382868879
 31
0.0
  0
LINE
  5
15F
330
1F
100
AcDbEntity
  8
0-0
  6
Continuous
 62
     4
370
     9
100
AcDbLine
 10
-373.803296697035
 20
57.80169968067334
 30
0.0
 11
-351.6465452189947
 21
57.80169968067334
 31
0.0
  0
LINE
  5
160
330
1F
100
AcDbEntity
  8
0-0
  6
Continuous
 62
     4
370
     9
100
AcDbLine
 10
-376.0583395206204
 20
55.54678057699938
 30
0.0
 11
-349.3916261153207
 21
55.54678057699938
 31
0.0
  0
LINE
  5
161
330
1F
100
AcDbEntity
  8
0-0
  6
Continuous
 62
     4
370
     9
100
AcDbLine
 10
-351.6465452189947
 20
57.80169968067334
 30
0.0
 11
-349.3916261153207
 21
55.54678057699938
 31
0.0
  0
LINE
  5
162
330
1F
100
AcDbEntity
  8
0-0
  6
Continuous
 62
     4
370
     9
100
AcDbLine
 10
-373.803296697035
 20
57.80169968067334
 30
0.0
 11
-376.0583395206204
 21
55.54678057699938
 31
0.0
  0
LINE
  5
163
330
1F
100
AcDbEntity
  8
0-0
  6
Continuous
 62
     4
370
     9
100
AcDbLine
 10
-373.803296697035
 20
57.80169968067334
 30
0.0
 11
-376.0583395206204
 21
55.54678057699938
 31
0.0
  0
LINE
  5
164
330
1F
100
AcDbEntity
  8
0-0
  6
Continuous
 62
     4
370
     9
100
AcDbLine
 10
-349.3916261153207
 20
-206.6100203890056
 30
0.0
 11
-351.6465452189947
 21
-208.864692052857
 31
0.0
  0
LINE
  5
165
330
1F
100
AcDbEntity
  8
0-0
  6
Continuous
 62
     4
370
     9
100
AcDbLine
 10
-373.803296697035
 20
-208.864692052857
 30
0.0
 11
-376.0583395206204
 21
-206.6100203890056
 31
0.0
  0
LINE
  5
166
330
1F
100
AcDbEntity
  8
0-0
  6
JWW_CENTER1
 62
     4
370
     9
100
AcDbLine
 10
-362.7249209580146
 20
-219.5949199614296
 30
0.0
 11
-362.7249209580146
 21
69.16685817412784
 31
0.0
  0
LINE
  5
167
330
1F
100
AcDbEntity
  8
0-0
  6
Continuous
 62
     4
370
     9
100
AcDbLine
 10
-349.3916261153207
 20
-206.6100203890056
 30
0.0
 11
-349.3916261153207
 21
-193.198287122536
 31
0.0
  0
LINE
  5
168
330
1F
100
AcDbEntity
  8
0-0
  6
Continuous
 62
     4
370
     9
100
AcDbLine
 10
-351.6465452189947
 20
-208.864692052857
 30
0.0
 11
-351.6465452189947
 21
-193.198287122536
 31
0.0
  0
LINE
  5
169
330
1F
100
AcDbEntity
  8
0-0
  6
Continuous
 62
     4
370
     9
100
AcDbLine
 10
-373.803296697035
 20
-208.864692052857
 30
0.0
 11
-373.803296697035
 21
-193.198287122536
 31
0.0
  0
LINE
  5
16A
330
1F
100
AcDbEntity
  8
0-0
  6
Continuous
 62
     4
370
     9
100
AcDbLine
 10
-376.0583395206204
 20
-206.6100203890056
 30
0.0
 11
-376.0583395206204
 21
-193.198287122536
 31
0.0
  0
LINE
  5
16B
330
1F
100
AcDbEntity
  8
0-5
  6
Continuous
 62
     2
370
     9
100
AcDbLine
 10
-383.1748325395181
 20
-161.4426026050106
 30
0.0
 11
-379.3917250912496
 21
-171.531466493313
 31
0.0
  0
LINE
  5
16C
330
1F
100
AcDbEntity
  8
0-5
  6
Continuous
 62
     2
370
     9
100
AcDbLine
 10
-342.2750093765115
 20
-161.4426026050106
 30
0.0
 11
-346.0583642646027
 21
-171.531466493313
 31
0.0
  0
LINE
  5
16D
330
1F
100
AcDbEntity
  8
0-5
  6
Continuous
 62
     2
370
     9
100
AcDbLine
 10
-408.8209803963595
 20
-158.1981716506188
 30
0.0
 11
-376.0583395206204
 21
-158.1981716506188
 31
0.0
  0
LINE
  5
16E
330
1F
100
AcDbEntity
  8
0-5
  6
Continuous
 62
     2
370
     9
100
AcDbLine
 10
-387.8566414235975
 20
-158.1981716506188
 30
0.0
 11
-376.0583395206204
 21
-158.1981716506188
 31
0.0
  0
LINE
  5
16F
330
1F
100
AcDbEntity
  8
0-5
  6
Continuous
 62
     2
370
     9
100
AcDbLine
 10
-349.3916261153207
 20
-158.1981716506188
 30
0.0
 11
-337.5932004924322
 21
-158.1981716506188
 31
0.0
  0
LINE
  5
170
330
1F
100
AcDbEntity
  8
0-0
  6
Continuous
 62
     4
370
     9
100
AcDbLine
 10
-360.7248648716551
 20
-202.1981683514212
 30
0.0
 11
-360.7248648716551
 21
-208.864692052857
 31
0.0
  0
LINE
  5
171
330
1F
100
AcDbEntity
  8
0-0
  6
Continuous
 62
     4
370
     9
100
AcDbLine
 10
-360.7248648716551
 20
-202.1981683514212
 30
0.0
 11
-364.7248533244634
 21
-202.1981683514212
 31
0.0
  0
LINE
  5
172
330
1F
100
AcDbEntity
  8
0-0
  6
Continuous
 62
     4
370
     9
100
AcDbLine
 10
-364.7248533244634
 20
-202.1981683514212
 30
0.0
 11
-364.7248533244634
 21
-208.864692052857
 31
0.0
  0
LINE
  5
173
330
1F
100
AcDbEntity
  8
0-0
  6
Continuous
 62
     4
370
     9
100
AcDbLine
 10
-376.0583395206204
 20
-206.6100203890056
 30
0.0
 11
-364.7248533244634
 21
-206.6100203890056
 31
0.0
  0
LINE
  5
174
330
1F
100
AcDbEntity
  8
0-0
  6
Continuous
 62
     4
370
     9
100
AcDbLine
 10
-360.7248648716551
 20
-206.6100203890056
 30
0.0
 11
-349.3916261153207
 21
-206.6100203890056
 31
0.0
  0
LINE
  5
175
330
1F
100
AcDbEntity
  8
0-0
  6
Continuous
 62
     4
370
     9
100
AcDbLine
 10
-351.6465452189947
 20
-208.864692052857
 30
0.0
 11
-360.7248648716551
 21
-208.864692052857
 31
0.0
  0
LINE
  5
176
330
1F
100
AcDbEntity
  8
0-0
  6
Continuous
 62
     4
370
     9
100
AcDbLine
 10
-364.7248533244634
 20
-208.864692052857
 30
0.0
 11
-373.803296697035
 21
-208.864692052857
 31
0.0
  0
LINE
  5
177
330
1F
100
AcDbEntity
  8
0-1
  6
Continuous
 62
     2
370
     9
100
AcDbLine
 10
-290.7250050875545
 20
183.4683438028232
 30
0.0
 11
-290.7250050875545
 21
190.1351149440815
 31
0.0
  0
LINE
  5
178
330
1F
100
AcDbEntity
  8
0-1
  6
Continuous
 62
     2
370
     9
100
AcDbLine
 10
-290.7250050875545
 20
183.4683438028232
 30
0.0
 11
-294.7249935403628
 21
183.4683438028232
 31
0.0
  0
LINE
  5
179
330
1F
100
AcDbEntity
  8
0-1
  6
Continuous
 62
     2
370
     9
100
AcDbLine
 10
-294.7249935403628
 20
183.4683438028232
 30
0.0
 11
-294.7249935403628
 21
190.1351149440815
 31
0.0
  0
LINE
  5
17A
330
1F
100
AcDbEntity
  8
0-1
  6
Continuous
 62
     2
370
     9
100
AcDbLine
 10
-303.8034369129344
 20
190.1351149440815
 30
0.0
 11
-294.7249935403628
 21
190.1351149440815
 31
0.0
  0
LINE
  5
17B
330
1F
100
AcDbEntity
  8
0-1
  6
Continuous
 62
     2
370
     9
100
AcDbLine
 10
-290.7250050875545
 20
190.1351149440815
 30
0.0
 11
-281.6466854348941
 21
190.1351149440815
 31
0.0
  0
LINE
  5
17C
330
1F
100
AcDbEntity
  8
0-1
  6
Continuous
 62
     2
370
     9
100
AcDbLine
 10
-279.3917663312201
 20
187.8799484005849
 30
0.0
 11
-290.7250050875545
 21
187.8799484005849
 31
0.0
  0
LINE
  5
17D
330
1F
100
AcDbEntity
  8
0-1
  6
Continuous
 62
     2
370
     9
100
AcDbLine
 10
-294.7249935403628
 20
187.8799484005849
 30
0.0
 11
-306.0583560166084
 21
187.8799484005849
 31
0.0
  0
LINE
  5
17E
330
1F
100
AcDbEntity
  8
0-5
  6
Continuous
 62
     2
370
     9
100
AcDbLine
 10
-300.1115110393071
 20
-167.7441525680596
 30
0.0
 11
-297.7249539499912
 21
-158.1981716506188
 31
0.0
  0
LINE
  5
17F
330
1F
100
AcDbEntity
  8
0-0
  6
JWW_CENTER1
 62
     3
370
     9
100
AcDbLine
 10
-292.7251848938256
 20
197.2681864310958
 30
0.0
 11
-292.7251848938256
 21
50.70821856528063
 31
0.0
  0
LINE
  5
180
330
1F
100
AcDbEntity
  8
0-2
  6
JWW_CENTER1
 62
     6
370
     9
100
AcDbLine
 10
62.27487284213296
 20
157.0088612489802
 30
0.0
 11
62.27487284213296
 21
94.49838629648852
 31
0.0
  0
LINE
  5
181
330
1F
100
AcDbEntity
  8
0-1
  6
Continuous
 62
     2
370
     9
100
AcDbLine
 10
72.27515327393192
 20
114.6564426071937
 30
0.0
 11
77.70992153828999
 21
114.6564426071937
 31
0.0
  0
LINE
  5
182
330
1F
100
AcDbEntity
  8
0-1
  6
Continuous
 62
     2
370
     9
100
AcDbLine
 10
43.13070120467515
 20
114.6564426071937
 30
0.0
 11
52.27459241033401
 21
114.6564426071937
 31
0.0
  0
LINE
  5
183
330
1F
100
AcDbEntity
  8
0-5
  6
Continuous
 62
     2
370
     9
100
AcDbLine
 10
-349.3916261153207
 20
-158.1981716506188
 30
0.0
 11
110.0379343655705
 21
-158.1981716506188
 31
0.0
  0
LINE
  5
184
330
1F
100
AcDbEntity
  8
0-5
  6
Continuous
 62
     2
370
     9
100
AcDbLine
 10
120.4482225834759
 20
-171.531466493313
 30
0.0
 11
-419.2313923341761
 21
-171.531466493313
 31
0.0
  0
LINE
  5
185
330
1F
100
AcDbEntity
  8
0-0
  6
Continuous
 62
     3
370
     9
100
AcDbLine
 10
-306.0583560166084
 20
76.80186134135752
 30
0.0
 11
-321.2334691790874
 21
76.80186134135752
 31
0.0
  0
LINE
  5
186
330
1F
100
AcDbEntity
  8
0-0
  6
Continuous
 62
     3
370
     9
100
AcDbLine
 10
-276.5162681523772
 20
76.80186134135752
 30
0.0
 11
-279.3917663312201
 21
76.80186134135752
 31
0.0
  0
LINE
  5
187
330
1F
100
AcDbEntity
  8
0-0
  6
Continuous
 62
     3
370
     9
100
AcDbLine
 10
-349.3916261153207
 20
21.80167988548767
 30
0.0
 11
-336.8239100838595
 21
21.80167988548767
 31
0.0
  0
LINE
  5
188
330
1F
100
AcDbEntity
  8
0-0
  6
JWW_CENTER1
 62
     3
370
     9
100
AcDbLine
 10
-149.3915848753501
 20
284.5541922244869
 30
0.0
 11
-149.3915848753501
 21
-193.0771653293561
 31
0.0
  0
LINE
  5
189
330
1F
100
AcDbEntity
  8
0-0
  6
JWW_CENTER1
 62
     3
370
     9
100
AcDbLine
 10
-500.220054641503
 20
845.9588998495923
 30
0.0
 11
211.5825362183999
 21
845.9588998495923
 31
0.0
  0
LINE
  5
18A
330
1F
100
AcDbEntity
  8
0-0
  6
JWW_CENTER1
 62
     3
370
     9
100
AcDbLine
 10
-149.3915848753501
 20
1202.348950789204
 30
0.0
 11
-149.3915848753501
 21
834.4707637642884
 31
0.0
  0
LINE
  5
18B
330
1F
100
AcDbEntity
  8
0-4
  6
Continuous
 62
     7
370
     9
100
AcDbLine
 10
-377.7249704459792
 20
364.656277647312
 30
0.0
 11
78.94167697536787
 21
364.656277647312
 31
0.0
  0
LINE
  5
18C
330
1F
100
AcDbEntity
  8
0-4
  6
Continuous
 62
     7
370
     9
100
AcDbLine
 10
-377.7249704459792
 20
157.9897127059057
 30
0.0
 11
-377.7249704459792
 21
367.6562380569403
 31
0.0
  0
LINE
  5
18D
330
1F
100
AcDbEntity
  8
0-4
  6
Continuous
 62
     7
370
     9
100
AcDbLine
 10
78.94167697536787
 20
157.9897127059057
 30
0.0
 11
78.94167697536787
 21
367.6562380569403
 31
0.0
  0
LINE
  5
18E
330
1F
100
AcDbEntity
  8
0-4
  6
Continuous
 62
     7
370
     9
100
AcDbLine
 10
-377.7249704459792
 20
364.656277647312
 30
0.0
 11
-352.9387996927067
 21
367.919390308313
 31
0.0
  0
LINE
  5
18F
330
1F
100
AcDbEntity
  8
0-4
  6
Continuous
 62
     7
370
     9
100
AcDbLine
 10
-377.7249704459792
 20
364.656277647312
 30
0.0
 11
-352.9387996927067
 21
361.3931649863111
 31
0.0
  0
LINE
  5
190
330
1F
100
AcDbEntity
  8
0-4
  6
Continuous
 62
     7
370
     9
100
AcDbLine
 10
78.94167697536787
 20
364.656277647312
 30
0.0
 11
54.15562994200641
 21
367.919390308313
 31
0.0
  0
LINE
  5
191
330
1F
100
AcDbEntity
  8
0-4
  6
Continuous
 62
     7
370
     9
100
AcDbLine
 10
78.94167697536787
 20
364.656277647312
 30
0.0
 11
54.15562994200641
 21
361.3931649863111
 31
0.0
  0
LINE
  5
192
330
1F
100
AcDbEntity
  8
0-4
  6
Continuous
 62
     7
370
     9
100
AcDbLine
 10
-449.3917085952615
 20
444.6562941433002
 30
0.0
 11
150.6081676848272
 21
444.6562941433002
 31
0.0
  0
LINE
  5
193
330
1F
100
AcDbEntity
  8
0-4
  6
Continuous
 62
     7
370
     9
100
AcDbLine
 10
-449.3917085952615
 20
139.6565250871346
 30
0.0
 11
-449.3917085952615
 21
447.6562545529287
 31
0.0
  0
LINE
  5
194
330
1F
100
AcDbEntity
  8
0-4
  6
Continuous
 62
     7
370
     9
100
AcDbLine
 10
150.6081676848272
 20
139.6564013672234
 30
0.0
 11
150.6081676848272
 21
447.6562545529287
 31
0.0
  0
LINE
  5
195
330
1F
100
AcDbEntity
  8
0-4
  6
Continuous
 62
     7
370
     9
100
AcDbLine
 10
-449.3917085952615
 20
444.6562941433002
 30
0.0
 11
-424.6055378419886
 21
447.919406804301
 31
0.0
  0
LINE
  5
196
330
1F
100
AcDbEntity
  8
0-4
  6
Continuous
 62
     7
370
     9
100
AcDbLine
 10
-449.3917085952615
 20
444.6562941433002
 30
0.0
 11
-424.6055378419886
 21
441.3931814822995
 31
0.0
  0
LINE
  5
197
330
1F
100
AcDbEntity
  8
0-4
  6
Continuous
 62
     7
370
     9
100
AcDbLine
 10
150.6081676848272
 20
444.6562941433002
 30
0.0
 11
125.8221206514658
 21
447.919406804301
 31
0.0
  0
LINE
  5
198
330
1F
100
AcDbEntity
  8
0-4
  6
Continuous
 62
     7
370
     9
100
AcDbLine
 10
150.6081676848272
 20
444.6562941433002
 30
0.0
 11
125.8221206514658
 21
441.3931814822995
 31
0.0
  0
LINE
  5
199
330
1F
100
AcDbEntity
  8
0-4
  6
Continuous
 62
     7
370
     9
100
AcDbLine
 10
-482.7250694219084
 20
524.6563106392886
 30
0.0
 11
183.9417759512968
 21
524.6563106392886
 31
0.0
  0
LINE
  5
19A
330
1F
100
AcDbEntity
  8
0-4
  6
Continuous
 62
     7
370
     9
100
AcDbLine
 10
-482.7250694219084
 20
120.1351314400698
 30
0.0
 11
-482.7250694219084
 21
527.6562710489169
 31
0.0
  0
LINE
  5
19B
330
1F
100
AcDbEntity
  8
0-4
  6
Continuous
 62
     7
370
     9
100
AcDbLine
 10
183.9417759512968
 20
120.1351314400698
 30
0.0
 11
183.9417759512968
 21
527.6562710489169
 31
0.0
  0
LINE
  5
19C
330
1F
100
AcDbEntity
  8
0-4
  6
Continuous
 62
     7
370
     9
100
AcDbLine
 10
-482.7250694219084
 20
524.6563106392886
 30
0.0
 11
-457.9388986686355
 21
527.9194233002893
 31
0.0
  0
LINE
  5
19D
330
1F
100
AcDbEntity
  8
0-4
  6
Continuous
 62
     7
370
     9
100
AcDbLine
 10
-482.7250694219084
 20
524.6563106392886
 30
0.0
 11
-457.9388986686355
 21
521.3931979782875
 31
0.0
  0
LINE
  5
19E
330
1F
100
AcDbEntity
  8
0-4
  6
Continuous
 62
     7
370
     9
100
AcDbLine
 10
183.9417759512968
 20
524.6563106392886
 30
0.0
 11
159.1557289179353
 21
527.9194233002893
 31
0.0
  0
LINE
  5
19F
330
1F
100
AcDbEntity
  8
0-4
  6
Continuous
 62
     7
370
     9
100
AcDbLine
 10
183.9417759512968
 20
524.6563106392886
 30
0.0
 11
159.1557289179353
 21
521.3931979782875
 31
0.0
  0
LINE
  5
1A0
330
1F
100
AcDbEntity
  8
0-4
  6
Continuous
 62
     7
370
     9
100
AcDbLine
 10
-251.0584220005613
 20
-271.5314871132983
 30
0.0
 11
-47.72487147005036
 21
-271.5314871132983
 31
0.0
  0
LINE
  5
1A1
330
1F
100
AcDbEntity
  8
0-4
  6
Continuous
 62
     7
370
     9
100
AcDbLine
 10
-251.0584220005613
 20
-126.5316891891533
 30
0.0
 11
-251.0584220005613
 21
-274.5315093828822
 31
0.0
  0
LINE
  5
1A2
330
1F
100
AcDbEntity
  8
0-4
  6
Continuous
 62
     7
370
     9
100
AcDbLine
 10
-47.72487147005036
 20
-126.5316891891533
 30
0.0
 11
-47.72487147005036
 21
-274.5315093828822
 31
0.0
  0
LINE
  5
1A3
330
1F
100
AcDbEntity
  8
0-4
  6
Continuous
 62
     7
370
     9
100
AcDbLine
 10
-251.0584220005613
 20
-271.5314871132983
 30
0.0
 11
-226.2722512472884
 21
-268.2683125923416
 31
0.0
  0
LINE
  5
1A4
330
1F
100
AcDbEntity
  8
0-4
  6
Continuous
 62
     7
370
     9
100
AcDbLine
 10
-251.0584220005613
 20
-271.5314871132983
 30
0.0
 11
-226.2722512472884
 21
-274.7946616342546
 31
0.0
  0
LINE
  5
1A5
330
1F
100
AcDbEntity
  8
0-4
  6
Continuous
 62
     7
370
     9
100
AcDbLine
 10
-47.72487147005036
 20
-271.5314871132983
 30
0.0
 11
-72.511042223323
 21
-268.2683125923416
 31
0.0
  0
LINE
  5
1A6
330
1F
100
AcDbEntity
  8
0-4
  6
Continuous
 62
     7
370
     9
100
AcDbLine
 10
-47.72487147005036
 20
-271.5314871132983
 30
0.0
 11
-72.511042223323
 21
-274.7946616342546
 31
0.0
  0
LINE
  5
1A7
330
1F
100
AcDbEntity
  8
0-4
  6
Continuous
 62
     7
370
     9
100
AcDbLine
 10
-261.0582075527149
 20
-351.5315036092864
 30
0.0
 11
-37.72508591789644
 21
-351.5315036092864
 31
0.0
  0
LINE
  5
1A8
330
1F
100
AcDbEntity
  8
0-4
  6
Continuous
 62
     7
370
     9
100
AcDbLine
 10
-261.0582075527149
 20
13.46827781887022
 30
0.0
 11
-261.0582075527149
 21
-354.5315258788705
 31
0.0
  0
LINE
  5
1A9
330
1F
100
AcDbEntity
  8
0-4
  6
Continuous
 62
     7
370
     9
100
AcDbLine
 10
-37.72508591789644
 20
13.46852525869288
 30
0.0
 11
-37.72508591789644
 21
-354.5315258788705
 31
0.0
  0
LINE
  5
1AA
330
1F
100
AcDbEntity
  8
0-4
  6
Continuous
 62
     7
370
     9
100
AcDbLine
 10
-261.0582075527149
 20
-351.5315036092864
 30
0.0
 11
-236.2720367994423
 21
-348.2683290883299
 31
0.0
  0
LINE
  5
1AB
330
1F
100
AcDbEntity
  8
0-4
  6
Continuous
 62
     7
370
     9
100
AcDbLine
 10
-261.0582075527149
 20
-351.5315036092864
 30
0.0
 11
-236.2720367994423
 21
-354.7946781302429
 31
0.0
  0
LINE
  5
1AC
330
1F
100
AcDbEntity
  8
0-4
  6
Continuous
 62
     7
370
     9
100
AcDbLine
 10
-37.72508591789644
 20
-351.5315036092864
 30
0.0
 11
-62.51125667116936
 21
-348.2683290883299
 31
0.0
  0
LINE
  5
1AD
330
1F
100
AcDbEntity
  8
0-4
  6
Continuous
 62
     7
370
     9
100
AcDbLine
 10
-37.72508591789644
 20
-351.5315036092864
 30
0.0
 11
-62.51125667116936
 21
-354.7946781302429
 31
0.0
  0
LINE
  5
1AE
330
1F
100
AcDbEntity
  8
0-4
  6
Continuous
 62
     7
370
     9
100
AcDbLine
 10
-482.7248219820858
 20
-431.5315201052744
 30
0.0
 11
183.9417759512968
 21
-431.5315201052744
 31
0.0
  0
LINE
  5
1AF
330
1F
100
AcDbEntity
  8
0-4
  6
Continuous
 62
     7
370
     9
100
AcDbLine
 10
-482.7248219820858
 20
-169.8648355679541
 30
0.0
 11
-482.7248219820858
 21
-434.5315423748587
 31
0.0
  0
LINE
  5
1B0
330
1F
100
AcDbEntity
  8
0-4
  6
Continuous
 62
     7
370
     9
100
AcDbLine
 10
183.9417759512968
 20
-169.8648355679541
 30
0.0
 11
183.9417759512968
 21
-434.5315423748587
 31
0.0
  0
LINE
  5
1B1
330
1F
100
AcDbEntity
  8
0-4
  6
Continuous
 62
     7
370
     9
100
AcDbLine
 10
-482.7248219820858
 20
-431.5315201052744
 30
0.0
 11
-457.9386512288129
 21
-428.2683455843181
 31
0.0
  0
LINE
  5
1B2
330
1F
100
AcDbEntity
  8
0-4
  6
Continuous
 62
     7
370
     9
100
AcDbLine
 10
-482.7248219820858
 20
-431.5315201052744
 30
0.0
 11
-457.9386512288129
 21
-434.7946946262311
 31
0.0
  0
LINE
  5
1B3
330
1F
100
AcDbEntity
  8
0-4
  6
Continuous
 62
     7
370
     9
100
AcDbLine
 10
183.9417759512968
 20
-431.5315201052744
 30
0.0
 11
159.1557289179353
 21
-428.2683455843181
 31
0.0
  0
LINE
  5
1B4
330
1F
100
AcDbEntity
  8
0-4
  6
Continuous
 62
     7
370
     9
100
AcDbLine
 10
183.9417759512968
 20
-431.5315201052744
 30
0.0
 11
159.1557289179353
 21
-434.7946946262311
 31
0.0
  0
LINE
  5
1B5
330
1F
100
AcDbEntity
  8
0-4
  6
Continuous
 62
     7
370
     9
100
AcDbLine
 10
283.9418584312376
 20
-101.5317304291238
 30
0.0
 11
283.9418584312376
 21
121.8017623654286
 31
0.0
  0
LINE
  5
1B6
330
1F
100
AcDbEntity
  8
0-4
  6
Continuous
 62
     7
370
     9
100
AcDbLine
 10
-22.72491271002066
 20
-101.5317304291238
 30
0.0
 11
286.9418188408659
 21
-101.5317304291238
 31
0.0
  0
LINE
  5
1B7
330
1F
100
AcDbEntity
  8
0-4
  6
Continuous
 62
     7
370
     9
100
AcDbLine
 10
205.6083491406973
 20
121.8017623654286
 30
0.0
 11
286.9418188408659
 21
121.8017623654286
 31
0.0
  0
LINE
  5
1B8
330
1F
100
AcDbEntity
  8
0-4
  6
Continuous
 62
     7
370
     9
100
AcDbLine
 10
283.9418584312376
 20
-101.5317304291238
 30
0.0
 11
280.6786220503257
 21
-76.745559675851
 31
0.0
  0
LINE
  5
1B9
330
1F
100
AcDbEntity
  8
0-4
  6
Continuous
 62
     7
370
     9
100
AcDbLine
 10
283.9418584312376
 20
-101.5317304291238
 30
0.0
 11
287.2050948121498
 21
-76.745559675851
 31
0.0
  0
LINE
  5
1BA
330
1F
100
AcDbEntity
  8
0-4
  6
Continuous
 62
     7
370
     9
100
AcDbLine
 10
283.9418584312376
 20
121.8017623654286
 30
0.0
 11
280.6786220503257
 21
97.0155916121557
 31
0.0
  0
LINE
  5
1BB
330
1F
100
AcDbEntity
  8
0-4
  6
Continuous
 62
     7
370
     9
100
AcDbLine
 10
283.9418584312376
 20
121.8017623654286
 30
0.0
 11
287.2050948121498
 21
97.0155916121557
 31
0.0
  0
LINE
  5
1BC
330
1F
100
AcDbEntity
  8
0-4
  6
Continuous
 62
     7
370
     9
100
AcDbLine
 10
363.9418749272259
 20
-144.8648768079245
 30
0.0
 11
363.9418749272259
 21
121.8017623654286
 31
0.0
  0
LINE
  5
1BD
330
1F
100
AcDbEntity
  8
0-4
  6
Continuous
 62
     7
370
     9
100
AcDbLine
 10
208.9418584312376
 20
-144.8648768079245
 30
0.0
 11
366.9418353368543
 21
-144.8648768079245
 31
0.0
  0
LINE
  5
1BE
330
1F
100
AcDbEntity
  8
0-4
  6
Continuous
 62
     7
370
     9
100
AcDbLine
 10
363.9418749272259
 20
-144.8648768079245
 30
0.0
 11
360.6786385463137
 21
-120.0787060546516
 31
0.0
  0
LINE
  5
1BF
330
1F
100
AcDbEntity
  8
0-4
  6
Continuous
 62
     7
370
     9
100
AcDbLine
 10
363.9418749272259
 20
-144.8648768079245
 30
0.0
 11
367.2051113081382
 21
-120.0787060546516
 31
0.0
  0
LINE
  5
1C0
330
1F
100
AcDbEntity
  8
0-4
  6
Continuous
 62
     7
370
     9
100
AcDbLine
 10
363.9418749272259
 20
121.8017623654286
 30
0.0
 11
360.6786385463137
 21
97.0155916121557
 31
0.0
  0
LINE
  5
1C1
330
1F
100
AcDbEntity
  8
0-4
  6
Continuous
 62
     7
370
     9
100
AcDbLine
 10
363.9418749272259
 20
121.8017623654286
 30
0.0
 11
367.2051113081382
 21
97.0155916121557
 31
0.0
  0
LINE
  5
1C2
330
1F
100
AcDbEntity
  8
0-4
  6
Continuous
 62
     7
370
     9
100
AcDbLine
 10
366.9418353368543
 20
121.8017623654286
 30
0.0
 11
366.9418353368543
 21
264.6563188872825
 31
0.0
  0
LINE
  5
1C3
330
1F
100
AcDbEntity
  8
0-4
  6
Continuous
 62
     7
370
     9
100
AcDbLine
 10
205.6083491406973
 20
121.8017623654286
 30
0.0
 11
369.9417957464826
 21
121.8017623654286
 31
0.0
  0
LINE
  5
1C4
330
1F
100
AcDbEntity
  8
0-4
  6
Continuous
 62
     7
370
     9
100
AcDbLine
 10
366.9418353368543
 20
121.8017623654286
 30
0.0
 11
363.678598955942
 21
146.5879331187013
 31
0.0
  0
LINE
  5
1C5
330
1F
100
AcDbEntity
  8
0-4
  6
Continuous
 62
     7
370
     9
100
AcDbLine
 10
366.9418353368543
 20
121.8017623654286
 30
0.0
 11
370.2050717177665
 21
146.5879331187013
 31
0.0
  0
LINE
  5
1C6
330
1F
100
AcDbEntity
  8
0-4
  6
Continuous
 62
     7
370
     9
100
AcDbLine
 10
366.9418353368543
 20
264.6563188872825
 30
0.0
 11
363.678598955942
 21
239.8701481340096
 31
0.0
  0
LINE
  5
1C7
330
1F
100
AcDbEntity
  8
0-4
  6
Continuous
 62
     7
370
     9
100
AcDbLine
 10
366.9418353368543
 20
264.6563188872825
 30
0.0
 11
370.2050717177665
 21
239.8701481340096
 31
0.0
  0
LINE
  5
1C8
330
1F
100
AcDbEntity
  8
0-4
  6
Continuous
 62
     7
370
     9
100
AcDbLine
 10
-582.7250281819378
 20
114.6563188872825
 30
0.0
 11
-582.7250281819378
 21
264.6563188872825
 31
0.0
  0
LINE
  5
1C9
330
1F
100
AcDbEntity
  8
0-4
  6
Continuous
 62
     7
370
     9
100
AcDbLine
 10
-396.6097014294043
 20
114.6563188872825
 30
0.0
 11
-585.7249885915662
 21
114.6563188872825
 31
0.0
  0
LINE
  5
1CA
330
1F
100
AcDbEntity
  8
0-4
  6
Continuous
 62
     7
370
     9
100
AcDbLine
 10
-582.7250281819378
 20
114.6563188872825
 30
0.0
 11
-585.9881408429388
 21
139.4424896405552
 31
0.0
  0
LINE
  5
1CB
330
1F
100
AcDbEntity
  8
0-4
  6
Continuous
 62
     7
370
     9
100
AcDbLine
 10
-582.7250281819378
 20
114.6563188872825
 30
0.0
 11
-579.461915520937
 21
139.4424896405552
 31
0.0
  0
LINE
  5
1CC
330
1F
100
AcDbEntity
  8
0-4
  6
Continuous
 62
     7
370
     9
100
AcDbLine
 10
-582.7250281819378
 20
264.6563188872825
 30
0.0
 11
-585.9881408429388
 21
239.8701481340096
 31
0.0
  0
LINE
  5
1CD
330
1F
100
AcDbEntity
  8
0-4
  6
Continuous
 62
     7
370
     9
100
AcDbLine
 10
-582.7250281819378
 20
264.6563188872825
 30
0.0
 11
-579.461915520937
 21
239.8701481340096
 31
0.0
  0
LINE
  5
1CE
330
1F
100
AcDbEntity
  8
0-4
  6
Continuous
 62
     7
370
     9
100
AcDbLine
 10
-286.0585374724785
 20
264.6563188872825
 30
0.0
 11
-585.7249885915662
 21
264.6563188872825
 31
0.0
  0
LINE
  5
1CF
330
1F
100
AcDbEntity
  8
0-4
  6
Continuous
 62
     7
370
     9
100
AcDbLine
 10
-17.28296869080607
 20
264.6563188872825
 30
0.0
 11
369.9417957464826
 21
264.6563188872825
 31
0.0
  0
LINE
  5
1D0
330
1F
100
AcDbEntity
  8
0-0
  6
Continuous
 62
     3
370
     9
100
AcDbLine
 10
-373.803296697035
 20
61.80181185339315
 30
0.0
 11
-373.803296697035
 21
57.80169968067334
 31
0.0
  0
LINE
  5
1D1
330
1F
100
AcDbEntity
  8
0-0
  6
Continuous
 62
     3
370
     9
100
AcDbLine
 10
-351.6465452189947
 20
61.80181185339315
 30
0.0
 11
-351.6465452189947
 21
57.80169968067334
 31
0.0
  0
LINE
  5
1D2
330
1F
100
AcDbEntity
  8
0-0
  6
Continuous
 62
     7
370
     9
100
AcDbLine
 10
-386.0582487926855
 20
-54.20985410944475
 30
0.0
 11
-339.3915931233441
 21
-45.98111908780204
 31
0.0
  0
LINE
  5
1D3
330
1F
100
AcDbEntity
  8
0-0
  6
Continuous
 62
     7
370
     9
100
AcDbLine
 10
-386.0582487926855
 20
-67.74877144474878
 30
0.0
 11
-339.3915931233441
 21
-59.52016014301741
 31
0.0
  0
LINE
  5
1D4
330
1F
100
AcDbEntity
  8
0-0
  6
Continuous
 62
     4
370
     9
100
AcDbLine
 10
-349.3916261153207
 20
-171.531466493313
 30
0.0
 11
-349.3916261153207
 21
-61.28341631911546
 31
0.0
  0
LINE
  5
1D5
330
1F
100
AcDbEntity
  8
0-0
  6
Continuous
 62
     4
370
     9
100
AcDbLine
 10
-349.3916261153207
 20
-47.74437526389995
 30
0.0
 11
-349.3916261153207
 21
55.54678057699938
 31
0.0
  0
LINE
  5
1D6
330
1F
100
AcDbEntity
  8
0-0
  6
Continuous
 62
     4
370
     9
100
AcDbLine
 10
-351.6465452189947
 20
-171.531466493313
 30
0.0
 11
-351.6465452189947
 21
-61.68105211409006
 31
0.0
  0
LINE
  5
1D7
330
1F
100
AcDbEntity
  8
0-0
  6
Continuous
 62
     4
370
     9
100
AcDbLine
 10
-351.6465452189947
 20
-48.1420110588747
 30
0.0
 11
-351.6465452189947
 21
57.80169968067334
 31
0.0
  0
LINE
  5
1D8
330
1F
100
AcDbEntity
  8
0-0
  6
Continuous
 62
     4
370
     9
100
AcDbLine
 10
-376.0583395206204
 20
-171.531466493313
 30
0.0
 11
-376.0583395206204
 21
-65.98551526865087
 31
0.0
  0
LINE
  5
1D9
330
1F
100
AcDbEntity
  8
0-0
  6
Continuous
 62
     4
370
     9
100
AcDbLine
 10
-376.0583395206204
 20
-52.44659793334684
 30
0.0
 11
-376.0583395206204
 21
55.54678057699938
 31
0.0
  0
LINE
  5
1DA
330
1F
100
AcDbEntity
  8
0-0
  6
Continuous
 62
     4
370
     9
100
AcDbLine
 10
-373.803296697035
 20
-171.531466493313
 30
0.0
 11
-373.803296697035
 21
-65.58787947367627
 31
0.0
  0
LINE
  5
1DB
330
1F
100
AcDbEntity
  8
0-0
  6
Continuous
 62
     4
370
     9
100
AcDbLine
 10
-373.803296697035
 20
-52.04896213837209
 30
0.0
 11
-373.803296697035
 21
57.80169968067334
 31
0.0
  0
LINE
  5
1DC
330
1F
100
AcDbEntity
  8
0-E
  6
Continuous
 62
     7
370
     9
100
AcDbLine
 10
179.2045405469473
 20
-157.5282283308342
 30
0.0
 11
194.4235742779439
 21
-177.362014753976
 31
0.0
  0
LINE
  5
1DD
330
1F
100
AcDbEntity
  8
0-E
  6
Continuous
 62
     7
370
     9
100
AcDbLine
 10
179.2045405469473
 20
-157.5282283308342
 30
0.0
 11
188.7715538493121
 21
-180.6252511348882
 31
0.0
  0
LINE
  5
1DE
330
1F
100
AcDbEntity
  8
0-E
  6
Continuous
 62
     7
370
     9
100
AcDbLine
 10
69.17201045826474
 20
150.1687585119659
 30
0.0
 11
78.73902376062958
 21
173.2657813160198
 31
0.0
  0
LINE
  5
1DF
330
1F
100
AcDbEntity
  8
0-E
  6
Continuous
 62
     7
370
     9
100
AcDbLine
 10
69.17201045826474
 20
150.1687585119659
 30
0.0
 11
84.39104418926135
 21
170.0025449351078
 31
0.0
  0
LINE
  5
1E0
330
1F
100
AcDbEntity
  8
0-E
  6
Continuous
 62
     7
370
     9
100
AcDbLine
 10
95.60823366877983
 20
134.6562611513239
 30
0.0
 11
105.175246971145
 21
157.7532839553778
 31
0.0
  0
LINE
  5
1E1
330
1F
100
AcDbEntity
  8
0-E
  6
Continuous
 62
     7
370
     9
100
AcDbLine
 10
95.60823366877983
 20
134.6562611513239
 30
0.0
 11
110.8272673997767
 21
154.4900475744659
 31
0.0
  0
LINE
  5
1E2
330
1F
100
AcDbEntity
  8
0-E
  6
Continuous
 62
     7
370
     9
100
AcDbLine
 10
-482.7250694219084
 20
95.13517268004009
 30
0.0
 11
-492.2922064441844
 21
72.03814987598591
 31
0.0
  0
LINE
  5
1E3
330
1F
100
AcDbEntity
  8
0-E
  6
Continuous
 62
     7
370
     9
100
AcDbLine
 10
-482.7250694219084
 20
95.13517268004009
 30
0.0
 11
-497.9441031529051
 21
75.30138625689816
 31
0.0
  0
LINE
  5
1E4
330
1F
100
AcDbEntity
  8
0-E
  6
Continuous
 62
     7
370
     9
100
AcDbLine
 10
-303.8034369129344
 20
190.1351149440815
 30
0.0
 11
-319.0224706439311
 21
209.9689013672234
 31
0.0
  0
LINE
  5
1E5
330
1F
100
AcDbEntity
  8
0-E
  6
Continuous
 62
     7
370
     9
100
AcDbLine
 10
-303.8034369129344
 20
190.1351149440815
 30
0.0
 11
-313.3705739352108
 21
213.2321377481357
 31
0.0
  0
LINE
  5
1E6
330
1F
100
AcDbEntity
  8
0-E
  6
Continuous
 62
     7
370
     9
100
AcDbLine
 10
-373.803296697035
 20
-208.864692052857
 30
0.0
 11
-383.3704337193113
 21
-231.961714856911
 31
0.0
  0
LINE
  5
1E7
330
1F
100
AcDbEntity
  8
0-E
  6
Continuous
 62
     7
370
     9
100
AcDbLine
 10
-373.803296697035
 20
-208.864692052857
 30
0.0
 11
-389.0223304280316
 21
-228.6984784759988
 31
0.0
  0
LINE
  5
1E8
330
1F
100
AcDbEntity
  8
0-E
  6
Continuous
 62
     7
370
     9
100
AcDbLine
 10
-1.916955705164138
 20
248.6583445946304
 30
0.0
 11
7.650057597200686
 21
271.7553673986846
 31
0.0
  0
LINE
  5
1E9
330
1F
100
AcDbEntity
  8
0-E
  6
Continuous
 62
     7
370
     9
100
AcDbLine
 10
-1.916955705164138
 20
248.6583445946304
 30
0.0
 11
13.30207802583246
 21
268.4921310177724
 31
0.0
  0
LINE
  5
1EA
330
1F
100
AcDbEntity
  8
0-E
  6
Continuous
 62
     7
370
     9
100
AcDbLine
 10
-1.916955705164138
 20
248.6583445946304
 30
0.0
 11
60.60069500218376
 21
356.9422174567505
 31
0.0
  0
LINE
  5
1EB
330
1F
100
AcDbEntity
  8
0-E
  6
Continuous
 62
     7
370
     9
100
AcDbLine
 10
-482.7250694219084
 20
95.13517268004009
 30
0.0
 11
-540.4600795174532
 21
-4.864786079989685
 31
0.0
  0
LINE
  5
1EC
330
1F
100
AcDbEntity
  8
0-E
  6
Continuous
 62
     7
370
     9
100
AcDbLine
 10
179.2045405469473
 20
-157.5282283308342
 30
0.0
 11
245.0242756873611
 21
-271.5314871132983
 31
0.0
  0
LINE
  5
1ED
330
1F
100
AcDbEntity
  8
0-E
  6
Continuous
 62
     7
370
     9
100
AcDbLine
 10
-373.803296697035
 20
-208.864692052857
 30
0.0
 11
-531.2274811353798
 21
-481.5314994852894
 31
0.0
  0
LINE
  5
1EE
330
1F
100
AcDbEntity
  8
0-E
  6
Continuous
 62
     7
370
     9
100
AcDbLine
 10
-824.9957092023137
 20
-4.864786079989685
 30
0.0
 11
-540.4600795174532
 21
-4.864786079989685
 31
0.0
  0
LINE
  5
1EF
330
1F
100
AcDbEntity
  8
0-E
  6
Continuous
 62
     7
370
     9
100
AcDbLine
 10
-853.6862329169464
 20
-481.5314994852894
 30
0.0
 11
-531.2274811353798
 21
-481.5314994852894
 31
0.0
  0
LINE
  5
1F0
330
1F
100
AcDbEntity
  8
0-E
  6
Continuous
 62
     7
370
     9
100
AcDbLine
 10
245.0242756873611
 20
-271.5314871132983
 30
0.0
 11
634.6150597086871
 21
-271.5314871132983
 31
0.0
  0
LINE
  5
1F1
330
1F
100
AcDbEntity
  8
0-E
  6
Continuous
 62
     7
370
     9
100
AcDbLine
 10
95.60823366877983
 20
134.6562611513239
 30
0.0
 11
228.3987940045064
 21
364.656277647312
 31
0.0
  0
LINE
  5
1F2
330
1F
100
AcDbEntity
  8
0-E
  6
Continuous
 62
     7
370
     9
100
AcDbLine
 10
69.17201045826474
 20
150.1687585119659
 30
0.0
 11
262.2883995524371
 21
484.6563023912943
 31
0.0
  0
LINE
  5
1F3
330
1F
100
AcDbEntity
  8
0-E
  6
Continuous
 62
     7
370
     9
100
AcDbLine
 10
70.1701827027749
 20
373.5168502560537
 30
0.0
 11
203.6186855268882
 21
604.6563271352766
 31
0.0
  0
LINE
  5
1F4
330
1F
100
AcDbEntity
  8
0-E
  6
Continuous
 62
     7
370
     9
100
AcDbLine
 10
203.6186855268882
 20
604.6563271352766
 30
0.0
 11
596.6003848776058
 21
604.6563271352766
 31
0.0
  0
LINE
  5
1F5
330
1F
100
AcDbEntity
  8
0-E
  6
Continuous
 62
     7
370
     9
100
AcDbLine
 10
262.2883995524371
 20
484.6563023912943
 30
0.0
 11
617.8559605216095
 21
484.6563023912943
 31
0.0
  0
LINE
  5
1F6
330
1F
100
AcDbEntity
  8
0-E
  6
Continuous
 62
     7
370
     9
100
AcDbLine
 10
228.3987940045064
 20
364.656277647312
 30
0.0
 11
623.9427327186111
 21
364.656277647312
 31
0.0
  0
LINE
  5
1F7
330
1F
100
AcDbEntity
  8
0-E
  6
Continuous
 62
     7
370
     9
100
AcDbLine
 10
-303.8034369129344
 20
190.1351149440815
 30
0.0
 11
-543.12748080546
 21
604.6563271352766
 31
0.0
  0
LINE
  5
1F8
330
1F
100
AcDbEntity
  8
0-E
  6
Continuous
 62
     7
370
     9
100
AcDbLine
 10
-543.12748080546
 20
604.6563271352766
 30
0.0
 11
-874.9426746003289
 21
604.6563271352766
 31
0.0
  0
ARC
  5
1F9
330
1F
100
AcDbEntity
  8
0-0
  6
Continuous
 62
     3
370
     9
100
AcDbCircle
 10
-453.4087703958317
 20
63.96913725985435
 30
0.0
 40
36.66666907233162
100
AcDbArc
 50
74.99996948242188
 51
121.7900543212891
  0
ARC
  5
1FA
330
1F
100
AcDbEntity
  8
0-0
  6
Continuous
 62
     3
370
     9
100
AcDbCircle
 10
-431.1707349360553
 20
111.9311404006903
 30
0.0
 40
5.416716272766527
100
AcDbArc
 50
187.6205902099609
 51
322.3796997070312
  0
ARC
  5
1FB
330
1F
100
AcDbEntity
  8
0-0
  6
Continuous
 62
     3
370
     9
100
AcDbCircle
 10
-411.85211822364
 20
106.7544518713409
 30
0.0
 40
5.416716272766527
100
AcDbArc
 50
187.6205902099609
 51
322.3796997070312
  0
ARC
  5
1FC
330
1F
100
AcDbEntity
  8
0-0
  6
Continuous
 62
     3
370
     9
100
AcDbCircle
 10
-400.7548133381879
 20
98.17323882235442
 30
0.0
 40
3.333333859572539
100
AcDbArc
 50
11.56538391113281
 51
75.00050354003908
  0
ARC
  5
1FD
330
1F
100
AcDbEntity
  8
0-0
  6
Continuous
 62
     3
370
     9
100
AcDbCircle
 10
-392.808407154172
 20
92.5929759422867
 30
0.0
 40
3.333333859572539
100
AcDbArc
 50
191.5664215087891
 51
255.000503540039
  0
ARC
  5
1FE
330
1F
100
AcDbEntity
  8
0-0
  6
Continuous
 62
     3
370
     9
100
AcDbCircle
 10
-374.2499255768915
 20
87.62042526661091
 30
0.0
 40
3.333333859572539
100
AcDbArc
 50
255.0005035400391
 51
318.4357757568359
  0
ARC
  5
1FF
330
1F
100
AcDbEntity
  8
0-0
  6
Continuous
 62
     3
370
     9
100
AcDbCircle
 10
-364.5776266299954
 20
88.4797837706229
 30
0.0
 40
3.333333859572539
100
AcDbArc
 50
75.00077819824219
 51
138.4349822998047
  0
ARC
  5
200
330
1F
100
AcDbEntity
  8
0-0
  6
Continuous
 62
     3
370
     9
100
AcDbCircle
 10
-402.7922328377657
 20
83.19026268215154
 30
0.0
 40
5.000000064437453
100
AcDbArc
 50
191.5660095214844
 51
254.9999084472656
  0
ARC
  5
201
330
1F
100
AcDbEntity
  8
0-0
  6
JWW_DASHED1
 62
     3
370
     9
100
AcDbCircle
 10
-370.3046213248855
 20
74.48508228202499
 30
0.0
 40
5.000000064437453
100
AcDbArc
 50
254.9999084472656
 51
318.4350433349609
  0
ARC
  5
202
330
1F
100
AcDbEntity
  8
0-0
  6
JWW_DASHED1
 62
     3
370
     9
100
AcDbCircle
 10
-358.941689789835
 20
69.71493738126483
 30
0.0
 40
6.666667719145078
100
AcDbArc
 50
75.00050354003906
 51
138.4350738525391
  0
ARC
  5
203
330
1F
100
AcDbEntity
  8
0-0
  6
Continuous
 62
     3
370
     9
100
AcDbCircle
 10
-415.0181107542563
 20
84.74047317096066
 30
0.0
 40
6.666667719145078
100
AcDbArc
 50
11.56517028808594
 51
75.00050354003906
  0
ARC
  5
204
330
1F
100
AcDbEntity
  8
0-0
  6
Continuous
 62
     3
370
     9
100
AcDbCircle
 10
-350.6767048341761
 20
90.36280082087629
 30
0.0
 40
5.416716272766527
100
AcDbArc
 50
187.6191101074219
 51
322.3802185058594
  0
ARC
  5
205
330
1F
100
AcDbEntity
  8
0-0
  6
Continuous
 62
     3
370
     9
100
AcDbCircle
 10
-393.6263194878923
 20
68.65589494038645
 30
0.0
 40
6.666667719145078
100
AcDbArc
 50
9.074417114257812
 51
75.00050354003908
  0
ARC
  5
206
330
1F
100
AcDbEntity
  8
0-0
  6
Continuous
 62
     3
370
     9
100
AcDbCircle
 10
-326.6589584500967
 20
35.1352221680046
 30
0.0
 40
3.333333859572539
100
AcDbArc
 50
90.0
 51
168.6900634765625
  0
ARC
  5
207
330
1F
100
AcDbEntity
  8
0-0
  6
JWW_DASHED1
 62
     3
370
     9
100
AcDbCircle
 10
-323.4934607991254
 20
45.13500772015824
 30
0.0
 40
6.666667719145078
100
AcDbArc
 50
186.999984741211
 51
270.0
  0
ARC
  5
208
330
1F
100
AcDbEntity
  8
0-0
  6
JWW_DASHED1
 62
     3
370
     9
100
AcDbCircle
 10
-342.3332814547421
 20
61.81393640470226
 30
0.0
 40
10.00000012887491
100
AcDbArc
 50
7.000076293945312
 51
75.00050354003908
  0
ARC
  5
209
330
1F
100
AcDbEntity
  8
0-0
  6
Continuous
 62
     3
370
     9
100
AcDbCircle
 10
-336.8239100838595
 20
26.80169638147596
 30
0.0
 40
5.000000064437453
100
AcDbArc
 50
270.0
 51
348.6897888183594
  0
ARC
  5
20A
330
1F
100
AcDbEntity
  8
0-0
  6
JWW_DASHED1
 62
     3
370
     9
100
AcDbCircle
 10
-309.2717332732597
 20
66.06569487704185
 30
0.0
 40
10.00000012887491
100
AcDbArc
 50
187.0000762939453
 51
266.0001678466797
  0
ARC
  5
20B
330
1F
100
AcDbEntity
  8
0-0
  6
Continuous
 62
     3
370
     9
100
AcDbCircle
 10
-270.3694917983865
 20
28.468451026746
 30
0.0
 40
10.00000012887491
100
AcDbArc
 50
4.085464477539062
 51
90.0
  0
ARC
  5
20C
330
1F
100
AcDbEntity
  8
0-0
  6
Continuous
 62
     3
370
     9
100
AcDbCircle
 10
-276.5162681523772
 20
71.80159740554686
 30
0.0
 40
5.000000064437453
100
AcDbArc
 50
15.659423828125
 51
90.0
  0
ARC
  5
20D
330
1F
100
AcDbEntity
  8
0-0
  6
Continuous
 62
     3
370
     9
100
AcDbCircle
 10
-330.195368395198
 20
72.36501788168695
 30
0.0
 40
10.00000012887491
100
AcDbArc
 50
26.33775329589844
 51
75.00059509277342
  0
ARC
  5
20E
330
1F
100
AcDbEntity
  8
0-0
  6
JWW_DASHED1
 62
     3
370
     9
100
AcDbCircle
 10
-330.195368395198
 20
72.36501788168695
 30
0.0
 40
10.00000012887491
100
AcDbArc
 50
7.000076293945312
 51
26.33775329589844
  0
ARC
  5
20F
330
1F
100
AcDbEntity
  8
0-0
  6
Continuous
 62
     3
370
     9
100
AcDbCircle
 10
-270.4744062831837
 20
29.93799613337622
 30
0.0
 40
23.33333363404144
100
AcDbArc
 50
4.085601806640625
 51
78.96446228027342
  0
ARC
  5
210
330
1F
100
AcDbEntity
  8
0-0
  6
JWW_DASHED1
 62
     3
370
     9
100
AcDbCircle
 10
-270.4744062831837
 20
29.93799613337622
 30
0.0
 40
23.33333363404144
100
AcDbArc
 50
78.96446228027344
 51
85.99998474121094
  0
ARC
  5
211
330
1F
100
AcDbEntity
  8
0-0
  6
Continuous
 62
     3
370
     9
100
AcDbCircle
 10
154.6256006451314
 20
63.96913725985435
 30
0.0
 40
36.66666907233162
100
AcDbArc
 50
58.20994567871093
 51
105.0000305175781
  0
ARC
  5
212
330
1F
100
AcDbEntity
  8
0-0
  6
Continuous
 62
     3
370
     9
100
AcDbCircle
 10
132.3876889052666
 20
111.9311404006903
 30
0.0
 40
5.416716272766527
100
AcDbArc
 50
217.6203002929688
 51
352.3794097900391
  0
ARC
  5
213
330
1F
100
AcDbEntity
  8
0-0
  6
Continuous
 62
     3
370
     9
100
AcDbCircle
 10
113.0685773132056
 20
106.7544518713409
 30
0.0
 40
5.416716272766527
100
AcDbArc
 50
217.6203002929688
 51
352.3794097900391
  0
ARC
  5
214
330
1F
100
AcDbEntity
  8
0-0
  6
Continuous
 62
     3
370
     9
100
AcDbCircle
 10
101.9718910273103
 20
98.17323882235442
 30
0.0
 40
3.333333859572539
100
AcDbArc
 50
104.9994964599609
 51
168.4346160888672
  0
ARC
  5
215
330
1F
100
AcDbEntity
  8
0-0
  6
Continuous
 62
     3
370
     9
100
AcDbCircle
 10
94.0251136835603
 20
92.5929759422867
 30
0.0
 40
3.333333859572539
100
AcDbArc
 50
284.9994964599609
 51
348.433578491211
  0
ARC
  5
216
330
1F
100
AcDbEntity
  8
0-0
  6
Continuous
 62
     3
370
     9
100
AcDbCircle
 10
75.46663210627983
 20
87.62042526661091
 30
0.0
 40
3.333333859572539
100
AcDbArc
 50
221.5642242431641
 51
284.9994964599609
  0
ARC
  5
217
330
1F
100
AcDbEntity
  8
0-0
  6
Continuous
 62
     3
370
     9
100
AcDbCircle
 10
65.79470431911787
 20
88.4797837706229
 30
0.0
 40
3.333333859572539
100
AcDbArc
 50
41.5650177001953
 51
104.9992218017578
  0
ARC
  5
218
330
1F
100
AcDbEntity
  8
0-0
  6
Continuous
 62
     3
370
     9
100
AcDbCircle
 10
104.0093105268882
 20
83.19026268215154
 30
0.0
 40
5.000000064437453
100
AcDbArc
 50
285.0000915527344
 51
348.4339904785156
  0
ARC
  5
219
330
1F
100
AcDbEntity
  8
0-0
  6
Continuous
 62
     3
370
     9
100
AcDbCircle
 10
71.5214515741853
 20
74.48508228202499
 30
0.0
 40
5.000000064437453
100
AcDbArc
 50
221.5649566650391
 51
285.0000915527344
  0
ARC
  5
21A
330
1F
100
AcDbEntity
  8
0-0
  6
Continuous
 62
     3
370
     9
100
AcDbCircle
 10
60.15802515948948
 20
69.71493738126483
 30
0.0
 40
6.666667719145078
100
AcDbArc
 50
41.56492614746094
 51
104.9994964599609
  0
ARC
  5
21B
330
1F
100
AcDbEntity
  8
0-0
  6
Continuous
 62
     3
370
     9
100
AcDbCircle
 10
116.234817283645
 20
84.74047317096066
 30
0.0
 40
6.666667719145078
100
AcDbArc
 50
104.9994964599609
 51
168.434829711914
  0
ARC
  5
21C
330
1F
100
AcDbEntity
  8
0-0
  6
Continuous
 62
     3
370
     9
100
AcDbCircle
 10
51.89304020383062
 20
90.36280082087629
 30
0.0
 40
5.416716272766527
100
AcDbArc
 50
217.6197814941406
 51
352.3808898925781
  0
ARC
  5
21D
330
1F
100
AcDbEntity
  8
0-0
  6
Continuous
 62
     3
370
     9
100
AcDbCircle
 10
24.70979616877983
 20
45.13500772015824
 30
0.0
 40
6.666667719145078
100
AcDbArc
 50
270.0
 51
353.0000152587891
  0
ARC
  5
21E
330
1F
100
AcDbEntity
  8
0-0
  6
Continuous
 62
     3
370
     9
100
AcDbCircle
 10
43.54986426421917
 20
61.81393640470226
 30
0.0
 40
10.00000012887491
100
AcDbArc
 50
104.9994964599609
 51
172.9999237060546
  0
ARC
  5
21F
330
1F
100
AcDbEntity
  8
0-0
  6
Continuous
 62
     3
370
     9
100
AcDbCircle
 10
10.48843980264834
 20
66.06569487704185
 30
0.0
 40
10.00000012887491
100
AcDbArc
 50
273.9998321533203
 51
352.9999237060547
  0
ARC
  5
220
330
1F
100
AcDbEntity
  8
0-0
  6
Continuous
 62
     3
370
     9
100
AcDbCircle
 10
-28.41355423240243
 20
28.468451026746
 30
0.0
 40
10.00000012887491
100
AcDbArc
 50
90.0
 51
175.9145355224609
  0
ARC
  5
221
330
1F
100
AcDbEntity
  8
0-0
  6
Continuous
 62
     3
370
     9
100
AcDbCircle
 10
31.41195120467515
 20
72.36501788168695
 30
0.0
 40
10.00000012887491
100
AcDbArc
 50
104.9994049072266
 51
173.000717163086
  0
ARC
  5
222
330
1F
100
AcDbEntity
  8
0-0
  6
Continuous
 62
     3
370
     9
100
AcDbCircle
 10
-149.3915848753501
 20
845.9588998495923
 30
0.0
 40
326.6665896853885
100
AcDbArc
 50
0.0
 51
180.0
  0
ARC
  5
223
330
1F
100
AcDbEntity
  8
0-0
  6
Continuous
 62
     3
370
     9
100
AcDbCircle
 10
-149.3915848753501
 20
845.9588998495923
 30
0.0
 40
330.0000989759291
100
AcDbArc
 50
0.0
 51
180.0
  0
ARC
  5
224
330
1F
100
AcDbEntity
  8
0-0
  6
Continuous
 62
     3
370
     9
100
AcDbCircle
 10
-149.3915848753501
 20
845.9588998495923
 30
0.0
 40
333.333360826647
100
AcDbArc
 50
0.0
 51
180.0
  0
ARC
  5
225
330
1F
100
AcDbEntity
  8
0-0
  6
Continuous
 62
     3
370
     9
100
AcDbCircle
 10
-28.30913462725034
 20
29.93799613337622
 30
0.0
 40
23.33333363404144
100
AcDbArc
 50
94.00001525878905
 51
175.9143981933594
  0
ARC
  5
226
330
1F
100
AcDbEntity
  8
0-1
  6
Continuous
 62
     2
370
     9
100
AcDbCircle
 10
-373.6120257141381
 20
113.3314023569825
 30
0.0
 40
6.666667719145078
100
AcDbArc
 50
190.6148834228516
 51
255.0005035400391
  0
ARC
  5
227
330
1F
100
AcDbEntity
  8
0-1
  6
JWW_DASHED1
 62
     2
370
     9
100
AcDbCircle
 10
74.82873224352673
 20
113.3314023569825
 30
0.0
 40
6.666667719145078
100
AcDbArc
 50
284.9994964599609
 51
349.3851165771484
  0
ARC
  5
228
330
1F
100
AcDbEntity
  8
0-1
  6
Continuous
 62
     2
370
     9
100
AcDbCircle
 10
-256.8240173077826
 20
91.3228673327005
 30
0.0
 40
5.000000064437453
100
AcDbArc
 50
11.31021118164062
 51
90.0
  0
ARC
  5
229
330
1F
100
AcDbEntity
  8
0-1
  6
Continuous
 62
     2
370
     9
100
AcDbCircle
 10
43.13070120467515
 20
109.6564261112057
 30
0.0
 40
5.000000064437453
100
AcDbArc
 50
90.0
 51
169.91162109375
  0
ARC
  5
22A
330
1F
100
AcDbEntity
  8
0-1
  6
Continuous
 62
     2
370
     9
100
AcDbCircle
 10
29.78726132925303
 20
101.2627724477765
 30
0.0
 40
6.666667719145078
100
AcDbArc
 50
284.9994964599609
 51
349.9115142822265
  0
ARC
  5
22B
330
1F
100
AcDbEntity
  8
0-1
  6
Continuous
 62
     2
370
     9
100
AcDbCircle
 10
77.70992153828999
 20
119.656459103182
 30
0.0
 40
5.000000064437453
100
AcDbArc
 50
270.0
 51
349.3838348388672
  0
ARC
  5
22C
330
1F
100
AcDbEntity
  8
0-1
  6
Continuous
 62
     2
370
     9
100
AcDbCircle
 10
107.1364550053509
 20
125.4391277581651
 30
0.0
 40
10.00000012887491
100
AcDbArc
 50
188.7071380615234
 51
285.0002746582031
  0
ARC
  5
22D
330
1F
100
AcDbEntity
  8
0-1
  6
Continuous
 62
     2
370
     9
100
AcDbCircle
 10
-405.9198721958738
 20
125.4391277581651
 30
0.0
 40
10.00000012887491
100
AcDbArc
 50
254.9997253417969
 51
351.2928619384766
  0
ARC
  5
22E
330
1F
100
AcDbEntity
  8
0-1
  6
Continuous
 62
     2
370
     9
100
AcDbCircle
 10
-311.4703598172842
 20
108.6555320286466
 30
0.0
 40
9.333911457577267
100
AcDbArc
 50
47.92556762695312
 51
132.0746307373047
  0
ARC
  5
22F
330
1F
100
AcDbEntity
  8
0-1
  6
Continuous
 62
     2
370
     9
100
AcDbCircle
 10
-292.7251848938256
 20
84.3581786449893
 30
0.0
 40
33.63136729678592
100
AcDbArc
 50
68.19786071777344
 51
111.8021392822266
  0
ARC
  5
230
330
1F
100
AcDbEntity
  8
0-1
  6
Continuous
 62
     2
370
     9
100
AcDbCircle
 10
-273.9797625305443
 20
108.6555320286466
 30
0.0
 40
9.33396558503847
100
AcDbArc
 50
47.92572021484375
 51
132.0742797851562
  0
ARC
  5
231
330
1F
100
AcDbEntity
  8
0-1
  6
Continuous
 62
     2
370
     9
100
AcDbCircle
 10
-149.3915848753501
 20
845.9588998495923
 30
0.0
 40
300.0
100
AcDbArc
 50
0.0
 51
180.0
  0
ARC
  5
232
330
1F
100
AcDbEntity
  8
0-1
  6
Continuous
 62
     2
370
     9
100
AcDbCircle
 10
-149.3915848753501
 20
845.9588998495923
 30
0.0
 40
279.8034977268528
100
AcDbArc
 50
0.0
 51
180.0
  0
ARC
  5
233
330
1F
100
AcDbEntity
  8
0-1
  6
Continuous
 62
     2
370
     9
100
AcDbCircle
 10
-149.3915848753501
 20
845.9588998495923
 30
0.0
 40
298.3333381446632
100
AcDbArc
 50
0.0
 51
180.0
  0
ARC
  5
234
330
1F
100
AcDbEntity
  8
0-1
  6
Continuous
 62
     2
370
     9
100
AcDbCircle
 10
-149.3915848753501
 20
845.9588998495923
 30
0.0
 40
244.9999731940192
100
AcDbArc
 50
139.2914886474609
 51
160.7085418701172
  0
ARC
  5
235
330
1F
100
AcDbEntity
  8
0-1
  6
Continuous
 62
     2
370
     9
100
AcDbCircle
 10
-149.3915848753501
 20
845.9588998495923
 30
0.0
 40
248.3333587646484
100
AcDbArc
 50
138.0777740478516
 51
161.9222412109375
  0
ARC
  5
236
330
1F
100
AcDbEntity
  8
0-1
  6
Continuous
 62
     2
370
     9
100
AcDbCircle
 10
-149.3915848753501
 20
845.9588998495923
 30
0.0
 40
234.9999711320207
100
AcDbArc
 50
139.4744873046875
 51
160.5255737304688
  0
ARC
  5
237
330
1F
100
AcDbEntity
  8
0-1
  6
Continuous
 62
     2
370
     9
100
AcDbCircle
 10
-149.3915848753501
 20
845.9588998495923
 30
0.0
 40
229.9999701010214
100
AcDbArc
 50
138.3233795166016
 51
161.6766510009766
  0
ARC
  5
238
330
1F
100
AcDbEntity
  8
0-1
  6
Continuous
 62
     2
370
     9
100
AcDbCircle
 10
-149.3915848753501
 20
845.9588998495923
 30
0.0
 40
244.9999731940192
100
AcDbArc
 50
109.29150390625
 51
130.7085571289062
  0
ARC
  5
239
330
1F
100
AcDbEntity
  8
0-1
  6
Continuous
 62
     2
370
     9
100
AcDbCircle
 10
-149.3915848753501
 20
845.9588998495923
 30
0.0
 40
248.3333587646484
100
AcDbArc
 50
108.0777893066406
 51
131.9222564697266
  0
ARC
  5
23A
330
1F
100
AcDbEntity
  8
0-1
  6
Continuous
 62
     2
370
     9
100
AcDbCircle
 10
-149.3915848753501
 20
845.9588998495923
 30
0.0
 40
234.9999711320207
100
AcDbArc
 50
109.4744720458984
 51
130.5255584716797
  0
ARC
  5
23B
330
1F
100
AcDbEntity
  8
0-1
  6
Continuous
 62
     2
370
     9
100
AcDbCircle
 10
-149.3915848753501
 20
845.9588998495923
 30
0.0
 40
229.9999701010214
100
AcDbArc
 50
108.3233795166015
 51
131.6766510009766
  0
ARC
  5
23C
330
1F
100
AcDbEntity
  8
0-1
  6
Continuous
 62
     2
370
     9
100
AcDbCircle
 10
-149.3915848753501
 20
845.9588998495923
 30
0.0
 40
244.9999731940192
100
AcDbArc
 50
79.29148864746095
 51
100.7085418701172
  0
ARC
  5
23D
330
1F
100
AcDbEntity
  8
0-1
  6
Continuous
 62
     2
370
     9
100
AcDbCircle
 10
-149.3915848753501
 20
845.9588998495923
 30
0.0
 40
248.3333587646484
100
AcDbArc
 50
78.07777404785158
 51
101.9222412109375
  0
ARC
  5
23E
330
1F
100
AcDbEntity
  8
0-1
  6
Continuous
 62
     2
370
     9
100
AcDbCircle
 10
-149.3915848753501
 20
845.9588998495923
 30
0.0
 40
234.9999711320207
100
AcDbArc
 50
79.47448730468751
 51
100.5255737304688
  0
ARC
  5
23F
330
1F
100
AcDbEntity
  8
0-1
  6
Continuous
 62
     2
370
     9
100
AcDbCircle
 10
-149.3915848753501
 20
845.9588998495923
 30
0.0
 40
244.9999731940192
100
AcDbArc
 50
49.29148864746093
 51
70.70854187011717
  0
ARC
  5
240
330
1F
100
AcDbEntity
  8
0-1
  6
Continuous
 62
     2
370
     9
100
AcDbCircle
 10
-149.3915848753501
 20
845.9588998495923
 30
0.0
 40
248.3333587646484
100
AcDbArc
 50
48.07777404785156
 51
71.9222412109375
  0
ARC
  5
241
330
1F
100
AcDbEntity
  8
0-1
  6
Continuous
 62
     2
370
     9
100
AcDbCircle
 10
-149.3915848753501
 20
845.9588998495923
 30
0.0
 40
234.9999711320207
100
AcDbArc
 50
49.4744873046875
 51
70.52557373046875
  0
ARC
  5
242
330
1F
100
AcDbEntity
  8
0-1
  6
Continuous
 62
     2
370
     9
100
AcDbCircle
 10
-149.3915848753501
 20
845.9588998495923
 30
0.0
 40
229.9999701010214
100
AcDbArc
 50
48.32337951660157
 51
71.67665100097656
  0
ARC
  5
243
330
1F
100
AcDbEntity
  8
0-1
  6
Continuous
 62
     2
370
     9
100
AcDbCircle
 10
-149.3915848753501
 20
845.9588998495923
 30
0.0
 40
244.9999731940192
100
AcDbArc
 50
19.29147338867187
 51
40.70852661132812
  0
ARC
  5
244
330
1F
100
AcDbEntity
  8
0-1
  6
Continuous
 62
     2
370
     9
100
AcDbCircle
 10
-149.3915848753501
 20
845.9588998495923
 30
0.0
 40
248.3333587646484
100
AcDbArc
 50
18.07777404785154
 51
41.92224121093749
  0
ARC
  5
245
330
1F
100
AcDbEntity
  8
0-1
  6
Continuous
 62
     2
370
     9
100
AcDbCircle
 10
-149.3915848753501
 20
845.9588998495923
 30
0.0
 40
234.9999711320207
100
AcDbArc
 50
19.47448730468749
 51
40.52557373046873
  0
ARC
  5
246
330
1F
100
AcDbEntity
  8
0-1
  6
Continuous
 62
     2
370
     9
100
AcDbCircle
 10
-149.3915848753501
 20
845.9588998495923
 30
0.0
 40
229.9999701010214
100
AcDbArc
 50
18.32337951660155
 51
41.67665100097655
  0
ARC
  5
247
330
1F
100
AcDbEntity
  8
0-1
  6
Continuous
 62
     2
370
     9
100
AcDbCircle
 10
-149.3915848753501
 20
845.9588998495923
 30
0.0
 40
234.9999711320207
100
AcDbArc
 50
0.0000152587890461
 51
10.52558898925779
  0
ARC
  5
248
330
1F
100
AcDbEntity
  8
0-1
  6
Continuous
 62
     2
370
     9
100
AcDbCircle
 10
-149.3915848753501
 20
845.9588998495923
 30
0.0
 40
244.9999731940192
100
AcDbArc
 50
359.9999847412109
 51
10.70852661132814
  0
ARC
  5
249
330
1F
100
AcDbEntity
  8
0-1
  6
Continuous
 62
     2
370
     9
100
AcDbCircle
 10
-149.3915848753501
 20
845.9588998495923
 30
0.0
 40
248.3333587646484
100
AcDbArc
 50
359.9999847412109
 51
11.92222595214845
  0
ARC
  5
24A
330
1F
100
AcDbEntity
  8
0-1
  6
Continuous
 62
     2
370
     9
100
AcDbCircle
 10
-149.3915848753501
 20
845.9588998495923
 30
0.0
 40
229.9999701010214
100
AcDbArc
 50
8.583679199218768
 51
11.67665100097658
  0
ARC
  5
24B
330
1F
100
AcDbEntity
  8
0-1
  6
Continuous
 62
     2
370
     9
100
AcDbCircle
 10
-149.3915848753501
 20
845.9588998495923
 30
0.0
 40
231.2515825838656
100
AcDbArc
 50
0.0
 51
7.676528930664062
  0
ARC
  5
24C
330
1F
100
AcDbEntity
  8
0-1
  6
Continuous
 62
     2
370
     9
100
AcDbCircle
 10
-149.3915848753501
 20
845.9588998495923
 30
0.0
 40
234.9999711320207
100
AcDbArc
 50
169.4744110107422
 51
179.9999847412109
  0
ARC
  5
24D
330
1F
100
AcDbEntity
  8
0-1
  6
Continuous
 62
     2
370
     9
100
AcDbCircle
 10
-149.3915848753501
 20
845.9588998495923
 30
0.0
 40
244.9999731940192
100
AcDbArc
 50
169.2914428710938
 51
179.999984741211
  0
ARC
  5
24E
330
1F
100
AcDbEntity
  8
0-1
  6
Continuous
 62
     2
370
     9
100
AcDbCircle
 10
-149.3915848753501
 20
845.9588998495923
 30
0.0
 40
248.3333587646484
100
AcDbArc
 50
168.0777740478516
 51
180.0000152587891
  0
ARC
  5
24F
330
1F
100
AcDbEntity
  8
0-1
  6
Continuous
 62
     2
370
     9
100
AcDbCircle
 10
-149.3915848753501
 20
845.9588998495923
 30
0.0
 40
229.9999701010214
100
AcDbArc
 50
168.3233489990234
 51
171.4163208007812
  0
ARC
  5
250
330
1F
100
AcDbEntity
  8
0-1
  6
Continuous
 62
     2
370
     9
100
AcDbCircle
 10
-149.3915848753501
 20
845.9588998495923
 30
0.0
 40
231.2515825838656
100
AcDbArc
 50
172.3234710693359
 51
180.0
  0
ARC
  5
251
330
1F
100
AcDbEntity
  8
0-1
  6
Continuous
 62
     2
370
     9
100
AcDbCircle
 10
-149.3915848753501
 20
845.9588998495923
 30
0.0
 40
229.9999701010214
100
AcDbArc
 50
95.13784790039062
 51
101.6766662597656
  0
ARC
  5
252
330
1F
100
AcDbEntity
  8
0-1
  6
Continuous
 62
     2
370
     9
100
AcDbCircle
 10
-149.3915848753501
 20
845.9588998495923
 30
0.0
 40
229.9999701010214
100
AcDbArc
 50
78.32339477539062
 51
84.8621826171875
  0
ARC
  5
253
330
1F
100
AcDbEntity
  8
0-1
  6
Continuous
 62
     2
370
     9
100
AcDbCircle
 10
-149.3915848753501
 20
845.9588998495923
 30
0.0
 40
231.2515825838656
100
AcDbArc
 50
86.596435546875
 51
93.403564453125
  0
ARC
  5
254
330
1F
100
AcDbEntity
  8
0-1
  6
Continuous
 62
     2
370
     9
100
AcDbCircle
 10
-0.2103632484498341
 20
87.98960548198252
 30
0.0
 40
3.333333859572539
100
AcDbArc
 50
90.0
 51
164.0540161132812
  0
ELLIPSE
  5
255
330
1F
100
AcDbEntity
  8
0-2
  6
Continuous
 62
     6
370
     9
100
AcDbEllipse
 10
62.27462540231031
 20
138.2221164353187
 30
0.0
 11
17.4999340160473
 21
0.0
 31
0.0
210
0.0
220
0.0
230
1.0
 40
0.7428
 41
0.0
 42
1.475408288134874
  0
ELLIPSE
  5
256
330
1F
100
AcDbEntity
  8
0-2
  6
Continuous
 62
     6
370
     9
100
AcDbEllipse
 10
62.27462540231031
 20
138.2221164353187
 30
0.0
 11
17.4999340160473
 21
0.0
 31
0.0
210
0.0
220
0.0
230
1.0
 40
0.7428
 41
1.666184365454919
 42
3.141592653589793
  0
ARC
  5
257
330
1F
100
AcDbEntity
  8
0-2
  6
Continuous
 62
     6
370
     9
100
AcDbCircle
 10
62.27462540231031
 20
845.9588998495923
 30
0.0
 40
17.49999780912657
100
AcDbArc
 50
0.0
 51
180.0
  0
ARC
  5
258
330
1F
100
AcDbEntity
  8
0-2
  6
Continuous
 62
     6
370
     9
100
AcDbCircle
 10
-361.0584137525673
 20
845.9588998495923
 30
0.0
 40
17.49999780912657
100
AcDbArc
 50
0.0
 51
180.0
  0
ARC
  5
259
330
1F
100
AcDbEntity
  8
0-2
  6
Continuous
 62
     6
370
     9
100
AcDbCircle
 10
-371.6097426693746
 20
117.9897044579117
 30
0.0
 40
3.333333859572539
100
AcDbArc
 50
190.3056030273438
 51
270.0
  0
ARC
  5
25A
330
1F
100
AcDbEntity
  8
0-2
  6
Continuous
 62
     6
370
     9
100
AcDbCircle
 10
-149.3915848753501
 20
-568.6770831793349
 30
0.0
 40
818.3334144386085
100
AcDbArc
 50
90.0
 51
99.12161254882812
  0
ARC
  5
25B
330
1F
100
AcDbEntity
  8
0-2
  6
Continuous
 62
     6
370
     9
100
AcDbCircle
 10
-149.3915848753501
 20
-568.6770831793349
 30
0.0
 40
833.3334020666175
100
AcDbArc
 50
90.0
 51
99.12159729003906
  0
ARC
  5
25C
330
1F
100
AcDbEntity
  8
0-2
  6
Continuous
 62
     6
370
     9
100
AcDbCircle
 10
-274.3663872534118
 20
209.6871911291534
 30
0.0
 40
45.00000541274613
100
AcDbArc
 50
99.12167358398438
 51
165.0000152587891
  0
ARC
  5
25D
330
1F
100
AcDbEntity
  8
0-2
  6
Continuous
 62
     6
370
     9
100
AcDbCircle
 10
-338.5616799582259
 20
124.65647559917
 30
0.0
 40
10.00000012887491
100
AcDbArc
 50
270.0
 51
345.0002746582031
  0
ARC
  5
25E
330
1F
100
AcDbEntity
  8
0-2
  6
Continuous
 62
     6
370
     9
100
AcDbCircle
 10
-149.3915848753501
 20
-568.6770831793349
 30
0.0
 40
830.0000783559439
100
AcDbArc
 50
94.60704040527344
 51
99.24420166015624
  0
ARC
  5
25F
330
1F
100
AcDbEntity
  8
0-2
  6
Continuous
 62
     6
370
     9
100
AcDbCircle
 10
72.82644919876319
 20
117.9897044579117
 30
0.0
 40
3.333333859572539
100
AcDbArc
 50
270.0
 51
349.6943969726562
  0
ARC
  5
260
330
1F
100
AcDbEntity
  8
0-2
  6
Continuous
 62
     6
370
     9
100
AcDbCircle
 10
-149.3915848753501
 20
-568.6770831793349
 30
0.0
 40
818.3334144386085
100
AcDbArc
 50
80.87838745117188
 51
90.0
  0
ARC
  5
261
330
1F
100
AcDbEntity
  8
0-2
  6
Continuous
 62
     6
370
     9
100
AcDbCircle
 10
-149.3915848753501
 20
-568.6770831793349
 30
0.0
 40
833.3334020666175
100
AcDbArc
 50
80.87840270996092
 51
89.99999999999999
  0
ARC
  5
262
330
1F
100
AcDbEntity
  8
0-2
  6
Continuous
 62
     6
370
     9
100
AcDbCircle
 10
-24.41690621719983
 20
209.6871911291534
 30
0.0
 40
45.00000541274613
100
AcDbArc
 50
14.99998474121096
 51
80.87832641601565
  0
ARC
  5
263
330
1F
100
AcDbEntity
  8
0-2
  6
Continuous
 62
     6
370
     9
100
AcDbCircle
 10
-24.41641133755452
 20
209.6871911291534
 30
0.0
 40
30.00000425287195
100
AcDbArc
 50
14.99998474121096
 51
80.87858581542972
  0
ARC
  5
264
330
1F
100
AcDbEntity
  8
0-2
  6
Continuous
 62
     6
370
     9
100
AcDbCircle
 10
39.77789160796917
 20
124.65647559917
 30
0.0
 40
10.00000012887491
100
AcDbArc
 50
194.9997253417969
 51
270.0
  0
ARC
  5
265
330
1F
100
AcDbEntity
  8
0-2
  6
Continuous
 62
     6
370
     9
100
AcDbCircle
 10
-346.2350362979641
 20
141.0946453362901
 30
0.0
 40
6.666667719145078
100
AcDbArc
 50
272.6016998291016
 51
345.0002288818359
  0
ARC
  5
266
330
1F
100
AcDbEntity
  8
0-2
  6
Continuous
 62
     6
370
     9
100
AcDbCircle
 10
-351.5329703404051
 20
121.3229663086297
 30
0.0
 40
6.666667719145078
100
AcDbArc
 50
270.0
 51
345.0007781982422
  0
ARC
  5
267
330
1F
100
AcDbEntity
  8
0-2
  6
Continuous
 62
     6
370
     9
100
AcDbCircle
 10
47.45149538752983
 20
141.0946453362901
 30
0.0
 40
6.666667719145078
100
AcDbArc
 50
195.0008087158203
 51
267.3983001708984
  0
ARC
  5
268
330
1F
100
AcDbEntity
  8
0-2
  6
Continuous
 62
     6
370
     9
100
AcDbCircle
 10
46.54636051633062
 20
144.4724463550823
 30
0.0
 40
6.666667719145078
100
AcDbArc
 50
194.9997711181641
 51
267.3983001708984
  0
ARC
  5
269
330
1F
100
AcDbEntity
  8
0-2
  6
Continuous
 62
     6
370
     9
100
AcDbCircle
 10
40.88691689301996
 20
119.656459103182
 30
0.0
 40
5.000000064437453
100
AcDbArc
 50
270.0
 51
345.7299499511719
  0
ARC
  5
26A
330
1F
100
AcDbEntity
  8
0-2
  6
Continuous
 62
     6
370
     9
100
AcDbCircle
 10
-149.3915848753501
 20
845.9588998495923
 30
0.0
 40
191.6667010333087
100
AcDbArc
 50
0.0
 51
180.0
  0
ARC
  5
26B
330
1F
100
AcDbEntity
  8
0-2
  6
Continuous
 62
     6
370
     9
100
AcDbCircle
 10
-149.3915848753501
 20
845.9588998495923
 30
0.0
 40
166.0845782305744
100
AcDbArc
 50
164.6635131835938
 51
172.8364105224609
  0
ARC
  5
26C
330
1F
100
AcDbEntity
  8
0-2
  6
Continuous
 62
     6
370
     9
100
AcDbCircle
 10
-319.1408705990621
 20
867.2936562368388
 30
0.0
 40
5.000000064437453
100
AcDbArc
 50
264.5108795166016
 51
352.8361206054688
  0
ARC
  5
26D
330
1F
100
AcDbEntity
  8
0-2
  6
Continuous
 62
     6
370
     9
100
AcDbCircle
 10
-314.3838400089016
 20
891.2084676547022
 30
0.0
 40
5.000000064437453
100
AcDbArc
 50
344.6649322509766
 51
72.98951721191405
  0
ARC
  5
26E
330
1F
100
AcDbEntity
  8
0-2
  6
Continuous
 62
     6
370
     9
100
AcDbCircle
 10
-149.3915848753501
 20
845.9588998495923
 30
0.0
 40
166.0845782305744
100
AcDbArc
 50
142.1635131835937
 51
150.3364105224609
  0
ARC
  5
26F
330
1F
100
AcDbEntity
  8
0-2
  6
Continuous
 62
     6
370
     9
100
AcDbCircle
 10
-298.0550386733865
 20
930.6298378774638
 30
0.0
 40
5.000000064437453
100
AcDbArc
 50
242.0109558105468
 51
330.3361968994141
  0
ARC
  5
270
330
1F
100
AcDbEntity
  8
0-2
  6
Continuous
 62
     6
370
     9
100
AcDbCircle
 10
-284.5082032637582
 20
950.9038197450739
 30
0.0
 40
5.000000064437453
100
AcDbArc
 50
322.1650085449219
 51
50.48959350585935
  0
ARC
  5
271
330
1F
100
AcDbEntity
  8
0-2
  6
Continuous
 62
     6
370
     9
100
AcDbCircle
 10
-149.3915848753501
 20
845.9588998495923
 30
0.0
 40
166.0845782305744
100
AcDbArc
 50
119.6635131835937
 51
127.8364105224609
  0
ARC
  5
272
330
1F
100
AcDbEntity
  8
0-2
  6
Continuous
 62
     6
370
     9
100
AcDbCircle
 10
-254.3365047708316
 20
981.0753945180888
 30
0.0
 40
5.000000064437453
100
AcDbArc
 50
219.5106506347656
 51
307.8358917236328
  0
ARC
  5
273
330
1F
100
AcDbEntity
  8
0-2
  6
Continuous
 62
     6
370
     9
100
AcDbCircle
 10
-234.0625229032217
 20
994.6219824878947
 30
0.0
 40
5.000000064437453
100
AcDbArc
 50
299.6647033691407
 51
27.9892883300781
  0
ARC
  5
274
330
1F
100
AcDbEntity
  8
0-2
  6
Continuous
 62
     6
370
     9
100
AcDbCircle
 10
-149.3915848753501
 20
845.9588998495923
 30
0.0
 40
166.0845782305744
100
AcDbArc
 50
97.16352844238281
 51
105.33642578125
  0
ARC
  5
275
330
1F
100
AcDbEntity
  8
0-2
  6
Continuous
 62
     6
370
     9
100
AcDbCircle
 10
-194.64115268046
 20
1010.951031263233
 30
0.0
 40
5.000000064437453
100
AcDbArc
 50
197.0108032226562
 51
285.3360443115235
  0
ARC
  5
276
330
1F
100
AcDbEntity
  8
0-2
  6
Continuous
 62
     6
370
     9
100
AcDbCircle
 10
-170.7263412625967
 20
1015.70781441357
 30
0.0
 40
5.000000064437453
100
AcDbArc
 50
277.1648559570312
 51
5.489440917968742
  0
ARC
  5
277
330
1F
100
AcDbEntity
  8
0-2
  6
Continuous
 62
     6
370
     9
100
AcDbCircle
 10
-149.3915848753501
 20
845.9588998495923
 30
0.0
 40
166.0845782305744
100
AcDbArc
 50
74.66351318359374
 51
82.83641052246092
  0
ARC
  5
278
330
1F
100
AcDbEntity
  8
0-2
  6
Continuous
 62
     6
370
     9
100
AcDbCircle
 10
-128.0569522080146
 20
1015.70781441357
 30
0.0
 40
5.000000064437453
100
AcDbArc
 50
174.5108795166015
 51
262.8361206054688
  0
ARC
  5
279
330
1F
100
AcDbEntity
  8
0-2
  6
Continuous
 62
     6
370
     9
100
AcDbCircle
 10
-104.1421407901517
 20
1010.951031263233
 30
0.0
 40
5.000000064437453
100
AcDbArc
 50
254.6649322509766
 51
342.9895172119141
  0
ARC
  5
27A
330
1F
100
AcDbEntity
  8
0-2
  6
Continuous
 62
     6
370
     9
100
AcDbCircle
 10
-149.3915848753501
 20
845.9588998495923
 30
0.0
 40
166.0845782305744
100
AcDbArc
 50
52.16349792480467
 51
60.33639526367186
  0
ARC
  5
27B
330
1F
100
AcDbEntity
  8
0-2
  6
Continuous
 62
     6
370
     9
100
AcDbCircle
 10
-64.72052312756729
 20
994.6219824878947
 30
0.0
 40
5.000000064437453
100
AcDbArc
 50
152.0109558105468
 51
240.336196899414
  0
ARC
  5
27C
330
1F
100
AcDbEntity
  8
0-2
  6
Continuous
 62
     6
370
     9
100
AcDbCircle
 10
-44.44678869978004
 20
981.0753945180888
 30
0.0
 40
5.000000064437453
100
AcDbArc
 50
232.1650085449218
 51
320.4895935058594
  0
ARC
  5
27D
330
1F
100
AcDbEntity
  8
0-2
  6
Continuous
 62
     6
370
     9
100
AcDbCircle
 10
-149.3915848753501
 20
845.9588998495923
 30
0.0
 40
166.0845782305744
100
AcDbArc
 50
29.66351318359374
 51
37.83641052246092
  0
ARC
  5
27E
330
1F
100
AcDbEntity
  8
0-2
  6
Continuous
 62
     6
370
     9
100
AcDbCircle
 10
-14.27484276703082
 20
950.9038197450739
 30
0.0
 40
5.000000064437453
100
AcDbArc
 50
129.5111083984374
 51
217.8363494873046
  0
ARC
  5
27F
330
1F
100
AcDbEntity
  8
0-2
  6
Continuous
 62
     6
370
     9
100
AcDbCircle
 10
-0.7285022370477456
 20
930.6295904376412
 30
0.0
 40
5.000000064437453
100
AcDbArc
 50
209.6651611328125
 51
297.98974609375
  0
ARC
  5
280
330
1F
100
AcDbEntity
  8
0-2
  6
Continuous
 62
     6
370
     9
100
AcDbCircle
 10
-149.3915848753501
 20
845.9588998495923
 30
0.0
 40
166.0845782305744
100
AcDbArc
 50
7.163513183593738
 51
15.33641052246092
  0
ARC
  5
281
330
1F
100
AcDbEntity
  8
0-2
  6
Continuous
 62
     6
370
     9
100
AcDbCircle
 10
15.60054653828999
 20
891.2082202148795
 30
0.0
 40
5.000000064437453
100
AcDbArc
 50
107.0108032226562
 51
195.3360443115234
  0
ARC
  5
282
330
1F
100
AcDbEntity
  8
0-2
  6
Continuous
 62
     6
370
     9
100
AcDbCircle
 10
20.35782456827334
 20
867.2931613571936
 30
0.0
 40
5.000000064437453
100
AcDbArc
 50
187.1648559570312
 51
275.4894409179688
  0
ARC
  5
283
330
1F
100
AcDbEntity
  8
0-2
  6
Continuous
 62
     6
370
     9
100
AcDbCircle
 10
-149.3915848753501
 20
845.9588998495923
 30
0.0
 40
133.3333505166544
100
AcDbArc
 50
155.9635314941406
 51
174.0364990234375
  0
ARC
  5
284
330
1F
100
AcDbEntity
  8
0-2
  6
Continuous
 62
     6
370
     9
100
AcDbCircle
 10
-149.3915848753501
 20
845.9588998495923
 30
0.0
 40
66.66667525832719
100
AcDbArc
 50
160.7220916748047
 51
169.2778015136719
  0
ARC
  5
285
330
1F
100
AcDbEntity
  8
0-2
  6
Continuous
 62
     6
370
     9
100
AcDbCircle
 10
-266.5967768226686
 20
898.23105726091
 30
0.0
 40
5.000000064437453
100
AcDbArc
 50
60.00032043457032
 51
155.9629516601562
  0
ARC
  5
286
330
1F
100
AcDbEntity
  8
0-2
  6
Continuous
 62
     6
370
     9
100
AcDbCircle
 10
-277.0305718237243
 20
859.2921946922866
 30
0.0
 40
5.000000064437453
100
AcDbArc
 50
174.03759765625
 51
270.0
  0
ARC
  5
287
330
1F
100
AcDbEntity
  8
0-2
  6
Continuous
 62
     6
370
     9
100
AcDbCircle
 10
-219.8071435614777
 20
859.2921946922866
 30
0.0
 40
5.000000064437453
100
AcDbArc
 50
270.0
 51
349.2789764404297
  0
ARC
  5
288
330
1F
100
AcDbEntity
  8
0-2
  6
Continuous
 62
     6
370
     9
100
AcDbCircle
 10
-217.0397765851264
 20
869.6195905696093
 30
0.0
 40
5.000000064437453
100
AcDbArc
 50
340.7230682373047
 51
60.00032043457032
  0
ARC
  5
289
330
1F
100
AcDbEntity
  8
0-2
  6
Continuous
 62
     6
370
     9
100
AcDbCircle
 10
-149.3915848753501
 20
845.9588998495923
 30
0.0
 40
63.33333608266469
100
AcDbArc
 50
160.7222137451172
 51
169.2779541015625
  0
ARC
  5
28A
330
1F
100
AcDbEntity
  8
0-2
  6
Continuous
 62
     6
370
     9
100
AcDbCircle
 10
-149.3915848753501
 20
845.9588998495923
 30
0.0
 40
136.6666742273279
100
AcDbArc
 50
155.9635467529297
 51
174.0364532470703
  0
ARC
  5
28B
330
1F
100
AcDbEntity
  8
0-2
  6
Continuous
 62
     6
370
     9
100
AcDbCircle
 10
-277.0305718237243
 20
859.2921946922866
 30
0.0
 40
8.333334407290899
100
AcDbArc
 50
174.0364990234375
 51
270.0
  0
ARC
  5
28C
330
1F
100
AcDbEntity
  8
0-2
  6
Continuous
 62
     6
370
     9
100
AcDbCircle
 10
-266.5969005425798
 20
898.23105726091
 30
0.0
 40
8.333334407290899
100
AcDbArc
 50
59.99999999999999
 51
155.962890625
  0
ARC
  5
28D
330
1F
100
AcDbEntity
  8
0-2
  6
Continuous
 62
     6
370
     9
100
AcDbCircle
 10
-217.0397765851264
 20
869.6195905696093
 30
0.0
 40
8.333334407290899
100
AcDbArc
 50
340.7217102050781
 51
59.99999999999999
  0
ARC
  5
28E
330
1F
100
AcDbEntity
  8
0-2
  6
Continuous
 62
     6
370
     9
100
AcDbCircle
 10
-219.8071435614777
 20
859.2921946922866
 30
0.0
 40
8.333334407290899
100
AcDbArc
 50
270.0
 51
349.2772979736328
  0
ARC
  5
28F
330
1F
100
AcDbEntity
  8
0-2
  6
Continuous
 62
     6
370
     9
100
AcDbCircle
 10
-269.1737388555022
 20
892.0208125924134
 30
0.0
 40
5.000000064437453
100
AcDbArc
 50
60.00032043457032
 51
158.9652404785157
  0
ARC
  5
290
330
1F
100
AcDbEntity
  8
0-2
  6
Continuous
 62
     6
370
     9
100
AcDbCircle
 10
-218.9909633065157
 20
863.0480837600652
 30
0.0
 40
5.000000064437453
100
AcDbArc
 50
346.2058258056641
 51
60.00032043457032
  0
ARC
  5
291
330
1F
100
AcDbEntity
  8
0-2
  6
Continuous
 62
     6
370
     9
100
AcDbCircle
 10
-149.3915848753501
 20
845.9588998495923
 30
0.0
 40
133.3333505166544
100
AcDbArc
 50
125.9635467529297
 51
144.0365142822266
  0
ARC
  5
292
330
1F
100
AcDbEntity
  8
0-2
  6
Continuous
 62
     6
370
     9
100
AcDbCircle
 10
-149.3915848753501
 20
845.9588998495923
 30
0.0
 40
66.66667525832719
100
AcDbArc
 50
130.7221069335938
 51
139.277816772461
  0
ARC
  5
293
330
1F
100
AcDbEntity
  8
0-2
  6
Continuous
 62
     6
370
     9
100
AcDbCircle
 10
-224.7579195327613
 20
949.8306732343053
 30
0.0
 40
5.000000064437453
100
AcDbArc
 50
30.00035095214844
 51
125.9629821777344
  0
ARC
  5
294
330
1F
100
AcDbEntity
  8
0-2
  6
Continuous
 62
     6
370
     9
100
AcDbCircle
 10
-253.2636056998855
 20
921.3253582269149
 30
0.0
 40
5.000000064437453
100
AcDbArc
 50
144.0376281738281
 51
240.0000305175781
  0
ARC
  5
295
330
1F
100
AcDbEntity
  8
0-2
  6
Continuous
 62
     6
370
     9
100
AcDbCircle
 10
-203.7064817424321
 20
892.7136440957918
 30
0.0
 40
5.000000064437453
100
AcDbArc
 50
240.0000305175781
 51
319.2790069580078
  0
ARC
  5
296
330
1F
100
AcDbEntity
  8
0-2
  6
Continuous
 62
     6
370
     9
100
AcDbCircle
 10
-196.1464528414608
 20
900.2739204365855
 30
0.0
 40
5.000000064437453
100
AcDbArc
 50
310.7230987548828
 51
30.00035095214844
  0
ARC
  5
297
330
1F
100
AcDbEntity
  8
0-2
  6
Continuous
 62
     6
370
     9
100
AcDbCircle
 10
-149.3915848753501
 20
845.9588998495923
 30
0.0
 40
63.33333608266469
100
AcDbArc
 50
130.7222137451172
 51
139.2779541015625
  0
ARC
  5
298
330
1F
100
AcDbEntity
  8
0-2
  6
Continuous
 62
     6
370
     9
100
AcDbCircle
 10
-149.3915848753501
 20
845.9588998495923
 30
0.0
 40
136.6666742273279
100
AcDbArc
 50
125.9635162353516
 51
144.0364227294922
  0
ARC
  5
299
330
1F
100
AcDbEntity
  8
0-2
  6
Continuous
 62
     6
370
     9
100
AcDbCircle
 10
-253.2636056998855
 20
921.3253582269149
 30
0.0
 40
8.333334407290899
100
AcDbArc
 50
144.0364074707032
 51
239.9999084472657
  0
ARC
  5
29A
330
1F
100
AcDbEntity
  8
0-2
  6
Continuous
 62
     6
370
     9
100
AcDbCircle
 10
-224.7581669725839
 20
949.8306732343053
 30
0.0
 40
8.333334407290899
100
AcDbArc
 50
29.99990844726565
 51
125.9627990722657
  0
ARC
  5
29B
330
1F
100
AcDbEntity
  8
0-2
  6
Continuous
 62
     6
370
     9
100
AcDbCircle
 10
-196.1464528414608
 20
900.2739204365855
 30
0.0
 40
8.333334407290899
100
AcDbArc
 50
310.7216186523438
 51
29.99990844726564
  0
ARC
  5
29C
330
1F
100
AcDbEntity
  8
0-2
  6
Continuous
 62
     6
370
     9
100
AcDbCircle
 10
-203.7064817424321
 20
892.7136440957918
 30
0.0
 40
8.333334407290899
100
AcDbArc
 50
239.9999084472657
 51
319.2772064208985
  0
ARC
  5
29D
330
1F
100
AcDbEntity
  8
0-2
  6
Continuous
 62
     6
370
     9
100
AcDbCircle
 10
-230.0949490671787
 20
945.7409878457918
 30
0.0
 40
5.000000064437453
100
AcDbArc
 50
30.00035095214844
 51
128.9652709960938
  0
ARC
  5
29E
330
1F
100
AcDbEntity
  8
0-2
  6
Continuous
 62
     6
370
     9
100
AcDbCircle
 10
-201.1219727950082
 20
895.5579648569826
 30
0.0
 40
5.000000064437453
100
AcDbArc
 50
316.2058563232422
 51
30.00035095214844
  0
ARC
  5
29F
330
1F
100
AcDbEntity
  8
0-2
  6
Continuous
 62
     6
370
     9
100
AcDbCircle
 10
-149.3915848753501
 20
845.9588998495923
 30
0.0
 40
133.3333505166544
100
AcDbArc
 50
95.96351623535155
 51
114.0364837646484
  0
ARC
  5
2A0
330
1F
100
AcDbEntity
  8
0-2
  6
Continuous
 62
     6
370
     9
100
AcDbCircle
 10
-149.3915848753501
 20
845.9588998495923
 30
0.0
 40
66.66667525832719
100
AcDbArc
 50
100.7221069335938
 51
109.277816772461
  0
ARC
  5
2A1
330
1F
100
AcDbEntity
  8
0-2
  6
Continuous
 62
     6
370
     9
100
AcDbCircle
 10
-162.7248797180444
 20
973.5977630780553
 30
0.0
 40
5.000000064437453
100
AcDbArc
 50
0.0002899169921935
 51
95.96292114257811
  0
ARC
  5
2A2
330
1F
100
AcDbEntity
  8
0-2
  6
Continuous
 62
     6
370
     9
100
AcDbCircle
 10
-201.6641134464017
 20
963.164215516822
 30
0.0
 40
5.000000064437453
100
AcDbArc
 50
114.0375671386719
 51
209.9999694824219
  0
ARC
  5
2A3
330
1F
100
AcDbEntity
  8
0-2
  6
Continuous
 62
     6
370
     9
100
AcDbCircle
 10
-173.052275595367
 20
913.6069678394572
 30
0.0
 40
5.000000064437453
100
AcDbArc
 50
209.9999694824219
 51
289.2789459228516
  0
ARC
  5
2A4
330
1F
100
AcDbEntity
  8
0-2
  6
Continuous
 62
     6
370
     9
100
AcDbCircle
 10
-162.7248797180444
 20
916.3743348158087
 30
0.0
 40
5.000000064437453
100
AcDbArc
 50
280.7230377197266
 51
0.0002899169921935
  0
ARC
  5
2A5
330
1F
100
AcDbEntity
  8
0-2
  6
Continuous
 62
     6
370
     9
100
AcDbCircle
 10
-149.3915848753501
 20
845.9588998495923
 30
0.0
 40
63.33333608266469
100
AcDbArc
 50
100.7221984863281
 51
109.2779388427734
  0
ARC
  5
2A6
330
1F
100
AcDbEntity
  8
0-2
  6
Continuous
 62
     6
370
     9
100
AcDbCircle
 10
-149.3915848753501
 20
845.9588998495923
 30
0.0
 40
136.6666742273279
100
AcDbArc
 50
95.96354675292972
 51
114.0364532470704
  0
ARC
  5
2A7
330
1F
100
AcDbEntity
  8
0-2
  6
Continuous
 62
     6
370
     9
100
AcDbCircle
 10
-201.6641134464017
 20
963.164215516822
 30
0.0
 40
8.333334407290899
100
AcDbArc
 50
114.0365142822266
 51
210.0000152587891
  0
ARC
  5
2A8
330
1F
100
AcDbEntity
  8
0-2
  6
Continuous
 62
     6
370
     9
100
AcDbCircle
 10
-162.7250034379556
 20
973.5977630780553
 30
0.0
 40
8.333334407290899
100
AcDbArc
 50
0.0000152587890588
 51
95.96290588378906
  0
ARC
  5
2A9
330
1F
100
AcDbEntity
  8
0-2
  6
Continuous
 62
     6
370
     9
100
AcDbCircle
 10
-162.7248797180444
 20
916.3743348158087
 30
0.0
 40
8.333334407290899
100
AcDbArc
 50
280.7217254638672
 51
0.0000152587890461
  0
ARC
  5
2AA
330
1F
100
AcDbEntity
  8
0-2
  6
Continuous
 62
     6
370
     9
100
AcDbCircle
 10
-173.052275595367
 20
913.6069678394572
 30
0.0
 40
8.333334407290899
100
AcDbArc
 50
210.0000152587891
 51
289.2773132324219
  0
ARC
  5
2AB
330
1F
100
AcDbEntity
  8
0-2
  6
Continuous
 62
     6
370
     9
100
AcDbCircle
 10
-169.3917745792142
 20
972.7243005041532
 30
0.0
 40
5.000000064437453
100
AcDbArc
 50
0.0002899169921935
 51
98.96520996093751
  0
ARC
  5
2AC
330
1F
100
AcDbEntity
  8
0-2
  6
Continuous
 62
     6
370
     9
100
AcDbCircle
 10
-169.3917745792142
 20
914.7783479598121
 30
0.0
 40
5.000000064437453
100
AcDbArc
 50
286.2057952880859
 51
0.0002899169921935
  0
ARC
  5
2AD
330
1F
100
AcDbEntity
  8
0-2
  6
Continuous
 62
     6
370
     9
100
AcDbCircle
 10
-149.3915848753501
 20
845.9588998495923
 30
0.0
 40
133.3333505166544
100
AcDbArc
 50
65.96353149414062
 51
84.03649902343751
  0
ARC
  5
2AE
330
1F
100
AcDbEntity
  8
0-2
  6
Continuous
 62
     6
370
     9
100
AcDbCircle
 10
-149.3915848753501
 20
845.9588998495923
 30
0.0
 40
66.66667525832719
100
AcDbArc
 50
70.7220916748047
 51
79.27780151367189
  0
ARC
  5
2AF
330
1F
100
AcDbEntity
  8
0-2
  6
Continuous
 62
     6
370
     9
100
AcDbCircle
 10
-97.11930374412118
 20
963.164215516822
 30
0.0
 40
5.000000064437453
100
AcDbArc
 50
330.0003204345703
 51
65.96295166015625
  0
ARC
  5
2B0
330
1F
100
AcDbEntity
  8
0-2
  6
Continuous
 62
     6
370
     9
100
AcDbCircle
 10
-136.0582900326558
 20
973.5977630780553
 30
0.0
 40
5.000000064437453
100
AcDbArc
 50
84.03759765624999
 51
180.0
  0
ARC
  5
2B1
330
1F
100
AcDbEntity
  8
0-2
  6
Continuous
 62
     6
370
     9
100
AcDbCircle
 10
-136.0582900326558
 20
916.3743348158087
 30
0.0
 40
5.000000064437453
100
AcDbArc
 50
180.0
 51
259.2789764404297
  0
ARC
  5
2B2
330
1F
100
AcDbEntity
  8
0-2
  6
Continuous
 62
     6
370
     9
100
AcDbCircle
 10
-125.7308941553332
 20
913.6069678394572
 30
0.0
 40
5.000000064437453
100
AcDbArc
 50
250.7230682373047
 51
330.0003204345703
  0
ARC
  5
2B3
330
1F
100
AcDbEntity
  8
0-2
  6
Continuous
 62
     6
370
     9
100
AcDbCircle
 10
-149.3915848753501
 20
845.9588998495923
 30
0.0
 40
63.33333608266469
100
AcDbArc
 50
70.7222137451172
 51
79.27795410156251
  0
ARC
  5
2B4
330
1F
100
AcDbEntity
  8
0-2
  6
Continuous
 62
     6
370
     9
100
AcDbCircle
 10
-149.3915848753501
 20
845.9588998495923
 30
0.0
 40
136.6666742273279
100
AcDbArc
 50
65.9635467529297
 51
84.03645324707033
  0
ARC
  5
2B5
330
1F
100
AcDbEntity
  8
0-2
  6
Continuous
 62
     6
370
     9
100
AcDbCircle
 10
-136.0582900326558
 20
973.5977630780553
 30
0.0
 40
8.333334407290899
100
AcDbArc
 50
84.03649902343751
 51
180.0
  0
ARC
  5
2B6
330
1F
100
AcDbEntity
  8
0-2
  6
Continuous
 62
     6
370
     9
100
AcDbCircle
 10
-97.11930374412118
 20
963.164215516822
 30
0.0
 40
8.333334407290899
100
AcDbArc
 50
330.0
 51
65.962890625
  0
ARC
  5
2B7
330
1F
100
AcDbEntity
  8
0-2
  6
Continuous
 62
     6
370
     9
100
AcDbCircle
 10
-125.7308941553332
 20
913.6069678394572
 30
0.0
 40
8.333334407290899
100
AcDbArc
 50
250.7217102050781
 51
330.0
  0
ARC
  5
2B8
330
1F
100
AcDbEntity
  8
0-2
  6
Continuous
 62
     6
370
     9
100
AcDbCircle
 10
-136.0582900326558
 20
916.3743348158087
 30
0.0
 40
8.333334407290899
100
AcDbArc
 50
180.0
 51
259.2772979736328
  0
ARC
  5
2B9
330
1F
100
AcDbEntity
  8
0-2
  6
Continuous
 62
     6
370
     9
100
AcDbCircle
 10
-132.3025246847884
 20
915.5582782807579
 30
0.0
 40
5.000000064437453
100
AcDbArc
 50
256.2058258056641
 51
330.0003204345703
  0
ARC
  5
2BA
330
1F
100
AcDbEntity
  8
0-2
  6
Continuous
 62
     6
370
     9
100
AcDbCircle
 10
-149.3915848753501
 20
845.9588998495923
 30
0.0
 40
133.3333505166544
100
AcDbArc
 50
35.96354675292971
 51
54.03651428222659
  0
ARC
  5
2BB
330
1F
100
AcDbEntity
  8
0-2
  6
Continuous
 62
     6
370
     9
100
AcDbCircle
 10
-149.3915848753501
 20
845.9588998495923
 30
0.0
 40
66.66667525832719
100
AcDbArc
 50
40.72210693359378
 51
49.27781677246097
  0
ARC
  5
2BC
330
1F
100
AcDbEntity
  8
0-2
  6
Continuous
 62
     6
370
     9
100
AcDbCircle
 10
-45.51993521054852
 20
921.3253582269149
 30
0.0
 40
5.000000064437453
100
AcDbArc
 50
300.0003509521484
 51
35.96298217773437
  0
ARC
  5
2BD
330
1F
100
AcDbEntity
  8
0-2
  6
Continuous
 62
     6
370
     9
100
AcDbCircle
 10
-74.0252502179389
 20
949.8306732343053
 30
0.0
 40
5.000000064437453
100
AcDbArc
 50
54.03762817382811
 51
150.0000305175781
  0
ARC
  5
2BE
330
1F
100
AcDbEntity
  8
0-2
  6
Continuous
 62
     6
370
     9
100
AcDbCircle
 10
-102.6369643490621
 20
900.2739204365855
 30
0.0
 40
5.000000064437453
100
AcDbArc
 50
150.0000305175781
 51
229.2790069580078
  0
ARC
  5
2BF
330
1F
100
AcDbEntity
  8
0-2
  6
Continuous
 62
     6
370
     9
100
AcDbCircle
 10
-95.07668800826805
 20
892.7136440957918
 30
0.0
 40
5.000000064437453
100
AcDbArc
 50
220.7230987548828
 51
300.0003509521484
  0
ARC
  5
2C0
330
1F
100
AcDbEntity
  8
0-2
  6
Continuous
 62
     6
370
     9
100
AcDbCircle
 10
-149.3915848753501
 20
845.9588998495923
 30
0.0
 40
63.33333608266469
100
AcDbArc
 50
40.72222900390628
 51
49.27796936035159
  0
ARC
  5
2C1
330
1F
100
AcDbEntity
  8
0-2
  6
Continuous
 62
     6
370
     9
100
AcDbCircle
 10
-149.3915848753501
 20
845.9588998495923
 30
0.0
 40
136.6666742273279
100
AcDbArc
 50
35.96354675292969
 51
54.03645324707031
  0
ARC
  5
2C2
330
1F
100
AcDbEntity
  8
0-2
  6
Continuous
 62
     6
370
     9
100
AcDbCircle
 10
-74.0252502179389
 20
949.8306732343053
 30
0.0
 40
8.333334407290899
100
AcDbArc
 50
54.03648376464846
 51
149.9999847412109
  0
ARC
  5
2C3
330
1F
100
AcDbEntity
  8
0-2
  6
Continuous
 62
     6
370
     9
100
AcDbCircle
 10
-45.51993521054852
 20
921.3253582269149
 30
0.0
 40
8.333334407290899
100
AcDbArc
 50
299.9999847412109
 51
35.96287536621093
  0
ARC
  5
2C4
330
1F
100
AcDbEntity
  8
0-2
  6
Continuous
 62
     6
370
     9
100
AcDbCircle
 10
-95.07668800826805
 20
892.7136440957918
 30
0.0
 40
8.333334407290899
100
AcDbArc
 50
220.7216949462891
 51
299.9999847412109
  0
ARC
  5
2C5
330
1F
100
AcDbEntity
  8
0-2
  6
Continuous
 62
     6
370
     9
100
AcDbCircle
 10
-102.6369643490621
 20
900.2739204365855
 30
0.0
 40
8.333334407290899
100
AcDbArc
 50
149.9999847412109
 51
229.2772827148438
  0
ARC
  5
2C6
330
1F
100
AcDbEntity
  8
0-2
  6
Continuous
 62
     6
370
     9
100
AcDbCircle
 10
-49.60962059906207
 20
926.6621403215095
 30
0.0
 40
5.000000064437453
100
AcDbArc
 50
300.0003509521484
 51
38.96527099609376
  0
ARC
  5
2C7
330
1F
100
AcDbEntity
  8
0-2
  6
Continuous
 62
     6
370
     9
100
AcDbCircle
 10
-99.79239614804852
 20
897.6891640493388
 30
0.0
 40
5.000000064437453
100
AcDbArc
 50
226.2058563232422
 51
300.0003509521484
  0
ARC
  5
2C8
330
1F
100
AcDbEntity
  8
0-2
  6
Continuous
 62
     6
370
     9
100
AcDbCircle
 10
-149.3915848753501
 20
845.9588998495923
 30
0.0
 40
133.3333505166544
100
AcDbArc
 50
5.963546752929668
 51
24.03651428222654
  0
ARC
  5
2C9
330
1F
100
AcDbEntity
  8
0-2
  6
Continuous
 62
     6
370
     9
100
AcDbCircle
 10
-149.3915848753501
 20
845.9588998495923
 30
0.0
 40
66.66667525832719
100
AcDbArc
 50
10.72207641601565
 51
19.27778625488283
  0
ARC
  5
2CA
330
1F
100
AcDbEntity
  8
0-2
  6
Continuous
 62
     6
370
     9
100
AcDbCircle
 10
-21.75296908670999
 20
859.2921946922866
 30
0.0
 40
5.000000064437453
100
AcDbArc
 50
270.0002899169922
 51
5.962921142578118
  0
ARC
  5
2CB
330
1F
100
AcDbEntity
  8
0-2
  6
Continuous
 62
     6
370
     9
100
AcDbCircle
 10
-32.18614548820894
 20
898.23105726091
 30
0.0
 40
5.000000064437453
100
AcDbArc
 50
24.03756713867186
 51
119.9999694824219
  0
ARC
  5
2CC
330
1F
100
AcDbEntity
  8
0-2
  6
Continuous
 62
     6
370
     9
100
AcDbCircle
 10
-81.74339316557378
 20
869.6195905696093
 30
0.0
 40
5.000000064437453
100
AcDbArc
 50
119.9999694824219
 51
199.2789459228516
  0
ARC
  5
2CD
330
1F
100
AcDbEntity
  8
0-2
  6
Continuous
 62
     6
370
     9
100
AcDbCircle
 10
-78.97627362904514
 20
859.2921946922866
 30
0.0
 40
5.000000064437453
100
AcDbArc
 50
190.7230377197266
 51
270.0002899169922
  0
ARC
  5
2CE
330
1F
100
AcDbEntity
  8
0-2
  6
Continuous
 62
     6
370
     9
100
AcDbCircle
 10
-149.3915848753501
 20
845.9588998495923
 30
0.0
 40
63.33333608266469
100
AcDbArc
 50
10.72221374511721
 51
19.27795410156252
  0
ARC
  5
2CF
330
1F
100
AcDbEntity
  8
0-2
  6
Continuous
 62
     6
370
     9
100
AcDbCircle
 10
-149.3915848753501
 20
845.9588998495923
 30
0.0
 40
136.6666742273279
100
AcDbArc
 50
5.963577270507812
 51
24.03648376464843
  0
ARC
  5
2D0
330
1F
100
AcDbEntity
  8
0-2
  6
Continuous
 62
     6
370
     9
100
AcDbCircle
 10
-32.18614548820894
 20
898.23105726091
 30
0.0
 40
8.333334407290899
100
AcDbArc
 50
24.03659057617189
 51
120.0000915527344
  0
ARC
  5
2D1
330
1F
100
AcDbEntity
  8
0-2
  6
Continuous
 62
     6
370
     9
100
AcDbCircle
 10
-21.75296908670999
 20
859.2921946922866
 30
0.0
 40
8.333334407290899
100
AcDbArc
 50
270.0000915527344
 51
5.962982177734365
  0
ARC
  5
2D2
330
1F
100
AcDbEntity
  8
0-2
  6
Continuous
 62
     6
370
     9
100
AcDbCircle
 10
-78.97627362904514
 20
859.2921946922866
 30
0.0
 40
8.333334407290899
100
AcDbArc
 50
190.7218017578125
 51
270.0000915527344
  0
ARC
  5
2D3
330
1F
100
AcDbEntity
  8
0-2
  6
Continuous
 62
     6
370
     9
100
AcDbCircle
 10
-81.74339316557378
 20
869.6195905696093
 30
0.0
 40
8.333334407290899
100
AcDbArc
 50
120.0000915527343
 51
199.2773895263672
  0
ARC
  5
2D4
330
1F
100
AcDbEntity
  8
0-2
  6
Continuous
 62
     6
370
     9
100
AcDbCircle
 10
-22.62593678096676
 20
865.9589658335451
 30
0.0
 40
5.000000064437453
100
AcDbArc
 50
270.0002899169922
 51
8.965209960937514
  0
ARC
  5
2D5
330
1F
100
AcDbEntity
  8
0-2
  6
Continuous
 62
     6
370
     9
100
AcDbCircle
 10
-80.57226048504175
 20
865.9589658335451
 30
0.0
 40
5.000000064437453
100
AcDbArc
 50
196.2057952880859
 51
270.0002899169922
  0
ARC
  5
2D6
330
1F
100
AcDbEntity
  8
0-2
  6
Continuous
 62
     6
370
     9
100
AcDbCircle
 10
-149.3915848753501
 20
845.9588998495923
 30
0.0
 40
45.00000541274613
100
AcDbArc
 50
44.079345703125
 51
135.920654296875
  0
ARC
  5
2D7
330
1F
100
AcDbEntity
  8
0-2
  6
Continuous
 62
     6
370
     9
100
AcDbCircle
 10
-121.8537595744634
 20
872.6257369748034
 30
0.0
 40
6.666667719145078
100
AcDbArc
 50
270.0
 51
44.07815551757814
  0
ARC
  5
2D8
330
1F
100
AcDbEntity
  8
0-2
  6
Continuous
 62
     6
370
     9
100
AcDbCircle
 10
-176.9295338961483
 20
872.6257369748034
 30
0.0
 40
6.666667719145078
100
AcDbArc
 50
135.9218444824218
 51
270.0
  0
ARC
  5
2D9
330
1F
100
AcDbEntity
  8
0-2
  6
Continuous
 62
     6
370
     9
100
AcDbCircle
 10
-149.3915848753501
 20
845.9588998495923
 30
0.0
 40
225.0
100
AcDbArc
 50
4.248001098632812
 51
8.519638061523438
  0
ARC
  5
2DA
330
1F
100
AcDbEntity
  8
0-2
  6
Continuous
 62
     6
370
     9
100
AcDbCircle
 10
-149.3915848753501
 20
845.9588998495923
 30
0.0
 40
225.0
100
AcDbArc
 50
171.4803619384765
 51
175.7519989013672
  0
ARC
  5
2DB
330
1F
100
AcDbEntity
  8
0-1
  6
Continuous
 62
     2
370
     9
100
AcDbCircle
 10
-370.2233373431499
 20
879.2922606762395
 30
0.0
 40
6.666667719145078
100
AcDbArc
 50
171.4168090820312
 51
213.3877868652344
  0
ARC
  5
2DC
330
1F
100
AcDbEntity
  8
0-1
  6
Continuous
 62
     2
370
     9
100
AcDbCircle
 10
-371.9638290555655
 20
875.9589988255215
 30
0.0
 40
6.666667719145078
100
AcDbArc
 50
172.3234252929687
 51
228.8124694824218
  0
ARC
  5
2DD
330
1F
100
AcDbEntity
  8
0-1
  6
Continuous
 62
     2
370
     9
100
AcDbCircle
 10
71.43979643271578
 20
879.2922606762395
 30
0.0
 40
6.666667719145078
100
AcDbArc
 50
326.6130981445312
 51
8.583190917968754
  0
ARC
  5
2DE
330
1F
100
AcDbEntity
  8
0-1
  6
Continuous
 62
     2
370
     9
100
AcDbCircle
 10
73.18078302477673
 20
875.9589988255215
 30
0.0
 40
6.666667719145078
100
AcDbArc
 50
311.1860198974611
 51
7.676574707031284
  0
ARC
  5
2DF
330
1F
100
AcDbEntity
  8
0-1
  6
Continuous
 62
     2
370
     9
100
AcDbCircle
 10
-169.3916508593027
 20
1068.394928407447
 30
0.0
 40
6.666667719145078
100
AcDbArc
 50
53.16412353515625
 51
95.13787841796874
  0
ARC
  5
2E0
330
1F
100
AcDbEntity
  8
0-1
  6
Continuous
 62
     2
370
     9
100
AcDbCircle
 10
-162.7248797180444
 20
1070.147792110994
 30
0.0
 40
6.666667719145078
100
AcDbArc
 50
36.91754150390625
 51
93.40336608886719
  0
ARC
  5
2E1
330
1F
100
AcDbEntity
  8
0-1
  6
Continuous
 62
     2
370
     9
100
AcDbCircle
 10
-136.0582900326558
 20
1070.147792110994
 30
0.0
 40
6.666667719145078
100
AcDbArc
 50
86.59663391113284
 51
143.0824584960938
  0
ARC
  5
2E2
330
1F
100
AcDbEntity
  8
0-2
  6
Continuous
 62
     6
370
     9
100
AcDbCircle
 10
-149.3915848753501
 20
845.9588998495923
 30
0.0
 40
228.3333546406514
100
AcDbArc
 50
1.390518188476562
 51
176.6523590087891
  0
ARC
  5
2E3
330
1F
100
AcDbEntity
  8
0-1
  6
Continuous
 62
     2
370
     9
100
AcDbCircle
 10
-129.3916426113087
 20
1068.394928407447
 30
0.0
 40
6.666667719145078
100
AcDbArc
 50
84.86212158203125
 51
126.8358764648437
  0
ARC
  5
2E4
330
1F
100
AcDbEntity
  8
0-2
  6
Continuous
 62
     6
370
     9
100
AcDbCircle
 10
-274.3666346932345
 20
209.6871911291534
 30
0.0
 40
30.00000425287195
100
AcDbArc
 50
99.12141418457033
 51
165.0000152587891
  0
ARC
  5
2E5
330
1F
100
AcDbEntity
  8
0-5
  6
Continuous
 62
     2
370
     9
100
AcDbCircle
 10
-475.4877020496532
 20
-153.1981551546306
 30
0.0
 40
5.000000064437453
100
AcDbArc
 50
194.0364074707031
 51
270.0
  0
ARC
  5
2E6
330
1F
100
AcDbEntity
  8
0-5
  6
Continuous
 62
     2
370
     9
100
AcDbCircle
 10
-430.3726177881457
 20
-163.198188146607
 30
0.0
 40
5.000000064437453
100
AcDbArc
 50
14.03511047363282
 51
90.0
  0
ARC
  5
2E7
330
1F
100
AcDbEntity
  8
0-5
  6
Continuous
 62
     2
370
     9
100
AcDbCircle
 10
-419.2313923341761
 20
-166.5316974371474
 30
0.0
 40
5.000000064437453
100
AcDbArc
 50
194.0364074707031
 51
270.0
  0
ARC
  5
2E8
330
1F
100
AcDbEntity
  8
0-5
  6
Continuous
 62
     2
370
     9
100
AcDbCircle
 10
-419.962205850329
 20
-149.8648933039127
 30
0.0
 40
5.000000064437453
100
AcDbArc
 50
14.03640747070312
 51
90.0
  0
ARC
  5
2E9
330
1F
100
AcDbEntity
  8
0-5
  6
Continuous
 62
     2
370
     9
100
AcDbCircle
 10
-408.8209803963595
 20
-153.1981551546306
 30
0.0
 40
5.000000064437453
100
AcDbArc
 50
194.0364074707031
 51
270.0
  0
ARC
  5
2EA
330
1F
100
AcDbEntity
  8
0-5
  6
Continuous
 62
     2
370
     9
100
AcDbCircle
 10
6.1790278516348
 20
-166.5316974371474
 30
0.0
 40
5.000000064437453
100
AcDbArc
 50
194.0352783203125
 51
270.0
  0
ARC
  5
2EB
330
1F
100
AcDbEntity
  8
0-5
  6
Continuous
 62
     2
370
     9
100
AcDbCircle
 10
176.7046560188645
 20
-153.1981551546306
 30
0.0
 40
5.000000064437453
100
AcDbArc
 50
270.0
 51
345.9650573730469
  0
ARC
  5
2EC
330
1F
100
AcDbEntity
  8
0-5
  6
Continuous
 62
     2
370
     9
100
AcDbCircle
 10
131.5894480374455
 20
-163.198188146607
 30
0.0
 40
5.000000064437453
100
AcDbArc
 50
90.0
 51
165.9650573730469
  0
ARC
  5
2ED
330
1F
100
AcDbEntity
  8
0-5
  6
Continuous
 62
     2
370
     9
100
AcDbCircle
 10
120.4482225834759
 20
-166.5316974371474
 30
0.0
 40
5.000000064437453
100
AcDbArc
 50
270.0
 51
345.9650573730469
  0
ARC
  5
2EE
330
1F
100
AcDbEntity
  8
0-5
  6
Continuous
 62
     2
370
     9
100
AcDbCircle
 10
110.0379343655705
 20
-153.1981551546306
 30
0.0
 40
5.000000064437453
100
AcDbArc
 50
270.0
 51
345.9650573730469
  0
ARC
  5
2EF
330
1F
100
AcDbEntity
  8
0-5
  6
Continuous
 62
     2
370
     9
100
AcDbCircle
 10
121.17915981954
 20
-149.8648933039127
 30
0.0
 40
5.000000064437453
100
AcDbArc
 50
90.0
 51
165.9650573730469
  0
ARC
  5
2F0
330
1F
100
AcDbEntity
  8
0-0
  6
Continuous
 62
     4
370
     9
100
AcDbCircle
 10
-343.9796223146449
 20
-183.8643621330934
 30
0.0
 40
9.333911457577267
100
AcDbArc
 50
227.9255676269531
 51
312.0746307373047
  0
ARC
  5
2F1
330
1F
100
AcDbEntity
  8
0-0
  6
Continuous
 62
     4
370
     9
100
AcDbCircle
 10
-362.7249209580146
 20
-159.5667613096138
 30
0.0
 40
33.63136729678592
100
AcDbArc
 50
248.1978607177734
 51
291.8021392822266
  0
ARC
  5
2F2
330
1F
100
AcDbEntity
  8
0-0
  6
Continuous
 62
     4
370
     9
100
AcDbCircle
 10
-381.4704670412074
 20
-183.8643621330934
 30
0.0
 40
9.33396558503847
100
AcDbArc
 50
227.9257202148438
 51
312.0742797851562
  0
ARC
  5
2F3
330
1F
100
AcDbEntity
  8
0-5
  6
Continuous
 62
     2
370
     9
100
AcDbCircle
 10
-387.8566414235975
 20
-163.198188146607
 30
0.0
 40
5.000000064437453
100
AcDbArc
 50
20.55572509765625
 51
90.0
  0
ARC
  5
2F4
330
1F
100
AcDbEntity
  8
0-5
  6
Continuous
 62
     2
370
     9
100
AcDbCircle
 10
-337.5932004924322
 20
-163.198188146607
 30
0.0
 40
5.000000064437453
100
AcDbArc
 50
90.0
 51
159.4445037841797
  0
ARC
  5
2F5
330
1F
100
AcDbEntity
  8
0-5
  6
Continuous
 62
     2
370
     9
100
AcDbCircle
 10
-304.9620738824235
 20
-166.5316974371474
 30
0.0
 40
5.000000064437453
100
AcDbArc
 50
270.0
 51
345.9647216796875
  0
ARC
  5
2F6
330
1F
100
AcDbEntity
  8
0-0
  6
Continuous
 62
     3
370
     9
100
AcDbCircle
 10
-375.1268523083105
 20
26.80169638147596
 30
0.0
 40
5.000000064437453
100
AcDbArc
 50
189.0746765136718
 51
259.2631225585938
  0
TEXT
  5
2F7
330
1F
100
AcDbEntity
  8
0-4
  6
Continuous
 62
     2
370
     9
100
AcDbText
 10
268.3018263681285
 20
-11.1149842783798
 30
0.0
 40
30.48
  1
67
 50
90.0000025044784
 41
1.062500000000001
  7
ＭＳ ゴシック
100
AcDbText
  0
TEXT
  5
2F8
330
1F
100
AcDbEntity
  8
0-4
  6
Continuous
 62
     2
370
     9
100
AcDbText
 10
351.301803273745
 20
171.9789785198676
 30
0.0
 40
30.48
  1
43
 50
90.00000250447809
 41
1.062500000000001
  7
ＭＳ ゴシック
100
AcDbText
  0
TEXT
  5
2F9
330
1F
100
AcDbEntity
  8
0-4
  6
Continuous
 62
     2
370
     9
100
AcDbText
 10
-598.3650602450475
 20
168.4063186407502
 30
0.0
 40
30.48
  1
45
 50
90.0000025044778
 41
1.062500000000001
  7
ＭＳ ゴシック
100
AcDbText
  0
TEXT
  5
2FA
330
1F
100
AcDbEntity
  8
0-4
  6
Continuous
 62
     2
370
     9
100
AcDbText
 10
-204.3917704552172
 20
540.2963436312648
 30
0.0
 40
30.48
  1
φ200
 41
1.1
  7
ＭＳ ゴシック
100
AcDbText
  0
TEXT
  5
2FB
330
1F
100
AcDbEntity
  8
0-4
  6
Continuous
 62
     2
370
     9
100
AcDbText
 10
-204.3918941751284
 20
460.2963271352766
 30
0.0
 40
30.48
  1
φ180
 41
1.1
  7
ＭＳ ゴシック
100
AcDbText
  0
TEXT
  5
2FC
330
1F
100
AcDbEntity
  8
0-4
  6
Continuous
 62
     2
370
     9
100
AcDbText
 10
-204.3917704552172
 20
380.2963106392885
 30
0.0
 40
30.48
  1
φ137
 41
1.1
  7
ＭＳ ゴシック
100
AcDbText
  0
TEXT
  5
2FD
330
1F
100
AcDbEntity
  8
0-4
  6
Continuous
 62
     2
370
     9
100
AcDbText
 10
-193.1416467353058
 20
-255.8915778412332
 30
0.0
 40
30.48
  1
φ61
 41
1.09375
  7
ＭＳ ゴシック
100
AcDbText
  0
TEXT
  5
2FE
330
1F
100
AcDbEntity
  8
0-4
  6
Continuous
 62
     2
370
     9
100
AcDbText
 10
-193.1416467353058
 20
-335.8915324772656
 30
0.0
 40
30.48
  1
φ67
 41
1.09375
  7
ＭＳ ゴシック
100
AcDbText
  0
TEXT
  5
2FF
330
1F
100
AcDbEntity
  8
0-4
  6
Continuous
 62
     2
370
     9
100
AcDbText
 10
-204.3916467353057
 20
-415.8915489732539
 30
0.0
 40
30.48
  1
φ200
 41
1.1
  7
ＭＳ ゴシック
100
AcDbText
  0
TEXT
  5
300
330
1F
100
AcDbEntity
  8
0-E
  6
Continuous
 62
     7
370
     9
100
AcDbText
 10
213.6528734623821
 20
619.2665514147318
 30
0.0
 40
22.86
  1
ストレーナ：ＦＣ１５０
 41
1.151515151515151
  7
ＭＳ ゴシック
100
AcDbText
  0
TEXT
  5
301
330
1F
100
AcDbEntity
  8
0-E
  6
Continuous
 62
     7
370
     9
100
AcDbText
 10
310.5498378706378
 20
568.8801328917167
 30
0.0
 40
22.86
  1
樹脂系塗装
 41
1.133333333333333
  7
ＭＳ ゴシック
100
AcDbText
  0
TEXT
  5
302
330
1F
100
AcDbEntity
  8
0-E
  6
Continuous
 62
     7
370
     9
100
AcDbText
 10
267.9151316311954
 20
499.1144748997403
 30
0.0
 40
22.86
  1
丸小ネジ：Ｃ２７００
 41
1.15
  7
ＭＳ ゴシック
100
AcDbText
  0
TEXT
  5
303
330
1F
100
AcDbEntity
  8
0-E
  6
Continuous
 62
     7
370
     9
100
AcDbText
 10
234.9703090620444
 20
378.9622746648375
 30
0.0
 40
22.86
  1
防水層押え：ＦＣ１５０
 41
1.151515151515152
  7
ＭＳ ゴシック
100
AcDbText
  0
TEXT
  5
304
330
1F
100
AcDbEntity
  8
0-E
  6
Continuous
 62
     7
370
     9
100
AcDbText
 10
345.4326668666263
 20
332.4517535235789
 30
0.0
 40
22.86
  1
樹脂系塗装
 41
1.133333333333333
  7
ＭＳ ゴシック
100
AcDbText
  0
TEXT
  5
305
330
1F
100
AcDbEntity
  8
0-E
  6
Continuous
 62
     7
370
     9
100
AcDbText
 10
-863.4571201371745
 20
621.7805400127049
 30
0.0
 40
22.86
  1
ボルト：Ｃ３６０２
 41
1.148148148148148
  7
ＭＳ ゴシック
100
AcDbText
  0
TEXT
  5
306
330
1F
100
AcDbEntity
  8
0-E
  6
Continuous
 62
     7
370
     9
100
AcDbText
 10
-818.3383201543303
 20
8.784134488528306
 30
0.0
 40
22.86
  1
本体：ＦＣ１５０
 41
1.145833333333333
  7
ＭＳ ゴシック
100
AcDbText
  0
TEXT
  5
307
330
1F
100
AcDbEntity
  8
0-E
  6
Continuous
 62
     7
370
     9
100
AcDbText
 10
-777.247646656125
 20
-36.06878728089748
 30
0.0
 40
22.86
  1
樹脂系塗装
 41
1.133333333333333
  7
ＭＳ ゴシック
100
AcDbText
  0
TEXT
  5
308
330
1F
100
AcDbEntity
  8
0-E
  6
Continuous
 62
     7
370
     9
100
AcDbText
 10
252.2505165155915
 20
-255.7642960831567
 30
0.0
 40
22.86
  1
クランプ板：ＦＣ１５０
 41
1.151515151515151
  7
ＭＳ ゴシック
100
AcDbText
  0
TEXT
  5
309
330
1F
100
AcDbEntity
  8
0-E
  6
Continuous
 62
     7
370
     9
100
AcDbText
 10
345.415346079042
 20
-308.169576119052
 30
0.0
 40
22.86
  1
樹脂系塗装
 41
1.133333333333333
  7
ＭＳ ゴシック
100
AcDbText
  0
TEXT
  5
30A
330
1F
100
AcDbEntity
  8
0-E
  6
Continuous
 62
     7
370
     9
100
AcDbText
 10
-848.8733881507935
 20
-466.9419364310241
 30
0.0
 40
22.86
  1
ボルト：Ｃ３６０２
 41
1.148148148148148
  7
ＭＳ ゴシック
100
AcDbText
  0
TEXT
  5
30B
330
1F
100
AcDbEntity
  8
0-E
  6
Continuous
 62
     7
370
     9
100
AcDbText
 10
-800.531239086446
 20
567.8441023543432
 30
0.0
 40
22.86
  1
Ｍ８×４０
 41
1.133333333333333
  7
ＭＳ ゴシック
100
AcDbText
  0
TEXT
  5
30C
330
1F
100
AcDbEntity
  8
0-E
  6
Continuous
 62
     7
370
     9
100
AcDbText
 10
358.9983077027748
 20
450.6660050676034
 30
0.0
 40
22.86
  1
Ｍ６×１２
 41
1.133333333333333
  7
ＭＳ ゴシック
100
AcDbText
  0
TEXT
  5
30D
330
1F
100
AcDbEntity
  8
F-4
  6
Continuous
 62
     6
370
     0
100
AcDbText
 10
-166.7594966067168
 20
-1154.969942900067
 30
0.0
 40
30.48
  1
差し込み式　ＡＬＣ用　ルーフドレイン　　ＥＡＳＲ－１－６５
 41
0.7982758620689655
  7
ＭＳ ゴシック
100
AcDbText
  0
TEXT
  5
30E
330
1F
100
AcDbEntity
  8
0-5
  6
Continuous
 62
     2
370
     9
100
AcDbText
 10
-434.1217700855152
 20
-1275.823977710621
 30
0.0
 40
30.48
  1
星野
 41
1.0625
  7
ＭＳ ゴシック
100
AcDbText
  0
TEXT
  5
30F
330
1F
100
AcDbEntity
  8
0-4
  6
Continuous
 62
     2
370
     9
100
AcDbText
 10
351.301803762958
 20
-44.0315565946747
 30
0.0
 40
30.48
  1
100
 50
90.0000025
 41
1.083333333333333
  7
ＭＳ ゴシック
100
AcDbText
  0
TEXT
  5
310
330
1F
100
AcDbEntity
  8
0-E
  6
Continuous
 62
     7
370
     9
100
AcDbText
 10
-802.9669940234595
 20
-515.0706521523607
 30
0.0
 40
22.86
  1
Ｍ８×１００
 41
1.138888888888889
  7
ＭＳ ゴシック
100
AcDbText
  0
ENDSEC
  0
SECTION
  2
OBJECTS
  0
DICTIONARY
  5
C
330
0
100
AcDbDictionary
281
     1
  3
ACAD_GROUP
350
D
  3
ACAD_LAYOUT
350
1A
  3
ACAD_MLEADERSTYLE
350
312
  3
ACAD_MLINESTYLE
350
17
  3
ACAD_PLOTSETTINGS
350
19
  3
ACAD_PLOTSTYLENAME
350
E
  3
ACAD_TABLESTYLE
350
311
  3
ACAD_VISUALSTYLE
350
2A
  3
AcDbVariableDictionary
350
313
  0
DICTIONARY
  5
D
102
{ACAD_REACTORS
330
C
102
}
330
C
100
AcDbDictionary
281
     1
  0
DICTIONARY
  5
1A
102
{ACAD_REACTORS
330
C
102
}
330
C
100
AcDbDictionary
281
     1
  3
Layout1
350
1E
  3
Layout2
350
26
  3
Model
350
22
  0
DICTIONARY
  5
312
102
{ACAD_REACTORS
330
C
102
}
330
C
100
AcDbDictionary
281
     1
  0
DICTIONARY
  5
17
102
{ACAD_REACTORS
330
C
102
}
330
C
100
AcDbDictionary
281
     1
  3
Standard
350
18
  0
DICTIONARY
  5
19
102
{ACAD_REACTORS
330
C
102
}
330
C
100
AcDbDictionary
281
     1
  0
ACDBDICTIONARYWDFLT
  5
E
102
{ACAD_REACTORS
330
C
102
}
330
C
100
AcDbDictionary
281
     1
  3
Normal
350
F
100
AcDbDictionaryWithDefault
340
F
  0
DICTIONARY
  5
311
102
{ACAD_REACTORS
330
C
102
}
330
C
100
AcDbDictionary
281
     1
  0
DICTIONARY
  5
2A
102
{ACAD_REACTORS
330
C
102
}
330
C
100
AcDbDictionary
281
     1
  3
2dWireframe
350
2F
  3
3D Hidden
350
31
  3
3dWireframe
350
30
  3
Basic
350
32
  3
Brighten
350
36
  3
ColorChange
350
3A
  3
Conceptual
350
34
  3
Dim
350
35
  3
Facepattern
350
39
  3
Flat
350
2B
  3
FlatWithEdges
350
2C
  3
Gouraud
350
2D
  3
GouraudWithEdges
350
2E
  3
Linepattern
350
38
  3
Realistic
350
33
  3
Thicken
350
37
  0
DICTIONARY
  5
313
102
{ACAD_REACTORS
330
C
102
}
330
C
100
AcDbDictionary
281
     1
  3
PSOLHEIGHT
350
315
  3
PSOLWIDTH
350
314
  0
LAYOUT
  5
1E
102
{ACAD_REACTORS
330
1A
102
}
102
{ACAD_XDICTIONARY
360
316
102
}
330
1A
100
AcDbPlotSettings
  1

  2
none_device
  4

  6

 40
0.0
 41
0.0
 42
0.0
 43
0.0
 44
0.0
 45
0.0
 46
0.0
 47
0.0
 48
0.0
 49
0.0
140
0.0
141
0.0
142
1.0
143
1.0
 70
   688
 72
     0
 73
     0
 74
     5
  7

 75
    16
147
1.0
148
0.0
149
0.0
100
AcDbLayout
  1
Layout1
 70
     1
 71
     1
 10
0.0
 20
0.0
 11
420.0
 21
297.0
 12
0.0
 22
0.0
 32
0.0
 14
1.000000000000000E+20
 24
1.000000000000000E+20
 34
1.000000000000000E+20
 15
-1.000000000000000E+20
 25
-1.000000000000000E+20
 35
-1.000000000000000E+20
146
0.0
 13
0.0
 23
0.0
 33
0.0
 16
1.0
 26
0.0
 36
0.0
 17
0.0
 27
1.0
 37
0.0
 76
     0
330
1B
  0
LAYOUT
  5
26
102
{ACAD_REACTORS
330
1A
102
}
102
{ACAD_XDICTIONARY
360
31A
102
}
330
1A
100
AcDbPlotSettings
  1

  2
none_device
  4

  6

 40
0.0
 41
0.0
 42
0.0
 43
0.0
 44
0.0
 45
0.0
 46
0.0
 47
0.0
 48
0.0
 49
0.0
140
0.0
141
0.0
142
1.0
143
1.0
 70
   688
 72
     0
 73
     0
 74
     5
  7

 75
    16
147
1.0
148
0.0
149
0.0
100
AcDbLayout
  1
Layout2
 70
     1
 71
     2
 10
0.0
 20
0.0
 11
0.0
 21
0.0
 12
0.0
 22
0.0
 32
0.0
 14
0.0
 24
0.0
 34
0.0
 15
0.0
 25
0.0
 35
0.0
146
0.0
 13
0.0
 23
0.0
 33
0.0
 16
1.0
 26
0.0
 36
0.0
 17
0.0
 27
1.0
 37
0.0
 76
     0
330
23
  0
LAYOUT
  5
22
102
{ACAD_REACTORS
330
1A
102
}
102
{ACAD_XDICTIONARY
360
318
102
}
330
1A
100
AcDbPlotSettings
  1

  2
none_device
  4

  6

 40
0.0
 41
0.0
 42
0.0
 43
0.0
 44
0.0
 45
0.0
 46
0.0
 47
0.0
 48
0.0
 49
0.0
140
0.0
141
0.0
142
1.0
143
1.0
 70
  1712
 72
     0
 73
     0
 74
     0
  7

 75
     0
147
1.0
148
0.0
149
0.0
100
AcDbLayout
  1
Model
 70
     1
 71
     0
 10
-2100.0
 20
-1485.0
 11
2100.0
 21
1485.0
 12
0.0
 22
0.0
 32
0.0
 14
-2100.0
 24
-1485.0
 34
0.0
 15
2100.0
 25
1485.0
 35
0.0
146
0.0
 13
0.0
 23
0.0
 33
0.0
 16
1.0
 26
0.0
 36
0.0
 17
0.0
 27
1.0
 37
0.0
 76
     0
330
1F
331
29
  0
MLINESTYLE
  5
18
102
{ACAD_REACTORS
330
17
102
}
330
17
100
AcDbMlineStyle
  2
Standard
 70
     0
  3

 62
   256
 51
90.0
 52
90.0
 71
     2
 49
0.5
 62
   256
  6
BYLAYER
 49
-0.5
 62
   256
  6
BYLAYER
  0
ACDBPLACEHOLDER
  5
F
102
{ACAD_REACTORS
330
E
102
}
330
E
  0
VISUALSTYLE
  5
2F
102
{ACAD_REACTORS
330
2A
102
}
330
2A
100
AcDbVisualStyle
  2
2dWireframe
 70
     4
 71
     0
 72
     2
 73
     0
 90
        0
 40
-0.6
 41
-30.0
 62
     5
 63
     7
 74
     1
 91
        4
 64
     7
 65
   257
 75
     1
175
     1
 42
1.0
 92
        0
 66
   257
 43
1.0
 76
     1
 77
     6
 78
     2
 67
     7
 79
     5
170
     0
171
     0
290
     0
174
     0
 93
        1
 44
0.0
173
     0
291
     0
 45
0.0
1001
ACAD
1000
AcDbSavedByObjectVersion
1070
     0
  0
VISUALSTYLE
  5
31
102
{ACAD_REACTORS
330
2A
102
}
330
2A
100
AcDbVisualStyle
  2
3D Hidden
 70
     6
 71
     1
 72
     2
 73
     2
 90
        0
 40
-0.6
 41
-30.0
 62
     5
 63
     7
 74
     2
 91
        2
 64
     7
 65
   257
 75
     2
175
     1
 42
40.0
 92
        0
 66
   257
 43
1.0
 76
     1
 77
     6
 78
     2
 67
     7
 79
     3
170
     0
171
     0
290
     0
174
     0
 93
        1
 44
0.0
173
     0
291
     0
 45
0.0
1001
ACAD
1000
AcDbSavedByObjectVersion
1070
     0
  0
VISUALSTYLE
  5
30
102
{ACAD_REACTORS
330
2A
102
}
330
2A
100
AcDbVisualStyle
  2
3dWireframe
 70
     5
 71
     0
 72
     2
 73
     0
 90
        0
 40
-0.6
 41
-30.0
 62
     5
 63
     7
 74
     1
 91
        4
 64
     7
 65
   257
 75
     1
175
     1
 42
1.0
 92
        0
 66
   257
 43
1.0
 76
     1
 77
     6
 78
     2
 67
     7
 79
     5
170
     0
171
     0
290
     0
174
     0
 93
        1
 44
0.0
173
     0
291
     0
 45
0.0
1001
ACAD
1000
AcDbSavedByObjectVersion
1070
     0
  0
VISUALSTYLE
  5
32
102
{ACAD_REACTORS
330
2A
102
}
330
2A
100
AcDbVisualStyle
  2
Basic
 70
     7
 71
     1
 72
     0
 73
     1
 90
        0
 40
-0.6
 41
-30.0
 62
     5
 63
     7
 74
     0
 91
        4
 64
     7
 65
   257
 75
     1
175
     1
 42
1.0
 92
        8
 66
     7
 43
1.0
 76
     1
 77
     6
 78
     2
 67
     7
 79
     5
170
     0
171
     0
290
     0
174
     0
 93
        1
 44
0.0
173
     0
291
     1
 45
0.0
1001
ACAD
1000
AcDbSavedByObjectVersion
1070
     0
  0
VISUALSTYLE
  5
36
102
{ACAD_REACTORS
330
2A
102
}
330
2A
100
AcDbVisualStyle
  2
Brighten
 70
    12
 71
     2
 72
     2
 73
     0
 90
        0
 40
-0.6
 41
-30.0
 62
     5
 63
     7
 74
     1
 91
        4
 64
     7
 65
   257
 75
     1
175
     1
 42
1.0
 92
        8
 66
     7
 43
1.0
 76
     1
 77
     6
 78
     2
 67
     7
 79
     5
170
     0
171
     0
290
     0
174
     0
 93
        1
 44
50.0
173
     0
291
     1
 45
0.0
1001
ACAD
1000
AcDbSavedByObjectVersion
1070
     0
  0
VISUALSTYLE
  5
3A
102
{ACAD_REACTORS
330
2A
102
}
330
2A
100
AcDbVisualStyle
  2
ColorChange
 70
    16
 71
     2
 72
     2
 73
     3
 90
        0
 40
-0.6
 41
-30.0
 62
     5
 63
     8
 74
     1
 91
        4
 64
     7
 65
   257
 75
     1
175
     1
 42
1.0
 92
        8
 66
     8
 43
1.0
 76
     1
 77
     6
 78
     2
 67
     7
 79
     5
170
     0
171
     0
290
     0
174
     0
 93
        1
 44
0.0
173
     0
291
     1
 45
0.0
1001
ACAD
1000
AcDbSavedByObjectVersion
1070
     0
  0
VISUALSTYLE
  5
34
102
{ACAD_REACTORS
330
2A
102
}
330
2A
100
AcDbVisualStyle
  2
Conceptual
 70
     9
 71
     3
 72
     2
 73
     0
 90
        0
 40
-0.6
 41
-30.0
 62
     5
 63
     7
 74
     2
 91
        2
 64
     7
 65
   257
 75
     1
175
     1
 42
40.0
 92
        8
 66
     7
 43
1.0
 76
     1
 77
     6
 78
     2
 67
     7
 79
     3
170
     0
171
     0
290
     0
174
     0
 93
        1
 44
0.0
173
     0
291
     0
 45
0.0
1001
ACAD
1000
AcDbSavedByObjectVersion
1070
     0
  0
VISUALSTYLE
  5
35
102
{ACAD_REACTORS
330
2A
102
}
330
2A
100
AcDbVisualStyle
  2
Dim
 70
    11
 71
     2
 72
     2
 73
     0
 90
        0
 40
-0.6
 41
-30.0
 62
     5
 63
     7
 74
     1
 91
        4
 64
     7
 65
   257
 75
     1
175
     1
 42
1.0
 92
        8
 66
     7
 43
1.0
 76
     1
 77
     6
 78
     2
 67
     7
 79
     5
170
     0
171
     0
290
     0
174
     0
 93
        1
 44
-50.0
173
     0
291
     1
 45
0.0
1001
ACAD
1000
AcDbSavedByObjectVersion
1070
     0
  0
VISUALSTYLE
  5
39
102
{ACAD_REACTORS
330
2A
102
}
330
2A
100
AcDbVisualStyle
  2
Facepattern
 70
    15
 71
     2
 72
     2
 73
     0
 90
        0
 40
-0.6
 41
-30.0
 62
     5
 63
     7
 74
     1
 91
        4
 64
     7
 65
   257
 75
     1
175
     1
 42
1.0
 92
        8
 66
     7
 43
1.0
 76
     1
 77
     6
 78
     2
 67
     7
 79
     5
170
     0
171
     0
290
     0
174
     0
 93
        1
 44
0.0
173
     0
291
     1
 45
0.0
1001
ACAD
1000
AcDbSavedByObjectVersion
1070
     0
  0
VISUALSTYLE
  5
2B
102
{ACAD_REACTORS
330
2A
102
}
330
2A
100
AcDbVisualStyle
  2
Flat
 70
     0
 71
     2
 72
     1
 73
     1
 90
        2
 40
-0.6
 41
30.0
 62
     5
 63
     7
 74
     0
 91
        4
 64
     7
 65
   257
 75
     1
175
     1
 42
1.0
 92
        8
 66
     7
 43
1.0
 76
     1
 77
     6
 78
     2
 67
     7
 79
     5
170
     0
171
     0
290
     0
174
     0
 93
       13
 44
0.0
173
     0
291
     1
 45
0.0
1001
ACAD
1000
AcDbSavedByObjectVersion
1070
     0
  0
VISUALSTYLE
  5
2C
102
{ACAD_REACTORS
330
2A
102
}
330
2A
100
AcDbVisualStyle
  2
FlatWithEdges
 70
     1
 71
     2
 72
     1
 73
     1
 90
        2
 40
-0.6
 41
30.0
 62
     5
 63
     7
 74
     1
 91
        4
 64
     7
 65
   257
 75
     1
175
     1
 42
1.0
 92
        0
 66
   257
 43
1.0
 76
     1
 77
     6
 78
     2
 67
     7
 79
     5
170
     0
171
     0
290
     0
174
     0
 93
       13
 44
0.0
173
     0
291
     1
 45
0.0
1001
ACAD
1000
AcDbSavedByObjectVersion
1070
     0
  0
VISUALSTYLE
  5
2D
102
{ACAD_REACTORS
330
2A
102
}
330
2A
100
AcDbVisualStyle
  2
Gouraud
 70
     2
 71
     2
 72
     2
 73
     1
 90
        2
 40
-0.6
 41
30.0
 62
     5
 63
     7
 74
     0
 91
        4
 64
     7
 65
   257
 75
     1
175
     1
 42
1.0
 92
        0
 66
     7
 43
1.0
 76
     1
 77
     6
 78
     2
 67
     7
 79
     5
170
     0
171
     0
290
     0
174
     0
 93
       13
 44
0.0
173
     0
291
     1
 45
0.0
1001
ACAD
1000
AcDbSavedByObjectVersion
1070
     0
  0
VISUALSTYLE
  5
2E
102
{ACAD_REACTORS
330
2A
102
}
330
2A
100
AcDbVisualStyle
  2
GouraudWithEdges
 70
     3
 71
     2
 72
     2
 73
     1
 90
        2
 40
-0.6
 41
30.0
 62
     5
 63
     7
 74
     1
 91
        4
 64
     7
 65
   257
 75
     1
175
     1
 42
1.0
 92
        0
 66
   257
 43
1.0
 76
     1
 77
     6
 78
     2
 67
     7
 79
     5
170
     0
171
     0
290
     0
174
     0
 93
       13
 44
0.0
173
     0
291
     1
 45
0.0
1001
ACAD
1000
AcDbSavedByObjectVersion
1070
     0
  0
VISUALSTYLE
  5
38
102
{ACAD_REACTORS
330
2A
102
}
330
2A
100
AcDbVisualStyle
  2
Linepattern
 70
    14
 71
     2
 72
     2
 73
     0
 90
        0
 40
-0.6
 41
-30.0
 62
     5
 63
     7
 74
     1
 91
        4
 64
     7
 65
   257
 75
     7
175
     7
 42
1.0
 92
        8
 66
     7
 43
1.0
 76
     1
 77
     6
 78
     2
 67
     7
 79
     5
170
     0
171
     0
290
     0
174
     0
 93
        1
 44
0.0
173
     0
291
     1
 45
0.0
1001
ACAD
1000
AcDbSavedByObjectVersion
1070
     0
  0
VISUALSTYLE
  5
33
102
{ACAD_REACTORS
330
2A
102
}
330
2A
100
AcDbVisualStyle
  2
Realistic
 70
     8
 71
     2
 72
     2
 73
     0
 90
        0
 40
-0.6
 41
-30.0
 62
     5
 63
     7
 74
     1
 91
        0
 64
     7
 65
   257
 75
     1
175
     1
 42
1.0
 92
        8
 66
     8
 43
1.0
 76
     1
 77
     6
 78
     2
 67
     7
 79
     5
170
     0
171
     0
290
     0
174
     0
 93
       13
 44
0.0
173
     0
291
     0
 45
0.0
1001
ACAD
1000
AcDbSavedByObjectVersion
1070
     0
  0
VISUALSTYLE
  5
37
102
{ACAD_REACTORS
330
2A
102
}
330
2A
100
AcDbVisualStyle
  2
Thicken
 70
    13
 71
     2
 72
     2
 73
     0
 90
        0
 40
-0.6
 41
-30.0
 62
     5
 63
     7
 74
     1
 91
        4
 64
     7
 65
   257
 75
     1
175
     1
 42
1.0
 92
       12
 66
     7
 43
1.0
 76
     1
 77
     6
 78
     2
 67
     7
 79
     5
170
     0
171
     0
290
     0
174
     0
 93
        1
 44
0.0
173
     0
291
     1
 45
0.0
1001
ACAD
1000
AcDbSavedByObjectVersion
1070
     0
  0
DICTIONARYVAR
  5
315
102
{ACAD_REACTORS
330
313
102
}
330
313
100
DictionaryVariables
280
     0
  1
80.000000
  0
DICTIONARYVAR
  5
314
102
{ACAD_REACTORS
330
313
102
}
330
313
100
DictionaryVariables
280
     0
  1
5.000000
  0
DICTIONARY
  5
316
330
1E
100
AcDbDictionary
280
     1
281
     1
  3
ACAD_XREC_ROUNDTRIP
360
317
  0
DICTIONARY
  5
31A
330
26
100
AcDbDictionary
280
     1
281
     1
  3
ACAD_XREC_ROUNDTRIP
360
31B
  0
DICTIONARY
  5
318
330
22
100
AcDbDictionary
280
     1
281
     1
  3
ACAD_XREC_ROUNDTRIP
360
319
  0
XRECORD
  5
317
102
{ACAD_REACTORS
330
316
102
}
330
316
100
AcDbXrecord
280
     1
102
SHADEPLOT
 70
     0
102
SHADEPLOTRESLEVEL
 70
     5
102
SHADEPLOTCUSTOMDPI
 70
   300
  0
XRECORD
  5
31B
102
{ACAD_REACTORS
330
31A
102
}
330
31A
100
AcDbXrecord
280
     1
102
SHADEPLOT
 70
     0
102
SHADEPLOTRESLEVEL
 70
     5
102
SHADEPLOTCUSTOMDPI
 70
   300
  0
XRECORD
  5
319
102
{ACAD_REACTORS
330
318
102
}
330
318
100
AcDbXrecord
280
     1
102
SHADEPLOT
 70
     0
102
SHADEPLOTRESLEVEL
 70
     5
102
SHADEPLOTCUSTOMDPI
 70
   300
  0
ENDSEC
  0
EOF
