  0
SECTION
  2
HEADER
  9
$ACADVER
  1
AC1015
  9
$ACADMAINTVER
 70
     6
  9
$DWGCODEPAGE
  3
ANSI_932
  9
$INSBASE
 10
0.0
 20
0.0
 30
0.0
  9
$EXTMIN
 10
-2100.0
 20
-1485.0
 30
0.0
  9
$EXTMAX
 10
2100.0
 20
1485.0
 30
0.0
  9
$LIMMIN
 10
-2100.0
 20
-1485.0
  9
$LIMMAX
 10
2100.0
 20
1485.0
  9
$ORTHOMODE
 70
     0
  9
$REGENMODE
 70
     1
  9
$FILLMODE
 70
     1
  9
$QTEXTMODE
 70
     0
  9
$MIRRTEXT
 70
     1
  9
$LTSCALE
 40
10.0
  9
$ATTMODE
 70
     1
  9
$TEXTSIZE
 40
2.5
  9
$TRACEWID
 40
1.0
  9
$TEXTSTYLE
  7
Standard
  9
$CLAYER
  8
0
  9
$CELTYPE
  6
ByLayer
  9
$CECOLOR
 62
   256
  9
$CELTSCALE
 40
1.0
  9
$DISPSILH
 70
     0
  9
$DIMSCALE
 40
1.0
  9
$DIMASZ
 40
2.5
  9
$DIMEXO
 40
0.625
  9
$DIMDLI
 40
3.75
  9
$DIMRND
 40
0.0
  9
$DIMDLE
 40
0.0
  9
$DIMEXE
 40
1.25
  9
$DIMTP
 40
0.0
  9
$DIMTM
 40
0.0
  9
$DIMTXT
 40
2.5
  9
$DIMCEN
 40
2.5
  9
$DIMTSZ
 40
0.0
  9
$DIMTOL
 70
     0
  9
$DIMLIM
 70
     0
  9
$DIMTIH
 70
     0
  9
$DIMTOH
 70
     0
  9
$DIMSE1
 70
     0
  9
$DIMSE2
 70
     0
  9
$DIMTAD
 70
     1
  9
$DIMZIN
 70
     8
  9
$DIMBLK
  1

  9
$DIMASO
 70
     1
  9
$DIMSHO
 70
     1
  9
$DIMPOST
  1

  9
$DIMAPOST
  1

  9
$DIMALT
 70
     0
  9
$DIMALTD
 70
     3
  9
$DIMALTF
 40
0.03937007874016
  9
$DIMLFAC
 40
1.0
  9
$DIMTOFL
 70
     1
  9
$DIMTVP
 40
0.0
  9
$DIMTIX
 70
     0
  9
$DIMSOXD
 70
     0
  9
$DIMSAH
 70
     0
  9
$DIMBLK1
  1

  9
$DIMBLK2
  1

  9
$DIMSTYLE
  2
ISO-25
  9
$DIMCLRD
 70
     0
  9
$DIMCLRE
 70
     0
  9
$DIMCLRT
 70
     0
  9
$DIMTFAC
 40
1.0
  9
$DIMGAP
 40
0.625
  9
$DIMJUST
 70
     0
  9
$DIMSD1
 70
     0
  9
$DIMSD2
 70
     0
  9
$DIMTOLJ
 70
     0
  9
$DIMTZIN
 70
     8
  9
$DIMALTZ
 70
     0
  9
$DIMALTTZ
 70
     0
  9
$DIMUPT
 70
     0
  9
$DIMDEC
 70
     2
  9
$DIMTDEC
 70
     2
  9
$DIMALTU
 70
     2
  9
$DIMALTTD
 70
     3
  9
$DIMTXSTY
  7
Standard
  9
$DIMAUNIT
 70
     0
  9
$DIMADEC
 70
     0
  9
$DIMALTRND
 40
0.0
  9
$DIMAZIN
 70
     0
  9
$DIMDSEP
 70
    44
  9
$DIMATFIT
 70
     3
  9
$DIMFRAC
 70
     0
  9
$DIMLDRBLK
  1

  9
$DIMLUNIT
 70
     2
  9
$DIMLWD
 70
    -2
  9
$DIMLWE
 70
    -2
  9
$DIMTMOVE
 70
     0
  9
$LUNITS
 70
     2
  9
$LUPREC
 70
     4
  9
$SKETCHINC
 40
1.0
  9
$FILLETRAD
 40
10.0
  9
$AUNITS
 70
     0
  9
$AUPREC
 70
     0
  9
$MENU
  1
.
  9
$ELEVATION
 40
0.0
  9
$PELEVATION
 40
0.0
  9
$THICKNESS
 40
0.0
  9
$LIMCHECK
 70
     0
  9
$CHAMFERA
 40
10.0
  9
$CHAMFERB
 40
10.0
  9
$CHAMFERC
 40
20.0
  9
$CHAMFERD
 40
0.0
  9
$SKPOLY
 70
     0
  9
$TDCREATE
 40
2456902.409650822
  9
$TDUCREATE
 40
2456902.034650822
  9
$TDUPDATE
 40
2456902.409650833
  9
$TDUUPDATE
 40
2456902.034650833
  9
$TDINDWG
 40
0.0000000116
  9
$TDUSRTIMER
 40
0.0000000116
  9
$USRTIMER
 70
     1
  9
$ANGBASE
 50
0.0
  9
$ANGDIR
 70
     0
  9
$PDMODE
 70
     0
  9
$PDSIZE
 40
0.0
  9
$PLINEWID
 40
0.0
  9
$SPLFRAME
 70
     0
  9
$SPLINETYPE
 70
     6
  9
$SPLINESEGS
 70
     8
  9
$HANDSEED
  5
318
  9
$SURFTAB1
 70
     6
  9
$SURFTAB2
 70
     6
  9
$SURFTYPE
 70
     6
  9
$SURFU
 70
     6
  9
$SURFV
 70
     6
  9
$UCSBASE
  2

  9
$UCSNAME
  2

  9
$UCSORG
 10
0.0
 20
0.0
 30
0.0
  9
$UCSXDIR
 10
1.0
 20
0.0
 30
0.0
  9
$UCSYDIR
 10
0.0
 20
1.0
 30
0.0
  9
$UCSORTHOREF
  2

  9
$UCSORTHOVIEW
 70
     0
  9
$UCSORGTOP
 10
0.0
 20
0.0
 30
0.0
  9
$UCSORGBOTTOM
 10
0.0
 20
0.0
 30
0.0
  9
$UCSORGLEFT
 10
0.0
 20
0.0
 30
0.0
  9
$UCSORGRIGHT
 10
0.0
 20
0.0
 30
0.0
  9
$UCSORGFRONT
 10
0.0
 20
0.0
 30
0.0
  9
$UCSORGBACK
 10
0.0
 20
0.0
 30
0.0
  9
$PUCSBASE
  2

  9
$PUCSNAME
  2

  9
$PUCSORG
 10
0.0
 20
0.0
 30
0.0
  9
$PUCSXDIR
 10
1.0
 20
0.0
 30
0.0
  9
$PUCSYDIR
 10
0.0
 20
1.0
 30
0.0
  9
$PUCSORTHOREF
  2

  9
$PUCSORTHOVIEW
 70
     0
  9
$PUCSORGTOP
 10
0.0
 20
0.0
 30
0.0
  9
$PUCSORGBOTTOM
 10
0.0
 20
0.0
 30
0.0
  9
$PUCSORGLEFT
 10
0.0
 20
0.0
 30
0.0
  9
$PUCSORGRIGHT
 10
0.0
 20
0.0
 30
0.0
  9
$PUCSORGFRONT
 10
0.0
 20
0.0
 30
0.0
  9
$PUCSORGBACK
 10
0.0
 20
0.0
 30
0.0
  9
$USERI1
 70
     0
  9
$USERI2
 70
     0
  9
$USERI3
 70
     0
  9
$USERI4
 70
     0
  9
$USERI5
 70
     0
  9
$USERR1
 40
0.0
  9
$USERR2
 40
0.0
  9
$USERR3
 40
0.0
  9
$USERR4
 40
0.0
  9
$USERR5
 40
0.0
  9
$WORLDVIEW
 70
     1
  9
$SHADEDGE
 70
     3
  9
$SHADEDIF
 70
    70
  9
$TILEMODE
 70
     1
  9
$MAXACTVP
 70
    64
  9
$PINSBASE
 10
0.0
 20
0.0
 30
0.0
  9
$PLIMCHECK
 70
     0
  9
$PEXTMIN
 10
1.000000000000000E+20
 20
1.000000000000000E+20
 30
1.000000000000000E+20
  9
$PEXTMAX
 10
-1.000000000000000E+20
 20
-1.000000000000000E+20
 30
-1.000000000000000E+20
  9
$PLIMMIN
 10
0.0
 20
0.0
  9
$PLIMMAX
 10
420.0
 20
297.0
  9
$UNITMODE
 70
     0
  9
$VISRETAIN
 70
     1
  9
$PLINEGEN
 70
     0
  9
$PSLTSCALE
 70
     1
  9
$TREEDEPTH
 70
  3020
  9
$CMLSTYLE
  2
Standard
  9
$CMLJUST
 70
     0
  9
$CMLSCALE
 40
20.0
  9
$PROXYGRAPHICS
 70
     1
  9
$MEASUREMENT
 70
     1
  9
$CELWEIGHT
370
    -1
  9
$ENDCAPS
280
     0
  9
$JOINSTYLE
280
     0
  9
$LWDISPLAY
290
     0
  9
$INSUNITS
 70
     4
  9
$HYPERLINKBASE
  1

  9
$STYLESHEET
  1

  9
$XEDIT
290
     1
  9
$CEPSNTYPE
380
     0
  9
$PSTYLEMODE
290
     1
  9
$FINGERPRINTGUID
  2
{0758A2A0-B81E-4BD8-8AEC-2E72F914ADBF}
  9
$VERSIONGUID
  2
{FAEB1C32-E019-11D5-929B-00C0DF256EC4}
  9
$EXTNAMES
290
     1
  9
$PSVPSCALE
 40
0.0
  9
$OLESTARTUP
290
     0
  0
ENDSEC
  0
SECTION
  2
CLASSES
  0
CLASS
  1
ACDBDICTIONARYWDFLT
  2
AcDbDictionaryWithDefault
  3
ObjectDBX Classes
 90
        0
280
     0
281
     0
  0
CLASS
  1
VISUALSTYLE
  2
AcDbVisualStyle
  3
ObjectDBX Classes
 90
     4095
280
     0
281
     0
  0
CLASS
  1
DICTIONARYVAR
  2
AcDbDictionaryVar
  3
ObjectDBX Classes
 90
        0
280
     0
281
     0
  0
CLASS
  1
ACDBPLACEHOLDER
  2
AcDbPlaceHolder
  3
ObjectDBX Classes
 90
        0
280
     0
281
     0
  0
CLASS
  1
LAYOUT
  2
AcDbLayout
  3
ObjectDBX Classes
 90
        0
280
     0
281
     0
  0
ENDSEC
  0
SECTION
  2
TABLES
  0
TABLE
  2
VPORT
  5
8
330
0
100
AcDbSymbolTable
 70
     1
  0
VPORT
  5
29
330
8
100
AcDbSymbolTableRecord
100
AcDbViewportTableRecord
  2
*Active
 70
     0
 10
0.0
 20
0.0
 11
1.0
 21
1.0
 12
0.0
 22
0.0
 13
0.0
 23
0.0
 14
10.0
 24
10.0
 15
10.0
 25
10.0
 16
0.0
 26
0.0
 36
1.0
 17
0.0
 27
0.0
 37
0.0
 40
3267.0
 41
1.414141414141414
 42
50.0
 43
0.0
 44
0.0
 50
0.0
 51
0.0
 71
     0
 72
 10000
 73
     1
 74
     3
 75
     0
 76
     0
 77
     0
 78
     0
281
     0
 65
     1
110
0.0
120
0.0
130
0.0
111
1.0
121
0.0
131
0.0
112
0.0
122
1.0
132
0.0
 79
     0
146
0.0
  0
ENDTAB
  0
TABLE
  2
LTYPE
  5
5
330
0
100
AcDbSymbolTable
 70
     3
  0
LTYPE
  5
14
330
5
100
AcDbSymbolTableRecord
100
AcDbLinetypeTableRecord
  2
ByBlock
 70
     0
  3

 72
    65
 73
     0
 40
0.0
  0
LTYPE
  5
15
330
5
100
AcDbSymbolTableRecord
100
AcDbLinetypeTableRecord
  2
ByLayer
 70
     0
  3

 72
    65
 73
     0
 40
0.0
  0
LTYPE
  5
16
330
5
100
AcDbSymbolTableRecord
100
AcDbLinetypeTableRecord
  2
Continuous
 70
     0
  3
Solid line
 72
    65
 73
     0
 40
0.0
  0
LTYPE
  5
3C
330
5
100
AcDbSymbolTableRecord
100
AcDbLinetypeTableRecord
  2
JWW_DASHED1
 70
     0
  3
-  --  --  --  --  --  --  --  -
 72
    65
 73
     2
 40
1.693333333333333
 49
0.8466666666666667
 74
     0
 49
-0.8466666666666667
 74
     0
  0
LTYPE
  5
3D
330
5
100
AcDbSymbolTableRecord
100
AcDbLinetypeTableRecord
  2
JWW_CENTER1
 70
     0
  3
-----  --  ----------  --  -----
 72
    65
 73
     4
 40
6.773333333333333
 49
4.233333333333333
 74
     0
 49
-0.8466666666666667
 74
     0
 49
0.8466666666666667
 74
     0
 49
-0.8466666666666667
 74
     0
  0
ENDTAB
  0
TABLE
  2
LAYER
  5
2
330
0
100
AcDbSymbolTable
 70
     8
  0
LAYER
  5
10
330
2
100
AcDbSymbolTableRecord
100
AcDbLayerTableRecord
  2
0
 70
     0
 62
     7
  6
Continuous
370
    -3
390
F
  0
LAYER
  5
3E
330
2
100
AcDbSymbolTableRecord
100
AcDbLayerTableRecord
  2
F-4
 70
     0
 62
     7
  6
Continuous
370
    -3
390
F
  0
LAYER
  5
3F
330
2
100
AcDbSymbolTableRecord
100
AcDbLayerTableRecord
  2
0-0
 70
     0
 62
     7
  6
Continuous
370
    -3
390
F
  0
LAYER
  5
40
330
2
100
AcDbSymbolTableRecord
100
AcDbLayerTableRecord
  2
0-1
 70
     0
 62
     7
  6
Continuous
370
    -3
390
F
  0
LAYER
  5
41
330
2
100
AcDbSymbolTableRecord
100
AcDbLayerTableRecord
  2
0-2
 70
     0
 62
     7
  6
Continuous
370
    -3
390
F
  0
LAYER
  5
42
330
2
100
AcDbSymbolTableRecord
100
AcDbLayerTableRecord
  2
0-5
 70
     0
 62
     7
  6
Continuous
370
    -3
390
F
  0
LAYER
  5
43
330
2
100
AcDbSymbolTableRecord
100
AcDbLayerTableRecord
  2
0-4
 70
     0
 62
     7
  6
Continuous
370
    -3
390
F
  0
LAYER
  5
44
330
2
100
AcDbSymbolTableRecord
100
AcDbLayerTableRecord
  2
0-E
 70
     0
 62
     7
  6
Continuous
370
    -3
390
F
  0
ENDTAB
  0
TABLE
  2
STYLE
  5
3
330
0
100
AcDbSymbolTable
 70
     2
  0
STYLE
  5
11
330
3
100
AcDbSymbolTableRecord
100
AcDbTextStyleTableRecord
  2
Standard
 70
     0
 40
0.0
 41
1.0
 50
0.0
 71
     0
 42
2.5
  3
txt
  4

1001
ACAD
1000

1071
        0
  0
STYLE
  5
3B
330
3
100
AcDbSymbolTableRecord
100
AcDbTextStyleTableRecord
  2
ＭＳ ゴシック
 70
     0
 40
1.0
 41
1.0
 50
0.0
 71
     0
 42
10.0
  3

  4

1001
ACAD
1000
MS Gothic
1071
    32817
  0
ENDTAB
  0
TABLE
  2
VIEW
  5
6
330
0
100
AcDbSymbolTable
 70
     0
  0
ENDTAB
  0
TABLE
  2
UCS
  5
7
330
0
100
AcDbSymbolTable
 70
     0
  0
ENDTAB
  0
TABLE
  2
APPID
  5
9
330
0
100
AcDbSymbolTable
 70
     1
  0
APPID
  5
12
330
9
100
AcDbSymbolTableRecord
100
AcDbRegAppTableRecord
  2
ACAD
 70
     0
  0
ENDTAB
  0
TABLE
  2
DIMSTYLE
  5
A
330
0
100
AcDbSymbolTable
 70
     1
100
AcDbDimStyleTable
  0
DIMSTYLE
105
27
330
A
100
AcDbSymbolTableRecord
100
AcDbDimStyleTableRecord
  2
ISO-25
 70
     0
 41
2.5
 42
0.625
 43
3.75
 44
1.25
 73
     0
 74
     0
 77
     1
 78
     8
140
2.5
141
2.5
143
0.03937007874016
147
0.625
171
     3
172
     1
271
     2
272
     2
274
     3
278
    44
283
     0
284
     8
340
11
  0
ENDTAB
  0
TABLE
  2
BLOCK_RECORD
  5
1
330
0
100
AcDbSymbolTable
 70
     1
  0
BLOCK_RECORD
  5
1F
330
1
100
AcDbSymbolTableRecord
100
AcDbBlockTableRecord
  2
*Model_Space
340
22
  0
BLOCK_RECORD
  5
1B
330
1
100
AcDbSymbolTableRecord
100
AcDbBlockTableRecord
  2
*Paper_Space
340
1E
  0
BLOCK_RECORD
  5
23
330
1
100
AcDbSymbolTableRecord
100
AcDbBlockTableRecord
  2
*Paper_Space0
340
26
  0
ENDTAB
  0
ENDSEC
  0
SECTION
  2
BLOCKS
  0
BLOCK
  5
20
330
1F
100
AcDbEntity
  8
0
100
AcDbBlockBegin
  2
*Model_Space
 70
     0
 10
0.0
 20
0.0
 30
0.0
  3
*Model_Space
  1

  0
ENDBLK
  5
21
330
1F
100
AcDbEntity
  8
0
100
AcDbBlockEnd
  0
BLOCK
  5
1C
330
1B
100
AcDbEntity
 67
     1
  8
0
100
AcDbBlockBegin
  2
*Paper_Space
 70
     0
 10
0.0
 20
0.0
 30
0.0
  3
*Paper_Space
  1

  0
ENDBLK
  5
1D
330
1B
100
AcDbEntity
 67
     1
  8
0
100
AcDbBlockEnd
  0
BLOCK
  5
24
330
23
100
AcDbEntity
  8
0
100
AcDbBlockBegin
  2
*Paper_Space0
 70
     0
 10
0.0
 20
0.0
 30
0.0
  3
*Paper_Space0
  1

  0
ENDBLK
  5
25
330
23
100
AcDbEntity
  8
0
100
AcDbBlockEnd
  0
ENDSEC
  0
SECTION
  2
ENTITIES
  0
TEXT
  5
45
330
1F
100
AcDbEntity
  8
F-4
  6
Continuous
 62
     6
370
     0
100
AcDbText
 10
-117.727036705616
 20
-1109.952245209508
 30
0.0
 40
30.48
  1
鋳鉄製　たて引き用　シート防水用　　　ＡＬＣ＝１００
 41
0.7980769230769229
  7
ＭＳ ゴシック
100
AcDbText
  0
LINE
  5
46
330
1F
100
AcDbEntity
  8
0-0
  6
Continuous
 62
     3
370
     9
100
AcDbLine
 10
-478.0624653252309
 20
-9.117493369457286
 30
0.0
 11
-474.7292034745132
 21
17.54909631593126
 31
0.0
  0
LINE
  5
47
330
1F
100
AcDbEntity
  8
0-0
  6
Continuous
 62
     3
370
     9
100
AcDbLine
 10
-471.3956941839726
 20
17.54909631593126
 30
0.0
 11
-431.8769563910038
 21
6.960156546083063
 31
0.0
  0
LINE
  5
48
330
1F
100
AcDbEntity
  8
0-0
  6
Continuous
 62
     3
370
     9
100
AcDbLine
 10
-422.217648034796
 20
4.371688561497145
 30
0.0
 11
-412.5583396785882
 21
1.783715456556259
 31
0.0
  0
LINE
  5
49
330
1F
100
AcDbEntity
  8
0-0
  6
Continuous
 62
     3
370
     9
100
AcDbLine
 10
-395.2296340198046
 20
-2.859740255014849
 30
0.0
 11
-402.8990313223804
 21
-0.8045050882072857
 31
0.0
  0
LINE
  5
4A
330
1F
100
AcDbEntity
  8
0-0
  6
Continuous
 62
     3
370
     9
100
AcDbLine
 10
-391.4112663968103
 20
-12.32777762832551
 30
0.0
 11
-392.8267459021947
 21
-5.411092266205735
 31
0.0
  0
LINE
  5
4B
330
1F
100
AcDbEntity
  8
0-0
  6
Continuous
 62
     3
370
     9
100
AcDbLine
 10
-370.4500204218314
 20
-19.85192775501485
 30
0.0
 11
-389.0083782792007
 21
-14.8791296395164
 31
0.0
  0
LINE
  5
4C
330
1F
100
AcDbEntity
  8
0-0
  6
Continuous
 62
     3
370
     9
100
AcDbLine
 10
-362.4092159454801
 20
-13.56151258398437
 30
0.0
 11
-367.0932517879632
 21
-18.84385791759922
 31
0.0
  0
LINE
  5
4D
330
1F
100
AcDbEntity
  8
0-0
  6
JWW_DASHED1
 62
     3
370
     9
100
AcDbLine
 10
-359.2671013577478
 20
-30.11474183862976
 30
0.0
 11
-361.9009745497877
 21
-33.08476202971935
 31
0.0
  0
LINE
  5
4E
330
1F
100
AcDbEntity
  8
0-0
  6
Continuous
 62
     3
370
     9
100
AcDbLine
 10
-403.8242088192132
 20
-18.17552295666172
 30
0.0
 11
-403.0283186297075
 21
-22.06478208884096
 31
0.0
  0
LINE
  5
4F
330
1F
100
AcDbEntity
  8
0-0
  6
JWW_DASHED1
 62
     3
370
     9
100
AcDbLine
 10
-348.8694325707968
 20
-29.08539217646751
 30
0.0
 11
-352.5536878099228
 21
-28.09835472397612
 31
0.0
  0
LINE
  5
50
330
1F
100
AcDbEntity
  8
0-0
  6
JWW_DASHED1
 62
     3
370
     9
100
AcDbLine
 10
-341.5322232301085
 20
-37.5260594061972
 30
0.0
 11
-338.7813110019624
 21
-59.93000326705033
 31
0.0
  0
LINE
  5
51
330
1F
100
AcDbEntity
  8
0-0
  6
Continuous
 62
     3
370
     9
100
AcDbLine
 10
-359.0524473116119
 20
-12.55319530674608
 30
0.0
 11
-351.3830500090359
 21
-14.60818303373099
 31
0.0
  0
LINE
  5
52
330
1F
100
AcDbEntity
  8
0-0
  6
Continuous
 62
     3
370
     9
100
AcDbLine
 10
-336.7315195112531
 20
-18.53406325966017
 30
0.0
 11
-341.7236179329169
 21
-17.19665101831719
 31
0.0
  0
LINE
  5
53
330
1F
100
AcDbEntity
  8
0-0
  6
JWW_DASHED1
 62
     3
370
     9
100
AcDbLine
 10
-327.8390271653916
 20
-39.64068013043704
 30
0.0
 11
-329.3941864506533
 21
-26.97473048938992
 31
0.0
  0
LINE
  5
54
330
1F
100
AcDbEntity
  8
0-0
  6
JWW_DASHED1
 62
     3
370
     9
100
AcDbLine
 10
-280.8509471664473
 20
-51.03825324065685
 30
0.0
 11
-318.6111301399481
 21
-48.39782289331726
 31
0.0
  0
LINE
  5
55
330
1F
100
AcDbEntity
  8
0-0
  6
Continuous
 62
     3
370
     9
100
AcDbLine
 10
-259.2044166026803
 20
-72.6523691876584
 30
0.0
 11
-249.6953042188121
 21
-205.7841490387986
 31
0.0
  0
LINE
  5
56
330
1F
100
AcDbEntity
  8
0-0
  6
Continuous
 62
     3
370
     9
100
AcDbLine
 10
-272.3990214247876
 20
-75.07183577338469
 30
0.0
 11
-263.0624983172074
 21
-205.7841490387986
 31
0.0
  0
LINE
  5
57
330
1F
100
AcDbEntity
  8
0-0
  6
Continuous
 62
     3
370
     9
100
AcDbLine
 10
188.6042563280628
 20
-9.117493369457286
 30
0.0
 11
185.2709944773451
 21
17.54909631593126
 31
0.0
  0
LINE
  5
58
330
1F
100
AcDbEntity
  8
0-0
  6
Continuous
 62
     3
370
     9
100
AcDbLine
 10
181.9374851868045
 20
17.54909631593126
 30
0.0
 11
142.418871113747
 21
6.960156546083063
 31
0.0
  0
LINE
  5
59
330
1F
100
AcDbEntity
  8
0-0
  6
Continuous
 62
     3
370
     9
100
AcDbLine
 10
132.7593153177168
 20
4.371688561497145
 30
0.0
 11
123.1002544013316
 21
1.783715456556259
 31
0.0
  0
LINE
  5
5A
330
1F
100
AcDbEntity
  8
0-0
  6
JWW_DASHED1
 62
     3
370
     9
100
AcDbLine
 10
69.80889236057978
 20
-30.11474183862976
 30
0.0
 11
72.44288927253082
 21
-33.08476202971935
 31
0.0
  0
LINE
  5
5B
330
1F
100
AcDbEntity
  8
0-0
  6
Continuous
 62
     3
370
     9
100
AcDbLine
 10
114.3661235419566
 20
-18.17552295666172
 30
0.0
 11
113.5701096325394
 21
-22.06478208884096
 31
0.0
  0
LINE
  5
5C
330
1F
100
AcDbEntity
  8
0-0
  6
JWW_DASHED1
 62
     3
370
     9
100
AcDbLine
 10
59.41122357362873
 20
-29.08539217646751
 30
0.0
 11
63.09560253266598
 21
-28.09835472397612
 31
0.0
  0
LINE
  5
5D
330
1F
100
AcDbEntity
  8
0-0
  6
JWW_DASHED1
 62
     3
370
     9
100
AcDbLine
 10
52.07413795285193
 20
-37.5260594061972
 30
0.0
 11
49.32310200479436
 21
-59.93000326705033
 31
0.0
  0
LINE
  5
5E
330
1F
100
AcDbEntity
  8
0-0
  6
Continuous
 62
     3
370
     9
100
AcDbLine
 10
-397.9944028780181
 20
-26.27521811080033
 30
0.0
 11
-399.4238627333814
 21
-25.89193382553862
 31
0.0
  0
LINE
  5
5F
330
1F
100
AcDbEntity
  8
0-0
  6
Continuous
 62
     3
370
     9
100
AcDbLine
 10
-338.5984529730351
 20
-68.46370787009096
 30
0.0
 11
-340.5920756240064
 21
-78.43157368512453
 31
0.0
  0
LINE
  5
60
330
1F
100
AcDbEntity
  8
0-0
  6
Continuous
 62
     3
370
     9
100
AcDbLine
 10
-335.3297729160249
 20
-65.78418203077507
 30
0.0
 11
-282.3735681150324
 21
-65.78418203077507
 31
0.0
  0
LINE
  5
61
330
1F
100
AcDbEntity
  8
0-0
  6
JWW_DASHED1
 62
     3
370
     9
100
AcDbLine
 10
-366.9360037806786
 20
-34.59711422566517
 30
0.0
 11
-397.9944028780181
 21
-26.27521811080033
 31
0.0
  0
LINE
  5
62
330
1F
100
AcDbEntity
  8
0-0
  6
Continuous
 62
     3
370
     9
100
AcDbLine
 10
-316.3955539680731
 20
-32.45106864395058
 30
0.0
 11
-321.4451821484997
 21
-32.45106864395058
 31
0.0
  0
LINE
  5
63
330
1F
100
AcDbEntity
  8
0-0
  6
Continuous
 62
     3
370
     9
100
AcDbLine
 10
-267.3192055859996
 20
-31.5610276019321
 30
0.0
 11
-261.3958673918483
 21
-64.31661644272612
 31
0.0
  0
LINE
  5
64
330
1F
100
AcDbEntity
  8
0-0
  6
Continuous
 62
     3
370
     9
100
AcDbLine
 10
-263.0624983172074
 20
-205.7841490387986
 30
0.0
 11
-26.39571067996055
 21
-205.7841490387986
 31
0.0
  0
LINE
  5
65
330
1F
100
AcDbEntity
  8
0-0
  6
Continuous
 62
     3
370
     9
100
AcDbLine
 10
-17.05906385246916
 20
-75.07183577338469
 30
0.0
 11
-26.39571067996055
 21
-205.7841490387986
 31
0.0
  0
LINE
  5
66
330
1F
100
AcDbEntity
  8
0-0
  6
Continuous
 62
     3
370
     9
100
AcDbLine
 10
-8.60726183072071
 20
-51.03825324065685
 30
0.0
 11
29.15304486269124
 21
-48.39782289331726
 31
0.0
  0
LINE
  5
67
330
1F
100
AcDbEntity
  8
0-0
  6
Continuous
 62
     3
370
     9
100
AcDbLine
 10
38.38081816822354
 20
-39.6409275702597
 30
0.0
 11
39.93622489330791
 21
-26.97448304956726
 31
0.0
  0
LINE
  5
68
330
1F
100
AcDbEntity
  8
0-0
  6
Continuous
 62
     3
370
     9
100
AcDbLine
 10
47.273310514085
 20
-18.53406325966017
 30
0.0
 11
52.26540893574879
 21
-17.19665101831719
 31
0.0
  0
LINE
  5
69
330
1F
100
AcDbEntity
  8
0-0
  6
Continuous
 62
     3
370
     9
100
AcDbLine
 10
69.59411459453266
 20
-12.55319530674608
 30
0.0
 11
61.92471729195661
 21
-14.60818303373099
 31
0.0
  0
LINE
  5
6A
330
1F
100
AcDbEntity
  8
0-0
  6
Continuous
 62
     3
370
     9
100
AcDbLine
 10
72.95113066822354
 20
-13.56151258398437
 30
0.0
 11
77.63516651070661
 21
-18.84385791759922
 31
0.0
  0
LINE
  5
6B
330
1F
100
AcDbEntity
  8
0-0
  6
Continuous
 62
     3
370
     9
100
AcDbLine
 10
80.99193514457484
 20
-19.85192775501485
 30
0.0
 11
99.55016928203266
 21
-14.8791296395164
 31
0.0
  0
LINE
  5
6C
330
1F
100
AcDbEntity
  8
0-0
  6
Continuous
 62
     3
370
     9
100
AcDbLine
 10
101.9530573996423
 20
-12.32777762832551
 30
0.0
 11
103.3686606249378
 21
-5.411092266205735
 31
0.0
  0
LINE
  5
6D
330
1F
100
AcDbEntity
  8
0-0
  6
Continuous
 62
     3
370
     9
100
AcDbLine
 10
105.7713013027251
 20
-2.859740255014849
 30
0.0
 11
113.4406986053011
 21
-0.8045050882072857
 31
0.0
  0
LINE
  5
6E
330
1F
100
AcDbEntity
  8
0-0
  6
Continuous
 62
     3
370
     9
100
AcDbLine
 10
-388.5930505369075
 20
-78.04927915915346
 30
0.0
 11
-394.3243754286939
 21
-30.50619163803862
 31
0.0
  0
LINE
  5
6F
330
1F
100
AcDbEntity
  8
0-0
  6
Continuous
 62
     3
370
     9
100
AcDbLine
 10
-30.25354495466498
 20
-72.65212174783574
 30
0.0
 11
-39.76290477835587
 21
-205.7841490387986
 31
0.0
  0
LINE
  5
70
330
1F
100
AcDbEntity
  8
0-1
  6
Continuous
 62
     2
370
     9
100
AcDbLine
 10
-444.729104498584
 20
10.40377655769635
 30
0.0
 11
-443.0624735732252
 21
17.07054769895496
 31
0.0
  0
LINE
  5
71
330
1F
100
AcDbEntity
  8
0-1
  6
Continuous
 62
     2
370
     9
100
AcDbLine
 10
-424.532571295459
 20
17.07054769895496
 30
0.0
 11
-443.0624735732252
 21
17.07054769895496
 31
0.0
  0
LINE
  5
72
330
1F
100
AcDbEntity
  8
0-1
  6
Continuous
 62
     2
370
     9
100
AcDbLine
 10
-379.7290137706491
 20
30.40384254164895
 30
0.0
 11
-389.7290467626254
 21
30.40384254164895
 31
0.0
  0
LINE
  5
73
330
1F
100
AcDbEntity
  8
0-1
  6
Continuous
 62
     2
370
     9
100
AcDbLine
 10
-391.3726657844794
 20
19.67311975343126
 30
0.0
 11
-389.7290467626254
 21
30.40384254164895
 31
0.0
  0
LINE
  5
74
330
1F
100
AcDbEntity
  8
0-1
  6
Continuous
 62
     2
370
     9
100
AcDbLine
 10
-379.7290137706491
 20
30.40384254164895
 30
0.0
 11
-375.5021230004843
 21
7.850939907569803
 31
0.0
  0
LINE
  5
75
330
1F
100
AcDbEntity
  8
0-1
  6
Continuous
 62
     2
370
     9
100
AcDbLine
 10
155.270895501416
 20
10.40377655769635
 30
0.0
 11
153.6041408561457
 21
17.07054769895496
 31
0.0
  0
LINE
  5
76
330
1F
100
AcDbEntity
  8
0-1
  6
Continuous
 62
     2
370
     9
100
AcDbLine
 10
135.074362298291
 20
17.07054769895496
 30
0.0
 11
153.6041408561457
 21
17.07054769895496
 31
0.0
  0
LINE
  5
77
330
1F
100
AcDbEntity
  8
0-1
  6
Continuous
 62
     2
370
     9
100
AcDbLine
 10
101.9144567873113
 20
19.67311975343126
 30
0.0
 11
100.2709614853686
 21
30.40384254164895
 31
0.0
  0
LINE
  5
78
330
1F
100
AcDbEntity
  8
0-1
  6
Continuous
 62
     2
370
     9
100
AcDbLine
 10
-308.0625230611894
 20
-7.929534780985925
 30
0.0
 11
-304.7291374905603
 21
-24.59609147439824
 31
0.0
  0
LINE
  5
79
330
1F
100
AcDbEntity
  8
0-1
  6
Continuous
 62
     2
370
     9
100
AcDbLine
 10
-268.0623910932842
 20
-7.929534780985925
 30
0.0
 11
-271.3957766639134
 21
-24.59609147439824
 31
0.0
  0
LINE
  5
7A
330
1F
100
AcDbEntity
  8
0-1
  6
Continuous
 62
     2
370
     9
100
AcDbLine
 10
-247.2585168455012
 20
-11.94894725987108
 30
0.0
 11
-244.7290632586137
 21
-24.59609147439824
 31
0.0
  0
LINE
  5
7B
330
1F
100
AcDbEntity
  8
0-1
  6
Continuous
 62
     2
370
     9
100
AcDbLine
 10
-252.1614132111051
 20
-7.929534780985925
 30
0.0
 11
-331.2306848142512
 21
-7.929534780985925
 31
0.0
  0
LINE
  5
7C
330
1F
100
AcDbEntity
  8
0-1
  6
Continuous
 62
     2
370
     9
100
AcDbLine
 10
-331.2306848142512
 20
-7.929534780985925
 30
0.0
 11
-370.674943220607
 21
2.639609803051037
 31
0.0
  0
LINE
  5
7D
330
1F
100
AcDbEntity
  8
0-1
  6
Continuous
 62
     2
370
     9
100
AcDbLine
 10
-403.8454886439598
 20
11.5271533524599
 30
0.0
 11
-424.532571295459
 21
17.07054769895496
 31
0.0
  0
LINE
  5
7E
330
1F
100
AcDbEntity
  8
0-1
  6
JWW_DASHED1
 62
     2
370
     9
100
AcDbLine
 10
-370.674943220607
 20
2.639609803051037
 30
0.0
 11
-403.8454886439598
 21
11.5271533524599
 31
0.0
  0
LINE
  5
7F
330
1F
100
AcDbEntity
  8
0-1
  6
Continuous
 62
     2
370
     9
100
AcDbLine
 10
42.87061374993785
 20
6.279697033836449
 30
0.0
 11
41.01357788106129
 21
-4.157562124735925
 31
0.0
  0
LINE
  5
80
330
1F
100
AcDbEntity
  8
0-1
  6
JWW_DASHED1
 62
     2
370
     9
100
AcDbLine
 10
87.28705167223525
 20
14.48282203383645
 30
0.0
 11
86.04391400331623
 21
7.850939907569803
 31
0.0
  0
LINE
  5
81
330
1F
100
AcDbEntity
  8
0-1
  6
Continuous
 62
     2
370
     9
100
AcDbLine
 10
23.11204903287718
 20
-12.92955127697422
 30
0.0
 11
36.17538702907639
 21
-9.429267545977602
 31
0.0
  0
LINE
  5
82
330
1F
100
AcDbEntity
  8
0-1
  6
JWW_DASHED1
 62
     2
370
     9
100
AcDbLine
 10
36.17538702907639
 20
-9.429267545977602
 30
0.0
 11
114.3874033667032
 21
11.52764823210521
 31
0.0
  0
LINE
  5
83
330
1F
100
AcDbEntity
  8
0-1
  6
Continuous
 62
     2
370
     9
100
AcDbLine
 10
114.3874033667032
 20
11.52764823210521
 30
0.0
 11
135.074362298291
 21
17.07054769895496
 31
0.0
  0
LINE
  5
84
330
1F
100
AcDbEntity
  8
0-1
  6
Continuous
 62
     2
370
     9
100
AcDbLine
 10
90.27092849339228
 20
30.40384254164895
 30
0.0
 11
87.28705167223525
 21
14.48282203383645
 31
0.0
  0
LINE
  5
85
330
1F
100
AcDbEntity
  8
0-1
  6
Continuous
 62
     2
370
     9
100
AcDbLine
 10
90.27092849339228
 20
30.40384254164895
 30
0.0
 11
100.2709614853686
 21
30.40384254164895
 31
0.0
  0
LINE
  5
86
330
1F
100
AcDbEntity
  8
0-1
  6
Continuous
 62
     4
370
     9
100
AcDbLine
 10
-274.7291622345426
 20
-45.1963227481524
 30
0.0
 11
-301.3957519199311
 21
-45.1963227481524
 31
0.0
  0
LINE
  5
87
330
1F
100
AcDbEntity
  8
0-1
  6
Continuous
 62
     4
370
     9
100
AcDbLine
 10
-301.3957519199311
 20
-45.1963227481524
 30
0.0
 11
-299.1408328162572
 21
-47.45099441200399
 31
0.0
  0
LINE
  5
88
330
1F
100
AcDbEntity
  8
0-1
  6
Continuous
 62
     4
370
     9
100
AcDbLine
 10
-299.1408328162572
 20
-47.45099441200399
 30
0.0
 11
-276.9840813382165
 21
-47.45099441200399
 31
0.0
  0
LINE
  5
89
330
1F
100
AcDbEntity
  8
0-1
  6
Continuous
 62
     4
370
     9
100
AcDbLine
 10
-276.9840813382165
 20
-47.45099441200399
 30
0.0
 11
-274.7291622345426
 21
-45.1963227481524
 31
0.0
  0
LINE
  5
8A
330
1F
100
AcDbEntity
  8
0-1
  6
Continuous
 62
     4
370
     9
100
AcDbLine
 10
-313.0625395571778
 20
11.33142845275547
 30
0.0
 11
-313.0625395571778
 21
-7.929534780985925
 31
0.0
  0
LINE
  5
8B
330
1F
100
AcDbEntity
  8
0-1
  6
Continuous
 62
     4
370
     9
100
AcDbLine
 10
-263.062374597296
 20
11.33142845275547
 30
0.0
 11
-263.062374597296
 21
-7.929534780985925
 31
0.0
  0
LINE
  5
8C
330
1F
100
AcDbEntity
  8
0-1
  6
Continuous
 62
     4
370
     9
100
AcDbLine
 10
-300.5532193238585
 20
11.33142845275547
 30
0.0
 11
-300.5532193238585
 21
-7.929534780985925
 31
0.0
  0
LINE
  5
8D
330
1F
100
AcDbEntity
  8
0-1
  6
Continuous
 62
     4
370
     9
100
AcDbLine
 10
-275.5716948306152
 20
11.33142845275547
 30
0.0
 11
-275.5716948306152
 21
-7.929534780985925
 31
0.0
  0
LINE
  5
8E
330
1F
100
AcDbEntity
  8
0-1
  6
Continuous
 62
     4
370
     9
100
AcDbLine
 10
-306.8077557206069
 20
13.73728584823699
 30
0.0
 11
-269.3171584338671
 21
13.73728584823699
 31
0.0
  0
LINE
  5
8F
330
1F
100
AcDbEntity
  8
0-1
  6
Continuous
 62
     4
370
     9
100
AcDbLine
 10
-301.3957519199311
 20
83.62715863117603
 30
0.0
 11
-299.1408328162572
 21
85.88232517467264
 31
0.0
  0
LINE
  5
90
330
1F
100
AcDbEntity
  8
0-1
  6
Continuous
 62
     4
370
     9
100
AcDbLine
 10
-276.9840813382165
 20
85.88232517467264
 30
0.0
 11
-274.7291622345426
 21
83.62715863117603
 31
0.0
  0
LINE
  5
91
330
1F
100
AcDbEntity
  8
0-1
  6
Continuous
 62
     2
370
     9
100
AcDbLine
 10
-301.3957519199311
 20
-24.59609147439824
 30
0.0
 11
-314.1062407290528
 21
-24.59609147439824
 31
0.0
  0
LINE
  5
92
330
1F
100
AcDbEntity
  8
0-1
  6
Continuous
 62
     2
370
     9
100
AcDbLine
 10
-323.3565310584447
 20
1024.135903154508
 30
0.0
 11
-330.4482800950791
 21
1031.227528471231
 31
0.0
  0
LINE
  5
93
330
1F
100
AcDbEntity
  8
0-1
  6
Continuous
 62
     2
370
     9
100
AcDbLine
 10
-316.5182841201002
 20
1024.368744027608
 30
0.0
 11
-329.5021939332335
 21
1037.352653840741
 31
0.0
  0
LINE
  5
94
330
1F
100
AcDbEntity
  8
0-1
  6
Continuous
 62
     2
370
     9
100
AcDbLine
 10
-366.2848658874142
 20
949.7817210915855
 30
0.0
 11
-375.9723823834025
 21
952.3773648310282
 31
0.0
  0
LINE
  5
95
330
1F
100
AcDbEntity
  8
0-1
  6
Continuous
 62
     2
370
     9
100
AcDbLine
 10
-363.067529593601
 20
943.7431996599979
 30
0.0
 11
-380.8037686402648
 21
948.4955288935282
 31
0.0
  0
LINE
  5
96
330
1F
100
AcDbEntity
  8
0-1
  6
Continuous
 62
     2
370
     9
100
AcDbLine
 10
-380.8037686402648
 20
948.4955288935282
 30
0.0
 11
-375.9723823834025
 21
952.3773648310282
 31
0.0
  0
LINE
  5
97
330
1F
100
AcDbEntity
  8
0-1
  6
Continuous
 62
     2
370
     9
100
AcDbLine
 10
-366.2848658874142
 20
949.7817210915855
 30
0.0
 11
-363.067529593601
 21
943.7431996599979
 31
0.0
  0
LINE
  5
98
330
1F
100
AcDbEntity
  8
0-1
  6
Continuous
 62
     2
370
     9
100
AcDbLine
 10
-323.3565310584447
 20
1024.135903154508
 30
0.0
 11
-316.5182841201002
 21
1024.368744027608
 31
0.0
  0
LINE
  5
99
330
1F
100
AcDbEntity
  8
0-1
  6
Continuous
 62
     2
370
     9
100
AcDbLine
 10
-329.5021939332335
 20
1037.352653840741
 30
0.0
 11
-330.4482800950791
 21
1031.227528471231
 31
0.0
  0
LINE
  5
9A
330
1F
100
AcDbEntity
  8
0-1
  6
Continuous
 62
     2
370
     9
100
AcDbLine
 10
-223.0751095001676
 20
1092.991477478832
 30
0.0
 11
-225.6707532396103
 21
1102.678993974821
 31
0.0
  0
LINE
  5
9B
330
1F
100
AcDbEntity
  8
0-1
  6
Continuous
 62
     2
370
     9
100
AcDbLine
 10
-217.0364643486684
 20
1089.77426490493
 30
0.0
 11
-221.7889173021103
 21
1107.510751391417
 31
0.0
  0
LINE
  5
9C
330
1F
100
AcDbEntity
  8
0-1
  6
Continuous
 62
     2
370
     9
100
AcDbLine
 10
-297.4291678431785
 20
1050.063142649863
 30
0.0
 11
-304.5209168798129
 21
1057.154767966585
 31
0.0
  0
LINE
  5
9D
330
1F
100
AcDbEntity
  8
0-1
  6
Continuous
 62
     2
370
     9
100
AcDbLine
 10
-297.6621324361894
 20
1043.224895711518
 30
0.0
 11
-310.6459185294116
 21
1056.208558084829
 31
0.0
  0
LINE
  5
9E
330
1F
100
AcDbEntity
  8
0-1
  6
Continuous
 62
     2
370
     9
100
AcDbLine
 10
-310.6459185294116
 20
1056.208558084829
 30
0.0
 11
-304.5209168798129
 21
1057.154767966585
 31
0.0
  0
LINE
  5
9F
330
1F
100
AcDbEntity
  8
0-1
  6
Continuous
 62
     2
370
     9
100
AcDbLine
 10
-297.4291678431785
 20
1050.063142649863
 30
0.0
 11
-297.6621324361894
 21
1043.224895711518
 31
0.0
  0
LINE
  5
A0
330
1F
100
AcDbEntity
  8
0-1
  6
Continuous
 62
     2
370
     9
100
AcDbLine
 10
-221.7889173021103
 20
1107.510751391417
 30
0.0
 11
-225.6707532396103
 21
1102.678993974821
 31
0.0
  0
LINE
  5
A1
330
1F
100
AcDbEntity
  8
0-1
  6
Continuous
 62
     2
370
     9
100
AcDbLine
 10
-101.8007696696145
 20
1102.481536996358
 30
0.0
 11
-99.20512593017176
 21
1112.169300932168
 31
0.0
  0
LINE
  5
A2
330
1F
100
AcDbEntity
  8
0-1
  6
Continuous
 62
     2
370
     9
100
AcDbLine
 10
-98.17973530517176
 20
1096.675856437869
 30
0.0
 11
-93.42740607164157
 21
1114.412342924356
 31
0.0
  0
LINE
  5
A3
330
1F
100
AcDbEntity
  8
0-1
  6
Continuous
 62
     2
370
     9
100
AcDbLine
 10
-187.657563047465
 20
1102.481536996358
 30
0.0
 11
-190.2533305068189
 21
1112.169053492346
 31
0.0
  0
LINE
  5
A4
330
1F
100
AcDbEntity
  8
0-1
  6
Continuous
 62
     2
370
     9
100
AcDbLine
 10
-191.2784736919963
 20
1096.675856437869
 30
0.0
 11
-196.0308029255264
 21
1114.412342924356
 31
0.0
  0
LINE
  5
A5
330
1F
100
AcDbEntity
  8
0-1
  6
Continuous
 62
     2
370
     9
100
AcDbLine
 10
-196.0308029255264
 20
1114.412342924356
 30
0.0
 11
-190.2533305068189
 21
1112.169053492346
 31
0.0
  0
LINE
  5
A6
330
1F
100
AcDbEntity
  8
0-1
  6
Continuous
 62
     2
370
     9
100
AcDbLine
 10
-187.657563047465
 20
1102.481536996358
 30
0.0
 11
-191.2784736919963
 21
1096.675856437869
 31
0.0
  0
LINE
  5
A7
330
1F
100
AcDbEntity
  8
0-1
  6
Continuous
 62
     2
370
     9
100
AcDbLine
 10
-101.8007696696145
 20
1102.481536996358
 30
0.0
 11
-98.17973530517176
 21
1096.675856437869
 31
0.0
  0
LINE
  5
A8
330
1F
100
AcDbEntity
  8
0-1
  6
Continuous
 62
     2
370
     9
100
AcDbLine
 10
-93.42740607164157
 20
1114.412342924356
 30
0.0
 11
-99.20512593017176
 21
1112.169300932168
 31
0.0
  0
LINE
  5
A9
330
1F
100
AcDbEntity
  8
0-1
  6
Continuous
 62
     2
370
     9
100
AcDbLine
 10
7.970711406187867
 20
1050.063142649863
 30
0.0
 11
15.06258416273342
 21
1057.155015406408
 31
0.0
  0
LINE
  5
AA
330
1F
100
AcDbEntity
  8
0-1
  6
Continuous
 62
     2
370
     9
100
AcDbLine
 10
8.203799719110272
 20
1043.224895711518
 30
0.0
 11
21.18770953224358
 21
1056.209052964474
 31
0.0
  0
LINE
  5
AB
330
1F
100
AcDbEntity
  8
0-1
  6
Continuous
 62
     2
370
     9
100
AcDbLine
 10
-66.3832232169116
 20
1092.991477478832
 30
0.0
 11
-63.78757947746916
 21
1102.679241414643
 31
0.0
  0
LINE
  5
AC
330
1F
100
AcDbEntity
  8
0-1
  6
Continuous
 62
     2
370
     9
100
AcDbLine
 10
-72.42174464849964
 20
1089.77426490493
 30
0.0
 11
-67.66941541496917
 21
1107.510751391417
 31
0.0
  0
LINE
  5
AD
330
1F
100
AcDbEntity
  8
0-1
  6
Continuous
 62
     2
370
     9
100
AcDbLine
 10
-67.66941541496917
 20
1107.510751391417
 30
0.0
 11
-63.78757947746916
 21
1102.679241414643
 31
0.0
  0
LINE
  5
AE
330
1F
100
AcDbEntity
  8
0-1
  6
Continuous
 62
     2
370
     9
100
AcDbLine
 10
-66.3832232169116
 20
1092.991477478832
 30
0.0
 11
-72.42174464849964
 21
1089.77426490493
 31
0.0
  0
LINE
  5
AF
330
1F
100
AcDbEntity
  8
0-1
  6
Continuous
 62
     2
370
     9
100
AcDbLine
 10
7.970711406187867
 20
1050.063142649863
 30
0.0
 11
8.203799719110272
 21
1043.224895711518
 31
0.0
  0
LINE
  5
B0
330
1F
100
AcDbEntity
  8
0-1
  6
Continuous
 62
     2
370
     9
100
AcDbLine
 10
21.18770953224358
 20
1056.209052964474
 30
0.0
 11
15.06258416273342
 21
1057.155015406408
 31
0.0
  0
LINE
  5
B1
330
1F
100
AcDbEntity
  8
0-1
  6
Continuous
 62
     2
370
     9
100
AcDbLine
 10
76.826533170335
 20
949.7817210915855
 30
0.0
 11
86.514049666323
 21
952.3773648310282
 31
0.0
  0
LINE
  5
B2
330
1F
100
AcDbEntity
  8
0-1
  6
Continuous
 62
     2
370
     9
100
AcDbLine
 10
73.60932059643291
 20
943.7431996599979
 30
0.0
 11
91.3455596430967
 21
948.4955288935282
 31
0.0
  0
LINE
  5
B3
330
1F
100
AcDbEntity
  8
0-1
  6
Continuous
 62
     2
370
     9
100
AcDbLine
 10
33.89819834136519
 20
1024.135903154508
 30
0.0
 11
40.98982365808838
 21
1031.227528471231
 31
0.0
  0
LINE
  5
B4
330
1F
100
AcDbEntity
  8
0-1
  6
Continuous
 62
     2
370
     9
100
AcDbLine
 10
27.05995140302067
 20
1024.368744027608
 30
0.0
 11
40.04386121615427
 21
1037.352653840741
 31
0.0
  0
LINE
  5
B5
330
1F
100
AcDbEntity
  8
0-1
  6
Continuous
 62
     2
370
     9
100
AcDbLine
 10
40.04386121615427
 20
1037.352653840741
 30
0.0
 11
40.98982365808838
 21
1031.227528471231
 31
0.0
  0
LINE
  5
B6
330
1F
100
AcDbEntity
  8
0-1
  6
Continuous
 62
     2
370
     9
100
AcDbLine
 10
33.89819834136519
 20
1024.135903154508
 30
0.0
 11
27.05995140302067
 21
1024.368744027608
 31
0.0
  0
LINE
  5
B7
330
1F
100
AcDbEntity
  8
0-1
  6
Continuous
 62
     2
370
     9
100
AcDbLine
 10
76.826533170335
 20
949.7817210915855
 30
0.0
 11
73.60932059643291
 21
943.7431996599979
 31
0.0
  0
LINE
  5
B8
330
1F
100
AcDbEntity
  8
0-1
  6
Continuous
 62
     2
370
     9
100
AcDbLine
 10
91.3455596430967
 20
948.4955288935282
 30
0.0
 11
86.514049666323
 21
952.3773648310282
 31
0.0
  0
LINE
  5
B9
330
1F
100
AcDbEntity
  8
0-1
  6
Continuous
 62
     2
370
     9
100
AcDbLine
 10
86.31659268786025
 20
914.3641746388829
 30
0.0
 11
96.00435662367092
 21
916.960065818148
 31
0.0
  0
LINE
  5
BA
330
1F
100
AcDbEntity
  8
0-1
  6
Continuous
 62
     2
370
     9
100
AcDbLine
 10
80.51115956919462
 20
917.9852090033255
 30
0.0
 11
98.24739861585842
 21
922.7375382368558
 31
0.0
  0
LINE
  5
BB
330
1F
100
AcDbEntity
  8
0-1
  6
Continuous
 62
     2
370
     9
100
AcDbLine
 10
98.24739861585842
 20
922.7375382368558
 30
0.0
 11
96.00435662367092
 21
916.960065818148
 31
0.0
  0
LINE
  5
BC
330
1F
100
AcDbEntity
  8
0-1
  6
Continuous
 62
     2
370
     9
100
AcDbLine
 10
86.31659268786025
 20
914.3641746388829
 30
0.0
 11
80.51115956919462
 21
917.9852090033255
 31
0.0
  0
LINE
  5
BD
330
1F
100
AcDbEntity
  8
0-1
  6
Continuous
 62
     2
370
     9
100
AcDbLine
 10
86.93741920285193
 20
-9.631178441247918
 30
0.0
 11
93.60419034411025
 21
-7.844910361644786
 31
0.0
  0
LINE
  5
BE
330
1F
100
AcDbEntity
  8
0-1
  6
Continuous
 62
     2
370
     9
100
AcDbLine
 10
86.93741920285193
 20
-9.631178441247918
 30
0.0
 11
83.6039099123113
 21
-8.799038317726051
 31
0.0
  0
LINE
  5
BF
330
1F
100
AcDbEntity
  8
0-1
  6
Continuous
 62
     2
370
     9
100
AcDbLine
 10
24.64790801197354
 20
-24.59609147439824
 30
0.0
 11
83.6039099123113
 21
-8.799038317726051
 31
0.0
  0
LINE
  5
C0
330
1F
100
AcDbEntity
  8
0-1
  6
Continuous
 62
     2
370
     9
100
AcDbLine
 10
93.60419034411025
 20
-7.844910361644786
 30
0.0
 11
96.93794707447354
 21
-5.226254718697128
 31
0.0
  0
LINE
  5
C1
330
1F
100
AcDbEntity
  8
0-1
  6
Continuous
 62
     2
370
     9
100
AcDbLine
 10
96.93794707447354
 20
-5.226254718697128
 30
0.0
 11
155.270895501416
 21
10.40377655769635
 31
0.0
  0
LINE
  5
C2
330
1F
100
AcDbEntity
  8
0-1
  6
Continuous
 62
     2
370
     9
100
AcDbLine
 10
-376.39562820002
 20
-9.631178441247918
 30
0.0
 11
-383.0623993412783
 21
-7.844910361644786
 31
0.0
  0
LINE
  5
C3
330
1F
100
AcDbEntity
  8
0-1
  6
Continuous
 62
     2
370
     9
100
AcDbLine
 10
-383.0623993412783
 20
-7.844910361644786
 30
0.0
 11
-386.3959086318189
 21
-5.226254718697128
 31
0.0
  0
LINE
  5
C4
330
1F
100
AcDbEntity
  8
0-1
  6
Continuous
 62
     2
370
     9
100
AcDbLine
 10
-386.3959086318189
 20
-5.226254718697128
 30
0.0
 11
-444.729104498584
 21
10.40377655769635
 31
0.0
  0
LINE
  5
C5
330
1F
100
AcDbEntity
  8
0-1
  6
Continuous
 62
     2
370
     9
100
AcDbLine
 10
-376.39562820002
 20
-9.631178441247918
 30
0.0
 11
-373.0624900692132
 21
-8.799038317726051
 31
0.0
  0
LINE
  5
C6
330
1F
100
AcDbEntity
  8
0-1
  6
Continuous
 62
     2
370
     9
100
AcDbLine
 10
-314.1062407290528
 20
-24.59609147439824
 30
0.0
 11
-373.0624900692132
 21
-8.799038317726051
 31
0.0
  0
LINE
  5
C7
330
1F
100
AcDbEntity
  8
0-1
  6
Continuous
 62
     2
370
     9
100
AcDbLine
 10
-375.7748016850283
 20
914.3641746388829
 30
0.0
 11
-385.4623181810166
 21
916.960065818148
 31
0.0
  0
LINE
  5
C8
330
1F
100
AcDbEntity
  8
0-1
  6
Continuous
 62
     2
370
     9
100
AcDbLine
 10
-369.9693685663627
 20
917.9852090033255
 30
0.0
 11
-387.7056076130268
 21
922.7375382368558
 31
0.0
  0
LINE
  5
C9
330
1F
100
AcDbEntity
  8
0-1
  6
Continuous
 62
     2
370
     9
100
AcDbLine
 10
-387.7056076130268
 20
922.7375382368558
 30
0.0
 11
-385.4623181810166
 21
916.960065818148
 31
0.0
  0
LINE
  5
CA
330
1F
100
AcDbEntity
  8
0-1
  6
Continuous
 62
     2
370
     9
100
AcDbLine
 10
-375.7748016850283
 20
914.3641746388829
 30
0.0
 11
-369.9693685663627
 21
917.9852090033255
 31
0.0
  0
LINE
  5
CB
330
1F
100
AcDbEntity
  8
0-1
  6
Continuous
 62
     2
370
     9
100
AcDbLine
 10
-274.7291622345426
 20
-24.59609147439824
 30
0.0
 11
24.64790801197354
 21
-24.59609147439824
 31
0.0
  0
LINE
  5
CC
330
1F
100
AcDbEntity
  8
0-1
  6
Continuous
 62
     2
370
     9
100
AcDbLine
 10
1.247029105723563
 20
-15.34703834411953
 30
0.0
 11
-1.395628200019949
 21
-24.59609147439824
 31
0.0
  0
LINE
  5
CD
330
1F
100
AcDbEntity
  8
0-1
  6
Continuous
 62
     2
370
     9
100
AcDbLine
 10
-247.0624207860629
 20
-12.92955127697422
 30
0.0
 11
23.11204903287718
 21
-12.92955127697422
 31
0.0
  0
LINE
  5
CE
330
1F
100
AcDbEntity
  8
0-2
  6
Continuous
 62
     6
370
     9
100
AcDbLine
 10
49.43741920285193
 20
33.96969782564401
 30
0.0
 11
84.43728723494645
 21
33.96969782564401
 31
0.0
  0
LINE
  5
CF
330
1F
100
AcDbEntity
  8
0-2
  6
Continuous
 62
     6
370
     9
100
AcDbLine
 10
65.27059857362873
 20
37.30295967636199
 30
0.0
 11
68.60410786416936
 21
37.30295967636199
 31
0.0
  0
LINE
  5
D0
330
1F
100
AcDbEntity
  8
0-2
  6
Continuous
 62
     6
370
     9
100
AcDbLine
 10
68.60410786416936
 20
46.90956335034844
 30
0.0
 11
68.60410786416936
 21
37.30295967636199
 31
0.0
  0
LINE
  5
D1
330
1F
100
AcDbEntity
  8
0-2
  6
Continuous
 62
     6
370
     9
100
AcDbLine
 10
65.27059857362873
 20
46.90956335034844
 30
0.0
 11
65.27059857362873
 21
37.30295967636199
 31
0.0
  0
LINE
  5
D2
330
1F
100
AcDbEntity
  8
0-2
  6
Continuous
 62
     6
370
     9
100
AcDbLine
 10
58.60407487219307
 20
-6.030434142261463
 30
0.0
 11
75.27063156560531
 21
-6.030434142261463
 31
0.0
  0
LINE
  5
D3
330
1F
100
AcDbEntity
  8
0-2
  6
Continuous
 62
     6
370
     9
100
AcDbLine
 10
56.93732022692275
 20
-4.363432057168488
 30
0.0
 11
76.93738621087535
 21
-4.363432057168488
 31
0.0
  0
LINE
  5
D4
330
1F
100
AcDbEntity
  8
0-2
  6
Continuous
 62
     6
370
     9
100
AcDbLine
 10
56.93732022692275
 20
-4.363432057168488
 30
0.0
 11
58.60407487219307
 21
-6.030434142261463
 31
0.0
  0
LINE
  5
D5
330
1F
100
AcDbEntity
  8
0-2
  6
Continuous
 62
     6
370
     9
100
AcDbLine
 10
76.93738621087535
 20
-4.363432057168488
 30
0.0
 11
75.27063156560531
 21
-6.030434142261463
 31
0.0
  0
LINE
  5
D6
330
1F
100
AcDbEntity
  8
0-2
  6
Continuous
 62
     6
370
     9
100
AcDbLine
 10
75.27063156560531
 20
33.96969782564401
 30
0.0
 11
75.27063156560531
 21
-6.030434142261463
 31
0.0
  0
LINE
  5
D7
330
1F
100
AcDbEntity
  8
0-2
  6
Continuous
 62
     6
370
     9
100
AcDbLine
 10
58.60407487219307
 20
33.96969782564401
 30
0.0
 11
58.60407487219307
 21
-6.030434142261463
 31
0.0
  0
LINE
  5
D8
330
1F
100
AcDbEntity
  8
0-2
  6
Continuous
 62
     6
370
     9
100
AcDbLine
 10
56.93732022692275
 20
33.96969782564401
 30
0.0
 11
56.93732022692275
 21
-4.363432057168488
 31
0.0
  0
LINE
  5
D9
330
1F
100
AcDbEntity
  8
0-2
  6
JWW_CENTER1
 62
     6
370
     9
100
AcDbLine
 10
66.93735321889905
 20
867.1858134163323
 30
0.0
 11
66.93735321889905
 21
896.7934728335621
 31
0.0
  0
LINE
  5
DA
330
1F
100
AcDbEntity
  8
0-2
  6
JWW_CENTER1
 62
     6
370
     9
100
AcDbLine
 10
-356.3958096558898
 20
867.1858134163323
 30
0.0
 11
-356.3958096558898
 21
896.7934728335621
 31
0.0
  0
LINE
  5
DB
330
1F
100
AcDbEntity
  8
0-2
  6
Continuous
 62
     6
370
     9
100
AcDbLine
 10
-370.2267059819033
 20
13.1409558756862
 30
0.0
 11
-373.062366349302
 21
28.73733533620157
 31
0.0
  0
LINE
  5
DC
330
1F
100
AcDbEntity
  8
0-2
  6
Continuous
 62
     6
370
     9
100
AcDbLine
 10
-324.2395200655181
 20
17.81583644473177
 30
0.0
 11
-298.6817082253577
 21
113.199434153769
 31
0.0
  0
LINE
  5
DD
330
1F
100
AcDbEntity
  8
0-2
  6
Continuous
 62
     6
370
     9
100
AcDbLine
 10
-164.7291704825366
 20
160.164007369563
 30
0.0
 11
-159.7291539865486
 21
145.2663979681693
 31
0.0
  0
LINE
  5
DE
330
1F
100
AcDbEntity
  8
0-2
  6
Continuous
 62
     6
370
     9
100
AcDbLine
 10
-189.7290055226548
 20
159.1881047090898
 30
0.0
 11
-194.7290220186431
 21
143.8750438454919
 31
0.0
  0
LINE
  5
DF
330
1F
100
AcDbEntity
  8
0-2
  6
Continuous
 62
     6
370
     9
100
AcDbLine
 10
-211.395826151878
 20
154.3890093490815
 30
0.0
 11
-208.0625643011601
 21
157.9937126852302
 31
0.0
  0
LINE
  5
E0
330
1F
100
AcDbEntity
  8
0-2
  6
Continuous
 62
     6
370
     9
100
AcDbLine
 10
-211.395826151878
 20
154.3890093490815
 30
0.0
 11
-206.3958096558897
 21
143.0772978573164
 31
0.0
  0
LINE
  5
E1
330
1F
100
AcDbEntity
  8
0-2
  6
Continuous
 62
     6
370
     9
100
AcDbLine
 10
-281.3958096558897
 20
148.8891644113703
 30
0.0
 11
-278.0625478051717
 21
146.2910462737016
 31
0.0
  0
LINE
  5
E2
330
1F
100
AcDbEntity
  8
0-2
  6
Continuous
 62
     6
370
     9
100
AcDbLine
 10
-278.0625478051717
 20
146.2910462737016
 30
0.0
 11
-283.06256430116
 21
132.296592224926
 31
0.0
  0
LINE
  5
E3
330
1F
100
AcDbEntity
  8
0-2
  6
Continuous
 62
     6
370
     9
100
AcDbLine
 10
-293.4740897181785
 20
123.7374013201542
 30
0.0
 11
-310.8136827291582
 21
123.7374013201542
 31
0.0
  0
LINE
  5
E4
330
1F
100
AcDbEntity
  8
0-2
  6
Continuous
 62
     6
370
     9
100
AcDbLine
 10
80.76824954491259
 20
13.1409558756862
 30
0.0
 11
83.6039099123113
 21
28.73733533620157
 31
0.0
  0
LINE
  5
E5
330
1F
100
AcDbEntity
  8
0-2
  6
Continuous
 62
     6
370
     9
100
AcDbLine
 10
-124.7290385146314
 20
160.164007369563
 30
0.0
 11
-129.7290550106194
 21
145.2663979681693
 31
0.0
  0
LINE
  5
E6
330
1F
100
AcDbEntity
  8
0-2
  6
Continuous
 62
     6
370
     9
100
AcDbLine
 10
-99.72920347451318
 20
159.1881047090898
 30
0.0
 11
-94.7291869785249
 21
143.8750438454919
 31
0.0
  0
LINE
  5
E7
330
1F
100
AcDbEntity
  8
0-2
  6
JWW_DASHED1
 62
     6
370
     9
100
AcDbLine
 10
4.015880721010525
 20
123.7374013201542
 30
0.0
 11
21.35547373199019
 21
123.7374013201542
 31
0.0
  0
LINE
  5
E8
330
1F
100
AcDbEntity
  8
0-2
  6
Continuous
 62
     6
370
     9
100
AcDbLine
 10
-341.2698132982041
 20
30.18238390039063
 30
0.0
 11
-373.062366349302
 21
28.73733533620157
 31
0.0
  0
LINE
  5
E9
330
1F
100
AcDbEntity
  8
0-2
  6
Continuous
 62
     6
370
     9
100
AcDbLine
 10
-340.4307448596484
 20
15.34514981572006
 30
0.0
 11
-313.170547039758
 21
117.0815175310917
 31
0.0
  0
LINE
  5
EA
330
1F
100
AcDbEntity
  8
0-2
  6
Continuous
 62
     6
370
     9
100
AcDbLine
 10
80.27089550141598
 20
32.22549451588907
 30
0.0
 11
83.6039099123113
 21
28.73733533620157
 31
0.0
  0
LINE
  5
EB
330
1F
100
AcDbEntity
  8
0-2
  6
Continuous
 62
     6
370
     9
100
AcDbLine
 10
50.39550619609516
 20
14.17154273696145
 30
0.0
 11
54.43718825901728
 21
30.06287046605781
 31
0.0
  0
LINE
  5
EC
330
1F
100
AcDbEntity
  8
0-2
  6
Continuous
 62
     6
370
     9
100
AcDbLine
 10
-328.009884362921
 20
927.5094152163746
 30
0.0
 11
-308.2584954007165
 21
921.4666873078021
 31
0.0
  0
LINE
  5
ED
330
1F
100
AcDbEntity
  8
0-2
  6
Continuous
 62
     6
370
     9
100
AcDbLine
 10
-335.5168374219372
 20
889.7691511485958
 30
0.0
 11
-314.9565676795385
 21
887.7930967250318
 31
0.0
  0
LINE
  5
EE
330
1F
100
AcDbEntity
  8
0-2
  6
Continuous
 62
     6
370
     9
100
AcDbLine
 10
-292.6000085447199
 20
993.3796280806058
 30
0.0
 11
-276.6646365271947
 21
980.2383465402766
 31
0.0
  0
LINE
  5
EF
330
1F
100
AcDbEntity
  8
0-2
  6
Continuous
 62
     6
370
     9
100
AcDbLine
 10
-313.9781906208393
 20
961.3849166944151
 30
0.0
 11
-295.7390301346694
 21
951.6914616426839
 31
0.0
  0
LINE
  5
F0
330
1F
100
AcDbEntity
  8
0-2
  6
Continuous
 62
     6
370
     9
100
AcDbLine
 10
-234.6781813830858
 20
1040.684678492346
 30
0.0
 11
-224.9847263313543
 21
1022.445641726088
 31
0.0
  0
LINE
  5
F1
330
1F
100
AcDbEntity
  8
0-2
  6
Continuous
 62
     6
370
     9
100
AcDbLine
 10
-266.6728927692767
 20
1019.30686757596
 30
0.0
 11
-253.5316112289473
 21
1003.371248118613
 31
0.0
  0
LINE
  5
F2
330
1F
100
AcDbEntity
  8
0-2
  6
Continuous
 62
     6
370
     9
100
AcDbLine
 10
-163.0624158372666
 20
1062.223572733266
 30
0.0
 11
-161.0866088535249
 21
1041.663055551045
 31
0.0
  0
LINE
  5
F3
330
1F
100
AcDbEntity
  8
0-2
  6
Continuous
 62
     6
370
     9
100
AcDbLine
 10
-200.8026799050452
 20
1054.716743394162
 30
0.0
 11
-194.7599519964726
 21
1034.965354431957
 31
0.0
  0
LINE
  5
F4
330
1F
100
AcDbEntity
  8
0-2
  6
Continuous
 62
     6
370
     9
100
AcDbLine
 10
-88.6555290921228
 20
1054.716495954339
 30
0.0
 11
-94.69825700069546
 21
1034.965354431957
 31
0.0
  0
LINE
  5
F5
330
1F
100
AcDbEntity
  8
0-2
  6
Continuous
 62
     6
370
     9
100
AcDbLine
 10
-126.3957931599014
 20
1062.223820173089
 30
0.0
 11
-128.3716001436431
 21
1041.663055551045
 31
0.0
  0
LINE
  5
F6
330
1F
100
AcDbEntity
  8
0-2
  6
Continuous
 62
     6
370
     9
100
AcDbLine
 10
-22.78531622789156
 20
1019.30686757596
 30
0.0
 11
-35.92659776822071
 21
1003.371248118613
 31
0.0
  0
LINE
  5
F7
330
1F
100
AcDbEntity
  8
0-2
  6
Continuous
 62
     6
370
     9
100
AcDbLine
 10
-54.78002761408245
 20
1040.684678492346
 30
0.0
 11
-64.47348266581369
 21
1022.44588916591
 31
0.0
  0
LINE
  5
F8
330
1F
100
AcDbEntity
  8
0-2
  6
Continuous
 62
     6
370
     9
100
AcDbLine
 10
24.51973418384854
 20
961.3849166944151
 30
0.0
 11
6.280944857412614
 21
951.6914616426839
 31
0.0
  0
LINE
  5
F9
330
1F
100
AcDbEntity
  8
0-2
  6
Continuous
 62
     6
370
     9
100
AcDbLine
 10
3.141923267463405
 20
993.3796280806058
 30
0.0
 11
-12.79369618988479
 21
980.2383465402766
 31
0.0
  0
LINE
  5
FA
330
1F
100
AcDbEntity
  8
0-2
  6
Continuous
 62
     6
370
     9
100
AcDbLine
 10
46.05887586459177
 20
889.7691511485958
 30
0.0
 11
25.49811124254775
 21
887.7930967250318
 31
0.0
  0
LINE
  5
FB
330
1F
100
AcDbEntity
  8
0-2
  6
Continuous
 62
     6
370
     9
100
AcDbLine
 10
38.55155164584177
 20
927.5094152163746
 30
0.0
 11
18.80041012346
 21
921.4666873078021
 31
0.0
  0
LINE
  5
FC
330
1F
100
AcDbEntity
  8
0-2
  6
Continuous
 62
     6
370
     9
100
AcDbLine
 10
-209.877287960366
 20
899.4267274260453
 30
0.0
 11
-259.434164477997
 21
928.0381941173458
 31
0.0
  0
LINE
  5
FD
330
1F
100
AcDbEntity
  8
0-2
  6
Continuous
 62
     6
370
     9
100
AcDbLine
 10
-272.3679677270467
 20
879.7691181566194
 30
0.0
 11
-215.1445394648001
 21
879.7691181566194
 31
0.0
  0
LINE
  5
FE
330
1F
100
AcDbEntity
  8
0-2
  6
Continuous
 62
     6
370
     9
100
AcDbLine
 10
-208.2106570350072
 20
902.3133603969068
 30
0.0
 11
-257.7676572725493
 21
930.9248270882073
 31
0.0
  0
LINE
  5
FF
330
1F
100
AcDbEntity
  8
0-2
  6
Continuous
 62
     6
370
     9
100
AcDbLine
 10
-272.3679677270467
 20
876.4356088660787
 30
0.0
 11
-215.1445394648001
 21
876.4356088660787
 31
0.0
  0
LINE
  5
100
330
1F
100
AcDbEntity
  8
0-2
  6
Continuous
 62
     6
370
     9
100
AcDbLine
 10
-211.8283509618442
 20
892.8552206165011
 30
0.0
 11
-262.0111265108306
 21
921.8281968886719
 31
0.0
  0
LINE
  5
101
330
1F
100
AcDbEntity
  8
0-2
  6
Continuous
 62
     6
370
     9
100
AcDbLine
 10
-187.1536518486684
 20
928.2507449249896
 30
0.0
 11
-215.7652422598804
 21
977.8077451625318
 31
0.0
  0
LINE
  5
102
330
1F
100
AcDbEntity
  8
0-2
  6
Continuous
 62
     6
370
     9
100
AcDbLine
 10
-251.1010098512022
 20
942.4718538512985
 30
0.0
 11
-201.5440096136601
 21
913.8603871599979
 31
0.0
  0
LINE
  5
103
330
1F
100
AcDbEntity
  8
0-2
  6
Continuous
 62
     6
370
     9
100
AcDbLine
 10
-184.2670188778069
 20
929.9172521304371
 30
0.0
 11
-212.8787330089304
 21
979.4740049281568
 31
0.0
  0
LINE
  5
104
330
1F
100
AcDbEntity
  8
0-2
  6
Continuous
 62
     6
370
     9
100
AcDbLine
 10
-252.7676407765611
 20
939.5854683202599
 30
0.0
 11
-203.2106405390189
 21
910.9737541891365
 31
0.0
  0
LINE
  5
105
330
1F
100
AcDbEntity
  8
0-2
  6
Continuous
 62
     6
370
     9
100
AcDbLine
 10
-192.1291718022158
 20
923.5352842250318
 30
0.0
 11
-221.1021480743863
 21
973.7178123341954
 31
0.0
  0
LINE
  5
106
330
1F
100
AcDbEntity
  8
0-2
  6
Continuous
 62
     6
370
     9
100
AcDbLine
 10
-153.06238284529
 20
941.8512747761297
 30
0.0
 11
-153.06238284529
 21
999.0747030383761
 31
0.0
  0
LINE
  5
107
330
1F
100
AcDbEntity
  8
0-2
  6
Continuous
 62
     6
370
     9
100
AcDbLine
 10
-201.3317062458389
 20
986.1410235092376
 30
0.0
 11
-172.7199921147158
 21
936.5840232716954
 31
0.0
  0
LINE
  5
108
330
1F
100
AcDbEntity
  8
0-2
  6
Continuous
 62
     6
370
     9
100
AcDbLine
 10
-149.7291209945723
 20
941.8512747761297
 30
0.0
 11
-149.7292447144835
 21
999.0747030383761
 31
0.0
  0
LINE
  5
109
330
1F
100
AcDbEntity
  8
0-2
  6
Continuous
 62
     6
370
     9
100
AcDbLine
 10
-204.2183392167007
 20
984.4742688639673
 30
0.0
 11
-175.6066250855772
 21
934.9175160662479
 31
0.0
  0
LINE
  5
10A
330
1F
100
AcDbEntity
  8
0-2
  6
Continuous
 62
     6
370
     9
100
AcDbLine
 10
-159.7290302666371
 20
940.2552879201329
 30
0.0
 11
-159.7290302666371
 21
998.201240464474
 31
0.0
  0
LINE
  5
10B
330
1F
100
AcDbEntity
  8
0-2
  6
Continuous
 62
     6
370
     9
100
AcDbLine
 10
-116.7382168824522
 20
936.5840232716954
 30
0.0
 11
-88.12650275132907
 21
986.1410235092376
 31
0.0
  0
LINE
  5
10C
330
1F
100
AcDbEntity
  8
0-2
  6
Continuous
 62
     6
370
     9
100
AcDbLine
 10
-136.395826151878
 20
999.0747030383761
 30
0.0
 11
-136.395826151878
 21
941.8512747761297
 31
0.0
  0
LINE
  5
10D
330
1F
100
AcDbEntity
  8
0-2
  6
Continuous
 62
     6
370
     9
100
AcDbLine
 10
-113.8515839115908
 20
934.9175160662479
 30
0.0
 11
-85.23986978046733
 21
984.4742688639673
 31
0.0
  0
LINE
  5
10E
330
1F
100
AcDbEntity
  8
0-2
  6
Continuous
 62
     6
370
     9
100
AcDbLine
 10
-139.7290880025957
 20
999.0747030383761
 30
0.0
 11
-139.7290880025957
 21
941.8512747761297
 31
0.0
  0
LINE
  5
10F
330
1F
100
AcDbEntity
  8
0-2
  6
Continuous
 62
     6
370
     9
100
AcDbLine
 10
-123.3097236919963
 20
938.5350862731735
 30
0.0
 11
-94.33674741982568
 21
988.71786182216
 31
0.0
  0
LINE
  5
110
330
1F
100
AcDbEntity
  8
0-2
  6
Continuous
 62
     6
370
     9
100
AcDbLine
 10
-87.91419938350796
 20
913.8603871599979
 30
0.0
 11
-38.35719914596577
 21
942.4718538512985
 31
0.0
  0
LINE
  5
111
330
1F
100
AcDbEntity
  8
0-2
  6
Continuous
 62
     6
370
     9
100
AcDbLine
 10
-73.69284301737619
 20
977.8077451625318
 30
0.0
 11
-102.3045571484996
 21
928.2507449249896
 31
0.0
  0
LINE
  5
112
330
1F
100
AcDbEntity
  8
0-2
  6
Continuous
 62
     6
370
     9
100
AcDbLine
 10
-86.24756845814912
 20
910.9737541891365
 30
0.0
 11
-36.69069194051811
 21
939.5854683202599
 31
0.0
  0
LINE
  5
113
330
1F
100
AcDbEntity
  8
0-2
  6
Continuous
 62
     6
370
     9
100
AcDbLine
 10
-76.57947598823765
 20
979.4740049281568
 30
0.0
 11
-105.1911901193611
 21
929.9174995702599
 31
0.0
  0
LINE
  5
114
330
1F
100
AcDbEntity
  8
0-2
  6
Continuous
 62
     6
370
     9
100
AcDbLine
 10
-92.62966008346578
 20
918.8359071135453
 30
0.0
 11
-42.44688453447932
 21
947.8088833857157
 31
0.0
  0
LINE
  5
115
330
1F
100
AcDbEntity
  8
0-2
  6
Continuous
 62
     6
370
     9
100
AcDbLine
 10
-74.31366953236787
 20
879.7691181566194
 30
0.0
 11
-17.09024127012125
 21
879.7691181566194
 31
0.0
  0
LINE
  5
116
330
1F
100
AcDbEntity
  8
0-2
  6
Continuous
 62
     6
370
     9
100
AcDbLine
 10
-30.02392079925979
 20
928.0381941173458
 30
0.0
 11
-79.58092103680198
 21
899.4267274260453
 31
0.0
  0
LINE
  5
117
330
1F
100
AcDbEntity
  8
0-2
  6
Continuous
 62
     6
370
     9
100
AcDbLine
 10
-74.31366953236787
 20
876.4356088660787
 30
0.0
 11
-17.09024127012125
 21
876.4356088660787
 31
0.0
  0
LINE
  5
118
330
1F
100
AcDbEntity
  8
0-2
  6
Continuous
 62
     6
370
     9
100
AcDbLine
 10
-31.69067544452982
 20
930.9248270882073
 30
0.0
 11
-81.24755196216083
 21
902.3133603969068
 31
0.0
  0
LINE
  5
119
330
1F
100
AcDbEntity
  8
0-2
  6
Continuous
 62
     6
370
     9
100
AcDbLine
 10
-75.90965638836448
 20
886.4358892978781
 30
0.0
 11
-17.96370384402305
 21
886.4358892978781
 31
0.0
  0
LINE
  5
11A
330
1F
100
AcDbEntity
  8
0-2
  6
Continuous
 62
     6
370
     9
100
AcDbLine
 10
-172.2669297994707
 20
891.4359057938661
 30
0.0
 11
-117.1912791976973
 21
891.4359057938661
 31
0.0
  0
LINE
  5
11B
330
1F
100
AcDbEntity
  8
0-2
  6
Continuous
 62
     6
370
     9
100
AcDbLine
 10
79.65279082447354
 20
888.1023965033255
 30
0.0
 11
83.21443963148342
 21
884.7691346526078
 31
0.0
  0
LINE
  5
11C
330
1F
100
AcDbEntity
  8
0-2
  6
Continuous
 62
     6
370
     9
100
AcDbLine
 10
77.78808432109516
 20
904.7692006365604
 30
0.0
 11
80.64106547607823
 21
908.1024624872782
 31
0.0
  0
LINE
  5
11D
330
1F
100
AcDbEntity
  8
0-2
  6
Continuous
 62
     6
370
     9
100
AcDbLine
 10
78.27207661416936
 20
884.7691346526078
 30
0.0
 11
83.21443963148342
 21
884.7691346526078
 31
0.0
  0
LINE
  5
11E
330
1F
100
AcDbEntity
  8
0-2
  6
Continuous
 62
     6
370
     9
100
AcDbLine
 10
72.27364043384854
 20
888.1023965033255
 30
0.0
 11
79.65279082447354
 21
888.1023965033255
 31
0.0
  0
LINE
  5
11F
330
1F
100
AcDbEntity
  8
0-2
  6
Continuous
 62
     6
370
     9
100
AcDbLine
 10
44.01650756856129
 20
904.7692006365604
 30
0.0
 11
77.78808432109516
 21
904.7692006365604
 31
0.0
  0
LINE
  5
120
330
1F
100
AcDbEntity
  8
0-2
  6
Continuous
 62
     6
370
     9
100
AcDbLine
 10
43.39741313232823
 20
908.1024624872782
 30
0.0
 11
80.64106547607823
 21
908.1024624872782
 31
0.0
  0
LINE
  5
121
330
1F
100
AcDbEntity
  8
0-2
  6
Continuous
 62
     6
370
     9
100
AcDbLine
 10
-369.1108761017301
 20
888.1023965033255
 30
0.0
 11
-372.6727723485629
 21
884.7691346526078
 31
0.0
  0
LINE
  5
122
330
1F
100
AcDbEntity
  8
0-2
  6
Continuous
 62
     6
370
     9
100
AcDbLine
 10
-367.2461695983517
 20
904.7692006365604
 30
0.0
 11
-370.0991507533348
 21
908.1024624872782
 31
0.0
  0
LINE
  5
123
330
1F
100
AcDbEntity
  8
0-2
  6
Continuous
 62
     6
370
     9
100
AcDbLine
 10
-361.7319731509278
 20
888.1023965033255
 30
0.0
 11
-369.1108761017301
 21
888.1023965033255
 31
0.0
  0
LINE
  5
124
330
1F
100
AcDbEntity
  8
0-2
  6
Continuous
 62
     6
370
     9
100
AcDbLine
 10
-333.4748402856405
 20
904.7692006365604
 30
0.0
 11
-367.2461695983517
 21
904.7692006365604
 31
0.0
  0
LINE
  5
125
330
1F
100
AcDbEntity
  8
0-2
  6
Continuous
 62
     6
370
     9
100
AcDbLine
 10
-332.8557458494075
 20
908.1024624872782
 30
0.0
 11
-370.0991507533348
 21
908.1024624872782
 31
0.0
  0
LINE
  5
126
330
1F
100
AcDbEntity
  8
0-2
  6
Continuous
 62
     6
370
     9
100
AcDbLine
 10
-367.7304093312486
 20
884.7691346526078
 30
0.0
 11
-372.6727723485629
 21
884.7691346526078
 31
0.0
  0
LINE
  5
127
330
1F
100
AcDbEntity
  8
0-2
  6
Continuous
 62
     6
370
     9
100
AcDbLine
 10
76.93738621087535
 20
33.96969782564401
 30
0.0
 11
76.93738621087535
 21
-4.363432057168488
 31
0.0
  0
LINE
  5
128
330
1F
100
AcDbEntity
  8
0-2
  6
Continuous
 62
     6
370
     9
100
AcDbLine
 10
-263.062374597296
 20
10.40377655769635
 30
0.0
 11
56.93732022692275
 21
10.40377655769635
 31
0.0
  0
LINE
  5
129
330
1F
100
AcDbEntity
  8
0-2
  6
Continuous
 62
     6
370
     9
100
AcDbLine
 10
76.93738621087535
 20
10.40377655769635
 30
0.0
 11
77.48868213570661
 21
10.40377655769635
 31
0.0
  0
LINE
  5
12A
330
1F
100
AcDbEntity
  8
0-2
  6
Continuous
 62
     6
370
     9
100
AcDbLine
 10
76.93738621087535
 20
29.04020167910677
 30
0.0
 11
83.6039099123113
 21
28.73733533620157
 31
0.0
  0
LINE
  5
12B
330
1F
100
AcDbEntity
  8
0-2
  6
Continuous
 62
     6
370
     9
100
AcDbLine
 10
76.93738621087535
 20
32.37717512716433
 30
0.0
 11
80.27089550141598
 21
32.22549451588907
 31
0.0
  0
LINE
  5
12C
330
1F
100
AcDbEntity
  8
0-2
  6
Continuous
 62
     6
370
     9
100
AcDbLine
 10
51.81135686121338
 20
30.18238390039063
 30
0.0
 11
56.93732022692275
 21
29.94904814764556
 31
0.0
  0
LINE
  5
12D
330
1F
100
AcDbEntity
  8
0-2
  6
Continuous
 62
     6
370
     9
100
AcDbLine
 10
50.90622199001389
 20
33.56018491918281
 30
0.0
 11
56.93732022692275
 21
33.28602159570313
 31
0.0
  0
LINE
  5
12E
330
1F
100
AcDbEntity
  8
0-2
  6
Continuous
 62
     6
370
     9
100
AcDbLine
 10
-369.729104498584
 20
871.4358398099135
 30
0.0
 11
-369.729104498584
 21
873.435895896273
 31
0.0
  0
LINE
  5
12F
330
1F
100
AcDbEntity
  8
0-2
  6
Continuous
 62
     6
370
     9
100
AcDbLine
 10
-343.0625148131955
 20
873.435895896273
 30
0.0
 11
-369.729104498584
 21
873.435895896273
 31
0.0
  0
LINE
  5
130
330
1F
100
AcDbEntity
  8
0-2
  6
Continuous
 62
     6
370
     9
100
AcDbLine
 10
-343.0625148131955
 20
871.4358398099135
 30
0.0
 11
-343.0625148131955
 21
873.435895896273
 31
0.0
  0
LINE
  5
131
330
1F
100
AcDbEntity
  8
0-2
  6
Continuous
 62
     6
370
     9
100
AcDbLine
 10
80.27089550141598
 20
871.4358398099135
 30
0.0
 11
80.27089550141598
 21
873.435895896273
 31
0.0
  0
LINE
  5
132
330
1F
100
AcDbEntity
  8
0-2
  6
Continuous
 62
     6
370
     9
100
AcDbLine
 10
53.60430581602743
 20
873.435895896273
 30
0.0
 11
80.27089550141598
 21
873.435895896273
 31
0.0
  0
LINE
  5
133
330
1F
100
AcDbEntity
  8
0-2
  6
Continuous
 62
     6
370
     9
100
AcDbLine
 10
53.60430581602743
 20
871.4358398099135
 30
0.0
 11
53.60430581602743
 21
873.435895896273
 31
0.0
  0
LINE
  5
134
330
1F
100
AcDbEntity
  8
0-2
  6
Continuous
 62
     6
370
     9
100
AcDbLine
 10
34.78106362852743
 20
17.81583644473177
 30
0.0
 11
9.223499228189702
 21
113.199434153769
 31
0.0
  0
LINE
  5
135
330
1F
100
AcDbEntity
  8
0-2
  6
Continuous
 62
     6
370
     9
100
AcDbLine
 10
-313.0625395571778
 20
10.40377655769635
 30
0.0
 11
-366.9471385726973
 21
10.40377655769635
 31
0.0
  0
LINE
  5
136
330
1F
100
AcDbEntity
  8
0-1
  6
Continuous
 62
     2
370
     9
100
AcDbLine
 10
-223.0751095001676
 20
1092.991477478832
 30
0.0
 11
-217.0364643486684
 21
1089.77426490493
 31
0.0
  0
LINE
  5
137
330
1F
100
AcDbEntity
  8
0-2
  6
Continuous
 62
     6
370
     9
100
AcDbLine
 10
45.6748492598618
 20
35.11658140355781
 30
0.0
 11
23.71209060276728
 21
117.0815175310917
 31
0.0
  0
LINE
  5
138
330
1F
100
AcDbEntity
  8
0-0
  6
Continuous
 62
     3
370
     9
100
AcDbLine
 10
181.9374851868045
 20
17.54909631593126
 30
0.0
 11
185.2709944773451
 21
17.54909631593126
 31
0.0
  0
LINE
  5
139
330
1F
100
AcDbEntity
  8
0-0
  6
Continuous
 62
     3
370
     9
100
AcDbLine
 10
-474.7292034745132
 20
17.54909631593126
 30
0.0
 11
-471.3956941839726
 21
17.54909631593126
 31
0.0
  0
LINE
  5
13A
330
1F
100
AcDbEntity
  8
0-1
  6
Continuous
 62
     4
370
     9
100
AcDbLine
 10
-274.7291622345426
 20
13.73728584823699
 30
0.0
 11
-274.7291622345426
 21
83.62715863117603
 31
0.0
  0
LINE
  5
13B
330
1F
100
AcDbEntity
  8
0-1
  6
Continuous
 62
     4
370
     9
100
AcDbLine
 10
-276.9840813382165
 20
13.73728584823699
 30
0.0
 11
-276.9840813382165
 21
85.88232517467264
 31
0.0
  0
LINE
  5
13C
330
1F
100
AcDbEntity
  8
0-1
  6
Continuous
 62
     4
370
     9
100
AcDbLine
 10
-299.1408328162572
 20
13.73728584823699
 30
0.0
 11
-299.1408328162572
 21
85.88232517467264
 31
0.0
  0
LINE
  5
13D
330
1F
100
AcDbEntity
  8
0-1
  6
Continuous
 62
     4
370
     9
100
AcDbLine
 10
-301.3957519199311
 20
13.73728584823699
 30
0.0
 11
-301.3957519199311
 21
83.62715863117603
 31
0.0
  0
LINE
  5
13E
330
1F
100
AcDbEntity
  8
0-1
  6
Continuous
 62
     4
370
     9
100
AcDbLine
 10
-276.9840813382165
 20
-7.929534780985925
 30
0.0
 11
-276.9840813382165
 21
-47.45099441200399
 31
0.0
  0
LINE
  5
13F
330
1F
100
AcDbEntity
  8
0-1
  6
Continuous
 62
     4
370
     9
100
AcDbLine
 10
-274.7291622345426
 20
-7.929534780985925
 30
0.0
 11
-274.7291622345426
 21
-45.1963227481524
 31
0.0
  0
LINE
  5
140
330
1F
100
AcDbEntity
  8
0-1
  6
Continuous
 62
     4
370
     9
100
AcDbLine
 10
-299.1408328162572
 20
-7.929534780985925
 30
0.0
 11
-299.1408328162572
 21
-47.45099441200399
 31
0.0
  0
LINE
  5
141
330
1F
100
AcDbEntity
  8
0-1
  6
Continuous
 62
     4
370
     9
100
AcDbLine
 10
-301.3957519199311
 20
-7.929534780985925
 30
0.0
 11
-301.3957519199311
 21
-45.1963227481524
 31
0.0
  0
LINE
  5
142
330
1F
100
AcDbEntity
  8
0-0
  6
Continuous
 62
     4
370
     9
100
AcDbLine
 10
-382.4741111629632
 20
-49.11762533736283
 30
0.0
 11
-360.3173596849228
 21
-49.11762533736283
 31
0.0
  0
LINE
  5
143
330
1F
100
AcDbEntity
  8
0-0
  6
Continuous
 62
     4
370
     9
100
AcDbLine
 10
-384.7291539865486
 20
-51.37254444103679
 30
0.0
 11
-358.0624405812486
 21
-51.37254444103679
 31
0.0
  0
LINE
  5
144
330
1F
100
AcDbEntity
  8
0-0
  6
Continuous
 62
     4
370
     9
100
AcDbLine
 10
-360.3173596849228
 20
-49.11762533736283
 30
0.0
 11
-358.0624405812486
 21
-51.37254444103679
 31
0.0
  0
LINE
  5
145
330
1F
100
AcDbEntity
  8
0-0
  6
Continuous
 62
     4
370
     9
100
AcDbLine
 10
-382.4741111629632
 20
-49.11762533736283
 30
0.0
 11
-384.7291539865486
 21
-51.37254444103679
 31
0.0
  0
LINE
  5
146
330
1F
100
AcDbEntity
  8
0-5
  6
Continuous
 62
     2
370
     9
100
AcDbLine
 10
-475.675908235915
 20
-258.6635237748628
 30
0.0
 11
-478.0623416053197
 21
-249.1177902972446
 31
0.0
  0
LINE
  5
147
330
1F
100
AcDbEntity
  8
0-5
  6
Continuous
 62
     2
370
     9
100
AcDbLine
 10
-425.7100136914684
 20
-262.4508377001162
 30
0.0
 11
-470.8252216728872
 21
-262.4508377001162
 31
0.0
  0
LINE
  5
148
330
1F
100
AcDbEntity
  8
0-5
  6
Continuous
 62
     2
370
     9
100
AcDbLine
 10
-419.4195985204379
 20
-271.9970660573797
 30
0.0
 11
-420.8593271284406
 21
-266.2383990651922
 31
0.0
  0
LINE
  5
149
330
1F
100
AcDbEntity
  8
0-5
  6
Continuous
 62
     2
370
     9
100
AcDbLine
 10
-415.2997254735629
 20
-249.1177902972446
 30
0.0
 11
-478.0623416053197
 21
-249.1177902972446
 31
0.0
  0
LINE
  5
14A
330
1F
100
AcDbEntity
  8
0-5
  6
Continuous
 62
     2
370
     9
100
AcDbLine
 10
-409.0093103025325
 20
-258.6635237748628
 30
0.0
 11
-410.4489151906239
 21
-252.9048567826753
 31
0.0
  0
LINE
  5
14B
330
1F
100
AcDbEntity
  8
0-5
  6
Continuous
 62
     2
370
     9
100
AcDbLine
 10
29.32377834030946
 20
-271.9970660573797
 30
0.0
 11
26.93746869081624
 21
-262.4508377001162
 31
0.0
  0
LINE
  5
14C
330
1F
100
AcDbEntity
  8
0-5
  6
Continuous
 62
     2
370
     9
100
AcDbLine
 10
186.2179466785696
 20
-258.6635237748628
 30
0.0
 11
188.6042563280628
 21
-249.1175428574219
 31
0.0
  0
LINE
  5
14D
330
1F
100
AcDbEntity
  8
0-5
  6
Continuous
 62
     2
370
     9
100
AcDbLine
 10
136.2519284142116
 20
-262.4508377001162
 30
0.0
 11
181.3671363956306
 21
-262.4508377001162
 31
0.0
  0
LINE
  5
14E
330
1F
100
AcDbEntity
  8
0-5
  6
Continuous
 62
     2
370
     9
100
AcDbLine
 10
129.9615132431811
 20
-271.9970660573797
 30
0.0
 11
131.4011181312725
 21
-266.2383990651922
 31
0.0
  0
LINE
  5
14F
330
1F
100
AcDbEntity
  8
0-5
  6
Continuous
 62
     2
370
     9
100
AcDbLine
 10
120.990829913367
 20
-252.9048567826753
 30
0.0
 11
119.5512250252759
 21
-258.6635237748628
 31
0.0
  0
LINE
  5
150
330
1F
100
AcDbEntity
  8
0-5
  6
Continuous
 62
     2
370
     9
100
AcDbLine
 10
125.8416401963061
 20
-249.1175428574219
 30
0.0
 11
188.6042563280628
 21
-249.1175428574219
 31
0.0
  0
LINE
  5
151
330
1F
100
AcDbEntity
  8
0-5
  6
Continuous
 62
     2
370
     9
100
AcDbLine
 10
-391.8456470054463
 20
-265.6952686545081
 30
0.0
 11
-388.0624158372666
 21
-275.7841325428104
 31
0.0
  0
LINE
  5
152
330
1F
100
AcDbEntity
  8
0-5
  6
Continuous
 62
     2
370
     9
100
AcDbLine
 10
-350.9457001225283
 20
-265.6952686545081
 30
0.0
 11
-354.7290550106194
 21
-275.7841325428104
 31
0.0
  0
LINE
  5
153
330
1F
100
AcDbEntity
  8
0-5
  6
Continuous
 62
     2
370
     9
100
AcDbLine
 10
-318.7822347773002
 20
-271.9970660573797
 30
0.0
 11
-316.3958014078958
 21
-262.4508377001162
 31
0.0
  0
LINE
  5
154
330
1F
100
AcDbEntity
  8
0-0
  6
Continuous
 62
     4
370
     9
100
AcDbLine
 10
-360.3173596849228
 20
-315.7842645107158
 30
0.0
 11
-358.0624405812486
 21
-313.5293454070419
 31
0.0
  0
LINE
  5
155
330
1F
100
AcDbEntity
  8
0-0
  6
Continuous
 62
     4
370
     9
100
AcDbLine
 10
-382.4741111629632
 20
-315.7842645107158
 30
0.0
 11
-384.7291539865486
 21
-313.5293454070419
 31
0.0
  0
LINE
  5
156
330
1F
100
AcDbEntity
  8
0-5
  6
Continuous
 62
     2
370
     9
100
AcDbLine
 10
-404.1585000195934
 20
-262.4508377001162
 30
0.0
 11
-384.7291539865486
 21
-262.4508377001162
 31
0.0
  0
LINE
  5
157
330
1F
100
AcDbEntity
  8
0-0
  6
Continuous
 62
     4
370
     9
100
AcDbLine
 10
-346.3957766639135
 20
-295.0453432163747
 30
0.0
 11
-346.3957766639135
 21
-275.7841325428104
 31
0.0
  0
LINE
  5
158
330
1F
100
AcDbEntity
  8
0-0
  6
Continuous
 62
     4
370
     9
100
AcDbLine
 10
-396.3958179038838
 20
-295.0453432163747
 30
0.0
 11
-396.3958179038838
 21
-275.7841325428104
 31
0.0
  0
LINE
  5
159
330
1F
100
AcDbEntity
  8
0-0
  6
Continuous
 62
     4
370
     9
100
AcDbLine
 10
-358.9049731773213
 20
-295.0453432163747
 30
0.0
 11
-358.9049731773213
 21
-275.7841325428104
 31
0.0
  0
LINE
  5
15A
330
1F
100
AcDbEntity
  8
0-0
  6
Continuous
 62
     4
370
     9
100
AcDbLine
 10
-383.886621390476
 20
-295.0453432163747
 30
0.0
 11
-383.886621390476
 21
-275.7841325428104
 31
0.0
  0
LINE
  5
15B
330
1F
100
AcDbEntity
  8
0-0
  6
Continuous
 62
     4
370
     9
100
AcDbLine
 10
-352.6505605004843
 20
-297.4509531720333
 30
0.0
 11
-390.1414052270468
 21
-297.4509531720333
 31
0.0
  0
LINE
  5
15C
330
1F
100
AcDbEntity
  8
0-0
  6
Continuous
 62
     4
370
     9
100
AcDbLine
 10
-358.0624405812486
 20
-313.5293454070419
 30
0.0
 11
-358.0624405812486
 21
-297.4509531720333
 31
0.0
  0
LINE
  5
15D
330
1F
100
AcDbEntity
  8
0-0
  6
Continuous
 62
     4
370
     9
100
AcDbLine
 10
-360.3173596849228
 20
-297.4509531720333
 30
0.0
 11
-360.3173596849228
 21
-315.7842645107158
 31
0.0
  0
LINE
  5
15E
330
1F
100
AcDbEntity
  8
0-0
  6
Continuous
 62
     4
370
     9
100
AcDbLine
 10
-382.4741111629632
 20
-315.7842645107158
 30
0.0
 11
-382.4741111629632
 21
-297.4509531720333
 31
0.0
  0
LINE
  5
15F
330
1F
100
AcDbEntity
  8
0-0
  6
Continuous
 62
     4
370
     9
100
AcDbLine
 10
-384.7291539865486
 20
-297.4509531720333
 30
0.0
 11
-384.7291539865486
 21
-313.5293454070419
 31
0.0
  0
LINE
  5
160
330
1F
100
AcDbEntity
  8
0-1
  6
Continuous
 62
     2
370
     9
100
AcDbLine
 10
75.27063156560531
 20
10.40377655769635
 30
0.0
 11
82.37264935487873
 21
10.40377655769635
 31
0.0
  0
LINE
  5
161
330
1F
100
AcDbEntity
  8
0-1
  6
Continuous
 62
     2
370
     9
100
AcDbLine
 10
47.79318158144123
 20
10.40377655769635
 30
0.0
 11
58.60407487219307
 21
10.40377655769635
 31
0.0
  0
LINE
  5
162
330
1F
100
AcDbEntity
  8
0-0
  6
Continuous
 62
     4
370
     9
100
AcDbLine
 10
-369.3956793375833
 20
-309.1174933694573
 30
0.0
 11
-369.3956793375833
 21
-315.7842645107158
 31
0.0
  0
LINE
  5
163
330
1F
100
AcDbEntity
  8
0-0
  6
Continuous
 62
     4
370
     9
100
AcDbLine
 10
-369.3956793375833
 20
-309.1174933694573
 30
0.0
 11
-373.3956677903916
 21
-309.1174933694573
 31
0.0
  0
LINE
  5
164
330
1F
100
AcDbEntity
  8
0-0
  6
Continuous
 62
     4
370
     9
100
AcDbLine
 10
-373.3956677903916
 20
-309.1174933694573
 30
0.0
 11
-373.3956677903916
 21
-315.7842645107158
 31
0.0
  0
LINE
  5
165
330
1F
100
AcDbEntity
  8
0-1
  6
Continuous
 62
     4
370
     9
100
AcDbLine
 10
-286.0624009908769
 20
79.21580147323698
 30
0.0
 11
-286.0624009908769
 21
85.88232517467264
 31
0.0
  0
LINE
  5
166
330
1F
100
AcDbEntity
  8
0-1
  6
Continuous
 62
     4
370
     9
100
AcDbLine
 10
-286.0624009908769
 20
79.21580147323698
 30
0.0
 11
-290.0623894436853
 21
79.21580147323698
 31
0.0
  0
LINE
  5
167
330
1F
100
AcDbEntity
  8
0-1
  6
Continuous
 62
     4
370
     9
100
AcDbLine
 10
-290.0623894436853
 20
79.21580147323698
 30
0.0
 11
-290.0623894436853
 21
85.88232517467264
 31
0.0
  0
LINE
  5
168
330
1F
100
AcDbEntity
  8
0-1
  6
Continuous
 62
     4
370
     9
100
AcDbLine
 10
-299.1408328162572
 20
85.88232517467264
 30
0.0
 11
-290.0623894436853
 21
85.88232517467264
 31
0.0
  0
LINE
  5
169
330
1F
100
AcDbEntity
  8
0-1
  6
Continuous
 62
     4
370
     9
100
AcDbLine
 10
-286.0624009908769
 20
85.88232517467264
 30
0.0
 11
-276.9840813382165
 21
85.88232517467264
 31
0.0
  0
LINE
  5
16A
330
1F
100
AcDbEntity
  8
0-1
  6
Continuous
 62
     4
370
     9
100
AcDbLine
 10
-274.7291622345426
 20
83.62715863117603
 30
0.0
 11
-286.0624009908769
 21
83.62715863117603
 31
0.0
  0
LINE
  5
16B
330
1F
100
AcDbEntity
  8
0-1
  6
Continuous
 62
     4
370
     9
100
AcDbLine
 10
-290.0623894436853
 20
83.62715863117603
 30
0.0
 11
-301.3957519199311
 21
83.62715863117603
 31
0.0
  0
LINE
  5
16C
330
1F
100
AcDbEntity
  8
0-0
  6
Continuous
 62
     4
370
     9
100
AcDbLine
 10
-384.7291539865486
 20
-313.5293454070419
 30
0.0
 11
-373.3956677903916
 21
-313.5293454070419
 31
0.0
  0
LINE
  5
16D
330
1F
100
AcDbEntity
  8
0-0
  6
Continuous
 62
     4
370
     9
100
AcDbLine
 10
-369.3956793375833
 20
-313.5293454070419
 30
0.0
 11
-358.0624405812486
 21
-313.5293454070419
 31
0.0
  0
LINE
  5
16E
330
1F
100
AcDbEntity
  8
0-0
  6
Continuous
 62
     4
370
     9
100
AcDbLine
 10
-382.4741111629632
 20
-315.7842645107158
 30
0.0
 11
-373.3956677903916
 21
-315.7842645107158
 31
0.0
  0
LINE
  5
16F
330
1F
100
AcDbEntity
  8
0-0
  6
Continuous
 62
     4
370
     9
100
AcDbLine
 10
-369.3956793375833
 20
-315.7842645107158
 30
0.0
 11
-360.3173596849228
 21
-315.7842645107158
 31
0.0
  0
LINE
  5
170
330
1F
100
AcDbEntity
  8
0-2
  6
JWW_CENTER1
 62
     6
370
     9
100
AcDbLine
 10
66.93735321889905
 20
-15.12694062188569
 30
0.0
 11
66.93735321889905
 21
52.46693804682213
 31
0.0
  0
LINE
  5
171
330
1F
100
AcDbEntity
  8
0-0
  6
JWW_CENTER1
 62
     3
370
     9
100
AcDbLine
 10
-516.0660053642935
 20
871.4358398099135
 30
0.0
 11
219.6116828219397
 21
871.4358398099135
 31
0.0
  0
LINE
  5
172
330
1F
100
AcDbEntity
  8
0-0
  6
JWW_CENTER1
 62
     3
370
     9
100
AcDbLine
 10
-144.729104498584
 20
1229.178149380225
 30
0.0
 11
-144.729104498584
 21
850.5076270512563
 31
0.0
  0
LINE
  5
173
330
1F
100
AcDbEntity
  8
0-0
  6
Continuous
 62
     3
370
     9
100
AcDbLine
 10
-358.0624405812486
 20
-82.45098616400969
 30
0.0
 11
-345.4948482696989
 21
-82.45098616400969
 31
0.0
  0
LINE
  5
174
330
1F
100
AcDbEntity
  8
0-0
  6
Continuous
 62
     3
370
     9
100
AcDbLine
 10
-301.3957519199311
 20
-27.45105214796258
 30
0.0
 11
-308.7580764026171
 21
-27.45105214796258
 31
0.0
  0
LINE
  5
175
330
1F
100
AcDbEntity
  8
0-0
  6
Continuous
 62
     3
370
     9
100
AcDbLine
 10
-272.2394227391879
 20
-27.45105214796258
 30
0.0
 11
-274.7291622345426
 21
-27.45105214796258
 31
0.0
  0
LINE
  5
176
330
1F
100
AcDbEntity
  8
0-1
  6
JWW_CENTER1
 62
     4
370
     9
100
AcDbLine
 10
-288.0624570772368
 20
93.01552038159844
 30
0.0
 11
-288.0624570772368
 21
-52.68422294082558
 31
0.0
  0
LINE
  5
177
330
1F
100
AcDbEntity
  8
0-5
  6
Continuous
 62
     2
370
     9
100
AcDbLine
 10
114.7004147423365
 20
-262.4508377001162
 30
0.0
 11
-358.0624405812486
 21
-262.4508377001162
 31
0.0
  0
LINE
  5
178
330
1F
100
AcDbEntity
  8
0-5
  6
Continuous
 62
     2
370
     9
100
AcDbLine
 10
125.110702960242
 20
-275.7841325428104
 30
0.0
 11
-414.5689119574101
 21
-275.7841325428104
 31
0.0
  0
LINE
  5
179
330
1F
100
AcDbEntity
  8
0-0
  6
JWW_CENTER1
 62
     3
370
     9
100
AcDbLine
 10
-144.729104498584
 20
186.4294971024599
 30
0.0
 11
-144.729104498584
 21
-302.4914260790224
 31
0.0
  0
LINE
  5
17A
330
1F
100
AcDbEntity
  8
0-0
  6
JWW_CENTER1
 62
     4
370
     9
100
AcDbLine
 10
-371.3957354239429
 20
-324.9541368977514
 30
0.0
 11
-371.3957354239429
 21
-43.72974691939408
 31
0.0
  0
LINE
  5
17B
330
1F
100
AcDbEntity
  8
0-0
  6
Continuous
 62
     3
370
     9
100
AcDbLine
 10
-408.6301087743442
 20
-13.07281893427994
 30
0.0
 11
-428.53280718809
 21
-7.739872156936194
 31
0.0
  0
LINE
  5
17C
330
1F
100
AcDbEntity
  8
0-0
  6
Continuous
 62
     3
370
     9
100
AcDbLine
 10
-478.0624653252309
 20
-9.117493369457286
 30
0.0
 11
-474.7290797546017
 21
-12.45087894008645
 31
0.0
  0
LINE
  5
17D
330
1F
100
AcDbEntity
  8
0-0
  6
Continuous
 62
     3
370
     9
100
AcDbLine
 10
-474.7290797546017
 20
-12.45087894008645
 30
0.0
 11
-410.9512180305731
 21
-12.45087894008645
 31
0.0
  0
LINE
  5
17E
330
1F
100
AcDbEntity
  8
0-0
  6
Continuous
 62
     3
370
     9
100
AcDbLine
 10
188.6042563280628
 20
-9.117493369457286
 30
0.0
 11
185.2707470375225
 21
-12.45087894008645
 31
0.0
  0
LINE
  5
17F
330
1F
100
AcDbEntity
  8
0-0
  6
Continuous
 62
     3
370
     9
100
AcDbLine
 10
185.2707470375225
 20
-12.45087894008645
 30
0.0
 11
121.4931327533162
 21
-12.45087894008645
 31
0.0
  0
LINE
  5
180
330
1F
100
AcDbEntity
  8
0-0
  6
Continuous
 62
     3
370
     9
100
AcDbLine
 10
119.1721472169988
 20
-13.07281893427994
 30
0.0
 11
139.0744744710105
 21
-7.739872156936194
 31
0.0
  0
LINE
  5
181
330
1F
100
AcDbEntity
  8
0-0
  6
Continuous
 62
     3
370
     9
100
AcDbLine
 10
51.93755117075712
 20
-82.4508624440985
 30
0.0
 11
61.93758416273342
 21
-82.4508624440985
 31
0.0
  0
LINE
  5
182
330
1F
100
AcDbEntity
  8
0-0
  6
Continuous
 62
     3
370
     9
100
AcDbLine
 10
45.87156391885686
 20
-65.78418203077507
 30
0.0
 11
-7.084764602046754
 21
-65.78418203077507
 31
0.0
  0
LINE
  5
183
330
1F
100
AcDbEntity
  8
0-0
  6
Continuous
 62
     3
370
     9
100
AcDbLine
 10
49.14024397586702
 20
-68.46383159000214
 30
0.0
 11
51.93755117075712
 21
-82.4508624440985
 31
0.0
  0
LINE
  5
184
330
1F
100
AcDbEntity
  8
0-0
  6
Continuous
 62
     3
370
     9
100
AcDbLine
 10
68.28639513190582
 20
-39.14357352676308
 30
0.0
 11
61.93758416273342
 21
-82.4508624440985
 31
0.0
  0
LINE
  5
185
330
1F
100
AcDbEntity
  8
0-0
  6
Continuous
 62
     3
370
     9
100
AcDbLine
 10
70.72169786628082
 20
-36.40738396806388
 30
0.0
 11
109.9656537362134
 21
-25.89193382553862
 31
0.0
  0
LINE
  5
186
330
1F
100
AcDbEntity
  8
0-4
  6
Continuous
 62
     7
370
     9
100
AcDbLine
 10
-373.062366349302
 20
260.4038590376372
 30
0.0
 11
83.6039099123113
 21
260.4038590376372
 31
0.0
  0
LINE
  5
187
330
1F
100
AcDbEntity
  8
0-4
  6
Continuous
 62
     7
370
     9
100
AcDbLine
 10
-373.062366349302
 20
53.73729409623099
 30
0.0
 11
-373.062366349302
 21
263.4038194472656
 31
0.0
  0
LINE
  5
188
330
1F
100
AcDbEntity
  8
0-4
  6
Continuous
 62
     7
370
     9
100
AcDbLine
 10
83.6039099123113
 20
53.73729409623099
 30
0.0
 11
83.6039099123113
 21
263.4038194472656
 31
0.0
  0
LINE
  5
189
330
1F
100
AcDbEntity
  8
0-4
  6
Continuous
 62
     7
370
     9
100
AcDbLine
 10
-373.062366349302
 20
260.4038590376372
 30
0.0
 11
-348.2761955960291
 21
263.666971698638
 31
0.0
  0
LINE
  5
18A
330
1F
100
AcDbEntity
  8
0-4
  6
Continuous
 62
     7
370
     9
100
AcDbLine
 10
-373.062366349302
 20
260.4038590376372
 30
0.0
 11
-348.2761955960291
 21
257.1407463766365
 31
0.0
  0
LINE
  5
18B
330
1F
100
AcDbEntity
  8
0-4
  6
Continuous
 62
     7
370
     9
100
AcDbLine
 10
83.6039099123113
 20
260.4038590376372
 30
0.0
 11
58.81786287894984
 21
263.666971698638
 31
0.0
  0
LINE
  5
18C
330
1F
100
AcDbEntity
  8
0-4
  6
Continuous
 62
     7
370
     9
100
AcDbLine
 10
83.6039099123113
 20
260.4038590376372
 30
0.0
 11
58.81786287894984
 21
257.1407463766365
 31
0.0
  0
LINE
  5
18D
330
1F
100
AcDbEntity
  8
0-4
  6
Continuous
 62
     7
370
     9
100
AcDbLine
 10
-444.729104498584
 20
340.4038755336255
 30
0.0
 11
155.270895501416
 21
340.4038755336255
 31
0.0
  0
LINE
  5
18E
330
1F
100
AcDbEntity
  8
0-4
  6
Continuous
 62
     7
370
     9
100
AcDbLine
 10
-444.729104498584
 20
35.40373531772605
 30
0.0
 11
-444.729104498584
 21
343.4038359432539
 31
0.0
  0
LINE
  5
18F
330
1F
100
AcDbEntity
  8
0-4
  6
Continuous
 62
     7
370
     9
100
AcDbLine
 10
155.270895501416
 20
35.40373531772605
 30
0.0
 11
155.270895501416
 21
343.4038359432539
 31
0.0
  0
LINE
  5
190
330
1F
100
AcDbEntity
  8
0-4
  6
Continuous
 62
     7
370
     9
100
AcDbLine
 10
-444.729104498584
 20
340.4038755336255
 30
0.0
 11
-419.9429337453114
 21
343.6669881946262
 31
0.0
  0
LINE
  5
191
330
1F
100
AcDbEntity
  8
0-4
  6
Continuous
 62
     7
370
     9
100
AcDbLine
 10
-444.729104498584
 20
340.4038755336255
 30
0.0
 11
-419.9429337453114
 21
337.1407628726245
 31
0.0
  0
LINE
  5
192
330
1F
100
AcDbEntity
  8
0-4
  6
Continuous
 62
     7
370
     9
100
AcDbLine
 10
155.270895501416
 20
340.4038755336255
 30
0.0
 11
130.4848484680545
 21
343.6669881946262
 31
0.0
  0
LINE
  5
193
330
1F
100
AcDbEntity
  8
0-4
  6
Continuous
 62
     7
370
     9
100
AcDbLine
 10
155.270895501416
 20
340.4038755336255
 30
0.0
 11
130.4848484680545
 21
337.1407628726245
 31
0.0
  0
LINE
  5
194
330
1F
100
AcDbEntity
  8
0-4
  6
Continuous
 62
     7
370
     9
100
AcDbLine
 10
-478.0624653252309
 20
420.4038920296135
 30
0.0
 11
188.6042563280628
 21
420.4038920296135
 31
0.0
  0
LINE
  5
195
330
1F
100
AcDbEntity
  8
0-4
  6
Continuous
 62
     7
370
     9
100
AcDbLine
 10
-478.0624653252309
 20
15.88246539057213
 30
0.0
 11
-478.0624653252309
 21
423.4038524392419
 31
0.0
  0
LINE
  5
196
330
1F
100
AcDbEntity
  8
0-4
  6
Continuous
 62
     7
370
     9
100
AcDbLine
 10
188.6042563280628
 20
15.88246539057213
 30
0.0
 11
188.6042563280628
 21
423.4038524392419
 31
0.0
  0
LINE
  5
197
330
1F
100
AcDbEntity
  8
0-4
  6
Continuous
 62
     7
370
     9
100
AcDbLine
 10
-478.0624653252309
 20
420.4038920296135
 30
0.0
 11
-453.2762945719583
 21
423.6670046906146
 31
0.0
  0
LINE
  5
198
330
1F
100
AcDbEntity
  8
0-4
  6
Continuous
 62
     7
370
     9
100
AcDbLine
 10
-478.0624653252309
 20
420.4038920296135
 30
0.0
 11
-453.2762945719583
 21
417.1407793686127
 31
0.0
  0
LINE
  5
199
330
1F
100
AcDbEntity
  8
0-4
  6
Continuous
 62
     7
370
     9
100
AcDbLine
 10
188.6042563280628
 20
420.4038920296135
 30
0.0
 11
163.8182092947014
 21
423.6670046906146
 31
0.0
  0
LINE
  5
19A
330
1F
100
AcDbEntity
  8
0-4
  6
Continuous
 62
     7
370
     9
100
AcDbLine
 10
188.6042563280628
 20
420.4038920296135
 30
0.0
 11
163.8182092947014
 21
417.1407793686127
 31
0.0
  0
LINE
  5
19B
330
1F
100
AcDbEntity
  8
0-4
  6
Continuous
 62
     7
370
     9
100
AcDbLine
 10
288.6043388080037
 20
-205.7841490387986
 30
0.0
 11
288.6043388080037
 21
17.54909631593126
 31
0.0
  0
LINE
  5
19C
330
1F
100
AcDbEntity
  8
0-4
  6
Continuous
 62
     7
370
     9
100
AcDbLine
 10
-1.395628200019949
 20
-205.7841490387986
 30
0.0
 11
291.604299217632
 21
-205.7841490387986
 31
0.0
  0
LINE
  5
19D
330
1F
100
AcDbEntity
  8
0-4
  6
Continuous
 62
     7
370
     9
100
AcDbLine
 10
210.271076957286
 20
17.54909631593126
 30
0.0
 11
291.604299217632
 21
17.54909631593126
 31
0.0
  0
LINE
  5
19E
330
1F
100
AcDbEntity
  8
0-4
  6
Continuous
 62
     7
370
     9
100
AcDbLine
 10
288.6043388080037
 20
-205.7841490387986
 30
0.0
 11
285.3411024270918
 21
-180.9979782855258
 31
0.0
  0
LINE
  5
19F
330
1F
100
AcDbEntity
  8
0-4
  6
Continuous
 62
     7
370
     9
100
AcDbLine
 10
288.6043388080037
 20
-205.7841490387986
 30
0.0
 11
291.8675751889159
 21
-180.9979782855258
 31
0.0
  0
LINE
  5
1A0
330
1F
100
AcDbEntity
  8
0-4
  6
Continuous
 62
     7
370
     9
100
AcDbLine
 10
288.6043388080037
 20
17.54909631593126
 30
0.0
 11
285.3411024270918
 21
-7.237074437341668
 31
0.0
  0
LINE
  5
1A1
330
1F
100
AcDbEntity
  8
0-4
  6
Continuous
 62
     7
370
     9
100
AcDbLine
 10
288.6043388080037
 20
17.54909631593126
 30
0.0
 11
291.8675751889159
 21
-7.237074437341668
 31
0.0
  0
LINE
  5
1A2
330
1F
100
AcDbEntity
  8
0-4
  6
Continuous
 62
     7
370
     9
100
AcDbLine
 10
368.604355303992
 20
-249.1175428574219
 30
0.0
 11
368.604355303992
 21
17.54909631593126
 31
0.0
  0
LINE
  5
1A3
330
1F
100
AcDbEntity
  8
0-4
  6
Continuous
 62
     7
370
     9
100
AcDbLine
 10
213.6043388080037
 20
-249.1175428574219
 30
0.0
 11
371.6043157136204
 21
-249.1175428574219
 31
0.0
  0
LINE
  5
1A4
330
1F
100
AcDbEntity
  8
0-4
  6
Continuous
 62
     7
370
     9
100
AcDbLine
 10
210.271076957286
 20
17.54909631593126
 30
0.0
 11
371.6043157136204
 21
17.54909631593126
 31
0.0
  0
LINE
  5
1A5
330
1F
100
AcDbEntity
  8
0-4
  6
Continuous
 62
     7
370
     9
100
AcDbLine
 10
368.604355303992
 20
-249.1175428574219
 30
0.0
 11
365.3411189230798
 21
-224.3313721041492
 31
0.0
  0
LINE
  5
1A6
330
1F
100
AcDbEntity
  8
0-4
  6
Continuous
 62
     7
370
     9
100
AcDbLine
 10
368.604355303992
 20
-249.1175428574219
 30
0.0
 11
371.8675916849043
 21
-224.3313721041492
 31
0.0
  0
LINE
  5
1A7
330
1F
100
AcDbEntity
  8
0-4
  6
Continuous
 62
     7
370
     9
100
AcDbLine
 10
368.604355303992
 20
17.54909631593126
 30
0.0
 11
365.3411189230798
 21
-7.237074437341668
 31
0.0
  0
LINE
  5
1A8
330
1F
100
AcDbEntity
  8
0-4
  6
Continuous
 62
     7
370
     9
100
AcDbLine
 10
368.604355303992
 20
17.54909631593126
 30
0.0
 11
371.8675916849043
 21
-7.237074437341668
 31
0.0
  0
LINE
  5
1A9
330
1F
100
AcDbEntity
  8
0-4
  6
Continuous
 62
     7
370
     9
100
AcDbLine
 10
368.604355303992
 20
17.54909631593126
 30
0.0
 11
368.604355303992
 21
160.4039002776078
 31
0.0
  0
LINE
  5
1AA
330
1F
100
AcDbEntity
  8
0-4
  6
Continuous
 62
     7
370
     9
100
AcDbLine
 10
368.604355303992
 20
17.54909631593126
 30
0.0
 11
365.3411189230798
 21
42.3352670692039
 31
0.0
  0
LINE
  5
1AB
330
1F
100
AcDbEntity
  8
0-4
  6
Continuous
 62
     7
370
     9
100
AcDbLine
 10
368.604355303992
 20
17.54909631593126
 30
0.0
 11
371.8675916849043
 21
42.3352670692039
 31
0.0
  0
LINE
  5
1AC
330
1F
100
AcDbEntity
  8
0-4
  6
Continuous
 62
     7
370
     9
100
AcDbLine
 10
368.604355303992
 20
160.4039002776078
 30
0.0
 11
365.3411189230798
 21
135.6177295243349
 31
0.0
  0
LINE
  5
1AD
330
1F
100
AcDbEntity
  8
0-4
  6
Continuous
 62
     7
370
     9
100
AcDbLine
 10
368.604355303992
 20
160.4039002776078
 30
0.0
 11
371.8675916849043
 21
135.6177295243349
 31
0.0
  0
LINE
  5
1AE
330
1F
100
AcDbEntity
  8
0-4
  6
Continuous
 62
     7
370
     9
100
AcDbLine
 10
-578.0624240852605
 20
10.40390027760782
 30
0.0
 11
-578.0624240852605
 21
160.4039002776078
 31
0.0
  0
LINE
  5
1AF
330
1F
100
AcDbEntity
  8
0-4
  6
Continuous
 62
     7
370
     9
100
AcDbLine
 10
-391.9470973327267
 20
10.40390027760782
 30
0.0
 11
-581.0623844948889
 21
10.40390027760782
 31
0.0
  0
LINE
  5
1B0
330
1F
100
AcDbEntity
  8
0-4
  6
Continuous
 62
     7
370
     9
100
AcDbLine
 10
-578.0624240852605
 20
10.40390027760782
 30
0.0
 11
-581.3255367462613
 21
35.19007103088047
 31
0.0
  0
LINE
  5
1B1
330
1F
100
AcDbEntity
  8
0-4
  6
Continuous
 62
     7
370
     9
100
AcDbLine
 10
-578.0624240852605
 20
10.40390027760782
 30
0.0
 11
-574.7993114242598
 21
35.19007103088047
 31
0.0
  0
LINE
  5
1B2
330
1F
100
AcDbEntity
  8
0-4
  6
Continuous
 62
     7
370
     9
100
AcDbLine
 10
-578.0624240852605
 20
160.4039002776078
 30
0.0
 11
-581.3255367462613
 21
135.6177295243349
 31
0.0
  0
LINE
  5
1B3
330
1F
100
AcDbEntity
  8
0-4
  6
Continuous
 62
     7
370
     9
100
AcDbLine
 10
-578.0624240852605
 20
160.4039002776078
 30
0.0
 11
-574.7993114242598
 21
135.6177295243349
 31
0.0
  0
LINE
  5
1B4
330
1F
100
AcDbEntity
  8
0-4
  6
Continuous
 62
     7
370
     9
100
AcDbLine
 10
-263.0624983172074
 20
-375.7842768827069
 30
0.0
 11
-26.39571067996055
 21
-375.7842768827069
 31
0.0
  0
LINE
  5
1B5
330
1F
100
AcDbEntity
  8
0-4
  6
Continuous
 62
     7
370
     9
100
AcDbLine
 10
-263.0624983172074
 20
-230.7841077988281
 30
0.0
 11
-263.0624983172074
 21
-378.7842372923353
 31
0.0
  0
LINE
  5
1B6
330
1F
100
AcDbEntity
  8
0-4
  6
Continuous
 62
     7
370
     9
100
AcDbLine
 10
-26.39571067996055
 20
-230.7841077988281
 30
0.0
 11
-26.39571067996055
 21
-378.7842372923353
 31
0.0
  0
LINE
  5
1B7
330
1F
100
AcDbEntity
  8
0-4
  6
Continuous
 62
     7
370
     9
100
AcDbLine
 10
-263.0624983172074
 20
-375.7842768827069
 30
0.0
 11
-238.2763275639345
 21
-372.5210405017947
 31
0.0
  0
LINE
  5
1B8
330
1F
100
AcDbEntity
  8
0-4
  6
Continuous
 62
     7
370
     9
100
AcDbLine
 10
-263.0624983172074
 20
-375.7842768827069
 30
0.0
 11
-238.2763275639345
 21
-379.0473895437077
 31
0.0
  0
LINE
  5
1B9
330
1F
100
AcDbEntity
  8
0-4
  6
Continuous
 62
     7
370
     9
100
AcDbLine
 10
-26.39571067996055
 20
-375.7842768827069
 30
0.0
 11
-51.18188143323348
 21
-372.5210405017947
 31
0.0
  0
LINE
  5
1BA
330
1F
100
AcDbEntity
  8
0-4
  6
Continuous
 62
     7
370
     9
100
AcDbLine
 10
-26.39571067996055
 20
-375.7842768827069
 30
0.0
 11
-51.18188143323348
 21
-379.0473895437077
 31
0.0
  0
LINE
  5
1BB
330
1F
100
AcDbEntity
  8
0-4
  6
Continuous
 62
     7
370
     9
100
AcDbLine
 10
-273.0624075892723
 20
-455.7842933786952
 30
0.0
 11
-16.39567768798425
 21
-455.7842933786952
 31
0.0
  0
LINE
  5
1BC
330
1F
100
AcDbEntity
  8
0-4
  6
Continuous
 62
     7
370
     9
100
AcDbLine
 10
-273.0624075892723
 20
-90.78414079080449
 30
0.0
 11
-273.0624075892723
 21
-458.7842537883233
 31
0.0
  0
LINE
  5
1BD
330
1F
100
AcDbEntity
  8
0-4
  6
Continuous
 62
     7
370
     9
100
AcDbLine
 10
-16.39567768798425
 20
-90.78414079080449
 30
0.0
 11
-16.39567768798425
 21
-458.7842537883233
 31
0.0
  0
LINE
  5
1BE
330
1F
100
AcDbEntity
  8
0-4
  6
Continuous
 62
     7
370
     9
100
AcDbLine
 10
-273.0624075892723
 20
-455.7842933786952
 30
0.0
 11
-248.2762368359996
 21
-452.521056997783
 31
0.0
  0
LINE
  5
1BF
330
1F
100
AcDbEntity
  8
0-4
  6
Continuous
 62
     7
370
     9
100
AcDbLine
 10
-273.0624075892723
 20
-455.7842933786952
 30
0.0
 11
-248.2762368359996
 21
-459.047406039696
 31
0.0
  0
LINE
  5
1C0
330
1F
100
AcDbEntity
  8
0-4
  6
Continuous
 62
     7
370
     9
100
AcDbLine
 10
-16.39567768798425
 20
-455.7842933786952
 30
0.0
 11
-41.18184844125718
 21
-452.521056997783
 31
0.0
  0
LINE
  5
1C1
330
1F
100
AcDbEntity
  8
0-4
  6
Continuous
 62
     7
370
     9
100
AcDbLine
 10
-16.39567768798425
 20
-455.7842933786952
 30
0.0
 11
-41.18184844125718
 21
-459.047406039696
 31
0.0
  0
LINE
  5
1C2
330
1F
100
AcDbEntity
  8
0-4
  6
Continuous
 62
     7
370
     9
100
AcDbLine
 10
-478.0623416053197
 20
-535.7843098746832
 30
0.0
 11
188.6042563280628
 21
-535.7843098746832
 31
0.0
  0
LINE
  5
1C3
330
1F
100
AcDbEntity
  8
0-4
  6
Continuous
 62
     7
370
     9
100
AcDbLine
 10
-478.0623416053197
 20
-274.1177490572742
 30
0.0
 11
-478.0623416053197
 21
-538.7842702843118
 31
0.0
  0
LINE
  5
1C4
330
1F
100
AcDbEntity
  8
0-4
  6
Continuous
 62
     7
370
     9
100
AcDbLine
 10
188.6042563280628
 20
-274.1175016174515
 30
0.0
 11
188.6042563280628
 21
-538.7842702843118
 31
0.0
  0
LINE
  5
1C5
330
1F
100
AcDbEntity
  8
0-4
  6
Continuous
 62
     7
370
     9
100
AcDbLine
 10
-478.0623416053197
 20
-535.7843098746832
 30
0.0
 11
-453.2761708520468
 21
-532.5210734937712
 31
0.0
  0
LINE
  5
1C6
330
1F
100
AcDbEntity
  8
0-4
  6
Continuous
 62
     7
370
     9
100
AcDbLine
 10
-478.0623416053197
 20
-535.7843098746832
 30
0.0
 11
-453.2761708520468
 21
-539.0474225356842
 31
0.0
  0
LINE
  5
1C7
330
1F
100
AcDbEntity
  8
0-4
  6
Continuous
 62
     7
370
     9
100
AcDbLine
 10
188.6042563280628
 20
-535.7843098746832
 30
0.0
 11
163.8182092947014
 21
-532.5210734937712
 31
0.0
  0
LINE
  5
1C8
330
1F
100
AcDbEntity
  8
0-4
  6
Continuous
 62
     7
370
     9
100
AcDbLine
 10
188.6042563280628
 20
-535.7843098746832
 30
0.0
 11
163.8182092947014
 21
-539.0474225356842
 31
0.0
  0
LINE
  5
1C9
330
1F
100
AcDbEntity
  8
0-0
  6
Continuous
 62
     7
370
     9
100
AcDbLine
 10
-394.7290632586137
 20
-169.7957589152766
 30
0.0
 11
-348.0624075892723
 21
-161.5670238936339
 31
0.0
  0
LINE
  5
1CA
330
1F
100
AcDbEntity
  8
0-0
  6
Continuous
 62
     7
370
     9
100
AcDbLine
 10
-394.7290632586137
 20
-183.3346762505807
 30
0.0
 11
-348.0624075892723
 21
-175.1060649488493
 31
0.0
  0
LINE
  5
1CB
330
1F
100
AcDbEntity
  8
0-0
  6
Continuous
 62
     4
370
     9
100
AcDbLine
 10
-384.7291539865486
 20
-51.37254444103679
 30
0.0
 11
-384.7291539865486
 21
-168.0325027391787
 31
0.0
  0
LINE
  5
1CC
330
1F
100
AcDbEntity
  8
0-0
  6
Continuous
 62
     4
370
     9
100
AcDbLine
 10
-384.7291539865486
 20
-181.5714200744827
 30
0.0
 11
-384.7291539865486
 21
-275.7841325428104
 31
0.0
  0
LINE
  5
1CD
330
1F
100
AcDbEntity
  8
0-0
  6
Continuous
 62
     4
370
     9
100
AcDbLine
 10
-358.0624405812486
 20
-51.37254444103679
 30
0.0
 11
-358.0624405812486
 21
-163.330280069732
 31
0.0
  0
LINE
  5
1CE
330
1F
100
AcDbEntity
  8
0-0
  6
Continuous
 62
     4
370
     9
100
AcDbLine
 10
-358.0624405812486
 20
-176.8693211249473
 30
0.0
 11
-358.0624405812486
 21
-275.7841325428104
 31
0.0
  0
LINE
  5
1CF
330
1F
100
AcDbEntity
  8
0-0
  6
Continuous
 62
     4
370
     9
100
AcDbLine
 10
-382.4741111629632
 20
-275.7841325428104
 30
0.0
 11
-382.4741111629632
 21
-181.1737842795081
 31
0.0
  0
LINE
  5
1D0
330
1F
100
AcDbEntity
  8
0-0
  6
Continuous
 62
     4
370
     9
100
AcDbLine
 10
-382.4741111629632
 20
-167.634866944204
 30
0.0
 11
-382.4741111629632
 21
-49.11762533736283
 31
0.0
  0
LINE
  5
1D1
330
1F
100
AcDbEntity
  8
0-0
  6
Continuous
 62
     4
370
     9
100
AcDbLine
 10
-360.3173596849228
 20
-49.11762533736283
 30
0.0
 11
-360.3173596849228
 21
-163.7279158647066
 31
0.0
  0
LINE
  5
1D2
330
1F
100
AcDbEntity
  8
0-0
  6
Continuous
 62
     4
370
     9
100
AcDbLine
 10
-360.3173596849228
 20
-177.2669569199219
 30
0.0
 11
-360.3173596849228
 21
-275.7841325428104
 31
0.0
  0
LINE
  5
1D3
330
1F
100
AcDbEntity
  8
0-E
  6
Continuous
 62
     7
370
     9
100
AcDbLine
 10
100.2709614853686
 20
30.40384254164895
 30
0.0
 11
109.8379747877334
 21
53.50086534570313
 31
0.0
  0
LINE
  5
1D4
330
1F
100
AcDbEntity
  8
0-E
  6
Continuous
 62
     7
370
     9
100
AcDbLine
 10
100.2709614853686
 20
30.40384254164895
 30
0.0
 11
115.4899952163652
 21
50.23762896479088
 31
0.0
  0
LINE
  5
1D5
330
1F
100
AcDbEntity
  8
0-E
  6
Continuous
 62
     7
370
     9
100
AcDbLine
 10
73.83473827485348
 20
45.91633990229088
 30
0.0
 11
83.40175157721832
 21
69.01336270634505
 31
0.0
  0
LINE
  5
1D6
330
1F
100
AcDbEntity
  8
0-E
  6
Continuous
 62
     7
370
     9
100
AcDbLine
 10
73.83473827485348
 20
45.91633990229088
 30
0.0
 11
89.05377200585009
 21
65.7501263254328
 31
0.0
  0
LINE
  5
1D7
330
1F
100
AcDbEntity
  8
0-E
  6
Continuous
 62
     7
370
     9
100
AcDbLine
 10
2.745524671601949
 20
144.4059259849557
 30
0.0
 11
12.31253797396677
 21
167.5029487890096
 31
0.0
  0
LINE
  5
1D8
330
1F
100
AcDbEntity
  8
0-E
  6
Continuous
 62
     7
370
     9
100
AcDbLine
 10
2.745524671601949
 20
144.4059259849557
 30
0.0
 11
17.96455840259854
 21
164.2397124080976
 31
0.0
  0
LINE
  5
1D9
330
1F
100
AcDbEntity
  8
0-4
  6
Continuous
 62
     7
370
     9
100
AcDbLine
 10
-242.1339143988163
 20
160.4039002776078
 30
0.0
 11
-581.0623844948889
 21
160.4039002776078
 31
0.0
  0
LINE
  5
1DA
330
1F
100
AcDbEntity
  8
0-4
  6
Continuous
 62
     7
370
     9
100
AcDbLine
 10
-46.26005592119807
 20
160.4039002776078
 30
0.0
 11
0.5658272740089743
 21
160.4039002776078
 31
0.0
  0
LINE
  5
1DB
330
1F
100
AcDbEntity
  8
0-4
  6
Continuous
 62
     7
370
     9
100
AcDbLine
 10
22.68669997776728
 20
160.4039002776078
 30
0.0
 11
371.6043157136204
 21
160.4039002776078
 31
0.0
  0
LINE
  5
1DC
330
1F
100
AcDbEntity
  8
0-E
  6
Continuous
 62
     7
370
     9
100
AcDbLine
 10
183.8670209237134
 20
-261.7812655400656
 30
0.0
 11
199.08605465471
 21
-281.6150519632073
 31
0.0
  0
LINE
  5
1DD
330
1F
100
AcDbEntity
  8
0-E
  6
Continuous
 62
     7
370
     9
100
AcDbLine
 10
183.8670209237134
 20
-261.7812655400656
 30
0.0
 11
193.4340342260782
 21
-284.8781646242083
 31
0.0
  0
LINE
  5
1DE
330
1F
100
AcDbEntity
  8
0-E
  6
Continuous
 62
     7
370
     9
100
AcDbLine
 10
-474.7290797546017
 20
-12.45087894008645
 30
0.0
 11
-484.2962167768781
 21
-35.5479017441407
 31
0.0
  0
LINE
  5
1DF
330
1F
100
AcDbEntity
  8
0-E
  6
Continuous
 62
     7
370
     9
100
AcDbLine
 10
-474.7290797546017
 20
-12.45087894008645
 30
0.0
 11
-489.9481134855984
 21
-32.28466536322845
 31
0.0
  0
LINE
  5
1E0
330
1F
100
AcDbEntity
  8
0-E
  6
Continuous
 62
     7
370
     9
100
AcDbLine
 10
-299.1408328162572
 20
85.88232517467264
 30
0.0
 11
-314.3598665472538
 21
105.7161115978146
 31
0.0
  0
LINE
  5
1E1
330
1F
100
AcDbEntity
  8
0-E
  6
Continuous
 62
     7
370
     9
100
AcDbLine
 10
-299.1408328162572
 20
85.88232517467264
 30
0.0
 11
-308.7079698385332
 21
108.9793479787268
 31
0.0
  0
LINE
  5
1E2
330
1F
100
AcDbEntity
  8
0-E
  6
Continuous
 62
     7
370
     9
100
AcDbLine
 10
2.745524671601949
 20
144.4059259849557
 30
0.0
 11
65.27703200901728
 21
252.7136767899599
 31
0.0
  0
LINE
  5
1E3
330
1F
100
AcDbEntity
  8
0-E
  6
Continuous
 62
     7
370
     9
100
AcDbLine
 10
77.15587557426234
 20
273.2881743221601
 30
0.0
 11
158.620983260073
 21
414.3899908603778
 31
0.0
  0
LINE
  5
1E4
330
1F
100
AcDbEntity
  8
0-E
  6
Continuous
 62
     7
370
     9
100
AcDbLine
 10
100.2709614853686
 20
30.40384254164895
 30
0.0
 11
233.0615218210951
 21
260.4038590376372
 31
0.0
  0
LINE
  5
1E5
330
1F
100
AcDbEntity
  8
0-E
  6
Continuous
 62
     7
370
     9
100
AcDbLine
 10
170.1934963248956
 20
434.434224852671
 30
0.0
 11
208.2811659036543
 21
500.4039085256018
 31
0.0
  0
LINE
  5
1E6
330
1F
100
AcDbEntity
  8
0-E
  6
Continuous
 62
     7
370
     9
100
AcDbLine
 10
73.83473827485348
 20
45.91633990229088
 30
0.0
 11
266.9511273690259
 21
380.4038837816195
 31
0.0
  0
LINE
  5
1E7
330
1F
100
AcDbEntity
  8
0-E
  6
Continuous
 62
     7
370
     9
100
AcDbLine
 10
-299.1408328162572
 20
85.88232517467264
 30
0.0
 11
-538.4650004286939
 21
500.4039085256018
 31
0.0
  0
LINE
  5
1E8
330
1F
100
AcDbEntity
  8
0-E
  6
Continuous
 62
     7
370
     9
100
AcDbLine
 10
-538.4650004286939
 20
500.4039085256018
 30
0.0
 11
-864.322709333888
 21
500.4039085256018
 31
0.0
  0
LINE
  5
1E9
330
1F
100
AcDbEntity
  8
0-E
  6
Continuous
 62
     7
370
     9
100
AcDbLine
 10
183.8670209237134
 20
-261.7812655400656
 30
0.0
 11
249.6867560641272
 21
-375.7842768827069
 31
0.0
  0
LINE
  5
1EA
330
1F
100
AcDbEntity
  8
0-E
  6
Continuous
 62
     7
370
     9
100
AcDbLine
 10
-474.7290797546017
 20
-12.45087894008645
 30
0.0
 11
-532.4640898501466
 21
-112.4508377001162
 31
0.0
  0
LINE
  5
1EB
330
1F
100
AcDbEntity
  8
0-E
  6
Continuous
 62
     7
370
     9
100
AcDbLine
 10
266.9511273690259
 20
380.4038837816195
 30
0.0
 11
616.3042371927168
 21
380.4038837816195
 31
0.0
  0
LINE
  5
1EC
330
1F
100
AcDbEntity
  8
0-E
  6
Continuous
 62
     7
370
     9
100
AcDbLine
 10
233.0615218210951
 20
260.4038590376372
 30
0.0
 11
616.0996044593975
 21
260.4038590376372
 31
0.0
  0
LINE
  5
1ED
330
1F
100
AcDbEntity
  8
0-E
  6
Continuous
 62
     7
370
     9
100
AcDbLine
 10
249.6867560641272
 20
-375.7842768827069
 30
0.0
 11
633.5005625463907
 21
-375.7842768827069
 31
0.0
  0
LINE
  5
1EE
330
1F
100
AcDbEntity
  8
0-E
  6
Continuous
 62
     7
370
     9
100
AcDbLine
 10
-819.1176806968529
 20
-112.4508377001162
 30
0.0
 11
-532.4640898501466
 21
-112.4508377001162
 31
0.0
  0
LINE
  5
1EF
330
1F
100
AcDbEntity
  8
0-E
  6
Continuous
 62
     7
370
     9
100
AcDbLine
 10
-382.4741111629632
 20
-315.7842645107158
 30
0.0
 11
-392.0412481852395
 21
-338.88128731477
 31
0.0
  0
LINE
  5
1F0
330
1F
100
AcDbEntity
  8
0-E
  6
Continuous
 62
     7
370
     9
100
AcDbLine
 10
-382.4741111629632
 20
-315.7842645107158
 30
0.0
 11
-397.6931448939598
 21
-335.6181746537691
 31
0.0
  0
LINE
  5
1F1
330
1F
100
AcDbEntity
  8
0-E
  6
Continuous
 62
     7
370
     9
100
AcDbLine
 10
-382.4741111629632
 20
-315.7842645107158
 30
0.0
 11
-509.4911581171439
 21
-535.7843098746832
 31
0.0
  0
LINE
  5
1F2
330
1F
100
AcDbEntity
  8
0-E
  6
Continuous
 62
     7
370
     9
100
AcDbLine
 10
-509.4911581171439
 20
-535.7843098746832
 30
0.0
 11
-838.5269841042639
 21
-535.7843098746832
 31
0.0
  0
ARC
  5
1F3
330
1F
100
AcDbEntity
  8
0-0
  6
Continuous
 62
     3
370
     9
100
AcDbCircle
 10
-144.729104498584
 20
871.4358398099135
 30
0.0
 40
330.0000061859956
100
AcDbArc
 50
0.0
 51
180.0
  0
ARC
  5
1F4
330
1F
100
AcDbEntity
  8
0-0
  6
Continuous
 62
     3
370
     9
100
AcDbCircle
 10
-144.729104498584
 20
871.4358398099135
 30
0.0
 40
333.3333298966692
100
AcDbArc
 50
0.0
 51
180.0
  0
ARC
  5
1F5
330
1F
100
AcDbEntity
  8
0-0
  6
Continuous
 62
     3
370
     9
100
AcDbCircle
 10
-426.5081308393781
 20
7.678226911370309
 30
0.0
 40
5.416716272766527
100
AcDbArc
 50
187.6205902099609
 51
322.3796997070312
  0
ARC
  5
1F6
330
1F
100
AcDbEntity
  8
0-0
  6
Continuous
 62
     3
370
     9
100
AcDbCircle
 10
-407.1895141269624
 20
2.501785821843221
 30
0.0
 40
5.416716272766527
100
AcDbArc
 50
187.6205902099609
 51
322.3796997070312
  0
ARC
  5
1F7
330
1F
100
AcDbEntity
  8
0-0
  6
Continuous
 62
     3
370
     9
100
AcDbCircle
 10
-396.0923329614218
 20
-6.079427227143235
 30
0.0
 40
3.333333376291636
100
AcDbArc
 50
11.56538391113281
 51
75.00050354003908
  0
ARC
  5
1F8
330
1F
100
AcDbEntity
  8
0-0
  6
Continuous
 62
     3
370
     9
100
AcDbCircle
 10
-388.1455556176718
 20
-11.65944266738801
 30
0.0
 40
3.333333376291636
100
AcDbArc
 50
191.5664215087891
 51
255.000503540039
  0
ARC
  5
1F9
330
1F
100
AcDbEntity
  8
0-0
  6
Continuous
 62
     3
370
     9
100
AcDbCircle
 10
-369.5873214802143
 20
-16.63224078288646
 30
0.0
 40
3.333333376291636
100
AcDbArc
 50
255.0005035400391
 51
318.4357757568359
  0
ARC
  5
1FA
330
1F
100
AcDbEntity
  8
0-0
  6
Continuous
 62
     3
370
     9
100
AcDbCircle
 10
-359.9151462532294
 20
-15.77312971869713
 30
0.0
 40
3.333333376291636
100
AcDbArc
 50
75.00077819824219
 51
138.4349822998047
  0
ARC
  5
1FB
330
1F
100
AcDbEntity
  8
0-0
  6
Continuous
 62
     3
370
     9
100
AcDbCircle
 10
-398.1297524609997
 20
-21.06240336734583
 30
0.0
 40
5.000000064437453
100
AcDbArc
 50
191.5660095214844
 51
254.9999084472656
  0
ARC
  5
1FC
330
1F
100
AcDbEntity
  8
0-0
  6
JWW_DASHED1
 62
     3
370
     9
100
AcDbCircle
 10
-365.6420172282083
 20
-29.76758376747274
 30
0.0
 40
5.000000064437453
100
AcDbArc
 50
254.9999084472656
 51
318.4350433349609
  0
ARC
  5
1FD
330
1F
100
AcDbEntity
  8
0-0
  6
JWW_DASHED1
 62
     3
370
     9
100
AcDbCircle
 10
-354.2790856931575
 20
-34.53772866823261
 30
0.0
 40
6.666666752583272
100
AcDbArc
 50
75.00050354003906
 51
138.4350738525391
  0
ARC
  5
1FE
330
1F
100
AcDbEntity
  8
0-0
  6
Continuous
 62
     3
370
     9
100
AcDbCircle
 10
-410.3555066575791
 20
-19.51194543871406
 30
0.0
 40
6.666666752583272
100
AcDbArc
 50
11.56517028808594
 51
75.00050354003906
  0
ARC
  5
1FF
330
1F
100
AcDbEntity
  8
0-0
  6
JWW_DASHED1
 62
     3
370
     9
100
AcDbCircle
 10
-332.1642752650536
 20
-59.11765832933913
 30
0.0
 40
6.666666752583272
100
AcDbArc
 50
186.999984741211
 51
270.0
  0
ARC
  5
200
330
1F
100
AcDbEntity
  8
0-0
  6
JWW_DASHED1
 62
     3
370
     9
100
AcDbCircle
 10
-351.4576531155603
 20
-38.74470053267533
 30
0.0
 40
10.00000012887491
100
AcDbArc
 50
7.000076293945312
 51
74.99981689453126
  0
ARC
  5
201
330
1F
100
AcDbEntity
  8
0-0
  6
Continuous
 62
     3
370
     9
100
AcDbCircle
 10
-346.0141007374986
 20
-13.89011266844374
 30
0.0
 40
5.416716272766527
100
AcDbArc
 50
187.6191101074219
 51
322.3802185058594
  0
ARC
  5
202
330
1F
100
AcDbEntity
  8
0-0
  6
JWW_DASHED1
 62
     3
370
     9
100
AcDbCircle
 10
-317.9135972799395
 20
-38.42203900395919
 30
0.0
 40
10.00000012887491
100
AcDbArc
 50
187.0000762939453
 51
266.0001831054688
  0
ARC
  5
203
330
1F
100
AcDbEntity
  8
0-0
  6
Continuous
 62
     3
370
     9
100
AcDbCircle
 10
-282.3735681150324
 20
-75.78421502275137
 30
0.0
 40
10.00000012887491
100
AcDbArc
 50
4.085464477539062
 51
90.0
  0
ARC
  5
204
330
1F
100
AcDbEntity
  8
0-0
  6
Continuous
 62
     3
370
     9
100
AcDbCircle
 10
137.0496744023874
 20
7.678226911370309
 30
0.0
 40
5.416716272766527
100
AcDbArc
 50
217.6203002929688
 51
352.3794097900391
  0
ARC
  5
205
330
1F
100
AcDbEntity
  8
0-0
  6
Continuous
 62
     3
370
     9
100
AcDbCircle
 10
117.7313051297944
 20
2.501785821843221
 30
0.0
 40
5.416716272766527
100
AcDbArc
 50
217.6203002929688
 51
352.3794097900391
  0
ARC
  5
206
330
1F
100
AcDbEntity
  8
0-0
  6
Continuous
 62
     3
370
     9
100
AcDbCircle
 10
106.6341239642537
 20
-6.079427227143235
 30
0.0
 40
3.333333376291636
100
AcDbArc
 50
104.9994964599609
 51
168.4346160888672
  0
ARC
  5
207
330
1F
100
AcDbEntity
  8
0-0
  6
Continuous
 62
     3
370
     9
100
AcDbCircle
 10
98.68734662050373
 20
-11.65944266738801
 30
0.0
 40
3.333333376291636
100
AcDbArc
 50
284.9994964599609
 51
348.4335784912109
  0
ARC
  5
208
330
1F
100
AcDbEntity
  8
0-0
  6
Continuous
 62
     3
370
     9
100
AcDbCircle
 10
80.12911248304592
 20
-16.63224078288646
 30
0.0
 40
3.333333376291636
100
AcDbArc
 50
221.5642242431641
 51
284.9994964599609
  0
ARC
  5
209
330
1F
100
AcDbEntity
  8
0-0
  6
Continuous
 62
     3
370
     9
100
AcDbCircle
 10
70.4569372560613
 20
-15.77312971869713
 30
0.0
 40
3.333333376291636
100
AcDbArc
 50
41.56500244140625
 51
104.9992218017578
  0
ARC
  5
20A
330
1F
100
AcDbEntity
  8
0-0
  6
Continuous
 62
     3
370
     9
100
AcDbCircle
 10
108.6715434638316
 20
-21.06240336734583
 30
0.0
 40
5.000000064437453
100
AcDbArc
 50
285.0000915527344
 51
348.4339904785156
  0
ARC
  5
20B
330
1F
100
AcDbEntity
  8
0-0
  6
JWW_DASHED1
 62
     3
370
     9
100
AcDbCircle
 10
76.18368451112873
 20
-29.76758376747274
 30
0.0
 40
5.000000064437453
100
AcDbArc
 50
221.5649566650391
 51
285.0000915527344
  0
ARC
  5
20C
330
1F
100
AcDbEntity
  8
0-0
  6
JWW_DASHED1
 62
     3
370
     9
100
AcDbCircle
 10
64.82075297607823
 20
-34.53772866823261
 30
0.0
 40
6.666666752583272
100
AcDbArc
 50
41.56492614746094
 51
104.9994964599609
  0
ARC
  5
20D
330
1F
100
AcDbEntity
  8
0-0
  6
Continuous
 62
     3
370
     9
100
AcDbCircle
 10
120.897297660411
 20
-19.51194543871406
 30
0.0
 40
6.666666752583272
100
AcDbArc
 50
104.9994964599609
 51
168.4348297119141
  0
ARC
  5
20E
330
1F
100
AcDbEntity
  8
0-0
  6
JWW_DASHED1
 62
     3
370
     9
100
AcDbCircle
 10
42.7060662678855
 20
-59.11765832933913
 30
0.0
 40
6.666666752583272
100
AcDbArc
 50
270.0
 51
353.0000152587891
  0
ARC
  5
20F
330
1F
100
AcDbEntity
  8
0-0
  6
JWW_DASHED1
 62
     3
370
     9
100
AcDbCircle
 10
61.99944411839228
 20
-38.74470053267533
 30
0.0
 40
10.00000012887491
100
AcDbArc
 50
105.0001831054688
 51
172.9999237060547
  0
ARC
  5
210
330
1F
100
AcDbEntity
  8
0-0
  6
Continuous
 62
     3
370
     9
100
AcDbCircle
 10
56.55576802041936
 20
-13.89011266844374
 30
0.0
 40
5.416716272766527
100
AcDbArc
 50
217.6197814941406
 51
352.3808898925781
  0
ARC
  5
211
330
1F
100
AcDbEntity
  8
0-0
  6
Continuous
 62
     3
370
     9
100
AcDbCircle
 10
49.86153105884854
 20
-28.19337161586777
 30
0.0
 40
10.00000012887491
100
AcDbArc
 50
105.0001831054688
 51
172.9999237060547
  0
ARC
  5
212
330
1F
100
AcDbEntity
  8
0-0
  6
Continuous
 62
     3
370
     9
100
AcDbCircle
 10
28.45551200268291
 20
-38.42203900395919
 30
0.0
 40
10.00000012887491
100
AcDbArc
 50
273.9998168945312
 51
352.9999237060547
  0
ARC
  5
213
330
1F
100
AcDbEntity
  8
0-0
  6
Continuous
 62
     3
370
     9
100
AcDbCircle
 10
-7.084764602046754
 20
-75.78421502275137
 30
0.0
 40
10.00000012887491
100
AcDbArc
 50
90.0
 51
175.9145355224609
  0
ARC
  5
214
330
1F
100
AcDbEntity
  8
0-0
  6
Continuous
 62
     3
370
     9
100
AcDbCircle
 10
-6.979602677426975
 20
-74.31466991612115
 30
0.0
 40
23.33333363404144
100
AcDbArc
 50
94.00001525878905
 51
175.91455078125
  0
ARC
  5
215
330
1F
100
AcDbEntity
  8
0-0
  6
Continuous
 62
     3
370
     9
100
AcDbCircle
 10
-399.2885131503999
 20
-31.10474856899277
 30
0.0
 40
5.000000064437453
100
AcDbArc
 50
6.87408447265625
 51
74.99971008300781
  0
ARC
  5
216
330
1F
100
AcDbEntity
  8
0-0
  6
Continuous
 62
     3
370
     9
100
AcDbCircle
 10
-345.4948482696989
 20
-77.45096966802168
 30
0.0
 40
5.000000064437453
100
AcDbArc
 50
270.0
 51
348.6897888183594
  0
ARC
  5
217
330
1F
100
AcDbEntity
  8
0-0
  6
Continuous
 62
     3
370
     9
100
AcDbCircle
 10
-335.3297729160249
 20
-69.11744388149276
 30
0.0
 40
3.333333376291636
100
AcDbArc
 50
90.0
 51
168.6900634765625
  0
ARC
  5
218
330
1F
100
AcDbEntity
  8
0-0
  6
Continuous
 62
     3
370
     9
100
AcDbCircle
 10
-321.4451821484997
 20
-24.11754285742195
 30
0.0
 40
8.33333344072909
100
AcDbArc
 50
192.8451232910156
 51
270.0
  0
ARC
  5
219
330
1F
100
AcDbEntity
  8
0-0
  6
Continuous
 62
     3
370
     9
100
AcDbCircle
 10
-316.3955539680731
 20
-24.11754285742195
 30
0.0
 40
8.33333344072909
100
AcDbArc
 50
270.0
 51
336.4218139648438
  0
ARC
  5
21A
330
1F
100
AcDbEntity
  8
0-0
  6
Continuous
 62
     3
370
     9
100
AcDbCircle
 10
-272.2394227391879
 20
-32.45106864395058
 30
0.0
 40
5.000000064437453
100
AcDbArc
 50
10.25082397460938
 51
90.0
  0
ARC
  5
21B
330
1F
100
AcDbEntity
  8
0-0
  6
Continuous
 62
     3
370
     9
100
AcDbCircle
 10
-282.478606319741
 20
-74.31466991612115
 30
0.0
 40
23.33333363404144
100
AcDbArc
 50
4.08544921875
 51
25.37181091308594
  0
ARC
  5
21C
330
1F
100
AcDbEntity
  8
0-0
  6
JWW_DASHED1
 62
     3
370
     9
100
AcDbCircle
 10
-282.478606319741
 20
-74.31466991612115
 30
0.0
 40
23.33333363404144
100
AcDbArc
 50
25.37181091308594
 51
85.99998474121094
  0
ARC
  5
21D
330
1F
100
AcDbEntity
  8
0-0
  6
JWW_DASHED1
 62
     3
370
     9
100
AcDbCircle
 10
-339.3197400560166
 20
-28.19337161586777
 30
0.0
 40
10.00000012887491
100
AcDbArc
 50
7.000076293945312
 51
12.84489440917969
  0
ARC
  5
21E
330
1F
100
AcDbEntity
  8
0-0
  6
Continuous
 62
     3
370
     9
100
AcDbCircle
 10
-339.3197400560166
 20
-28.19337161586777
 30
0.0
 40
10.00000012887491
100
AcDbArc
 50
12.84489440917969
 51
74.99981689453125
  0
ARC
  5
21F
330
1F
100
AcDbEntity
  8
0-1
  6
Continuous
 62
     2
370
     9
100
AcDbCircle
 10
-368.9495453373721
 20
9.07898374730781
 30
0.0
 40
6.666666752583272
100
AcDbArc
 50
190.6148834228516
 51
255.0005035400391
  0
ARC
  5
220
330
1F
100
AcDbEntity
  8
0-1
  6
JWW_DASHED1
 62
     2
370
     9
100
AcDbCircle
 10
79.49146006011519
 20
9.07898374730781
 30
0.0
 40
6.666666752583272
100
AcDbArc
 50
284.9994964599609
 51
349.3851165771484
  0
ARC
  5
221
330
1F
100
AcDbEntity
  8
0-1
  6
Continuous
 62
     2
370
     9
100
AcDbCircle
 10
-252.1614132111051
 20
-12.92955127697422
 30
0.0
 40
5.000000064437453
100
AcDbArc
 50
11.31021118164062
 51
90.0
  0
ARC
  5
222
330
1F
100
AcDbEntity
  8
0-1
  6
Continuous
 62
     2
370
     9
100
AcDbCircle
 10
47.79318158144123
 20
5.404007501530721
 30
0.0
 40
5.000000064437453
100
AcDbArc
 50
90.0
 51
169.91162109375
  0
ARC
  5
223
330
1F
100
AcDbEntity
  8
0-1
  6
Continuous
 62
     2
370
     9
100
AcDbCircle
 10
34.44998914584177
 20
-2.989646161898172
 30
0.0
 40
6.666666752583272
100
AcDbArc
 50
284.9994964599609
 51
349.9115142822265
  0
ARC
  5
224
330
1F
100
AcDbEntity
  8
0-1
  6
Continuous
 62
     2
370
     9
100
AcDbCircle
 10
82.37264935487873
 20
15.4040404935073
 30
0.0
 40
5.000000064437453
100
AcDbArc
 50
270.0
 51
349.3838348388672
  0
ARC
  5
225
330
1F
100
AcDbEntity
  8
0-1
  6
Continuous
 62
     2
370
     9
100
AcDbCircle
 10
111.798935382117
 20
21.18670914849037
 30
0.0
 40
10.00000012887491
100
AcDbArc
 50
188.7071228027344
 51
285.0002746582031
  0
ARC
  5
226
330
1F
100
AcDbEntity
  8
0-1
  6
Continuous
 62
     2
370
     9
100
AcDbCircle
 10
-401.2572680991963
 20
21.18670914849037
 30
0.0
 40
10.00000012887491
100
AcDbArc
 50
254.9997253417969
 51
351.2928619384766
  0
ARC
  5
227
330
1F
100
AcDbEntity
  8
0-1
  6
Continuous
 62
     4
370
     9
100
AcDbCircle
 10
-306.8077557206069
 20
4.403113418971607
 30
0.0
 40
9.333911457577267
100
AcDbArc
 50
47.92556762695312
 51
132.0746307373047
  0
ARC
  5
228
330
1F
100
AcDbEntity
  8
0-1
  6
Continuous
 62
     4
370
     9
100
AcDbCircle
 10
-288.0624570772368
 20
-19.89423996468542
 30
0.0
 40
33.63136729678592
100
AcDbArc
 50
68.19786071777344
 51
111.8021392822266
  0
ARC
  5
229
330
1F
100
AcDbEntity
  8
0-1
  6
Continuous
 62
     4
370
     9
100
AcDbCircle
 10
-269.3171584338671
 20
4.403113418971607
 30
0.0
 40
9.33396558503847
100
AcDbArc
 50
47.92572021484375
 51
132.0742797851562
  0
ARC
  5
22A
330
1F
100
AcDbEntity
  8
0-1
  6
Continuous
 62
     2
370
     9
100
AcDbCircle
 10
-144.729104498584
 20
871.4358398099135
 30
0.0
 40
299.9999690700222
100
AcDbArc
 50
0.0
 51
180.0
  0
ARC
  5
22B
330
1F
100
AcDbEntity
  8
0-1
  6
Continuous
 62
     2
370
     9
100
AcDbCircle
 10
-144.729104498584
 20
871.4358398099135
 30
0.0
 40
279.803466796875
100
AcDbArc
 50
0.0
 51
180.0
  0
ARC
  5
22C
330
1F
100
AcDbEntity
  8
0-1
  6
Continuous
 62
     2
370
     9
100
AcDbCircle
 10
-144.729104498584
 20
871.4358398099135
 30
0.0
 40
298.3333381446632
100
AcDbArc
 50
0.0
 51
180.0
  0
ARC
  5
22D
330
1F
100
AcDbEntity
  8
0-1
  6
Continuous
 62
     2
370
     9
100
AcDbCircle
 10
-144.729104498584
 20
871.4358398099135
 30
0.0
 40
244.9999731940192
100
AcDbArc
 50
139.2914733886719
 51
160.7085266113281
  0
ARC
  5
22E
330
1F
100
AcDbEntity
  8
0-1
  6
Continuous
 62
     2
370
     9
100
AcDbCircle
 10
-144.729104498584
 20
871.4358398099135
 30
0.0
 40
248.3333432996595
100
AcDbArc
 50
138.0777740478516
 51
161.9222412109375
  0
ARC
  5
22F
330
1F
100
AcDbEntity
  8
0-1
  6
Continuous
 62
     2
370
     9
100
AcDbCircle
 10
-144.729104498584
 20
871.4358398099135
 30
0.0
 40
234.9999711320207
100
AcDbArc
 50
139.4744873046875
 51
160.5255737304688
  0
ARC
  5
230
330
1F
100
AcDbEntity
  8
0-1
  6
Continuous
 62
     2
370
     9
100
AcDbCircle
 10
-144.729104498584
 20
871.4358398099135
 30
0.0
 40
229.9999701010214
100
AcDbArc
 50
138.3233795166016
 51
161.6766510009766
  0
ARC
  5
231
330
1F
100
AcDbEntity
  8
0-1
  6
Continuous
 62
     2
370
     9
100
AcDbCircle
 10
-144.729104498584
 20
871.4358398099135
 30
0.0
 40
244.9999731940192
100
AcDbArc
 50
109.2914886474609
 51
130.7085418701172
  0
ARC
  5
232
330
1F
100
AcDbEntity
  8
0-1
  6
Continuous
 62
     2
370
     9
100
AcDbCircle
 10
-144.729104498584
 20
871.4358398099135
 30
0.0
 40
248.3333432996595
100
AcDbArc
 50
108.0777740478516
 51
131.9222412109375
  0
ARC
  5
233
330
1F
100
AcDbEntity
  8
0-1
  6
Continuous
 62
     2
370
     9
100
AcDbCircle
 10
-144.729104498584
 20
871.4358398099135
 30
0.0
 40
234.9999711320207
100
AcDbArc
 50
109.4744873046875
 51
130.5255737304688
  0
ARC
  5
234
330
1F
100
AcDbEntity
  8
0-1
  6
Continuous
 62
     2
370
     9
100
AcDbCircle
 10
-144.729104498584
 20
871.4358398099135
 30
0.0
 40
229.9999701010214
100
AcDbArc
 50
108.3233795166016
 51
131.6766510009766
  0
ARC
  5
235
330
1F
100
AcDbEntity
  8
0-1
  6
Continuous
 62
     2
370
     9
100
AcDbCircle
 10
-144.729104498584
 20
871.4358398099135
 30
0.0
 40
244.9999731940192
100
AcDbArc
 50
79.29148864746095
 51
100.7085418701172
  0
ARC
  5
236
330
1F
100
AcDbEntity
  8
0-1
  6
Continuous
 62
     2
370
     9
100
AcDbCircle
 10
-144.729104498584
 20
871.4358398099135
 30
0.0
 40
248.3333432996595
100
AcDbArc
 50
78.07777404785156
 51
101.9222412109375
  0
ARC
  5
237
330
1F
100
AcDbEntity
  8
0-1
  6
Continuous
 62
     2
370
     9
100
AcDbCircle
 10
-144.729104498584
 20
871.4358398099135
 30
0.0
 40
234.9999711320207
100
AcDbArc
 50
79.4744873046875
 51
100.5255737304687
  0
ARC
  5
238
330
1F
100
AcDbEntity
  8
0-1
  6
Continuous
 62
     2
370
     9
100
AcDbCircle
 10
-144.729104498584
 20
871.4358398099135
 30
0.0
 40
244.9999731940192
100
AcDbArc
 50
49.29148864746094
 51
70.70854187011717
  0
ARC
  5
239
330
1F
100
AcDbEntity
  8
0-1
  6
Continuous
 62
     2
370
     9
100
AcDbCircle
 10
-144.729104498584
 20
871.4358398099135
 30
0.0
 40
248.3333432996595
100
AcDbArc
 50
48.07775878906249
 51
71.9222412109375
  0
ARC
  5
23A
330
1F
100
AcDbEntity
  8
0-1
  6
Continuous
 62
     2
370
     9
100
AcDbCircle
 10
-144.729104498584
 20
871.4358398099135
 30
0.0
 40
234.9999711320207
100
AcDbArc
 50
49.47447204589843
 51
70.52555847167967
  0
ARC
  5
23B
330
1F
100
AcDbEntity
  8
0-1
  6
Continuous
 62
     2
370
     9
100
AcDbCircle
 10
-144.729104498584
 20
871.4358398099135
 30
0.0
 40
229.9999701010214
100
AcDbArc
 50
48.32337951660156
 51
71.67665100097656
  0
ARC
  5
23C
330
1F
100
AcDbEntity
  8
0-1
  6
Continuous
 62
     2
370
     9
100
AcDbCircle
 10
-144.729104498584
 20
871.4358398099135
 30
0.0
 40
244.9999731940192
100
AcDbArc
 50
19.29148864746094
 51
40.70854187011719
  0
ARC
  5
23D
330
1F
100
AcDbEntity
  8
0-1
  6
Continuous
 62
     2
370
     9
100
AcDbCircle
 10
-144.729104498584
 20
871.4358398099135
 30
0.0
 40
248.3333432996595
100
AcDbArc
 50
18.07777404785156
 51
41.9222412109375
  0
ARC
  5
23E
330
1F
100
AcDbEntity
  8
0-1
  6
Continuous
 62
     2
370
     9
100
AcDbCircle
 10
-144.729104498584
 20
871.4358398099135
 30
0.0
 40
234.9999711320207
100
AcDbArc
 50
19.4744873046875
 51
40.52557373046874
  0
ARC
  5
23F
330
1F
100
AcDbEntity
  8
0-1
  6
Continuous
 62
     2
370
     9
100
AcDbCircle
 10
-144.729104498584
 20
871.4358398099135
 30
0.0
 40
229.9999701010214
100
AcDbArc
 50
18.32337951660156
 51
41.67665100097656
  0
ARC
  5
240
330
1F
100
AcDbEntity
  8
0-1
  6
Continuous
 62
     2
370
     9
100
AcDbCircle
 10
-144.729104498584
 20
871.4358398099135
 30
0.0
 40
234.9999711320207
100
AcDbArc
 50
0.0
 51
10.52557373046875
  0
ARC
  5
241
330
1F
100
AcDbEntity
  8
0-1
  6
Continuous
 62
     2
370
     9
100
AcDbCircle
 10
-144.729104498584
 20
871.4358398099135
 30
0.0
 40
244.9999731940192
100
AcDbArc
 50
0.0
 51
10.70854187011719
  0
ARC
  5
242
330
1F
100
AcDbEntity
  8
0-1
  6
Continuous
 62
     2
370
     9
100
AcDbCircle
 10
-144.729104498584
 20
871.4358398099135
 30
0.0
 40
248.3333432996595
100
AcDbArc
 50
0.0
 51
11.9222412109375
  0
ARC
  5
243
330
1F
100
AcDbEntity
  8
0-1
  6
Continuous
 62
     2
370
     9
100
AcDbCircle
 10
-144.729104498584
 20
871.4358398099135
 30
0.0
 40
229.9999701010214
100
AcDbArc
 50
8.58367919921875
 51
11.67665100097656
  0
ARC
  5
244
330
1F
100
AcDbEntity
  8
0-1
  6
Continuous
 62
     2
370
     9
100
AcDbCircle
 10
-144.729104498584
 20
871.4358398099135
 30
0.0
 40
231.2515825838656
100
AcDbArc
 50
0.0
 51
7.676528930664062
  0
ARC
  5
245
330
1F
100
AcDbEntity
  8
0-1
  6
Continuous
 62
     2
370
     9
100
AcDbCircle
 10
-144.729104498584
 20
871.4358398099135
 30
0.0
 40
234.9999711320207
100
AcDbArc
 50
169.4744110107422
 51
179.9999847412109
  0
ARC
  5
246
330
1F
100
AcDbEntity
  8
0-1
  6
Continuous
 62
     2
370
     9
100
AcDbCircle
 10
-144.729104498584
 20
871.4358398099135
 30
0.0
 40
244.9999731940192
100
AcDbArc
 50
169.2914276123047
 51
179.9999694824219
  0
ARC
  5
247
330
1F
100
AcDbEntity
  8
0-1
  6
Continuous
 62
     2
370
     9
100
AcDbCircle
 10
-144.729104498584
 20
871.4358398099135
 30
0.0
 40
248.3333432996595
100
AcDbArc
 50
168.0777740478516
 51
180.000015258789
  0
ARC
  5
248
330
1F
100
AcDbEntity
  8
0-1
  6
Continuous
 62
     2
370
     9
100
AcDbCircle
 10
-144.729104498584
 20
871.4358398099135
 30
0.0
 40
229.9999701010214
100
AcDbArc
 50
168.3233489990234
 51
171.4163208007812
  0
ARC
  5
249
330
1F
100
AcDbEntity
  8
0-1
  6
Continuous
 62
     2
370
     9
100
AcDbCircle
 10
-144.729104498584
 20
871.4358398099135
 30
0.0
 40
231.2515825838656
100
AcDbArc
 50
172.3234710693359
 51
180.0
  0
ARC
  5
24A
330
1F
100
AcDbEntity
  8
0-1
  6
Continuous
 62
     2
370
     9
100
AcDbCircle
 10
-144.729104498584
 20
871.4358398099135
 30
0.0
 40
229.9999701010214
100
AcDbArc
 50
95.13783264160156
 51
101.6766510009766
  0
ARC
  5
24B
330
1F
100
AcDbEntity
  8
0-1
  6
Continuous
 62
     2
370
     9
100
AcDbCircle
 10
-144.729104498584
 20
871.4358398099135
 30
0.0
 40
229.9999701010214
100
AcDbArc
 50
78.32337951660156
 51
84.86216735839844
  0
ARC
  5
24C
330
1F
100
AcDbEntity
  8
0-1
  6
Continuous
 62
     2
370
     9
100
AcDbCircle
 10
-144.729104498584
 20
871.4358398099135
 30
0.0
 40
231.2515825838656
100
AcDbArc
 50
86.59642028808594
 51
93.40354919433594
  0
ARC
  5
24D
330
1F
100
AcDbEntity
  8
0-1
  6
Continuous
 62
     2
370
     9
100
AcDbCircle
 10
4.451869688493595
 20
-16.26281312769219
 30
0.0
 40
3.333333376291636
100
AcDbArc
 50
90.0
 51
164.0540161132812
  0
ELLIPSE
  5
24E
330
1F
100
AcDbEntity
  8
0-2
  6
Continuous
 62
     6
370
     9
100
AcDbEllipse
 10
66.93735321889905
 20
33.96969782564401
 30
0.0
 11
17.4999340160473
 21
0.0
 31
0.0
210
0.0
220
0.0
230
1.0
 40
0.7428
 41
0.0
 42
1.475408288134874
  0
ELLIPSE
  5
24F
330
1F
100
AcDbEntity
  8
0-2
  6
Continuous
 62
     6
370
     9
100
AcDbEllipse
 10
66.93735321889905
 20
33.96969782564401
 30
0.0
 11
17.4999340160473
 21
0.0
 31
0.0
210
0.0
220
0.0
230
1.0
 40
0.7428
 41
1.666184365454919
 42
3.141592653589793
  0
ARC
  5
250
330
1F
100
AcDbEntity
  8
0-2
  6
Continuous
 62
     6
370
     9
100
AcDbCircle
 10
66.93735321889905
 20
871.4358398099135
 30
0.0
 40
17.49999974225018
100
AcDbArc
 50
0.0
 51
180.0
  0
ARC
  5
251
330
1F
100
AcDbEntity
  8
0-2
  6
Continuous
 62
     6
370
     9
100
AcDbCircle
 10
-356.3958096558898
 20
871.4358398099135
 30
0.0
 40
17.49999974225018
100
AcDbArc
 50
0.0
 51
180.0
  0
ARC
  5
252
330
1F
100
AcDbEntity
  8
0-2
  6
Continuous
 62
     6
370
     9
100
AcDbCircle
 10
-366.9471385726973
 20
13.73728584823699
 30
0.0
 40
3.333333376291636
100
AcDbArc
 50
190.3056030273438
 51
270.0
  0
ARC
  5
253
330
1F
100
AcDbEntity
  8
0-2
  6
Continuous
 62
     6
370
     9
100
AcDbCircle
 10
-144.729104498584
 20
-672.9295636489654
 30
0.0
 40
818.3333525786529
100
AcDbArc
 50
80.87838745117188
 51
99.12161254882812
  0
ARC
  5
254
330
1F
100
AcDbEntity
  8
0-2
  6
Continuous
 62
     6
370
     9
100
AcDbCircle
 10
-144.729104498584
 20
-672.9295636489654
 30
0.0
 40
833.3333402066617
100
AcDbArc
 50
80.87840270996094
 51
99.12159729003905
  0
ARC
  5
255
330
1F
100
AcDbEntity
  8
0-2
  6
Continuous
 62
     6
370
     9
100
AcDbCircle
 10
-269.7037831567342
 20
105.4347725194784
 30
0.0
 40
45.00000541274613
100
AcDbArc
 50
99.12167358398438
 51
165.0000152587891
  0
ARC
  5
256
330
1F
100
AcDbEntity
  8
0-2
  6
Continuous
 62
     6
370
     9
100
AcDbCircle
 10
-269.7040305965569
 20
105.4347725194784
 30
0.0
 40
30.00000038662472
100
AcDbArc
 50
99.12141418457033
 51
165.0000152587891
  0
ARC
  5
257
330
1F
100
AcDbEntity
  8
0-2
  6
Continuous
 62
     6
370
     9
100
AcDbCircle
 10
-333.8990758615486
 20
20.40405698949531
 30
0.0
 40
10.00000012887491
100
AcDbArc
 50
270.0
 51
345.0002746582031
  0
ARC
  5
258
330
1F
100
AcDbEntity
  8
0-2
  6
Continuous
 62
     6
370
     9
100
AcDbCircle
 10
-144.729104498584
 20
-672.9295636489654
 30
0.0
 40
829.9999546360325
100
AcDbArc
 50
94.60704040527344
 51
99.24420166015624
  0
ARC
  5
259
330
1F
100
AcDbEntity
  8
0-2
  6
Continuous
 62
     6
370
     9
100
AcDbCircle
 10
77.48868213570661
 20
13.73728584823699
 30
0.0
 40
3.333333376291636
100
AcDbArc
 50
270.0
 51
349.6943969726562
  0
ARC
  5
25A
330
1F
100
AcDbEntity
  8
0-2
  6
Continuous
 62
     6
370
     9
100
AcDbCircle
 10
-19.75442584043375
 20
105.4347725194784
 30
0.0
 40
45.00000541274613
100
AcDbArc
 50
14.99998474121094
 51
80.87832641601562
  0
ARC
  5
25B
330
1F
100
AcDbEntity
  8
0-2
  6
Continuous
 62
     6
370
     9
100
AcDbCircle
 10
-19.75417840061109
 20
105.4347725194784
 30
0.0
 40
30.00000038662472
100
AcDbArc
 50
14.99998474121094
 51
80.87858581542969
  0
ARC
  5
25C
330
1F
100
AcDbEntity
  8
0-2
  6
Continuous
 62
     6
370
     9
100
AcDbCircle
 10
44.44061942455791
 20
20.40405698949531
 30
0.0
 40
10.00000012887491
100
AcDbArc
 50
194.9997253417969
 51
270.0
  0
ARC
  5
25D
330
1F
100
AcDbEntity
  8
0-2
  6
Continuous
 62
     6
370
     9
100
AcDbCircle
 10
-341.5724322012866
 20
36.84222672661537
 30
0.0
 40
6.666666752583272
100
AcDbArc
 50
272.6016998291016
 51
345.0002288818359
  0
ARC
  5
25E
330
1F
100
AcDbEntity
  8
0-2
  6
Continuous
 62
     6
370
     9
100
AcDbCircle
 10
-346.8703662437275
 20
17.07054769895496
 30
0.0
 40
6.666666752583272
100
AcDbArc
 50
270.0
 51
345.0007781982422
  0
ARC
  5
25F
330
1F
100
AcDbEntity
  8
0-2
  6
Continuous
 62
     6
370
     9
100
AcDbCircle
 10
52.11422320411857
 20
36.84222672661537
 30
0.0
 40
6.666666752583272
100
AcDbArc
 50
195.0007934570313
 51
267.3982849121094
  0
ARC
  5
260
330
1F
100
AcDbEntity
  8
0-2
  6
Continuous
 62
     6
370
     9
100
AcDbCircle
 10
51.20908833291936
 20
40.22002774540756
 30
0.0
 40
6.666666752583272
100
AcDbArc
 50
194.9997711181641
 51
267.3983001708984
  0
ARC
  5
261
330
1F
100
AcDbEntity
  8
0-2
  6
Continuous
 62
     6
370
     9
100
AcDbCircle
 10
45.54964470960842
 20
15.4040404935073
 30
0.0
 40
5.000000064437453
100
AcDbArc
 50
270.0
 51
345.7299499511719
  0
ARC
  5
262
330
1F
100
AcDbEntity
  8
0-2
  6
Continuous
 62
     6
370
     9
100
AcDbCircle
 10
-144.729104498584
 20
871.4358398099135
 30
0.0
 40
191.6666701033309
100
AcDbArc
 50
0.0
 51
180.0
  0
ARC
  5
263
330
1F
100
AcDbEntity
  8
0-2
  6
Continuous
 62
     6
370
     9
100
AcDbCircle
 10
-144.729104498584
 20
871.4358398099135
 30
0.0
 40
166.0845782305744
100
AcDbArc
 50
164.6634979248047
 51
172.8363952636719
  0
ARC
  5
264
330
1F
100
AcDbEntity
  8
0-2
  6
Continuous
 62
     6
370
     9
100
AcDbCircle
 10
-314.4782665023848
 20
892.77059619716
 30
0.0
 40
5.000000064437453
100
AcDbArc
 50
264.5108795166016
 51
352.8361206054688
  0
ARC
  5
265
330
1F
100
AcDbEntity
  8
0-2
  6
Continuous
 62
     6
370
     9
100
AcDbCircle
 10
-309.7212359122241
 20
916.685407615023
 30
0.0
 40
5.000000064437453
100
AcDbArc
 50
344.6649322509766
 51
72.98951721191405
  0
ARC
  5
266
330
1F
100
AcDbEntity
  8
0-2
  6
Continuous
 62
     6
370
     9
100
AcDbCircle
 10
-144.729104498584
 20
871.4358398099135
 30
0.0
 40
166.0845782305744
100
AcDbArc
 50
142.1635131835938
 51
150.3364105224609
  0
ARC
  5
267
330
1F
100
AcDbEntity
  8
0-2
  6
Continuous
 62
     6
370
     9
100
AcDbCircle
 10
-293.392434576709
 20
956.106777837785
 30
0.0
 40
5.000000064437453
100
AcDbArc
 50
242.0108795166016
 51
330.3361206054688
  0
ARC
  5
268
330
1F
100
AcDbEntity
  8
0-2
  6
Continuous
 62
     6
370
     9
100
AcDbCircle
 10
-279.8457228869921
 20
976.3807597053948
 30
0.0
 40
5.000000064437453
100
AcDbArc
 50
322.1649169921875
 51
50.48950195312503
  0
ARC
  5
269
330
1F
100
AcDbEntity
  8
0-2
  6
Continuous
 62
     6
370
     9
100
AcDbCircle
 10
-144.729104498584
 20
871.4358398099135
 30
0.0
 40
166.0845782305744
100
AcDbArc
 50
119.6634979248047
 51
127.8363952636719
  0
ARC
  5
26A
330
1F
100
AcDbEntity
  8
0-2
  6
Continuous
 62
     6
370
     9
100
AcDbCircle
 10
-249.673900674154
 20
1006.552581918233
 30
0.0
 40
5.000000064437453
100
AcDbArc
 50
219.5108642578125
 51
307.8361206054688
  0
ARC
  5
26B
330
1F
100
AcDbEntity
  8
0-2
  6
Continuous
 62
     6
370
     9
100
AcDbCircle
 10
-229.3999188065444
 20
1020.099169888039
 30
0.0
 40
5.000000064437453
100
AcDbArc
 50
299.6649322509766
 51
27.98951721191405
  0
ARC
  5
26C
330
1F
100
AcDbEntity
  8
0-2
  6
Continuous
 62
     6
370
     9
100
AcDbCircle
 10
-144.729104498584
 20
871.4358398099135
 30
0.0
 40
166.0845782305744
100
AcDbArc
 50
97.16349792480469
 51
105.3363952636719
  0
ARC
  5
26D
330
1F
100
AcDbEntity
  8
0-2
  6
Continuous
 62
     6
370
     9
100
AcDbCircle
 10
-189.9785485837824
 20
1036.427971223554
 30
0.0
 40
5.000000064437453
100
AcDbArc
 50
197.0108642578125
 51
285.3361206054688
  0
ARC
  5
26E
330
1F
100
AcDbEntity
  8
0-2
  6
Continuous
 62
     6
370
     9
100
AcDbCircle
 10
-166.0637371659194
 20
1041.185001813714
 30
0.0
 40
5.000000064437453
100
AcDbArc
 50
277.1649322509765
 51
5.489517211914023
  0
ARC
  5
26F
330
1F
100
AcDbEntity
  8
0-2
  6
Continuous
 62
     6
370
     9
100
AcDbCircle
 10
-144.729104498584
 20
871.4358398099135
 30
0.0
 40
166.0845782305744
100
AcDbArc
 50
74.66351318359375
 51
82.83641052246094
  0
ARC
  5
270
330
1F
100
AcDbEntity
  8
0-2
  6
Continuous
 62
     6
370
     9
100
AcDbCircle
 10
-123.3943481113374
 20
1041.185001813714
 30
0.0
 40
5.000000064437453
100
AcDbArc
 50
174.5108642578125
 51
262.8361206054688
  0
ARC
  5
271
330
1F
100
AcDbEntity
  8
0-2
  6
Continuous
 62
     6
370
     9
100
AcDbCircle
 10
-99.4795366934741
 20
1036.427971223554
 30
0.0
 40
5.000000064437453
100
AcDbArc
 50
254.6649322509766
 51
342.9895172119141
  0
ARC
  5
272
330
1F
100
AcDbEntity
  8
0-2
  6
Continuous
 62
     6
370
     9
100
AcDbCircle
 10
-144.729104498584
 20
871.4358398099135
 30
0.0
 40
166.0845782305744
100
AcDbArc
 50
52.16351318359375
 51
60.33641052246094
  0
ARC
  5
273
330
1F
100
AcDbEntity
  8
0-2
  6
Continuous
 62
     6
370
     9
100
AcDbCircle
 10
-60.05816647071239
 20
1020.099169888039
 30
0.0
 40
5.000000064437453
100
AcDbArc
 50
152.0108642578125
 51
240.3361206054688
  0
ARC
  5
274
330
1F
100
AcDbEntity
  8
0-2
  6
Continuous
 62
     6
370
     9
100
AcDbCircle
 10
-39.78418460310248
 20
1006.55233447841
 30
0.0
 40
5.000000064437453
100
AcDbArc
 50
232.1649169921875
 51
320.489501953125
  0
ARC
  5
275
330
1F
100
AcDbEntity
  8
0-2
  6
Continuous
 62
     6
370
     9
100
AcDbCircle
 10
-144.729104498584
 20
871.4358398099135
 30
0.0
 40
166.0845782305744
100
AcDbArc
 50
29.66351318359375
 51
37.83641052246094
  0
ARC
  5
276
330
1F
100
AcDbEntity
  8
0-2
  6
Continuous
 62
     6
370
     9
100
AcDbCircle
 10
-9.612362390264728
 20
976.3807597053948
 30
0.0
 40
5.000000064437453
100
AcDbArc
 50
129.5108642578125
 51
217.8361206054688
  0
ARC
  5
277
330
1F
100
AcDbEntity
  8
0-2
  6
Continuous
 62
     6
370
     9
100
AcDbCircle
 10
3.934225579541
 20
956.1062829581397
 30
0.0
 40
5.000000064437453
100
AcDbArc
 50
209.6649169921875
 51
297.989501953125
  0
ARC
  5
278
330
1F
100
AcDbEntity
  8
0-2
  6
Continuous
 62
     6
370
     9
100
AcDbCircle
 10
-144.729104498584
 20
871.4358398099135
 30
0.0
 40
166.0845782305744
100
AcDbArc
 50
7.163497924804688
 51
15.33639526367187
  0
ARC
  5
279
330
1F
100
AcDbEntity
  8
0-2
  6
Continuous
 62
     6
370
     9
100
AcDbCircle
 10
20.26327435487874
 20
916.6851601752005
 30
0.0
 40
5.000000064437453
100
AcDbArc
 50
107.0108642578125
 51
195.3361206054688
  0
ARC
  5
27A
330
1F
100
AcDbEntity
  8
0-2
  6
Continuous
 62
     6
370
     9
100
AcDbCircle
 10
25.02005750521677
 20
892.7703487573375
 30
0.0
 40
5.000000064437453
100
AcDbArc
 50
187.1649322509766
 51
275.4895172119141
  0
ARC
  5
27B
330
1F
100
AcDbEntity
  8
0-2
  6
Continuous
 62
     6
370
     9
100
AcDbCircle
 10
-144.729104498584
 20
871.4358398099135
 30
0.0
 40
133.3333350516654
100
AcDbArc
 50
155.9635314941406
 51
174.0364990234375
  0
ARC
  5
27C
330
1F
100
AcDbEntity
  8
0-2
  6
Continuous
 62
     6
370
     9
100
AcDbCircle
 10
-144.729104498584
 20
871.4358398099135
 30
0.0
 40
66.66666752583272
100
AcDbArc
 50
160.7220916748047
 51
169.2778015136719
  0
ARC
  5
27D
330
1F
100
AcDbEntity
  8
0-2
  6
Continuous
 62
     6
370
     9
100
AcDbCircle
 10
-261.934172725991
 20
923.7079972212308
 30
0.0
 40
5.000000064437453
100
AcDbArc
 50
60.00032043457032
 51
155.9629516601562
  0
ARC
  5
27E
330
1F
100
AcDbEntity
  8
0-2
  6
Continuous
 62
     6
370
     9
100
AcDbCircle
 10
-272.3679677270467
 20
884.7691346526078
 30
0.0
 40
5.000000064437453
100
AcDbArc
 50
174.0375823974609
 51
270.0
  0
ARC
  5
27F
330
1F
100
AcDbEntity
  8
0-2
  6
Continuous
 62
     6
370
     9
100
AcDbCircle
 10
-215.1445394648001
 20
884.7691346526078
 30
0.0
 40
5.000000064437453
100
AcDbArc
 50
270.0
 51
349.2789764404297
  0
ARC
  5
280
330
1F
100
AcDbEntity
  8
0-2
  6
Continuous
 62
     6
370
     9
100
AcDbCircle
 10
-212.3772962083603
 20
895.0965305299303
 30
0.0
 40
5.000000064437453
100
AcDbArc
 50
340.7230682373047
 51
60.00032043457032
  0
ARC
  5
281
330
1F
100
AcDbEntity
  8
0-2
  6
Continuous
 62
     6
370
     9
100
AcDbCircle
 10
-144.729104498584
 20
871.4358398099135
 30
0.0
 40
63.33333608266469
100
AcDbArc
 50
160.7222137451172
 51
169.2779541015625
  0
ARC
  5
282
330
1F
100
AcDbEntity
  8
0-2
  6
Continuous
 62
     6
370
     9
100
AcDbCircle
 10
-144.729104498584
 20
871.4358398099135
 30
0.0
 40
136.6666742273279
100
AcDbArc
 50
155.9635467529297
 51
174.0364532470703
  0
ARC
  5
283
330
1F
100
AcDbEntity
  8
0-2
  6
Continuous
 62
     6
370
     9
100
AcDbCircle
 10
-272.3679677270467
 20
884.7691346526078
 30
0.0
 40
8.33333344072909
100
AcDbArc
 50
174.0364990234375
 51
270.0
  0
ARC
  5
284
330
1F
100
AcDbEntity
  8
0-2
  6
Continuous
 62
     6
370
     9
100
AcDbCircle
 10
-261.9342964459025
 20
923.7079972212308
 30
0.0
 40
8.33333344072909
100
AcDbArc
 50
59.99998474121094
 51
155.962890625
  0
ARC
  5
285
330
1F
100
AcDbEntity
  8
0-2
  6
Continuous
 62
     6
370
     9
100
AcDbCircle
 10
-212.3772962083603
 20
895.0965305299303
 30
0.0
 40
8.33333344072909
100
AcDbArc
 50
340.7217102050781
 51
59.99999999999999
  0
ARC
  5
286
330
1F
100
AcDbEntity
  8
0-2
  6
Continuous
 62
     6
370
     9
100
AcDbCircle
 10
-215.1445394648001
 20
884.7691346526078
 30
0.0
 40
8.33333344072909
100
AcDbArc
 50
270.0
 51
349.2772979736328
  0
ARC
  5
287
330
1F
100
AcDbEntity
  8
0-2
  6
Continuous
 62
     6
370
     9
100
AcDbCircle
 10
-264.5111347588246
 20
917.4979999925569
 30
0.0
 40
5.000000064437453
100
AcDbArc
 50
60.00032043457032
 51
158.9652404785157
  0
ARC
  5
288
330
1F
100
AcDbEntity
  8
0-2
  6
Continuous
 62
     6
370
     9
100
AcDbCircle
 10
-214.3284829297496
 20
888.5250237203865
 30
0.0
 40
5.000000064437453
100
AcDbArc
 50
346.2058258056641
 51
60.00032043457032
  0
ARC
  5
289
330
1F
100
AcDbEntity
  8
0-2
  6
Continuous
 62
     6
370
     9
100
AcDbCircle
 10
-144.729104498584
 20
871.4358398099135
 30
0.0
 40
133.3333350516654
100
AcDbArc
 50
125.9635314941406
 51
144.0364990234375
  0
ARC
  5
28A
330
1F
100
AcDbEntity
  8
0-2
  6
Continuous
 62
     6
370
     9
100
AcDbCircle
 10
-144.729104498584
 20
871.4358398099135
 30
0.0
 40
66.66666752583272
100
AcDbArc
 50
130.7220916748047
 51
139.2778015136719
  0
ARC
  5
28B
330
1F
100
AcDbEntity
  8
0-2
  6
Continuous
 62
     6
370
     9
100
AcDbCircle
 10
-220.0954391559952
 20
975.3076131946261
 30
0.0
 40
5.000000064437453
100
AcDbArc
 50
30.00030517578125
 51
125.9629364013672
  0
ARC
  5
28C
330
1F
100
AcDbEntity
  8
0-2
  6
Continuous
 62
     6
370
     9
100
AcDbCircle
 10
-248.6010016032082
 20
946.802298187236
 30
0.0
 40
5.000000064437453
100
AcDbArc
 50
144.03759765625
 51
240.0
  0
ARC
  5
28D
330
1F
100
AcDbEntity
  8
0-2
  6
Continuous
 62
     6
370
     9
100
AcDbCircle
 10
-199.044001365666
 20
918.1905840561126
 30
0.0
 40
5.000000064437453
100
AcDbArc
 50
240.0
 51
319.2789764404297
  0
ARC
  5
28E
330
1F
100
AcDbEntity
  8
0-2
  6
Continuous
 62
     6
370
     9
100
AcDbCircle
 10
-191.4838487447832
 20
925.7503655172615
 30
0.0
 40
5.000000064437453
100
AcDbArc
 50
310.7230682373047
 51
30.0003204345703
  0
ARC
  5
28F
330
1F
100
AcDbEntity
  8
0-2
  6
Continuous
 62
     6
370
     9
100
AcDbCircle
 10
-144.729104498584
 20
871.4358398099135
 30
0.0
 40
63.33333608266469
100
AcDbArc
 50
130.7222137451172
 51
139.2779541015625
  0
ARC
  5
290
330
1F
100
AcDbEntity
  8
0-2
  6
Continuous
 62
     6
370
     9
100
AcDbCircle
 10
-144.729104498584
 20
871.4358398099135
 30
0.0
 40
136.6666742273279
100
AcDbArc
 50
125.9635467529297
 51
144.0364532470703
  0
ARC
  5
291
330
1F
100
AcDbEntity
  8
0-2
  6
Continuous
 62
     6
370
     9
100
AcDbCircle
 10
-248.6010016032082
 20
946.802298187236
 30
0.0
 40
8.33333344072909
100
AcDbArc
 50
144.0364990234375
 51
240.0
  0
ARC
  5
292
330
1F
100
AcDbEntity
  8
0-2
  6
Continuous
 62
     6
370
     9
100
AcDbCircle
 10
-220.0955628759067
 20
975.3076131946261
 30
0.0
 40
8.33333344072909
100
AcDbArc
 50
29.99998474121094
 51
125.962890625
  0
ARC
  5
293
330
1F
100
AcDbEntity
  8
0-2
  6
Continuous
 62
     6
370
     9
100
AcDbCircle
 10
-191.4838487447832
 20
925.7503655172615
 30
0.0
 40
8.33333344072909
100
AcDbArc
 50
310.7217102050781
 51
30.00000000000002
  0
ARC
  5
294
330
1F
100
AcDbEntity
  8
0-2
  6
Continuous
 62
     6
370
     9
100
AcDbCircle
 10
-199.044001365666
 20
918.1905840561126
 30
0.0
 40
8.33333344072909
100
AcDbArc
 50
240.0
 51
319.2772979736328
  0
ARC
  5
295
330
1F
100
AcDbEntity
  8
0-2
  6
Continuous
 62
     6
370
     9
100
AcDbCircle
 10
-225.4323449705012
 20
971.2179278061126
 30
0.0
 40
5.000000064437453
100
AcDbArc
 50
30.00030517578125
 51
128.9652404785156
  0
ARC
  5
296
330
1F
100
AcDbEntity
  8
0-2
  6
Continuous
 62
     6
370
     9
100
AcDbCircle
 10
-196.4593686983306
 20
921.0351522571261
 30
0.0
 40
5.000000064437453
100
AcDbArc
 50
316.2058258056641
 51
30.0003204345703
  0
ARC
  5
297
330
1F
100
AcDbEntity
  8
0-2
  6
Continuous
 62
     6
370
     9
100
AcDbCircle
 10
-144.729104498584
 20
871.4358398099135
 30
0.0
 40
133.3333350516654
100
AcDbArc
 50
95.96353149414064
 51
114.0364990234375
  0
ARC
  5
298
330
1F
100
AcDbEntity
  8
0-2
  6
Continuous
 62
     6
370
     9
100
AcDbCircle
 10
-144.729104498584
 20
871.4358398099135
 30
0.0
 40
66.66666752583272
100
AcDbArc
 50
100.7220916748047
 51
109.2778015136719
  0
ARC
  5
299
330
1F
100
AcDbEntity
  8
0-2
  6
Continuous
 62
     6
370
     9
100
AcDbCircle
 10
-158.0623993412783
 20
999.0747030383761
 30
0.0
 40
5.000000064437453
100
AcDbArc
 50
0.0003204345703125
 51
95.96293640136719
  0
ARC
  5
29A
330
1F
100
AcDbEntity
  8
0-2
  6
Continuous
 62
     6
370
     9
100
AcDbCircle
 10
-197.0015093497241
 20
988.6409080373204
 30
0.0
 40
5.000000064437453
100
AcDbArc
 50
114.03759765625
 51
210.0
  0
ARC
  5
29B
330
1F
100
AcDbEntity
  8
0-2
  6
Continuous
 62
     6
370
     9
100
AcDbCircle
 10
-168.3897952186009
 20
939.084155239601
 30
0.0
 40
5.000000064437453
100
AcDbArc
 50
210.0
 51
289.2789764404297
  0
ARC
  5
29C
330
1F
100
AcDbEntity
  8
0-2
  6
Continuous
 62
     6
370
     9
100
AcDbCircle
 10
-158.0623993412783
 20
941.8512747761297
 30
0.0
 40
5.000000064437453
100
AcDbArc
 50
280.7230682373047
 51
0.0003204345702857
  0
ARC
  5
29D
330
1F
100
AcDbEntity
  8
0-2
  6
Continuous
 62
     6
370
     9
100
AcDbCircle
 10
-144.729104498584
 20
871.4358398099135
 30
0.0
 40
63.33333608266469
100
AcDbArc
 50
100.7222137451172
 51
109.2779541015625
  0
ARC
  5
29E
330
1F
100
AcDbEntity
  8
0-2
  6
Continuous
 62
     6
370
     9
100
AcDbCircle
 10
-144.729104498584
 20
871.4358398099135
 30
0.0
 40
136.6666742273279
100
AcDbArc
 50
95.96353149414064
 51
114.0364379882812
  0
ARC
  5
29F
330
1F
100
AcDbEntity
  8
0-2
  6
Continuous
 62
     6
370
     9
100
AcDbCircle
 10
-197.0015093497241
 20
988.6409080373204
 30
0.0
 40
8.33333344072909
100
AcDbArc
 50
114.0364837646484
 51
210.0
  0
ARC
  5
2A0
330
1F
100
AcDbEntity
  8
0-2
  6
Continuous
 62
     6
370
     9
100
AcDbCircle
 10
-158.0625230611895
 20
999.0747030383761
 30
0.0
 40
8.33333344072909
100
AcDbArc
 50
0.0
 51
95.962890625
  0
ARC
  5
2A1
330
1F
100
AcDbEntity
  8
0-2
  6
Continuous
 62
     6
370
     9
100
AcDbCircle
 10
-158.0623993412783
 20
941.8512747761297
 30
0.0
 40
8.33333344072909
100
AcDbArc
 50
280.7217102050781
 51
0.0
  0
ARC
  5
2A2
330
1F
100
AcDbEntity
  8
0-2
  6
Continuous
 62
     6
370
     9
100
AcDbCircle
 10
-168.3897952186009
 20
939.084155239601
 30
0.0
 40
8.33333344072909
100
AcDbArc
 50
210.0
 51
289.2772979736328
  0
ARC
  5
2A3
330
1F
100
AcDbEntity
  8
0-2
  6
Continuous
 62
     6
370
     9
100
AcDbCircle
 10
-164.7291704825366
 20
998.201240464474
 30
0.0
 40
5.000000064437453
100
AcDbArc
 50
0.0003204345703125
 51
98.96524047851562
  0
ARC
  5
2A4
330
1F
100
AcDbEntity
  8
0-2
  6
Continuous
 62
     6
370
     9
100
AcDbCircle
 10
-164.7291704825366
 20
940.2552879201329
 30
0.0
 40
5.000000064437453
100
AcDbArc
 50
286.2058258056641
 51
0.0003204345703366
  0
ARC
  5
2A5
330
1F
100
AcDbEntity
  8
0-2
  6
Continuous
 62
     6
370
     9
100
AcDbCircle
 10
-144.729104498584
 20
871.4358398099135
 30
0.0
 40
133.3333350516654
100
AcDbArc
 50
65.96351623535156
 51
84.03648376464844
  0
ARC
  5
2A6
330
1F
100
AcDbEntity
  8
0-2
  6
Continuous
 62
     6
370
     9
100
AcDbCircle
 10
-144.729104498584
 20
871.4358398099135
 30
0.0
 40
66.66666752583272
100
AcDbArc
 50
70.72209167480469
 51
79.27780151367188
  0
ARC
  5
2A7
330
1F
100
AcDbEntity
  8
0-2
  6
Continuous
 62
     6
370
     9
100
AcDbCircle
 10
-92.45669964744391
 20
988.6409080373204
 30
0.0
 40
5.000000064437453
100
AcDbArc
 50
330.0003204345703
 51
65.96295166015624
  0
ARC
  5
2A8
330
1F
100
AcDbEntity
  8
0-2
  6
Continuous
 62
     6
370
     9
100
AcDbCircle
 10
-131.3958096558897
 20
999.0747030383761
 30
0.0
 40
5.000000064437453
100
AcDbArc
 50
84.03759765625001
 51
180.0
  0
ARC
  5
2A9
330
1F
100
AcDbEntity
  8
0-2
  6
Continuous
 62
     6
370
     9
100
AcDbCircle
 10
-131.3958096558897
 20
941.8512747761297
 30
0.0
 40
5.000000064437453
100
AcDbArc
 50
180.0
 51
259.2789764404296
  0
ARC
  5
2AA
330
1F
100
AcDbEntity
  8
0-2
  6
Continuous
 62
     6
370
     9
100
AcDbCircle
 10
-121.0684137785671
 20
939.0839077997782
 30
0.0
 40
5.000000064437453
100
AcDbArc
 50
250.7230682373047
 51
330.0003204345703
  0
ARC
  5
2AB
330
1F
100
AcDbEntity
  8
0-2
  6
Continuous
 62
     6
370
     9
100
AcDbCircle
 10
-144.729104498584
 20
871.4358398099135
 30
0.0
 40
63.33333608266469
100
AcDbArc
 50
70.7222137451172
 51
79.27795410156251
  0
ARC
  5
2AC
330
1F
100
AcDbEntity
  8
0-2
  6
Continuous
 62
     6
370
     9
100
AcDbCircle
 10
-144.729104498584
 20
871.4358398099135
 30
0.0
 40
136.6666742273279
100
AcDbArc
 50
65.96354675292969
 51
84.03645324707031
  0
ARC
  5
2AD
330
1F
100
AcDbEntity
  8
0-2
  6
Continuous
 62
     6
370
     9
100
AcDbCircle
 10
-131.3958096558897
 20
999.0747030383761
 30
0.0
 40
8.33333344072909
100
AcDbArc
 50
84.0364990234375
 51
180.0
  0
ARC
  5
2AE
330
1F
100
AcDbEntity
  8
0-2
  6
Continuous
 62
     6
370
     9
100
AcDbCircle
 10
-92.45669964744391
 20
988.6411554771432
 30
0.0
 40
8.33333344072909
100
AcDbArc
 50
330.0
 51
65.96289062499999
  0
ARC
  5
2AF
330
1F
100
AcDbEntity
  8
0-2
  6
Continuous
 62
     6
370
     9
100
AcDbCircle
 10
-121.0684137785671
 20
939.0839077997782
 30
0.0
 40
8.33333344072909
100
AcDbArc
 50
250.7217102050781
 51
330.0
  0
ARC
  5
2B0
330
1F
100
AcDbEntity
  8
0-2
  6
Continuous
 62
     6
370
     9
100
AcDbCircle
 10
-131.3958096558897
 20
941.8512747761297
 30
0.0
 40
8.33333344072909
100
AcDbArc
 50
180.0
 51
259.2772979736328
  0
ARC
  5
2B1
330
1F
100
AcDbEntity
  8
0-2
  6
Continuous
 62
     6
370
     9
100
AcDbCircle
 10
-98.66694431594053
 20
991.2179937900656
 30
0.0
 40
5.000000064437453
100
AcDbArc
 50
330.0003204345703
 51
68.96524047851562
  0
ARC
  5
2B2
330
1F
100
AcDbEntity
  8
0-2
  6
Continuous
 62
     6
370
     9
100
AcDbCircle
 10
-127.6399205881111
 20
941.0352182410787
 30
0.0
 40
5.000000064437453
100
AcDbArc
 50
256.2058258056641
 51
330.0003204345703
  0
ARC
  5
2B3
330
1F
100
AcDbEntity
  8
0-2
  6
Continuous
 62
     6
370
     9
100
AcDbCircle
 10
-144.729104498584
 20
871.4358398099135
 30
0.0
 40
133.3333350516654
100
AcDbArc
 50
35.96351623535156
 51
54.0364990234375
  0
ARC
  5
2B4
330
1F
100
AcDbEntity
  8
0-2
  6
Continuous
 62
     6
370
     9
100
AcDbCircle
 10
-144.729104498584
 20
871.4358398099135
 30
0.0
 40
66.66666752583272
100
AcDbArc
 50
40.72209167480469
 51
49.27780151367188
  0
ARC
  5
2B5
330
1F
100
AcDbEntity
  8
0-2
  6
Continuous
 62
     6
370
     9
100
AcDbCircle
 10
-40.85733111387125
 20
946.802298187236
 30
0.0
 40
5.000000064437453
100
AcDbArc
 50
300.0003204345703
 51
35.96295166015626
  0
ARC
  5
2B6
330
1F
100
AcDbEntity
  8
0-2
  6
Continuous
 62
     6
370
     9
100
AcDbCircle
 10
-69.36264612126135
 20
975.3076131946261
 30
0.0
 40
5.000000064437453
100
AcDbArc
 50
54.03759765625
 51
150.0
  0
ARC
  5
2B7
330
1F
100
AcDbEntity
  8
0-2
  6
Continuous
 62
     6
370
     9
100
AcDbCircle
 10
-97.9743602523848
 20
925.7508603969068
 30
0.0
 40
5.000000064437453
100
AcDbArc
 50
150.0
 51
229.2789764404297
  0
ARC
  5
2B8
330
1F
100
AcDbEntity
  8
0-2
  6
Continuous
 62
     6
370
     9
100
AcDbCircle
 10
-90.41420763150197
 20
918.1905840561126
 30
0.0
 40
5.000000064437453
100
AcDbArc
 50
220.7230682373047
 51
300.0003204345703
  0
ARC
  5
2B9
330
1F
100
AcDbEntity
  8
0-2
  6
Continuous
 62
     6
370
     9
100
AcDbCircle
 10
-144.729104498584
 20
871.4358398099135
 30
0.0
 40
63.33333608266469
100
AcDbArc
 50
40.72221374511719
 51
49.2779541015625
  0
ARC
  5
2BA
330
1F
100
AcDbEntity
  8
0-2
  6
Continuous
 62
     6
370
     9
100
AcDbCircle
 10
-144.729104498584
 20
871.4358398099135
 30
0.0
 40
136.6666742273279
100
AcDbArc
 50
35.96354675292969
 51
54.03645324707031
  0
ARC
  5
2BB
330
1F
100
AcDbEntity
  8
0-2
  6
Continuous
 62
     6
370
     9
100
AcDbCircle
 10
-69.36264612126135
 20
975.3076131946261
 30
0.0
 40
8.33333344072909
100
AcDbArc
 50
54.0364990234375
 51
150.0
  0
ARC
  5
2BC
330
1F
100
AcDbEntity
  8
0-2
  6
Continuous
 62
     6
370
     9
100
AcDbCircle
 10
-40.85733111387125
 20
946.802298187236
 30
0.0
 40
8.33333344072909
100
AcDbArc
 50
300.0
 51
35.96289062500001
  0
ARC
  5
2BD
330
1F
100
AcDbEntity
  8
0-2
  6
Continuous
 62
     6
370
     9
100
AcDbCircle
 10
-90.41420763150197
 20
918.1905840561126
 30
0.0
 40
8.33333344072909
100
AcDbArc
 50
220.7217102050781
 51
300.0
  0
ARC
  5
2BE
330
1F
100
AcDbEntity
  8
0-2
  6
Continuous
 62
     6
370
     9
100
AcDbCircle
 10
-97.9743602523848
 20
925.7508603969068
 30
0.0
 40
8.33333344072909
100
AcDbArc
 50
150.0
 51
229.2772979736328
  0
ARC
  5
2BF
330
1F
100
AcDbEntity
  8
0-2
  6
Continuous
 62
     6
370
     9
100
AcDbCircle
 10
-44.94701650238479
 20
952.1390802818307
 30
0.0
 40
5.000000064437453
100
AcDbArc
 50
300.0003204345703
 51
38.96524047851566
  0
ARC
  5
2C0
330
1F
100
AcDbEntity
  8
0-2
  6
Continuous
 62
     6
370
     9
100
AcDbCircle
 10
-95.12979205137125
 20
923.16610400966
 30
0.0
 40
5.000000064437453
100
AcDbArc
 50
226.2058258056641
 51
300.0003204345703
  0
ARC
  5
2C1
330
1F
100
AcDbEntity
  8
0-2
  6
Continuous
 62
     6
370
     9
100
AcDbCircle
 10
-144.729104498584
 20
871.4358398099135
 30
0.0
 40
133.3333350516654
100
AcDbArc
 50
5.963531494140625
 51
24.0364990234375
  0
ARC
  5
2C2
330
1F
100
AcDbEntity
  8
0-2
  6
Continuous
 62
     6
370
     9
100
AcDbCircle
 10
-144.729104498584
 20
871.4358398099135
 30
0.0
 40
66.66666752583272
100
AcDbArc
 50
10.72207641601562
 51
19.27780151367188
  0
ARC
  5
2C3
330
1F
100
AcDbEntity
  8
0-2
  6
Continuous
 62
     6
370
     9
100
AcDbCircle
 10
-17.09024127012125
 20
884.7691346526078
 30
0.0
 40
5.000000064437453
100
AcDbArc
 50
270.0003204345703
 51
5.962951660156248
  0
ARC
  5
2C4
330
1F
100
AcDbEntity
  8
0-2
  6
Continuous
 62
     6
370
     9
100
AcDbCircle
 10
-27.52378883135432
 20
923.7079972212308
 30
0.0
 40
5.000000064437453
100
AcDbArc
 50
24.03759765625
 51
120.0
  0
ARC
  5
2C5
330
1F
100
AcDbEntity
  8
0-2
  6
Continuous
 62
     6
370
     9
100
AcDbCircle
 10
-77.0809127888077
 20
895.0965305299303
 30
0.0
 40
5.000000064437453
100
AcDbArc
 50
119.999984741211
 51
199.2789764404297
  0
ARC
  5
2C6
330
1F
100
AcDbEntity
  8
0-2
  6
Continuous
 62
     6
370
     9
100
AcDbCircle
 10
-74.31366953236787
 20
884.7691346526078
 30
0.0
 40
5.000000064437453
100
AcDbArc
 50
190.7230529785157
 51
270.0003204345703
  0
ARC
  5
2C7
330
1F
100
AcDbEntity
  8
0-2
  6
Continuous
 62
     6
370
     9
100
AcDbCircle
 10
-144.729104498584
 20
871.4358398099135
 30
0.0
 40
63.33333608266469
100
AcDbArc
 50
10.72221374511719
 51
19.2779541015625
  0
ARC
  5
2C8
330
1F
100
AcDbEntity
  8
0-2
  6
Continuous
 62
     6
370
     9
100
AcDbCircle
 10
-144.729104498584
 20
871.4358398099135
 30
0.0
 40
136.6666742273279
100
AcDbArc
 50
5.963531494140625
 51
24.03643798828125
  0
ARC
  5
2C9
330
1F
100
AcDbEntity
  8
0-2
  6
Continuous
 62
     6
370
     9
100
AcDbCircle
 10
-27.52378883135432
 20
923.7079972212308
 30
0.0
 40
8.33333344072909
100
AcDbArc
 50
24.0364990234375
 51
120.0
  0
ARC
  5
2CA
330
1F
100
AcDbEntity
  8
0-2
  6
Continuous
 62
     6
370
     9
100
AcDbCircle
 10
-17.09024127012125
 20
884.7691346526078
 30
0.0
 40
8.33333344072909
100
AcDbArc
 50
270.0
 51
5.962890625
  0
ARC
  5
2CB
330
1F
100
AcDbEntity
  8
0-2
  6
Continuous
 62
     6
370
     9
100
AcDbCircle
 10
-74.31366953236787
 20
884.7691346526078
 30
0.0
 40
8.33333344072909
100
AcDbArc
 50
190.7217102050781
 51
270.0
  0
ARC
  5
2CC
330
1F
100
AcDbEntity
  8
0-2
  6
Continuous
 62
     6
370
     9
100
AcDbCircle
 10
-77.0809127888077
 20
895.0965305299303
 30
0.0
 40
8.33333344072909
100
AcDbArc
 50
119.999984741211
 51
199.2772979736328
  0
ARC
  5
2CD
330
1F
100
AcDbEntity
  8
0-2
  6
Continuous
 62
     6
370
     9
100
AcDbCircle
 10
-17.96370384402305
 20
891.4359057938661
 30
0.0
 40
5.000000064437453
100
AcDbArc
 50
270.0003204345703
 51
8.965240478515645
  0
ARC
  5
2CE
330
1F
100
AcDbEntity
  8
0-2
  6
Continuous
 62
     6
370
     9
100
AcDbCircle
 10
-75.90965638836448
 20
891.4359057938661
 30
0.0
 40
5.000000064437453
100
AcDbArc
 50
196.2058258056641
 51
270.0003204345703
  0
ARC
  5
2CF
330
1F
100
AcDbEntity
  8
0-2
  6
Continuous
 62
     6
370
     9
100
AcDbCircle
 10
-144.729104498584
 20
871.4358398099135
 30
0.0
 40
45.00000541274613
100
AcDbArc
 50
44.079345703125
 51
135.920654296875
  0
ARC
  5
2D0
330
1F
100
AcDbEntity
  8
0-2
  6
Continuous
 62
     6
370
     9
100
AcDbCircle
 10
-117.1912791976973
 20
898.1026769351246
 30
0.0
 40
6.666666752583272
100
AcDbArc
 50
270.0
 51
44.07815551757814
  0
ARC
  5
2D1
330
1F
100
AcDbEntity
  8
0-2
  6
Continuous
 62
     6
370
     9
100
AcDbCircle
 10
-172.2669297994707
 20
898.1026769351246
 30
0.0
 40
6.666666752583272
100
AcDbArc
 50
135.9218444824218
 51
270.0
  0
ARC
  5
2D2
330
1F
100
AcDbEntity
  8
0-2
  6
Continuous
 62
     6
370
     9
100
AcDbCircle
 10
-144.729104498584
 20
871.4358398099135
 30
0.0
 40
225.0
100
AcDbArc
 50
4.248001098632812
 51
8.519638061523438
  0
ARC
  5
2D3
330
1F
100
AcDbEntity
  8
0-2
  6
Continuous
 62
     6
370
     9
100
AcDbCircle
 10
-144.729104498584
 20
871.4358398099135
 30
0.0
 40
225.0
100
AcDbArc
 50
171.4803619384766
 51
175.7519989013672
  0
ARC
  5
2D4
330
1F
100
AcDbEntity
  8
0-2
  6
Continuous
 62
     6
370
     9
100
AcDbCircle
 10
-144.729104498584
 20
871.4358398099135
 30
0.0
 40
228.3333391756625
100
AcDbArc
 50
3.347640991210938
 51
176.6523590087891
  0
ARC
  5
2D5
330
1F
100
AcDbEntity
  8
0-1
  6
Continuous
 62
     2
370
     9
100
AcDbCircle
 10
76.10252424930452
 20
904.7692006365604
 30
0.0
 40
6.666666752583272
100
AcDbArc
 50
326.6130981445312
 51
8.583190917968754
  0
ARC
  5
2D6
330
1F
100
AcDbEntity
  8
0-1
  6
Continuous
 62
     2
370
     9
100
AcDbCircle
 10
77.84326340154281
 20
901.4359387858423
 30
0.0
 40
6.666666752583272
100
AcDbArc
 50
311.1853179931641
 51
7.676574707031278
  0
ARC
  5
2D7
330
1F
100
AcDbEntity
  8
0-1
  6
Continuous
 62
     2
370
     9
100
AcDbCircle
 10
-164.7290467626254
 20
1093.871868367768
 30
0.0
 40
6.666666752583272
100
AcDbArc
 50
53.16412353515625
 51
95.13787841796874
  0
ARC
  5
2D8
330
1F
100
AcDbEntity
  8
0-1
  6
Continuous
 62
     2
370
     9
100
AcDbCircle
 10
-158.0623993412783
 20
1095.624732071316
 30
0.0
 40
6.666666752583272
100
AcDbArc
 50
36.91690063476562
 51
93.40336608886719
  0
ARC
  5
2D9
330
1F
100
AcDbEntity
  8
0-1
  6
Continuous
 62
     2
370
     9
100
AcDbCircle
 10
-131.3958096558897
 20
1095.624732071316
 30
0.0
 40
6.666666752583272
100
AcDbArc
 50
86.5966339111328
 51
143.0830993652344
  0
ARC
  5
2DA
330
1F
100
AcDbEntity
  8
0-1
  6
Continuous
 62
     2
370
     9
100
AcDbCircle
 10
-124.7291622345426
 20
1093.871868367768
 30
0.0
 40
6.666666752583272
100
AcDbArc
 50
84.86212158203125
 51
126.8358764648437
  0
ARC
  5
2DB
330
1F
100
AcDbEntity
  8
0-1
  6
Continuous
 62
     2
370
     9
100
AcDbCircle
 10
-367.3013486787994
 20
901.4359387858423
 30
0.0
 40
6.666666752583272
100
AcDbArc
 50
172.3234252929688
 51
228.8124694824219
  0
ARC
  5
2DC
330
1F
100
AcDbEntity
  8
0-1
  6
Continuous
 62
     2
370
     9
100
AcDbCircle
 10
-365.5608569663838
 20
904.7692006365604
 30
0.0
 40
6.666666752583272
100
AcDbArc
 50
171.4167938232422
 51
213.3886566162109
  0
ARC
  5
2DD
330
1F
100
AcDbEntity
  8
0-5
  6
Continuous
 62
     2
370
     9
100
AcDbCircle
 10
-470.8252216728872
 20
-257.4510686439507
 30
0.0
 40
5.000000064437453
100
AcDbArc
 50
194.0364074707031
 51
270.0
  0
ARC
  5
2DE
330
1F
100
AcDbEntity
  8
0-5
  6
Continuous
 62
     2
370
     9
100
AcDbCircle
 10
-425.7100136914684
 20
-267.4508541961044
 30
0.0
 40
5.000000064437453
100
AcDbArc
 50
14.03509521484375
 51
90.0
  0
ARC
  5
2DF
330
1F
100
AcDbEntity
  8
0-5
  6
Continuous
 62
     2
370
     9
100
AcDbCircle
 10
-414.5689119574101
 20
-270.7843634866448
 30
0.0
 40
5.000000064437453
100
AcDbArc
 50
194.0364074707031
 51
270.0
  0
ARC
  5
2E0
330
1F
100
AcDbEntity
  8
0-5
  6
Continuous
 62
     2
370
     9
100
AcDbCircle
 10
-415.2997254735629
 20
-254.1175593534101
 30
0.0
 40
5.000000064437453
100
AcDbArc
 50
14.03640747070312
 51
90.0
  0
ARC
  5
2E1
330
1F
100
AcDbEntity
  8
0-5
  6
Continuous
 62
     2
370
     9
100
AcDbCircle
 10
-404.1585000195934
 20
-257.4510686439507
 30
0.0
 40
5.000000064437453
100
AcDbArc
 50
194.0364074707031
 51
270.0
  0
ARC
  5
2E2
330
1F
100
AcDbEntity
  8
0-5
  6
Continuous
 62
     2
370
     9
100
AcDbCircle
 10
34.17458862324879
 20
-270.7843634866448
 30
0.0
 40
5.000000064437453
100
AcDbArc
 50
194.0352783203125
 51
270.0
  0
ARC
  5
2E3
330
1F
100
AcDbEntity
  8
0-5
  6
Continuous
 62
     2
370
     9
100
AcDbCircle
 10
181.3671363956306
 20
-257.4510686439507
 30
0.0
 40
5.000000064437453
100
AcDbArc
 50
270.0
 51
345.9650573730469
  0
ARC
  5
2E4
330
1F
100
AcDbEntity
  8
0-5
  6
Continuous
 62
     2
370
     9
100
AcDbCircle
 10
136.2519284142116
 20
-267.4508541961044
 30
0.0
 40
5.000000064437453
100
AcDbArc
 50
90.0
 51
165.9650573730469
  0
ARC
  5
2E5
330
1F
100
AcDbEntity
  8
0-5
  6
Continuous
 62
     2
370
     9
100
AcDbCircle
 10
125.110702960242
 20
-270.7843634866448
 30
0.0
 40
5.000000064437453
100
AcDbArc
 50
270.0
 51
345.9650573730469
  0
ARC
  5
2E6
330
1F
100
AcDbEntity
  8
0-5
  6
Continuous
 62
     2
370
     9
100
AcDbCircle
 10
114.7004147423365
 20
-257.4510686439507
 30
0.0
 40
5.000000064437453
100
AcDbArc
 50
270.0
 51
345.9650573730469
  0
ARC
  5
2E7
330
1F
100
AcDbEntity
  8
0-5
  6
Continuous
 62
     2
370
     9
100
AcDbCircle
 10
125.8416401963061
 20
-254.1175593534101
 30
0.0
 40
5.000000064437453
100
AcDbArc
 50
90.0
 51
165.9650573730469
  0
ARC
  5
2E8
330
1F
100
AcDbEntity
  8
0-5
  6
Continuous
 62
     2
370
     9
100
AcDbCircle
 10
-396.5273321696145
 20
-267.4508541961044
 30
0.0
 40
5.000000064437453
100
AcDbArc
 50
20.55572509765625
 51
90.0
  0
ARC
  5
2E9
330
1F
100
AcDbEntity
  8
0-5
  6
Continuous
 62
     2
370
     9
100
AcDbCircle
 10
-346.2640149583603
 20
-267.4508541961044
 30
0.0
 40
5.000000064437453
100
AcDbArc
 50
90.0
 51
159.4445037841797
  0
ARC
  5
2EA
330
1F
100
AcDbEntity
  8
0-5
  6
Continuous
 62
     2
370
     9
100
AcDbCircle
 10
-323.632921340328
 20
-270.7843634866448
 30
0.0
 40
5.000000064437453
100
AcDbArc
 50
270.0
 51
345.9647216796875
  0
ARC
  5
2EB
330
1F
100
AcDbEntity
  8
0-0
  6
Continuous
 62
     4
370
     9
100
AcDbCircle
 10
-352.6505605004843
 20
-288.1170281825908
 30
0.0
 40
9.333911457577267
100
AcDbArc
 50
227.9255676269531
 51
312.0746307373047
  0
ARC
  5
2EC
330
1F
100
AcDbEntity
  8
0-0
  6
Continuous
 62
     4
370
     9
100
AcDbCircle
 10
-371.3958591438544
 20
-263.8194273591112
 30
0.0
 40
33.63136729678592
100
AcDbArc
 50
248.1978454589844
 51
291.8021392822267
  0
ARC
  5
2ED
330
1F
100
AcDbEntity
  8
0-0
  6
Continuous
 62
     4
370
     9
100
AcDbCircle
 10
-390.1414052270468
 20
-288.1167807427682
 30
0.0
 40
9.33396558503847
100
AcDbArc
 50
227.9257202148438
 51
312.0742797851562
  0
ARC
  5
2EE
330
1F
100
AcDbEntity
  8
0-0
  6
Continuous
 62
     3
370
     9
100
AcDbCircle
 10
-383.6290365351127
 20
-77.45096966802168
 30
0.0
 40
5.000000064437453
100
AcDbArc
 50
186.8740844726562
 51
257.2897338867188
  0
ARC
  5
2EF
330
1F
100
AcDbEntity
  8
0-0
  6
Continuous
 62
     3
370
     9
100
AcDbCircle
 10
-438.0229904255268
 20
-43.15704744990501
 30
0.0
 40
36.66666520608438
100
AcDbArc
 50
74.99971008300781
 51
123.1291809082031
  0
ARC
  5
2F0
330
1F
100
AcDbEntity
  8
0-0
  6
Continuous
 62
     3
370
     9
100
AcDbCircle
 10
148.5647814283584
 20
-43.15704744990501
 30
0.0
 40
36.66666520608438
100
AcDbArc
 50
56.87078857421875
 51
105.0002746582031
  0
ARC
  5
2F1
330
1F
100
AcDbEntity
  8
0-0
  6
Continuous
 62
     3
370
     9
100
AcDbCircle
 10
45.87156391885686
 20
-69.11756760140423
 30
0.0
 40
3.333333376291636
100
AcDbArc
 50
11.3099365234375
 51
90.0
  0
ARC
  5
2F2
330
1F
100
AcDbEntity
  8
0-0
  6
Continuous
 62
     3
370
     9
100
AcDbCircle
 10
71.58452052780946
 20
-39.62707094019226
 30
0.0
 40
3.333333376291636
100
AcDbArc
 50
105.0018157958984
 51
171.6599731445312
  0
TEXT
  5
2F3
330
1F
100
AcDbEntity
  8
0-4
  6
Continuous
 62
     2
370
     9
100
AcDbText
 10
272.9643067448946
 20
-115.3675266079659
 30
0.0
 40
30.48
  1
67
 50
90.0000025044784
 41
1.062500000000001
  7
ＭＳ ゴシック
100
AcDbText
  0
TEXT
  5
2F4
330
1F
100
AcDbEntity
  8
0-4
  6
Continuous
 62
     2
370
     9
100
AcDbText
 10
-593.7024561483701
 20
64.15390003107532
 30
0.0
 40
30.48
  1
45
 50
90.0000025044778
 41
1.062500000000001
  7
ＭＳ ゴシック
100
AcDbText
  0
TEXT
  5
2F5
330
1F
100
AcDbEntity
  8
0-4
  6
Continuous
 62
     2
370
     9
100
AcDbText
 10
-199.7291663585396
 20
436.0439250215901
 30
0.0
 40
30.48
  1
φ200
 41
1.1
  7
ＭＳ ゴシック
100
AcDbText
  0
TEXT
  5
2F6
330
1F
100
AcDbEntity
  8
0-4
  6
Continuous
 62
     2
370
     9
100
AcDbText
 10
-199.7291663585396
 20
356.0439085256018
 30
0.0
 40
30.48
  1
φ180
 41
1.1
  7
ＭＳ ゴシック
100
AcDbText
  0
TEXT
  5
2F7
330
1F
100
AcDbEntity
  8
0-4
  6
Continuous
 62
     2
370
     9
100
AcDbText
 10
-199.7292900784511
 20
276.0438920296135
 30
0.0
 40
30.48
  1
φ137
 41
1.1
  7
ＭＳ ゴシック
100
AcDbText
  0
TEXT
  5
2F8
330
1F
100
AcDbEntity
  8
0-4
  6
Continuous
 62
     2
370
     9
100
AcDbText
 10
-188.4791663585397
 20
-360.1442438907306
 30
0.0
 40
30.48
  1
φ71
 41
1.09375
  7
ＭＳ ゴシック
100
AcDbText
  0
TEXT
  5
2F9
330
1F
100
AcDbEntity
  8
0-4
  6
Continuous
 62
     2
370
     9
100
AcDbText
 10
-188.4789189187171
 20
-440.1442603867187
 30
0.0
 40
30.48
  1
φ77
 41
1.09375
  7
ＭＳ ゴシック
100
AcDbText
  0
TEXT
  5
2FA
330
1F
100
AcDbEntity
  8
0-4
  6
Continuous
 62
     2
370
     9
100
AcDbText
 10
-199.7291663585396
 20
-520.144276882707
 30
0.0
 40
30.48
  1
φ200
 41
1.1
  7
ＭＳ ゴシック
100
AcDbText
  0
TEXT
  5
2FB
330
1F
100
AcDbEntity
  8
0-4
  6
Continuous
 62
     2
370
     9
100
AcDbText
 10
352.9643232408827
 20
67.72655991019286
 30
0.0
 40
30.48
  1
43
 50
90.00000250447809
 41
1.062500000000001
  7
ＭＳ ゴシック
100
AcDbText
  0
TEXT
  5
2FC
330
1F
100
AcDbEntity
  8
0-E
  6
Continuous
 62
     7
370
     9
100
AcDbText
 10
326.6262223859175
 20
468.4886415545292
 30
0.0
 40
22.86
  1
樹脂系塗装
 41
1.133333333333333
  7
ＭＳ ゴシック
100
AcDbText
  0
TEXT
  5
2FD
330
1F
100
AcDbEntity
  8
0-E
  6
Continuous
 62
     7
370
     9
100
AcDbText
 10
271.3042866806812
 20
394.72633554735
 30
0.0
 40
22.86
  1
丸小ネジ：Ｃ２７００
 41
1.15
  7
ＭＳ ゴシック
100
AcDbText
  0
TEXT
  5
2FE
330
1F
100
AcDbEntity
  8
0-E
  6
Continuous
 62
     7
370
     9
100
AcDbText
 10
236.0995962114033
 20
275.7007288249049
 30
0.0
 40
22.86
  1
防水層押え：ＦＣ１５０
 41
1.151515151515152
  7
ＭＳ ゴシック
100
AcDbText
  0
TEXT
  5
2FF
330
1F
100
AcDbEntity
  8
0-E
  6
Continuous
 62
     7
370
     9
100
AcDbText
 10
341.713865571095
 20
227.0847422328442
 30
0.0
 40
22.86
  1
樹脂系塗装
 41
1.133333333333333
  7
ＭＳ ゴシック
100
AcDbText
  0
TEXT
  5
300
330
1F
100
AcDbEntity
  8
0-E
  6
Continuous
 62
     7
370
     9
100
AcDbText
 10
253.5005542983966
 20
-361.3533227547509
 30
0.0
 40
22.86
  1
クランプ板：ＦＣ１５０
 41
1.151515151515152
  7
ＭＳ ゴシック
100
AcDbText
  0
TEXT
  5
301
330
1F
100
AcDbEntity
  8
0-E
  6
Continuous
 62
     7
370
     9
100
AcDbText
 10
363.6644996768805
 20
-412.4438312930744
 30
0.0
 40
22.86
  1
樹脂系塗装
 41
1.133333333333333
  7
ＭＳ ゴシック
100
AcDbText
  0
TEXT
  5
302
330
1F
100
AcDbEntity
  8
0-E
  6
Continuous
 62
     7
370
     9
100
AcDbText
 10
-857.1333287912362
 20
513.426187743296
 30
0.0
 40
22.86
  1
ボルト：Ｃ３６０２
 41
1.148148148148148
  7
ＭＳ ゴシック
100
AcDbText
  0
TEXT
  5
303
330
1F
100
AcDbEntity
  8
0-E
  6
Continuous
 62
     7
370
     9
100
AcDbText
 10
-811.8546826829696
 20
-94.94395913698288
 30
0.0
 40
22.86
  1
本体：ＦＣ１５０
 41
1.145833333333333
  7
ＭＳ ゴシック
100
AcDbText
  0
TEXT
  5
304
330
1F
100
AcDbEntity
  8
0-E
  6
Continuous
 62
     7
370
     9
100
AcDbText
 10
-825.8950409428408
 20
-520.0455125641893
 30
0.0
 40
22.86
  1
ボルト：Ｃ３６０２
 41
1.148148148148148
  7
ＭＳ ゴシック
100
AcDbText
  0
TEXT
  5
305
330
1F
100
AcDbEntity
  8
0-E
  6
Continuous
 62
     7
370
     9
100
AcDbText
 10
358.4781609944481
 20
346.1102252353778
 30
0.0
 40
22.86
  1
Ｍ６×１２
 41
1.133333333333333
  7
ＭＳ ゴシック
100
AcDbText
  0
TEXT
  5
306
330
1F
100
AcDbEntity
  8
0-E
  6
Continuous
 62
     7
370
     9
100
AcDbText
 10
-792.9436488463988
 20
464.0493236966323
 30
0.0
 40
22.86
  1
Ｍ８×４０
 41
1.133333333333333
  7
ＭＳ ゴシック
100
AcDbText
  0
TEXT
  5
307
330
1F
100
AcDbEntity
  8
0-E
  6
Continuous
 62
     7
370
     9
100
AcDbText
 10
-761.0147564530287
 20
-153.046912248786
 30
0.0
 40
22.86
  1
樹脂系塗装
 41
1.133333333333333
  7
ＭＳ ゴシック
100
AcDbText
  0
TEXT
  5
308
330
1F
100
AcDbEntity
  8
0-E
  6
Continuous
 62
     7
370
     9
100
AcDbText
 10
215.9825489273027
 20
517.1047518665013
 30
0.0
 40
22.86
  1
ストレーナー：ＦＣ１５０
 41
1.152777777777778
  7
ＭＳ ゴシック
100
AcDbText
  0
LINE
  5
309
330
1F
100
AcDbEntity
  8
0-E
  6
Continuous
 62
     7
370
     9
100
AcDbLine
 10
208.2811659036543
 20
500.4039085256018
 30
0.0
 11
629.8358138947208
 21
500.4039085256018
 31
0.0
  0
TEXT
  5
30A
330
1F
100
AcDbEntity
  8
0-4
  6
Continuous
 62
     2
370
     9
100
AcDbText
 10
352.9643237300957
 20
-148.2842226441721
 30
0.0
 40
30.48
  1
100
 50
90.0000025
 41
1.083333333333333
  7
ＭＳ ゴシック
100
AcDbText
  0
TEXT
  5
30B
330
1F
100
AcDbEntity
  8
F-4
  6
Continuous
 62
     6
370
     0
100
AcDbText
 10
-166.7594966067168
 20
-1154.969942900067
 30
0.0
 40
30.48
  1
差し込み式　ＡＬＣ用　ルーフドレイン　　ＥＡＳＲ－１－７５
 41
0.7982758620689655
  7
ＭＳ ゴシック
100
AcDbText
  0
TEXT
  5
30C
330
1F
100
AcDbEntity
  8
0-E
  6
Continuous
 62
     7
370
     9
100
AcDbText
 10
-776.1418539179253
 20
-573.8328677294129
 30
0.0
 40
22.86
  1
Ｍ８×１００
 41
1.138888888888889
  7
ＭＳ ゴシック
100
AcDbText
  0
ENDSEC
  0
SECTION
  2
OBJECTS
  0
DICTIONARY
  5
C
330
0
100
AcDbDictionary
281
     1
  3
ACAD_GROUP
350
D
  3
ACAD_LAYOUT
350
1A
  3
ACAD_MLEADERSTYLE
350
30E
  3
ACAD_MLINESTYLE
350
17
  3
ACAD_PLOTSETTINGS
350
19
  3
ACAD_PLOTSTYLENAME
350
E
  3
ACAD_TABLESTYLE
350
30D
  3
ACAD_VISUALSTYLE
350
2A
  3
AcDbVariableDictionary
350
30F
  0
DICTIONARY
  5
D
102
{ACAD_REACTORS
330
C
102
}
330
C
100
AcDbDictionary
281
     1
  0
DICTIONARY
  5
1A
102
{ACAD_REACTORS
330
C
102
}
330
C
100
AcDbDictionary
281
     1
  3
Layout1
350
1E
  3
Layout2
350
26
  3
Model
350
22
  0
DICTIONARY
  5
30E
102
{ACAD_REACTORS
330
C
102
}
330
C
100
AcDbDictionary
281
     1
  0
DICTIONARY
  5
17
102
{ACAD_REACTORS
330
C
102
}
330
C
100
AcDbDictionary
281
     1
  3
Standard
350
18
  0
DICTIONARY
  5
19
102
{ACAD_REACTORS
330
C
102
}
330
C
100
AcDbDictionary
281
     1
  0
ACDBDICTIONARYWDFLT
  5
E
102
{ACAD_REACTORS
330
C
102
}
330
C
100
AcDbDictionary
281
     1
  3
Normal
350
F
100
AcDbDictionaryWithDefault
340
F
  0
DICTIONARY
  5
30D
102
{ACAD_REACTORS
330
C
102
}
330
C
100
AcDbDictionary
281
     1
  0
DICTIONARY
  5
2A
102
{ACAD_REACTORS
330
C
102
}
330
C
100
AcDbDictionary
281
     1
  3
2dWireframe
350
2F
  3
3D Hidden
350
31
  3
3dWireframe
350
30
  3
Basic
350
32
  3
Brighten
350
36
  3
ColorChange
350
3A
  3
Conceptual
350
34
  3
Dim
350
35
  3
Facepattern
350
39
  3
Flat
350
2B
  3
FlatWithEdges
350
2C
  3
Gouraud
350
2D
  3
GouraudWithEdges
350
2E
  3
Linepattern
350
38
  3
Realistic
350
33
  3
Thicken
350
37
  0
DICTIONARY
  5
30F
102
{ACAD_REACTORS
330
C
102
}
330
C
100
AcDbDictionary
281
     1
  3
PSOLHEIGHT
350
311
  3
PSOLWIDTH
350
310
  0
LAYOUT
  5
1E
102
{ACAD_REACTORS
330
1A
102
}
102
{ACAD_XDICTIONARY
360
312
102
}
330
1A
100
AcDbPlotSettings
  1

  2
none_device
  4

  6

 40
0.0
 41
0.0
 42
0.0
 43
0.0
 44
0.0
 45
0.0
 46
0.0
 47
0.0
 48
0.0
 49
0.0
140
0.0
141
0.0
142
1.0
143
1.0
 70
   688
 72
     0
 73
     0
 74
     5
  7

 75
    16
147
1.0
148
0.0
149
0.0
100
AcDbLayout
  1
Layout1
 70
     1
 71
     1
 10
0.0
 20
0.0
 11
420.0
 21
297.0
 12
0.0
 22
0.0
 32
0.0
 14
1.000000000000000E+20
 24
1.000000000000000E+20
 34
1.000000000000000E+20
 15
-1.000000000000000E+20
 25
-1.000000000000000E+20
 35
-1.000000000000000E+20
146
0.0
 13
0.0
 23
0.0
 33
0.0
 16
1.0
 26
0.0
 36
0.0
 17
0.0
 27
1.0
 37
0.0
 76
     0
330
1B
  0
LAYOUT
  5
26
102
{ACAD_REACTORS
330
1A
102
}
102
{ACAD_XDICTIONARY
360
316
102
}
330
1A
100
AcDbPlotSettings
  1

  2
none_device
  4

  6

 40
0.0
 41
0.0
 42
0.0
 43
0.0
 44
0.0
 45
0.0
 46
0.0
 47
0.0
 48
0.0
 49
0.0
140
0.0
141
0.0
142
1.0
143
1.0
 70
   688
 72
     0
 73
     0
 74
     5
  7

 75
    16
147
1.0
148
0.0
149
0.0
100
AcDbLayout
  1
Layout2
 70
     1
 71
     2
 10
0.0
 20
0.0
 11
0.0
 21
0.0
 12
0.0
 22
0.0
 32
0.0
 14
0.0
 24
0.0
 34
0.0
 15
0.0
 25
0.0
 35
0.0
146
0.0
 13
0.0
 23
0.0
 33
0.0
 16
1.0
 26
0.0
 36
0.0
 17
0.0
 27
1.0
 37
0.0
 76
     0
330
23
  0
LAYOUT
  5
22
102
{ACAD_REACTORS
330
1A
102
}
102
{ACAD_XDICTIONARY
360
314
102
}
330
1A
100
AcDbPlotSettings
  1

  2
none_device
  4

  6

 40
0.0
 41
0.0
 42
0.0
 43
0.0
 44
0.0
 45
0.0
 46
0.0
 47
0.0
 48
0.0
 49
0.0
140
0.0
141
0.0
142
1.0
143
1.0
 70
  1712
 72
     0
 73
     0
 74
     0
  7

 75
     0
147
1.0
148
0.0
149
0.0
100
AcDbLayout
  1
Model
 70
     1
 71
     0
 10
-2100.0
 20
-1485.0
 11
2100.0
 21
1485.0
 12
0.0
 22
0.0
 32
0.0
 14
-2100.0
 24
-1485.0
 34
0.0
 15
2100.0
 25
1485.0
 35
0.0
146
0.0
 13
0.0
 23
0.0
 33
0.0
 16
1.0
 26
0.0
 36
0.0
 17
0.0
 27
1.0
 37
0.0
 76
     0
330
1F
331
29
  0
MLINESTYLE
  5
18
102
{ACAD_REACTORS
330
17
102
}
330
17
100
AcDbMlineStyle
  2
Standard
 70
     0
  3

 62
   256
 51
90.0
 52
90.0
 71
     2
 49
0.5
 62
   256
  6
BYLAYER
 49
-0.5
 62
   256
  6
BYLAYER
  0
ACDBPLACEHOLDER
  5
F
102
{ACAD_REACTORS
330
E
102
}
330
E
  0
VISUALSTYLE
  5
2F
102
{ACAD_REACTORS
330
2A
102
}
330
2A
100
AcDbVisualStyle
  2
2dWireframe
 70
     4
 71
     0
 72
     2
 73
     0
 90
        0
 40
-0.6
 41
-30.0
 62
     5
 63
     7
 74
     1
 91
        4
 64
     7
 65
   257
 75
     1
175
     1
 42
1.0
 92
        0
 66
   257
 43
1.0
 76
     1
 77
     6
 78
     2
 67
     7
 79
     5
170
     0
171
     0
290
     0
174
     0
 93
        1
 44
0.0
173
     0
291
     0
 45
0.0
1001
ACAD
1000
AcDbSavedByObjectVersion
1070
     0
  0
VISUALSTYLE
  5
31
102
{ACAD_REACTORS
330
2A
102
}
330
2A
100
AcDbVisualStyle
  2
3D Hidden
 70
     6
 71
     1
 72
     2
 73
     2
 90
        0
 40
-0.6
 41
-30.0
 62
     5
 63
     7
 74
     2
 91
        2
 64
     7
 65
   257
 75
     2
175
     1
 42
40.0
 92
        0
 66
   257
 43
1.0
 76
     1
 77
     6
 78
     2
 67
     7
 79
     3
170
     0
171
     0
290
     0
174
     0
 93
        1
 44
0.0
173
     0
291
     0
 45
0.0
1001
ACAD
1000
AcDbSavedByObjectVersion
1070
     0
  0
VISUALSTYLE
  5
30
102
{ACAD_REACTORS
330
2A
102
}
330
2A
100
AcDbVisualStyle
  2
3dWireframe
 70
     5
 71
     0
 72
     2
 73
     0
 90
        0
 40
-0.6
 41
-30.0
 62
     5
 63
     7
 74
     1
 91
        4
 64
     7
 65
   257
 75
     1
175
     1
 42
1.0
 92
        0
 66
   257
 43
1.0
 76
     1
 77
     6
 78
     2
 67
     7
 79
     5
170
     0
171
     0
290
     0
174
     0
 93
        1
 44
0.0
173
     0
291
     0
 45
0.0
1001
ACAD
1000
AcDbSavedByObjectVersion
1070
     0
  0
VISUALSTYLE
  5
32
102
{ACAD_REACTORS
330
2A
102
}
330
2A
100
AcDbVisualStyle
  2
Basic
 70
     7
 71
     1
 72
     0
 73
     1
 90
        0
 40
-0.6
 41
-30.0
 62
     5
 63
     7
 74
     0
 91
        4
 64
     7
 65
   257
 75
     1
175
     1
 42
1.0
 92
        8
 66
     7
 43
1.0
 76
     1
 77
     6
 78
     2
 67
     7
 79
     5
170
     0
171
     0
290
     0
174
     0
 93
        1
 44
0.0
173
     0
291
     1
 45
0.0
1001
ACAD
1000
AcDbSavedByObjectVersion
1070
     0
  0
VISUALSTYLE
  5
36
102
{ACAD_REACTORS
330
2A
102
}
330
2A
100
AcDbVisualStyle
  2
Brighten
 70
    12
 71
     2
 72
     2
 73
     0
 90
        0
 40
-0.6
 41
-30.0
 62
     5
 63
     7
 74
     1
 91
        4
 64
     7
 65
   257
 75
     1
175
     1
 42
1.0
 92
        8
 66
     7
 43
1.0
 76
     1
 77
     6
 78
     2
 67
     7
 79
     5
170
     0
171
     0
290
     0
174
     0
 93
        1
 44
50.0
173
     0
291
     1
 45
0.0
1001
ACAD
1000
AcDbSavedByObjectVersion
1070
     0
  0
VISUALSTYLE
  5
3A
102
{ACAD_REACTORS
330
2A
102
}
330
2A
100
AcDbVisualStyle
  2
ColorChange
 70
    16
 71
     2
 72
     2
 73
     3
 90
        0
 40
-0.6
 41
-30.0
 62
     5
 63
     8
 74
     1
 91
        4
 64
     7
 65
   257
 75
     1
175
     1
 42
1.0
 92
        8
 66
     8
 43
1.0
 76
     1
 77
     6
 78
     2
 67
     7
 79
     5
170
     0
171
     0
290
     0
174
     0
 93
        1
 44
0.0
173
     0
291
     1
 45
0.0
1001
ACAD
1000
AcDbSavedByObjectVersion
1070
     0
  0
VISUALSTYLE
  5
34
102
{ACAD_REACTORS
330
2A
102
}
330
2A
100
AcDbVisualStyle
  2
Conceptual
 70
     9
 71
     3
 72
     2
 73
     0
 90
        0
 40
-0.6
 41
-30.0
 62
     5
 63
     7
 74
     2
 91
        2
 64
     7
 65
   257
 75
     1
175
     1
 42
40.0
 92
        8
 66
     7
 43
1.0
 76
     1
 77
     6
 78
     2
 67
     7
 79
     3
170
     0
171
     0
290
     0
174
     0
 93
        1
 44
0.0
173
     0
291
     0
 45
0.0
1001
ACAD
1000
AcDbSavedByObjectVersion
1070
     0
  0
VISUALSTYLE
  5
35
102
{ACAD_REACTORS
330
2A
102
}
330
2A
100
AcDbVisualStyle
  2
Dim
 70
    11
 71
     2
 72
     2
 73
     0
 90
        0
 40
-0.6
 41
-30.0
 62
     5
 63
     7
 74
     1
 91
        4
 64
     7
 65
   257
 75
     1
175
     1
 42
1.0
 92
        8
 66
     7
 43
1.0
 76
     1
 77
     6
 78
     2
 67
     7
 79
     5
170
     0
171
     0
290
     0
174
     0
 93
        1
 44
-50.0
173
     0
291
     1
 45
0.0
1001
ACAD
1000
AcDbSavedByObjectVersion
1070
     0
  0
VISUALSTYLE
  5
39
102
{ACAD_REACTORS
330
2A
102
}
330
2A
100
AcDbVisualStyle
  2
Facepattern
 70
    15
 71
     2
 72
     2
 73
     0
 90
        0
 40
-0.6
 41
-30.0
 62
     5
 63
     7
 74
     1
 91
        4
 64
     7
 65
   257
 75
     1
175
     1
 42
1.0
 92
        8
 66
     7
 43
1.0
 76
     1
 77
     6
 78
     2
 67
     7
 79
     5
170
     0
171
     0
290
     0
174
     0
 93
        1
 44
0.0
173
     0
291
     1
 45
0.0
1001
ACAD
1000
AcDbSavedByObjectVersion
1070
     0
  0
VISUALSTYLE
  5
2B
102
{ACAD_REACTORS
330
2A
102
}
330
2A
100
AcDbVisualStyle
  2
Flat
 70
     0
 71
     2
 72
     1
 73
     1
 90
        2
 40
-0.6
 41
30.0
 62
     5
 63
     7
 74
     0
 91
        4
 64
     7
 65
   257
 75
     1
175
     1
 42
1.0
 92
        8
 66
     7
 43
1.0
 76
     1
 77
     6
 78
     2
 67
     7
 79
     5
170
     0
171
     0
290
     0
174
     0
 93
       13
 44
0.0
173
     0
291
     1
 45
0.0
1001
ACAD
1000
AcDbSavedByObjectVersion
1070
     0
  0
VISUALSTYLE
  5
2C
102
{ACAD_REACTORS
330
2A
102
}
330
2A
100
AcDbVisualStyle
  2
FlatWithEdges
 70
     1
 71
     2
 72
     1
 73
     1
 90
        2
 40
-0.6
 41
30.0
 62
     5
 63
     7
 74
     1
 91
        4
 64
     7
 65
   257
 75
     1
175
     1
 42
1.0
 92
        0
 66
   257
 43
1.0
 76
     1
 77
     6
 78
     2
 67
     7
 79
     5
170
     0
171
     0
290
     0
174
     0
 93
       13
 44
0.0
173
     0
291
     1
 45
0.0
1001
ACAD
1000
AcDbSavedByObjectVersion
1070
     0
  0
VISUALSTYLE
  5
2D
102
{ACAD_REACTORS
330
2A
102
}
330
2A
100
AcDbVisualStyle
  2
Gouraud
 70
     2
 71
     2
 72
     2
 73
     1
 90
        2
 40
-0.6
 41
30.0
 62
     5
 63
     7
 74
     0
 91
        4
 64
     7
 65
   257
 75
     1
175
     1
 42
1.0
 92
        0
 66
     7
 43
1.0
 76
     1
 77
     6
 78
     2
 67
     7
 79
     5
170
     0
171
     0
290
     0
174
     0
 93
       13
 44
0.0
173
     0
291
     1
 45
0.0
1001
ACAD
1000
AcDbSavedByObjectVersion
1070
     0
  0
VISUALSTYLE
  5
2E
102
{ACAD_REACTORS
330
2A
102
}
330
2A
100
AcDbVisualStyle
  2
GouraudWithEdges
 70
     3
 71
     2
 72
     2
 73
     1
 90
        2
 40
-0.6
 41
30.0
 62
     5
 63
     7
 74
     1
 91
        4
 64
     7
 65
   257
 75
     1
175
     1
 42
1.0
 92
        0
 66
   257
 43
1.0
 76
     1
 77
     6
 78
     2
 67
     7
 79
     5
170
     0
171
     0
290
     0
174
     0
 93
       13
 44
0.0
173
     0
291
     1
 45
0.0
1001
ACAD
1000
AcDbSavedByObjectVersion
1070
     0
  0
VISUALSTYLE
  5
38
102
{ACAD_REACTORS
330
2A
102
}
330
2A
100
AcDbVisualStyle
  2
Linepattern
 70
    14
 71
     2
 72
     2
 73
     0
 90
        0
 40
-0.6
 41
-30.0
 62
     5
 63
     7
 74
     1
 91
        4
 64
     7
 65
   257
 75
     7
175
     7
 42
1.0
 92
        8
 66
     7
 43
1.0
 76
     1
 77
     6
 78
     2
 67
     7
 79
     5
170
     0
171
     0
290
     0
174
     0
 93
        1
 44
0.0
173
     0
291
     1
 45
0.0
1001
ACAD
1000
AcDbSavedByObjectVersion
1070
     0
  0
VISUALSTYLE
  5
33
102
{ACAD_REACTORS
330
2A
102
}
330
2A
100
AcDbVisualStyle
  2
Realistic
 70
     8
 71
     2
 72
     2
 73
     0
 90
        0
 40
-0.6
 41
-30.0
 62
     5
 63
     7
 74
     1
 91
        0
 64
     7
 65
   257
 75
     1
175
     1
 42
1.0
 92
        8
 66
     8
 43
1.0
 76
     1
 77
     6
 78
     2
 67
     7
 79
     5
170
     0
171
     0
290
     0
174
     0
 93
       13
 44
0.0
173
     0
291
     0
 45
0.0
1001
ACAD
1000
AcDbSavedByObjectVersion
1070
     0
  0
VISUALSTYLE
  5
37
102
{ACAD_REACTORS
330
2A
102
}
330
2A
100
AcDbVisualStyle
  2
Thicken
 70
    13
 71
     2
 72
     2
 73
     0
 90
        0
 40
-0.6
 41
-30.0
 62
     5
 63
     7
 74
     1
 91
        4
 64
     7
 65
   257
 75
     1
175
     1
 42
1.0
 92
       12
 66
     7
 43
1.0
 76
     1
 77
     6
 78
     2
 67
     7
 79
     5
170
     0
171
     0
290
     0
174
     0
 93
        1
 44
0.0
173
     0
291
     1
 45
0.0
1001
ACAD
1000
AcDbSavedByObjectVersion
1070
     0
  0
DICTIONARYVAR
  5
311
102
{ACAD_REACTORS
330
30F
102
}
330
30F
100
DictionaryVariables
280
     0
  1
80.000000
  0
DICTIONARYVAR
  5
310
102
{ACAD_REACTORS
330
30F
102
}
330
30F
100
DictionaryVariables
280
     0
  1
5.000000
  0
DICTIONARY
  5
312
330
1E
100
AcDbDictionary
280
     1
281
     1
  3
ACAD_XREC_ROUNDTRIP
360
313
  0
DICTIONARY
  5
316
330
26
100
AcDbDictionary
280
     1
281
     1
  3
ACAD_XREC_ROUNDTRIP
360
317
  0
DICTIONARY
  5
314
330
22
100
AcDbDictionary
280
     1
281
     1
  3
ACAD_XREC_ROUNDTRIP
360
315
  0
XRECORD
  5
313
102
{ACAD_REACTORS
330
312
102
}
330
312
100
AcDbXrecord
280
     1
102
SHADEPLOT
 70
     0
102
SHADEPLOTRESLEVEL
 70
     5
102
SHADEPLOTCUSTOMDPI
 70
   300
  0
XRECORD
  5
317
102
{ACAD_REACTORS
330
316
102
}
330
316
100
AcDbXrecord
280
     1
102
SHADEPLOT
 70
     0
102
SHADEPLOTRESLEVEL
 70
     5
102
SHADEPLOTCUSTOMDPI
 70
   300
  0
XRECORD
  5
315
102
{ACAD_REACTORS
330
314
102
}
330
314
100
AcDbXrecord
280
     1
102
SHADEPLOT
 70
     0
102
SHADEPLOTRESLEVEL
 70
     5
102
SHADEPLOTCUSTOMDPI
 70
   300
  0
ENDSEC
  0
EOF
