  0
SECTION
  2
HEADER
  9
$ACADVER
  1
AC1018
  9
$ACADMAINTVER
 70
     0
  9
$DWGCODEPAGE
  3
ANSI_932
  9
$INSBASE
 10
0.0
 20
0.0
 30
0.0
  9
$EXTMIN
 10
-2100.0
 20
-1485.0
 30
0.0
  9
$EXTMAX
 10
2100.0
 20
1485.0
 30
0.0
  9
$LIMMIN
 10
-2100.0
 20
-1485.0
  9
$LIMMAX
 10
2100.0
 20
1485.0
  9
$ORTHOMODE
 70
     0
  9
$REGENMODE
 70
     1
  9
$FILLMODE
 70
     1
  9
$QTEXTMODE
 70
     0
  9
$MIRRTEXT
 70
     1
  9
$LTSCALE
 40
10.0
  9
$ATTMODE
 70
     1
  9
$TEXTSIZE
 40
2.5
  9
$TRACEWID
 40
1.0
  9
$TEXTSTYLE
  7
Standard
  9
$CLAYER
  8
0
  9
$CELTYPE
  6
ByLayer
  9
$CECOLOR
 62
   256
  9
$CELTSCALE
 40
1.0
  9
$DISPSILH
 70
     0
  9
$DIMSCALE
 40
1.0
  9
$DIMASZ
 40
2.5
  9
$DIMEXO
 40
0.625
  9
$DIMDLI
 40
3.75
  9
$DIMRND
 40
0.0
  9
$DIMDLE
 40
0.0
  9
$DIMEXE
 40
1.25
  9
$DIMTP
 40
0.0
  9
$DIMTM
 40
0.0
  9
$DIMTXT
 40
2.5
  9
$DIMCEN
 40
2.5
  9
$DIMTSZ
 40
0.0
  9
$DIMTOL
 70
     0
  9
$DIMLIM
 70
     0
  9
$DIMTIH
 70
     0
  9
$DIMTOH
 70
     0
  9
$DIMSE1
 70
     0
  9
$DIMSE2
 70
     0
  9
$DIMTAD
 70
     1
  9
$DIMZIN
 70
     8
  9
$DIMBLK
  1

  9
$DIMASO
 70
     1
  9
$DIMSHO
 70
     1
  9
$DIMPOST
  1

  9
$DIMAPOST
  1

  9
$DIMALT
 70
     0
  9
$DIMALTD
 70
     3
  9
$DIMALTF
 40
0.03937007874016
  9
$DIMLFAC
 40
1.0
  9
$DIMTOFL
 70
     1
  9
$DIMTVP
 40
0.0
  9
$DIMTIX
 70
     0
  9
$DIMSOXD
 70
     0
  9
$DIMSAH
 70
     0
  9
$DIMBLK1
  1

  9
$DIMBLK2
  1

  9
$DIMSTYLE
  2
ISO-25
  9
$DIMCLRD
 70
     0
  9
$DIMCLRE
 70
     0
  9
$DIMCLRT
 70
     0
  9
$DIMTFAC
 40
1.0
  9
$DIMGAP
 40
0.625
  9
$DIMJUST
 70
     0
  9
$DIMSD1
 70
     0
  9
$DIMSD2
 70
     0
  9
$DIMTOLJ
 70
     0
  9
$DIMTZIN
 70
     8
  9
$DIMALTZ
 70
     0
  9
$DIMALTTZ
 70
     0
  9
$DIMUPT
 70
     0
  9
$DIMDEC
 70
     2
  9
$DIMTDEC
 70
     2
  9
$DIMALTU
 70
     2
  9
$DIMALTTD
 70
     3
  9
$DIMTXSTY
  7
Standard
  9
$DIMAUNIT
 70
     0
  9
$DIMADEC
 70
     0
  9
$DIMALTRND
 40
0.0
  9
$DIMAZIN
 70
     0
  9
$DIMDSEP
 70
    44
  9
$DIMATFIT
 70
     3
  9
$DIMFRAC
 70
     0
  9
$DIMLDRBLK
  1

  9
$DIMLUNIT
 70
     2
  9
$DIMLWD
 70
    -2
  9
$DIMLWE
 70
    -2
  9
$DIMTMOVE
 70
     0
  9
$LUNITS
 70
     2
  9
$LUPREC
 70
     4
  9
$SKETCHINC
 40
1.0
  9
$FILLETRAD
 40
10.0
  9
$AUNITS
 70
     0
  9
$AUPREC
 70
     0
  9
$MENU
  1
.
  9
$ELEVATION
 40
0.0
  9
$PELEVATION
 40
0.0
  9
$THICKNESS
 40
0.0
  9
$LIMCHECK
 70
     0
  9
$CHAMFERA
 40
10.0
  9
$CHAMFERB
 40
10.0
  9
$CHAMFERC
 40
20.0
  9
$CHAMFERD
 40
0.0
  9
$SKPOLY
 70
     0
  9
$TDCREATE
 40
2456498.819381678
  9
$TDUCREATE
 40
2456498.444381678
  9
$TDUPDATE
 40
2456498.81938169
  9
$TDUUPDATE
 40
2456498.44438169
  9
$TDINDWG
 40
0.0000000116
  9
$TDUSRTIMER
 40
0.0000000116
  9
$USRTIMER
 70
     1
  9
$ANGBASE
 50
0.0
  9
$ANGDIR
 70
     0
  9
$PDMODE
 70
     0
  9
$PDSIZE
 40
0.0
  9
$PLINEWID
 40
0.0
  9
$SPLFRAME
 70
     0
  9
$SPLINETYPE
 70
     6
  9
$SPLINESEGS
 70
     8
  9
$HANDSEED
  5
319
  9
$SURFTAB1
 70
     6
  9
$SURFTAB2
 70
     6
  9
$SURFTYPE
 70
     6
  9
$SURFU
 70
     6
  9
$SURFV
 70
     6
  9
$UCSBASE
  2

  9
$UCSNAME
  2

  9
$UCSORG
 10
0.0
 20
0.0
 30
0.0
  9
$UCSXDIR
 10
1.0
 20
0.0
 30
0.0
  9
$UCSYDIR
 10
0.0
 20
1.0
 30
0.0
  9
$UCSORTHOREF
  2

  9
$UCSORTHOVIEW
 70
     0
  9
$UCSORGTOP
 10
0.0
 20
0.0
 30
0.0
  9
$UCSORGBOTTOM
 10
0.0
 20
0.0
 30
0.0
  9
$UCSORGLEFT
 10
0.0
 20
0.0
 30
0.0
  9
$UCSORGRIGHT
 10
0.0
 20
0.0
 30
0.0
  9
$UCSORGFRONT
 10
0.0
 20
0.0
 30
0.0
  9
$UCSORGBACK
 10
0.0
 20
0.0
 30
0.0
  9
$PUCSBASE
  2

  9
$PUCSNAME
  2

  9
$PUCSORG
 10
0.0
 20
0.0
 30
0.0
  9
$PUCSXDIR
 10
1.0
 20
0.0
 30
0.0
  9
$PUCSYDIR
 10
0.0
 20
1.0
 30
0.0
  9
$PUCSORTHOREF
  2

  9
$PUCSORTHOVIEW
 70
     0
  9
$PUCSORGTOP
 10
0.0
 20
0.0
 30
0.0
  9
$PUCSORGBOTTOM
 10
0.0
 20
0.0
 30
0.0
  9
$PUCSORGLEFT
 10
0.0
 20
0.0
 30
0.0
  9
$PUCSORGRIGHT
 10
0.0
 20
0.0
 30
0.0
  9
$PUCSORGFRONT
 10
0.0
 20
0.0
 30
0.0
  9
$PUCSORGBACK
 10
0.0
 20
0.0
 30
0.0
  9
$USERI1
 70
     0
  9
$USERI2
 70
     0
  9
$USERI3
 70
     0
  9
$USERI4
 70
     0
  9
$USERI5
 70
     0
  9
$USERR1
 40
0.0
  9
$USERR2
 40
0.0
  9
$USERR3
 40
0.0
  9
$USERR4
 40
0.0
  9
$USERR5
 40
0.0
  9
$WORLDVIEW
 70
     1
  9
$SHADEDGE
 70
     3
  9
$SHADEDIF
 70
    70
  9
$TILEMODE
 70
     1
  9
$MAXACTVP
 70
    64
  9
$PINSBASE
 10
0.0
 20
0.0
 30
0.0
  9
$PLIMCHECK
 70
     0
  9
$PEXTMIN
 10
1.000000000000000E+20
 20
1.000000000000000E+20
 30
1.000000000000000E+20
  9
$PEXTMAX
 10
-1.000000000000000E+20
 20
-1.000000000000000E+20
 30
-1.000000000000000E+20
  9
$PLIMMIN
 10
0.0
 20
0.0
  9
$PLIMMAX
 10
420.0
 20
297.0
  9
$UNITMODE
 70
     0
  9
$VISRETAIN
 70
     1
  9
$PLINEGEN
 70
     0
  9
$PSLTSCALE
 70
     1
  9
$TREEDEPTH
 70
  3020
  9
$CMLSTYLE
  2
Standard
  9
$CMLJUST
 70
     0
  9
$CMLSCALE
 40
20.0
  9
$PROXYGRAPHICS
 70
     1
  9
$MEASUREMENT
 70
     1
  9
$CELWEIGHT
370
    -1
  9
$ENDCAPS
280
     0
  9
$JOINSTYLE
280
     0
  9
$LWDISPLAY
290
     0
  9
$INSUNITS
 70
     4
  9
$HYPERLINKBASE
  1

  9
$STYLESHEET
  1

  9
$XEDIT
290
     1
  9
$CEPSNTYPE
380
     0
  9
$PSTYLEMODE
290
     1
  9
$FINGERPRINTGUID
  2
{CEE101B5-A766-4A22-A3EA-C1FFC0CD13F1}
  9
$VERSIONGUID
  2
{FAEB1C32-E019-11D5-929B-00C0DF256EC4}
  9
$EXTNAMES
290
     1
  9
$PSVPSCALE
 40
0.0
  9
$OLESTARTUP
290
     0
  9
$SORTENTS
280
   127
  9
$INDEXCTL
280
     0
  9
$HIDETEXT
280
     1
  9
$XCLIPFRAME
290
     0
  9
$HALOGAP
280
     0
  9
$OBSCOLOR
 70
   257
  9
$OBSLTYPE
280
     0
  9
$INTERSECTIONDISPLAY
280
     0
  9
$INTERSECTIONCOLOR
 70
   257
  9
$DIMASSOC
280
     2
  9
$PROJECTNAME
  1

  0
ENDSEC
  0
SECTION
  2
CLASSES
  0
CLASS
  1
ACDBDICTIONARYWDFLT
  2
AcDbDictionaryWithDefault
  3
ObjectDBX Classes
 90
        0
 91
        4
280
     0
281
     0
  0
CLASS
  1
VISUALSTYLE
  2
AcDbVisualStyle
  3
ObjectDBX Classes
 90
     4095
 91
        4
280
     0
281
     0
  0
ENDSEC
  0
SECTION
  2
TABLES
  0
TABLE
  2
VPORT
  5
8
330
0
100
AcDbSymbolTable
 70
     1
  0
VPORT
  5
29
330
8
100
AcDbSymbolTableRecord
100
AcDbViewportTableRecord
  2
*Active
 70
     0
 10
0.0
 20
0.0
 11
1.0
 21
1.0
 12
0.0
 22
0.0
 13
0.0
 23
0.0
 14
10.0
 24
10.0
 15
10.0
 25
10.0
 16
0.0
 26
0.0
 36
1.0
 17
0.0
 27
0.0
 37
0.0
 40
3267.0
 41
1.414141414141414
 42
50.0
 43
0.0
 44
0.0
 50
0.0
 51
0.0
 71
     0
 72
 10000
 73
     1
 74
     3
 75
     0
 76
     0
 77
     0
 78
     0
281
     0
 65
     1
110
0.0
120
0.0
130
0.0
111
1.0
121
0.0
131
0.0
112
0.0
122
1.0
132
0.0
 79
     0
146
0.0
  0
ENDTAB
  0
TABLE
  2
LTYPE
  5
5
330
0
100
AcDbSymbolTable
 70
     4
  0
LTYPE
  5
14
330
5
100
AcDbSymbolTableRecord
100
AcDbLinetypeTableRecord
  2
ByBlock
 70
     0
  3

 72
    65
 73
     0
 40
0.0
  0
LTYPE
  5
15
330
5
100
AcDbSymbolTableRecord
100
AcDbLinetypeTableRecord
  2
ByLayer
 70
     0
  3

 72
    65
 73
     0
 40
0.0
  0
LTYPE
  5
16
330
5
100
AcDbSymbolTableRecord
100
AcDbLinetypeTableRecord
  2
Continuous
 70
     0
  3
Solid line
 72
    65
 73
     0
 40
0.0
  0
LTYPE
  5
3C
330
5
100
AcDbSymbolTableRecord
100
AcDbLinetypeTableRecord
  2
JWW_DASHED1
 70
     0
  3
-  --  --  --  --  --  --  --  -
 72
    65
 73
     2
 40
1.693333333333333
 49
0.8466666666666667
 74
     0
 49
-0.8466666666666667
 74
     0
  0
LTYPE
  5
3D
330
5
100
AcDbSymbolTableRecord
100
AcDbLinetypeTableRecord
  2
JWW_CENTER1
 70
     0
  3
-----  --  ----------  --  -----
 72
    65
 73
     4
 40
6.773333333333333
 49
4.233333333333333
 74
     0
 49
-0.8466666666666667
 74
     0
 49
0.8466666666666667
 74
     0
 49
-0.8466666666666667
 74
     0
  0
LTYPE
  5
3E
330
5
100
AcDbSymbolTableRecord
100
AcDbLinetypeTableRecord
  2
JWW_PHANTOM1
 70
     0
  3
----  -  -  --------  -  -  ----
 72
    65
 73
     6
 40
6.773333333333333
 49
3.386666666666667
 74
     0
 49
-0.8466666666666667
 74
     0
 49
0.4233333333333333
 74
     0
 49
-0.8466666666666667
 74
     0
 49
0.4233333333333333
 74
     0
 49
-0.8466666666666667
 74
     0
  0
ENDTAB
  0
TABLE
  2
LAYER
  5
2
330
0
100
AcDbSymbolTable
 70
     7
  0
LAYER
  5
10
330
2
100
AcDbSymbolTableRecord
100
AcDbLayerTableRecord
  2
0
 70
     0
 62
     7
  6
Continuous
370
    -3
390
F
  0
LAYER
  5
3F
330
2
100
AcDbSymbolTableRecord
100
AcDbLayerTableRecord
  2
0-4_寸法
 70
     0
 62
     7
  6
Continuous
370
    -3
390
F
  0
LAYER
  5
40
330
2
100
AcDbSymbolTableRecord
100
AcDbLayerTableRecord
  2
0-1_ピット
 70
     0
 62
     7
  6
Continuous
370
    -3
390
F
  0
LAYER
  5
41
330
2
100
AcDbSymbolTableRecord
100
AcDbLayerTableRecord
  2
0-2_本体（蓋）
 70
     0
 62
     7
  6
Continuous
370
    -3
390
F
  0
LAYER
  5
42
330
2
100
AcDbSymbolTableRecord
100
AcDbLayerTableRecord
  2
0-0_通り芯
 70
     0
 62
     7
  6
Continuous
370
    -3
390
F
  0
LAYER
  5
43
330
2
100
AcDbSymbolTableRecord
100
AcDbLayerTableRecord
  2
0-3_受枠
 70
     0
 62
     7
  6
Continuous
370
    -3
390
F
  0
LAYER
  5
44
330
2
100
AcDbSymbolTableRecord
100
AcDbLayerTableRecord
  2
0-5_文字
 70
     0
 62
     7
  6
Continuous
370
    -3
390
F
  0
ENDTAB
  0
TABLE
  2
STYLE
  5
3
330
0
100
AcDbSymbolTable
 70
     2
  0
STYLE
  5
11
330
3
100
AcDbSymbolTableRecord
100
AcDbTextStyleTableRecord
  2
Standard
 70
     0
 40
0.0
 41
1.0
 50
0.0
 71
     0
 42
2.5
  3
txt
  4

1001
ACAD
1000

1071
        0
  0
STYLE
  5
3B
330
3
100
AcDbSymbolTableRecord
100
AcDbTextStyleTableRecord
  2
ＭＳ ゴシック
 70
     0
 40
1.0
 41
1.0
 50
0.0
 71
     0
 42
10.0
  3

  4

1001
ACAD
1000
MS Gothic
1071
    32817
  0
ENDTAB
  0
TABLE
  2
VIEW
  5
6
330
0
100
AcDbSymbolTable
 70
     0
  0
ENDTAB
  0
TABLE
  2
UCS
  5
7
330
0
100
AcDbSymbolTable
 70
     0
  0
ENDTAB
  0
TABLE
  2
APPID
  5
9
330
0
100
AcDbSymbolTable
 70
     1
  0
APPID
  5
12
330
9
100
AcDbSymbolTableRecord
100
AcDbRegAppTableRecord
  2
ACAD
 70
     0
  0
ENDTAB
  0
TABLE
  2
DIMSTYLE
  5
A
330
0
100
AcDbSymbolTable
 70
     1
100
AcDbDimStyleTable
  0
DIMSTYLE
105
27
330
A
100
AcDbSymbolTableRecord
100
AcDbDimStyleTableRecord
  2
ISO-25
 70
     0
 41
2.5
 42
0.625
 43
3.75
 44
1.25
 73
     0
 74
     0
 77
     1
 78
     8
140
2.5
141
2.5
143
0.03937007874016
147
0.625
171
     3
172
     1
271
     2
272
     2
274
     3
278
    44
283
     0
284
     8
340
11
  0
ENDTAB
  0
TABLE
  2
BLOCK_RECORD
  5
1
330
0
100
AcDbSymbolTable
 70
     1
  0
BLOCK_RECORD
  5
1F
330
1
100
AcDbSymbolTableRecord
100
AcDbBlockTableRecord
  2
*Model_Space
340
22
  0
BLOCK_RECORD
  5
1B
330
1
100
AcDbSymbolTableRecord
100
AcDbBlockTableRecord
  2
*Paper_Space
340
1E
  0
BLOCK_RECORD
  5
23
330
1
100
AcDbSymbolTableRecord
100
AcDbBlockTableRecord
  2
*Paper_Space0
340
26
  0
ENDTAB
  0
ENDSEC
  0
SECTION
  2
BLOCKS
  0
BLOCK
  5
20
330
1F
100
AcDbEntity
  8
0
100
AcDbBlockBegin
  2
*Model_Space
 70
     0
 10
0.0
 20
0.0
 30
0.0
  3
*Model_Space
  1

  0
ENDBLK
  5
21
330
1F
100
AcDbEntity
  8
0
100
AcDbBlockEnd
  0
BLOCK
  5
1C
330
1B
100
AcDbEntity
 67
     1
  8
0
100
AcDbBlockBegin
  2
*Paper_Space
 70
     0
 10
0.0
 20
0.0
 30
0.0
  3
*Paper_Space
  1

  0
ENDBLK
  5
1D
330
1B
100
AcDbEntity
 67
     1
  8
0
100
AcDbBlockEnd
  0
BLOCK
  5
24
330
23
100
AcDbEntity
  8
0
100
AcDbBlockBegin
  2
*Paper_Space0
 70
     0
 10
0.0
 20
0.0
 30
0.0
  3
*Paper_Space0
  1

  0
ENDBLK
  5
25
330
23
100
AcDbEntity
  8
0
100
AcDbBlockEnd
  0
ENDSEC
  0
SECTION
  2
ENTITIES
  0
TEXT
  5
45
330
1F
100
AcDbEntity
  8
0-4_寸法
  6
Continuous
 62
     6
370
     0
100
AcDbText
 10
-110.8778058569942
 20
-1103.561363163372
 30
0.0
 40
22.86
  1
鋳鉄製　たて引き用　シート防水用　ねじ込み式　ＡＬＣ＝１００
 41
0.9
  7
ＭＳ ゴシック
100
AcDbText
  0
TEXT
  5
46
330
1F
100
AcDbEntity
  8
0-4_寸法
  6
Continuous
 62
     6
370
     0
100
AcDbText
 10
-108.012486992716
 20
-1146.541146127546
 30
0.0
 40
22.86
  1
ＡＬＣ用　屋上用ルーフドレイン　ＥＡＳＲ－２－７５
 41
0.9
  7
ＭＳ ゴシック
100
AcDbText
  0
LINE
  5
47
330
1F
100
AcDbEntity
  8
0-1_ピット
  6
Continuous
 62
     2
370
    13
100
AcDbLine
 10
-431.9364230795168
 20
-22.88663167458409
 30
0.0
 11
-430.2697921541579
 21
-16.2198605333257
 31
0.0
  0
LINE
  5
48
330
1F
100
AcDbEntity
  8
0-1_ピット
  6
Continuous
 62
     2
370
    13
100
AcDbLine
 10
-411.7398898763918
 20
-16.2198605333257
 30
0.0
 11
-430.2697921541579
 21
-16.2198605333257
 31
0.0
  0
LINE
  5
49
330
1F
100
AcDbEntity
  8
0-1_ピット
  6
Continuous
 62
     2
370
    13
100
AcDbLine
 10
-366.9363323515819
 20
-2.886565690631251
 30
0.0
 11
-376.9363653435582
 21
-2.886565690631251
 31
0.0
  0
LINE
  5
4A
330
1F
100
AcDbEntity
  8
0-1_ピット
  6
Continuous
 62
     2
370
    13
100
AcDbLine
 10
-378.5799843654121
 20
-13.61728847884923
 30
0.0
 11
-376.9363653435582
 21
-2.886565690631251
 31
0.0
  0
LINE
  5
4B
330
1F
100
AcDbEntity
  8
0-1_ピット
  6
Continuous
 62
     2
370
    13
100
AcDbLine
 10
-366.9363323515819
 20
-2.886565690631251
 30
0.0
 11
-362.709441581417
 21
-25.43946832471065
 31
0.0
  0
LINE
  5
4C
330
1F
100
AcDbEntity
  8
0-1_ピット
  6
Continuous
 62
     2
370
    13
100
AcDbLine
 10
168.0635769204832
 20
-22.88663167458409
 30
0.0
 11
166.3968222752129
 21
-16.2198605333257
 31
0.0
  0
LINE
  5
4D
330
1F
100
AcDbEntity
  8
0-1_ピット
  6
Continuous
 62
     2
370
    13
100
AcDbLine
 10
147.8670437173582
 20
-16.2198605333257
 30
0.0
 11
166.3968222752129
 21
-16.2198605333257
 31
0.0
  0
LINE
  5
4E
330
1F
100
AcDbEntity
  8
0-1_ピット
  6
Continuous
 62
     2
370
    13
100
AcDbLine
 10
114.7071382063785
 20
-13.61728847884923
 30
0.0
 11
113.0636429044358
 21
-2.886565690631251
 31
0.0
  0
LINE
  5
4F
330
1F
100
AcDbEntity
  8
0-1_ピット
  6
Continuous
 62
     2
370
    13
100
AcDbLine
 10
-295.2698416421222
 20
-41.21994301326659
 30
0.0
 11
-291.9364560714931
 21
-57.88649970667862
 31
0.0
  0
LINE
  5
50
330
1F
100
AcDbEntity
  8
0-1_ピット
  6
Continuous
 62
     2
370
    13
100
AcDbLine
 10
-255.269709674217
 20
-41.21994301326659
 30
0.0
 11
-258.6030952448462
 21
-57.88649970667862
 31
0.0
  0
LINE
  5
51
330
1F
100
AcDbEntity
  8
0-1_ピット
  6
Continuous
 62
     2
370
    13
100
AcDbLine
 10
-234.465835426434
 20
-45.23935549215153
 30
0.0
 11
-231.9363818395465
 21
-57.88649970667862
 31
0.0
  0
LINE
  5
52
330
1F
100
AcDbEntity
  8
0-1_ピット
  6
Continuous
 62
     2
370
    13
100
AcDbLine
 10
-239.3687317920379
 20
-41.21994301326659
 30
0.0
 11
-318.438003395184
 21
-41.21994301326659
 31
0.0
  0
LINE
  5
53
330
1F
100
AcDbEntity
  8
0-1_ピット
  6
Continuous
 62
     2
370
    13
100
AcDbLine
 10
-318.438003395184
 20
-41.21994301326659
 30
0.0
 11
-357.8822618015397
 21
-30.65079842922934
 31
0.0
  0
LINE
  5
54
330
1F
100
AcDbEntity
  8
0-1_ピット
  6
Continuous
 62
     2
370
    13
100
AcDbLine
 10
-391.0528072248925
 20
-21.76325487982055
 30
0.0
 11
-411.7398898763918
 21
-16.2198605333257
 31
0.0
  0
LINE
  5
55
330
1F
100
AcDbEntity
  8
0-1_ピット
  6
JWW_DASHED1
 62
     2
370
    13
100
AcDbLine
 10
-357.8822618015397
 20
-30.65079842922934
 30
0.0
 11
-391.0528072248925
 21
-21.76325487982055
 31
0.0
  0
LINE
  5
56
330
1F
100
AcDbEntity
  8
0-1_ピット
  6
Continuous
 62
     2
370
    13
100
AcDbLine
 10
55.66329516900508
 20
-27.01071119844393
 30
0.0
 11
53.80625930012853
 21
-37.44797035701659
 31
0.0
  0
LINE
  5
57
330
1F
100
AcDbEntity
  8
0-1_ピット
  6
JWW_DASHED1
 62
     2
370
    13
100
AcDbLine
 10
100.0797330913025
 20
-18.80758619844393
 30
0.0
 11
98.83659542238347
 21
-25.43946832471065
 31
0.0
  0
LINE
  5
58
330
1F
100
AcDbEntity
  8
0-1_ピット
  6
Continuous
 62
     2
370
    13
100
AcDbLine
 10
35.90473045194442
 20
-46.21995950925466
 30
0.0
 11
48.96806844814363
 21
-42.71967577825805
 31
0.0
  0
LINE
  5
59
330
1F
100
AcDbEntity
  8
0-1_ピット
  6
JWW_DASHED1
 62
     2
370
    13
100
AcDbLine
 10
48.96806844814363
 20
-42.71967577825805
 30
0.0
 11
127.1800847857705
 21
-21.76276000017523
 31
0.0
  0
LINE
  5
5A
330
1F
100
AcDbEntity
  8
0-1_ピット
  6
Continuous
 62
     2
370
    13
100
AcDbLine
 10
127.1800847857705
 20
-21.76276000017523
 30
0.0
 11
147.8670437173582
 21
-16.2198605333257
 31
0.0
  0
LINE
  5
5B
330
1F
100
AcDbEntity
  8
0-1_ピット
  6
Continuous
 62
     2
370
    13
100
AcDbLine
 10
103.0636099124595
 20
-2.886565690631251
 30
0.0
 11
100.0797330913025
 21
-18.80758619844393
 31
0.0
  0
LINE
  5
5C
330
1F
100
AcDbEntity
  8
0-1_ピット
  6
Continuous
 62
     2
370
    13
100
AcDbLine
 10
103.0636099124595
 20
-2.886565690631251
 30
0.0
 11
113.0636429044358
 21
-2.886565690631251
 31
0.0
  0
LINE
  5
5D
330
1F
100
AcDbEntity
  8
0-1_ピット
  6
Continuous
 62
     4
370
    13
100
AcDbLine
 10
-261.9364808154754
 20
-78.48673098043278
 30
0.0
 11
-288.6030705008639
 21
-78.48673098043278
 31
0.0
  0
LINE
  5
5E
330
1F
100
AcDbEntity
  8
0-1_ピット
  6
Continuous
 62
     4
370
    13
100
AcDbLine
 10
-288.6030705008639
 20
-78.48673098043278
 30
0.0
 11
-286.34815139719
 21
-80.74140264428429
 31
0.0
  0
LINE
  5
5F
330
1F
100
AcDbEntity
  8
0-1_ピット
  6
Continuous
 62
     4
370
    13
100
AcDbLine
 10
-286.34815139719
 20
-80.74140264428429
 30
0.0
 11
-264.1913999191493
 21
-80.74140264428429
 31
0.0
  0
LINE
  5
60
330
1F
100
AcDbEntity
  8
0-1_ピット
  6
Continuous
 62
     4
370
    13
100
AcDbLine
 10
-264.1913999191493
 20
-80.74140264428429
 30
0.0
 11
-261.9364808154754
 21
-78.48673098043278
 31
0.0
  0
LINE
  5
61
330
1F
100
AcDbEntity
  8
0-1_ピット
  6
Continuous
 62
     4
370
    13
100
AcDbLine
 10
-300.2698581381105
 20
-21.95897977952491
 30
0.0
 11
-300.2698581381105
 21
-41.21994301326659
 31
0.0
  0
LINE
  5
62
330
1F
100
AcDbEntity
  8
0-1_ピット
  6
Continuous
 62
     4
370
    13
100
AcDbLine
 10
-250.2696931782287
 20
-21.95897977952491
 30
0.0
 11
-250.2696931782287
 21
-41.21994301326659
 31
0.0
  0
LINE
  5
63
330
1F
100
AcDbEntity
  8
0-1_ピット
  6
Continuous
 62
     4
370
    13
100
AcDbLine
 10
-287.7605379047912
 20
-21.95897977952491
 30
0.0
 11
-287.7605379047912
 21
-41.21994301326659
 31
0.0
  0
LINE
  5
64
330
1F
100
AcDbEntity
  8
0-1_ピット
  6
Continuous
 62
     4
370
    13
100
AcDbLine
 10
-262.779013411548
 20
-21.95897977952491
 30
0.0
 11
-262.779013411548
 21
-41.21994301326659
 31
0.0
  0
LINE
  5
65
330
1F
100
AcDbEntity
  8
0-1_ピット
  6
Continuous
 62
     4
370
    13
100
AcDbLine
 10
-294.0150743015397
 20
-19.5531223840435
 30
0.0
 11
-256.5244770147999
 21
-19.5531223840435
 31
0.0
  0
LINE
  5
66
330
1F
100
AcDbEntity
  8
0-1_ピット
  6
Continuous
 62
     4
370
    13
100
AcDbLine
 10
-288.6030705008639
 20
50.33675039889555
 30
0.0
 11
-286.34815139719
 21
52.59191694239217
 31
0.0
  0
LINE
  5
67
330
1F
100
AcDbEntity
  8
0-1_ピット
  6
Continuous
 62
     4
370
    13
100
AcDbLine
 10
-264.1913999191493
 20
52.59191694239217
 30
0.0
 11
-261.9364808154754
 21
50.33675039889555
 31
0.0
  0
LINE
  5
68
330
1F
100
AcDbEntity
  8
0-1_ピット
  6
Continuous
 62
     2
370
    13
100
AcDbLine
 10
-288.6030705008639
 20
-57.88649970667862
 30
0.0
 11
-301.3135593099855
 21
-57.88649970667862
 31
0.0
  0
LINE
  5
69
330
1F
100
AcDbEntity
  8
0-1_ピット
  6
Continuous
 62
     2
370
    13
100
AcDbLine
 10
-310.5638496393775
 20
990.845618642139
 30
0.0
 11
-317.6555986760118
 21
997.9372439588619
 31
0.0
  0
LINE
  5
6A
330
1F
100
AcDbEntity
  8
0-1_ピット
  6
Continuous
 62
     2
370
    13
100
AcDbLine
 10
-303.7256027010329
 20
991.0784595152384
 30
0.0
 11
-316.7095125141662
 21
1004.062369328372
 31
0.0
  0
LINE
  5
6B
330
1F
100
AcDbEntity
  8
0-1_ピット
  6
Continuous
 62
     2
370
    13
100
AcDbLine
 10
-353.492184468347
 20
916.4914365792165
 30
0.0
 11
-363.1797009643353
 21
919.087080318659
 31
0.0
  0
LINE
  5
6C
330
1F
100
AcDbEntity
  8
0-1_ピット
  6
Continuous
 62
     2
370
    13
100
AcDbLine
 10
-350.2748481745337
 20
910.4529151476288
 30
0.0
 11
-368.0110872211975
 21
915.205244381159
 31
0.0
  0
LINE
  5
6D
330
1F
100
AcDbEntity
  8
0-1_ピット
  6
Continuous
 62
     2
370
    13
100
AcDbLine
 10
-368.0110872211975
 20
915.205244381159
 30
0.0
 11
-363.1797009643353
 21
919.087080318659
 31
0.0
  0
LINE
  5
6E
330
1F
100
AcDbEntity
  8
0-1_ピット
  6
Continuous
 62
     2
370
    13
100
AcDbLine
 10
-353.492184468347
 20
916.4914365792165
 30
0.0
 11
-350.2748481745337
 21
910.4529151476288
 31
0.0
  0
LINE
  5
6F
330
1F
100
AcDbEntity
  8
0-1_ピット
  6
Continuous
 62
     2
370
    13
100
AcDbLine
 10
-310.5638496393775
 20
990.845618642139
 30
0.0
 11
-303.7256027010329
 21
991.0784595152384
 31
0.0
  0
LINE
  5
70
330
1F
100
AcDbEntity
  8
0-1_ピット
  6
Continuous
 62
     2
370
    13
100
AcDbLine
 10
-316.7095125141662
 20
1004.062369328372
 30
0.0
 11
-317.6555986760118
 21
997.9372439588619
 31
0.0
  0
LINE
  5
71
330
1F
100
AcDbEntity
  8
0-1_ピット
  6
Continuous
 62
     2
370
    13
100
AcDbLine
 10
-210.2824280811004
 20
1059.701192966463
 30
0.0
 11
-212.8780718205431
 21
1069.388709462452
 31
0.0
  0
LINE
  5
72
330
1F
100
AcDbEntity
  8
0-1_ピット
  6
Continuous
 62
     2
370
    13
100
AcDbLine
 10
-204.2437829296011
 20
1056.483980392561
 30
0.0
 11
-208.9962358830431
 21
1074.220466879048
 31
0.0
  0
LINE
  5
73
330
1F
100
AcDbEntity
  8
0-1_ピット
  6
Continuous
 62
     2
370
    13
100
AcDbLine
 10
-284.6364864241113
 20
1016.772858137494
 30
0.0
 11
-291.7282354607457
 21
1023.864483454216
 31
0.0
  0
LINE
  5
74
330
1F
100
AcDbEntity
  8
0-1_ピット
  6
Continuous
 62
     2
370
    13
100
AcDbLine
 10
-284.8694510171222
 20
1009.934611199149
 30
0.0
 11
-297.8532371103444
 21
1022.91827357246
 31
0.0
  0
LINE
  5
75
330
1F
100
AcDbEntity
  8
0-1_ピット
  6
Continuous
 62
     2
370
    13
100
AcDbLine
 10
-297.8532371103444
 20
1022.91827357246
 30
0.0
 11
-291.7282354607457
 21
1023.864483454216
 31
0.0
  0
LINE
  5
76
330
1F
100
AcDbEntity
  8
0-1_ピット
  6
Continuous
 62
     2
370
    13
100
AcDbLine
 10
-284.6364864241113
 20
1016.772858137494
 30
0.0
 11
-284.8694510171222
 21
1009.934611199149
 31
0.0
  0
LINE
  5
77
330
1F
100
AcDbEntity
  8
0-1_ピット
  6
Continuous
 62
     2
370
    13
100
AcDbLine
 10
-208.9962358830431
 20
1074.220466879048
 30
0.0
 11
-212.8780718205431
 21
1069.388709462452
 31
0.0
  0
LINE
  5
78
330
1F
100
AcDbEntity
  8
0-1_ピット
  6
Continuous
 62
     2
370
    13
100
AcDbLine
 10
-89.00808825054725
 20
1069.191252483988
 30
0.0
 11
-86.41244451110452
 21
1078.879016419799
 31
0.0
  0
LINE
  5
79
330
1F
100
AcDbEntity
  8
0-1_ピット
  6
Continuous
 62
     2
370
    13
100
AcDbLine
 10
-85.38705388610452
 20
1063.3855719255
 30
0.0
 11
-80.63472465257433
 21
1081.122058411987
 31
0.0
  0
LINE
  5
7A
330
1F
100
AcDbEntity
  8
0-1_ピット
  6
Continuous
 62
     2
370
    13
100
AcDbLine
 10
-174.8648816283978
 20
1069.191252483988
 30
0.0
 11
-177.4606490877517
 21
1078.878768979977
 31
0.0
  0
LINE
  5
7B
330
1F
100
AcDbEntity
  8
0-1_ピット
  6
Continuous
 62
     2
370
    13
100
AcDbLine
 10
-178.485792272929
 20
1063.3855719255
 30
0.0
 11
-183.2381215064592
 21
1081.122058411987
 31
0.0
  0
LINE
  5
7C
330
1F
100
AcDbEntity
  8
0-1_ピット
  6
Continuous
 62
     2
370
    13
100
AcDbLine
 10
-183.2381215064592
 20
1081.122058411987
 30
0.0
 11
-177.4606490877517
 21
1078.878768979977
 31
0.0
  0
LINE
  5
7D
330
1F
100
AcDbEntity
  8
0-1_ピット
  6
Continuous
 62
     2
370
    13
100
AcDbLine
 10
-174.8648816283978
 20
1069.191252483988
 30
0.0
 11
-178.485792272929
 21
1063.3855719255
 31
0.0
  0
LINE
  5
7E
330
1F
100
AcDbEntity
  8
0-1_ピット
  6
Continuous
 62
     2
370
    13
100
AcDbLine
 10
-89.00808825054725
 20
1069.191252483988
 30
0.0
 11
-85.38705388610452
 21
1063.3855719255
 31
0.0
  0
LINE
  5
7F
330
1F
100
AcDbEntity
  8
0-1_ピット
  6
Continuous
 62
     2
370
    13
100
AcDbLine
 10
-80.63472465257433
 20
1081.122058411987
 30
0.0
 11
-86.41244451110452
 21
1078.879016419799
 31
0.0
  0
LINE
  5
80
330
1F
100
AcDbEntity
  8
0-1_ピット
  6
Continuous
 62
     2
370
    13
100
AcDbLine
 10
20.7633928252551
 20
1016.772858137494
 30
0.0
 11
27.85526558180067
 21
1023.864730894039
 31
0.0
  0
LINE
  5
81
330
1F
100
AcDbEntity
  8
0-1_ピット
  6
Continuous
 62
     2
370
    13
100
AcDbLine
 10
20.9964811381775
 20
1009.934611199149
 30
0.0
 11
33.98039095131081
 21
1022.918768452105
 31
0.0
  0
LINE
  5
82
330
1F
100
AcDbEntity
  8
0-1_ピット
  6
Continuous
 62
     2
370
    13
100
AcDbLine
 10
-53.59054179784437
 20
1059.701192966463
 30
0.0
 11
-50.99489805840193
 21
1069.388956902274
 31
0.0
  0
LINE
  5
83
330
1F
100
AcDbEntity
  8
0-1_ピット
  6
Continuous
 62
     2
370
    13
100
AcDbLine
 10
-59.6290632294324
 20
1056.483980392561
 30
0.0
 11
-54.87673399590193
 21
1074.220466879048
 31
0.0
  0
LINE
  5
84
330
1F
100
AcDbEntity
  8
0-1_ピット
  6
Continuous
 62
     2
370
    13
100
AcDbLine
 10
-54.87673399590193
 20
1074.220466879048
 30
0.0
 11
-50.99489805840193
 21
1069.388956902274
 31
0.0
  0
LINE
  5
85
330
1F
100
AcDbEntity
  8
0-1_ピット
  6
Continuous
 62
     2
370
    13
100
AcDbLine
 10
-53.59054179784437
 20
1059.701192966463
 30
0.0
 11
-59.6290632294324
 21
1056.483980392561
 31
0.0
  0
LINE
  5
86
330
1F
100
AcDbEntity
  8
0-1_ピット
  6
Continuous
 62
     2
370
    13
100
AcDbLine
 10
20.7633928252551
 20
1016.772858137494
 30
0.0
 11
20.9964811381775
 21
1009.934611199149
 31
0.0
  0
LINE
  5
87
330
1F
100
AcDbEntity
  8
0-1_ピット
  6
Continuous
 62
     2
370
    13
100
AcDbLine
 10
33.98039095131081
 20
1022.918768452105
 30
0.0
 11
27.85526558180067
 21
1023.864730894039
 31
0.0
  0
LINE
  5
88
330
1F
100
AcDbEntity
  8
0-1_ピット
  6
Continuous
 62
     2
370
    13
100
AcDbLine
 10
89.61921458940223
 20
916.4914365792165
 30
0.0
 11
99.30673108539024
 21
919.087080318659
 31
0.0
  0
LINE
  5
89
330
1F
100
AcDbEntity
  8
0-1_ピット
  6
Continuous
 62
     2
370
    13
100
AcDbLine
 10
86.40200201550014
 20
910.4529151476288
 30
0.0
 11
104.1382410621639
 21
915.205244381159
 31
0.0
  0
LINE
  5
8A
330
1F
100
AcDbEntity
  8
0-1_ピット
  6
Continuous
 62
     2
370
    13
100
AcDbLine
 10
46.69087976043242
 20
990.845618642139
 30
0.0
 11
53.78250507715562
 21
997.9372439588619
 31
0.0
  0
LINE
  5
8B
330
1F
100
AcDbEntity
  8
0-1_ピット
  6
Continuous
 62
     2
370
    13
100
AcDbLine
 10
39.8526328220879
 20
991.0784595152384
 30
0.0
 11
52.83654263522151
 21
1004.062369328372
 31
0.0
  0
LINE
  5
8C
330
1F
100
AcDbEntity
  8
0-1_ピット
  6
Continuous
 62
     2
370
    13
100
AcDbLine
 10
52.83654263522151
 20
1004.062369328372
 30
0.0
 11
53.78250507715562
 21
997.9372439588619
 31
0.0
  0
LINE
  5
8D
330
1F
100
AcDbEntity
  8
0-1_ピット
  6
Continuous
 62
     2
370
    13
100
AcDbLine
 10
46.69087976043242
 20
990.845618642139
 30
0.0
 11
39.8526328220879
 21
991.0784595152384
 31
0.0
  0
LINE
  5
8E
330
1F
100
AcDbEntity
  8
0-1_ピット
  6
Continuous
 62
     2
370
    13
100
AcDbLine
 10
89.61921458940223
 20
916.4914365792165
 30
0.0
 11
86.40200201550014
 21
910.4529151476288
 31
0.0
  0
LINE
  5
8F
330
1F
100
AcDbEntity
  8
0-1_ピット
  6
Continuous
 62
     2
370
    13
100
AcDbLine
 10
104.1382410621639
 20
915.205244381159
 30
0.0
 11
99.30673108539024
 21
919.087080318659
 31
0.0
  0
LINE
  5
90
330
1F
100
AcDbEntity
  8
0-1_ピット
  6
Continuous
 62
     2
370
    13
100
AcDbLine
 10
99.10927410692749
 20
881.073890126514
 30
0.0
 11
108.7970380427382
 21
883.669781305779
 31
0.0
  0
LINE
  5
91
330
1F
100
AcDbEntity
  8
0-1_ピット
  6
Continuous
 62
     2
370
    13
100
AcDbLine
 10
93.30384098826185
 20
884.6949244909564
 30
0.0
 11
111.0400800349257
 21
889.4472537244869
 31
0.0
  0
LINE
  5
92
330
1F
100
AcDbEntity
  8
0-1_ピット
  6
Continuous
 62
     2
370
    13
100
AcDbLine
 10
111.0400800349257
 20
889.4472537244869
 30
0.0
 11
108.7970380427382
 21
883.669781305779
 31
0.0
  0
LINE
  5
93
330
1F
100
AcDbEntity
  8
0-1_ピット
  6
Continuous
 62
     2
370
    13
100
AcDbLine
 10
99.10927410692749
 20
881.073890126514
 30
0.0
 11
93.30384098826185
 21
884.6949244909564
 31
0.0
  0
LINE
  5
94
330
1F
100
AcDbEntity
  8
0-1_ピット
  6
Continuous
 62
     2
370
    13
100
AcDbLine
 10
99.73010062191916
 20
-42.9215866735283
 30
0.0
 11
106.3968717631775
 21
-41.13531859392523
 31
0.0
  0
LINE
  5
95
330
1F
100
AcDbEntity
  8
0-1_ピット
  6
Continuous
 62
     2
370
    13
100
AcDbLine
 10
99.73010062191916
 20
-42.9215866735283
 30
0.0
 11
96.39659133137853
 21
-42.08944655000643
 31
0.0
  0
LINE
  5
96
330
1F
100
AcDbEntity
  8
0-1_ピット
  6
Continuous
 62
     2
370
    13
100
AcDbLine
 10
37.44058943104078
 20
-57.88649970667862
 30
0.0
 11
96.39659133137853
 21
-42.08944655000643
 31
0.0
  0
LINE
  5
97
330
1F
100
AcDbEntity
  8
0-1_ピット
  6
Continuous
 62
     2
370
    13
100
AcDbLine
 10
106.3968717631775
 20
-41.13531859392523
 30
0.0
 11
109.7306284935408
 21
-38.51666295097758
 31
0.0
  0
LINE
  5
98
330
1F
100
AcDbEntity
  8
0-1_ピット
  6
Continuous
 62
     2
370
    13
100
AcDbLine
 10
109.7306284935408
 20
-38.51666295097758
 30
0.0
 11
168.0635769204832
 21
-22.88663167458409
 31
0.0
  0
LINE
  5
99
330
1F
100
AcDbEntity
  8
0-1_ピット
  6
Continuous
 62
     2
370
    13
100
AcDbLine
 10
-363.6029467809527
 20
-42.9215866735283
 30
0.0
 11
-370.269717922211
 21
-41.13531859392523
 31
0.0
  0
LINE
  5
9A
330
1F
100
AcDbEntity
  8
0-1_ピット
  6
Continuous
 62
     2
370
    13
100
AcDbLine
 10
-370.269717922211
 20
-41.13531859392523
 30
0.0
 11
-373.6032272127517
 21
-38.51666295097758
 31
0.0
  0
LINE
  5
9B
330
1F
100
AcDbEntity
  8
0-1_ピット
  6
Continuous
 62
     2
370
    13
100
AcDbLine
 10
-373.6032272127517
 20
-38.51666295097758
 30
0.0
 11
-431.9364230795168
 21
-22.88663167458409
 31
0.0
  0
LINE
  5
9C
330
1F
100
AcDbEntity
  8
0-1_ピット
  6
Continuous
 62
     2
370
    13
100
AcDbLine
 10
-363.6029467809527
 20
-42.9215866735283
 30
0.0
 11
-360.2698086501459
 21
-42.08944655000643
 31
0.0
  0
LINE
  5
9D
330
1F
100
AcDbEntity
  8
0-1_ピット
  6
Continuous
 62
     2
370
    13
100
AcDbLine
 10
-301.3135593099855
 20
-57.88649970667862
 30
0.0
 11
-360.2698086501459
 21
-42.08944655000643
 31
0.0
  0
LINE
  5
9E
330
1F
100
AcDbEntity
  8
0-1_ピット
  6
Continuous
 62
     2
370
    13
100
AcDbLine
 10
-362.982120265961
 20
881.073890126514
 30
0.0
 11
-372.6696367619493
 21
883.669781305779
 31
0.0
  0
LINE
  5
9F
330
1F
100
AcDbEntity
  8
0-1_ピット
  6
Continuous
 62
     2
370
    13
100
AcDbLine
 10
-357.1766871472954
 20
884.6949244909564
 30
0.0
 11
-374.9129261939595
 21
889.4472537244869
 31
0.0
  0
LINE
  5
A0
330
1F
100
AcDbEntity
  8
0-1_ピット
  6
Continuous
 62
     2
370
    13
100
AcDbLine
 10
-374.9129261939595
 20
889.4472537244869
 30
0.0
 11
-372.6696367619493
 21
883.669781305779
 31
0.0
  0
LINE
  5
A1
330
1F
100
AcDbEntity
  8
0-1_ピット
  6
Continuous
 62
     2
370
    13
100
AcDbLine
 10
-362.982120265961
 20
881.073890126514
 30
0.0
 11
-357.1766871472954
 21
884.6949244909564
 31
0.0
  0
LINE
  5
A2
330
1F
100
AcDbEntity
  8
0-1_ピット
  6
Continuous
 62
     2
370
    13
100
AcDbLine
 10
-261.9364808154754
 20
-57.88649970667862
 30
0.0
 11
37.44058943104078
 21
-57.88649970667862
 31
0.0
  0
LINE
  5
A3
330
1F
100
AcDbEntity
  8
0-1_ピット
  6
Continuous
 62
     2
370
    13
100
AcDbLine
 10
14.03971052479079
 20
-48.63744657639991
 30
0.0
 11
11.39705321904728
 21
-57.88649970667862
 31
0.0
  0
LINE
  5
A4
330
1F
100
AcDbEntity
  8
0-1_ピット
  6
Continuous
 62
     2
370
    13
100
AcDbLine
 10
-234.2697393669957
 20
-46.21995950925466
 30
0.0
 11
35.90473045194442
 21
-46.21995950925466
 31
0.0
  0
LINE
  5
A5
330
1F
100
AcDbEntity
  8
0-2_本体（蓋）
  6
Continuous
 62
     6
370
    13
100
AcDbLine
 10
62.23010062191916
 20
0.6792895933635279
 30
0.0
 11
97.22996865401369
 21
0.6792895933635279
 31
0.0
  0
LINE
  5
A6
330
1F
100
AcDbEntity
  8
0-2_本体（蓋）
  6
Continuous
 62
     6
370
    13
100
AcDbLine
 10
78.06327999269597
 20
4.012551444081502
 30
0.0
 11
81.3967892832366
 21
4.012551444081502
 31
0.0
  0
LINE
  5
A7
330
1F
100
AcDbEntity
  8
0-2_本体（蓋）
  6
Continuous
 62
     6
370
    13
100
AcDbLine
 10
81.3967892832366
 20
13.61915511806796
 30
0.0
 11
81.3967892832366
 21
4.012551444081502
 31
0.0
  0
LINE
  5
A8
330
1F
100
AcDbEntity
  8
0-2_本体（蓋）
  6
Continuous
 62
     6
370
    13
100
AcDbLine
 10
78.06327999269597
 20
13.61915511806796
 30
0.0
 11
78.06327999269597
 21
4.012551444081502
 31
0.0
  0
LINE
  5
A9
330
1F
100
AcDbEntity
  8
0-2_本体（蓋）
  6
Continuous
 62
     6
370
    13
100
AcDbLine
 10
71.3967562912603
 20
-39.32084237454184
 30
0.0
 11
88.06331298467255
 21
-39.32084237454184
 31
0.0
  0
LINE
  5
AA
330
1F
100
AcDbEntity
  8
0-2_本体（蓋）
  6
Continuous
 62
     6
370
    13
100
AcDbLine
 10
69.73000164598999
 20
-37.65384028944894
 30
0.0
 11
89.73006762994258
 21
-37.65384028944894
 31
0.0
  0
LINE
  5
AB
330
1F
100
AcDbEntity
  8
0-2_本体（蓋）
  6
Continuous
 62
     6
370
    13
100
AcDbLine
 10
69.73000164598999
 20
-37.65384028944894
 30
0.0
 11
71.3967562912603
 21
-39.32084237454184
 31
0.0
  0
LINE
  5
AC
330
1F
100
AcDbEntity
  8
0-2_本体（蓋）
  6
Continuous
 62
     6
370
    13
100
AcDbLine
 10
89.73006762994258
 20
-37.65384028944894
 30
0.0
 11
88.06331298467255
 21
-39.32084237454184
 31
0.0
  0
LINE
  5
AD
330
1F
100
AcDbEntity
  8
0-2_本体（蓋）
  6
Continuous
 62
     6
370
    13
100
AcDbLine
 10
88.06331298467255
 20
0.6792895933635279
 30
0.0
 11
88.06331298467255
 21
-39.32084237454184
 31
0.0
  0
LINE
  5
AE
330
1F
100
AcDbEntity
  8
0-2_本体（蓋）
  6
Continuous
 62
     6
370
    13
100
AcDbLine
 10
71.3967562912603
 20
0.6792895933635279
 30
0.0
 11
71.3967562912603
 21
-39.32084237454184
 31
0.0
  0
LINE
  5
AF
330
1F
100
AcDbEntity
  8
0-2_本体（蓋）
  6
Continuous
 62
     6
370
    13
100
AcDbLine
 10
69.73000164598999
 20
0.6792895933635279
 30
0.0
 11
69.73000164598999
 21
-37.65384028944894
 31
0.0
  0
LINE
  5
B0
330
1F
100
AcDbEntity
  8
0-2_本体（蓋）
  6
JWW_CENTER1
 62
     6
370
    13
100
AcDbLine
 10
79.73003463796628
 20
833.8955289039632
 30
0.0
 11
79.73003463796628
 21
863.5031883211929
 31
0.0
  0
LINE
  5
B1
330
1F
100
AcDbEntity
  8
0-2_本体（蓋）
  6
JWW_CENTER1
 62
     6
370
    13
100
AcDbLine
 10
-343.6031282368225
 20
833.8955289039632
 30
0.0
 11
-343.6031282368225
 21
863.5031883211929
 31
0.0
  0
LINE
  5
B2
330
1F
100
AcDbEntity
  8
0-2_本体（蓋）
  6
Continuous
 62
     6
370
    13
100
AcDbLine
 10
-357.434024562836
 20
-20.14945235659418
 30
0.0
 11
-360.2696849302347
 21
-4.553072896078909
 31
0.0
  0
LINE
  5
B3
330
1F
100
AcDbEntity
  8
0-2_本体（蓋）
  6
Continuous
 62
     6
370
    13
100
AcDbLine
 10
-311.4468386464509
 20
-15.47457178754861
 30
0.0
 11
-285.8890268062905
 21
79.90902592148854
 31
0.0
  0
LINE
  5
B4
330
1F
100
AcDbEntity
  8
0-2_本体（蓋）
  6
Continuous
 62
     6
370
    13
100
AcDbLine
 10
-151.9364890634694
 20
126.8735991372825
 30
0.0
 11
-146.9364725674814
 21
111.9759897358887
 31
0.0
  0
LINE
  5
B5
330
1F
100
AcDbEntity
  8
0-2_本体（蓋）
  6
Continuous
 62
     6
370
    13
100
AcDbLine
 10
-176.9363241035876
 20
125.8976964768096
 30
0.0
 11
-181.9363405995759
 21
110.5846356132114
 31
0.0
  0
LINE
  5
B6
330
1F
100
AcDbEntity
  8
0-2_本体（蓋）
  6
Continuous
 62
     6
370
    13
100
AcDbLine
 10
-198.6031447328108
 20
121.098601116801
 30
0.0
 11
-195.2698828820928
 21
124.7033044529497
 31
0.0
  0
LINE
  5
B7
330
1F
100
AcDbEntity
  8
0-2_本体（蓋）
  6
Continuous
 62
     6
370
    13
100
AcDbLine
 10
-198.6031447328108
 20
121.098601116801
 30
0.0
 11
-193.6031282368225
 21
109.7868896250359
 31
0.0
  0
LINE
  5
B8
330
1F
100
AcDbEntity
  8
0-2_本体（蓋）
  6
Continuous
 62
     6
370
    13
100
AcDbLine
 10
-268.6031282368225
 20
115.5987561790898
 30
0.0
 11
-265.2698663861045
 21
113.0006380414211
 31
0.0
  0
LINE
  5
B9
330
1F
100
AcDbEntity
  8
0-2_本体（蓋）
  6
Continuous
 62
     6
370
    13
100
AcDbLine
 10
-265.2698663861045
 20
113.0006380414211
 30
0.0
 11
-270.2698828820928
 21
99.00618399264552
 31
0.0
  0
LINE
  5
BA
330
1F
100
AcDbEntity
  8
0-2_本体（蓋）
  6
Continuous
 62
     6
370
    13
100
AcDbLine
 10
-280.6814082991113
 20
90.44699308787365
 30
0.0
 11
-298.021001310091
 21
90.44699308787365
 31
0.0
  0
LINE
  5
BB
330
1F
100
AcDbEntity
  8
0-2_本体（蓋）
  6
Continuous
 62
     6
370
    13
100
AcDbLine
 10
93.56093096397983
 20
-20.14945235659418
 30
0.0
 11
96.39659133137853
 21
-4.553072896078909
 31
0.0
  0
LINE
  5
BC
330
1F
100
AcDbEntity
  8
0-2_本体（蓋）
  6
Continuous
 62
     6
370
    13
100
AcDbLine
 10
-111.9363570955642
 20
126.8735991372825
 30
0.0
 11
-116.9363735915522
 21
111.9759897358887
 31
0.0
  0
LINE
  5
BD
330
1F
100
AcDbEntity
  8
0-2_本体（蓋）
  6
Continuous
 62
     6
370
    13
100
AcDbLine
 10
-86.93652205544595
 20
125.8976964768096
 30
0.0
 11
-81.93650555945766
 21
110.5846356132114
 31
0.0
  0
LINE
  5
BE
330
1F
100
AcDbEntity
  8
0-2_本体（蓋）
  6
JWW_DASHED1
 62
     6
370
    13
100
AcDbLine
 10
16.80856214007775
 20
90.44699308787365
 30
0.0
 11
34.14815515105742
 21
90.44699308787365
 31
0.0
  0
LINE
  5
BF
330
1F
100
AcDbEntity
  8
0-2_本体（蓋）
  6
Continuous
 62
     6
370
    13
100
AcDbLine
 10
-328.4771318791368
 20
-3.108024331889858
 30
0.0
 11
-360.2696849302347
 21
-4.553072896078909
 31
0.0
  0
LINE
  5
C0
330
1F
100
AcDbEntity
  8
0-2_本体（蓋）
  6
Continuous
 62
     6
370
    13
100
AcDbLine
 10
-327.6380634405811
 20
-17.94525841656043
 30
0.0
 11
-300.3778656206907
 21
83.7911092988112
 31
0.0
  0
LINE
  5
C1
330
1F
100
AcDbEntity
  8
0-2_本体（蓋）
  6
Continuous
 62
     6
370
    13
100
AcDbLine
 10
93.06357692048321
 20
-1.064913716391409
 30
0.0
 11
96.39659133137853
 21
-4.553072896078909
 31
0.0
  0
LINE
  5
C2
330
1F
100
AcDbEntity
  8
0-2_本体（蓋）
  6
Continuous
 62
     6
370
    13
100
AcDbLine
 10
63.18818761516239
 20
-19.11886549531893
 30
0.0
 11
67.22986967808451
 21
-3.227537766222675
 31
0.0
  0
LINE
  5
C3
330
1F
100
AcDbEntity
  8
0-2_本体（蓋）
  6
Continuous
 62
     6
370
    13
100
AcDbLine
 10
-315.2172029438537
 20
894.2191307040054
 30
0.0
 11
-295.4658139816493
 21
888.1764027954328
 31
0.0
  0
LINE
  5
C4
330
1F
100
AcDbEntity
  8
0-2_本体（蓋）
  6
Continuous
 62
     6
370
    13
100
AcDbLine
 10
-322.7241560028699
 20
856.4788666362267
 30
0.0
 11
-302.1638862604712
 21
854.5028122126623
 31
0.0
  0
LINE
  5
C5
330
1F
100
AcDbEntity
  8
0-2_本体（蓋）
  6
Continuous
 62
     6
370
    13
100
AcDbLine
 10
-279.8073271256527
 20
960.0893435682369
 30
0.0
 11
-263.8719551081275
 21
946.9480620279074
 31
0.0
  0
LINE
  5
C6
330
1F
100
AcDbEntity
  8
0-2_本体（蓋）
  6
Continuous
 62
     6
370
    13
100
AcDbLine
 10
-301.185509201772
 20
928.094632182046
 30
0.0
 11
-282.9463487156022
 21
918.4011771303144
 31
0.0
  0
LINE
  5
C7
330
1F
100
AcDbEntity
  8
0-2_本体（蓋）
  6
Continuous
 62
     6
370
    13
100
AcDbLine
 10
-221.8854999640186
 20
1007.394393979977
 30
0.0
 11
-212.1920449122871
 21
989.1553572137184
 31
0.0
  0
LINE
  5
C8
330
1F
100
AcDbEntity
  8
0-2_本体（蓋）
  6
Continuous
 62
     6
370
    13
100
AcDbLine
 10
-253.8802113502095
 20
986.0165830635915
 30
0.0
 11
-240.7389298098801
 21
970.0809636062436
 31
0.0
  0
LINE
  5
C9
330
1F
100
AcDbEntity
  8
0-2_本体（蓋）
  6
Continuous
 62
     6
370
    13
100
AcDbLine
 10
-150.2697344181993
 20
1028.933288220897
 30
0.0
 11
-148.2939274344577
 21
1008.372771038676
 31
0.0
  0
LINE
  5
CA
330
1F
100
AcDbEntity
  8
0-2_本体（蓋）
  6
Continuous
 62
     6
370
    13
100
AcDbLine
 10
-188.009998485978
 20
1021.426458881793
 30
0.0
 11
-181.9672705774053
 21
1001.675069919588
 31
0.0
  0
LINE
  5
CB
330
1F
100
AcDbEntity
  8
0-2_本体（蓋）
  6
Continuous
 62
     6
370
    13
100
AcDbLine
 10
-75.86284767305557
 20
1021.42621144197
 30
0.0
 11
-81.90557558162823
 21
1001.675069919588
 31
0.0
  0
LINE
  5
CC
330
1F
100
AcDbEntity
  8
0-2_本体（蓋）
  6
Continuous
 62
     6
370
    13
100
AcDbLine
 10
-113.6031117408342
 20
1028.93353566072
 30
0.0
 11
-115.5789187245759
 21
1008.372771038676
 31
0.0
  0
LINE
  5
CD
330
1F
100
AcDbEntity
  8
0-2_本体（蓋）
  6
Continuous
 62
     6
370
    13
100
AcDbLine
 10
-9.992634808824334
 20
986.0165830635915
 30
0.0
 11
-23.13391634915348
 21
970.0809636062436
 31
0.0
  0
LINE
  5
CE
330
1F
100
AcDbEntity
  8
0-2_本体（蓋）
  6
Continuous
 62
     6
370
    13
100
AcDbLine
 10
-41.98734619501522
 20
1007.394393979977
 30
0.0
 11
-51.68080124674646
 21
989.1556046535408
 31
0.0
  0
LINE
  5
CF
330
1F
100
AcDbEntity
  8
0-2_本体（蓋）
  6
Continuous
 62
     6
370
    13
100
AcDbLine
 10
37.31241560291578
 20
928.094632182046
 30
0.0
 11
19.07362627647984
 21
918.4011771303144
 31
0.0
  0
LINE
  5
D0
330
1F
100
AcDbEntity
  8
0-2_本体（蓋）
  6
Continuous
 62
     6
370
    13
100
AcDbLine
 10
15.93460468653063
 20
960.0893435682369
 30
0.0
 11
-0.0010147708175623
 21
946.9480620279074
 31
0.0
  0
LINE
  5
D1
330
1F
100
AcDbEntity
  8
0-2_本体（蓋）
  6
Continuous
 62
     6
370
    13
100
AcDbLine
 10
58.85155728365901
 20
856.4788666362267
 30
0.0
 11
38.29079266161499
 21
854.5028122126623
 31
0.0
  0
LINE
  5
D2
330
1F
100
AcDbEntity
  8
0-2_本体（蓋）
  6
Continuous
 62
     6
370
    13
100
AcDbLine
 10
51.34423306490901
 20
894.2191307040054
 30
0.0
 11
31.59309154252723
 21
888.1764027954328
 31
0.0
  0
LINE
  5
D3
330
1F
100
AcDbEntity
  8
0-2_本体（蓋）
  6
Continuous
 62
     6
370
    13
100
AcDbLine
 10
-197.0846065412988
 20
866.1364429136759
 30
0.0
 11
-246.6414830589298
 21
894.7479096049767
 31
0.0
  0
LINE
  5
D4
330
1F
100
AcDbEntity
  8
0-2_本体（蓋）
  6
Continuous
 62
     6
370
    13
100
AcDbLine
 10
-259.5752863079795
 20
846.4788336442505
 30
0.0
 11
-202.3518580457329
 21
846.4788336442505
 31
0.0
  0
LINE
  5
D5
330
1F
100
AcDbEntity
  8
0-2_本体（蓋）
  6
Continuous
 62
     6
370
    13
100
AcDbLine
 10
-195.41797561594
 20
869.0230758845373
 30
0.0
 11
-244.9749758534821
 21
897.6345425758382
 31
0.0
  0
LINE
  5
D6
330
1F
100
AcDbEntity
  8
0-2_本体（蓋）
  6
Continuous
 62
     6
370
    13
100
AcDbLine
 10
-259.5752863079795
 20
843.1453243537098
 30
0.0
 11
-202.3518580457329
 21
843.1453243537098
 31
0.0
  0
LINE
  5
D7
330
1F
100
AcDbEntity
  8
0-2_本体（蓋）
  6
Continuous
 62
     6
370
    13
100
AcDbLine
 10
-199.0356695427769
 20
859.5649361041321
 30
0.0
 11
-249.2184450917634
 21
888.5379123763028
 31
0.0
  0
LINE
  5
D8
330
1F
100
AcDbEntity
  8
0-2_本体（蓋）
  6
Continuous
 62
     6
370
    13
100
AcDbLine
 10
-174.3609704296011
 20
894.9604604126203
 30
0.0
 11
-202.9725608408131
 21
944.5174606501623
 31
0.0
  0
LINE
  5
D9
330
1F
100
AcDbEntity
  8
0-2_本体（蓋）
  6
Continuous
 62
     6
370
    13
100
AcDbLine
 10
-238.308328432135
 20
909.1815693389293
 30
0.0
 11
-188.7513281945928
 21
880.5701026476288
 31
0.0
  0
LINE
  5
DA
330
1F
100
AcDbEntity
  8
0-2_本体（蓋）
  6
Continuous
 62
     6
370
    13
100
AcDbLine
 10
-171.4743374587397
 20
896.6269676180679
 30
0.0
 11
-200.0860515898631
 21
946.1837204157873
 31
0.0
  0
LINE
  5
DB
330
1F
100
AcDbEntity
  8
0-2_本体（蓋）
  6
Continuous
 62
     6
370
    13
100
AcDbLine
 10
-239.9749593574938
 20
906.2951838078905
 30
0.0
 11
-190.4179591199517
 21
877.6834696767673
 31
0.0
  0
LINE
  5
DC
330
1F
100
AcDbEntity
  8
0-2_本体（蓋）
  6
Continuous
 62
     6
370
    13
100
AcDbLine
 10
-179.3364903831485
 20
890.2449997126623
 30
0.0
 11
-208.3094666553191
 21
940.4275278218265
 31
0.0
  0
LINE
  5
DD
330
1F
100
AcDbEntity
  8
0-2_本体（蓋）
  6
Continuous
 62
     6
370
    13
100
AcDbLine
 10
-140.2697014262228
 20
908.5609902637606
 30
0.0
 11
-140.2697014262228
 21
965.7844185260071
 31
0.0
  0
LINE
  5
DE
330
1F
100
AcDbEntity
  8
0-2_本体（蓋）
  6
Continuous
 62
     6
370
    13
100
AcDbLine
 10
-188.5390248267717
 20
952.8507389968686
 30
0.0
 11
-159.9273106956485
 21
903.2937387593265
 31
0.0
  0
LINE
  5
DF
330
1F
100
AcDbEntity
  8
0-2_本体（蓋）
  6
Continuous
 62
     6
370
    13
100
AcDbLine
 10
-136.9364395755051
 20
908.5609902637606
 30
0.0
 11
-136.9365632954162
 21
965.7844185260071
 31
0.0
  0
LINE
  5
E0
330
1F
100
AcDbEntity
  8
0-2_本体（蓋）
  6
Continuous
 62
     6
370
    13
100
AcDbLine
 10
-191.4256577976334
 20
951.1839843515984
 30
0.0
 11
-162.81394366651
 21
901.6272315538788
 31
0.0
  0
LINE
  5
E1
330
1F
100
AcDbEntity
  8
0-2_本体（蓋）
  6
Continuous
 62
     6
370
    13
100
AcDbLine
 10
-146.9363488475699
 20
906.965003407764
 30
0.0
 11
-146.9363488475699
 21
964.910955952105
 31
0.0
  0
LINE
  5
E2
330
1F
100
AcDbEntity
  8
0-2_本体（蓋）
  6
Continuous
 62
     6
370
    13
100
AcDbLine
 10
-103.945535463385
 20
903.2937387593265
 30
0.0
 11
-75.33382133226183
 21
952.8507389968686
 31
0.0
  0
LINE
  5
E3
330
1F
100
AcDbEntity
  8
0-2_本体（蓋）
  6
Continuous
 62
     6
370
    13
100
AcDbLine
 10
-123.6031447328108
 20
965.7844185260071
 30
0.0
 11
-123.6031447328108
 21
908.5609902637606
 31
0.0
  0
LINE
  5
E4
330
1F
100
AcDbEntity
  8
0-2_本体（蓋）
  6
Continuous
 62
     6
370
    13
100
AcDbLine
 10
-101.0589024925235
 20
901.6272315538788
 30
0.0
 11
-72.4471883614001
 21
951.1839843515984
 31
0.0
  0
LINE
  5
E5
330
1F
100
AcDbEntity
  8
0-2_本体（蓋）
  6
Continuous
 62
     6
370
    13
100
AcDbLine
 10
-126.9364065835285
 20
965.7844185260071
 30
0.0
 11
-126.9364065835285
 21
908.5609902637606
 31
0.0
  0
LINE
  5
E6
330
1F
100
AcDbEntity
  8
0-2_本体（蓋）
  6
Continuous
 62
     6
370
    13
100
AcDbLine
 10
-110.517042272929
 20
905.2448017608043
 30
0.0
 11
-81.54406600075845
 21
955.4275773097908
 31
0.0
  0
LINE
  5
E7
330
1F
100
AcDbEntity
  8
0-2_本体（蓋）
  6
Continuous
 62
     6
370
    13
100
AcDbLine
 10
-75.12151796444073
 20
880.5701026476288
 30
0.0
 11
-25.56451772689854
 21
909.1815693389293
 31
0.0
  0
LINE
  5
E8
330
1F
100
AcDbEntity
  8
0-2_本体（蓋）
  6
Continuous
 62
     6
370
    13
100
AcDbLine
 10
-60.90016159830896
 20
944.5174606501623
 30
0.0
 11
-89.5118757294324
 21
894.9604604126203
 31
0.0
  0
LINE
  5
E9
330
1F
100
AcDbEntity
  8
0-2_本体（蓋）
  6
Continuous
 62
     6
370
    13
100
AcDbLine
 10
-73.45488703908188
 20
877.6834696767673
 30
0.0
 11
-23.89801052145089
 21
906.2951838078905
 31
0.0
  0
LINE
  5
EA
330
1F
100
AcDbEntity
  8
0-2_本体（蓋）
  6
Continuous
 62
     6
370
    13
100
AcDbLine
 10
-63.78679456917041
 20
946.1837204157873
 30
0.0
 11
-92.39850870029386
 21
896.6272150578905
 31
0.0
  0
LINE
  5
EB
330
1F
100
AcDbEntity
  8
0-2_本体（蓋）
  6
Continuous
 62
     6
370
    13
100
AcDbLine
 10
-79.83697866439854
 20
885.5456226011759
 30
0.0
 11
-29.65420311541209
 21
914.5185988733465
 31
0.0
  0
LINE
  5
EC
330
1F
100
AcDbEntity
  8
0-2_本体（蓋）
  6
Continuous
 62
     6
370
    13
100
AcDbLine
 10
-61.52098811330063
 20
846.4788336442505
 30
0.0
 11
-4.297559851054018
 21
846.4788336442505
 31
0.0
  0
LINE
  5
ED
330
1F
100
AcDbEntity
  8
0-2_本体（蓋）
  6
Continuous
 62
     6
370
    13
100
AcDbLine
 10
-17.23123938019256
 20
894.7479096049767
 30
0.0
 11
-66.78823961773475
 21
866.1364429136759
 31
0.0
  0
LINE
  5
EE
330
1F
100
AcDbEntity
  8
0-2_本体（蓋）
  6
Continuous
 62
     6
370
    13
100
AcDbLine
 10
-61.52098811330063
 20
843.1453243537098
 30
0.0
 11
-4.297559851054018
 21
843.1453243537098
 31
0.0
  0
LINE
  5
EF
330
1F
100
AcDbEntity
  8
0-2_本体（蓋）
  6
Continuous
 62
     6
370
    13
100
AcDbLine
 10
-18.89799402546259
 20
897.6345425758382
 30
0.0
 11
-68.45487054309359
 21
869.0230758845373
 31
0.0
  0
LINE
  5
F0
330
1F
100
AcDbEntity
  8
0-2_本体（蓋）
  6
Continuous
 62
     6
370
    13
100
AcDbLine
 10
-63.11697496929725
 20
853.1456047855088
 30
0.0
 11
-5.171022424955822
 21
853.1456047855088
 31
0.0
  0
LINE
  5
F1
330
1F
100
AcDbEntity
  8
0-2_本体（蓋）
  6
Continuous
 62
     6
370
    13
100
AcDbLine
 10
-159.4742483804035
 20
858.145621281497
 30
0.0
 11
-104.3985977786301
 21
858.145621281497
 31
0.0
  0
LINE
  5
F2
330
1F
100
AcDbEntity
  8
0-2_本体（蓋）
  6
Continuous
 62
     6
370
    13
100
AcDbLine
 10
92.44547224354078
 20
854.8121119909564
 30
0.0
 11
96.00712105055065
 21
851.4788501402384
 31
0.0
  0
LINE
  5
F3
330
1F
100
AcDbEntity
  8
0-2_本体（蓋）
  6
Continuous
 62
     6
370
    13
100
AcDbLine
 10
90.58076574016239
 20
871.4789161241913
 30
0.0
 11
93.43374689514546
 21
874.812177974909
 31
0.0
  0
LINE
  5
F4
330
1F
100
AcDbEntity
  8
0-2_本体（蓋）
  6
Continuous
 62
     6
370
    13
100
AcDbLine
 10
91.0647580332366
 20
851.4788501402384
 30
0.0
 11
96.00712105055065
 21
851.4788501402384
 31
0.0
  0
LINE
  5
F5
330
1F
100
AcDbEntity
  8
0-2_本体（蓋）
  6
Continuous
 62
     6
370
    13
100
AcDbLine
 10
85.06632185291578
 20
854.8121119909564
 30
0.0
 11
92.44547224354078
 21
854.8121119909564
 31
0.0
  0
LINE
  5
F6
330
1F
100
AcDbEntity
  8
0-2_本体（蓋）
  6
Continuous
 62
     6
370
    13
100
AcDbLine
 10
56.80918898762853
 20
871.4789161241913
 30
0.0
 11
90.58076574016239
 21
871.4789161241913
 31
0.0
  0
LINE
  5
F7
330
1F
100
AcDbEntity
  8
0-2_本体（蓋）
  6
Continuous
 62
     6
370
    13
100
AcDbLine
 10
56.19009455139546
 20
874.812177974909
 30
0.0
 11
93.43374689514546
 21
874.812177974909
 31
0.0
  0
LINE
  5
F8
330
1F
100
AcDbEntity
  8
0-2_本体（蓋）
  6
Continuous
 62
     6
370
    13
100
AcDbLine
 10
-356.3181946826629
 20
854.8121119909564
 30
0.0
 11
-359.8800909294957
 21
851.4788501402384
 31
0.0
  0
LINE
  5
F9
330
1F
100
AcDbEntity
  8
0-2_本体（蓋）
  6
Continuous
 62
     6
370
    13
100
AcDbLine
 10
-354.4534881792845
 20
871.4789161241913
 30
0.0
 11
-357.3064693342675
 21
874.812177974909
 31
0.0
  0
LINE
  5
FA
330
1F
100
AcDbEntity
  8
0-2_本体（蓋）
  6
Continuous
 62
     6
370
    13
100
AcDbLine
 10
-348.9392917318605
 20
854.8121119909564
 30
0.0
 11
-356.3181946826629
 21
854.8121119909564
 31
0.0
  0
LINE
  5
FB
330
1F
100
AcDbEntity
  8
0-2_本体（蓋）
  6
Continuous
 62
     6
370
    13
100
AcDbLine
 10
-320.6821588665733
 20
871.4789161241913
 30
0.0
 11
-354.4534881792845
 21
871.4789161241913
 31
0.0
  0
LINE
  5
FC
330
1F
100
AcDbEntity
  8
0-2_本体（蓋）
  6
Continuous
 62
     6
370
    13
100
AcDbLine
 10
-320.0630644303402
 20
874.812177974909
 30
0.0
 11
-357.3064693342675
 21
874.812177974909
 31
0.0
  0
LINE
  5
FD
330
1F
100
AcDbEntity
  8
0-2_本体（蓋）
  6
Continuous
 62
     6
370
    13
100
AcDbLine
 10
-354.9377279121813
 20
851.4788501402384
 30
0.0
 11
-359.8800909294957
 21
851.4788501402384
 31
0.0
  0
LINE
  5
FE
330
1F
100
AcDbEntity
  8
0-2_本体（蓋）
  6
Continuous
 62
     6
370
    13
100
AcDbLine
 10
89.73006762994258
 20
0.6792895933635279
 30
0.0
 11
89.73006762994258
 21
-37.65384028944894
 31
0.0
  0
LINE
  5
FF
330
1F
100
AcDbEntity
  8
0-2_本体（蓋）
  6
Continuous
 62
     6
370
    13
100
AcDbLine
 10
-250.2696931782287
 20
-22.88663167458409
 30
0.0
 11
69.73000164598999
 21
-22.88663167458409
 31
0.0
  0
LINE
  5
100
330
1F
100
AcDbEntity
  8
0-2_本体（蓋）
  6
Continuous
 62
     6
370
    13
100
AcDbLine
 10
89.73006762994258
 20
-22.88663167458409
 30
0.0
 11
90.28136355477385
 21
-22.88663167458409
 31
0.0
  0
LINE
  5
101
330
1F
100
AcDbEntity
  8
0-2_本体（蓋）
  6
Continuous
 62
     6
370
    13
100
AcDbLine
 10
89.73006762994258
 20
-4.250206553173719
 30
0.0
 11
96.39659133137853
 21
-4.553072896078909
 31
0.0
  0
LINE
  5
102
330
1F
100
AcDbEntity
  8
0-2_本体（蓋）
  6
Continuous
 62
     6
370
    13
100
AcDbLine
 10
89.73006762994258
 20
-0.9132331051161557
 30
0.0
 11
93.06357692048321
 21
-1.064913716391409
 31
0.0
  0
LINE
  5
103
330
1F
100
AcDbEntity
  8
0-2_本体（蓋）
  6
Continuous
 62
     6
370
    13
100
AcDbLine
 10
64.60403828028062
 20
-3.108024331889858
 30
0.0
 11
69.73000164598999
 21
-3.341360084634637
 31
0.0
  0
LINE
  5
104
330
1F
100
AcDbEntity
  8
0-2_本体（蓋）
  6
Continuous
 62
     6
370
    13
100
AcDbLine
 10
63.69890340908113
 20
0.2697766869023255
 30
0.0
 11
69.73000164598999
 21
-0.0043866365773582
 31
0.0
  0
LINE
  5
105
330
1F
100
AcDbEntity
  8
0-2_本体（蓋）
  6
Continuous
 62
     6
370
    13
100
AcDbLine
 10
-356.9364230795168
 20
838.1455552975442
 30
0.0
 11
-356.9364230795168
 21
840.145611383904
 31
0.0
  0
LINE
  5
106
330
1F
100
AcDbEntity
  8
0-2_本体（蓋）
  6
Continuous
 62
     6
370
    13
100
AcDbLine
 10
-330.2698333941282
 20
840.145611383904
 30
0.0
 11
-356.9364230795168
 21
840.145611383904
 31
0.0
  0
LINE
  5
107
330
1F
100
AcDbEntity
  8
0-2_本体（蓋）
  6
Continuous
 62
     6
370
    13
100
AcDbLine
 10
-330.2698333941282
 20
838.1455552975442
 30
0.0
 11
-330.2698333941282
 21
840.145611383904
 31
0.0
  0
LINE
  5
108
330
1F
100
AcDbEntity
  8
0-2_本体（蓋）
  6
Continuous
 62
     6
370
    13
100
AcDbLine
 10
93.06357692048321
 20
838.1455552975442
 30
0.0
 11
93.06357692048321
 21
840.145611383904
 31
0.0
  0
LINE
  5
109
330
1F
100
AcDbEntity
  8
0-2_本体（蓋）
  6
Continuous
 62
     6
370
    13
100
AcDbLine
 10
66.39698723509467
 20
840.145611383904
 30
0.0
 11
93.06357692048321
 21
840.145611383904
 31
0.0
  0
LINE
  5
10A
330
1F
100
AcDbEntity
  8
0-2_本体（蓋）
  6
Continuous
 62
     6
370
    13
100
AcDbLine
 10
66.39698723509467
 20
838.1455552975442
 30
0.0
 11
66.39698723509467
 21
840.145611383904
 31
0.0
  0
LINE
  5
10B
330
1F
100
AcDbEntity
  8
0-2_本体（蓋）
  6
Continuous
 62
     6
370
    13
100
AcDbLine
 10
47.57374504759467
 20
-15.47457178754861
 30
0.0
 11
22.01618064725693
 21
79.90902592148854
 31
0.0
  0
LINE
  5
10C
330
1F
100
AcDbEntity
  8
0-2_本体（蓋）
  6
Continuous
 62
     6
370
    13
100
AcDbLine
 10
-300.2698581381105
 20
-22.88663167458409
 30
0.0
 11
-354.1544571536301
 21
-22.88663167458409
 31
0.0
  0
LINE
  5
10D
330
1F
100
AcDbEntity
  8
0-1_ピット
  6
Continuous
 62
     2
370
    13
100
AcDbLine
 10
-210.2824280811004
 20
1059.701192966463
 30
0.0
 11
-204.2437829296011
 21
1056.483980392561
 31
0.0
  0
LINE
  5
10E
330
1F
100
AcDbEntity
  8
0-2_本体（蓋）
  6
Continuous
 62
     6
370
    13
100
AcDbLine
 10
58.46753067892904
 20
1.826173171277325
 30
0.0
 11
36.50477202183451
 21
83.7911092988112
 31
0.0
  0
LINE
  5
10F
330
1F
100
AcDbEntity
  8
0-1_ピット
  6
Continuous
 62
     4
370
    13
100
AcDbLine
 10
-261.9364808154754
 20
-19.5531223840435
 30
0.0
 11
-261.9364808154754
 21
50.33675039889555
 31
0.0
  0
LINE
  5
110
330
1F
100
AcDbEntity
  8
0-1_ピット
  6
Continuous
 62
     4
370
    13
100
AcDbLine
 10
-264.1913999191493
 20
-19.5531223840435
 30
0.0
 11
-264.1913999191493
 21
52.59191694239217
 31
0.0
  0
LINE
  5
111
330
1F
100
AcDbEntity
  8
0-1_ピット
  6
Continuous
 62
     4
370
    13
100
AcDbLine
 10
-286.34815139719
 20
-19.5531223840435
 30
0.0
 11
-286.34815139719
 21
52.59191694239217
 31
0.0
  0
LINE
  5
112
330
1F
100
AcDbEntity
  8
0-1_ピット
  6
Continuous
 62
     4
370
    13
100
AcDbLine
 10
-288.6030705008639
 20
-19.5531223840435
 30
0.0
 11
-288.6030705008639
 21
50.33675039889555
 31
0.0
  0
LINE
  5
113
330
1F
100
AcDbEntity
  8
0-1_ピット
  6
Continuous
 62
     4
370
    13
100
AcDbLine
 10
-264.1913999191493
 20
-41.21994301326659
 30
0.0
 11
-264.1913999191493
 21
-80.74140264428429
 31
0.0
  0
LINE
  5
114
330
1F
100
AcDbEntity
  8
0-1_ピット
  6
Continuous
 62
     4
370
    13
100
AcDbLine
 10
-261.9364808154754
 20
-41.21994301326659
 30
0.0
 11
-261.9364808154754
 21
-78.48673098043278
 31
0.0
  0
LINE
  5
115
330
1F
100
AcDbEntity
  8
0-1_ピット
  6
Continuous
 62
     4
370
    13
100
AcDbLine
 10
-286.34815139719
 20
-41.21994301326659
 30
0.0
 11
-286.34815139719
 21
-80.74140264428429
 31
0.0
  0
LINE
  5
116
330
1F
100
AcDbEntity
  8
0-1_ピット
  6
Continuous
 62
     4
370
    13
100
AcDbLine
 10
-288.6030705008639
 20
-41.21994301326659
 30
0.0
 11
-288.6030705008639
 21
-78.48673098043278
 31
0.0
  0
LINE
  5
117
330
1F
100
AcDbEntity
  8
0-1_ピット
  6
Continuous
 62
     2
370
    13
100
AcDbLine
 10
88.06331298467255
 20
-22.88663167458409
 30
0.0
 11
95.16533077394597
 21
-22.88663167458409
 31
0.0
  0
LINE
  5
118
330
1F
100
AcDbEntity
  8
0-1_ピット
  6
Continuous
 62
     2
370
    13
100
AcDbLine
 10
60.58586300050847
 20
-22.88663167458409
 30
0.0
 11
71.3967562912603
 21
-22.88663167458409
 31
0.0
  0
LINE
  5
119
330
1F
100
AcDbEntity
  8
0-1_ピット
  6
Continuous
 62
     4
370
    13
100
AcDbLine
 10
-273.2697195718097
 20
45.9253932409565
 30
0.0
 11
-273.2697195718097
 21
52.59191694239217
 31
0.0
  0
LINE
  5
11A
330
1F
100
AcDbEntity
  8
0-1_ピット
  6
Continuous
 62
     4
370
    13
100
AcDbLine
 10
-273.2697195718097
 20
45.9253932409565
 30
0.0
 11
-277.2697080246181
 21
45.9253932409565
 31
0.0
  0
LINE
  5
11B
330
1F
100
AcDbEntity
  8
0-1_ピット
  6
Continuous
 62
     4
370
    13
100
AcDbLine
 10
-277.2697080246181
 20
45.9253932409565
 30
0.0
 11
-277.2697080246181
 21
52.59191694239217
 31
0.0
  0
LINE
  5
11C
330
1F
100
AcDbEntity
  8
0-1_ピット
  6
Continuous
 62
     4
370
    13
100
AcDbLine
 10
-286.34815139719
 20
52.59191694239217
 30
0.0
 11
-277.2697080246181
 21
52.59191694239217
 31
0.0
  0
LINE
  5
11D
330
1F
100
AcDbEntity
  8
0-1_ピット
  6
Continuous
 62
     4
370
    13
100
AcDbLine
 10
-273.2697195718097
 20
52.59191694239217
 30
0.0
 11
-264.1913999191493
 21
52.59191694239217
 31
0.0
  0
LINE
  5
11E
330
1F
100
AcDbEntity
  8
0-1_ピット
  6
Continuous
 62
     4
370
    13
100
AcDbLine
 10
-261.9364808154754
 20
50.33675039889555
 30
0.0
 11
-273.2697195718097
 21
50.33675039889555
 31
0.0
  0
LINE
  5
11F
330
1F
100
AcDbEntity
  8
0-1_ピット
  6
Continuous
 62
     4
370
    13
100
AcDbLine
 10
-277.2697080246181
 20
50.33675039889555
 30
0.0
 11
-288.6030705008639
 21
50.33675039889555
 31
0.0
  0
LINE
  5
120
330
1F
100
AcDbEntity
  8
0-2_本体（蓋）
  6
JWW_CENTER1
 62
     6
370
    13
100
AcDbLine
 10
79.73003463796628
 20
-48.41734885416606
 30
0.0
 11
79.73003463796628
 21
19.17652981454165
 31
0.0
  0
LINE
  5
121
330
1F
100
AcDbEntity
  8
0-0_通り芯
  6
JWW_CENTER1
 62
     3
370
    13
100
AcDbLine
 10
-503.2733239452261
 20
838.1455552975442
 30
0.0
 11
232.4043642410069
 21
838.1455552975442
 31
0.0
  0
LINE
  5
122
330
1F
100
AcDbEntity
  8
0-0_通り芯
  6
JWW_CENTER1
 62
     3
370
    13
100
AcDbLine
 10
-131.9364230795168
 20
1195.887864867856
 30
0.0
 11
-131.9364230795168
 21
817.2173425388871
 31
0.0
  0
LINE
  5
123
330
1F
100
AcDbEntity
  8
0-1_ピット
  6
JWW_CENTER1
 62
     4
370
    13
100
AcDbLine
 10
-275.2697756581696
 20
59.72511214931796
 30
0.0
 11
-275.2697756581696
 21
-85.97463117310596
 31
0.0
  0
LINE
  5
124
330
1F
100
AcDbEntity
  8
0-0_通り芯
  6
JWW_CENTER1
 62
     3
370
    13
100
AcDbLine
 10
-131.9364230795168
 20
153.1390888701794
 30
0.0
 11
-131.9364230795168
 21
-335.7818343113029
 31
0.0
  0
LINE
  5
125
330
1F
100
AcDbEntity
  8
0-4_寸法
  6
Continuous
 62
     7
370
    13
100
AcDbLine
 10
-360.2696849302347
 20
227.1134508053567
 30
0.0
 11
96.39659133137853
 21
227.1134508053567
 31
0.0
  0
LINE
  5
126
330
1F
100
AcDbEntity
  8
0-4_寸法
  6
Continuous
 62
     7
370
    13
100
AcDbLine
 10
-360.2696849302347
 20
20.44688586395051
 30
0.0
 11
-360.2696849302347
 21
230.1134112149851
 31
0.0
  0
LINE
  5
127
330
1F
100
AcDbEntity
  8
0-4_寸法
  6
Continuous
 62
     7
370
    13
100
AcDbLine
 10
96.39659133137853
 20
20.44688586395051
 30
0.0
 11
96.39659133137853
 21
230.1134112149851
 31
0.0
  0
LINE
  5
128
330
1F
100
AcDbEntity
  8
0-4_寸法
  6
Continuous
 62
     7
370
    13
100
AcDbLine
 10
-360.2696849302347
 20
227.1134508053567
 30
0.0
 11
-335.4835141769618
 21
230.3765634663578
 31
0.0
  0
LINE
  5
129
330
1F
100
AcDbEntity
  8
0-4_寸法
  6
Continuous
 62
     7
370
    13
100
AcDbLine
 10
-360.2696849302347
 20
227.1134508053567
 30
0.0
 11
-335.4835141769618
 21
223.8503381443559
 31
0.0
  0
LINE
  5
12A
330
1F
100
AcDbEntity
  8
0-4_寸法
  6
Continuous
 62
     7
370
    13
100
AcDbLine
 10
96.39659133137853
 20
227.1134508053567
 30
0.0
 11
71.61054429801707
 21
230.3765634663578
 31
0.0
  0
LINE
  5
12B
330
1F
100
AcDbEntity
  8
0-4_寸法
  6
Continuous
 62
     7
370
    13
100
AcDbLine
 10
96.39659133137853
 20
227.1134508053567
 30
0.0
 11
71.61054429801707
 21
223.8503381443559
 31
0.0
  0
LINE
  5
12C
330
1F
100
AcDbEntity
  8
0-4_寸法
  6
Continuous
 62
     7
370
    13
100
AcDbLine
 10
-431.9364230795168
 20
307.113467301345
 30
0.0
 11
168.0635769204832
 21
307.113467301345
 31
0.0
  0
LINE
  5
12D
330
1F
100
AcDbEntity
  8
0-4_寸法
  6
Continuous
 62
     7
370
    13
100
AcDbLine
 10
-431.9364230795168
 20
2.113327085445569
 30
0.0
 11
-431.9364230795168
 21
310.1134277109734
 31
0.0
  0
LINE
  5
12E
330
1F
100
AcDbEntity
  8
0-4_寸法
  6
Continuous
 62
     7
370
    13
100
AcDbLine
 10
168.0635769204832
 20
2.113327085445569
 30
0.0
 11
168.0635769204832
 21
310.1134277109734
 31
0.0
  0
LINE
  5
12F
330
1F
100
AcDbEntity
  8
0-4_寸法
  6
Continuous
 62
     7
370
    13
100
AcDbLine
 10
-431.9364230795168
 20
307.113467301345
 30
0.0
 11
-407.1502523262441
 21
310.3765799623458
 31
0.0
  0
LINE
  5
130
330
1F
100
AcDbEntity
  8
0-4_寸法
  6
Continuous
 62
     7
370
    13
100
AcDbLine
 10
-431.9364230795168
 20
307.113467301345
 30
0.0
 11
-407.1502523262441
 21
303.8503546403442
 31
0.0
  0
LINE
  5
131
330
1F
100
AcDbEntity
  8
0-4_寸法
  6
Continuous
 62
     7
370
    13
100
AcDbLine
 10
168.0635769204832
 20
307.113467301345
 30
0.0
 11
143.2775298871217
 21
310.3765799623458
 31
0.0
  0
LINE
  5
132
330
1F
100
AcDbEntity
  8
0-4_寸法
  6
Continuous
 62
     7
370
    13
100
AcDbLine
 10
168.0635769204832
 20
307.113467301345
 30
0.0
 11
143.2775298871217
 21
303.8503546403442
 31
0.0
  0
LINE
  5
133
330
1F
100
AcDbEntity
  8
0-4_寸法
  6
Continuous
 62
     7
370
    13
100
AcDbLine
 10
-465.2697839061636
 20
387.1134837973329
 30
0.0
 11
201.3969377471301
 21
387.1134837973329
 31
0.0
  0
LINE
  5
134
330
1F
100
AcDbEntity
  8
0-4_寸法
  6
Continuous
 62
     7
370
    13
100
AcDbLine
 10
-465.2697839061636
 20
-17.40794284170825
 30
0.0
 11
-465.2697839061636
 21
390.1134442069613
 31
0.0
  0
LINE
  5
135
330
1F
100
AcDbEntity
  8
0-4_寸法
  6
Continuous
 62
     7
370
    13
100
AcDbLine
 10
201.3969377471301
 20
-17.40794284170825
 30
0.0
 11
201.3969377471301
 21
390.1134442069613
 31
0.0
  0
LINE
  5
136
330
1F
100
AcDbEntity
  8
0-4_寸法
  6
Continuous
 62
     7
370
    13
100
AcDbLine
 10
-465.2697839061636
 20
387.1134837973329
 30
0.0
 11
-440.483613152891
 21
390.376596458334
 31
0.0
  0
LINE
  5
137
330
1F
100
AcDbEntity
  8
0-4_寸法
  6
Continuous
 62
     7
370
    13
100
AcDbLine
 10
-465.2697839061636
 20
387.1134837973329
 30
0.0
 11
-440.483613152891
 21
383.8503711363322
 31
0.0
  0
LINE
  5
138
330
1F
100
AcDbEntity
  8
0-4_寸法
  6
Continuous
 62
     7
370
    13
100
AcDbLine
 10
201.3969377471301
 20
387.1134837973329
 30
0.0
 11
176.6108907137686
 21
390.376596458334
 31
0.0
  0
LINE
  5
139
330
1F
100
AcDbEntity
  8
0-4_寸法
  6
Continuous
 62
     7
370
    13
100
AcDbLine
 10
201.3969377471301
 20
387.1134837973329
 30
0.0
 11
176.6108907137686
 21
383.8503711363322
 31
0.0
  0
LINE
  5
13A
330
1F
100
AcDbEntity
  8
0-4_寸法
  6
Continuous
 62
     7
370
    13
100
AcDbLine
 10
301.397020227071
 20
-215.7412294364083
 30
0.0
 11
301.397020227071
 21
-15.74131191634923
 31
0.0
  0
LINE
  5
13B
330
1F
100
AcDbEntity
  8
0-4_寸法
  6
Continuous
 62
     7
370
    13
100
AcDbLine
 10
223.0637583763533
 20
-15.74131191634923
 30
0.0
 11
304.3969806366994
 21
-15.74131191634923
 31
0.0
  0
LINE
  5
13C
330
1F
100
AcDbEntity
  8
0-4_寸法
  6
Continuous
 62
     7
370
    13
100
AcDbLine
 10
301.397020227071
 20
-215.7412294364083
 30
0.0
 11
298.133783846159
 21
-190.9550586831356
 31
0.0
  0
LINE
  5
13D
330
1F
100
AcDbEntity
  8
0-4_寸法
  6
Continuous
 62
     7
370
    13
100
AcDbLine
 10
301.397020227071
 20
-215.7412294364083
 30
0.0
 11
304.6602566079832
 21
-190.9550586831356
 31
0.0
  0
LINE
  5
13E
330
1F
100
AcDbEntity
  8
0-4_寸法
  6
Continuous
 62
     7
370
    13
100
AcDbLine
 10
301.397020227071
 20
-15.74131191634923
 30
0.0
 11
298.133783846159
 21
-40.52748266962205
 31
0.0
  0
LINE
  5
13F
330
1F
100
AcDbEntity
  8
0-4_寸法
  6
Continuous
 62
     7
370
    13
100
AcDbLine
 10
301.397020227071
 20
-15.74131191634923
 30
0.0
 11
304.6602566079832
 21
-40.52748266962205
 31
0.0
  0
LINE
  5
140
330
1F
100
AcDbEntity
  8
0-4_寸法
  6
Continuous
 62
     7
370
    13
100
AcDbLine
 10
381.3970367230593
 20
-282.4079510897024
 30
0.0
 11
381.3970367230593
 21
-15.74131191634923
 31
0.0
  0
LINE
  5
141
330
1F
100
AcDbEntity
  8
0-4_寸法
  6
Continuous
 62
     7
370
    13
100
AcDbLine
 10
226.397020227071
 20
-282.4079510897024
 30
0.0
 11
384.3969971326877
 21
-282.4079510897024
 31
0.0
  0
LINE
  5
142
330
1F
100
AcDbEntity
  8
0-4_寸法
  6
Continuous
 62
     7
370
    13
100
AcDbLine
 10
223.0637583763533
 20
-15.74131191634923
 30
0.0
 11
384.3969971326877
 21
-15.74131191634923
 31
0.0
  0
LINE
  5
143
330
1F
100
AcDbEntity
  8
0-4_寸法
  6
Continuous
 62
     7
370
    13
100
AcDbLine
 10
381.3970367230593
 20
-282.4079510897024
 30
0.0
 11
378.133800342147
 21
-257.6217803364296
 31
0.0
  0
LINE
  5
144
330
1F
100
AcDbEntity
  8
0-4_寸法
  6
Continuous
 62
     7
370
    13
100
AcDbLine
 10
381.3970367230593
 20
-282.4079510897024
 30
0.0
 11
384.6602731039715
 21
-257.6217803364296
 31
0.0
  0
LINE
  5
145
330
1F
100
AcDbEntity
  8
0-4_寸法
  6
Continuous
 62
     7
370
    13
100
AcDbLine
 10
381.3970367230593
 20
-15.74131191634923
 30
0.0
 11
378.133800342147
 21
-40.52748266962205
 31
0.0
  0
LINE
  5
146
330
1F
100
AcDbEntity
  8
0-4_寸法
  6
Continuous
 62
     7
370
    13
100
AcDbLine
 10
381.3970367230593
 20
-15.74131191634923
 30
0.0
 11
384.6602731039715
 21
-40.52748266962205
 31
0.0
  0
LINE
  5
147
330
1F
100
AcDbEntity
  8
0-4_寸法
  6
Continuous
 62
     7
370
    13
100
AcDbLine
 10
381.3970367230593
 20
-15.74131191634923
 30
0.0
 11
381.3970367230593
 21
127.1134920453273
 31
0.0
  0
LINE
  5
148
330
1F
100
AcDbEntity
  8
0-4_寸法
  6
Continuous
 62
     7
370
    13
100
AcDbLine
 10
381.3970367230593
 20
-15.74131191634923
 30
0.0
 11
378.133800342147
 21
9.044858836923417
 31
0.0
  0
LINE
  5
149
330
1F
100
AcDbEntity
  8
0-4_寸法
  6
Continuous
 62
     7
370
    13
100
AcDbLine
 10
381.3970367230593
 20
-15.74131191634923
 30
0.0
 11
384.6602731039715
 21
9.044858836923417
 31
0.0
  0
LINE
  5
14A
330
1F
100
AcDbEntity
  8
0-4_寸法
  6
Continuous
 62
     7
370
    13
100
AcDbLine
 10
381.3970367230593
 20
127.1134920453273
 30
0.0
 11
378.133800342147
 21
102.3273212920544
 31
0.0
  0
LINE
  5
14B
330
1F
100
AcDbEntity
  8
0-4_寸法
  6
Continuous
 62
     7
370
    13
100
AcDbLine
 10
381.3970367230593
 20
127.1134920453273
 30
0.0
 11
384.6602731039715
 21
102.3273212920544
 31
0.0
  0
LINE
  5
14C
330
1F
100
AcDbEntity
  8
0-4_寸法
  6
Continuous
 62
     7
370
    13
100
AcDbLine
 10
-565.2697426661933
 20
-22.88650795467284
 30
0.0
 11
-565.2697426661933
 21
127.1134920453273
 31
0.0
  0
LINE
  5
14D
330
1F
100
AcDbEntity
  8
0-4_寸法
  6
Continuous
 62
     7
370
    13
100
AcDbLine
 10
-379.1544159136595
 20
-22.88650795467284
 30
0.0
 11
-568.2697030758218
 21
-22.88650795467284
 31
0.0
  0
LINE
  5
14E
330
1F
100
AcDbEntity
  8
0-4_寸法
  6
Continuous
 62
     7
370
    13
100
AcDbLine
 10
-565.2697426661933
 20
-22.88650795467284
 30
0.0
 11
-568.532855327194
 21
1.899662798599984
 31
0.0
  0
LINE
  5
14F
330
1F
100
AcDbEntity
  8
0-4_寸法
  6
Continuous
 62
     7
370
    13
100
AcDbLine
 10
-565.2697426661933
 20
-22.88650795467284
 30
0.0
 11
-562.0066300051926
 21
1.899662798599984
 31
0.0
  0
LINE
  5
150
330
1F
100
AcDbEntity
  8
0-4_寸法
  6
Continuous
 62
     7
370
    13
100
AcDbLine
 10
-565.2697426661933
 20
127.1134920453273
 30
0.0
 11
-568.532855327194
 21
102.3273212920544
 31
0.0
  0
LINE
  5
151
330
1F
100
AcDbEntity
  8
0-4_寸法
  6
Continuous
 62
     7
370
    13
100
AcDbLine
 10
-565.2697426661933
 20
127.1134920453273
 30
0.0
 11
-562.0066300051926
 21
102.3273212920544
 31
0.0
  0
LINE
  5
152
330
1F
100
AcDbEntity
  8
0-4_寸法
  6
Continuous
 62
     7
370
    13
100
AcDbLine
 10
-465.2696601862525
 20
-569.0746562470082
 30
0.0
 11
201.3969377471301
 21
-569.0746562470082
 31
0.0
  0
LINE
  5
153
330
1F
100
AcDbEntity
  8
0-4_寸法
  6
Continuous
 62
     7
370
    13
100
AcDbLine
 10
-465.2696601862525
 20
-307.4081572895546
 30
0.0
 11
-465.2696601862525
 21
-572.0746166566364
 31
0.0
  0
LINE
  5
154
330
1F
100
AcDbEntity
  8
0-4_寸法
  6
Continuous
 62
     7
370
    13
100
AcDbLine
 10
201.3969377471301
 20
-307.4079098497319
 30
0.0
 11
201.3969377471301
 21
-572.0746166566364
 31
0.0
  0
LINE
  5
155
330
1F
100
AcDbEntity
  8
0-4_寸法
  6
Continuous
 62
     7
370
    13
100
AcDbLine
 10
-465.2696601862525
 20
-569.0746562470082
 30
0.0
 11
-440.4834894329795
 21
-565.811419866096
 31
0.0
  0
LINE
  5
156
330
1F
100
AcDbEntity
  8
0-4_寸法
  6
Continuous
 62
     7
370
    13
100
AcDbLine
 10
-465.2696601862525
 20
-569.0746562470082
 30
0.0
 11
-440.4834894329795
 21
-572.3377689080089
 31
0.0
  0
LINE
  5
157
330
1F
100
AcDbEntity
  8
0-4_寸法
  6
Continuous
 62
     7
370
    13
100
AcDbLine
 10
201.3969377471301
 20
-569.0746562470082
 30
0.0
 11
176.6108907137686
 21
-565.811419866096
 31
0.0
  0
LINE
  5
158
330
1F
100
AcDbEntity
  8
0-4_寸法
  6
Continuous
 62
     7
370
    13
100
AcDbLine
 10
201.3969377471301
 20
-569.0746562470082
 30
0.0
 11
176.6108907137686
 21
-572.3377689080089
 31
0.0
  0
LINE
  5
159
330
1F
100
AcDbEntity
  8
0-4_寸法
  6
Continuous
 62
     7
370
    13
100
AcDbLine
 10
-229.3412329797491
 20
127.1134920453273
 30
0.0
 11
-568.2697030758218
 21
127.1134920453273
 31
0.0
  0
LINE
  5
15A
330
1F
100
AcDbEntity
  8
0-4_寸法
  6
Continuous
 62
     7
370
    13
100
AcDbLine
 10
-33.46737450213084
 20
127.1134920453273
 30
0.0
 11
13.3585086930762
 21
127.1134920453273
 31
0.0
  0
LINE
  5
15B
330
1F
100
AcDbEntity
  8
0-4_寸法
  6
Continuous
 62
     7
370
    13
100
AcDbLine
 10
35.47938139683451
 20
127.1134920453273
 30
0.0
 11
384.3969971326877
 21
127.1134920453273
 31
0.0
  0
LINE
  5
15C
330
1F
100
AcDbEntity
  8
0-0_通り芯
  6
Continuous
 62
     3
370
    13
100
AcDbLine
 10
-465.2697839061636
 20
-42.40802532164913
 30
0.0
 11
-461.9365220554459
 21
-15.74131191634923
 31
0.0
  0
LINE
  5
15D
330
1F
100
AcDbEntity
  8
0-0_通り芯
  6
Continuous
 62
     3
370
    13
100
AcDbLine
 10
-465.2697839061636
 20
-42.40802532164913
 30
0.0
 11
-455.2697509141873
 21
-42.40802532164913
 31
0.0
  0
LINE
  5
15E
330
1F
100
AcDbEntity
  8
0-0_通り芯
  6
Continuous
 62
     3
370
    13
100
AcDbLine
 10
-375.2207413333176
 20
-48.43652544042023
 30
0.0
 11
-358.6521708096689
 21
-52.87584329831716
 31
0.0
  0
LINE
  5
15F
330
1F
100
AcDbEntity
  8
0-0_通り芯
  6
Continuous
 62
     3
370
    13
100
AcDbLine
 10
-409.4248428958176
 20
-28.9187196707833
 30
0.0
 11
-399.7657819794324
 21
-31.50681649563559
 31
0.0
  0
LINE
  5
160
330
1F
100
AcDbEntity
  8
0-0_通り芯
  6
Continuous
 62
     3
370
    13
100
AcDbLine
 10
-382.4370763206485
 20
-36.15014848729523
 30
0.0
 11
-390.1062261834019
 21
-34.09503704039913
 31
0.0
  0
LINE
  5
161
330
1F
100
AcDbEntity
  8
0-0_通り芯
  6
Continuous
 62
     3
370
    13
100
AcDbLine
 10
-380.033940763216
 20
-38.70150049848611
 30
0.0
 11
-378.8249497898209
 21
-44.60912626389991
 31
0.0
  0
LINE
  5
162
330
1F
100
AcDbEntity
  8
0-0_通り芯
  6
Continuous
 62
     3
370
    13
100
AcDbLine
 10
-349.6164108065017
 20
-46.85179709635356
 30
0.0
 11
-353.6172652986892
 21
-51.36361482228253
 31
0.0
  0
LINE
  5
163
330
1F
100
AcDbEntity
  8
0-0_通り芯
  6
Continuous
 62
     3
370
    13
100
AcDbLine
 10
-458.6030127649053
 20
-15.74131191634923
 30
0.0
 11
-419.0843986918478
 21
-26.33025168619731
 31
0.0
  0
LINE
  5
164
330
1F
100
AcDbEntity
  8
0-0_通り芯
  6
Continuous
 62
     3
370
    13
100
AcDbLine
 10
-395.8374273552769
 20
-46.36297972673773
 30
0.0
 11
-426.4633016426504
 21
-38.15688544886612
 31
0.0
  0
LINE
  5
165
330
1F
100
AcDbEntity
  8
0-0_通り芯
  6
JWW_DASHED1
 62
     3
370
    13
100
AcDbLine
 10
-349.1079219709863
 20
-66.37529398191091
 30
0.0
 11
-346.4744199386806
 21
-63.40515007091007
 31
0.0
  0
LINE
  5
166
330
1F
100
AcDbEntity
  8
0-0_通り芯
  6
Continuous
 62
     3
370
    13
100
AcDbLine
 10
-390.2353897708176
 20
-55.35543776094393
 30
0.0
 11
-391.0316511200574
 21
-51.46580746903091
 31
0.0
  0
LINE
  5
167
330
1F
100
AcDbEntity
  8
0-0_通り芯
  6
Continuous
 62
     3
370
    13
100
AcDbLine
 10
-338.5902448700574
 20
-47.89871498592284
 30
0.0
 11
-346.2593947328108
 21
-45.84385097884919
 31
0.0
  0
LINE
  5
168
330
1F
100
AcDbEntity
  8
0-0_通り芯
  6
Continuous
 62
     3
370
    13
100
AcDbLine
 10
-254.8093478842043
 20
-65.23113224204607
 30
0.0
 11
-248.6033096926926
 21
-125.7413036683552
 31
0.0
  0
LINE
  5
169
330
1F
100
AcDbEntity
  8
0-0_通り芯
  6
Continuous
 62
     3
370
    13
100
AcDbLine
 10
-309.5457584891452
 20
-149.0746315030258
 30
0.0
 11
-321.9365550474222
 21
-149.0746315030258
 31
0.0
  0
LINE
  5
16A
330
1F
100
AcDbEntity
  8
0-0_通り芯
  6
Continuous
 62
     3
370
    13
100
AcDbLine
 10
-326.2976819213665
 20
-119.9995863040182
 30
0.0
 11
-321.9365550474222
 21
-149.0746315030258
 31
0.0
  0
LINE
  5
16B
330
1F
100
AcDbEntity
  8
0-0_通り芯
  6
JWW_DASHED1
 62
     3
370
    13
100
AcDbLine
 10
-330.2732975516452
 20
-63.93095969400981
 30
0.0
 11
-339.7608826709441
 21
-61.38876295625643
 31
0.0
  0
LINE
  5
16C
330
1F
100
AcDbEntity
  8
0-0_通り芯
  6
Continuous
 62
     3
370
    13
100
AcDbLine
 10
-385.2017214589509
 20
-59.56562634308071
 30
0.0
 11
-386.6311813143142
 21
-59.18271321755284
 31
0.0
  0
LINE
  5
16D
330
1F
100
AcDbEntity
  8
0-0_通り芯
  6
JWW_DASHED1
 62
     3
370
    13
100
AcDbLine
 10
-385.2017214589509
 20
-59.56562634308071
 30
0.0
 11
-354.1433223616113
 21
-67.88764617785695
 31
0.0
  0
LINE
  5
16E
330
1F
100
AcDbEntity
  8
0-0_通り芯
  6
Continuous
 62
     3
370
    13
100
AcDbLine
 10
-309.4537108751248
 20
-55.70568882988383
 30
0.0
 11
-328.9309365138496
 21
-50.48693553068617
 31
0.0
  0
LINE
  5
16F
330
1F
100
AcDbEntity
  8
0-0_通り芯
  6
JWW_DASHED1
 62
     3
370
    13
100
AcDbLine
 10
-269.4468980320084
 20
-105.4667032011888
 30
0.0
 11
-289.5454450653699
 21
-103.2689426965435
 31
0.0
  0
LINE
  5
170
330
1F
100
AcDbEntity
  8
0-0_通り芯
  6
JWW_DASHED1
 62
     3
370
    13
100
AcDbLine
 10
-266.5214170089931
 20
-108.2323380987817
 30
0.0
 11
-263.6031117408345
 21
-125.7413036683552
 31
0.0
  0
LINE
  5
171
330
1F
100
AcDbEntity
  8
0-0_通り芯
  6
JWW_DASHED1
 62
     3
370
    13
100
AcDbLine
 10
-331.2422718970845
 20
-115.7413943962901
 30
0.0
 11
-322.0345412171858
 21
-115.7413943962901
 31
0.0
  0
LINE
  5
172
330
1F
100
AcDbEntity
  8
0-0_通り芯
  6
JWW_DASHED1
 62
     3
370
    13
100
AcDbLine
 10
-322.9362119308681
 20
-72.37137948391684
 30
0.0
 11
-313.5181574017295
 21
-149.0746315030258
 31
0.0
  0
LINE
  5
173
330
1F
100
AcDbEntity
  8
0-0_通り芯
  6
JWW_DASHED1
 62
     3
370
    13
100
AcDbLine
 10
-298.3837480900743
 20
-94.54693638847758
 30
0.0
 11
-302.1166252543478
 21
-64.14635605961372
 31
0.0
  0
LINE
  5
174
330
1F
100
AcDbEntity
  8
0-0_通り芯
  6
Continuous
 62
     3
370
    13
100
AcDbLine
 10
-304.5831054063748
 20
-153.465327435775
 30
0.0
 11
-296.9364725674814
 21
-215.7412294364083
 31
0.0
  0
LINE
  5
175
330
1F
100
AcDbEntity
  8
0-0_通り芯
  6
Continuous
 62
     3
370
    13
100
AcDbLine
 10
-281.9364230795168
 20
-132.4079510897023
 30
0.0
 11
-281.9364230795168
 21
-165.7413119163492
 31
0.0
  0
LINE
  5
176
330
1F
100
AcDbEntity
  8
0-0_通り芯
  6
Continuous
 62
     3
370
    13
100
AcDbLine
 10
-264.0970016268142
 20
-132.4079510897023
 30
0.0
 11
-263.6031117408345
 21
-125.7413036683552
 31
0.0
  0
LINE
  5
177
330
1F
100
AcDbEntity
  8
0-0_通り芯
  6
Continuous
 62
     3
370
    13
100
AcDbLine
 10
-278.4099107273209
 20
-215.7412294364083
 30
0.0
 11
-275.2847457674392
 21
-165.7413119163492
 31
0.0
  0
LINE
  5
178
330
1F
100
AcDbEntity
  8
0-0_通り芯
  6
Continuous
 62
     3
370
    13
100
AcDbLine
 10
201.3969377471301
 20
-42.40802532164913
 30
0.0
 11
198.0636758964124
 21
-15.74131191634923
 31
0.0
  0
LINE
  5
179
330
1F
100
AcDbEntity
  8
0-0_通り芯
  6
Continuous
 62
     3
370
    13
100
AcDbLine
 10
201.3969377471301
 20
-42.40802532164913
 30
0.0
 11
191.3969047551538
 21
-42.40802532164913
 31
0.0
  0
LINE
  5
17A
330
1F
100
AcDbEntity
  8
0-0_通り芯
  6
Continuous
 62
     3
370
    13
100
AcDbLine
 10
145.551996736784
 20
-28.9187196707833
 30
0.0
 11
135.8929358203988
 21
-31.50681649563559
 31
0.0
  0
LINE
  5
17B
330
1F
100
AcDbEntity
  8
0-0_通り芯
  6
Continuous
 62
     3
370
    13
100
AcDbLine
 10
194.7301666058718
 20
-15.74131191634923
 30
0.0
 11
155.2115525328142
 21
-26.33025168619731
 31
0.0
  0
LINE
  5
17C
330
1F
100
AcDbEntity
  8
0-0_通り芯
  6
Continuous
 62
     3
370
    13
100
AcDbLine
 10
131.9645811962434
 20
-46.36297972673773
 30
0.0
 11
162.5904554836166
 21
-38.15688544886612
 31
0.0
  0
LINE
  5
17D
330
1F
100
AcDbEntity
  8
0-0_通り芯
  6
Continuous
 62
     3
370
    13
100
AcDbLine
 10
85.23507581195274
 20
-66.37529398191091
 30
0.0
 11
82.60157377964701
 21
-63.40515007091007
 31
0.0
  0
LINE
  5
17E
330
1F
100
AcDbEntity
  8
0-0_通り芯
  6
Continuous
 62
     3
370
    13
100
AcDbLine
 10
126.362543611784
 20
-55.35543776094393
 30
0.0
 11
127.1588049610238
 21
-51.46580746903091
 31
0.0
  0
LINE
  5
17F
330
1F
100
AcDbEntity
  8
0-0_通り芯
  6
JWW_PHANTOM1
 62
     3
370
    13
100
AcDbLine
 10
62.42483576233296
 20
-119.9995863040182
 30
0.0
 11
58.06370888838869
 21
-149.0746315030258
 31
0.0
  0
LINE
  5
180
330
1F
100
AcDbEntity
  8
0-0_通り芯
  6
Continuous
 62
     3
370
    13
100
AcDbLine
 10
66.4004513926116
 20
-63.93095969400981
 30
0.0
 11
75.88803651191056
 21
-61.38876295625643
 31
0.0
  0
LINE
  5
181
330
1F
100
AcDbEntity
  8
0-0_通り芯
  6
Continuous
 62
     3
370
    13
100
AcDbLine
 10
121.3288752999173
 20
-59.56562634308071
 30
0.0
 11
122.7583351552806
 21
-59.18271321755284
 31
0.0
  0
LINE
  5
182
330
1F
100
AcDbEntity
  8
0-0_通り芯
  6
JWW_PHANTOM1
 62
     3
370
    13
100
AcDbLine
 10
117.6590952904158
 20
-63.79684731014159
 30
0.0
 11
111.9273992388955
 21
-111.3396873914338
 31
0.0
  0
LINE
  5
183
330
1F
100
AcDbEntity
  8
0-0_通り芯
  6
Continuous
 62
     3
370
    13
100
AcDbLine
 10
121.3288752999173
 20
-59.56562634308071
 30
0.0
 11
90.27047620257774
 21
-67.88764617785695
 31
0.0
  0
LINE
  5
184
330
1F
100
AcDbEntity
  8
0-0_通り芯
  6
JWW_PHANTOM1
 62
     3
370
    13
100
AcDbLine
 10
106.9635089570119
 20
-115.7413943962901
 30
0.0
 11
67.36942573805065
 21
-115.7413943962901
 31
0.0
  0
LINE
  5
185
330
1F
100
AcDbEntity
  8
0-0_通り芯
  6
Continuous
 62
     3
370
    13
100
AcDbLine
 10
59.06336577183451
 20
-72.37137948391684
 30
0.0
 11
49.64531124269597
 21
-149.0746315030258
 31
0.0
  0
LINE
  5
186
330
1F
100
AcDbEntity
  8
0-0_通り芯
  6
Continuous
 62
     3
370
    13
100
AcDbLine
 10
18.06357692048323
 20
-132.4079510897023
 30
0.0
 11
18.06357692048323
 21
-165.7413119163492
 31
0.0
  0
LINE
  5
187
330
1F
100
AcDbEntity
  8
0-0_通り芯
  6
Continuous
 62
     3
370
    13
100
AcDbLine
 10
0.2241554677806334
 20
-132.4079510897023
 30
0.0
 11
-0.2697344181993344
 21
-125.7413036683552
 31
0.0
  0
LINE
  5
188
330
1F
100
AcDbEntity
  8
0-0_通り芯
  6
Continuous
 62
     3
370
    13
100
AcDbLine
 10
14.53706456828741
 20
-215.7412294364083
 30
0.0
 11
11.41189960840563
 21
-165.7413119163492
 31
0.0
  0
LINE
  5
189
330
1F
100
AcDbEntity
  8
0-0_通り芯
  6
Continuous
 62
     3
370
    13
100
AcDbLine
 10
-263.6031117408345
 20
-125.7413036683552
 30
0.0
 11
-0.2697344181993344
 21
-125.7413036683552
 31
0.0
  0
LINE
  5
18A
330
1F
100
AcDbEntity
  8
0-0_通り芯
  6
Continuous
 62
     3
370
    13
100
AcDbLine
 10
45.6729123301116
 20
-149.0746315030258
 30
0.0
 11
49.64531124269597
 21
-149.0746315030258
 31
0.0
  0
LINE
  5
18B
330
1F
100
AcDbEntity
  8
0-0_通り芯
  6
JWW_PHANTOM1
 62
     3
370
    13
100
AcDbLine
 10
49.64531124269597
 20
-149.0746315030258
 30
0.0
 11
58.06370888838869
 21
-149.0746315030258
 31
0.0
  0
LINE
  5
18C
330
1F
100
AcDbEntity
  8
0-0_通り芯
  6
Continuous
 62
     3
370
    13
100
AcDbLine
 10
-296.9364725674814
 20
-215.7412294364083
 30
0.0
 11
33.0636264084478
 21
-215.7412294364083
 31
0.0
  0
LINE
  5
18D
330
1F
100
AcDbEntity
  8
0-0_通り芯
  6
Continuous
 62
     3
370
    13
100
AcDbLine
 10
40.71025924734128
 20
-153.465327435775
 30
0.0
 11
33.0636264084478
 21
-215.7412294364083
 31
0.0
  0
LINE
  5
18E
330
1F
100
AcDbEntity
  8
0-0_通り芯
  6
Continuous
 62
     3
370
    13
100
AcDbLine
 10
118.5639827217923
 20
-36.15014848729523
 30
0.0
 11
126.2333800243684
 21
-34.09503704039913
 31
0.0
  0
LINE
  5
18F
330
1F
100
AcDbEntity
  8
0-0_通り芯
  6
Continuous
 62
     3
370
    13
100
AcDbLine
 10
116.1610946041824
 20
-38.70150049848611
 30
0.0
 11
114.9521036307874
 21
-44.60912626389991
 31
0.0
  0
LINE
  5
190
330
1F
100
AcDbEntity
  8
0-0_通り芯
  6
Continuous
 62
     3
370
    13
100
AcDbLine
 10
111.347895174284
 20
-48.43652544042023
 30
0.0
 11
94.7793246506353
 21
-52.87584329831716
 31
0.0
  0
LINE
  5
191
330
1F
100
AcDbEntity
  8
0-0_通り芯
  6
Continuous
 62
     3
370
    13
100
AcDbLine
 10
74.71739871102385
 20
-47.89871498592284
 30
0.0
 11
82.38654857377723
 21
-45.84385097884919
 31
0.0
  0
LINE
  5
192
330
1F
100
AcDbEntity
  8
0-0_通り芯
  6
Continuous
 62
     3
370
    13
100
AcDbLine
 10
85.74356464746812
 20
-46.85179709635356
 30
0.0
 11
89.74417169983296
 21
-51.36349110237127
 31
0.0
  0
LINE
  5
193
330
1F
100
AcDbEntity
  8
0-0_通り芯
  6
Continuous
 62
     3
370
    13
100
AcDbLine
 10
45.58086471609128
 20
-55.70568882988383
 30
0.0
 11
65.05809035481603
 21
-50.48693553068617
 31
0.0
  0
LINE
  5
194
330
1F
100
AcDbEntity
  8
0-0_通り芯
  6
Continuous
 62
     3
370
    13
100
AcDbLine
 10
34.51090193104078
 20
-94.54693638847758
 30
0.0
 11
38.2437790953142
 21
-64.14623233970232
 31
0.0
  0
LINE
  5
195
330
1F
100
AcDbEntity
  8
0-0_通り芯
  6
Continuous
 62
     3
370
    13
100
AcDbLine
 10
5.57429931279728
 20
-105.4667032011888
 30
0.0
 11
25.67259890633636
 21
-103.2689426965435
 31
0.0
  0
LINE
  5
196
330
1F
100
AcDbEntity
  8
0-0_通り芯
  6
Continuous
 62
     3
370
    13
100
AcDbLine
 10
2.648570849959526
 20
-108.2323380987817
 30
0.0
 11
-0.2697344181993344
 21
-125.7413036683552
 31
0.0
  0
LINE
  5
197
330
1F
100
AcDbEntity
  8
0-0_通り芯
  6
Continuous
 62
     3
370
    13
100
AcDbLine
 10
-281.9364230795168
 20
-132.4079510897023
 30
0.0
 11
18.06357692048323
 21
-132.4079510897023
 31
0.0
  0
LINE
  5
198
330
1F
100
AcDbEntity
  8
0-0_通り芯
  6
Continuous
 62
     3
370
    13
100
AcDbLine
 10
18.06357692048323
 20
-165.7413119163492
 30
0.0
 11
-281.9364230795168
 21
-165.7413119163492
 31
0.0
  0
LINE
  5
199
330
1F
100
AcDbEntity
  8
0-0_通り芯
  6
Continuous
 62
     3
370
    13
100
AcDbLine
 10
-273.1511958967675
 20
-210.4826383257666
 30
0.0
 11
-270.3547547412566
 21
-165.7413119163492
 31
0.0
  0
LINE
  5
19A
330
1F
100
AcDbEntity
  8
0-0_通り芯
  6
Continuous
 62
     3
370
    13
100
AcDbLine
 10
-278.4099107273209
 20
-215.7412294364083
 30
0.0
 11
-273.1511958967675
 21
-210.4826383257666
 31
0.0
  0
LINE
  5
19B
330
1F
100
AcDbEntity
  8
0-0_通り芯
  6
Continuous
 62
     3
370
    13
100
AcDbLine
 10
14.53706456828741
 20
-215.7412294364083
 30
0.0
 11
9.278473457645475
 21
-210.4826383257666
 31
0.0
  0
LINE
  5
19C
330
1F
100
AcDbEntity
  8
0-0_通り芯
  6
Continuous
 62
     3
370
    13
100
AcDbLine
 10
9.278473457645475
 20
-210.4826383257666
 30
0.0
 11
6.48190858222307
 21
-165.7413119163492
 31
0.0
  0
LINE
  5
19D
330
1F
100
AcDbEntity
  8
0-0_通り芯
  6
Continuous
 62
     3
370
    13
100
AcDbLine
 10
-273.1511958967675
 20
-210.4826383257666
 30
0.0
 11
9.278473457645475
 21
-210.4826383257666
 31
0.0
  0
LINE
  5
19E
330
1F
100
AcDbEntity
  8
0-0_通り芯
  6
Continuous
 62
     3
370
    13
100
AcDbLine
 10
-375.8003691178402
 20
-111.3399348312564
 30
0.0
 11
-381.5319414494493
 21
-63.79684731014159
 31
0.0
  0
LINE
  5
19F
330
1F
100
AcDbEntity
  8
0-0_通り芯
  6
Continuous
 62
     3
370
    13
100
AcDbLine
 10
-259.7831357589931
 20
-60.74133666033148
 30
0.0
 11
-261.9364808154754
 21
-60.74133666033148
 31
0.0
  0
LINE
  5
1A0
330
1F
100
AcDbEntity
  8
0-0_通り芯
  6
Continuous
 62
     3
370
    13
100
AcDbLine
 10
-288.6030705008639
 20
-60.74133666033148
 30
0.0
 11
-303.1751728155811
 21
-60.74133666033148
 31
0.0
  0
LINE
  5
1A1
330
1F
100
AcDbEntity
  8
0-0_通り芯
  6
Continuous
 62
     3
370
    13
100
AcDbLine
 10
-461.9365220554459
 20
-15.74131191634923
 30
0.0
 11
-379.1495908371181
 21
-15.74131191634923
 31
0.0
  0
LINE
  5
1A2
330
1F
100
AcDbEntity
  8
0-0_通り芯
  6
Continuous
 62
     3
370
    13
100
AcDbLine
 10
115.2769921179072
 20
-15.74131191634923
 30
0.0
 11
198.0636758964124
 21
-15.74131191634923
 31
0.0
  0
LINE
  5
1A3
330
1F
100
AcDbEntity
  8
0-0_通り芯
  6
Continuous
 62
     3
370
    13
100
AcDbLine
 10
-345.2698828820928
 20
-115.7413943962901
 30
0.0
 11
-331.2422718970845
 21
-115.7413943962901
 31
0.0
  0
LINE
  5
1A4
330
1F
100
AcDbEntity
  8
0-4_寸法
  6
Continuous
 62
     7
370
    13
100
AcDbLine
 10
58.06370888838869
 20
-215.7412294364083
 30
0.0
 11
304.3969806366994
 21
-215.7412294364083
 31
0.0
  0
LINE
  5
1A5
330
1F
100
AcDbEntity
  8
0-4_寸法
  6
Continuous
 62
     7
370
    13
100
AcDbLine
 10
-273.1511958967675
 20
-409.0746232550317
 30
0.0
 11
9.278473457645475
 21
-409.0746232550317
 31
0.0
  0
LINE
  5
1A6
330
1F
100
AcDbEntity
  8
0-4_寸法
  6
Continuous
 62
     7
370
    13
100
AcDbLine
 10
-273.1511958967675
 20
-235.4825970857961
 30
0.0
 11
-273.1511958967675
 21
-412.0746455246157
 31
0.0
  0
LINE
  5
1A7
330
1F
100
AcDbEntity
  8
0-4_寸法
  6
Continuous
 62
     7
370
    13
100
AcDbLine
 10
9.278473457645475
 20
-235.4825970857961
 30
0.0
 11
9.278473457645475
 21
-412.0746455246157
 31
0.0
  0
LINE
  5
1A8
330
1F
100
AcDbEntity
  8
0-4_寸法
  6
Continuous
 62
     7
370
    13
100
AcDbLine
 10
-273.1511958967675
 20
-409.0746232550317
 30
0.0
 11
-248.3650251434949
 21
-405.8114487340754
 31
0.0
  0
LINE
  5
1A9
330
1F
100
AcDbEntity
  8
0-4_寸法
  6
Continuous
 62
     7
370
    13
100
AcDbLine
 10
-273.1511958967675
 20
-409.0746232550317
 30
0.0
 11
-248.3650251434949
 21
-412.3377977759881
 31
0.0
  0
LINE
  5
1AA
330
1F
100
AcDbEntity
  8
0-4_寸法
  6
Continuous
 62
     7
370
    13
100
AcDbLine
 10
9.278473457645475
 20
-409.0746232550317
 30
0.0
 11
-15.50769729562745
 21
-405.8114487340754
 31
0.0
  0
LINE
  5
1AB
330
1F
100
AcDbEntity
  8
0-4_寸法
  6
Continuous
 62
     7
370
    13
100
AcDbLine
 10
9.278473457645475
 20
-409.0746232550317
 30
0.0
 11
-15.50769729562745
 21
-412.3377977759881
 31
0.0
  0
LINE
  5
1AC
330
1F
100
AcDbEntity
  8
0-4_寸法
  6
Continuous
 62
     7
370
    13
100
AcDbLine
 10
-296.9364725674814
 20
-489.0746397510199
 30
0.0
 11
33.0636264084478
 21
-489.0746397510199
 31
0.0
  0
LINE
  5
1AD
330
1F
100
AcDbEntity
  8
0-4_寸法
  6
Continuous
 62
     7
370
    13
100
AcDbLine
 10
-296.9364725674814
 20
-240.7411881964379
 30
0.0
 11
-296.9364725674814
 21
-492.074662020604
 31
0.0
  0
LINE
  5
1AE
330
1F
100
AcDbEntity
  8
0-4_寸法
  6
Continuous
 62
     7
370
    13
100
AcDbLine
 10
33.0636264084478
 20
-240.7411881964379
 30
0.0
 11
33.0636264084478
 21
-492.074662020604
 31
0.0
  0
LINE
  5
1AF
330
1F
100
AcDbEntity
  8
0-4_寸法
  6
Continuous
 62
     7
370
    13
100
AcDbLine
 10
-296.9364725674814
 20
-489.0746397510199
 30
0.0
 11
-272.1503018142084
 21
-485.8114652300635
 31
0.0
  0
LINE
  5
1B0
330
1F
100
AcDbEntity
  8
0-4_寸法
  6
Continuous
 62
     7
370
    13
100
AcDbLine
 10
-296.9364725674814
 20
-489.0746397510199
 30
0.0
 11
-272.1503018142084
 21
-492.3378142719765
 31
0.0
  0
LINE
  5
1B1
330
1F
100
AcDbEntity
  8
0-4_寸法
  6
Continuous
 62
     7
370
    13
100
AcDbLine
 10
33.0636264084478
 20
-489.0746397510199
 30
0.0
 11
8.277579375086361
 21
-485.8114652300635
 31
0.0
  0
LINE
  5
1B2
330
1F
100
AcDbEntity
  8
0-4_寸法
  6
Continuous
 62
     7
370
    13
100
AcDbLine
 10
33.0636264084478
 20
-489.0746397510199
 30
0.0
 11
8.277579375086361
 21
-492.3378142719765
 31
0.0
  0
ARC
  5
1B3
330
1F
100
AcDbEntity
  8
0-0_通り芯
  6
Continuous
 62
     3
370
    13
100
AcDbCircle
 10
-131.9364230795168
 20
838.1455552975442
 30
0.0
 40
330.0000061859956
100
AcDbArc
 50
0.0
 51
180.0
  0
ARC
  5
1B4
330
1F
100
AcDbEntity
  8
0-0_通り芯
  6
Continuous
 62
     3
370
    13
100
AcDbCircle
 10
-131.9364230795168
 20
838.1455552975442
 30
0.0
 40
333.3333298966692
100
AcDbArc
 50
0.0
 51
180.0
  0
ARC
  5
1B5
330
1F
100
AcDbEntity
  8
0-1_ピット
  6
Continuous
 62
     2
370
    13
100
AcDbCircle
 10
-356.1568639183048
 20
-24.21142448497257
 30
0.0
 40
6.666666752583272
100
AcDbArc
 50
190.6148834228516
 51
255.000503540039
  0
ARC
  5
1B6
330
1F
100
AcDbEntity
  8
0-1_ピット
  6
JWW_DASHED1
 62
     2
370
    13
100
AcDbCircle
 10
92.28414147918242
 20
-24.21142448497257
 30
0.0
 40
6.666666752583272
100
AcDbArc
 50
284.9994964599609
 51
349.3851165771484
  0
ARC
  5
1B7
330
1F
100
AcDbEntity
  8
0-1_ピット
  6
Continuous
 62
     2
370
    13
100
AcDbCircle
 10
-239.3687317920379
 20
-46.21995950925466
 30
0.0
 40
5.000000064437453
100
AcDbArc
 50
11.31021118164062
 51
90.00000000000001
  0
ARC
  5
1B8
330
1F
100
AcDbEntity
  8
0-1_ピット
  6
Continuous
 62
     2
370
    13
100
AcDbCircle
 10
60.58586300050847
 20
-27.88640073074966
 30
0.0
 40
5.000000064437453
100
AcDbArc
 50
90.0
 51
169.91162109375
  0
ARC
  5
1B9
330
1F
100
AcDbEntity
  8
0-1_ピット
  6
Continuous
 62
     2
370
    13
100
AcDbCircle
 10
47.24267056490901
 20
-36.28005439417862
 30
0.0
 40
6.666666752583272
100
AcDbArc
 50
284.9994964599609
 51
349.9115142822266
  0
ARC
  5
1BA
330
1F
100
AcDbEntity
  8
0-1_ピット
  6
Continuous
 62
     2
370
    13
100
AcDbCircle
 10
95.16533077394597
 20
-17.88636773877318
 30
0.0
 40
5.000000064437453
100
AcDbArc
 50
270.0
 51
349.3838348388672
  0
ARC
  5
1BB
330
1F
100
AcDbEntity
  8
0-1_ピット
  6
Continuous
 62
     2
370
    13
100
AcDbCircle
 10
124.5916168011843
 20
-12.10369908379011
 30
0.0
 40
10.00000012887491
100
AcDbArc
 50
188.7071380615235
 51
285.0002746582031
  0
ARC
  5
1BC
330
1F
100
AcDbEntity
  8
0-1_ピット
  6
Continuous
 62
     2
370
    13
100
AcDbCircle
 10
-388.464586680129
 20
-12.10369908379011
 30
0.0
 40
10.00000012887491
100
AcDbArc
 50
254.9997253417969
 51
351.2928619384766
  0
ARC
  5
1BD
330
1F
100
AcDbEntity
  8
0-1_ピット
  6
Continuous
 62
     4
370
    13
100
AcDbCircle
 10
-294.0150743015397
 20
-28.88729481330877
 30
0.0
 40
9.333911457577267
100
AcDbArc
 50
47.92556762695313
 51
132.0746307373047
  0
ARC
  5
1BE
330
1F
100
AcDbEntity
  8
0-1_ピット
  6
Continuous
 62
     4
370
    13
100
AcDbCircle
 10
-275.2697756581696
 20
-53.1846481969658
 30
0.0
 40
33.63136729678592
100
AcDbArc
 50
68.19786071777344
 51
111.8021392822266
  0
ARC
  5
1BF
330
1F
100
AcDbEntity
  8
0-1_ピット
  6
Continuous
 62
     4
370
    13
100
AcDbCircle
 10
-256.5244770147999
 20
-28.88729481330877
 30
0.0
 40
9.33396558503847
100
AcDbArc
 50
47.92572021484374
 51
132.0742797851562
  0
ARC
  5
1C0
330
1F
100
AcDbEntity
  8
0-1_ピット
  6
Continuous
 62
     2
370
    13
100
AcDbCircle
 10
-131.9364230795168
 20
838.1455552975442
 30
0.0
 40
299.9999690700222
100
AcDbArc
 50
0.0
 51
180.0
  0
ARC
  5
1C1
330
1F
100
AcDbEntity
  8
0-1_ピット
  6
Continuous
 62
     2
370
    13
100
AcDbCircle
 10
-131.9364230795168
 20
838.1455552975442
 30
0.0
 40
279.803466796875
100
AcDbArc
 50
0.0
 51
180.0
  0
ARC
  5
1C2
330
1F
100
AcDbEntity
  8
0-1_ピット
  6
Continuous
 62
     2
370
    13
100
AcDbCircle
 10
-131.9364230795168
 20
838.1455552975442
 30
0.0
 40
298.3333381446632
100
AcDbArc
 50
0.0
 51
180.0
  0
ARC
  5
1C3
330
1F
100
AcDbEntity
  8
0-1_ピット
  6
Continuous
 62
     2
370
    13
100
AcDbCircle
 10
-131.9364230795168
 20
838.1455552975442
 30
0.0
 40
244.9999731940192
100
AcDbArc
 50
139.291488647461
 51
160.7085418701172
  0
ARC
  5
1C4
330
1F
100
AcDbEntity
  8
0-1_ピット
  6
Continuous
 62
     2
370
    13
100
AcDbCircle
 10
-131.9364230795168
 20
838.1455552975442
 30
0.0
 40
248.3333432996595
100
AcDbArc
 50
138.0777740478516
 51
161.9222412109375
  0
ARC
  5
1C5
330
1F
100
AcDbEntity
  8
0-1_ピット
  6
Continuous
 62
     2
370
    13
100
AcDbCircle
 10
-131.9364230795168
 20
838.1455552975442
 30
0.0
 40
234.9999711320207
100
AcDbArc
 50
139.4744873046875
 51
160.5255737304688
  0
ARC
  5
1C6
330
1F
100
AcDbEntity
  8
0-1_ピット
  6
Continuous
 62
     2
370
    13
100
AcDbCircle
 10
-131.9364230795168
 20
838.1455552975442
 30
0.0
 40
229.9999701010214
100
AcDbArc
 50
138.3233795166016
 51
161.6766510009766
  0
ARC
  5
1C7
330
1F
100
AcDbEntity
  8
0-1_ピット
  6
Continuous
 62
     2
370
    13
100
AcDbCircle
 10
-131.9364230795168
 20
838.1455552975442
 30
0.0
 40
244.9999731940192
100
AcDbArc
 50
109.2914886474609
 51
130.7085418701172
  0
ARC
  5
1C8
330
1F
100
AcDbEntity
  8
0-1_ピット
  6
Continuous
 62
     2
370
    13
100
AcDbCircle
 10
-131.9364230795168
 20
838.1455552975442
 30
0.0
 40
248.3333432996595
100
AcDbArc
 50
108.0777740478516
 51
131.9222412109375
  0
ARC
  5
1C9
330
1F
100
AcDbEntity
  8
0-1_ピット
  6
Continuous
 62
     2
370
    13
100
AcDbCircle
 10
-131.9364230795168
 20
838.1455552975442
 30
0.0
 40
234.9999711320207
100
AcDbArc
 50
109.4744873046875
 51
130.5255737304688
  0
ARC
  5
1CA
330
1F
100
AcDbEntity
  8
0-1_ピット
  6
Continuous
 62
     2
370
    13
100
AcDbCircle
 10
-131.9364230795168
 20
838.1455552975442
 30
0.0
 40
229.9999701010214
100
AcDbArc
 50
108.3233795166016
 51
131.6766510009766
  0
ARC
  5
1CB
330
1F
100
AcDbEntity
  8
0-1_ピット
  6
Continuous
 62
     2
370
    13
100
AcDbCircle
 10
-131.9364230795168
 20
838.1455552975442
 30
0.0
 40
244.9999731940192
100
AcDbArc
 50
79.29148864746094
 51
100.7085418701172
  0
ARC
  5
1CC
330
1F
100
AcDbEntity
  8
0-1_ピット
  6
Continuous
 62
     2
370
    13
100
AcDbCircle
 10
-131.9364230795168
 20
838.1455552975442
 30
0.0
 40
248.3333432996595
100
AcDbArc
 50
78.07777404785156
 51
101.9222412109375
  0
ARC
  5
1CD
330
1F
100
AcDbEntity
  8
0-1_ピット
  6
Continuous
 62
     2
370
    13
100
AcDbCircle
 10
-131.9364230795168
 20
838.1455552975442
 30
0.0
 40
234.9999711320207
100
AcDbArc
 50
79.47448730468751
 51
100.5255737304688
  0
ARC
  5
1CE
330
1F
100
AcDbEntity
  8
0-1_ピット
  6
Continuous
 62
     2
370
    13
100
AcDbCircle
 10
-131.9364230795168
 20
838.1455552975442
 30
0.0
 40
244.9999731940192
100
AcDbArc
 50
49.29148864746094
 51
70.70854187011719
  0
ARC
  5
1CF
330
1F
100
AcDbEntity
  8
0-1_ピット
  6
Continuous
 62
     2
370
    13
100
AcDbCircle
 10
-131.9364230795168
 20
838.1455552975442
 30
0.0
 40
248.3333432996595
100
AcDbArc
 50
48.07777404785157
 51
71.9222412109375
  0
ARC
  5
1D0
330
1F
100
AcDbEntity
  8
0-1_ピット
  6
Continuous
 62
     2
370
    13
100
AcDbCircle
 10
-131.9364230795168
 20
838.1455552975442
 30
0.0
 40
234.9999711320207
100
AcDbArc
 50
49.4744873046875
 51
70.52557373046875
  0
ARC
  5
1D1
330
1F
100
AcDbEntity
  8
0-1_ピット
  6
Continuous
 62
     2
370
    13
100
AcDbCircle
 10
-131.9364230795168
 20
838.1455552975442
 30
0.0
 40
229.9999701010214
100
AcDbArc
 50
48.32337951660157
 51
71.67665100097656
  0
ARC
  5
1D2
330
1F
100
AcDbEntity
  8
0-1_ピット
  6
Continuous
 62
     2
370
    13
100
AcDbCircle
 10
-131.9364230795168
 20
838.1455552975442
 30
0.0
 40
244.9999731940192
100
AcDbArc
 50
19.29148864746094
 51
40.70854187011719
  0
ARC
  5
1D3
330
1F
100
AcDbEntity
  8
0-1_ピット
  6
Continuous
 62
     2
370
    13
100
AcDbCircle
 10
-131.9364230795168
 20
838.1455552975442
 30
0.0
 40
248.3333432996595
100
AcDbArc
 50
18.07777404785156
 51
41.92224121093751
  0
ARC
  5
1D4
330
1F
100
AcDbEntity
  8
0-1_ピット
  6
Continuous
 62
     2
370
    13
100
AcDbCircle
 10
-131.9364230795168
 20
838.1455552975442
 30
0.0
 40
234.9999711320207
100
AcDbArc
 50
19.4744873046875
 51
40.52557373046876
  0
ARC
  5
1D5
330
1F
100
AcDbEntity
  8
0-1_ピット
  6
Continuous
 62
     2
370
    13
100
AcDbCircle
 10
-131.9364230795168
 20
838.1455552975442
 30
0.0
 40
229.9999701010214
100
AcDbArc
 50
18.32337951660156
 51
41.67665100097656
  0
ARC
  5
1D6
330
1F
100
AcDbEntity
  8
0-1_ピット
  6
Continuous
 62
     2
370
    13
100
AcDbCircle
 10
-131.9364230795168
 20
838.1455552975442
 30
0.0
 40
234.9999711320207
100
AcDbArc
 50
0.0
 51
10.52557373046875
  0
ARC
  5
1D7
330
1F
100
AcDbEntity
  8
0-1_ピット
  6
Continuous
 62
     2
370
    13
100
AcDbCircle
 10
-131.9364230795168
 20
838.1455552975442
 30
0.0
 40
244.9999731940192
100
AcDbArc
 50
0.0
 51
10.70854187011719
  0
ARC
  5
1D8
330
1F
100
AcDbEntity
  8
0-1_ピット
  6
Continuous
 62
     2
370
    13
100
AcDbCircle
 10
-131.9364230795168
 20
838.1455552975442
 30
0.0
 40
248.3333432996595
100
AcDbArc
 50
0.0
 51
11.9222412109375
  0
ARC
  5
1D9
330
1F
100
AcDbEntity
  8
0-1_ピット
  6
Continuous
 62
     2
370
    13
100
AcDbCircle
 10
-131.9364230795168
 20
838.1455552975442
 30
0.0
 40
229.9999701010214
100
AcDbArc
 50
8.58367919921875
 51
11.67665100097656
  0
ARC
  5
1DA
330
1F
100
AcDbEntity
  8
0-1_ピット
  6
Continuous
 62
     2
370
    13
100
AcDbCircle
 10
-131.9364230795168
 20
838.1455552975442
 30
0.0
 40
231.2515825838656
100
AcDbArc
 50
0.0
 51
7.676528930664062
  0
ARC
  5
1DB
330
1F
100
AcDbEntity
  8
0-1_ピット
  6
Continuous
 62
     2
370
    13
100
AcDbCircle
 10
-131.9364230795168
 20
838.1455552975442
 30
0.0
 40
234.9999711320207
100
AcDbArc
 50
169.4744110107422
 51
179.999984741211
  0
ARC
  5
1DC
330
1F
100
AcDbEntity
  8
0-1_ピット
  6
Continuous
 62
     2
370
    13
100
AcDbCircle
 10
-131.9364230795168
 20
838.1455552975442
 30
0.0
 40
244.9999731940192
100
AcDbArc
 50
169.2914428710937
 51
179.9999847412109
  0
ARC
  5
1DD
330
1F
100
AcDbEntity
  8
0-1_ピット
  6
Continuous
 62
     2
370
    13
100
AcDbCircle
 10
-131.9364230795168
 20
838.1455552975442
 30
0.0
 40
248.3333432996595
100
AcDbArc
 50
168.0777740478516
 51
180.000015258789
  0
ARC
  5
1DE
330
1F
100
AcDbEntity
  8
0-1_ピット
  6
Continuous
 62
     2
370
    13
100
AcDbCircle
 10
-131.9364230795168
 20
838.1455552975442
 30
0.0
 40
229.9999701010214
100
AcDbArc
 50
168.3233489990234
 51
171.4163208007812
  0
ARC
  5
1DF
330
1F
100
AcDbEntity
  8
0-1_ピット
  6
Continuous
 62
     2
370
    13
100
AcDbCircle
 10
-131.9364230795168
 20
838.1455552975442
 30
0.0
 40
231.2515825838656
100
AcDbArc
 50
172.3234710693359
 51
180.0
  0
ARC
  5
1E0
330
1F
100
AcDbEntity
  8
0-1_ピット
  6
Continuous
 62
     2
370
    13
100
AcDbCircle
 10
-131.9364230795168
 20
838.1455552975442
 30
0.0
 40
229.9999701010214
100
AcDbArc
 50
95.13783264160156
 51
101.6766510009766
  0
ARC
  5
1E1
330
1F
100
AcDbEntity
  8
0-1_ピット
  6
Continuous
 62
     2
370
    13
100
AcDbCircle
 10
-131.9364230795168
 20
838.1455552975442
 30
0.0
 40
229.9999701010214
100
AcDbArc
 50
78.32337951660156
 51
84.86216735839844
  0
ARC
  5
1E2
330
1F
100
AcDbEntity
  8
0-1_ピット
  6
Continuous
 62
     2
370
    13
100
AcDbCircle
 10
-131.9364230795168
 20
838.1455552975442
 30
0.0
 40
231.2515825838656
100
AcDbArc
 50
86.596435546875
 51
93.403564453125
  0
ARC
  5
1E3
330
1F
100
AcDbEntity
  8
0-1_ピット
  6
Continuous
 62
     2
370
    13
100
AcDbCircle
 10
17.24455110756082
 20
-49.55322135997257
 30
0.0
 40
3.333333376291636
100
AcDbArc
 50
90.0
 51
164.0540161132812
  0
ELLIPSE
  5
1E4
330
1F
100
AcDbEntity
  8
0-2_本体（蓋）
  6
Continuous
 62
     6
370
    13
100
AcDbEllipse
 10
79.73003463796628
 20
0.6792895933635279
 30
0.0
 11
17.4999340160473
 21
0.0
 31
0.0
210
0.0
220
0.0
230
1.0
 40
0.7428
 41
0.0
 42
1.475408288134874
  0
ELLIPSE
  5
1E5
330
1F
100
AcDbEntity
  8
0-2_本体（蓋）
  6
Continuous
 62
     6
370
    13
100
AcDbEllipse
 10
79.73003463796628
 20
0.6792895933635279
 30
0.0
 11
17.4999340160473
 21
0.0
 31
0.0
210
0.0
220
0.0
230
1.0
 40
0.7428
 41
1.666184365454919
 42
3.141592653589793
  0
ARC
  5
1E6
330
1F
100
AcDbEntity
  8
0-2_本体（蓋）
  6
Continuous
 62
     6
370
    13
100
AcDbCircle
 10
79.73003463796628
 20
838.1455552975442
 30
0.0
 40
17.49999974225018
100
AcDbArc
 50
0.0
 51
180.0
  0
ARC
  5
1E7
330
1F
100
AcDbEntity
  8
0-2_本体（蓋）
  6
Continuous
 62
     6
370
    13
100
AcDbCircle
 10
-343.6031282368225
 20
838.1455552975442
 30
0.0
 40
17.49999974225018
100
AcDbArc
 50
0.0
 51
180.0
  0
ARC
  5
1E8
330
1F
100
AcDbEntity
  8
0-2_本体（蓋）
  6
Continuous
 62
     6
370
    13
100
AcDbCircle
 10
-354.1544571536301
 20
-19.5531223840435
 30
0.0
 40
3.333333376291636
100
AcDbArc
 50
190.3056030273438
 51
270.0
  0
ARC
  5
1E9
330
1F
100
AcDbEntity
  8
0-2_本体（蓋）
  6
Continuous
 62
     6
370
    13
100
AcDbCircle
 10
-131.9364230795168
 20
-706.2199100212902
 30
0.0
 40
818.3333525786529
100
AcDbArc
 50
80.87838745117188
 51
99.12161254882812
  0
ARC
  5
1EA
330
1F
100
AcDbEntity
  8
0-2_本体（蓋）
  6
Continuous
 62
     6
370
    13
100
AcDbCircle
 10
-131.9364230795168
 20
-706.2199100212902
 30
0.0
 40
833.3333402066617
100
AcDbArc
 50
80.87840270996094
 51
99.12159729003905
  0
ARC
  5
1EB
330
1F
100
AcDbEntity
  8
0-2_本体（蓋）
  6
Continuous
 62
     6
370
    13
100
AcDbCircle
 10
-256.911101737667
 20
72.14436428719819
 30
0.0
 40
45.00000541274613
100
AcDbArc
 50
99.12167358398439
 51
165.0000152587891
  0
ARC
  5
1EC
330
1F
100
AcDbEntity
  8
0-2_本体（蓋）
  6
Continuous
 62
     6
370
    13
100
AcDbCircle
 10
-256.9113491774897
 20
72.14436428719819
 30
0.0
 40
30.00000038662472
100
AcDbArc
 50
99.12141418457033
 51
165.0000152587891
  0
ARC
  5
1ED
330
1F
100
AcDbEntity
  8
0-2_本体（蓋）
  6
Continuous
 62
     6
370
    13
100
AcDbCircle
 10
-321.1063944424814
 20
-12.88635124278517
 30
0.0
 40
10.00000012887491
100
AcDbArc
 50
270.0
 51
345.0002746582031
  0
ARC
  5
1EE
330
1F
100
AcDbEntity
  8
0-2_本体（蓋）
  6
Continuous
 62
     6
370
    13
100
AcDbCircle
 10
-131.9364230795168
 20
-706.2199100212902
 30
0.0
 40
829.9999546360325
100
AcDbArc
 50
94.60704040527344
 51
99.24420166015624
  0
ARC
  5
1EF
330
1F
100
AcDbEntity
  8
0-2_本体（蓋）
  6
Continuous
 62
     6
370
    13
100
AcDbCircle
 10
90.28136355477385
 20
-19.5531223840435
 30
0.0
 40
3.333333376291636
100
AcDbArc
 50
270.0
 51
349.6943969726562
  0
ARC
  5
1F0
330
1F
100
AcDbEntity
  8
0-2_本体（蓋）
  6
Continuous
 62
     6
370
    13
100
AcDbCircle
 10
-6.961744421366518
 20
72.14436428719819
 30
0.0
 40
45.00000541274613
100
AcDbArc
 50
14.99998474121094
 51
80.87832641601562
  0
ARC
  5
1F1
330
1F
100
AcDbEntity
  8
0-2_本体（蓋）
  6
Continuous
 62
     6
370
    13
100
AcDbCircle
 10
-6.96149698154386
 20
72.14436428719819
 30
0.0
 40
30.00000038662472
100
AcDbArc
 50
14.99998474121094
 51
80.87858581542969
  0
ARC
  5
1F2
330
1F
100
AcDbEntity
  8
0-2_本体（蓋）
  6
Continuous
 62
     6
370
    13
100
AcDbCircle
 10
57.23330084362514
 20
-12.88635124278517
 30
0.0
 40
10.00000012887491
100
AcDbArc
 50
194.9997253417969
 51
270.0
  0
ARC
  5
1F3
330
1F
100
AcDbEntity
  8
0-2_本体（蓋）
  6
Continuous
 62
     6
370
    13
100
AcDbCircle
 10
-328.7797507822194
 20
3.551818494334888
 30
0.0
 40
6.666666752583272
100
AcDbArc
 50
272.6016998291016
 51
345.0002288818359
  0
ARC
  5
1F4
330
1F
100
AcDbEntity
  8
0-2_本体（蓋）
  6
Continuous
 62
     6
370
    13
100
AcDbCircle
 10
-334.0776848246603
 20
-16.2198605333257
 30
0.0
 40
6.666666752583272
100
AcDbArc
 50
270.0
 51
345.0007781982422
  0
ARC
  5
1F5
330
1F
100
AcDbEntity
  8
0-2_本体（蓋）
  6
Continuous
 62
     6
370
    13
100
AcDbCircle
 10
64.90690462318581
 20
3.551818494334888
 30
0.0
 40
6.666666752583272
100
AcDbArc
 50
195.0008087158203
 51
267.3983001708984
  0
ARC
  5
1F6
330
1F
100
AcDbEntity
  8
0-2_本体（蓋）
  6
Continuous
 62
     6
370
    13
100
AcDbCircle
 10
64.0017697519866
 20
6.929619513127072
 30
0.0
 40
6.666666752583272
100
AcDbArc
 50
194.9997711181641
 51
267.3983001708984
  0
ARC
  5
1F7
330
1F
100
AcDbEntity
  8
0-2_本体（蓋）
  6
Continuous
 62
     6
370
    13
100
AcDbCircle
 10
58.34232612867565
 20
-17.88636773877318
 30
0.0
 40
5.000000064437453
100
AcDbArc
 50
270.0
 51
345.7299499511719
  0
ARC
  5
1F8
330
1F
100
AcDbEntity
  8
0-2_本体（蓋）
  6
Continuous
 62
     6
370
    13
100
AcDbCircle
 10
-131.9364230795168
 20
838.1455552975442
 30
0.0
 40
191.6666701033309
100
AcDbArc
 50
0.0
 51
180.0
  0
ARC
  5
1F9
330
1F
100
AcDbEntity
  8
0-2_本体（蓋）
  6
Continuous
 62
     6
370
    13
100
AcDbCircle
 10
-131.9364230795168
 20
838.1455552975442
 30
0.0
 40
166.0845782305744
100
AcDbArc
 50
164.6635131835938
 51
172.836410522461
  0
ARC
  5
1FA
330
1F
100
AcDbEntity
  8
0-2_本体（蓋）
  6
Continuous
 62
     6
370
    13
100
AcDbCircle
 10
-301.6855850833176
 20
859.4803116847908
 30
0.0
 40
5.000000064437453
100
AcDbArc
 50
264.5108795166016
 51
352.8361206054688
  0
ARC
  5
1FB
330
1F
100
AcDbEntity
  8
0-2_本体（蓋）
  6
Continuous
 62
     6
370
    13
100
AcDbCircle
 10
-296.9285544931569
 20
883.395123102654
 30
0.0
 40
5.000000064437453
100
AcDbArc
 50
344.6649322509767
 51
72.9895172119141
  0
ARC
  5
1FC
330
1F
100
AcDbEntity
  8
0-2_本体（蓋）
  6
Continuous
 62
     6
370
    13
100
AcDbCircle
 10
-131.9364230795168
 20
838.1455552975442
 30
0.0
 40
166.0845782305744
100
AcDbArc
 50
142.1635131835938
 51
150.336410522461
  0
ARC
  5
1FD
330
1F
100
AcDbEntity
  8
0-2_本体（蓋）
  6
Continuous
 62
     6
370
    13
100
AcDbCircle
 10
-280.5997531576418
 20
922.8164933254158
 30
0.0
 40
5.000000064437453
100
AcDbArc
 50
242.0108795166016
 51
330.3361206054688
  0
ARC
  5
1FE
330
1F
100
AcDbEntity
  8
0-2_本体（蓋）
  6
Continuous
 62
     6
370
    13
100
AcDbCircle
 10
-267.0530414679249
 20
943.0904751930257
 30
0.0
 40
5.000000064437453
100
AcDbArc
 50
322.1649322509766
 51
50.48951721191408
  0
ARC
  5
1FF
330
1F
100
AcDbEntity
  8
0-2_本体（蓋）
  6
Continuous
 62
     6
370
    13
100
AcDbCircle
 10
-131.9364230795168
 20
838.1455552975442
 30
0.0
 40
166.0845782305744
100
AcDbArc
 50
119.6635131835938
 51
127.836410522461
  0
ARC
  5
200
330
1F
100
AcDbEntity
  8
0-2_本体（蓋）
  6
Continuous
 62
     6
370
    13
100
AcDbCircle
 10
-236.8812192550868
 20
973.2622974058634
 30
0.0
 40
5.000000064437453
100
AcDbArc
 50
219.5108795166016
 51
307.8361206054688
  0
ARC
  5
201
330
1F
100
AcDbEntity
  8
0-2_本体（蓋）
  6
Continuous
 62
     6
370
    13
100
AcDbCircle
 10
-216.6072373874772
 20
986.8088853756692
 30
0.0
 40
5.000000064437453
100
AcDbArc
 50
299.6649322509766
 51
27.98951721191406
  0
ARC
  5
202
330
1F
100
AcDbEntity
  8
0-2_本体（蓋）
  6
Continuous
 62
     6
370
    13
100
AcDbCircle
 10
-131.9364230795168
 20
838.1455552975442
 30
0.0
 40
166.0845782305744
100
AcDbArc
 50
97.16351318359375
 51
105.3364105224609
  0
ARC
  5
203
330
1F
100
AcDbEntity
  8
0-2_本体（蓋）
  6
Continuous
 62
     6
370
    13
100
AcDbCircle
 10
-177.1858671647152
 20
1003.137686711185
 30
0.0
 40
5.000000064437453
100
AcDbArc
 50
197.0108795166016
 51
285.3361206054688
  0
ARC
  5
204
330
1F
100
AcDbEntity
  8
0-2_本体（蓋）
  6
Continuous
 62
     6
370
    13
100
AcDbCircle
 10
-153.2710557468522
 20
1007.894717301345
 30
0.0
 40
5.000000064437453
100
AcDbArc
 50
277.1649322509766
 51
5.489517211914087
  0
ARC
  5
205
330
1F
100
AcDbEntity
  8
0-2_本体（蓋）
  6
Continuous
 62
     6
370
    13
100
AcDbCircle
 10
-131.9364230795168
 20
838.1455552975442
 30
0.0
 40
166.0845782305744
100
AcDbArc
 50
74.66351318359375
 51
82.83641052246094
  0
ARC
  5
206
330
1F
100
AcDbEntity
  8
0-2_本体（蓋）
  6
Continuous
 62
     6
370
    13
100
AcDbCircle
 10
-110.6016666922702
 20
1007.894717301345
 30
0.0
 40
5.000000064437453
100
AcDbArc
 50
174.5108795166016
 51
262.8361206054688
  0
ARC
  5
207
330
1F
100
AcDbEntity
  8
0-2_本体（蓋）
  6
Continuous
 62
     6
370
    13
100
AcDbCircle
 10
-86.68685527440687
 20
1003.137686711185
 30
0.0
 40
5.000000064437453
100
AcDbArc
 50
254.6649322509766
 51
342.9895172119141
  0
ARC
  5
208
330
1F
100
AcDbEntity
  8
0-2_本体（蓋）
  6
Continuous
 62
     6
370
    13
100
AcDbCircle
 10
-131.9364230795168
 20
838.1455552975442
 30
0.0
 40
166.0845782305744
100
AcDbArc
 50
52.16351318359376
 51
60.33641052246094
  0
ARC
  5
209
330
1F
100
AcDbEntity
  8
0-2_本体（蓋）
  6
Continuous
 62
     6
370
    13
100
AcDbCircle
 10
-47.26548505164516
 20
986.8088853756692
 30
0.0
 40
5.000000064437453
100
AcDbArc
 50
152.0108795166016
 51
240.3361206054688
  0
ARC
  5
20A
330
1F
100
AcDbEntity
  8
0-2_本体（蓋）
  6
Continuous
 62
     6
370
    13
100
AcDbCircle
 10
-26.99150318403525
 20
973.2620499660408
 30
0.0
 40
5.000000064437453
100
AcDbArc
 50
232.1649322509766
 51
320.4895172119141
  0
ARC
  5
20B
330
1F
100
AcDbEntity
  8
0-2_本体（蓋）
  6
Continuous
 62
     6
370
    13
100
AcDbCircle
 10
-131.9364230795168
 20
838.1455552975442
 30
0.0
 40
166.0845782305744
100
AcDbArc
 50
29.66351318359375
 51
37.83641052246094
  0
ARC
  5
20C
330
1F
100
AcDbEntity
  8
0-2_本体（蓋）
  6
Continuous
 62
     6
370
    13
100
AcDbCircle
 10
3.180319028802501
 20
943.0904751930257
 30
0.0
 40
5.000000064437453
100
AcDbArc
 50
129.5108795166016
 51
217.8361206054688
  0
ARC
  5
20D
330
1F
100
AcDbEntity
  8
0-2_本体（蓋）
  6
Continuous
 62
     6
370
    13
100
AcDbCircle
 10
16.72690699860823
 20
922.8159984457707
 30
0.0
 40
5.000000064437453
100
AcDbArc
 50
209.6649322509766
 51
297.9895172119141
  0
ARC
  5
20E
330
1F
100
AcDbEntity
  8
0-2_本体（蓋）
  6
Continuous
 62
     6
370
    13
100
AcDbCircle
 10
-131.9364230795168
 20
838.1455552975442
 30
0.0
 40
166.0845782305744
100
AcDbArc
 50
7.163513183593751
 51
15.33641052246094
  0
ARC
  5
20F
330
1F
100
AcDbEntity
  8
0-2_本体（蓋）
  6
Continuous
 62
     6
370
    13
100
AcDbCircle
 10
33.05595577394597
 20
883.3948756628314
 30
0.0
 40
5.000000064437453
100
AcDbArc
 50
107.0108795166016
 51
195.3361206054688
  0
ARC
  5
210
330
1F
100
AcDbEntity
  8
0-2_本体（蓋）
  6
Continuous
 62
     6
370
    13
100
AcDbCircle
 10
37.81273892428401
 20
859.4800642449684
 30
0.0
 40
5.000000064437453
100
AcDbArc
 50
187.1649322509766
 51
275.4895172119141
  0
ARC
  5
211
330
1F
100
AcDbEntity
  8
0-2_本体（蓋）
  6
Continuous
 62
     6
370
    13
100
AcDbCircle
 10
-131.9364230795168
 20
838.1455552975442
 30
0.0
 40
133.3333350516654
100
AcDbArc
 50
155.9635314941406
 51
174.0364990234375
  0
ARC
  5
212
330
1F
100
AcDbEntity
  8
0-2_本体（蓋）
  6
Continuous
 62
     6
370
    13
100
AcDbCircle
 10
-131.9364230795168
 20
838.1455552975442
 30
0.0
 40
66.66666752583272
100
AcDbArc
 50
160.7220916748047
 51
169.2778015136718
  0
ARC
  5
213
330
1F
100
AcDbEntity
  8
0-2_本体（蓋）
  6
Continuous
 62
     6
370
    13
100
AcDbCircle
 10
-249.1414913069238
 20
890.4177127088619
 30
0.0
 40
5.000000064437453
100
AcDbArc
 50
60.00032043457032
 51
155.9629516601563
  0
ARC
  5
214
330
1F
100
AcDbEntity
  8
0-2_本体（蓋）
  6
Continuous
 62
     6
370
    13
100
AcDbCircle
 10
-259.5752863079795
 20
851.4788501402384
 30
0.0
 40
5.000000064437453
100
AcDbArc
 50
174.03759765625
 51
270.0000000000001
  0
ARC
  5
215
330
1F
100
AcDbEntity
  8
0-2_本体（蓋）
  6
Continuous
 62
     6
370
    13
100
AcDbCircle
 10
-202.3518580457329
 20
851.4788501402384
 30
0.0
 40
5.000000064437453
100
AcDbArc
 50
270.0
 51
349.2789764404297
  0
ARC
  5
216
330
1F
100
AcDbEntity
  8
0-2_本体（蓋）
  6
Continuous
 62
     6
370
    13
100
AcDbCircle
 10
-199.5846147892931
 20
861.8062460175611
 30
0.0
 40
5.000000064437453
100
AcDbArc
 50
340.7230682373047
 51
60.00032043457032
  0
ARC
  5
217
330
1F
100
AcDbEntity
  8
0-2_本体（蓋）
  6
Continuous
 62
     6
370
    13
100
AcDbCircle
 10
-131.9364230795168
 20
838.1455552975442
 30
0.0
 40
63.33333608266469
100
AcDbArc
 50
160.7222137451172
 51
169.2779541015625
  0
ARC
  5
218
330
1F
100
AcDbEntity
  8
0-2_本体（蓋）
  6
Continuous
 62
     6
370
    13
100
AcDbCircle
 10
-131.9364230795168
 20
838.1455552975442
 30
0.0
 40
136.6666742273279
100
AcDbArc
 50
155.9635467529297
 51
174.0364532470703
  0
ARC
  5
219
330
1F
100
AcDbEntity
  8
0-2_本体（蓋）
  6
Continuous
 62
     6
370
    13
100
AcDbCircle
 10
-259.5752863079795
 20
851.4788501402384
 30
0.0
 40
8.33333344072909
100
AcDbArc
 50
174.0364990234375
 51
270.0
  0
ARC
  5
21A
330
1F
100
AcDbEntity
  8
0-2_本体（蓋）
  6
Continuous
 62
     6
370
    13
100
AcDbCircle
 10
-249.1416150268353
 20
890.4177127088619
 30
0.0
 40
8.33333344072909
100
AcDbArc
 50
59.99999999999999
 51
155.962890625
  0
ARC
  5
21B
330
1F
100
AcDbEntity
  8
0-2_本体（蓋）
  6
Continuous
 62
     6
370
    13
100
AcDbCircle
 10
-199.5846147892931
 20
861.8062460175611
 30
0.0
 40
8.33333344072909
100
AcDbArc
 50
340.7217102050781
 51
59.99999999999999
  0
ARC
  5
21C
330
1F
100
AcDbEntity
  8
0-2_本体（蓋）
  6
Continuous
 62
     6
370
    13
100
AcDbCircle
 10
-202.3518580457329
 20
851.4788501402384
 30
0.0
 40
8.33333344072909
100
AcDbArc
 50
270.0
 51
349.2772979736328
  0
ARC
  5
21D
330
1F
100
AcDbEntity
  8
0-2_本体（蓋）
  6
Continuous
 62
     6
370
    13
100
AcDbCircle
 10
-251.7184533397574
 20
884.207715480188
 30
0.0
 40
5.000000064437453
100
AcDbArc
 50
60.00032043457032
 51
158.9652404785157
  0
ARC
  5
21E
330
1F
100
AcDbEntity
  8
0-2_本体（蓋）
  6
Continuous
 62
     6
370
    13
100
AcDbCircle
 10
-201.5358015106824
 20
855.2347392080173
 30
0.0
 40
5.000000064437453
100
AcDbArc
 50
346.2058258056641
 51
60.00032043457032
  0
ARC
  5
21F
330
1F
100
AcDbEntity
  8
0-2_本体（蓋）
  6
Continuous
 62
     6
370
    13
100
AcDbCircle
 10
-131.9364230795168
 20
838.1455552975442
 30
0.0
 40
133.3333350516654
100
AcDbArc
 50
125.9635314941406
 51
144.0364990234375
  0
ARC
  5
220
330
1F
100
AcDbEntity
  8
0-2_本体（蓋）
  6
Continuous
 62
     6
370
    13
100
AcDbCircle
 10
-131.9364230795168
 20
838.1455552975442
 30
0.0
 40
66.66666752583272
100
AcDbArc
 50
130.7220916748047
 51
139.2778015136719
  0
ARC
  5
221
330
1F
100
AcDbEntity
  8
0-2_本体（蓋）
  6
Continuous
 62
     6
370
    13
100
AcDbCircle
 10
-207.302757736928
 20
942.0173286822571
 30
0.0
 40
5.000000064437453
100
AcDbArc
 50
30.00032043457032
 51
125.9629516601563
  0
ARC
  5
222
330
1F
100
AcDbEntity
  8
0-2_本体（蓋）
  6
Continuous
 62
     6
370
    13
100
AcDbCircle
 10
-235.808320184141
 20
913.5120136748668
 30
0.0
 40
5.000000064437453
100
AcDbArc
 50
144.03759765625
 51
240.0
  0
ARC
  5
223
330
1F
100
AcDbEntity
  8
0-2_本体（蓋）
  6
Continuous
 62
     6
370
    13
100
AcDbCircle
 10
-186.2513199465988
 20
884.9002995437436
 30
0.0
 40
5.000000064437453
100
AcDbArc
 50
240.0
 51
319.2789764404297
  0
ARC
  5
224
330
1F
100
AcDbEntity
  8
0-2_本体（蓋）
  6
Continuous
 62
     6
370
    13
100
AcDbCircle
 10
-178.691167325716
 20
892.4600810048923
 30
0.0
 40
5.000000064437453
100
AcDbArc
 50
310.7230682373047
 51
30.00032043457036
  0
ARC
  5
225
330
1F
100
AcDbEntity
  8
0-2_本体（蓋）
  6
Continuous
 62
     6
370
    13
100
AcDbCircle
 10
-131.9364230795168
 20
838.1455552975442
 30
0.0
 40
63.33333608266469
100
AcDbArc
 50
130.7222137451172
 51
139.2779541015625
  0
ARC
  5
226
330
1F
100
AcDbEntity
  8
0-2_本体（蓋）
  6
Continuous
 62
     6
370
    13
100
AcDbCircle
 10
-131.9364230795168
 20
838.1455552975442
 30
0.0
 40
136.6666742273279
100
AcDbArc
 50
125.9635467529297
 51
144.0364532470703
  0
ARC
  5
227
330
1F
100
AcDbEntity
  8
0-2_本体（蓋）
  6
Continuous
 62
     6
370
    13
100
AcDbCircle
 10
-235.808320184141
 20
913.5120136748668
 30
0.0
 40
8.33333344072909
100
AcDbArc
 50
144.0364990234375
 51
240.0
  0
ARC
  5
228
330
1F
100
AcDbEntity
  8
0-2_本体（蓋）
  6
Continuous
 62
     6
370
    13
100
AcDbCircle
 10
-207.3028814568394
 20
942.0173286822571
 30
0.0
 40
8.33333344072909
100
AcDbArc
 50
30.0
 51
125.962890625
  0
ARC
  5
229
330
1F
100
AcDbEntity
  8
0-2_本体（蓋）
  6
Continuous
 62
     6
370
    13
100
AcDbCircle
 10
-178.691167325716
 20
892.4600810048923
 30
0.0
 40
8.33333344072909
100
AcDbArc
 50
310.7217102050781
 51
30.00000000000003
  0
ARC
  5
22A
330
1F
100
AcDbEntity
  8
0-2_本体（蓋）
  6
Continuous
 62
     6
370
    13
100
AcDbCircle
 10
-186.2513199465988
 20
884.9002995437436
 30
0.0
 40
8.33333344072909
100
AcDbArc
 50
240.0
 51
319.2772979736328
  0
ARC
  5
22B
330
1F
100
AcDbEntity
  8
0-2_本体（蓋）
  6
Continuous
 62
     6
370
    13
100
AcDbCircle
 10
-212.639663551434
 20
937.9276432937436
 30
0.0
 40
5.000000064437453
100
AcDbArc
 50
30.00032043457032
 51
128.9652404785157
  0
ARC
  5
22C
330
1F
100
AcDbEntity
  8
0-2_本体（蓋）
  6
Continuous
 62
     6
370
    13
100
AcDbCircle
 10
-183.6666872792634
 20
887.7448677447571
 30
0.0
 40
5.000000064437453
100
AcDbArc
 50
316.2058258056642
 51
30.00032043457036
  0
ARC
  5
22D
330
1F
100
AcDbEntity
  8
0-2_本体（蓋）
  6
Continuous
 62
     6
370
    13
100
AcDbCircle
 10
-131.9364230795168
 20
838.1455552975442
 30
0.0
 40
133.3333350516654
100
AcDbArc
 50
95.96353149414062
 51
114.0364990234375
  0
ARC
  5
22E
330
1F
100
AcDbEntity
  8
0-2_本体（蓋）
  6
Continuous
 62
     6
370
    13
100
AcDbCircle
 10
-131.9364230795168
 20
838.1455552975442
 30
0.0
 40
66.66666752583272
100
AcDbArc
 50
100.7220916748047
 51
109.2778015136719
  0
ARC
  5
22F
330
1F
100
AcDbEntity
  8
0-2_本体（蓋）
  6
Continuous
 62
     6
370
    13
100
AcDbCircle
 10
-145.269717922211
 20
965.7844185260071
 30
0.0
 40
5.000000064437453
100
AcDbArc
 50
0.0003204345703125
 51
95.96295166015626
  0
ARC
  5
230
330
1F
100
AcDbEntity
  8
0-2_本体（蓋）
  6
Continuous
 62
     6
370
    13
100
AcDbCircle
 10
-184.2088279306569
 20
955.3506235249515
 30
0.0
 40
5.000000064437453
100
AcDbArc
 50
114.03759765625
 51
210.0
  0
ARC
  5
231
330
1F
100
AcDbEntity
  8
0-2_本体（蓋）
  6
Continuous
 62
     6
370
    13
100
AcDbCircle
 10
-155.5971137995337
 20
905.7938707272317
 30
0.0
 40
5.000000064437453
100
AcDbArc
 50
210.0
 51
289.2789764404297
  0
ARC
  5
232
330
1F
100
AcDbEntity
  8
0-2_本体（蓋）
  6
Continuous
 62
     6
370
    13
100
AcDbCircle
 10
-145.269717922211
 20
908.5609902637606
 30
0.0
 40
5.000000064437453
100
AcDbArc
 50
280.7230682373047
 51
0.0003204345703366
  0
ARC
  5
233
330
1F
100
AcDbEntity
  8
0-2_本体（蓋）
  6
Continuous
 62
     6
370
    13
100
AcDbCircle
 10
-131.9364230795168
 20
838.1455552975442
 30
0.0
 40
63.33333608266469
100
AcDbArc
 50
100.7222137451172
 51
109.2779541015625
  0
ARC
  5
234
330
1F
100
AcDbEntity
  8
0-2_本体（蓋）
  6
Continuous
 62
     6
370
    13
100
AcDbCircle
 10
-131.9364230795168
 20
838.1455552975442
 30
0.0
 40
136.6666742273279
100
AcDbArc
 50
95.96354675292969
 51
114.0364532470703
  0
ARC
  5
235
330
1F
100
AcDbEntity
  8
0-2_本体（蓋）
  6
Continuous
 62
     6
370
    13
100
AcDbCircle
 10
-184.2088279306569
 20
955.3506235249515
 30
0.0
 40
8.33333344072909
100
AcDbArc
 50
114.0364990234375
 51
210.0
  0
ARC
  5
236
330
1F
100
AcDbEntity
  8
0-2_本体（蓋）
  6
Continuous
 62
     6
370
    13
100
AcDbCircle
 10
-145.2698416421222
 20
965.7844185260071
 30
0.0
 40
8.33333344072909
100
AcDbArc
 50
0.0
 51
95.96289062500001
  0
ARC
  5
237
330
1F
100
AcDbEntity
  8
0-2_本体（蓋）
  6
Continuous
 62
     6
370
    13
100
AcDbCircle
 10
-145.269717922211
 20
908.5609902637606
 30
0.0
 40
8.33333344072909
100
AcDbArc
 50
280.7217102050781
 51
0.0000000000000127
  0
ARC
  5
238
330
1F
100
AcDbEntity
  8
0-2_本体（蓋）
  6
Continuous
 62
     6
370
    13
100
AcDbCircle
 10
-155.5971137995337
 20
905.7938707272317
 30
0.0
 40
8.33333344072909
100
AcDbArc
 50
210.0
 51
289.2772979736328
  0
ARC
  5
239
330
1F
100
AcDbEntity
  8
0-2_本体（蓋）
  6
Continuous
 62
     6
370
    13
100
AcDbCircle
 10
-151.9364890634694
 20
964.910955952105
 30
0.0
 40
5.000000064437453
100
AcDbArc
 50
0.0003204345703125
 51
98.96524047851562
  0
ARC
  5
23A
330
1F
100
AcDbEntity
  8
0-2_本体（蓋）
  6
Continuous
 62
     6
370
    13
100
AcDbCircle
 10
-151.9364890634694
 20
906.965003407764
 30
0.0
 40
5.000000064437453
100
AcDbArc
 50
286.2058258056641
 51
0.0003204345703366
  0
ARC
  5
23B
330
1F
100
AcDbEntity
  8
0-2_本体（蓋）
  6
Continuous
 62
     6
370
    13
100
AcDbCircle
 10
-131.9364230795168
 20
838.1455552975442
 30
0.0
 40
133.3333350516654
100
AcDbArc
 50
65.96353149414062
 51
84.03649902343751
  0
ARC
  5
23C
330
1F
100
AcDbEntity
  8
0-2_本体（蓋）
  6
Continuous
 62
     6
370
    13
100
AcDbCircle
 10
-131.9364230795168
 20
838.1455552975442
 30
0.0
 40
66.66666752583272
100
AcDbArc
 50
70.72209167480469
 51
79.27780151367188
  0
ARC
  5
23D
330
1F
100
AcDbEntity
  8
0-2_本体（蓋）
  6
Continuous
 62
     6
370
    13
100
AcDbCircle
 10
-79.66401822837668
 20
955.3506235249515
 30
0.0
 40
5.000000064437453
100
AcDbArc
 50
330.0003204345703
 51
65.96295166015625
  0
ARC
  5
23E
330
1F
100
AcDbEntity
  8
0-2_本体（蓋）
  6
Continuous
 62
     6
370
    13
100
AcDbCircle
 10
-118.6031282368225
 20
965.7844185260071
 30
0.0
 40
5.000000064437453
100
AcDbArc
 50
84.03759765625
 51
180.0
  0
ARC
  5
23F
330
1F
100
AcDbEntity
  8
0-2_本体（蓋）
  6
Continuous
 62
     6
370
    13
100
AcDbCircle
 10
-118.6031282368225
 20
908.5609902637606
 30
0.0
 40
5.000000064437453
100
AcDbArc
 50
180.0
 51
259.2789764404297
  0
ARC
  5
240
330
1F
100
AcDbEntity
  8
0-2_本体（蓋）
  6
Continuous
 62
     6
370
    13
100
AcDbCircle
 10
-108.2757323594998
 20
905.793623287409
 30
0.0
 40
5.000000064437453
100
AcDbArc
 50
250.7230682373047
 51
330.0003204345703
  0
ARC
  5
241
330
1F
100
AcDbEntity
  8
0-2_本体（蓋）
  6
Continuous
 62
     6
370
    13
100
AcDbCircle
 10
-131.9364230795168
 20
838.1455552975442
 30
0.0
 40
63.33333608266469
100
AcDbArc
 50
70.7222137451172
 51
79.27795410156251
  0
ARC
  5
242
330
1F
100
AcDbEntity
  8
0-2_本体（蓋）
  6
Continuous
 62
     6
370
    13
100
AcDbCircle
 10
-131.9364230795168
 20
838.1455552975442
 30
0.0
 40
136.6666742273279
100
AcDbArc
 50
65.96354675292969
 51
84.03645324707031
  0
ARC
  5
243
330
1F
100
AcDbEntity
  8
0-2_本体（蓋）
  6
Continuous
 62
     6
370
    13
100
AcDbCircle
 10
-118.6031282368225
 20
965.7844185260071
 30
0.0
 40
8.33333344072909
100
AcDbArc
 50
84.03649902343751
 51
180.0
  0
ARC
  5
244
330
1F
100
AcDbEntity
  8
0-2_本体（蓋）
  6
Continuous
 62
     6
370
    13
100
AcDbCircle
 10
-79.66401822837668
 20
955.3508709647741
 30
0.0
 40
8.33333344072909
100
AcDbArc
 50
330.0
 51
65.962890625
  0
ARC
  5
245
330
1F
100
AcDbEntity
  8
0-2_本体（蓋）
  6
Continuous
 62
     6
370
    13
100
AcDbCircle
 10
-108.2757323594998
 20
905.793623287409
 30
0.0
 40
8.33333344072909
100
AcDbArc
 50
250.7217102050782
 51
330.0000000000001
  0
ARC
  5
246
330
1F
100
AcDbEntity
  8
0-2_本体（蓋）
  6
Continuous
 62
     6
370
    13
100
AcDbCircle
 10
-118.6031282368225
 20
908.5609902637606
 30
0.0
 40
8.33333344072909
100
AcDbArc
 50
180.0
 51
259.2772979736328
  0
ARC
  5
247
330
1F
100
AcDbEntity
  8
0-2_本体（蓋）
  6
Continuous
 62
     6
370
    13
100
AcDbCircle
 10
-85.87426289687329
 20
957.9277092776963
 30
0.0
 40
5.000000064437453
100
AcDbArc
 50
330.0003204345703
 51
68.96524047851562
  0
ARC
  5
248
330
1F
100
AcDbEntity
  8
0-2_本体（蓋）
  6
Continuous
 62
     6
370
    13
100
AcDbCircle
 10
-114.8472391690439
 20
907.7449337287098
 30
0.0
 40
5.000000064437453
100
AcDbArc
 50
256.2058258056641
 51
330.0003204345703
  0
ARC
  5
249
330
1F
100
AcDbEntity
  8
0-2_本体（蓋）
  6
Continuous
 62
     6
370
    13
100
AcDbCircle
 10
-131.9364230795168
 20
838.1455552975442
 30
0.0
 40
133.3333350516654
100
AcDbArc
 50
35.96353149414062
 51
54.0364990234375
  0
ARC
  5
24A
330
1F
100
AcDbEntity
  8
0-2_本体（蓋）
  6
Continuous
 62
     6
370
    13
100
AcDbCircle
 10
-131.9364230795168
 20
838.1455552975442
 30
0.0
 40
66.66666752583272
100
AcDbArc
 50
40.72209167480469
 51
49.27780151367188
  0
ARC
  5
24B
330
1F
100
AcDbEntity
  8
0-2_本体（蓋）
  6
Continuous
 62
     6
370
    13
100
AcDbCircle
 10
-28.06464969480402
 20
913.5120136748668
 30
0.0
 40
5.000000064437453
100
AcDbArc
 50
300.0003204345703
 51
35.96295166015629
  0
ARC
  5
24C
330
1F
100
AcDbEntity
  8
0-2_本体（蓋）
  6
Continuous
 62
     6
370
    13
100
AcDbCircle
 10
-56.56996470219411
 20
942.0173286822571
 30
0.0
 40
5.000000064437453
100
AcDbArc
 50
54.03759765625001
 51
150.0
  0
ARC
  5
24D
330
1F
100
AcDbEntity
  8
0-2_本体（蓋）
  6
Continuous
 62
     6
370
    13
100
AcDbCircle
 10
-85.18167883331756
 20
892.4605758845373
 30
0.0
 40
5.000000064437453
100
AcDbArc
 50
150.0
 51
229.2789764404297
  0
ARC
  5
24E
330
1F
100
AcDbEntity
  8
0-2_本体（蓋）
  6
Continuous
 62
     6
370
    13
100
AcDbCircle
 10
-77.62152621243473
 20
884.9002995437436
 30
0.0
 40
5.000000064437453
100
AcDbArc
 50
220.7230682373047
 51
300.0003204345703
  0
ARC
  5
24F
330
1F
100
AcDbEntity
  8
0-2_本体（蓋）
  6
Continuous
 62
     6
370
    13
100
AcDbCircle
 10
-131.9364230795168
 20
838.1455552975442
 30
0.0
 40
63.33333608266469
100
AcDbArc
 50
40.72221374511719
 51
49.2779541015625
  0
ARC
  5
250
330
1F
100
AcDbEntity
  8
0-2_本体（蓋）
  6
Continuous
 62
     6
370
    13
100
AcDbCircle
 10
-131.9364230795168
 20
838.1455552975442
 30
0.0
 40
136.6666742273279
100
AcDbArc
 50
35.96354675292969
 51
54.03645324707031
  0
ARC
  5
251
330
1F
100
AcDbEntity
  8
0-2_本体（蓋）
  6
Continuous
 62
     6
370
    13
100
AcDbCircle
 10
-56.56996470219411
 20
942.0173286822571
 30
0.0
 40
8.33333344072909
100
AcDbArc
 50
54.0364990234375
 51
150.0
  0
ARC
  5
252
330
1F
100
AcDbEntity
  8
0-2_本体（蓋）
  6
Continuous
 62
     6
370
    13
100
AcDbCircle
 10
-28.06464969480402
 20
913.5120136748668
 30
0.0
 40
8.33333344072909
100
AcDbArc
 50
300.0
 51
35.96289062500003
  0
ARC
  5
253
330
1F
100
AcDbEntity
  8
0-2_本体（蓋）
  6
Continuous
 62
     6
370
    13
100
AcDbCircle
 10
-77.62152621243473
 20
884.9002995437436
 30
0.0
 40
8.33333344072909
100
AcDbArc
 50
220.7217102050782
 51
300.0
  0
ARC
  5
254
330
1F
100
AcDbEntity
  8
0-2_本体（蓋）
  6
Continuous
 62
     6
370
    13
100
AcDbCircle
 10
-85.18167883331756
 20
892.4605758845373
 30
0.0
 40
8.33333344072909
100
AcDbArc
 50
150.0
 51
229.2772979736328
  0
ARC
  5
255
330
1F
100
AcDbEntity
  8
0-2_本体（蓋）
  6
Continuous
 62
     6
370
    13
100
AcDbCircle
 10
-32.15433508331756
 20
918.8487957694616
 30
0.0
 40
5.000000064437453
100
AcDbArc
 50
300.0003204345703
 51
38.96524047851566
  0
ARC
  5
256
330
1F
100
AcDbEntity
  8
0-2_本体（蓋）
  6
Continuous
 62
     6
370
    13
100
AcDbCircle
 10
-82.33711063230402
 20
889.8758194972908
 30
0.0
 40
5.000000064437453
100
AcDbArc
 50
226.2058258056641
 51
300.0003204345703
  0
ARC
  5
257
330
1F
100
AcDbEntity
  8
0-2_本体（蓋）
  6
Continuous
 62
     6
370
    13
100
AcDbCircle
 10
-131.9364230795168
 20
838.1455552975442
 30
0.0
 40
133.3333350516654
100
AcDbArc
 50
5.963531494140625
 51
24.0364990234375
  0
ARC
  5
258
330
1F
100
AcDbEntity
  8
0-2_本体（蓋）
  6
Continuous
 62
     6
370
    13
100
AcDbCircle
 10
-131.9364230795168
 20
838.1455552975442
 30
0.0
 40
66.66666752583272
100
AcDbArc
 50
10.72209167480469
 51
19.27780151367188
  0
ARC
  5
259
330
1F
100
AcDbEntity
  8
0-2_本体（蓋）
  6
Continuous
 62
     6
370
    13
100
AcDbCircle
 10
-4.297559851054018
 20
851.4788501402384
 30
0.0
 40
5.000000064437453
100
AcDbArc
 50
270.0003204345703
 51
5.962951660156273
  0
ARC
  5
25A
330
1F
100
AcDbEntity
  8
0-2_本体（蓋）
  6
Continuous
 62
     6
370
    13
100
AcDbCircle
 10
-14.73110741228709
 20
890.4177127088619
 30
0.0
 40
5.000000064437453
100
AcDbArc
 50
24.03759765625
 51
120.0
  0
ARC
  5
25B
330
1F
100
AcDbEntity
  8
0-2_本体（蓋）
  6
Continuous
 62
     6
370
    13
100
AcDbCircle
 10
-64.28823136974046
 20
861.8062460175611
 30
0.0
 40
5.000000064437453
100
AcDbArc
 50
120.0
 51
199.2789764404297
  0
ARC
  5
25C
330
1F
100
AcDbEntity
  8
0-2_本体（蓋）
  6
Continuous
 62
     6
370
    13
100
AcDbCircle
 10
-61.52098811330063
 20
851.4788501402384
 30
0.0
 40
5.000000064437453
100
AcDbArc
 50
190.7230682373047
 51
270.0003204345703
  0
ARC
  5
25D
330
1F
100
AcDbEntity
  8
0-2_本体（蓋）
  6
Continuous
 62
     6
370
    13
100
AcDbCircle
 10
-131.9364230795168
 20
838.1455552975442
 30
0.0
 40
63.33333608266469
100
AcDbArc
 50
10.72221374511719
 51
19.2779541015625
  0
ARC
  5
25E
330
1F
100
AcDbEntity
  8
0-2_本体（蓋）
  6
Continuous
 62
     6
370
    13
100
AcDbCircle
 10
-131.9364230795168
 20
838.1455552975442
 30
0.0
 40
136.6666742273279
100
AcDbArc
 50
5.963546752929688
 51
24.03645324707031
  0
ARC
  5
25F
330
1F
100
AcDbEntity
  8
0-2_本体（蓋）
  6
Continuous
 62
     6
370
    13
100
AcDbCircle
 10
-14.73110741228709
 20
890.4177127088619
 30
0.0
 40
8.33333344072909
100
AcDbArc
 50
24.0364990234375
 51
120.0
  0
ARC
  5
260
330
1F
100
AcDbEntity
  8
0-2_本体（蓋）
  6
Continuous
 62
     6
370
    13
100
AcDbCircle
 10
-4.297559851054018
 20
851.4788501402384
 30
0.0
 40
8.33333344072909
100
AcDbArc
 50
270.0
 51
5.962890625000012
  0
ARC
  5
261
330
1F
100
AcDbEntity
  8
0-2_本体（蓋）
  6
Continuous
 62
     6
370
    13
100
AcDbCircle
 10
-61.52098811330063
 20
851.4788501402384
 30
0.0
 40
8.33333344072909
100
AcDbArc
 50
190.7217102050781
 51
270.0
  0
ARC
  5
262
330
1F
100
AcDbEntity
  8
0-2_本体（蓋）
  6
Continuous
 62
     6
370
    13
100
AcDbCircle
 10
-64.28823136974046
 20
861.8062460175611
 30
0.0
 40
8.33333344072909
100
AcDbArc
 50
120.0
 51
199.2772979736328
  0
ARC
  5
263
330
1F
100
AcDbEntity
  8
0-2_本体（蓋）
  6
Continuous
 62
     6
370
    13
100
AcDbCircle
 10
-5.171022424955822
 20
858.145621281497
 30
0.0
 40
5.000000064437453
100
AcDbArc
 50
270.0003204345703
 51
8.965240478515645
  0
ARC
  5
264
330
1F
100
AcDbEntity
  8
0-2_本体（蓋）
  6
Continuous
 62
     6
370
    13
100
AcDbCircle
 10
-63.11697496929725
 20
858.145621281497
 30
0.0
 40
5.000000064437453
100
AcDbArc
 50
196.2058258056641
 51
270.0003204345703
  0
ARC
  5
265
330
1F
100
AcDbEntity
  8
0-2_本体（蓋）
  6
Continuous
 62
     6
370
    13
100
AcDbCircle
 10
-131.9364230795168
 20
838.1455552975442
 30
0.0
 40
45.00000541274613
100
AcDbArc
 50
44.07934570312501
 51
135.920654296875
  0
ARC
  5
266
330
1F
100
AcDbEntity
  8
0-2_本体（蓋）
  6
Continuous
 62
     6
370
    13
100
AcDbCircle
 10
-104.3985977786301
 20
864.8123924227554
 30
0.0
 40
6.666666752583272
100
AcDbArc
 50
270.0
 51
44.07815551757811
  0
ARC
  5
267
330
1F
100
AcDbEntity
  8
0-2_本体（蓋）
  6
Continuous
 62
     6
370
    13
100
AcDbCircle
 10
-159.4742483804035
 20
864.8123924227554
 30
0.0
 40
6.666666752583272
100
AcDbArc
 50
135.9218444824219
 51
270.0
  0
ARC
  5
268
330
1F
100
AcDbEntity
  8
0-2_本体（蓋）
  6
Continuous
 62
     6
370
    13
100
AcDbCircle
 10
-131.9364230795168
 20
838.1455552975442
 30
0.0
 40
225.0
100
AcDbArc
 50
4.248001098632812
 51
8.519638061523438
  0
ARC
  5
269
330
1F
100
AcDbEntity
  8
0-2_本体（蓋）
  6
Continuous
 62
     6
370
    13
100
AcDbCircle
 10
-131.9364230795168
 20
838.1455552975442
 30
0.0
 40
225.0
100
AcDbArc
 50
171.4803619384766
 51
175.7519989013672
  0
ARC
  5
26A
330
1F
100
AcDbEntity
  8
0-2_本体（蓋）
  6
Continuous
 62
     6
370
    13
100
AcDbCircle
 10
-131.9364230795168
 20
838.1455552975442
 30
0.0
 40
228.3333391756625
100
AcDbArc
 50
3.347640991210938
 51
176.6523590087891
  0
ARC
  5
26B
330
1F
100
AcDbEntity
  8
0-1_ピット
  6
Continuous
 62
     2
370
    13
100
AcDbCircle
 10
88.89520566837176
 20
871.4789161241913
 30
0.0
 40
6.666666752583272
100
AcDbArc
 50
326.6130981445313
 51
8.583190917968803
  0
ARC
  5
26C
330
1F
100
AcDbEntity
  8
0-1_ピット
  6
Continuous
 62
     2
370
    13
100
AcDbCircle
 10
90.63594482061005
 20
868.1456542734734
 30
0.0
 40
6.666666752583272
100
AcDbArc
 50
311.1853179931641
 51
7.676574707031284
  0
ARC
  5
26D
330
1F
100
AcDbEntity
  8
0-1_ピット
  6
Continuous
 62
     2
370
    13
100
AcDbCircle
 10
-151.9363653435582
 20
1060.581583855399
 30
0.0
 40
6.666666752583272
100
AcDbArc
 50
53.16412353515626
 51
95.13787841796876
  0
ARC
  5
26E
330
1F
100
AcDbEntity
  8
0-1_ピット
  6
Continuous
 62
     2
370
    13
100
AcDbCircle
 10
-145.269717922211
 20
1062.334447558946
 30
0.0
 40
6.666666752583272
100
AcDbArc
 50
36.91690063476562
 51
93.40336608886719
  0
ARC
  5
26F
330
1F
100
AcDbEntity
  8
0-1_ピット
  6
Continuous
 62
     2
370
    13
100
AcDbCircle
 10
-118.6031282368225
 20
1062.334447558946
 30
0.0
 40
6.666666752583272
100
AcDbArc
 50
86.59663391113281
 51
143.0830993652344
  0
ARC
  5
270
330
1F
100
AcDbEntity
  8
0-1_ピット
  6
Continuous
 62
     2
370
    13
100
AcDbCircle
 10
-111.9364808154754
 20
1060.581583855399
 30
0.0
 40
6.666666752583272
100
AcDbArc
 50
84.86212158203125
 51
126.8358764648438
  0
ARC
  5
271
330
1F
100
AcDbEntity
  8
0-1_ピット
  6
Continuous
 62
     2
370
    13
100
AcDbCircle
 10
-354.5086672597321
 20
868.1456542734734
 30
0.0
 40
6.666666752583272
100
AcDbArc
 50
172.3234252929688
 51
228.8124694824219
  0
ARC
  5
272
330
1F
100
AcDbEntity
  8
0-1_ピット
  6
Continuous
 62
     2
370
    13
100
AcDbCircle
 10
-352.7681755473165
 20
871.4789161241913
 30
0.0
 40
6.666666752583272
100
AcDbArc
 50
171.4168090820313
 51
213.388671875
  0
ARC
  5
273
330
1F
100
AcDbEntity
  8
0-0_通り芯
  6
Continuous
 62
     3
370
    13
100
AcDbCircle
 10
-435.9533611601756
 20
-73.57406074183487
 30
0.0
 40
36.66666520608438
100
AcDbArc
 50
74.99996948242188
 51
121.7902069091797
  0
ARC
  5
274
330
1F
100
AcDbEntity
  8
0-0_通り芯
  6
Continuous
 62
     3
370
    13
100
AcDbCircle
 10
-357.3580605372871
 20
-48.04631284012466
 30
0.0
 40
5.000000064437453
100
AcDbArc
 50
254.9999084472656
 51
318.4355773925781
  0
ARC
  5
275
330
1F
100
AcDbEntity
  8
0-0_通り芯
  6
Continuous
 62
     3
370
    13
100
AcDbCircle
 10
-373.9266310609358
 20
-43.60674754240492
 30
0.0
 40
5.000000064437453
100
AcDbArc
 50
191.5648956298828
 51
254.9999084472656
  0
ARC
  5
276
330
1F
100
AcDbEntity
  8
0-0_通り芯
  6
Continuous
 62
     3
370
    13
100
AcDbCircle
 10
-394.3968327078952
 20
-30.78862241043716
 30
0.0
 40
5.416692108721347
100
AcDbArc
 50
187.620590209961
 51
322.37890625
  0
ARC
  5
277
330
1F
100
AcDbEntity
  8
0-0_通り芯
  6
Continuous
 62
     3
370
    13
100
AcDbCircle
 10
-383.2996515423545
 20
-39.36983545942361
 30
0.0
 40
3.333333376291636
100
AcDbArc
 50
11.56642150878906
 51
75.00077819824219
  0
ARC
  5
278
330
1F
100
AcDbEntity
  8
0-0_通り芯
  6
Continuous
 62
     3
370
    13
100
AcDbCircle
 10
-347.1222173943394
 20
-49.06341423106632
 30
0.0
 40
3.333333376291636
100
AcDbArc
 50
75.00022888183594
 51
138.4349822998047
  0
ARC
  5
279
330
1F
100
AcDbEntity
  8
0-0_通り芯
  6
Continuous
 62
     3
370
    13
100
AcDbCircle
 10
-333.2212955985202
 20
-47.18052090072419
 30
0.0
 40
5.416692108721347
100
AcDbArc
 50
187.620590209961
 51
322.37890625
  0
ARC
  5
27A
330
1F
100
AcDbEntity
  8
0-0_通り芯
  6
Continuous
 62
     3
370
    13
100
AcDbCircle
 10
-413.7154494203108
 20
-25.61218132091007
 30
0.0
 40
5.416692108721347
100
AcDbArc
 50
187.6179962158203
 51
322.3796997070312
  0
ARC
  5
27B
330
1F
100
AcDbEntity
  8
0-0_通り芯
  6
Continuous
 62
     3
370
    13
100
AcDbCircle
 10
-397.5628252385118
 20
-52.80247739090591
 30
0.0
 40
6.666666752583272
100
AcDbArc
 50
11.56620788574219
 51
75.00050354003906
  0
ARC
  5
27C
330
1F
100
AcDbEntity
  8
0-0_通り芯
  6
JWW_DASHED1
 62
     3
370
    13
100
AcDbCircle
 10
-341.486280554179
 20
-67.82826062042446
 30
0.0
 40
6.666666752583272
100
AcDbArc
 50
74.99948120117188
 51
138.4350738525391
  0
ARC
  5
27D
330
1F
100
AcDbEntity
  8
0-0_通り芯
  6
JWW_DASHED1
 62
     3
370
    13
100
AcDbCircle
 10
-352.8492120892295
 20
-63.05799199975304
 30
0.0
 40
5.000000064437453
100
AcDbArc
 50
255.0012817382812
 51
318.4365081787109
  0
ARC
  5
27E
330
1F
100
AcDbEntity
  8
0-0_通り芯
  6
Continuous
 62
     3
370
    13
100
AcDbCircle
 10
-385.3370710419324
 20
-54.35305903944894
 30
0.0
 40
5.000000064437453
100
AcDbArc
 50
191.5646057128906
 51
254.9999084472656
  0
ARC
  5
27F
330
1F
100
AcDbEntity
  8
0-0_通り芯
  6
Continuous
 62
     3
370
    13
100
AcDbCircle
 10
-259.7831357589931
 20
-65.7413531563197
 30
0.0
 40
5.000000064437453
100
AcDbArc
 50
5.856887817382812
 51
90.0
  0
ARC
  5
280
330
1F
100
AcDbEntity
  8
0-0_通り芯
  6
Continuous
 62
     3
370
    13
100
AcDbCircle
 10
-309.5457584891452
 20
-154.074647999014
 30
0.0
 40
5.000000064437453
100
AcDbArc
 50
7.000335693359375
 51
90.00000000000001
  0
ARC
  5
281
330
1F
100
AcDbEntity
  8
0-0_通り芯
  6
Continuous
 62
     3
370
    13
100
AcDbCircle
 10
-331.2422718970845
 20
-120.7414108922783
 30
0.0
 40
5.000000064437453
100
AcDbArc
 50
8.53070068359375
 51
90.0
  0
ARC
  5
282
330
1F
100
AcDbEntity
  8
0-0_通り芯
  6
JWW_DASHED1
 62
     3
370
    13
100
AcDbCircle
 10
-322.0345412171858
 20
-120.7414108922783
 30
0.0
 40
5.000000064437453
100
AcDbArc
 50
7.000518798828125
 51
89.99999999999999
  0
ARC
  5
283
330
1F
100
AcDbEntity
  8
0-0_通り芯
  6
JWW_DASHED1
 62
     3
370
    13
100
AcDbCircle
 10
-332.8615180964087
 20
-73.59014433030616
 30
0.0
 40
10.00000012887491
100
AcDbArc
 50
7.000076293945313
 51
74.99972534179688
  0
ARC
  5
284
330
1F
100
AcDbEntity
  8
0-0_通り芯
  6
Continuous
 62
     3
370
    13
100
AcDbCircle
 10
-386.4958317313327
 20
-64.39528052118455
 30
0.0
 40
5.000000064437453
100
AcDbArc
 50
6.874084472656249
 51
74.99990844726562
  0
ARC
  5
285
330
1F
100
AcDbEntity
  8
0-0_通り芯
  6
Continuous
 62
     3
370
    13
100
AcDbCircle
 10
-312.0419314198884
 20
-65.36499718609164
 30
0.0
 40
10.00000012887491
100
AcDbArc
 50
27.5399169921875
 51
74.99990844726562
  0
ARC
  5
286
330
1F
100
AcDbEntity
  8
0-0_通り芯
  6
JWW_DASHED1
 62
     3
370
    13
100
AcDbCircle
 10
-312.0419314198884
 20
-65.36499718609164
 30
0.0
 40
10.00000012887491
100
AcDbArc
 50
6.999725341796876
 51
27.5399169921875
  0
ARC
  5
287
330
1F
100
AcDbEntity
  8
0-0_通り芯
  6
JWW_DASHED1
 62
     3
370
    13
100
AcDbCircle
 10
-288.4584419245337
 20
-93.32817154208826
 30
0.0
 40
10.00000012887491
100
AcDbArc
 50
187.0004272460938
 51
263.7596130371094
  0
ARC
  5
288
330
1F
100
AcDbEntity
  8
0-0_通り芯
  6
JWW_DASHED1
 62
     3
370
    13
100
AcDbCircle
 10
-269.8093973721689
 20
-108.7804173059185
 30
0.0
 40
3.333333376291636
100
AcDbArc
 50
9.462677001953127
 51
83.75891113281251
  0
ARC
  5
289
330
1F
100
AcDbEntity
  8
0-0_通り芯
  6
Continuous
 62
     3
370
    13
100
AcDbCircle
 10
172.0805150011421
 20
-73.57406074183487
 30
0.0
 40
36.66666520608438
100
AcDbArc
 50
58.20979309082032
 51
105.0000305175781
  0
ARC
  5
28A
330
1F
100
AcDbEntity
  8
0-0_通り芯
  6
Continuous
 62
     3
370
    13
100
AcDbCircle
 10
93.48521437825353
 20
-48.04631284012466
 30
0.0
 40
5.000000064437453
100
AcDbArc
 50
221.5644226074219
 51
285.0000915527344
  0
ARC
  5
28B
330
1F
100
AcDbEntity
  8
0-0_通り芯
  6
Continuous
 62
     3
370
    13
100
AcDbCircle
 10
110.0537849019022
 20
-43.60674754240492
 30
0.0
 40
5.000000064437453
100
AcDbArc
 50
285.0000915527344
 51
348.4351043701172
  0
ARC
  5
28C
330
1F
100
AcDbEntity
  8
0-0_通り芯
  6
Continuous
 62
     3
370
    13
100
AcDbCircle
 10
130.5239865488616
 20
-30.78862241043716
 30
0.0
 40
5.416692108721347
100
AcDbArc
 50
217.62109375
 51
352.3794097900391
  0
ARC
  5
28D
330
1F
100
AcDbEntity
  8
0-0_通り芯
  6
Continuous
 62
     3
370
    13
100
AcDbCircle
 10
119.426805383321
 20
-39.36983545942361
 30
0.0
 40
3.333333376291636
100
AcDbArc
 50
104.9992218017578
 51
168.4335784912109
  0
ARC
  5
28E
330
1F
100
AcDbEntity
  8
0-0_通り芯
  6
Continuous
 62
     3
370
    13
100
AcDbCircle
 10
83.24937123530587
 20
-49.06341423106632
 30
0.0
 40
3.333333376291636
100
AcDbArc
 50
41.56501770019532
 51
104.9997711181641
  0
ARC
  5
28F
330
1F
100
AcDbEntity
  8
0-0_通り芯
  6
Continuous
 62
     3
370
    13
100
AcDbCircle
 10
69.3484494394866
 20
-47.18052090072419
 30
0.0
 40
5.416692108721347
100
AcDbArc
 50
217.62109375
 51
352.3794097900391
  0
ARC
  5
290
330
1F
100
AcDbEntity
  8
0-0_通り芯
  6
Continuous
 62
     3
370
    13
100
AcDbCircle
 10
149.8426032612772
 20
-25.61218132091007
 30
0.0
 40
5.416692108721347
100
AcDbArc
 50
217.6203002929688
 51
352.3820037841797
  0
ARC
  5
291
330
1F
100
AcDbEntity
  8
0-0_通り芯
  6
Continuous
 62
     3
370
    13
100
AcDbCircle
 10
133.6899790794783
 20
-52.80247739090591
 30
0.0
 40
6.666666752583272
100
AcDbArc
 50
104.9994964599609
 51
168.4337921142578
  0
ARC
  5
292
330
1F
100
AcDbEntity
  8
0-0_通り芯
  6
Continuous
 62
     3
370
    13
100
AcDbCircle
 10
77.61343439514546
 20
-67.82826062042446
 30
0.0
 40
6.666666752583272
100
AcDbArc
 50
41.56492614746094
 51
105.0005187988281
  0
ARC
  5
293
330
1F
100
AcDbEntity
  8
0-0_通り芯
  6
Continuous
 62
     3
370
    13
100
AcDbCircle
 10
88.97636593019597
 20
-63.05799199975304
 30
0.0
 40
5.000000064437453
100
AcDbArc
 50
221.5634918212891
 51
284.9987182617188
  0
ARC
  5
294
330
1F
100
AcDbEntity
  8
0-0_通り芯
  6
Continuous
 62
     3
370
    13
100
AcDbCircle
 10
121.4642248828988
 20
-54.35305903944894
 30
0.0
 40
5.000000064437453
100
AcDbArc
 50
285.0000915527344
 51
348.4353942871094
  0
ARC
  5
295
330
1F
100
AcDbEntity
  8
0-0_通り芯
  6
Continuous
 62
     3
370
    13
100
AcDbCircle
 10
45.6729123301116
 20
-154.074647999014
 30
0.0
 40
5.000000064437453
100
AcDbArc
 50
90.0
 51
172.9996643066406
  0
ARC
  5
296
330
1F
100
AcDbEntity
  8
0-0_通り芯
  6
JWW_PHANTOM1
 62
     3
370
    13
100
AcDbCircle
 10
67.36942573805065
 20
-120.7414108922783
 30
0.0
 40
5.000000064437453
100
AcDbArc
 50
90.0
 51
171.4692993164062
  0
ARC
  5
297
330
1F
100
AcDbEntity
  8
0-0_通り芯
  6
Continuous
 62
     3
370
    13
100
AcDbCircle
 10
68.98867193737514
 20
-73.59014433030616
 30
0.0
 40
10.00000012887491
100
AcDbArc
 50
105.0002746582031
 51
172.9999237060547
  0
ARC
  5
298
330
1F
100
AcDbEntity
  8
0-0_通り芯
  6
JWW_PHANTOM1
 62
     3
370
    13
100
AcDbCircle
 10
106.9635089570119
 20
-110.741377900302
 30
0.0
 40
5.000000064437453
100
AcDbArc
 50
270.0
 51
353.1259155273438
  0
ARC
  5
299
330
1F
100
AcDbEntity
  8
0-0_通り芯
  6
JWW_PHANTOM1
 62
     3
370
    13
100
AcDbCircle
 10
122.6229855722991
 20
-64.39528052118455
 30
0.0
 40
5.000000064437453
100
AcDbArc
 50
105.0000915527344
 51
173.1259155273438
  0
ARC
  5
29A
330
1F
100
AcDbEntity
  8
0-0_通り芯
  6
Continuous
 62
     3
370
    13
100
AcDbCircle
 10
48.16908526085483
 20
-65.36499718609164
 30
0.0
 40
10.00000012887491
100
AcDbArc
 50
105.0000915527344
 51
173.0002746582031
  0
ARC
  5
29B
330
1F
100
AcDbEntity
  8
0-0_通り芯
  6
Continuous
 62
     3
370
    13
100
AcDbCircle
 10
24.58559576550016
 20
-93.32817154208826
 30
0.0
 40
10.00000012887491
100
AcDbArc
 50
276.2403869628906
 51
352.9995727539063
  0
ARC
  5
29C
330
1F
100
AcDbEntity
  8
0-0_通り芯
  6
Continuous
 62
     3
370
    13
100
AcDbCircle
 10
5.936551213135317
 20
-108.7804173059185
 30
0.0
 40
3.333333376291636
100
AcDbArc
 50
96.24108886718754
 51
170.5373229980469
  0
ARC
  5
29D
330
1F
100
AcDbEntity
  8
0-0_通り芯
  6
Continuous
 62
     3
370
    13
100
AcDbCircle
 10
-370.8362313961342
 20
-110.741377900302
 30
0.0
 40
5.000000064437453
100
AcDbArc
 50
186.8746185302734
 51
257.2880401611328
  0
TEXT
  5
29E
330
1F
100
AcDbEntity
  8
0-4_寸法
  6
Continuous
 62
     2
370
    13
100
AcDbText
 10
-580.9097756581697
 20
30.86349204532716
 30
0.0
 40
30.48
  1
45
 50
90.0
 41
1.0625
  7
ＭＳ ゴシック
100
AcDbText
  0
TEXT
  5
29F
330
1F
100
AcDbEntity
  8
0-4_寸法
  6
Continuous
 62
     2
370
    13
100
AcDbText
 10
-186.9364849394724
 20
402.7535167893095
 30
0.0
 40
30.48
  1
φ200
 41
1.1
  7
ＭＳ ゴシック
100
AcDbText
  0
TEXT
  5
2A0
330
1F
100
AcDbEntity
  8
0-4_寸法
  6
Continuous
 62
     2
370
    13
100
AcDbText
 10
-186.9364849394724
 20
322.7535002933213
 30
0.0
 40
30.48
  1
φ180
 41
1.1
  7
ＭＳ ゴシック
100
AcDbText
  0
TEXT
  5
2A1
330
1F
100
AcDbEntity
  8
0-4_寸法
  6
Continuous
 62
     2
370
    13
100
AcDbText
 10
-186.9366086593838
 20
242.753483797333
 30
0.0
 40
30.48
  1
φ137
 41
1.1
  7
ＭＳ ゴシック
100
AcDbText
  0
TEXT
  5
2A2
330
1F
100
AcDbEntity
  8
0-4_寸法
  6
Continuous
 62
     2
370
    13
100
AcDbText
 10
-186.9364849394724
 20
-553.4346232550319
 30
0.0
 40
30.48
  1
φ200
 41
1.1
  7
ＭＳ ゴシック
100
AcDbText
  0
TEXT
  5
2A3
330
1F
100
AcDbEntity
  8
0-4_寸法
  6
Continuous
 62
     2
370
    13
100
AcDbText
 10
365.757003731083
 20
34.43615192444462
 30
0.0
 40
30.48
  1
43
 50
90.0
 41
1.0625
  7
ＭＳ ゴシック
100
AcDbText
  0
TEXT
  5
2A4
330
1F
100
AcDbEntity
  8
0-4_寸法
  6
Continuous
 62
     2
370
    13
100
AcDbText
 10
285.7569872350947
 20
-136.9912706763788
 30
0.0
 40
30.48
  1
60
 50
90.0
 41
1.0625
  7
ＭＳ ゴシック
100
AcDbText
  0
TEXT
  5
2A5
330
1F
100
AcDbEntity
  8
0-4_寸法
  6
Continuous
 62
     2
370
    13
100
AcDbText
 10
-164.4364230795168
 20
-393.4346521230111
 30
0.0
 40
30.48
  1
Rc3
 41
1.083333333333333
  7
ＭＳ ゴシック
100
AcDbText
  0
TEXT
  5
2A6
330
1F
100
AcDbEntity
  8
0-4_寸法
  6
Continuous
 62
     2
370
    13
100
AcDbText
 10
-175.6864849394725
 20
-473.4346686189994
 30
0.0
 40
30.48
  1
φ99
 41
1.09375
  7
ＭＳ ゴシック
100
AcDbText
  0
LINE
  5
2A7
330
1F
100
AcDbEntity
  8
0-3_受枠
  6
Continuous
 62
     2
370
    13
100
AcDbLine
 10
-462.8832268168478
 20
-291.9539320071432
 30
0.0
 11
-465.2696601862525
 21
-282.408198529525
 31
0.0
  0
LINE
  5
2A8
330
1F
100
AcDbEntity
  8
0-3_受枠
  6
Continuous
 62
     2
370
    13
100
AcDbLine
 10
-412.9173322724012
 20
-295.7412459323966
 30
0.0
 11
-458.0325402538199
 21
-295.7412459323966
 31
0.0
  0
LINE
  5
2A9
330
1F
100
AcDbEntity
  8
0-3_受枠
  6
Continuous
 62
     2
370
    13
100
AcDbLine
 10
-406.6269171013707
 20
-305.2874742896601
 30
0.0
 11
-408.0666457093733
 21
-299.5288072974726
 31
0.0
  0
LINE
  5
2AA
330
1F
100
AcDbEntity
  8
0-3_受枠
  6
Continuous
 62
     2
370
    13
100
AcDbLine
 10
-402.5070440544957
 20
-282.408198529525
 30
0.0
 11
-465.2696601862525
 21
-282.408198529525
 31
0.0
  0
LINE
  5
2AB
330
1F
100
AcDbEntity
  8
0-3_受枠
  6
Continuous
 62
     2
370
    13
100
AcDbLine
 10
-396.2166288834652
 20
-291.9539320071432
 30
0.0
 11
-397.6562337715566
 21
-286.1952650149557
 31
0.0
  0
LINE
  5
2AC
330
1F
100
AcDbEntity
  8
0-3_受枠
  6
Continuous
 62
     2
370
    13
100
AcDbLine
 10
42.1164597593767
 20
-305.2874742896601
 30
0.0
 11
39.73015010988347
 21
-295.7412459323966
 31
0.0
  0
LINE
  5
2AD
330
1F
100
AcDbEntity
  8
0-3_受枠
  6
Continuous
 62
     2
370
    13
100
AcDbLine
 10
199.0106280976369
 20
-291.9539320071432
 30
0.0
 11
201.3969377471301
 21
-282.4079510897024
 31
0.0
  0
LINE
  5
2AE
330
1F
100
AcDbEntity
  8
0-3_受枠
  6
Continuous
 62
     2
370
    13
100
AcDbLine
 10
149.0446098332788
 20
-295.7412459323966
 30
0.0
 11
194.1598178146978
 21
-295.7412459323966
 31
0.0
  0
LINE
  5
2AF
330
1F
100
AcDbEntity
  8
0-3_受枠
  6
Continuous
 62
     2
370
    13
100
AcDbLine
 10
142.7541946622483
 20
-305.2874742896601
 30
0.0
 11
144.1937995503397
 21
-299.5288072974726
 31
0.0
  0
LINE
  5
2B0
330
1F
100
AcDbEntity
  8
0-3_受枠
  6
Continuous
 62
     2
370
    13
100
AcDbLine
 10
133.7835113324342
 20
-286.1952650149557
 30
0.0
 11
132.3439064443431
 21
-291.9539320071432
 31
0.0
  0
LINE
  5
2B1
330
1F
100
AcDbEntity
  8
0-3_受枠
  6
Continuous
 62
     2
370
    13
100
AcDbLine
 10
138.6343216153733
 20
-282.4079510897024
 30
0.0
 11
201.3969377471301
 21
-282.4079510897024
 31
0.0
  0
LINE
  5
2B2
330
1F
100
AcDbEntity
  8
0-3_受枠
  6
Continuous
 62
     2
370
    13
100
AcDbLine
 10
-379.052965586379
 20
-298.9856768867884
 30
0.0
 11
-375.2697344181993
 21
-309.0745407750909
 31
0.0
  0
LINE
  5
2B3
330
1F
100
AcDbEntity
  8
0-3_受枠
  6
Continuous
 62
     2
370
    13
100
AcDbLine
 10
-338.153018703461
 20
-298.9856768867884
 30
0.0
 11
-341.9363735915522
 21
-309.0745407750909
 31
0.0
  0
LINE
  5
2B4
330
1F
100
AcDbEntity
  8
0-3_受枠
  6
Continuous
 62
     2
370
    13
100
AcDbLine
 10
-305.9895533582329
 20
-305.2874742896601
 30
0.0
 11
-303.6031199888285
 21
-295.7412459323966
 31
0.0
  0
LINE
  5
2B5
330
1F
100
AcDbEntity
  8
0-3_受枠
  6
Continuous
 62
     2
370
    13
100
AcDbLine
 10
-391.3658186005262
 20
-295.7412459323966
 30
0.0
 11
-371.9364725674814
 21
-295.7412459323966
 31
0.0
  0
LINE
  5
2B6
330
1F
100
AcDbEntity
  8
0-3_受枠
  6
Continuous
 62
     2
370
    13
100
AcDbLine
 10
127.4930961614038
 20
-295.7412459323966
 30
0.0
 11
-345.2697591621813
 21
-295.7412459323966
 31
0.0
  0
LINE
  5
2B7
330
1F
100
AcDbEntity
  8
0-3_受枠
  6
Continuous
 62
     2
370
    13
100
AcDbLine
 10
137.9033843793092
 20
-309.0745407750909
 30
0.0
 11
-401.7762305383428
 21
-309.0745407750909
 31
0.0
  0
LINE
  5
2B8
330
1F
100
AcDbEntity
  8
0-3_受枠
  6
Continuous
 62
     4
370
    13
100
AcDbLine
 10
-347.5248019857668
 20
-349.0746727429963
 30
0.0
 11
-345.2698828820928
 21
-346.8197536393224
 31
0.0
  0
LINE
  5
2B9
330
1F
100
AcDbEntity
  8
0-3_受枠
  6
Continuous
 62
     4
370
    13
100
AcDbLine
 10
-369.6815534638074
 20
-349.0746727429963
 30
0.0
 11
-371.9364725674814
 21
-346.8197536393224
 31
0.0
  0
LINE
  5
2BA
330
1F
100
AcDbEntity
  8
0-3_受枠
  6
Continuous
 62
     4
370
    13
100
AcDbLine
 10
-333.6030952448462
 20
-328.3357514486549
 30
0.0
 11
-333.6030952448462
 21
-309.0745407750909
 31
0.0
  0
LINE
  5
2BB
330
1F
100
AcDbEntity
  8
0-3_受枠
  6
Continuous
 62
     4
370
    13
100
AcDbLine
 10
-383.603260204728
 20
-328.3357514486549
 30
0.0
 11
-383.603260204728
 21
-309.0745407750909
 31
0.0
  0
LINE
  5
2BC
330
1F
100
AcDbEntity
  8
0-3_受枠
  6
Continuous
 62
     4
370
    13
100
AcDbLine
 10
-346.1124154781655
 20
-328.3357514486549
 30
0.0
 11
-346.1124154781655
 21
-309.0745407750909
 31
0.0
  0
LINE
  5
2BD
330
1F
100
AcDbEntity
  8
0-3_受枠
  6
Continuous
 62
     4
370
    13
100
AcDbLine
 10
-371.0941874112314
 20
-328.3357514486549
 30
0.0
 11
-371.0941874112314
 21
-309.0745407750909
 31
0.0
  0
LINE
  5
2BE
330
1F
100
AcDbEntity
  8
0-3_受枠
  6
Continuous
 62
     4
370
    13
100
AcDbLine
 10
-339.857879081417
 20
-330.7413614043138
 30
0.0
 11
-377.3489712478022
 21
-330.7413614043138
 31
0.0
  0
LINE
  5
2BF
330
1F
100
AcDbEntity
  8
0-3_受枠
  6
Continuous
 62
     4
370
    13
100
AcDbLine
 10
-345.2698828820928
 20
-346.8197536393224
 30
0.0
 11
-345.2698828820928
 21
-330.7413614043138
 31
0.0
  0
LINE
  5
2C0
330
1F
100
AcDbEntity
  8
0-3_受枠
  6
Continuous
 62
     4
370
    13
100
AcDbLine
 10
-347.5248019857668
 20
-330.7413614043138
 30
0.0
 11
-347.5248019857668
 21
-349.0746727429963
 31
0.0
  0
LINE
  5
2C1
330
1F
100
AcDbEntity
  8
0-3_受枠
  6
Continuous
 62
     4
370
    13
100
AcDbLine
 10
-369.6815534638074
 20
-349.0746727429963
 30
0.0
 11
-369.6815534638074
 21
-330.7413614043138
 31
0.0
  0
LINE
  5
2C2
330
1F
100
AcDbEntity
  8
0-3_受枠
  6
Continuous
 62
     4
370
    13
100
AcDbLine
 10
-371.9364725674814
 20
-330.7413614043138
 30
0.0
 11
-371.9364725674814
 21
-346.8197536393224
 31
0.0
  0
LINE
  5
2C3
330
1F
100
AcDbEntity
  8
0-3_受枠
  6
Continuous
 62
     4
370
    13
100
AcDbLine
 10
-356.6031216384272
 20
-342.4079016017379
 30
0.0
 11
-356.6031216384272
 21
-349.0746727429963
 31
0.0
  0
LINE
  5
2C4
330
1F
100
AcDbEntity
  8
0-3_受枠
  6
Continuous
 62
     4
370
    13
100
AcDbLine
 10
-356.6031216384272
 20
-342.4079016017379
 30
0.0
 11
-360.603233811147
 21
-342.4079016017379
 31
0.0
  0
LINE
  5
2C5
330
1F
100
AcDbEntity
  8
0-3_受枠
  6
Continuous
 62
     4
370
    13
100
AcDbLine
 10
-360.603233811147
 20
-342.4079016017379
 30
0.0
 11
-360.603233811147
 21
-349.0746727429963
 31
0.0
  0
LINE
  5
2C6
330
1F
100
AcDbEntity
  8
0-3_受枠
  6
Continuous
 62
     4
370
    13
100
AcDbLine
 10
-371.9364725674814
 20
-346.8197536393224
 30
0.0
 11
-360.603233811147
 21
-346.8197536393224
 31
0.0
  0
LINE
  5
2C7
330
1F
100
AcDbEntity
  8
0-3_受枠
  6
Continuous
 62
     4
370
    13
100
AcDbLine
 10
-356.6031216384272
 20
-346.8197536393224
 30
0.0
 11
-345.2698828820928
 21
-346.8197536393224
 31
0.0
  0
LINE
  5
2C8
330
1F
100
AcDbEntity
  8
0-3_受枠
  6
Continuous
 62
     4
370
    13
100
AcDbLine
 10
-369.6815534638074
 20
-349.0746727429963
 30
0.0
 11
-360.603233811147
 21
-349.0746727429963
 31
0.0
  0
LINE
  5
2C9
330
1F
100
AcDbEntity
  8
0-3_受枠
  6
Continuous
 62
     4
370
    13
100
AcDbLine
 10
-356.6031216384272
 20
-349.0746727429963
 30
0.0
 11
-347.5248019857668
 21
-349.0746727429963
 31
0.0
  0
LINE
  5
2CA
330
1F
100
AcDbEntity
  8
0-3_受枠
  6
Continuous
 62
     7
370
    13
100
AcDbLine
 10
-381.9365055594577
 20
-203.086167147557
 30
0.0
 11
-335.2698498901165
 21
-194.8574321259143
 31
0.0
  0
LINE
  5
2CB
330
1F
100
AcDbEntity
  8
0-3_受枠
  6
Continuous
 62
     7
370
    13
100
AcDbLine
 10
-381.9365055594577
 20
-216.6250844828611
 30
0.0
 11
-335.2698498901165
 21
-208.3964731811297
 31
0.0
  0
LINE
  5
2CC
330
1F
100
AcDbEntity
  8
0-3_受枠
  6
Continuous
 62
     4
370
    13
100
AcDbLine
 10
-371.9364725674814
 20
-214.8618283067632
 30
0.0
 11
-371.9364725674814
 21
-309.0745407750909
 31
0.0
  0
LINE
  5
2CD
330
1F
100
AcDbEntity
  8
0-3_受枠
  6
Continuous
 62
     4
370
    13
100
AcDbLine
 10
-345.2698828820928
 20
-210.1597293572276
 30
0.0
 11
-345.2698828820928
 21
-309.0745407750909
 31
0.0
  0
LINE
  5
2CE
330
1F
100
AcDbEntity
  8
0-3_受枠
  6
Continuous
 62
     4
370
    13
100
AcDbLine
 10
-369.6815534638074
 20
-309.0745407750909
 30
0.0
 11
-369.6815534638074
 21
-214.4641925117884
 31
0.0
  0
LINE
  5
2CF
330
1F
100
AcDbEntity
  8
0-3_受枠
  6
Continuous
 62
     4
370
    13
100
AcDbLine
 10
-347.5248019857668
 20
-210.5573651522023
 30
0.0
 11
-347.5248019857668
 21
-309.0745407750909
 31
0.0
  0
ARC
  5
2D0
330
1F
100
AcDbEntity
  8
0-3_受枠
  6
Continuous
 62
     2
370
    13
100
AcDbCircle
 10
-458.0325402538199
 20
-290.741476876231
 30
0.0
 40
5.000000064437453
100
AcDbArc
 50
194.0364074707032
 51
270.0
  0
ARC
  5
2D1
330
1F
100
AcDbEntity
  8
0-3_受枠
  6
Continuous
 62
     2
370
    13
100
AcDbCircle
 10
-412.9173322724012
 20
-300.7412624283848
 30
0.0
 40
5.000000064437453
100
AcDbArc
 50
14.03511047363281
 51
90.0
  0
ARC
  5
2D2
330
1F
100
AcDbEntity
  8
0-3_受枠
  6
Continuous
 62
     2
370
    13
100
AcDbCircle
 10
-401.7762305383428
 20
-304.0747717189253
 30
0.0
 40
5.000000064437453
100
AcDbArc
 50
194.0364074707032
 51
270.0
  0
ARC
  5
2D3
330
1F
100
AcDbEntity
  8
0-3_受枠
  6
Continuous
 62
     2
370
    13
100
AcDbCircle
 10
-402.5070440544957
 20
-287.4079675856905
 30
0.0
 40
5.000000064437453
100
AcDbArc
 50
14.03640747070313
 51
90.0
  0
ARC
  5
2D4
330
1F
100
AcDbEntity
  8
0-3_受枠
  6
Continuous
 62
     2
370
    13
100
AcDbCircle
 10
-391.3658186005262
 20
-290.741476876231
 30
0.0
 40
5.000000064437453
100
AcDbArc
 50
194.0364074707032
 51
270.0
  0
ARC
  5
2D5
330
1F
100
AcDbEntity
  8
0-3_受枠
  6
Continuous
 62
     2
370
    13
100
AcDbCircle
 10
46.96727004231603
 20
-304.0747717189253
 30
0.0
 40
5.000000064437453
100
AcDbArc
 50
194.0352783203125
 51
270.0
  0
ARC
  5
2D6
330
1F
100
AcDbEntity
  8
0-3_受枠
  6
Continuous
 62
     2
370
    13
100
AcDbCircle
 10
194.1598178146978
 20
-290.741476876231
 30
0.0
 40
5.000000064437453
100
AcDbArc
 50
270.0
 51
345.9650573730469
  0
ARC
  5
2D7
330
1F
100
AcDbEntity
  8
0-3_受枠
  6
Continuous
 62
     2
370
    13
100
AcDbCircle
 10
149.0446098332788
 20
-300.7412624283848
 30
0.0
 40
5.000000064437453
100
AcDbArc
 50
90.0
 51
165.9650573730469
  0
ARC
  5
2D8
330
1F
100
AcDbEntity
  8
0-3_受枠
  6
Continuous
 62
     2
370
    13
100
AcDbCircle
 10
137.9033843793092
 20
-304.0747717189253
 30
0.0
 40
5.000000064437453
100
AcDbArc
 50
270.0
 51
345.9650573730469
  0
ARC
  5
2D9
330
1F
100
AcDbEntity
  8
0-3_受枠
  6
Continuous
 62
     2
370
    13
100
AcDbCircle
 10
127.4930961614038
 20
-290.741476876231
 30
0.0
 40
5.000000064437453
100
AcDbArc
 50
270.0
 51
345.9650573730469
  0
ARC
  5
2DA
330
1F
100
AcDbEntity
  8
0-3_受枠
  6
Continuous
 62
     2
370
    13
100
AcDbCircle
 10
138.6343216153733
 20
-287.4079675856905
 30
0.0
 40
5.000000064437453
100
AcDbArc
 50
90.0
 51
165.9650573730469
  0
ARC
  5
2DB
330
1F
100
AcDbEntity
  8
0-3_受枠
  6
Continuous
 62
     2
370
    13
100
AcDbCircle
 10
-383.7346507505472
 20
-300.7412624283848
 30
0.0
 40
5.000000064437453
100
AcDbArc
 50
20.55572509765625
 51
90.0
  0
ARC
  5
2DC
330
1F
100
AcDbEntity
  8
0-3_受枠
  6
Continuous
 62
     2
370
    13
100
AcDbCircle
 10
-333.4713335392931
 20
-300.7412624283848
 30
0.0
 40
5.000000064437453
100
AcDbArc
 50
90.0
 51
159.4445037841797
  0
ARC
  5
2DD
330
1F
100
AcDbEntity
  8
0-3_受枠
  6
Continuous
 62
     2
370
    13
100
AcDbCircle
 10
-310.8402399212608
 20
-304.0747717189253
 30
0.0
 40
5.000000064437453
100
AcDbArc
 50
270.0
 51
345.9647216796875
  0
ARC
  5
2DE
330
1F
100
AcDbEntity
  8
0-3_受枠
  6
Continuous
 62
     4
370
    13
100
AcDbCircle
 10
-339.857879081417
 20
-321.4074364148713
 30
0.0
 40
9.333911457577267
100
AcDbArc
 50
227.9255676269531
 51
312.0746307373047
  0
ARC
  5
2DF
330
1F
100
AcDbEntity
  8
0-3_受枠
  6
Continuous
 62
     4
370
    13
100
AcDbCircle
 10
-358.6034251646097
 20
-297.1098355913916
 30
0.0
 40
33.63136729678592
100
AcDbArc
 50
248.1978607177734
 51
291.8021392822266
  0
ARC
  5
2E0
330
1F
100
AcDbEntity
  8
0-3_受枠
  6
Continuous
 62
     4
370
    13
100
AcDbCircle
 10
-377.3489712478022
 20
-321.4071889750486
 30
0.0
 40
9.33396558503847
100
AcDbArc
 50
227.9257202148438
 51
312.0742797851562
  0
LINE
  5
2E1
330
1F
100
AcDbEntity
  8
0-3_受枠
  6
JWW_CENTER1
 62
     4
370
    13
100
AcDbLine
 10
-358.6031777247871
 20
-358.2445451300317
 30
0.0
 11
-358.6031777247871
 21
-77.02015515167446
 31
0.0
  0
LINE
  5
2E2
330
1F
100
AcDbEntity
  8
0-3_受枠
  6
Continuous
 62
     4
370
    13
100
AcDbLine
 10
-347.5248019857668
 20
-82.40803356964321
 30
0.0
 11
-347.5248019857668
 21
-197.018324096987
 31
0.0
  0
LINE
  5
2E3
330
1F
100
AcDbEntity
  8
0-3_受枠
  6
Continuous
 62
     4
370
    13
100
AcDbLine
 10
-345.2698828820928
 20
-84.66295267331716
 30
0.0
 11
-345.2698828820928
 21
-196.6206883020122
 31
0.0
  0
LINE
  5
2E4
330
1F
100
AcDbEntity
  8
0-3_受枠
  6
Continuous
 62
     4
370
    13
100
AcDbLine
 10
-371.9364725674814
 20
-84.66295267331716
 30
0.0
 11
-371.9364725674814
 21
-201.3229109714591
 31
0.0
  0
LINE
  5
2E5
330
1F
100
AcDbEntity
  8
0-3_受枠
  6
Continuous
 62
     4
370
    13
100
AcDbLine
 10
-369.6815534638074
 20
-200.9252751764843
 30
0.0
 11
-369.6815534638074
 21
-82.40803356964321
 31
0.0
  0
LINE
  5
2E6
330
1F
100
AcDbEntity
  8
0-3_受枠
  6
Continuous
 62
     4
370
    13
100
AcDbLine
 10
-371.9364725674814
 20
-84.66295267331716
 30
0.0
 11
-345.2698828820928
 21
-84.66295267331716
 31
0.0
  0
LINE
  5
2E7
330
1F
100
AcDbEntity
  8
0-3_受枠
  6
Continuous
 62
     4
370
    13
100
AcDbLine
 10
-369.6815534638074
 20
-82.40803356964321
 30
0.0
 11
-347.5248019857668
 21
-82.40803356964321
 31
0.0
  0
LINE
  5
2E8
330
1F
100
AcDbEntity
  8
0-3_受枠
  6
Continuous
 62
     4
370
    13
100
AcDbLine
 10
-369.6815534638074
 20
-82.40803356964321
 30
0.0
 11
-371.9364725674814
 21
-84.66295267331716
 31
0.0
  0
LINE
  5
2E9
330
1F
100
AcDbEntity
  8
0-3_受枠
  6
Continuous
 62
     4
370
    13
100
AcDbLine
 10
-347.5248019857668
 20
-82.40803356964321
 30
0.0
 11
-345.2698828820928
 21
-84.66295267331716
 31
0.0
  0
LINE
  5
2EA
330
1F
100
AcDbEntity
  8
0-5_文字
  6
Continuous
 62
     7
370
    13
100
AcDbLine
 10
113.0636429044358
 20
-2.886565690631251
 30
0.0
 11
122.6306562068007
 21
20.21045711342264
 31
0.0
  0
LINE
  5
2EB
330
1F
100
AcDbEntity
  8
0-5_文字
  6
Continuous
 62
     7
370
    13
100
AcDbLine
 10
113.0636429044358
 20
-2.886565690631251
 30
0.0
 11
128.2826766354324
 21
16.9472207325104
 31
0.0
  0
LINE
  5
2EC
330
1F
100
AcDbEntity
  8
0-5_文字
  6
Continuous
 62
     7
370
    13
100
AcDbLine
 10
86.62741969392071
 20
12.6259316700104
 30
0.0
 11
96.19443299628556
 21
35.72295447406457
 31
0.0
  0
LINE
  5
2ED
330
1F
100
AcDbEntity
  8
0-5_文字
  6
Continuous
 62
     7
370
    13
100
AcDbLine
 10
86.62741969392071
 20
12.6259316700104
 30
0.0
 11
101.8464534249173
 21
32.45971809315233
 31
0.0
  0
LINE
  5
2EE
330
1F
100
AcDbEntity
  8
0-5_文字
  6
Continuous
 62
     7
370
    13
100
AcDbLine
 10
15.53820609066918
 20
111.1155177526752
 30
0.0
 11
25.10521939303402
 21
134.2125405567294
 31
0.0
  0
LINE
  5
2EF
330
1F
100
AcDbEntity
  8
0-5_文字
  6
Continuous
 62
     7
370
    13
100
AcDbLine
 10
15.53820609066918
 20
111.1155177526752
 30
0.0
 11
30.75723982166577
 21
130.9493041758171
 31
0.0
  0
LINE
  5
2F0
330
1F
100
AcDbEntity
  8
0-5_文字
  6
Continuous
 62
     7
370
    13
100
AcDbLine
 10
196.6597023427806
 20
-295.0716737723458
 30
0.0
 11
211.8787360737772
 21
-314.9054601954878
 31
0.0
  0
LINE
  5
2F1
330
1F
100
AcDbEntity
  8
0-5_文字
  6
Continuous
 62
     7
370
    13
100
AcDbLine
 10
196.6597023427806
 20
-295.0716737723458
 30
0.0
 11
206.2267156451455
 21
-318.1685728564887
 31
0.0
  0
LINE
  5
2F2
330
1F
100
AcDbEntity
  8
0-5_文字
  6
Continuous
 62
     7
370
    13
100
AcDbLine
 10
-461.9363983355345
 20
-45.7412871723669
 30
0.0
 11
-471.5035353578108
 21
-68.83830997642107
 31
0.0
  0
LINE
  5
2F3
330
1F
100
AcDbEntity
  8
0-5_文字
  6
Continuous
 62
     7
370
    13
100
AcDbLine
 10
-461.9363983355345
 20
-45.7412871723669
 30
0.0
 11
-477.1554320665311
 21
-65.57507359550883
 31
0.0
  0
LINE
  5
2F4
330
1F
100
AcDbEntity
  8
0-5_文字
  6
Continuous
 62
     7
370
    13
100
AcDbLine
 10
-286.34815139719
 20
52.59191694239217
 30
0.0
 11
-301.5671851281866
 21
72.4257033655341
 31
0.0
  0
LINE
  5
2F5
330
1F
100
AcDbEntity
  8
0-5_文字
  6
Continuous
 62
     7
370
    13
100
AcDbLine
 10
-286.34815139719
 20
52.59191694239217
 30
0.0
 11
-295.915288419466
 21
75.68893974644635
 31
0.0
  0
LINE
  5
2F6
330
1F
100
AcDbEntity
  8
0-5_文字
  6
Continuous
 62
     7
370
    13
100
AcDbLine
 10
15.53820609066918
 20
111.1155177526752
 30
0.0
 11
78.06971342808451
 21
219.4232685576794
 31
0.0
  0
LINE
  5
2F7
330
1F
100
AcDbEntity
  8
0-5_文字
  6
Continuous
 62
     7
370
    13
100
AcDbLine
 10
89.94855699332957
 20
239.9977660898796
 30
0.0
 11
171.4136646791403
 21
381.0995826280976
 31
0.0
  0
LINE
  5
2F8
330
1F
100
AcDbEntity
  8
0-5_文字
  6
Continuous
 62
     7
370
    13
100
AcDbLine
 10
113.0636429044358
 20
-2.886565690631251
 30
0.0
 11
245.8542032401624
 21
227.1134508053567
 31
0.0
  0
LINE
  5
2F9
330
1F
100
AcDbEntity
  8
0-5_文字
  6
Continuous
 62
     7
370
    13
100
AcDbLine
 10
182.9861777439629
 20
401.1438166203905
 30
0.0
 11
221.0738473227215
 21
467.1135002933213
 31
0.0
  0
LINE
  5
2FA
330
1F
100
AcDbEntity
  8
0-5_文字
  6
Continuous
 62
     7
370
    13
100
AcDbLine
 10
86.62741969392071
 20
12.6259316700104
 30
0.0
 11
279.7438087880931
 21
347.113475549339
 31
0.0
  0
LINE
  5
2FB
330
1F
100
AcDbEntity
  8
0-5_文字
  6
Continuous
 62
     7
370
    13
100
AcDbLine
 10
-286.34815139719
 20
52.59191694239217
 30
0.0
 11
-525.6723190096267
 21
467.1135002933213
 31
0.0
  0
LINE
  5
2FC
330
1F
100
AcDbEntity
  8
0-5_文字
  6
Continuous
 62
     7
370
    13
100
AcDbLine
 10
-525.6723190096267
 20
467.1135002933213
 30
0.0
 11
-851.5300279148207
 21
467.1135002933213
 31
0.0
  0
LINE
  5
2FD
330
1F
100
AcDbEntity
  8
0-5_文字
  6
Continuous
 62
     7
370
    13
100
AcDbLine
 10
196.6597023427806
 20
-295.0716737723458
 30
0.0
 11
262.4794374831944
 21
-409.0746232550317
 31
0.0
  0
LINE
  5
2FE
330
1F
100
AcDbEntity
  8
0-5_文字
  6
Continuous
 62
     7
370
    13
100
AcDbLine
 10
-461.9363983355345
 20
-45.7412871723669
 30
0.0
 11
-519.6714084310793
 21
-145.7412459323966
 31
0.0
  0
LINE
  5
2FF
330
1F
100
AcDbEntity
  8
0-5_文字
  6
Continuous
 62
     7
370
    13
100
AcDbLine
 10
279.7438087880931
 20
347.113475549339
 30
0.0
 11
629.0969186117841
 21
347.113475549339
 31
0.0
  0
LINE
  5
300
330
1F
100
AcDbEntity
  8
0-5_文字
  6
Continuous
 62
     7
370
    13
100
AcDbLine
 10
245.8542032401624
 20
227.1134508053567
 30
0.0
 11
628.8922858784647
 21
227.1134508053567
 31
0.0
  0
LINE
  5
301
330
1F
100
AcDbEntity
  8
0-5_文字
  6
Continuous
 62
     7
370
    13
100
AcDbLine
 10
262.4794374831944
 20
-409.0746232550317
 30
0.0
 11
646.293243965458
 21
-409.0746232550317
 31
0.0
  0
LINE
  5
302
330
1F
100
AcDbEntity
  8
0-5_文字
  6
Continuous
 62
     7
370
    13
100
AcDbLine
 10
-806.3249992777855
 20
-145.7412459323966
 30
0.0
 11
-519.6714084310793
 21
-145.7412459323966
 31
0.0
  0
LINE
  5
303
330
1F
100
AcDbEntity
  8
0-5_文字
  6
Continuous
 62
     7
370
    13
100
AcDbLine
 10
-369.6814297438959
 20
-349.0746727429963
 30
0.0
 11
-379.2485667661722
 21
-372.1716336870948
 31
0.0
  0
LINE
  5
304
330
1F
100
AcDbEntity
  8
0-5_文字
  6
Continuous
 62
     7
370
    13
100
AcDbLine
 10
-369.6814297438959
 20
-349.0746727429963
 30
0.0
 11
-384.9004634748925
 21
-368.9085210260939
 31
0.0
  0
LINE
  5
305
330
1F
100
AcDbEntity
  8
0-5_文字
  6
Continuous
 62
     7
370
    13
100
AcDbLine
 10
-369.6814297438959
 20
-349.0746727429963
 30
0.0
 11
-496.6984766980767
 21
-569.0746562470082
 31
0.0
  0
LINE
  5
306
330
1F
100
AcDbEntity
  8
0-5_文字
  6
Continuous
 62
     7
370
    13
100
AcDbLine
 10
-496.6984766980767
 20
-569.0746562470082
 30
0.0
 11
-825.7343026851968
 21
-569.0746562470082
 31
0.0
  0
LINE
  5
307
330
1F
100
AcDbEntity
  8
0-5_文字
  6
Continuous
 62
     7
370
    13
100
AcDbLine
 10
221.0738473227215
 20
467.1135002933213
 30
0.0
 11
644.7534259491997
 21
467.1135002933213
 31
0.0
  0
TEXT
  5
308
330
1F
100
AcDbEntity
  8
0-5_文字
  6
Continuous
 62
     7
370
    13
100
AcDbText
 10
341.3073645313364
 20
435.1982333222486
 30
0.0
 40
22.86
  1
樹脂系塗装
 41
1.133333333333333
  7
ＭＳ ゴシック
100
AcDbText
  0
TEXT
  5
309
330
1F
100
AcDbEntity
  8
0-5_文字
  6
Continuous
 62
     7
370
    13
100
AcDbText
 10
284.0969680997484
 20
361.4359273150698
 30
0.0
 40
22.86
  1
丸小ネジ：Ｃ２７００
 41
1.15
  7
ＭＳ ゴシック
100
AcDbText
  0
TEXT
  5
30A
330
1F
100
AcDbEntity
  8
0-5_文字
  6
Continuous
 62
     7
370
    13
100
AcDbText
 10
248.8922776304705
 20
242.4103205926244
 30
0.0
 40
22.86
  1
防水層押え：ＦＣ１５０
 41
1.151515151515151
  7
ＭＳ ゴシック
100
AcDbText
  0
TEXT
  5
30B
330
1F
100
AcDbEntity
  8
0-5_文字
  6
Continuous
 62
     7
370
    13
100
AcDbText
 10
354.5065469901622
 20
193.7943340005637
 30
0.0
 40
22.86
  1
樹脂系塗装
 41
1.133333333333333
  7
ＭＳ ゴシック
100
AcDbText
  0
TEXT
  5
30C
330
1F
100
AcDbEntity
  8
0-5_文字
  6
Continuous
 62
     7
370
    13
100
AcDbText
 10
266.2932357174637
 20
-394.6436691270756
 30
0.0
 40
22.86
  1
クランプ板：ＦＣ１５０
 41
1.151515151515151
  7
ＭＳ ゴシック
100
AcDbText
  0
TEXT
  5
30D
330
1F
100
AcDbEntity
  8
0-5_文字
  6
Continuous
 62
     7
370
    13
100
AcDbText
 10
376.4571810959478
 20
-445.734177665399
 30
0.0
 40
22.86
  1
樹脂系塗装
 41
1.133333333333333
  7
ＭＳ ゴシック
100
AcDbText
  0
TEXT
  5
30E
330
1F
100
AcDbEntity
  8
0-5_文字
  6
Continuous
 62
     7
370
    13
100
AcDbText
 10
-844.3406473721689
 20
480.1357795110156
 30
0.0
 40
22.86
  1
ボルト：Ｃ３６０２
 41
1.148148148148148
  7
ＭＳ ゴシック
100
AcDbText
  0
TEXT
  5
30F
330
1F
100
AcDbEntity
  8
0-5_文字
  6
Continuous
 62
     7
370
    13
100
AcDbText
 10
-799.0620012639023
 20
-128.2343673692632
 30
0.0
 40
22.86
  1
本体：ＦＣ１５０
 41
1.145833333333333
  7
ＭＳ ゴシック
100
AcDbText
  0
TEXT
  5
310
330
1F
100
AcDbEntity
  8
0-5_文字
  6
Continuous
 62
     7
370
    13
100
AcDbText
 10
-813.1023595237735
 20
-553.335858936514
 30
0.0
 40
22.86
  1
ボルト：Ｃ３６０２
 41
1.148148148148148
  7
ＭＳ ゴシック
100
AcDbText
  0
TEXT
  5
311
330
1F
100
AcDbEntity
  8
0-5_文字
  6
Continuous
 62
     7
370
    13
100
AcDbText
 10
371.2708424135153
 20
312.8198170030976
 30
0.0
 40
22.86
  1
Ｍ６×１２
 41
1.133333333333333
  7
ＭＳ ゴシック
100
AcDbText
  0
TEXT
  5
312
330
1F
100
AcDbEntity
  8
0-5_文字
  6
Continuous
 62
     7
370
    13
100
AcDbText
 10
-780.1509674273315
 20
430.7589154643517
 30
0.0
 40
22.86
  1
Ｍ８×４０
 41
1.133333333333333
  7
ＭＳ ゴシック
100
AcDbText
  0
TEXT
  5
313
330
1F
100
AcDbEntity
  8
0-5_文字
  6
Continuous
 62
     7
370
    13
100
AcDbText
 10
-748.2220750339615
 20
-186.3373204810663
 30
0.0
 40
22.86
  1
樹脂系塗装
 41
1.133333333333334
  7
ＭＳ ゴシック
100
AcDbText
  0
TEXT
  5
314
330
1F
100
AcDbEntity
  8
0-5_文字
  6
Continuous
 62
     7
370
    13
100
AcDbText
 10
228.7752303463699
 20
483.8143436342208
 30
0.0
 40
22.86
  1
ストレーナー：ＦＣ１５０
 41
1.152777777777778
  7
ＭＳ ゴシック
100
AcDbText
  0
TEXT
  5
315
330
1F
100
AcDbEntity
  8
0-5_文字
  6
Continuous
 62
     7
370
    13
100
AcDbText
 10
-763.349172498858
 20
-607.1232141017379
 30
0.0
 40
22.86
  1
Ｍ８×１００
 41
1.138888888888889
  7
ＭＳ ゴシック
100
AcDbText
  0
TEXT
  5
316
330
1F
100
AcDbEntity
  8
0-4_寸法
  6
Continuous
 62
     2
370
    13
100
AcDbText
 10
367.4813765422923
 20
-168.011372082652
 30
0.0
 40
30.48
  1
100
 50
90.0
 41
1.083333333333333
  7
ＭＳ ゴシック
100
AcDbText
  0
ENDSEC
  0
SECTION
  2
OBJECTS
  0
DICTIONARY
  5
C
330
0
100
AcDbDictionary
281
     1
  3
ACAD_GROUP
350
D
  3
ACAD_LAYOUT
350
1A
  3
ACAD_MLEADERSTYLE
350
318
  3
ACAD_MLINESTYLE
350
17
  3
ACAD_PLOTSETTINGS
350
19
  3
ACAD_PLOTSTYLENAME
350
E
  3
ACAD_TABLESTYLE
350
317
  3
ACAD_VISUALSTYLE
350
2A
  0
DICTIONARY
  5
D
102
{ACAD_REACTORS
330
C
102
}
330
C
100
AcDbDictionary
281
     1
  0
DICTIONARY
  5
1A
102
{ACAD_REACTORS
330
C
102
}
330
C
100
AcDbDictionary
281
     1
  3
Layout1
350
1E
  3
Layout2
350
26
  3
Model
350
22
  0
DICTIONARY
  5
318
102
{ACAD_REACTORS
330
C
102
}
330
C
100
AcDbDictionary
281
     1
  0
DICTIONARY
  5
17
102
{ACAD_REACTORS
330
C
102
}
330
C
100
AcDbDictionary
281
     1
  3
Standard
350
18
  0
DICTIONARY
  5
19
102
{ACAD_REACTORS
330
C
102
}
330
C
100
AcDbDictionary
281
     1
  0
ACDBDICTIONARYWDFLT
  5
E
102
{ACAD_REACTORS
330
C
102
}
330
C
100
AcDbDictionary
281
     1
  3
Normal
350
F
100
AcDbDictionaryWithDefault
340
F
  0
DICTIONARY
  5
317
102
{ACAD_REACTORS
330
C
102
}
330
C
100
AcDbDictionary
281
     1
  0
DICTIONARY
  5
2A
102
{ACAD_REACTORS
330
C
102
}
330
C
100
AcDbDictionary
281
     1
  3
2dWireframe
350
2F
  3
3D Hidden
350
31
  3
3dWireframe
350
30
  3
Basic
350
32
  3
Brighten
350
36
  3
ColorChange
350
3A
  3
Conceptual
350
34
  3
Dim
350
35
  3
Facepattern
350
39
  3
Flat
350
2B
  3
FlatWithEdges
350
2C
  3
Gouraud
350
2D
  3
GouraudWithEdges
350
2E
  3
Linepattern
350
38
  3
Realistic
350
33
  3
Thicken
350
37
  0
LAYOUT
  5
1E
102
{ACAD_REACTORS
330
1A
102
}
330
1A
100
AcDbPlotSettings
  1

  2
none_device
  4

  6

 40
0.0
 41
0.0
 42
0.0
 43
0.0
 44
0.0
 45
0.0
 46
0.0
 47
0.0
 48
0.0
 49
0.0
140
0.0
141
0.0
142
1.0
143
1.0
 70
   688
 72
     0
 73
     0
 74
     5
  7

 75
    16
 76
     0
 77
     5
 78
   300
147
1.0
148
0.0
149
0.0
100
AcDbLayout
  1
Layout1
 70
     1
 71
     1
 10
0.0
 20
0.0
 11
420.0
 21
297.0
 12
0.0
 22
0.0
 32
0.0
 14
1.000000000000000E+20
 24
1.000000000000000E+20
 34
1.000000000000000E+20
 15
-1.000000000000000E+20
 25
-1.000000000000000E+20
 35
-1.000000000000000E+20
146
0.0
 13
0.0
 23
0.0
 33
0.0
 16
1.0
 26
0.0
 36
0.0
 17
0.0
 27
1.0
 37
0.0
 76
     0
330
1B
  0
LAYOUT
  5
26
102
{ACAD_REACTORS
330
1A
102
}
330
1A
100
AcDbPlotSettings
  1

  2
none_device
  4

  6

 40
0.0
 41
0.0
 42
0.0
 43
0.0
 44
0.0
 45
0.0
 46
0.0
 47
0.0
 48
0.0
 49
0.0
140
0.0
141
0.0
142
1.0
143
1.0
 70
   688
 72
     0
 73
     0
 74
     5
  7

 75
    16
 76
     0
 77
     5
 78
   300
147
1.0
148
0.0
149
0.0
100
AcDbLayout
  1
Layout2
 70
     1
 71
     2
 10
0.0
 20
0.0
 11
0.0
 21
0.0
 12
0.0
 22
0.0
 32
0.0
 14
0.0
 24
0.0
 34
0.0
 15
0.0
 25
0.0
 35
0.0
146
0.0
 13
0.0
 23
0.0
 33
0.0
 16
1.0
 26
0.0
 36
0.0
 17
0.0
 27
1.0
 37
0.0
 76
     0
330
23
  0
LAYOUT
  5
22
102
{ACAD_REACTORS
330
1A
102
}
330
1A
100
AcDbPlotSettings
  1

  2
none_device
  4

  6

 40
0.0
 41
0.0
 42
0.0
 43
0.0
 44
0.0
 45
0.0
 46
0.0
 47
0.0
 48
0.0
 49
0.0
140
0.0
141
0.0
142
1.0
143
1.0
 70
  1712
 72
     0
 73
     0
 74
     0
  7

 75
     0
 76
     0
 77
     5
 78
   300
147
1.0
148
0.0
149
0.0
100
AcDbLayout
  1
Model
 70
     1
 71
     0
 10
-2100.0
 20
-1485.0
 11
2100.0
 21
1485.0
 12
0.0
 22
0.0
 32
0.0
 14
-2100.0
 24
-1485.0
 34
0.0
 15
2100.0
 25
1485.0
 35
0.0
146
0.0
 13
0.0
 23
0.0
 33
0.0
 16
1.0
 26
0.0
 36
0.0
 17
0.0
 27
1.0
 37
0.0
 76
     0
330
1F
331
29
  0
MLINESTYLE
  5
18
102
{ACAD_REACTORS
330
17
102
}
330
17
100
AcDbMlineStyle
  2
Standard
 70
     0
  3

 62
   256
 51
90.0
 52
90.0
 71
     2
 49
0.5
 62
   256
  6
BYLAYER
 49
-0.5
 62
   256
  6
BYLAYER
  0
ACDBPLACEHOLDER
  5
F
102
{ACAD_REACTORS
330
E
102
}
330
E
  0
VISUALSTYLE
  5
2F
102
{ACAD_REACTORS
330
2A
102
}
330
2A
100
AcDbVisualStyle
  2
2dWireframe
 70
     4
 71
     0
 72
     2
 73
     0
 90
        0
 40
-0.6
 41
-30.0
 62
     5
 63
     7
421
 16777215
 74
     1
 91
        4
 64
     7
 65
   257
 75
     1
175
     1
 42
1.0
 92
        0
 66
   257
 43
1.0
 76
     1
 77
     6
 78
     2
 67
     7
 79
     5
170
     0
171
     0
290
     0
174
     0
 93
        1
 44
0.0
173
     0
291
     0
 45
0.0
1001
ACAD
1000
AcDbSavedByObjectVersion
1070
     0
  0
VISUALSTYLE
  5
31
102
{ACAD_REACTORS
330
2A
102
}
330
2A
100
AcDbVisualStyle
  2
3D Hidden
 70
     6
 71
     1
 72
     2
 73
     2
 90
        0
 40
-0.6
 41
-30.0
 62
     5
 63
     7
421
 16777215
 74
     2
 91
        2
 64
     7
 65
   257
 75
     2
175
     1
 42
40.0
 92
        0
 66
   257
 43
1.0
 76
     1
 77
     6
 78
     2
 67
     7
 79
     3
170
     0
171
     0
290
     0
174
     0
 93
        1
 44
0.0
173
     0
291
     0
 45
0.0
1001
ACAD
1000
AcDbSavedByObjectVersion
1070
     0
  0
VISUALSTYLE
  5
30
102
{ACAD_REACTORS
330
2A
102
}
330
2A
100
AcDbVisualStyle
  2
3dWireframe
 70
     5
 71
     0
 72
     2
 73
     0
 90
        0
 40
-0.6
 41
-30.0
 62
     5
 63
     7
421
 16777215
 74
     1
 91
        4
 64
     7
 65
   257
 75
     1
175
     1
 42
1.0
 92
        0
 66
   257
 43
1.0
 76
     1
 77
     6
 78
     2
 67
     7
 79
     5
170
     0
171
     0
290
     0
174
     0
 93
        1
 44
0.0
173
     0
291
     0
 45
0.0
1001
ACAD
1000
AcDbSavedByObjectVersion
1070
     0
  0
VISUALSTYLE
  5
32
102
{ACAD_REACTORS
330
2A
102
}
330
2A
100
AcDbVisualStyle
  2
Basic
 70
     7
 71
     1
 72
     0
 73
     1
 90
        0
 40
-0.6
 41
-30.0
 62
     5
 63
     7
421
 16777215
 74
     0
 91
        4
 64
     7
 65
   257
 75
     1
175
     1
 42
1.0
 92
        8
 66
     7
 43
1.0
 76
     1
 77
     6
 78
     2
 67
     7
 79
     5
170
     0
171
     0
290
     0
174
     0
 93
        1
 44
0.0
173
     0
291
     1
 45
0.0
1001
ACAD
1000
AcDbSavedByObjectVersion
1070
     0
  0
VISUALSTYLE
  5
36
102
{ACAD_REACTORS
330
2A
102
}
330
2A
100
AcDbVisualStyle
  2
Brighten
 70
    12
 71
     2
 72
     2
 73
     0
 90
        0
 40
-0.6
 41
-30.0
 62
     5
 63
     7
421
 16777215
 74
     1
 91
        4
 64
     7
 65
   257
 75
     1
175
     1
 42
1.0
 92
        8
 66
     7
 43
1.0
 76
     1
 77
     6
 78
     2
 67
     7
 79
     5
170
     0
171
     0
290
     0
174
     0
 93
        1
 44
50.0
173
     0
291
     1
 45
0.0
1001
ACAD
1000
AcDbSavedByObjectVersion
1070
     0
  0
VISUALSTYLE
  5
3A
102
{ACAD_REACTORS
330
2A
102
}
330
2A
100
AcDbVisualStyle
  2
ColorChange
 70
    16
 71
     2
 72
     2
 73
     3
 90
        0
 40
-0.6
 41
-30.0
 62
     5
 63
     8
421
  8421504
 74
     1
 91
        4
 64
     7
 65
   257
 75
     1
175
     1
 42
1.0
 92
        8
 66
     8
424
  8421504
 43
1.0
 76
     1
 77
     6
 78
     2
 67
     7
 79
     5
170
     0
171
     0
290
     0
174
     0
 93
        1
 44
0.0
173
     0
291
     1
 45
0.0
1001
ACAD
1000
AcDbSavedByObjectVersion
1070
     0
  0
VISUALSTYLE
  5
34
102
{ACAD_REACTORS
330
2A
102
}
330
2A
100
AcDbVisualStyle
  2
Conceptual
 70
     9
 71
     3
 72
     2
 73
     0
 90
        0
 40
-0.6
 41
-30.0
 62
     5
 63
     7
421
 16777215
 74
     2
 91
        2
 64
     7
 65
   257
 75
     1
175
     1
 42
40.0
 92
        8
 66
     7
 43
1.0
 76
     1
 77
     6
 78
     2
 67
     7
 79
     3
170
     0
171
     0
290
     0
174
     0
 93
        1
 44
0.0
173
     0
291
     0
 45
0.0
1001
ACAD
1000
AcDbSavedByObjectVersion
1070
     0
  0
VISUALSTYLE
  5
35
102
{ACAD_REACTORS
330
2A
102
}
330
2A
100
AcDbVisualStyle
  2
Dim
 70
    11
 71
     2
 72
     2
 73
     0
 90
        0
 40
-0.6
 41
-30.0
 62
     5
 63
     7
421
 16777215
 74
     1
 91
        4
 64
     7
 65
   257
 75
     1
175
     1
 42
1.0
 92
        8
 66
     7
 43
1.0
 76
     1
 77
     6
 78
     2
 67
     7
 79
     5
170
     0
171
     0
290
     0
174
     0
 93
        1
 44
-50.0
173
     0
291
     1
 45
0.0
1001
ACAD
1000
AcDbSavedByObjectVersion
1070
     0
  0
VISUALSTYLE
  5
39
102
{ACAD_REACTORS
330
2A
102
}
330
2A
100
AcDbVisualStyle
  2
Facepattern
 70
    15
 71
     2
 72
     2
 73
     0
 90
        0
 40
-0.6
 41
-30.0
 62
     5
 63
     7
421
 16777215
 74
     1
 91
        4
 64
     7
 65
   257
 75
     1
175
     1
 42
1.0
 92
        8
 66
     7
 43
1.0
 76
     1
 77
     6
 78
     2
 67
     7
 79
     5
170
     0
171
     0
290
     0
174
     0
 93
        1
 44
0.0
173
     0
291
     1
 45
0.0
1001
ACAD
1000
AcDbSavedByObjectVersion
1070
     0
  0
VISUALSTYLE
  5
2B
102
{ACAD_REACTORS
330
2A
102
}
330
2A
100
AcDbVisualStyle
  2
Flat
 70
     0
 71
     2
 72
     1
 73
     1
 90
        2
 40
-0.6
 41
30.0
 62
     5
 63
     7
421
 16777215
 74
     0
 91
        4
 64
     7
 65
   257
 75
     1
175
     1
 42
1.0
 92
        8
 66
     7
 43
1.0
 76
     1
 77
     6
 78
     2
 67
     7
 79
     5
170
     0
171
     0
290
     0
174
     0
 93
       13
 44
0.0
173
     0
291
     1
 45
0.0
1001
ACAD
1000
AcDbSavedByObjectVersion
1070
     0
  0
VISUALSTYLE
  5
2C
102
{ACAD_REACTORS
330
2A
102
}
330
2A
100
AcDbVisualStyle
  2
FlatWithEdges
 70
     1
 71
     2
 72
     1
 73
     1
 90
        2
 40
-0.6
 41
30.0
 62
     5
 63
     7
421
 16777215
 74
     1
 91
        4
 64
     7
 65
   257
 75
     1
175
     1
 42
1.0
 92
        0
 66
   257
 43
1.0
 76
     1
 77
     6
 78
     2
 67
     7
 79
     5
170
     0
171
     0
290
     0
174
     0
 93
       13
 44
0.0
173
     0
291
     1
 45
0.0
1001
ACAD
1000
AcDbSavedByObjectVersion
1070
     0
  0
VISUALSTYLE
  5
2D
102
{ACAD_REACTORS
330
2A
102
}
330
2A
100
AcDbVisualStyle
  2
Gouraud
 70
     2
 71
     2
 72
     2
 73
     1
 90
        2
 40
-0.6
 41
30.0
 62
     5
 63
     7
421
 16777215
 74
     0
 91
        4
 64
     7
 65
   257
 75
     1
175
     1
 42
1.0
 92
        0
 66
     7
 43
1.0
 76
     1
 77
     6
 78
     2
 67
     7
 79
     5
170
     0
171
     0
290
     0
174
     0
 93
       13
 44
0.0
173
     0
291
     1
 45
0.0
1001
ACAD
1000
AcDbSavedByObjectVersion
1070
     0
  0
VISUALSTYLE
  5
2E
102
{ACAD_REACTORS
330
2A
102
}
330
2A
100
AcDbVisualStyle
  2
GouraudWithEdges
 70
     3
 71
     2
 72
     2
 73
     1
 90
        2
 40
-0.6
 41
30.0
 62
     5
 63
     7
421
 16777215
 74
     1
 91
        4
 64
     7
 65
   257
 75
     1
175
     1
 42
1.0
 92
        0
 66
   257
 43
1.0
 76
     1
 77
     6
 78
     2
 67
     7
 79
     5
170
     0
171
     0
290
     0
174
     0
 93
       13
 44
0.0
173
     0
291
     1
 45
0.0
1001
ACAD
1000
AcDbSavedByObjectVersion
1070
     0
  0
VISUALSTYLE
  5
38
102
{ACAD_REACTORS
330
2A
102
}
330
2A
100
AcDbVisualStyle
  2
Linepattern
 70
    14
 71
     2
 72
     2
 73
     0
 90
        0
 40
-0.6
 41
-30.0
 62
     5
 63
     7
421
 16777215
 74
     1
 91
        4
 64
     7
 65
   257
 75
     7
175
     7
 42
1.0
 92
        8
 66
     7
 43
1.0
 76
     1
 77
     6
 78
     2
 67
     7
 79
     5
170
     0
171
     0
290
     0
174
     0
 93
        1
 44
0.0
173
     0
291
     1
 45
0.0
1001
ACAD
1000
AcDbSavedByObjectVersion
1070
     0
  0
VISUALSTYLE
  5
33
102
{ACAD_REACTORS
330
2A
102
}
330
2A
100
AcDbVisualStyle
  2
Realistic
 70
     8
 71
     2
 72
     2
 73
     0
 90
        0
 40
-0.6
 41
-30.0
 62
     5
 63
     7
421
 16777215
 74
     1
 91
        0
 64
     7
 65
   257
 75
     1
175
     1
 42
1.0
 92
        8
 66
     8
424
  7895160
 43
1.0
 76
     1
 77
     6
 78
     2
 67
     7
 79
     5
170
     0
171
     0
290
     0
174
     0
 93
       13
 44
0.0
173
     0
291
     0
 45
0.0
1001
ACAD
1000
AcDbSavedByObjectVersion
1070
     0
  0
VISUALSTYLE
  5
37
102
{ACAD_REACTORS
330
2A
102
}
330
2A
100
AcDbVisualStyle
  2
Thicken
 70
    13
 71
     2
 72
     2
 73
     0
 90
        0
 40
-0.6
 41
-30.0
 62
     5
 63
     7
421
 16777215
 74
     1
 91
        4
 64
     7
 65
   257
 75
     1
175
     1
 42
1.0
 92
       12
 66
     7
 43
1.0
 76
     1
 77
     6
 78
     2
 67
     7
 79
     5
170
     0
171
     0
290
     0
174
     0
 93
        1
 44
0.0
173
     0
291
     1
 45
0.0
1001
ACAD
1000
AcDbSavedByObjectVersion
1070
     0
  0
ENDSEC
  0
EOF
