  0
SECTION
  2
HEADER
  9
$ACADVER
  1
AC1027
  9
$ACADMAINTVER
 70
   105
  9
$DWGCODEPAGE
  3
ANSI_932
  9
$REQUIREDVERSIONS
160
                 0
  9
$INSBASE
 10
0.0
 20
0.0
 30
0.0
  9
$EXTMIN
 10
-1260.0
 20
-891.0
 30
0.0
  9
$EXTMAX
 10
1260.0
 20
891.0
 30
0.0
  9
$LIMMIN
 10
-1260.0
 20
-891.0
  9
$LIMMAX
 10
1260.0
 20
891.0
  9
$ORTHOMODE
 70
     0
  9
$REGENMODE
 70
     1
  9
$FILLMODE
 70
     1
  9
$QTEXTMODE
 70
     0
  9
$MIRRTEXT
 70
     1
  9
$LTSCALE
 40
6.0
  9
$ATTMODE
 70
     1
  9
$TEXTSIZE
 40
2.5
  9
$TRACEWID
 40
1.0
  9
$TEXTSTYLE
  7
Standard
  9
$CLAYER
  8
0
  9
$CELTYPE
  6
ByLayer
  9
$CECOLOR
 62
   256
  9
$CELTSCALE
 40
1.0
  9
$DISPSILH
 70
     0
  9
$DIMSCALE
 40
1.0
  9
$DIMASZ
 40
2.5
  9
$DIMEXO
 40
0.625
  9
$DIMDLI
 40
3.75
  9
$DIMRND
 40
0.0
  9
$DIMDLE
 40
0.0
  9
$DIMEXE
 40
1.25
  9
$DIMTP
 40
0.0
  9
$DIMTM
 40
0.0
  9
$DIMTXT
 40
2.5
  9
$DIMCEN
 40
2.5
  9
$DIMTSZ
 40
0.0
  9
$DIMTOL
 70
     0
  9
$DIMLIM
 70
     0
  9
$DIMTIH
 70
     0
  9
$DIMTOH
 70
     0
  9
$DIMSE1
 70
     0
  9
$DIMSE2
 70
     0
  9
$DIMTAD
 70
     1
  9
$DIMZIN
 70
     8
  9
$DIMBLK
  1

  9
$DIMASO
 70
     1
  9
$DIMSHO
 70
     1
  9
$DIMPOST
  1

  9
$DIMAPOST
  1

  9
$DIMALT
 70
     0
  9
$DIMALTD
 70
     3
  9
$DIMALTF
 40
0.03937007874016
  9
$DIMLFAC
 40
1.0
  9
$DIMTOFL
 70
     1
  9
$DIMTVP
 40
0.0
  9
$DIMTIX
 70
     0
  9
$DIMSOXD
 70
     0
  9
$DIMSAH
 70
     0
  9
$DIMBLK1
  1

  9
$DIMBLK2
  1

  9
$DIMSTYLE
  2
ISO-25
  9
$DIMCLRD
 70
     0
  9
$DIMCLRE
 70
     0
  9
$DIMCLRT
 70
     0
  9
$DIMTFAC
 40
1.0
  9
$DIMGAP
 40
0.625
  9
$DIMJUST
 70
     0
  9
$DIMSD1
 70
     0
  9
$DIMSD2
 70
     0
  9
$DIMTOLJ
 70
     0
  9
$DIMTZIN
 70
     8
  9
$DIMALTZ
 70
     0
  9
$DIMALTTZ
 70
     0
  9
$DIMUPT
 70
     0
  9
$DIMDEC
 70
     2
  9
$DIMTDEC
 70
     2
  9
$DIMALTU
 70
     2
  9
$DIMALTTD
 70
     3
  9
$DIMTXSTY
  7
Standard
  9
$DIMAUNIT
 70
     0
  9
$DIMADEC
 70
     0
  9
$DIMALTRND
 40
0.0
  9
$DIMAZIN
 70
     0
  9
$DIMDSEP
 70
    44
  9
$DIMATFIT
 70
     3
  9
$DIMFRAC
 70
     0
  9
$DIMLDRBLK
  1

  9
$DIMLUNIT
 70
     2
  9
$DIMLWD
 70
    -2
  9
$DIMLWE
 70
    -2
  9
$DIMTMOVE
 70
     0
  9
$DIMFXL
 40
1.0
  9
$DIMFXLON
 70
     0
  9
$DIMJOGANG
 40
0.7853981633974483
  9
$DIMTFILL
 70
     0
  9
$DIMTFILLCLR
 70
     0
  9
$DIMARCSYM
 70
     0
  9
$DIMLTYPE
  6

  9
$DIMLTEX1
  6

  9
$DIMLTEX2
  6

  9
$DIMTXTDIRECTION
 70
     0
  9
$LUNITS
 70
     2
  9
$LUPREC
 70
     4
  9
$SKETCHINC
 40
1.0
  9
$FILLETRAD
 40
10.0
  9
$AUNITS
 70
     0
  9
$AUPREC
 70
     0
  9
$MENU
  1
.
  9
$ELEVATION
 40
0.0
  9
$PELEVATION
 40
0.0
  9
$THICKNESS
 40
0.0
  9
$LIMCHECK
 70
     0
  9
$CHAMFERA
 40
0.0
  9
$CHAMFERB
 40
0.0
  9
$CHAMFERC
 40
0.0
  9
$CHAMFERD
 40
0.0
  9
$SKPOLY
 70
     0
  9
$TDCREATE
 40
2458843.383663484
  9
$TDUCREATE
 40
2458843.008663484
  9
$TDUPDATE
 40
2458843.383663658
  9
$TDUUPDATE
 40
2458843.008663658
  9
$TDINDWG
 40
0.0000000116
  9
$TDUSRTIMER
 40
0.0000000116
  9
$USRTIMER
 70
     1
  9
$ANGBASE
 50
0.0
  9
$ANGDIR
 70
     0
  9
$PDMODE
 70
     0
  9
$PDSIZE
 40
0.0
  9
$PLINEWID
 40
0.0
  9
$SPLFRAME
 70
     0
  9
$SPLINETYPE
 70
     6
  9
$SPLINESEGS
 70
     8
  9
$HANDSEED
  5
1DC
  9
$SURFTAB1
 70
     6
  9
$SURFTAB2
 70
     6
  9
$SURFTYPE
 70
     6
  9
$SURFU
 70
     6
  9
$SURFV
 70
     6
  9
$UCSBASE
  2

  9
$UCSNAME
  2

  9
$UCSORG
 10
0.0
 20
0.0
 30
0.0
  9
$UCSXDIR
 10
1.0
 20
0.0
 30
0.0
  9
$UCSYDIR
 10
0.0
 20
1.0
 30
0.0
  9
$UCSORTHOREF
  2

  9
$UCSORTHOVIEW
 70
     0
  9
$UCSORGTOP
 10
0.0
 20
0.0
 30
0.0
  9
$UCSORGBOTTOM
 10
0.0
 20
0.0
 30
0.0
  9
$UCSORGLEFT
 10
0.0
 20
0.0
 30
0.0
  9
$UCSORGRIGHT
 10
0.0
 20
0.0
 30
0.0
  9
$UCSORGFRONT
 10
0.0
 20
0.0
 30
0.0
  9
$UCSORGBACK
 10
0.0
 20
0.0
 30
0.0
  9
$PUCSBASE
  2

  9
$PUCSNAME
  2

  9
$PUCSORG
 10
0.0
 20
0.0
 30
0.0
  9
$PUCSXDIR
 10
1.0
 20
0.0
 30
0.0
  9
$PUCSYDIR
 10
0.0
 20
1.0
 30
0.0
  9
$PUCSORTHOREF
  2

  9
$PUCSORTHOVIEW
 70
     0
  9
$PUCSORGTOP
 10
0.0
 20
0.0
 30
0.0
  9
$PUCSORGBOTTOM
 10
0.0
 20
0.0
 30
0.0
  9
$PUCSORGLEFT
 10
0.0
 20
0.0
 30
0.0
  9
$PUCSORGRIGHT
 10
0.0
 20
0.0
 30
0.0
  9
$PUCSORGFRONT
 10
0.0
 20
0.0
 30
0.0
  9
$PUCSORGBACK
 10
0.0
 20
0.0
 30
0.0
  9
$USERI1
 70
     0
  9
$USERI2
 70
     0
  9
$USERI3
 70
     0
  9
$USERI4
 70
     0
  9
$USERI5
 70
     0
  9
$USERR1
 40
0.0
  9
$USERR2
 40
0.0
  9
$USERR3
 40
0.0
  9
$USERR4
 40
0.0
  9
$USERR5
 40
0.0
  9
$WORLDVIEW
 70
     1
  9
$SHADEDGE
 70
     3
  9
$SHADEDIF
 70
    70
  9
$TILEMODE
 70
     1
  9
$MAXACTVP
 70
    64
  9
$PINSBASE
 10
0.0
 20
0.0
 30
0.0
  9
$PLIMCHECK
 70
     0
  9
$PEXTMIN
 10
1.000000000000000E+20
 20
1.000000000000000E+20
 30
1.000000000000000E+20
  9
$PEXTMAX
 10
-1.000000000000000E+20
 20
-1.000000000000000E+20
 30
-1.000000000000000E+20
  9
$PLIMMIN
 10
0.0
 20
0.0
  9
$PLIMMAX
 10
420.0
 20
297.0
  9
$UNITMODE
 70
     0
  9
$VISRETAIN
 70
     1
  9
$PLINEGEN
 70
     0
  9
$PSLTSCALE
 70
     1
  9
$TREEDEPTH
 70
  3020
  9
$CMLSTYLE
  2
Standard
  9
$CMLJUST
 70
     0
  9
$CMLSCALE
 40
20.0
  9
$PROXYGRAPHICS
 70
     1
  9
$MEASUREMENT
 70
     1
  9
$CELWEIGHT
370
    -1
  9
$ENDCAPS
280
     0
  9
$JOINSTYLE
280
     0
  9
$LWDISPLAY
290
     0
  9
$INSUNITS
 70
     4
  9
$HYPERLINKBASE
  1

  9
$STYLESHEET
  1

  9
$XEDIT
290
     1
  9
$CEPSNTYPE
380
     0
  9
$PSTYLEMODE
290
     1
  9
$FINGERPRINTGUID
  2
{557F0229-03E7-4A1D-8327-1B3FC75AF91B}
  9
$VERSIONGUID
  2
{FAEB1C32-E019-11D5-929B-00C0DF256EC4}
  9
$EXTNAMES
290
     1
  9
$PSVPSCALE
 40
0.0
  9
$OLESTARTUP
290
     0
  9
$SORTENTS
280
   127
  9
$INDEXCTL
280
     0
  9
$HIDETEXT
280
     1
  9
$XCLIPFRAME
280
     2
  9
$HALOGAP
280
     0
  9
$OBSCOLOR
 70
   257
  9
$OBSLTYPE
280
     0
  9
$INTERSECTIONDISPLAY
280
     0
  9
$INTERSECTIONCOLOR
 70
   257
  9
$DIMASSOC
280
     2
  9
$PROJECTNAME
  1

  9
$CAMERADISPLAY
290
     0
  9
$LENSLENGTH
 40
50.0
  9
$CAMERAHEIGHT
 40
0.0
  9
$STEPSPERSEC
 40
2.0
  9
$STEPSIZE
 40
6.0
  9
$3DDWFPREC
 40
2.0
  9
$PSOLWIDTH
 40
5.0
  9
$PSOLHEIGHT
 40
80.0
  9
$LOFTANG1
 40
1.570796326794897
  9
$LOFTANG2
 40
1.570796326794897
  9
$LOFTMAG1
 40
0.0
  9
$LOFTMAG2
 40
0.0
  9
$LOFTPARAM
 70
     7
  9
$LOFTNORMALS
280
     1
  9
$LATITUDE
 40
37.795
  9
$LONGITUDE
 40
-122.394
  9
$NORTHDIRECTION
 40
0.0
  9
$TIMEZONE
 70
 -8000
  9
$LIGHTGLYPHDISPLAY
280
     1
  9
$TILEMODELIGHTSYNCH
280
     1
  9
$CMATERIAL
347
44
  9
$SOLIDHIST
280
     0
  9
$SHOWHIST
280
     1
  9
$DWFFRAME
280
     2
  9
$DGNFRAME
280
     2
  9
$REALWORLDSCALE
290
     1
  9
$INTERFERECOLOR
 62
   256
  9
$CSHADOW
280
     0
  9
$SHADOWPLANELOCATION
 40
0.0
  0
ENDSEC
  0
SECTION
  2
CLASSES
  0
CLASS
  1
ACDBDICTIONARYWDFLT
  2
AcDbDictionaryWithDefault
  3
ObjectDBX Classes
 90
        0
 91
        4
280
     0
281
     0
  0
CLASS
  1
VISUALSTYLE
  2
AcDbVisualStyle
  3
ObjectDBX Classes
 90
     4095
 91
        4
280
     0
281
     0
  0
CLASS
  1
MATERIAL
  2
AcDbMaterial
  3
ObjectDBX Classes
 90
     1153
 91
        4
280
     0
281
     0
  0
CLASS
  1
SCALE
  2
AcDbScale
  3
ObjectDBX Classes
 90
     1153
 91
        4
280
     0
281
     0
  0
CLASS
  1
TABLESTYLE
  2
AcDbTableStyle
  3
ObjectDBX Classes
 90
     4095
 91
        4
280
     0
281
     0
  0
CLASS
  1
MLEADERSTYLE
  2
AcDbMLeaderStyle
  3
ACDB_MLEADERSTYLE_CLASS
 90
     4095
 91
        4
280
     0
281
     0
  0
CLASS
  1
SUN
  2
AcDbSun
  3
SCENEOE
 90
     1153
 91
        4
280
     0
281
     0
  0
CLASS
  1
DICTIONARYVAR
  2
AcDbDictionaryVar
  3
ObjectDBX Classes
 90
        0
 91
        4
280
     0
281
     0
  0
CLASS
  1
CELLSTYLEMAP
  2
AcDbCellStyleMap
  3
ObjectDBX Classes
 90
     1152
 91
        4
280
     0
281
     0
  0
ENDSEC
  0
SECTION
  2
TABLES
  0
TABLE
  2
VPORT
  5
8
330
0
100
AcDbSymbolTable
 70
     1
  0
VPORT
  5
29
330
8
100
AcDbSymbolTableRecord
100
AcDbViewportTableRecord
  2
*Active
 70
     0
 10
0.0
 20
0.0
 11
1.0
 21
1.0
 12
0.0
 22
0.0
 13
0.0
 23
0.0
 14
10.0
 24
10.0
 15
10.0
 25
10.0
 16
0.0
 26
0.0
 36
1.0
 17
0.0
 27
0.0
 37
0.0
 40
1960.2
 41
1.414141414141414
 42
50.0
 43
0.0
 44
0.0
 50
0.0
 51
0.0
 71
     0
 72
 10000
 73
     1
 74
     3
 75
     0
 76
     0
 77
     0
 78
     0
281
     0
 65
     1
110
0.0
120
0.0
130
0.0
111
1.0
121
0.0
131
0.0
112
0.0
122
1.0
132
0.0
 79
     0
146
0.0
348
2F
 60
     3
 61
     5
292
     1
282
     1
141
0.0
142
0.0
 63
   250
361
6D
  0
ENDTAB
  0
TABLE
  2
LTYPE
  5
5
330
0
100
AcDbSymbolTable
 70
     5
  0
LTYPE
  5
14
330
5
100
AcDbSymbolTableRecord
100
AcDbLinetypeTableRecord
  2
ByBlock
 70
     0
  3

 72
    65
 73
     0
 40
0.0
  0
LTYPE
  5
15
330
5
100
AcDbSymbolTableRecord
100
AcDbLinetypeTableRecord
  2
ByLayer
 70
     0
  3

 72
    65
 73
     0
 40
0.0
  0
LTYPE
  5
16
330
5
100
AcDbSymbolTableRecord
100
AcDbLinetypeTableRecord
  2
Continuous
 70
     0
  3
Solid line
 72
    65
 73
     0
 40
0.0
  0
LTYPE
  5
6F
330
5
100
AcDbSymbolTableRecord
100
AcDbLinetypeTableRecord
  2
JWW_CENTER2
 70
     0
  3
-------------  --  -------------
 72
    65
 73
     4
 40
13.54666666666667
 49
11.00666666666667
 74
     0
 49
-0.8466666666666667
 74
     0
 49
0.8466666666666667
 74
     0
 49
-0.8466666666666667
 74
     0
  0
LTYPE
  5
70
330
5
100
AcDbSymbolTableRecord
100
AcDbLinetypeTableRecord
  2
JWW_CENTER1
 70
     0
  3
-----  --  ----------  --  -----
 72
    65
 73
     4
 40
6.773333333333333
 49
4.233333333333333
 74
     0
 49
-0.8466666666666667
 74
     0
 49
0.8466666666666667
 74
     0
 49
-0.8466666666666667
 74
     0
  0
LTYPE
  5
71
330
5
100
AcDbSymbolTableRecord
100
AcDbLinetypeTableRecord
  2
JWW_DASHED1
 70
     0
  3
-  --  --  --  --  --  --  --  -
 72
    65
 73
     2
 40
1.693333333333333
 49
0.8466666666666667
 74
     0
 49
-0.8466666666666667
 74
     0
  0
LTYPE
  5
72
330
5
100
AcDbSymbolTableRecord
100
AcDbLinetypeTableRecord
  2
JWW_DASHED2
 70
     0
  3
--    ----    ----    ----    --
 72
    65
 73
     2
 40
3.386666666666667
 49
1.693333333333333
 74
     0
 49
-1.693333333333333
 74
     0
  0
ENDTAB
  0
TABLE
  2
LAYER
  5
2
330
0
100
AcDbSymbolTable
 70
    14
  0
LAYER
  5
10
330
2
100
AcDbSymbolTableRecord
100
AcDbLayerTableRecord
  2
0
 70
     0
 62
     7
  6
Continuous
370
    -3
390
F
347
46
348
0
  0
LAYER
  5
73
330
2
100
AcDbSymbolTableRecord
100
AcDbLayerTableRecord
  2
A-4_文字
 70
     0
 62
     7
  6
Continuous
370
    -3
390
F
347
46
348
0
  0
LAYER
  5
74
330
2
100
AcDbSymbolTableRecord
100
AcDbLayerTableRecord
  2
A-0_通り芯
 70
     0
 62
     7
  6
Continuous
370
    -3
390
F
347
46
348
0
  0
LAYER
  5
75
330
2
100
AcDbSymbolTableRecord
100
AcDbLayerTableRecord
  2
A-5_建具
 70
     0
 62
     7
  6
Continuous
370
    -3
390
F
347
46
348
0
  0
LAYER
  5
76
330
2
100
AcDbSymbolTableRecord
100
AcDbLayerTableRecord
  2
A-A_インテリア
 70
     0
 62
     7
  6
Continuous
370
    -3
390
F
347
46
348
0
  0
LAYER
  5
77
330
2
100
AcDbSymbolTableRecord
100
AcDbLayerTableRecord
  2
D-4_文字
 70
     0
 62
     7
  6
Continuous
370
    -3
390
F
347
46
348
0
  0
LAYER
  5
78
330
2
100
AcDbSymbolTableRecord
100
AcDbLayerTableRecord
  2
D-0_通り芯
 70
     0
 62
     7
  6
Continuous
370
    -3
390
F
347
46
348
0
  0
LAYER
  5
79
330
2
100
AcDbSymbolTableRecord
100
AcDbLayerTableRecord
  2
D-5_建具
 70
     0
 62
     7
  6
Continuous
370
    -3
390
F
347
46
348
0
  0
LAYER
  5
7A
330
2
100
AcDbSymbolTableRecord
100
AcDbLayerTableRecord
  2
A-B_衛生陶器
 70
     0
 62
     7
  6
Continuous
370
    -3
390
F
347
46
348
0
  0
LAYER
  5
7B
330
2
100
AcDbSymbolTableRecord
100
AcDbLayerTableRecord
  2
A-2_仕上
 70
     0
 62
     7
  6
Continuous
370
    -3
390
F
347
46
348
0
  0
LAYER
  5
7C
330
2
100
AcDbSymbolTableRecord
100
AcDbLayerTableRecord
  2
A-6_間仕切
 70
     0
 62
     7
  6
Continuous
370
    -3
390
F
347
46
348
0
  0
LAYER
  5
7D
330
2
100
AcDbSymbolTableRecord
100
AcDbLayerTableRecord
  2
D-2_仕上
 70
     0
 62
     7
  6
Continuous
370
    -3
390
F
347
46
348
0
  0
LAYER
  5
7E
330
2
100
AcDbSymbolTableRecord
100
AcDbLayerTableRecord
  2
D-A_インテリア
 70
     0
 62
     7
  6
Continuous
370
    -3
390
F
347
46
348
0
  0
LAYER
  5
7F
330
2
100
AcDbSymbolTableRecord
100
AcDbLayerTableRecord
  2
F-5ﾚｲﾔ
 70
     0
 62
     7
  6
Continuous
370
    -3
390
F
347
46
348
0
  0
ENDTAB
  0
TABLE
  2
STYLE
  5
3
330
0
100
AcDbSymbolTable
 70
     2
  0
STYLE
  5
11
330
3
100
AcDbSymbolTableRecord
100
AcDbTextStyleTableRecord
  2
Standard
 70
     0
 40
0.0
 41
1.0
 50
0.0
 71
     0
 42
2.5
  3
txt
  4

  0
STYLE
  5
6E
330
3
100
AcDbSymbolTableRecord
100
AcDbTextStyleTableRecord
  2
ＭＳ ゴシック
 70
     0
 40
1.0
 41
1.0
 50
0.0
 71
     0
 42
2.5
  3

  4

1001
ACAD
1000
MS Gothic
1071
    32817
  0
ENDTAB
  0
TABLE
  2
VIEW
  5
6
330
0
100
AcDbSymbolTable
 70
     0
  0
ENDTAB
  0
TABLE
  2
UCS
  5
7
330
0
100
AcDbSymbolTable
 70
     0
  0
ENDTAB
  0
TABLE
  2
APPID
  5
9
330
0
100
AcDbSymbolTable
 70
     1
  0
APPID
  5
12
330
9
100
AcDbSymbolTableRecord
100
AcDbRegAppTableRecord
  2
ACAD
 70
     0
  0
ENDTAB
  0
TABLE
  2
DIMSTYLE
  5
A
330
0
100
AcDbSymbolTable
 70
     1
100
AcDbDimStyleTable
  0
DIMSTYLE
105
27
330
A
100
AcDbSymbolTableRecord
100
AcDbDimStyleTableRecord
  2
ISO-25
 70
     0
 41
2.5
 42
0.625
 43
3.75
 44
1.25
 73
     0
 74
     0
 77
     1
 78
     8
140
2.5
141
2.5
143
0.03937007874016
147
0.625
171
     3
172
     1
178
     0
271
     2
272
     2
274
     3
278
    44
283
     0
284
     8
340
11
  0
ENDTAB
  0
TABLE
  2
BLOCK_RECORD
  5
1
330
0
100
AcDbSymbolTable
 70
     1
  0
BLOCK_RECORD
  5
1F
330
1
100
AcDbSymbolTableRecord
100
AcDbBlockTableRecord
  2
*Model_Space
340
22
 70
     0
280
     1
281
     0
  0
BLOCK_RECORD
  5
1B
330
1
100
AcDbSymbolTableRecord
100
AcDbBlockTableRecord
  2
*Paper_Space
340
1E
 70
     0
280
     1
281
     0
  0
BLOCK_RECORD
  5
23
330
1
100
AcDbSymbolTableRecord
100
AcDbBlockTableRecord
  2
*Paper_Space0
340
26
 70
     0
280
     1
281
     0
  0
ENDTAB
  0
ENDSEC
  0
SECTION
  2
BLOCKS
  0
BLOCK
  5
20
330
1F
100
AcDbEntity
  8
0
100
AcDbBlockBegin
  2
*Model_Space
 70
     0
 10
0.0
 20
0.0
 30
0.0
  3
*Model_Space
  1

  0
ENDBLK
  5
21
330
1F
100
AcDbEntity
  8
0
100
AcDbBlockEnd
  0
BLOCK
  5
1C
330
1B
100
AcDbEntity
 67
     1
  8
0
100
AcDbBlockBegin
  2
*Paper_Space
 70
     0
 10
0.0
 20
0.0
 30
0.0
  3
*Paper_Space
  1

  0
ENDBLK
  5
1D
330
1B
100
AcDbEntity
 67
     1
  8
0
100
AcDbBlockEnd
  0
BLOCK
  5
24
330
23
100
AcDbEntity
  8
0
100
AcDbBlockBegin
  2
*Paper_Space0
 70
     0
 10
0.0
 20
0.0
 30
0.0
  3
*Paper_Space0
  1

  0
ENDBLK
  5
25
330
23
100
AcDbEntity
  8
0
100
AcDbBlockEnd
  0
ENDSEC
  0
SECTION
  2
ENTITIES
  0
LWPOLYLINE
  5
80
330
1F
100
AcDbEntity
  8
A-4_文字
  6
Continuous
 62
     7
370
     9
100
AcDbPolyline
 90
        4
 70
     1
 43
1.2
 10
-846.360571969537
 20
506.600427277104
 42
0.4142135623731
 10
-846.9605719695369
 20
507.2004272771039
 42
0.4142135623731
 10
-847.5605719695368
 20
506.600427277104
 42
0.4142135623731
 10
-846.9605719695369
 20
506.000427277104
 42
0.4142135623731
  0
LWPOLYLINE
  5
81
330
1F
100
AcDbEntity
  8
A-4_文字
  6
Continuous
 62
     7
370
     9
100
AcDbPolyline
 90
        4
 70
     1
 43
1.2
 10
-733.4549609206753
 20
342.483296493792
 42
0.4142135623731
 10
-734.0549609206753
 20
343.083296493792
 42
0.4142135623731
 10
-734.6549609206752
 20
342.483296493792
 42
0.4142135623731
 10
-734.0549609206753
 20
341.8832964937919
 42
0.4142135623731
  0
LWPOLYLINE
  5
82
330
1F
100
AcDbEntity
  8
A-4_文字
  6
Continuous
 62
     7
370
     9
100
AcDbPolyline
 90
        4
 70
     1
 43
1.2
 10
-672.954934527094
 20
342.483296493792
 42
0.4142135623731
 10
-673.554934527094
 20
343.083296493792
 42
0.4142135623731
 10
-674.1549345270939
 20
342.483296493792
 42
0.4142135623731
 10
-673.554934527094
 20
341.8832964937919
 42
0.4142135623731
  0
LINE
  5
83
330
1F
100
AcDbEntity
  8
A-4_文字
  6
Continuous
 62
     7
370
     9
100
AcDbLine
 10
-734.0549609206753
 20
345.483296493792
 30
0.0
 11
-734.0549609206753
 21
290.8271189755455
 31
0.0
  0
LINE
  5
84
330
1F
100
AcDbEntity
  8
A-4_文字
  6
Continuous
 62
     7
370
     9
100
AcDbLine
 10
-673.554934527094
 20
345.483296493792
 30
0.0
 11
-673.554934527094
 21
290.8271189755455
 31
0.0
  0
LINE
  5
85
330
1F
100
AcDbEntity
  8
A-0_通り芯
  6
JWW_CENTER2
 62
     7
370
     9
100
AcDbLine
 10
-703.8049477238847
 20
319.1858826522299
 30
0.0
 11
-703.8049477238847
 21
-580.98265586779
 31
0.0
  0
LINE
  5
86
330
1F
100
AcDbEntity
  8
A-4_文字
  6
Continuous
 62
     7
370
     9
100
AcDbLine
 10
-734.0549609206753
 20
342.483296493792
 30
0.0
 11
-673.554934527094
 21
342.483296493792
 31
0.0
  0
TEXT
  5
87
330
1F
100
AcDbEntity
  8
A-4_文字
  6
Continuous
 62
     2
370
   211
100
AcDbText
 10
-743.5549477238847
 20
349.4672964937918
 30
0.0
 40
18.288
  1
φ60.5
 41
1.104166666666667
  7
ＭＳ ゴシック
100
AcDbText
  0
TEXT
  5
88
330
1F
100
AcDbEntity
  8
A-5_建具
  6
Continuous
 62
     2
370
     9
100
AcDbText
 10
-404.1191969320639
 20
-552.4307359473265
 30
0.0
 40
18.288
  1
▽G.L.
 41
1.104166666666667
  7
ＭＳ ゴシック
100
AcDbText
  0
LINE
  5
89
330
1F
100
AcDbEntity
  8
A-A_インテリア
  6
JWW_CENTER1
 62
     7
370
     9
100
AcDbLine
 10
-753.804947270552
 20
520.100427154704
 30
0.0
 11
-753.804947270552
 21
493.1004273995034
 31
0.0
  0
LINE
  5
8A
330
1F
100
AcDbEntity
  8
A-A_インテリア
  6
JWW_CENTER1
 62
     7
370
     9
100
AcDbLine
 10
-767.3049471481525
 20
506.6004272771036
 30
0.0
 11
-740.3049473929522
 21
506.6004272771036
 31
0.0
  0
LINE
  5
8B
330
1F
100
AcDbEntity
  8
A-A_インテリア
  6
JWW_CENTER1
 62
     7
370
     9
100
AcDbLine
 10
-753.804947270552
 20
620.1004262480392
 30
0.0
 11
-753.804947270552
 21
593.1004264928387
 31
0.0
  0
LINE
  5
8C
330
1F
100
AcDbEntity
  8
A-A_インテリア
  6
JWW_CENTER1
 62
     7
370
     9
100
AcDbLine
 10
-767.3049471481525
 20
606.6004263704392
 30
0.0
 11
-740.3049473929522
 21
606.6004263704392
 31
0.0
  0
LINE
  5
8D
330
1F
100
AcDbEntity
  8
A-A_インテリア
  6
JWW_CENTER1
 62
     7
370
     9
100
AcDbLine
 10
-653.8049481772166
 20
520.100427154704
 30
0.0
 11
-653.8049481772166
 21
493.1004273995034
 31
0.0
  0
LINE
  5
8E
330
1F
100
AcDbEntity
  8
A-A_インテリア
  6
JWW_CENTER1
 62
     7
370
     9
100
AcDbLine
 10
-667.3049480548169
 20
506.6004272771036
 30
0.0
 11
-640.3049482996166
 21
506.6004272771036
 31
0.0
  0
LINE
  5
8F
330
1F
100
AcDbEntity
  8
A-A_インテリア
  6
JWW_CENTER1
 62
     7
370
     9
100
AcDbLine
 10
-653.8049481772166
 20
620.1004262480392
 30
0.0
 11
-653.8049481772166
 21
593.1004264928387
 31
0.0
  0
LINE
  5
90
330
1F
100
AcDbEntity
  8
A-A_インテリア
  6
JWW_CENTER1
 62
     7
370
     9
100
AcDbLine
 10
-667.3049480548169
 20
606.6004263704392
 30
0.0
 11
-640.3049482996166
 21
606.6004263704392
 31
0.0
  0
LINE
  5
91
330
1F
100
AcDbEntity
  8
A-0_通り芯
  6
JWW_CENTER2
 62
     7
370
     9
100
AcDbLine
 10
-703.8049477238847
 20
471.1651369753125
 30
0.0
 11
-703.8049477238847
 21
642.123623486134
 31
0.0
  0
LINE
  5
92
330
1F
100
AcDbEntity
  8
A-0_通り芯
  6
JWW_CENTER2
 62
     7
370
     9
100
AcDbLine
 10
-791.7780928247018
 20
556.6004268237714
 30
0.0
 11
-615.7489654081936
 21
556.6004268237714
 31
0.0
  0
LINE
  5
93
330
1F
100
AcDbEntity
  8
A-4_文字
  6
Continuous
 62
     7
370
     9
100
AcDbLine
 10
-778.8049470438862
 20
748.7213065438762
 30
0.0
 11
-628.804948403883
 21
748.7213065438762
 31
0.0
  0
LWPOLYLINE
  5
94
330
1F
100
AcDbEntity
  8
A-4_文字
  6
Continuous
 62
     7
370
     9
100
AcDbPolyline
 90
        4
 70
     1
 43
1.2
 10
-778.2049470438862
 20
748.7213065438762
 42
0.4142135623731
 10
-778.8049470438862
 20
749.3213065438761
 42
0.4142135623731
 10
-779.4049470438861
 20
748.7213065438762
 42
0.4142135623731
 10
-778.8049470438862
 20
748.1213065438762
 42
0.4142135623731
  0
LWPOLYLINE
  5
95
330
1F
100
AcDbEntity
  8
A-4_文字
  6
Continuous
 62
     7
370
     9
100
AcDbPolyline
 90
        4
 70
     1
 43
1.2
 10
-628.204948403883
 20
748.7213065438762
 42
0.4142135623731
 10
-628.804948403883
 20
749.3213065438761
 42
0.4142135623731
 10
-629.404948403883
 20
748.7213065438762
 42
0.4142135623731
 10
-628.804948403883
 20
748.1213065438762
 42
0.4142135623731
  0
LINE
  5
96
330
1F
100
AcDbEntity
  8
A-4_文字
  6
Continuous
 62
     7
370
     9
100
AcDbLine
 10
-778.8049470438862
 20
750.5213065438762
 30
0.0
 11
-778.8049470438862
 21
643.6004261437729
 31
0.0
  0
LINE
  5
97
330
1F
100
AcDbEntity
  8
A-4_文字
  6
Continuous
 62
     7
370
     9
100
AcDbLine
 10
-628.804948403883
 20
750.5213065438762
 30
0.0
 11
-628.804948403883
 21
643.6004261437729
 31
0.0
  0
TEXT
  5
98
330
1F
100
AcDbEntity
  8
A-4_文字
  6
Continuous
 62
     2
370
   211
100
AcDbText
 10
-723.3049477238847
 20
755.7053065438761
 30
0.0
 40
18.288
  1
150
 41
1.083333333333333
  7
ＭＳ ゴシック
100
AcDbText
  0
LINE
  5
99
330
1F
100
AcDbEntity
  8
A-4_文字
  6
Continuous
 62
     7
370
     9
100
AcDbLine
 10
-753.804947270552
 20
699.7560510694236
 30
0.0
 11
-653.8049481772166
 21
699.7560510694236
 31
0.0
  0
LWPOLYLINE
  5
9A
330
1F
100
AcDbEntity
  8
A-4_文字
  6
Continuous
 62
     7
370
     9
100
AcDbPolyline
 90
        4
 70
     1
 43
1.2
 10
-753.2049472705521
 20
699.7560510694236
 42
0.4142135623731
 10
-753.804947270552
 20
700.3560510694235
 42
0.4142135623731
 10
-754.404947270552
 20
699.7560510694236
 42
0.4142135623731
 10
-753.804947270552
 20
699.1560510694237
 42
0.4142135623731
  0
LWPOLYLINE
  5
9B
330
1F
100
AcDbEntity
  8
A-4_文字
  6
Continuous
 62
     7
370
     9
100
AcDbPolyline
 90
        4
 70
     1
 43
1.2
 10
-653.2049481772166
 20
699.7560510694236
 42
0.4142135623731
 10
-653.8049481772166
 20
700.3560510694235
 42
0.4142135623731
 10
-654.4049481772165
 20
699.7560510694236
 42
0.4142135623731
 10
-653.8049481772166
 20
699.1560510694237
 42
0.4142135623731
  0
TEXT
  5
9C
330
1F
100
AcDbEntity
  8
A-4_文字
  6
Continuous
 62
     2
370
   211
100
AcDbText
 10
-723.3049477238842
 20
706.7400510694235
 30
0.0
 40
18.288
  1
100
 41
1.083333333333333
  7
ＭＳ ゴシック
100
AcDbText
  0
LINE
  5
9D
330
1F
100
AcDbEntity
  8
A-4_文字
  6
Continuous
 62
     7
370
     9
100
AcDbLine
 10
-753.804947270552
 20
701.5560510694237
 30
0.0
 11
-753.804947270552
 21
643.6004261437729
 31
0.0
  0
LINE
  5
9E
330
1F
100
AcDbEntity
  8
A-4_文字
  6
Continuous
 62
     7
370
     9
100
AcDbLine
 10
-653.8049481772166
 20
701.5560510694237
 30
0.0
 11
-653.8049481772166
 21
643.6004261437729
 31
0.0
  0
LINE
  5
9F
330
1F
100
AcDbEntity
  8
A-4_文字
  6
Continuous
 62
     7
370
     9
100
AcDbLine
 10
-895.9258274439894
 20
481.6004275037698
 30
0.0
 11
-895.9258274439894
 21
631.6004261437729
 31
0.0
  0
LWPOLYLINE
  5
A0
330
1F
100
AcDbEntity
  8
A-4_文字
  6
Continuous
 62
     7
370
     9
100
AcDbPolyline
 90
        4
 70
     1
 43
1.2
 10
-895.3258274439895
 20
481.6004275037698
 42
0.4142135623731
 10
-895.9258274439894
 20
482.2004275037697
 42
0.4142135623731
 10
-896.5258274439893
 20
481.6004275037698
 42
0.4142135623731
 10
-895.9258274439894
 20
481.0004275037698
 42
0.4142135623731
  0
LWPOLYLINE
  5
A1
330
1F
100
AcDbEntity
  8
A-4_文字
  6
Continuous
 62
     7
370
     9
100
AcDbPolyline
 90
        4
 70
     1
 43
1.2
 10
-895.3258274439895
 20
631.6004261437729
 42
0.4142135623731
 10
-895.9258274439894
 20
632.2004261437728
 42
0.4142135623731
 10
-896.5258274439893
 20
631.6004261437729
 42
0.4142135623731
 10
-895.9258274439894
 20
631.000426143773
 42
0.4142135623731
  0
LINE
  5
A2
330
1F
100
AcDbEntity
  8
A-4_文字
  6
Continuous
 62
     7
370
     9
100
AcDbLine
 10
-897.7258274439895
 20
481.6004275037698
 30
0.0
 11
-790.8049470438862
 21
481.6004275037698
 31
0.0
  0
LINE
  5
A3
330
1F
100
AcDbEntity
  8
A-4_文字
  6
Continuous
 62
     7
370
     9
100
AcDbLine
 10
-897.7258274439895
 20
631.6004261437729
 30
0.0
 11
-790.8049470438862
 21
631.6004261437729
 31
0.0
  0
TEXT
  5
A4
330
1F
100
AcDbEntity
  8
A-4_文字
  6
Continuous
 62
     2
370
   211
100
AcDbText
 10
-902.9098274439892
 20
537.1004268237714
 30
0.0
 40
18.288
  1
150
 50
90.0
 41
1.083333333333333
  7
ＭＳ ゴシック
100
AcDbText
  0
LINE
  5
A5
330
1F
100
AcDbEntity
  8
A-4_文字
  6
Continuous
 62
     7
370
     9
100
AcDbLine
 10
-846.9605719695369
 20
506.600427277104
 30
0.0
 11
-846.9605719695369
 21
606.6004263704395
 31
0.0
  0
LWPOLYLINE
  5
A6
330
1F
100
AcDbEntity
  8
A-4_文字
  6
Continuous
 62
     7
370
     9
100
AcDbPolyline
 90
        4
 70
     1
 43
1.2
 10
-846.360571969537
 20
606.6004263704395
 42
0.4142135623731
 10
-846.9605719695369
 20
607.2004263704396
 42
0.4142135623731
 10
-847.5605719695368
 20
606.6004263704395
 42
0.4142135623731
 10
-846.9605719695369
 20
606.0004263704395
 42
0.4142135623731
  0
TEXT
  5
A7
330
1F
100
AcDbEntity
  8
A-4_文字
  6
Continuous
 62
     2
370
   211
100
AcDbText
 10
-853.9445719695367
 20
537.1004268237716
 30
0.0
 40
18.288
  1
100
 50
90.0
 41
1.083333333333333
  7
ＭＳ ゴシック
100
AcDbText
  0
LINE
  5
A8
330
1F
100
AcDbEntity
  8
A-4_文字
  6
Continuous
 62
     7
370
     9
100
AcDbLine
 10
-848.760571969537
 20
506.600427277104
 30
0.0
 11
-790.8049470438862
 21
506.600427277104
 31
0.0
  0
LINE
  5
A9
330
1F
100
AcDbEntity
  8
A-4_文字
  6
Continuous
 62
     7
370
     9
100
AcDbLine
 10
-848.760571969537
 20
606.6004263704395
 30
0.0
 11
-790.8049470438862
 21
606.6004263704395
 31
0.0
  0
LWPOLYLINE
  5
AA
330
1F
100
AcDbEntity
  8
A-4_文字
  6
Continuous
 62
     7
370
     9
100
AcDbPolyline
 90
        4
 70
     1
 43
1.2
 10
-846.360571969537
 20
294.1858774971912
 42
0.4142135623731
 10
-846.9605719695369
 20
294.7858774971912
 42
0.4142135623731
 10
-847.5605719695368
 20
294.1858774971912
 42
0.4142135623731
 10
-846.9605719695369
 20
293.5858774971912
 42
0.4142135623731
  0
LWPOLYLINE
  5
AB
330
1F
100
AcDbEntity
  8
A-4_文字
  6
Continuous
 62
     7
370
     9
100
AcDbPolyline
 90
        4
 70
     1
 43
1.2
 10
-846.360571969537
 20
194.1858774971914
 42
0.4142135623731
 10
-846.9605719695369
 20
194.7858774971914
 42
0.4142135623731
 10
-847.5605719695368
 20
194.1858774971914
 42
0.4142135623731
 10
-846.9605719695369
 20
193.5858774971914
 42
0.4142135623731
  0
LINE
  5
AC
330
1F
100
AcDbEntity
  8
A-4_文字
  6
Continuous
 62
     7
370
     9
100
AcDbLine
 10
-849.9605719695367
 20
194.1858774971914
 30
0.0
 11
-797.4974682010127
 21
194.1858774971914
 31
0.0
  0
LINE
  5
AD
330
1F
100
AcDbEntity
  8
A-4_文字
  6
Continuous
 62
     7
370
     9
100
AcDbLine
 10
-846.9605719695369
 20
294.1858774971912
 30
0.0
 11
-846.9605719695369
 21
194.1858774971914
 31
0.0
  0
TEXT
  5
AE
330
1F
100
AcDbEntity
  8
A-4_文字
  6
Continuous
 62
     2
370
   211
100
AcDbText
 10
-853.9445719695367
 20
224.6858774971913
 30
0.0
 40
18.288
  1
100
 50
90.0
 41
1.083333333333333
  7
ＭＳ ゴシック
100
AcDbText
  0
LWPOLYLINE
  5
AF
330
1F
100
AcDbEntity
  8
A-4_文字
  6
Continuous
 62
     7
370
     9
100
AcDbPolyline
 90
        4
 70
     1
 43
1.2
 10
-895.3258274439895
 20
294.1858774971912
 42
0.4142135623731
 10
-895.9258274439894
 20
294.7858774971912
 42
0.4142135623731
 10
-896.5258274439893
 20
294.1858774971912
 42
0.4142135623731
 10
-895.9258274439894
 20
293.5858774971912
 42
0.4142135623731
  0
LWPOLYLINE
  5
B0
330
1F
100
AcDbEntity
  8
A-4_文字
  6
Continuous
 62
     7
370
     9
100
AcDbPolyline
 90
        4
 70
     1
 43
1.2
 10
-895.3258274439895
 20
-555.8147359473265
 42
0.4142135623731
 10
-895.9258274439894
 20
-555.2147359473265
 42
0.4142135623731
 10
-896.5258274439893
 20
-555.8147359473265
 42
0.4142135623731
 10
-895.9258274439894
 20
-556.4147359473266
 42
0.4142135623731
  0
LINE
  5
B1
330
1F
100
AcDbEntity
  8
A-4_文字
  6
Continuous
 62
     7
370
     9
100
AcDbLine
 10
-898.9258274439894
 20
294.1858774971912
 30
0.0
 11
-723.8049477238845
 21
294.1858774971912
 31
0.0
  0
LINE
  5
B2
330
1F
100
AcDbEntity
  8
A-4_文字
  6
Continuous
 62
     7
370
     9
100
AcDbLine
 10
-895.9258274439894
 20
294.1858774971912
 30
0.0
 11
-895.9258274439894
 21
-555.8147359473265
 31
0.0
  0
TEXT
  5
B3
330
1F
100
AcDbEntity
  8
A-4_文字
  6
Continuous
 62
     2
370
   211
100
AcDbText
 10
-902.9098274439892
 20
-150.3144292250677
 30
0.0
 40
18.288
  1
850
 50
90.0
 41
1.083333333333333
  7
ＭＳ ゴシック
100
AcDbText
  0
LWPOLYLINE
  5
B4
330
1F
100
AcDbEntity
  8
A-4_文字
  6
Continuous
 62
     7
370
     9
100
AcDbPolyline
 90
        4
 70
     1
 43
1.2
 10
-846.360571969537
 20
-555.8147359473265
 42
0.4142135623731
 10
-846.9605719695369
 20
-555.2147359473265
 42
0.4142135623731
 10
-847.5605719695368
 20
-555.8147359473265
 42
0.4142135623731
 10
-846.9605719695369
 20
-556.4147359473266
 42
0.4142135623731
  0
LWPOLYLINE
  5
B5
330
1F
100
AcDbEntity
  8
A-4_文字
  6
Continuous
 62
     7
370
     9
100
AcDbPolyline
 90
        4
 70
     1
 43
1.2
 10
-846.360571969537
 20
-549.8147359473265
 42
0.4142135623731
 10
-846.9605719695369
 20
-549.2147359473265
 42
0.4142135623731
 10
-847.5605719695368
 20
-549.8147359473265
 42
0.4142135623731
 10
-846.9605719695369
 20
-550.4147359473266
 42
0.4142135623731
  0
LINE
  5
B6
330
1F
100
AcDbEntity
  8
A-4_文字
  6
Continuous
 62
     7
370
     9
100
AcDbLine
 10
-849.9605719695367
 20
-549.8147359473265
 30
0.0
 11
-798.8049477238847
 21
-549.8147359473265
 31
0.0
  0
LINE
  5
B7
330
1F
100
AcDbEntity
  8
A-4_文字
  6
Continuous
 62
     7
370
     9
100
AcDbLine
 10
-846.9605719695369
 20
-555.8147359473265
 30
0.0
 11
-846.9605719695369
 21
-549.8147359473265
 31
0.0
  0
TEXT
  5
B8
330
1F
100
AcDbEntity
  8
A-4_文字
  6
Continuous
 62
     2
370
   211
100
AcDbText
 10
-853.9445719695367
 20
-545.8428519574102
 30
0.0
 40
18.288
  1
6
 50
90.0
  7
ＭＳ ゴシック
100
AcDbText
  0
LINE
  5
B9
330
1F
100
AcDbEntity
  8
A-4_文字
  6
Continuous
 62
     7
370
     9
100
AcDbLine
 10
-846.9605719695369
 20
-549.8147359473265
 30
0.0
 11
-846.9605719695369
 21
-528.6661461810744
 31
0.0
  0
LINE
  5
BA
330
1F
100
AcDbEntity
  8
A-5_建具
  6
Continuous
 62
     7
370
     9
100
AcDbLine
 10
-631.8791895682679
 20
-61.9381308876774
 30
0.0
 11
-673.554934527094
 21
-134.1227605857346
 31
0.0
  0
LINE
  5
BB
330
1F
100
AcDbEntity
  8
A-5_建具
  6
Continuous
 62
     7
370
     9
100
AcDbLine
 10
-673.554934527094
 20
-134.1227605857346
 30
0.0
 11
-667.8146931824374
 21
-120.2645633976048
 31
0.0
  0
LINE
  5
BC
330
1F
100
AcDbEntity
  8
A-5_建具
  6
Continuous
 62
     7
370
     9
100
AcDbLine
 10
-673.554934527094
 20
-134.1227605857346
 30
0.0
 11
-664.4235218000836
 21
-122.2224537993957
 31
0.0
  0
LINE
  5
BD
330
1F
100
AcDbEntity
  8
A-5_建具
  6
Continuous
 62
     7
370
     9
100
AcDbLine
 10
-628.8049477238847
 20
-549.8147359473265
 30
0.0
 11
-623.064706379228
 21
-535.9565387591964
 31
0.0
  0
LINE
  5
BE
330
1F
100
AcDbEntity
  8
A-5_建具
  6
Continuous
 62
     7
370
     9
100
AcDbLine
 10
-628.8049477238847
 20
-549.8147359473265
 30
0.0
 11
-619.6735349968742
 21
-537.9144291609873
 31
0.0
  0
LINE
  5
BF
330
1F
100
AcDbEntity
  8
A-5_建具
  6
Continuous
 62
     7
370
     9
100
AcDbLine
 10
-578.4184459626779
 20
-462.5426073985368
 30
0.0
 11
-628.8049477238847
 21
-549.8147359473265
 31
0.0
  0
LINE
  5
C0
330
1F
100
AcDbEntity
  8
A-5_建具
  6
Continuous
 62
     7
370
     9
100
AcDbLine
 10
-609.1292070479078
 20
429.2196430081844
 30
0.0
 11
-650.8049520067337
 21
501.4042727062416
 31
0.0
  0
LINE
  5
C1
330
1F
100
AcDbEntity
  8
A-5_建具
  6
Continuous
 62
     7
370
     9
100
AcDbLine
 10
-650.8049520067337
 20
501.4042727062416
 30
0.0
 11
-645.0647106620771
 21
487.5460755181118
 31
0.0
  0
LINE
  5
C2
330
1F
100
AcDbEntity
  8
A-5_建具
  6
Continuous
 62
     7
370
     9
100
AcDbLine
 10
-650.8049520067337
 20
501.4042727062416
 30
0.0
 11
-641.6735392797234
 21
489.5039659199027
 31
0.0
  0
LINE
  5
C3
330
1F
100
AcDbEntity
  8
A-5_建具
  6
Continuous
 62
     7
370
     9
100
AcDbLine
 10
-609.1292070479078
 20
429.2196430081844
 30
0.0
 11
-522.2374924833065
 21
429.2196430081844
 31
0.0
  0
LINE
  5
C4
330
1F
100
AcDbEntity
  8
A-0_通り芯
  6
JWW_CENTER2
 62
     7
370
     9
100
AcDbLine
 10
0.0
 20
319.1858826522299
 30
0.0
 11
0.0
 21
-580.98265586779
 31
0.0
  0
TEXT
  5
C5
330
1F
100
AcDbEntity
  8
A-5_建具
  6
Continuous
 62
     2
370
   211
100
AcDbText
 10
130.5
 20
-552.4307359473265
 30
0.0
 40
18.288
  1
▽G.L.
 41
1.104166666666667
  7
ＭＳ ゴシック
100
AcDbText
  0
LINE
  5
C6
330
1F
100
AcDbEntity
  8
D-4_文字
  6
Continuous
 62
     7
370
     9
100
AcDbLine
 10
908.9242160170251
 20
-2.842918022254342
 30
0.0
 11
908.9242160170251
 21
-158.8429166078568
 31
0.0
  0
LWPOLYLINE
  5
C7
330
1F
100
AcDbEntity
  8
D-4_文字
  6
Continuous
 62
     7
370
     9
100
AcDbPolyline
 90
        4
 70
     1
 43
1.2
 10
909.5242160170251
 20
-2.842918022254342
 42
0.4142135623731
 10
908.9242160170251
 20
-2.242918022254342
 42
0.4142135623731
 10
908.324216017025
 20
-2.842918022254342
 42
0.4142135623731
 10
908.9242160170251
 20
-3.442918022254341
 42
0.4142135623731
  0
LWPOLYLINE
  5
C8
330
1F
100
AcDbEntity
  8
D-4_文字
  6
Continuous
 62
     7
370
     9
100
AcDbPolyline
 90
        4
 70
     1
 43
1.2
 10
909.5242160170251
 20
-158.8429166078568
 42
0.4142135623731
 10
908.9242160170251
 20
-158.2429166078568
 42
0.4142135623731
 10
908.324216017025
 20
-158.8429166078568
 42
0.4142135623731
 10
908.9242160170251
 20
-159.4429166078568
 42
0.4142135623731
  0
LINE
  5
C9
330
1F
100
AcDbEntity
  8
D-4_文字
  6
Continuous
 62
     7
370
     9
100
AcDbLine
 10
910.7242160170251
 20
-2.842918022254342
 30
0.0
 11
788.9242160170251
 21
-2.842918022254331
 31
0.0
  0
LINE
  5
CA
330
1F
100
AcDbEntity
  8
D-4_文字
  6
Continuous
 62
     7
370
     9
100
AcDbLine
 10
910.7242160170251
 20
-158.8429166078568
 30
0.0
 11
788.9242160170251
 21
-158.8429166078568
 31
0.0
  0
TEXT
  5
CB
330
1F
100
AcDbEntity
  8
D-4_文字
  6
Continuous
 62
     2
370
   211
100
AcDbText
 10
901.940216017025
 20
-93.59291731505557
 30
0.0
 40
18.288
  1
52
 50
90.0
 41
1.0625
  7
ＭＳ ゴシック
100
AcDbText
  0
LINE
  5
CC
330
1F
100
AcDbEntity
  8
D-4_文字
  6
Continuous
 62
     7
370
     9
100
AcDbLine
 10
969.4468705746702
 20
219.1570826849045
 30
0.0
 11
969.4468705746702
 21
-80.84291731509495
 31
0.0
  0
LWPOLYLINE
  5
CD
330
1F
100
AcDbEntity
  8
D-4_文字
  6
Continuous
 62
     7
370
     9
100
AcDbPolyline
 90
        4
 70
     1
 43
1.2
 10
970.0468705746703
 20
219.1570826849045
 42
0.4142135623731
 10
969.4468705746702
 20
219.7570826849045
 42
0.4142135623731
 10
968.8468705746702
 20
219.1570826849045
 42
0.4142135623731
 10
969.4468705746702
 20
218.5570826849045
 42
0.4142135623731
  0
LWPOLYLINE
  5
CE
330
1F
100
AcDbEntity
  8
D-4_文字
  6
Continuous
 62
     7
370
     9
100
AcDbPolyline
 90
        4
 70
     1
 43
1.2
 10
970.0468705746703
 20
-80.84291731509495
 42
0.4142135623731
 10
969.4468705746702
 20
-80.24291731509494
 42
0.4142135623731
 10
968.8468705746702
 20
-80.84291731509495
 42
0.4142135623731
 10
969.4468705746702
 20
-81.44291731509495
 42
0.4142135623731
  0
LINE
  5
CF
330
1F
100
AcDbEntity
  8
D-4_文字
  6
Continuous
 62
     7
370
     9
100
AcDbLine
 10
971.2468705746703
 20
219.1570826849045
 30
0.0
 11
643.2231769248874
 21
219.1570826849046
 31
0.0
  0
TEXT
  5
D0
330
1F
100
AcDbEntity
  8
D-4_文字
  6
Continuous
 62
     2
370
   211
100
AcDbText
 10
962.4628705746702
 20
49.6570826849048
 30
0.0
 40
18.288
  1
100
 50
90.0
 41
1.083333333333333
  7
ＭＳ ゴシック
100
AcDbText
  0
LINE
  5
D1
330
1F
100
AcDbEntity
  8
D-4_文字
  6
Continuous
 62
     7
370
     9
100
AcDbLine
 10
971.2468705746703
 20
-80.84291731509495
 30
0.0
 11
924.4468705746702
 21
-80.84291731509495
 31
0.0
  0
LINE
  5
D2
330
1F
100
AcDbEntity
  8
D-0_通り芯
  6
JWW_CENTER2
 62
     7
370
     9
100
AcDbLine
 10
631.2231769248874
 20
269.8658404035533
 30
0.0
 11
631.2231769248874
 21
-302.7639769173517
 31
0.0
  0
TEXT
  5
D3
330
1F
100
AcDbEntity
  8
D-5_建具
  6
Continuous
 62
     2
370
     9
100
AcDbText
 10
457.2231769248875
 20
-363.0786276583383
 30
0.0
 40
18.288
  1
フック部詳細図　Ｓ＝１：２
 41
1.115384615384615
  7
ＭＳ ゴシック
100
AcDbText
  0
LINE
  5
D4
330
1F
100
AcDbEntity
  8
D-5_建具
  6
Continuous
 62
     7
370
     9
100
AcDbLine
 10
446.4231769248875
 20
-333.4626276583384
 30
0.0
 11
816.0231769248876
 21
-333.4626276583384
 31
0.0
  0
LINE
  5
D5
330
1F
100
AcDbEntity
  8
D-5_建具
  6
Continuous
 62
     7
370
     9
100
AcDbLine
 10
446.4231769248875
 20
-375.4626276583384
 30
0.0
 11
816.0231769248876
 21
-375.4626276583384
 31
0.0
  0
LINE
  5
D6
330
1F
100
AcDbEntity
  8
D-5_建具
  6
Continuous
 62
     7
370
     9
100
AcDbLine
 10
446.4231769248875
 20
-333.4626276583384
 30
0.0
 11
446.4231769248875
 21
-375.4626276583384
 31
0.0
  0
LINE
  5
D7
330
1F
100
AcDbEntity
  8
D-5_建具
  6
Continuous
 62
     7
370
     9
100
AcDbLine
 10
816.0231769248876
 20
-333.4626276583384
 30
0.0
 11
816.0231769248876
 21
-375.4626276583384
 31
0.0
  0
LINE
  5
D8
330
1F
100
AcDbEntity
  8
A-4_文字
  6
Continuous
 62
     7
370
     9
100
AcDbLine
 10
-846.9605719695369
 20
-576.9633257135787
 30
0.0
 11
-846.9605719695369
 21
-555.8147359473265
 31
0.0
  0
LINE
  5
D9
330
1F
100
AcDbEntity
  8
A-B_衛生陶器
  6
JWW_DASHED1
 62
     2
370
     9
100
AcDbLine
 10
-645.3087309455125
 20
-541.8147359473265
 30
0.0
 11
-643.9937647437303
 21
-542.5739317519225
 31
0.0
  0
LINE
  5
DA
330
1F
100
AcDbEntity
  8
A-B_衛生陶器
  6
JWW_DASHED1
 62
     2
370
     9
100
AcDbLine
 10
-643.9937647437303
 20
-542.5739317519225
 30
0.0
 11
-643.9937647437303
 21
-549.8147359473265
 31
0.0
  0
LINE
  5
DB
330
1F
100
AcDbEntity
  8
A-B_衛生陶器
  6
JWW_DASHED1
 62
     2
370
     9
100
AcDbLine
 10
-643.9937647437303
 20
-549.8147359473265
 30
0.0
 11
-663.6236742591111
 21
-549.8147359473265
 31
0.0
  0
LINE
  5
DC
330
1F
100
AcDbEntity
  8
A-B_衛生陶器
  6
JWW_DASHED1
 62
     2
370
     9
100
AcDbLine
 10
-658.7161968802659
 20
-542.5739317519225
 30
0.0
 11
-658.7161968802659
 21
-549.8147359473265
 31
0.0
  0
LINE
  5
DD
330
1F
100
AcDbEntity
  8
A-B_衛生陶器
  6
JWW_DASHED1
 62
     2
370
     9
100
AcDbLine
 10
-648.9012421225755
 20
-542.5739317519225
 30
0.0
 11
-648.9012421225755
 21
-549.8147359473265
 31
0.0
  0
LINE
  5
DE
330
1F
100
AcDbEntity
  8
A-B_衛生陶器
  6
JWW_DASHED1
 62
     2
370
     9
100
AcDbLine
 10
-663.6236742591111
 20
-542.5739317519225
 30
0.0
 11
-663.6236742591111
 21
-549.8147359473265
 31
0.0
  0
LINE
  5
DF
330
1F
100
AcDbEntity
  8
A-B_衛生陶器
  6
JWW_DASHED1
 62
     2
370
     9
100
AcDbLine
 10
-663.6236742591111
 20
-542.5739317519225
 30
0.0
 11
-662.3087080573289
 21
-541.8147359473265
 31
0.0
  0
LINE
  5
E0
330
1F
100
AcDbEntity
  8
A-B_衛生陶器
  6
JWW_DASHED1
 62
     2
370
     9
100
AcDbLine
 10
-645.3087309455125
 20
-541.8147359473265
 30
0.0
 11
-662.3087080573289
 21
-541.8147359473265
 31
0.0
  0
ARC
  5
E1
330
1F
100
AcDbEntity
  8
A-B_衛生陶器
  6
JWW_DASHED1
 62
     2
370
     9
100
AcDbCircle
 10
-653.8087195014207
 20
-558.055411873535
 30
0.0
 40
16.24067497253418
100
AcDbArc
 50
72.41188049316405
 51
107.5881042480469
  0
ARC
  5
E2
330
1F
100
AcDbEntity
  8
A-B_衛生陶器
  6
JWW_DASHED1
 62
     2
370
     9
100
AcDbCircle
 10
-646.8903936003892
 20
-547.5910401923217
 30
0.0
 40
5.793257713317871
100
AcDbArc
 50
59.99998474121094
 51
85.6156005859375
  0
ARC
  5
E3
330
1F
100
AcDbEntity
  8
A-B_衛生陶器
  6
JWW_DASHED1
 62
     2
370
     9
100
AcDbCircle
 10
-646.2943910216538
 20
-546.6544647795714
 30
0.0
 40
4.842150688171387
100
AcDbArc
 50
91.81214904785156
 51
122.5724945068359
  0
ARC
  5
E4
330
1F
100
AcDbEntity
  8
A-B_衛生陶器
  6
JWW_DASHED1
 62
     2
370
     9
100
AcDbCircle
 10
-660.7270454024522
 20
-547.5910401923217
 30
0.0
 40
5.793257713317871
100
AcDbArc
 50
94.38438415527344
 51
120.0
  0
ARC
  5
E5
330
1F
100
AcDbEntity
  8
A-B_衛生陶器
  6
JWW_DASHED1
 62
     2
370
     9
100
AcDbCircle
 10
-661.3230479811875
 20
-546.6544647795714
 30
0.0
 40
4.842150688171387
100
AcDbArc
 50
57.42749023437501
 51
88.1878356933594
  0
LINE
  5
E6
330
1F
100
AcDbEntity
  8
A-B_衛生陶器
  6
JWW_DASHED1
 62
     2
370
     9
100
AcDbLine
 10
-658.8087195014207
 20
-534.8147359473267
 30
0.0
 11
-658.8087195014207
 21
-541.8147359473265
 31
0.0
  0
LINE
  5
E7
330
1F
100
AcDbEntity
  8
A-B_衛生陶器
  6
JWW_DASHED1
 62
     2
370
     9
100
AcDbLine
 10
-648.8087195014207
 20
-534.8147359473267
 30
0.0
 11
-648.8087195014207
 21
-541.8147359473265
 31
0.0
  0
LINE
  5
E8
330
1F
100
AcDbEntity
  8
A-B_衛生陶器
  6
JWW_DASHED1
 62
     2
370
     9
100
AcDbLine
 10
-658.8087195014207
 20
-534.8147359473267
 30
0.0
 11
-648.8087195014207
 21
-534.8147359473267
 31
0.0
  0
LINE
  5
E9
330
1F
100
AcDbEntity
  8
A-5_建具
  6
Continuous
 62
     7
370
     9
100
AcDbLine
 10
-653.8087195014207
 20
-534.8147359473267
 30
0.0
 11
-648.0684781567641
 21
-520.9565387591965
 31
0.0
  0
LINE
  5
EA
330
1F
100
AcDbEntity
  8
A-5_建具
  6
Continuous
 62
     7
370
     9
100
AcDbLine
 10
-653.8087195014207
 20
-534.8147359473267
 30
0.0
 11
-644.6773067744102
 21
-522.9144291609874
 31
0.0
  0
LINE
  5
EB
330
1F
100
AcDbEntity
  8
A-5_建具
  6
Continuous
 62
     7
370
     9
100
AcDbLine
 10
-570.3568226707334
 20
-390.271566382509
 30
0.0
 11
-653.8087195014207
 21
-534.8147359473267
 31
0.0
  0
TEXT
  5
EC
330
1F
100
AcDbEntity
  8
A-5_建具
  6
Continuous
 62
     7
370
   211
100
AcDbText
 10
-565.2974785182321
 20
-380.9990471443961
 30
0.0
 40
13.716
  1
あと施工アンカー（別途）
 41
1.152777777777777
  7
ＭＳ ゴシック
100
AcDbText
  0
LINE
  5
ED
330
1F
100
AcDbEntity
  8
A-B_衛生陶器
  6
JWW_DASHED1
 62
     2
370
     9
100
AcDbLine
 10
-658.8087195014207
 20
-555.8147358929266
 30
0.0
 11
-658.8087195014207
 21
-584.8147359473267
 31
0.0
  0
LINE
  5
EE
330
1F
100
AcDbEntity
  8
A-B_衛生陶器
  6
JWW_DASHED1
 62
     2
370
     9
100
AcDbLine
 10
-648.8087195014207
 20
-555.8147358929266
 30
0.0
 11
-648.8087195014207
 21
-584.8147359473267
 31
0.0
  0
LINE
  5
EF
330
1F
100
AcDbEntity
  8
A-B_衛生陶器
  6
JWW_DASHED1
 62
     2
370
     9
100
AcDbLine
 10
-745.308730038848
 20
-541.8147359473265
 30
0.0
 11
-743.9937638370658
 21
-542.5739317519225
 31
0.0
  0
LINE
  5
F0
330
1F
100
AcDbEntity
  8
A-B_衛生陶器
  6
JWW_DASHED1
 62
     2
370
     9
100
AcDbLine
 10
-743.9937638370658
 20
-542.5739317519225
 30
0.0
 11
-743.9937638370658
 21
-549.8147359473265
 31
0.0
  0
LINE
  5
F1
330
1F
100
AcDbEntity
  8
A-B_衛生陶器
  6
JWW_DASHED1
 62
     2
370
     9
100
AcDbLine
 10
-743.9937638370658
 20
-549.8147359473265
 30
0.0
 11
-763.6236733524468
 21
-549.8147359473265
 31
0.0
  0
LINE
  5
F2
330
1F
100
AcDbEntity
  8
A-B_衛生陶器
  6
JWW_DASHED1
 62
     2
370
     9
100
AcDbLine
 10
-758.7161959736014
 20
-542.5739317519225
 30
0.0
 11
-758.7161959736014
 21
-549.8147359473265
 31
0.0
  0
LINE
  5
F3
330
1F
100
AcDbEntity
  8
A-B_衛生陶器
  6
JWW_DASHED1
 62
     2
370
     9
100
AcDbLine
 10
-748.9012412159111
 20
-542.5739317519225
 30
0.0
 11
-748.9012412159111
 21
-549.8147359473265
 31
0.0
  0
LINE
  5
F4
330
1F
100
AcDbEntity
  8
A-B_衛生陶器
  6
JWW_DASHED1
 62
     2
370
     9
100
AcDbLine
 10
-763.6236733524468
 20
-542.5739317519225
 30
0.0
 11
-763.6236733524468
 21
-549.8147359473265
 31
0.0
  0
LINE
  5
F5
330
1F
100
AcDbEntity
  8
A-B_衛生陶器
  6
JWW_DASHED1
 62
     2
370
     9
100
AcDbLine
 10
-763.6236733524468
 20
-542.5739317519225
 30
0.0
 11
-762.3087071506645
 21
-541.8147359473265
 31
0.0
  0
LINE
  5
F6
330
1F
100
AcDbEntity
  8
A-B_衛生陶器
  6
JWW_DASHED1
 62
     2
370
     9
100
AcDbLine
 10
-745.308730038848
 20
-541.8147359473265
 30
0.0
 11
-762.3087071506645
 21
-541.8147359473265
 31
0.0
  0
ARC
  5
F7
330
1F
100
AcDbEntity
  8
A-B_衛生陶器
  6
JWW_DASHED1
 62
     2
370
     9
100
AcDbCircle
 10
-753.8087185947563
 20
-558.055411873535
 30
0.0
 40
16.24067497253418
100
AcDbArc
 50
72.41188049316405
 51
107.5881042480469
  0
ARC
  5
F8
330
1F
100
AcDbEntity
  8
A-B_衛生陶器
  6
JWW_DASHED1
 62
     2
370
     9
100
AcDbCircle
 10
-746.8903926937248
 20
-547.5910401923217
 30
0.0
 40
5.793257713317871
100
AcDbArc
 50
59.99998474121094
 51
85.6156005859375
  0
ARC
  5
F9
330
1F
100
AcDbEntity
  8
A-B_衛生陶器
  6
JWW_DASHED1
 62
     2
370
     9
100
AcDbCircle
 10
-746.2943901149895
 20
-546.6544647795714
 30
0.0
 40
4.842150688171387
100
AcDbArc
 50
91.81214904785156
 51
122.5724945068359
  0
ARC
  5
FA
330
1F
100
AcDbEntity
  8
A-B_衛生陶器
  6
JWW_DASHED1
 62
     2
370
     9
100
AcDbCircle
 10
-760.7270444957877
 20
-547.5910401923217
 30
0.0
 40
5.793257713317871
100
AcDbArc
 50
94.38438415527344
 51
120.0
  0
ARC
  5
FB
330
1F
100
AcDbEntity
  8
A-B_衛生陶器
  6
JWW_DASHED1
 62
     2
370
     9
100
AcDbCircle
 10
-761.3230470745231
 20
-546.6544647795714
 30
0.0
 40
4.842150688171387
100
AcDbArc
 50
57.42749023437501
 51
88.1878356933594
  0
LINE
  5
FC
330
1F
100
AcDbEntity
  8
A-B_衛生陶器
  6
JWW_DASHED1
 62
     2
370
     9
100
AcDbLine
 10
-758.8087185947562
 20
-534.8147359473267
 30
0.0
 11
-758.8087185947562
 21
-541.8147359473265
 31
0.0
  0
LINE
  5
FD
330
1F
100
AcDbEntity
  8
A-B_衛生陶器
  6
JWW_DASHED1
 62
     2
370
     9
100
AcDbLine
 10
-748.8087185947563
 20
-534.8147359473267
 30
0.0
 11
-748.8087185947563
 21
-541.8147359473265
 31
0.0
  0
LINE
  5
FE
330
1F
100
AcDbEntity
  8
A-B_衛生陶器
  6
JWW_DASHED1
 62
     2
370
     9
100
AcDbLine
 10
-758.8087185947562
 20
-534.8147359473267
 30
0.0
 11
-748.8087185947563
 21
-534.8147359473267
 31
0.0
  0
LINE
  5
FF
330
1F
100
AcDbEntity
  8
A-B_衛生陶器
  6
JWW_DASHED1
 62
     2
370
     9
100
AcDbLine
 10
-758.8087185947562
 20
-555.8147358929266
 30
0.0
 11
-758.8087185947562
 21
-584.8147359473267
 31
0.0
  0
LINE
  5
100
330
1F
100
AcDbEntity
  8
A-B_衛生陶器
  6
JWW_DASHED1
 62
     2
370
     9
100
AcDbLine
 10
-748.8087185947563
 20
-555.8147358929266
 30
0.0
 11
-748.8087185947563
 21
-584.8147359473267
 31
0.0
  0
LINE
  5
101
330
1F
100
AcDbEntity
  8
A-B_衛生陶器
  6
JWW_DASHED1
 62
     2
370
     9
100
AcDbLine
 10
58.49621677837214
 20
-541.8147359473265
 30
0.0
 11
59.81118298015437
 21
-542.5739317519225
 31
0.0
  0
LINE
  5
102
330
1F
100
AcDbEntity
  8
A-B_衛生陶器
  6
JWW_DASHED1
 62
     2
370
     9
100
AcDbLine
 10
59.81118298015437
 20
-542.5739317519225
 30
0.0
 11
59.81118298015437
 21
-549.8147359473265
 31
0.0
  0
LINE
  5
103
330
1F
100
AcDbEntity
  8
A-B_衛生陶器
  6
JWW_DASHED1
 62
     2
370
     9
100
AcDbLine
 10
59.81118298015437
 20
-549.8147359473265
 30
0.0
 11
40.18127346477345
 21
-549.8147359473265
 31
0.0
  0
LINE
  5
104
330
1F
100
AcDbEntity
  8
A-B_衛生陶器
  6
JWW_DASHED1
 62
     2
370
     9
100
AcDbLine
 10
45.08875084361873
 20
-542.5739317519225
 30
0.0
 11
45.08875084361873
 21
-549.8147359473265
 31
0.0
  0
LINE
  5
105
330
1F
100
AcDbEntity
  8
A-B_衛生陶器
  6
JWW_DASHED1
 62
     2
370
     9
100
AcDbLine
 10
54.9037056013091
 20
-542.5739317519225
 30
0.0
 11
54.9037056013091
 21
-549.8147359473265
 31
0.0
  0
LINE
  5
106
330
1F
100
AcDbEntity
  8
A-B_衛生陶器
  6
JWW_DASHED1
 62
     2
370
     9
100
AcDbLine
 10
40.18127346477345
 20
-542.5739317519225
 30
0.0
 11
40.18127346477345
 21
-549.8147359473265
 31
0.0
  0
LINE
  5
107
330
1F
100
AcDbEntity
  8
A-B_衛生陶器
  6
JWW_DASHED1
 62
     2
370
     9
100
AcDbLine
 10
40.18127346477345
 20
-542.5739317519225
 30
0.0
 11
41.49623966655568
 21
-541.8147359473265
 31
0.0
  0
LINE
  5
108
330
1F
100
AcDbEntity
  8
A-B_衛生陶器
  6
JWW_DASHED1
 62
     2
370
     9
100
AcDbLine
 10
58.49621677837214
 20
-541.8147359473265
 30
0.0
 11
41.49623966655568
 21
-541.8147359473265
 31
0.0
  0
ARC
  5
109
330
1F
100
AcDbEntity
  8
A-B_衛生陶器
  6
JWW_DASHED1
 62
     2
370
     9
100
AcDbCircle
 10
49.99622822246391
 20
-558.055411873535
 30
0.0
 40
16.24067497253418
100
AcDbArc
 50
72.41188049316405
 51
107.5881042480469
  0
ARC
  5
10A
330
1F
100
AcDbEntity
  8
A-B_衛生陶器
  6
JWW_DASHED1
 62
     2
370
     9
100
AcDbCircle
 10
56.91455412349538
 20
-547.5910401923217
 30
0.0
 40
5.793257713317871
100
AcDbArc
 50
59.99998474121094
 51
85.6156005859375
  0
ARC
  5
10B
330
1F
100
AcDbEntity
  8
A-B_衛生陶器
  6
JWW_DASHED1
 62
     2
370
     9
100
AcDbCircle
 10
57.51055670223073
 20
-546.6544647795714
 30
0.0
 40
4.842150688171387
100
AcDbArc
 50
91.81214904785156
 51
122.5724945068359
  0
ARC
  5
10C
330
1F
100
AcDbEntity
  8
A-B_衛生陶器
  6
JWW_DASHED1
 62
     2
370
     9
100
AcDbCircle
 10
43.07790232143245
 20
-547.5910401923217
 30
0.0
 40
5.793257713317871
100
AcDbArc
 50
94.38438415527344
 51
120.0
  0
ARC
  5
10D
330
1F
100
AcDbEntity
  8
A-B_衛生陶器
  6
JWW_DASHED1
 62
     2
370
     9
100
AcDbCircle
 10
42.4818997426971
 20
-546.6544647795714
 30
0.0
 40
4.842150688171387
100
AcDbArc
 50
57.42749023437501
 51
88.1878356933594
  0
LINE
  5
10E
330
1F
100
AcDbEntity
  8
A-B_衛生陶器
  6
JWW_DASHED1
 62
     2
370
     9
100
AcDbLine
 10
44.99622822246394
 20
-534.8147359473267
 30
0.0
 11
44.99622822246394
 21
-541.8147359473265
 31
0.0
  0
LINE
  5
10F
330
1F
100
AcDbEntity
  8
A-B_衛生陶器
  6
JWW_DASHED1
 62
     2
370
     9
100
AcDbLine
 10
54.99622822246388
 20
-534.8147359473267
 30
0.0
 11
54.99622822246388
 21
-541.8147359473265
 31
0.0
  0
LINE
  5
110
330
1F
100
AcDbEntity
  8
A-B_衛生陶器
  6
JWW_DASHED1
 62
     2
370
     9
100
AcDbLine
 10
44.99622822246394
 20
-534.8147359473267
 30
0.0
 11
54.99622822246388
 21
-534.8147359473267
 31
0.0
  0
LINE
  5
111
330
1F
100
AcDbEntity
  8
A-B_衛生陶器
  6
JWW_DASHED1
 62
     2
370
     9
100
AcDbLine
 10
44.99622822246394
 20
-555.8147358929266
 30
0.0
 11
44.99622822246394
 21
-584.8147359473267
 31
0.0
  0
LINE
  5
112
330
1F
100
AcDbEntity
  8
A-B_衛生陶器
  6
JWW_DASHED1
 62
     2
370
     9
100
AcDbLine
 10
54.99622822246388
 20
-555.8147358929266
 30
0.0
 11
54.99622822246388
 21
-584.8147359473267
 31
0.0
  0
LINE
  5
113
330
1F
100
AcDbEntity
  8
A-B_衛生陶器
  6
JWW_DASHED1
 62
     2
370
     9
100
AcDbLine
 10
-41.50378231496344
 20
-541.8147359473265
 30
0.0
 11
-40.18881611318122
 21
-542.5739317519225
 31
0.0
  0
LINE
  5
114
330
1F
100
AcDbEntity
  8
A-B_衛生陶器
  6
JWW_DASHED1
 62
     2
370
     9
100
AcDbLine
 10
-40.18881611318122
 20
-542.5739317519225
 30
0.0
 11
-40.18881611318122
 21
-549.8147359473265
 31
0.0
  0
LINE
  5
115
330
1F
100
AcDbEntity
  8
A-B_衛生陶器
  6
JWW_DASHED1
 62
     2
370
     9
100
AcDbLine
 10
-40.18881611318122
 20
-549.8147359473265
 30
0.0
 11
-59.81872562856213
 21
-549.8147359473265
 31
0.0
  0
LINE
  5
116
330
1F
100
AcDbEntity
  8
A-B_衛生陶器
  6
JWW_DASHED1
 62
     2
370
     9
100
AcDbLine
 10
-54.91124824971686
 20
-542.5739317519225
 30
0.0
 11
-54.91124824971686
 21
-549.8147359473265
 31
0.0
  0
LINE
  5
117
330
1F
100
AcDbEntity
  8
A-B_衛生陶器
  6
JWW_DASHED1
 62
     2
370
     9
100
AcDbLine
 10
-45.09629349202649
 20
-542.5739317519225
 30
0.0
 11
-45.09629349202649
 21
-549.8147359473265
 31
0.0
  0
LINE
  5
118
330
1F
100
AcDbEntity
  8
A-B_衛生陶器
  6
JWW_DASHED1
 62
     2
370
     9
100
AcDbLine
 10
-59.81872562856213
 20
-542.5739317519225
 30
0.0
 11
-59.81872562856213
 21
-549.8147359473265
 31
0.0
  0
LINE
  5
119
330
1F
100
AcDbEntity
  8
A-B_衛生陶器
  6
JWW_DASHED1
 62
     2
370
     9
100
AcDbLine
 10
-59.81872562856213
 20
-542.5739317519225
 30
0.0
 11
-58.50375942677991
 21
-541.8147359473265
 31
0.0
  0
LINE
  5
11A
330
1F
100
AcDbEntity
  8
A-B_衛生陶器
  6
JWW_DASHED1
 62
     2
370
     9
100
AcDbLine
 10
-41.50378231496344
 20
-541.8147359473265
 30
0.0
 11
-58.50375942677991
 21
-541.8147359473265
 31
0.0
  0
ARC
  5
11B
330
1F
100
AcDbEntity
  8
A-B_衛生陶器
  6
JWW_DASHED1
 62
     2
370
     9
100
AcDbCircle
 10
-50.00377087087168
 20
-558.055411873535
 30
0.0
 40
16.24067497253418
100
AcDbArc
 50
72.41188049316405
 51
107.5881042480469
  0
ARC
  5
11C
330
1F
100
AcDbEntity
  8
A-B_衛生陶器
  6
JWW_DASHED1
 62
     2
370
     9
100
AcDbCircle
 10
-43.08544496984021
 20
-547.5910401923217
 30
0.0
 40
5.793257713317871
100
AcDbArc
 50
59.99998474121094
 51
85.6156005859375
  0
ARC
  5
11D
330
1F
100
AcDbEntity
  8
A-B_衛生陶器
  6
JWW_DASHED1
 62
     2
370
     9
100
AcDbCircle
 10
-42.48944239110486
 20
-546.6544647795714
 30
0.0
 40
4.842150688171387
100
AcDbArc
 50
91.81214904785156
 51
122.5724945068359
  0
ARC
  5
11E
330
1F
100
AcDbEntity
  8
A-B_衛生陶器
  6
JWW_DASHED1
 62
     2
370
     9
100
AcDbCircle
 10
-56.92209677190314
 20
-547.5910401923217
 30
0.0
 40
5.793257713317871
100
AcDbArc
 50
94.38438415527344
 51
120.0
  0
ARC
  5
11F
330
1F
100
AcDbEntity
  8
A-B_衛生陶器
  6
JWW_DASHED1
 62
     2
370
     9
100
AcDbCircle
 10
-57.51809935063849
 20
-546.6544647795714
 30
0.0
 40
4.842150688171387
100
AcDbArc
 50
57.42749023437501
 51
88.1878356933594
  0
LINE
  5
120
330
1F
100
AcDbEntity
  8
A-B_衛生陶器
  6
JWW_DASHED1
 62
     2
370
     9
100
AcDbLine
 10
-55.00377087087165
 20
-534.8147359473267
 30
0.0
 11
-55.00377087087165
 21
-541.8147359473265
 31
0.0
  0
LINE
  5
121
330
1F
100
AcDbEntity
  8
A-B_衛生陶器
  6
JWW_DASHED1
 62
     2
370
     9
100
AcDbLine
 10
-45.0037708708717
 20
-534.8147359473267
 30
0.0
 11
-45.0037708708717
 21
-541.8147359473265
 31
0.0
  0
LINE
  5
122
330
1F
100
AcDbEntity
  8
A-B_衛生陶器
  6
JWW_DASHED1
 62
     2
370
     9
100
AcDbLine
 10
-55.00377087087165
 20
-534.8147359473267
 30
0.0
 11
-45.0037708708717
 21
-534.8147359473267
 31
0.0
  0
LINE
  5
123
330
1F
100
AcDbEntity
  8
A-B_衛生陶器
  6
JWW_DASHED1
 62
     2
370
     9
100
AcDbLine
 10
-55.00377087087165
 20
-555.8147358929266
 30
0.0
 11
-55.00377087087165
 21
-584.8147359473267
 31
0.0
  0
LINE
  5
124
330
1F
100
AcDbEntity
  8
A-B_衛生陶器
  6
JWW_DASHED1
 62
     2
370
     9
100
AcDbLine
 10
-45.0037708708717
 20
-555.8147358929266
 30
0.0
 11
-45.0037708708717
 21
-584.8147359473267
 31
0.0
  0
LINE
  5
125
330
1F
100
AcDbEntity
  8
A-5_建具
  6
Continuous
 62
     7
370
     9
100
AcDbLine
 10
-570.3568226707334
 20
-390.271566382509
 30
0.0
 11
-316.2974785182322
 21
-390.271566382509
 31
0.0
  0
LINE
  5
126
330
1F
100
AcDbEntity
  8
D-4_文字
  6
Continuous
 62
     7
370
     9
100
AcDbLine
 10
721.9732165152593
 20
-64.42999433486135
 30
0.0
 11
739.973216352061
 21
-64.42999433486135
 31
0.0
  0
LWPOLYLINE
  5
127
330
1F
100
AcDbEntity
  8
D-4_文字
  6
Continuous
 62
     7
370
     9
100
AcDbPolyline
 90
        4
 70
     1
 43
1.2
 10
722.5732165152593
 20
-64.42999433486135
 42
0.4142135623731
 10
721.9732165152593
 20
-63.82999433486135
 42
0.4142135623731
 10
721.3732165152594
 20
-64.42999433486135
 42
0.4142135623731
 10
721.9732165152593
 20
-65.02999433486134
 42
0.4142135623731
  0
LWPOLYLINE
  5
128
330
1F
100
AcDbEntity
  8
D-4_文字
  6
Continuous
 62
     7
370
     9
100
AcDbPolyline
 90
        4
 70
     1
 43
1.2
 10
740.5732163520609
 20
-64.42999433486135
 42
0.4142135623731
 10
739.973216352061
 20
-63.82999433486135
 42
0.4142135623731
 10
739.3732163520609
 20
-64.42999433486135
 42
0.4142135623731
 10
739.973216352061
 20
-65.02999433486134
 42
0.4142135623731
  0
LINE
  5
129
330
1F
100
AcDbEntity
  8
D-4_文字
  6
Continuous
 62
     7
370
     9
100
AcDbLine
 10
721.9732165152593
 20
-64.42999433486135
 30
0.0
 11
676.6975292078325
 21
-64.42999433486135
 31
0.0
  0
TEXT
  5
12A
330
1F
100
AcDbEntity
  8
D-4_文字
  6
Continuous
 62
     2
370
   211
100
AcDbText
 10
676.6975292078325
 20
-57.44599433486134
 30
0.0
 40
18.288
  1
φ6
 41
1.083333333333333
  7
ＭＳ ゴシック
100
AcDbText
  0
LINE
  5
12B
330
1F
100
AcDbEntity
  8
A-2_仕上
  6
Continuous
 62
     3
370
     9
100
AcDbLine
 10
-778.8049477238847
 20
-549.8147359473265
 30
0.0
 11
-628.8049477238847
 21
-549.8147359473265
 31
0.0
  0
LINE
  5
12C
330
1F
100
AcDbEntity
  8
A-2_仕上
  6
Continuous
 62
     3
370
     9
100
AcDbLine
 10
-778.8049477238847
 20
-549.8147359473265
 30
0.0
 11
-778.8049477238847
 21
-555.8147359473265
 31
0.0
  0
LINE
  5
12D
330
1F
100
AcDbEntity
  8
A-2_仕上
  6
Continuous
 62
     3
370
     9
100
AcDbLine
 10
-628.8049477238847
 20
-549.8147359473265
 30
0.0
 11
-628.8049477238847
 21
-555.8147359473265
 31
0.0
  0
CIRCLE
  5
12E
330
1F
100
AcDbEntity
  8
A-2_仕上
  6
Continuous
 62
     3
370
     9
100
AcDbCircle
 10
-703.8049477238847
 20
556.6004268237714
 30
0.0
 40
30.24999972573394
  0
LINE
  5
12F
330
1F
100
AcDbEntity
  8
A-2_仕上
  6
Continuous
 62
     3
370
     9
100
AcDbLine
 10
-737.0549474224183
 20
559.6004267965712
 30
0.0
 11
-768.0549471413528
 21
559.6004267965712
 31
0.0
  0
ARC
  5
130
330
1F
100
AcDbEntity
  8
A-2_仕上
  6
Continuous
 62
     3
370
     9
100
AcDbCircle
 10
-768.0549471413528
 20
556.6004268237714
 30
0.0
 40
2.999999972800059
100
AcDbArc
 50
90.0
 51
270.0
  0
LINE
  5
131
330
1F
100
AcDbEntity
  8
A-2_仕上
  6
Continuous
 62
     3
370
     9
100
AcDbLine
 10
-768.0549471413528
 20
553.6004268509711
 30
0.0
 11
-737.0549474224183
 21
553.6004268509711
 31
0.0
  0
LINE
  5
132
330
1F
100
AcDbEntity
  8
A-2_仕上
  6
Continuous
 62
     3
370
     9
100
AcDbLine
 10
-670.554948025351
 20
553.6004268509711
 30
0.0
 11
-639.5549483064165
 21
553.6004268509711
 31
0.0
  0
ARC
  5
133
330
1F
100
AcDbEntity
  8
A-2_仕上
  6
Continuous
 62
     3
370
     9
100
AcDbCircle
 10
-639.5549483064165
 20
556.6004268237714
 30
0.0
 40
2.999999972800059
100
AcDbArc
 50
270.0
 51
90.0
  0
LINE
  5
134
330
1F
100
AcDbEntity
  8
A-2_仕上
  6
Continuous
 62
     3
370
     9
100
AcDbLine
 10
-639.5549483064165
 20
559.6004267965712
 30
0.0
 11
-670.554948025351
 21
559.6004267965712
 31
0.0
  0
LINE
  5
135
330
1F
100
AcDbEntity
  8
A-2_仕上
  6
Continuous
 62
     3
370
     9
100
AcDbLine
 10
-778.8049470438862
 20
631.6004261437729
 30
0.0
 11
-628.804948403883
 21
631.6004261437729
 31
0.0
  0
LINE
  5
136
330
1F
100
AcDbEntity
  8
A-2_仕上
  6
Continuous
 62
     3
370
     9
100
AcDbLine
 10
-628.804948403883
 20
631.6004261437729
 30
0.0
 11
-628.804948403883
 21
481.6004275037698
 31
0.0
  0
LINE
  5
137
330
1F
100
AcDbEntity
  8
A-2_仕上
  6
Continuous
 62
     3
370
     9
100
AcDbLine
 10
-778.8049470438862
 20
481.6004275037698
 30
0.0
 11
-628.804948403883
 21
481.6004275037698
 31
0.0
  0
LINE
  5
138
330
1F
100
AcDbEntity
  8
A-2_仕上
  6
Continuous
 62
     3
370
     9
100
AcDbLine
 10
-778.8049470438862
 20
631.6004261437729
 30
0.0
 11
-778.8049470438862
 21
481.6004275037698
 31
0.0
  0
CIRCLE
  5
139
330
1F
100
AcDbEntity
  8
A-2_仕上
  6
Continuous
 62
     3
370
     9
100
AcDbCircle
 10
-753.804947270552
 20
506.6004272771036
 30
0.0
 40
5.999999945600118
  0
CIRCLE
  5
13A
330
1F
100
AcDbEntity
  8
A-2_仕上
  6
Continuous
 62
     3
370
     9
100
AcDbCircle
 10
-653.8049481772166
 20
506.6004272771036
 30
0.0
 40
5.999999945600118
  0
CIRCLE
  5
13B
330
1F
100
AcDbEntity
  8
A-2_仕上
  6
Continuous
 62
     3
370
     9
100
AcDbCircle
 10
-653.8049481772166
 20
606.6004263704392
 30
0.0
 40
5.999999945600118
  0
CIRCLE
  5
13C
330
1F
100
AcDbEntity
  8
A-2_仕上
  6
Continuous
 62
     3
370
     9
100
AcDbCircle
 10
-753.804947270552
 20
606.6004263704392
 30
0.0
 40
5.999999945600118
  0
LINE
  5
13D
330
1F
100
AcDbEntity
  8
A-2_仕上
  6
JWW_DASHED1
 62
     3
370
     9
100
AcDbLine
 10
-759.808718540356
 20
-549.8147359473265
 30
0.0
 11
-759.808718540356
 21
-555.8147358929264
 31
0.0
  0
LINE
  5
13E
330
1F
100
AcDbEntity
  8
A-2_仕上
  6
JWW_DASHED1
 62
     3
370
     9
100
AcDbLine
 10
-747.8087186491563
 20
-549.8147359473265
 30
0.0
 11
-747.8087186491563
 21
-555.8147358929264
 31
0.0
  0
LINE
  5
13F
330
1F
100
AcDbEntity
  8
A-2_仕上
  6
JWW_DASHED1
 62
     3
370
     9
100
AcDbLine
 10
-659.8087194470212
 20
-549.8147359473265
 30
0.0
 11
-659.8087194470212
 21
-555.8147358929264
 31
0.0
  0
LINE
  5
140
330
1F
100
AcDbEntity
  8
A-2_仕上
  6
JWW_DASHED1
 62
     3
370
     9
100
AcDbLine
 10
-647.8087195558207
 20
-549.8147359473265
 30
0.0
 11
-647.8087195558207
 21
-555.8147358929264
 31
0.0
  0
LINE
  5
141
330
1F
100
AcDbEntity
  8
A-2_仕上
  6
Continuous
 62
     3
370
     9
100
AcDbLine
 10
-74.99999999999983
 20
-549.8147359473265
 30
0.0
 11
75.00000000000034
 21
-549.8147359473265
 31
0.0
  0
LINE
  5
142
330
1F
100
AcDbEntity
  8
A-2_仕上
  6
Continuous
 62
     3
370
     9
100
AcDbLine
 10
-74.99999999999983
 20
-549.8147359473265
 30
0.0
 11
-74.99999999999983
 21
-555.8147359473265
 31
0.0
  0
LINE
  5
143
330
1F
100
AcDbEntity
  8
A-2_仕上
  6
Continuous
 62
     3
370
     9
100
AcDbLine
 10
75.00000000000034
 20
-549.8147359473265
 30
0.0
 11
75.00000000000034
 21
-555.8147359473265
 31
0.0
  0
LINE
  5
144
330
1F
100
AcDbEntity
  8
A-2_仕上
  6
JWW_DASHED1
 62
     3
370
     9
100
AcDbLine
 10
-56.00377081647133
 20
-549.8147359473265
 30
0.0
 11
-56.00377081647133
 21
-555.8147358929264
 31
0.0
  0
LINE
  5
145
330
1F
100
AcDbEntity
  8
A-2_仕上
  6
JWW_DASHED1
 62
     3
370
     9
100
AcDbLine
 10
-44.00377092527151
 20
-549.8147359473265
 30
0.0
 11
-44.00377092527151
 21
-555.8147358929264
 31
0.0
  0
LINE
  5
146
330
1F
100
AcDbEntity
  8
A-2_仕上
  6
JWW_DASHED1
 62
     3
370
     9
100
AcDbLine
 10
43.99622827686358
 20
-549.8147359473265
 30
0.0
 11
43.99622827686358
 21
-555.8147358929264
 31
0.0
  0
LINE
  5
147
330
1F
100
AcDbEntity
  8
A-2_仕上
  6
JWW_DASHED1
 62
     3
370
     9
100
AcDbLine
 10
55.99622816806391
 20
-549.8147359473265
 30
0.0
 11
55.99622816806391
 21
-555.8147358929264
 31
0.0
  0
LINE
  5
148
330
1F
100
AcDbEntity
  8
A-2_仕上
  6
Continuous
 62
     3
370
     9
100
AcDbLine
 10
-655.2379346931721
 20
174.1858776785375
 30
0.0
 11
-655.2379346931721
 21
174.1958776784468
 31
0.0
  0
ARC
  5
149
330
1F
100
AcDbEntity
  8
A-2_仕上
  6
Continuous
 62
     3
370
     9
100
AcDbCircle
 10
-655.2379346931721
 20
186.8688775635462
 30
0.0
 40
12.68299988500862
100
AcDbArc
 50
270.0
 51
0.0
  0
ARC
  5
14A
330
1F
100
AcDbEntity
  8
A-2_仕上
  6
Continuous
 62
     3
370
     9
100
AcDbCircle
 10
-655.2379346931721
 20
186.8688775635462
 30
0.0
 40
18.68299983060874
100
AcDbArc
 50
270.0
 51
0.0
  0
LINE
  5
14B
330
1F
100
AcDbEntity
  8
A-2_仕上
  6
Continuous
 62
     3
370
     9
100
AcDbLine
 10
-642.5549348081673
 20
186.8688775635462
 30
0.0
 11
-642.5549348081673
 21
194.1858774972044
 31
0.0
  0
LINE
  5
14C
330
1F
100
AcDbEntity
  8
A-2_仕上
  6
Continuous
 62
     3
370
     9
100
AcDbLine
 10
-636.5549348625668
 20
186.8688775635462
 30
0.0
 11
-636.5549348625668
 21
194.1858774972044
 31
0.0
  0
LINE
  5
14D
330
1F
100
AcDbEntity
  8
A-2_仕上
  6
Continuous
 62
     3
370
     9
100
AcDbLine
 10
-667.5549345814934
 20
193.6858775017379
 30
0.0
 11
-667.5549345814934
 21
183.8439808985128
 31
0.0
  0
LINE
  5
14E
330
1F
100
AcDbEntity
  8
A-2_仕上
  6
Continuous
 62
     3
370
     9
100
AcDbLine
 10
-673.554934527094
 20
284.5444373229957
 30
0.0
 11
-673.554934527094
 21
-549.8147359473265
 31
0.0
  0
LINE
  5
14F
330
1F
100
AcDbEntity
  8
A-2_仕上
  6
Continuous
 62
     3
370
     9
100
AcDbLine
 10
-673.5549345271013
 20
193.6858775017379
 30
0.0
 11
-667.5549345815008
 21
193.6858775017379
 31
0.0
  0
ARC
  5
150
330
1F
100
AcDbEntity
  8
A-2_仕上
  6
Continuous
 62
     3
370
     9
100
AcDbCircle
 10
-655.2379346931721
 20
186.8688775635462
 30
0.0
 40
12.68299988500862
100
AcDbArc
 50
193.7980315976056
 51
270.0
  0
ARC
  5
151
330
1F
100
AcDbEntity
  8
A-2_仕上
  6
Continuous
 62
     3
370
     9
100
AcDbCircle
 10
-655.2379346931721
 20
186.8688775635462
 30
0.0
 40
18.68299983060874
100
AcDbArc
 50
191.3596882805108
 51
270.0
  0
ARC
  5
152
330
1F
100
AcDbEntity
  8
A-2_仕上
  6
Continuous
 62
     3
370
     9
100
AcDbCircle
 10
-655.2379346931721
 20
201.5028774308629
 30
0.0
 40
12.68299988500862
100
AcDbArc
 50
0.0
 51
90.0
  0
ARC
  5
153
330
1F
100
AcDbEntity
  8
A-2_仕上
  6
Continuous
 62
     3
370
     9
100
AcDbCircle
 10
-655.2379346931721
 20
201.5028774308629
 30
0.0
 40
18.68299983060874
100
AcDbArc
 50
0.0
 51
90.0
  0
LINE
  5
154
330
1F
100
AcDbEntity
  8
A-2_仕上
  6
Continuous
 62
     3
370
     9
100
AcDbLine
 10
-642.5549348081673
 20
201.5028774308629
 30
0.0
 11
-642.5549348081673
 21
194.1858774972044
 31
0.0
  0
LINE
  5
155
330
1F
100
AcDbEntity
  8
A-2_仕上
  6
Continuous
 62
     3
370
     9
100
AcDbLine
 10
-636.5549348625668
 20
201.5028774308629
 30
0.0
 11
-636.5549348625668
 21
194.1858774972044
 31
0.0
  0
LINE
  5
156
330
1F
100
AcDbEntity
  8
A-2_仕上
  6
Continuous
 62
     3
370
     9
100
AcDbLine
 10
-667.5549345814934
 20
194.6858774926712
 30
0.0
 11
-667.5549345814934
 21
204.5277740958963
 31
0.0
  0
ARC
  5
157
330
1F
100
AcDbEntity
  8
A-2_仕上
  6
Continuous
 62
     3
370
     9
100
AcDbCircle
 10
-655.2379346931721
 20
201.5028774308629
 30
0.0
 40
12.68299988500862
100
AcDbArc
 50
90.0
 51
166.2019684023945
  0
ARC
  5
158
330
1F
100
AcDbEntity
  8
A-2_仕上
  6
Continuous
 62
     3
370
     9
100
AcDbCircle
 10
-655.2379346931721
 20
201.5028774308629
 30
0.0
 40
18.68299983060874
100
AcDbArc
 50
90.0
 51
168.6403117194892
  0
LINE
  5
159
330
1F
100
AcDbEntity
  8
A-2_仕上
  6
Continuous
 62
     3
370
     9
100
AcDbLine
 10
-673.5549345270865
 20
194.6858774926712
 30
0.0
 11
-667.5549345814934
 21
194.6858774926675
 31
0.0
  0
LINE
  5
15A
330
1F
100
AcDbEntity
  8
A-2_仕上
  6
Continuous
 62
     3
370
     9
100
AcDbLine
 10
-752.371960754597
 20
174.1858776785375
 30
0.0
 11
-752.371960754597
 21
174.1958776784468
 31
0.0
  0
ARC
  5
15B
330
1F
100
AcDbEntity
  8
A-2_仕上
  6
Continuous
 62
     3
370
     9
100
AcDbCircle
 10
-752.371960754597
 20
186.8688775635462
 30
0.0
 40
12.68299988500862
100
AcDbArc
 50
180.0
 51
270.0
  0
ARC
  5
15C
330
1F
100
AcDbEntity
  8
A-2_仕上
  6
Continuous
 62
     3
370
     9
100
AcDbCircle
 10
-752.371960754597
 20
186.8688775635462
 30
0.0
 40
18.68299983060874
100
AcDbArc
 50
180.0
 51
270.0
  0
LINE
  5
15D
330
1F
100
AcDbEntity
  8
A-2_仕上
  6
Continuous
 62
     3
370
     9
100
AcDbLine
 10
-765.0549606396017
 20
186.8688775635462
 30
0.0
 11
-765.0549606396017
 21
194.1858774972044
 31
0.0
  0
LINE
  5
15E
330
1F
100
AcDbEntity
  8
A-2_仕上
  6
Continuous
 62
     3
370
     9
100
AcDbLine
 10
-771.0549605852023
 20
186.8688775635462
 30
0.0
 11
-771.0549605852023
 21
194.1858774972044
 31
0.0
  0
LINE
  5
15F
330
1F
100
AcDbEntity
  8
A-2_仕上
  6
Continuous
 62
     3
370
     9
100
AcDbLine
 10
-740.0549608662757
 20
193.6858775017379
 30
0.0
 11
-740.0549608662757
 21
183.8439808985128
 31
0.0
  0
LINE
  5
160
330
1F
100
AcDbEntity
  8
A-2_仕上
  6
Continuous
 62
     3
370
     9
100
AcDbLine
 10
-734.0549609206753
 20
284.5444373229435
 30
0.0
 11
-734.0549609206753
 21
-549.8147359473265
 31
0.0
  0
LINE
  5
161
330
1F
100
AcDbEntity
  8
A-2_仕上
  6
Continuous
 62
     3
370
     9
100
AcDbLine
 10
-734.0549609206678
 20
193.6858775017379
 30
0.0
 11
-740.0549608662683
 21
193.6858775017379
 31
0.0
  0
ARC
  5
162
330
1F
100
AcDbEntity
  8
A-2_仕上
  6
Continuous
 62
     3
370
     9
100
AcDbCircle
 10
-752.371960754597
 20
186.8688775635462
 30
0.0
 40
12.68299988500862
100
AcDbArc
 50
270.0
 51
346.2019684023944
  0
ARC
  5
163
330
1F
100
AcDbEntity
  8
A-2_仕上
  6
Continuous
 62
     3
370
     9
100
AcDbCircle
 10
-752.371960754597
 20
186.8688775635462
 30
0.0
 40
18.68299983060874
100
AcDbArc
 50
270.0
 51
348.6403117194892
  0
ARC
  5
164
330
1F
100
AcDbEntity
  8
A-2_仕上
  6
Continuous
 62
     3
370
     9
100
AcDbCircle
 10
-752.371960754597
 20
201.5028774308629
 30
0.0
 40
12.68299988500862
100
AcDbArc
 50
90.0
 51
180.0
  0
ARC
  5
165
330
1F
100
AcDbEntity
  8
A-2_仕上
  6
Continuous
 62
     3
370
     9
100
AcDbCircle
 10
-752.371960754597
 20
201.5028774308629
 30
0.0
 40
18.68299983060874
100
AcDbArc
 50
90.0
 51
180.0
  0
LINE
  5
166
330
1F
100
AcDbEntity
  8
A-2_仕上
  6
Continuous
 62
     3
370
     9
100
AcDbLine
 10
-765.0549606396017
 20
201.5028774308629
 30
0.0
 11
-765.0549606396017
 21
194.1858774972044
 31
0.0
  0
LINE
  5
167
330
1F
100
AcDbEntity
  8
A-2_仕上
  6
Continuous
 62
     3
370
     9
100
AcDbLine
 10
-771.0549605852023
 20
201.5028774308629
 30
0.0
 11
-771.0549605852023
 21
194.1858774972044
 31
0.0
  0
LINE
  5
168
330
1F
100
AcDbEntity
  8
A-2_仕上
  6
Continuous
 62
     3
370
     9
100
AcDbLine
 10
-740.0549608662757
 20
194.6858774926712
 30
0.0
 11
-740.0549608662757
 21
204.5277740958963
 31
0.0
  0
ARC
  5
169
330
1F
100
AcDbEntity
  8
A-2_仕上
  6
Continuous
 62
     3
370
     9
100
AcDbCircle
 10
-752.371960754597
 20
201.5028774308629
 30
0.0
 40
12.68299988500862
100
AcDbArc
 50
13.79803159760555
 51
90.0
  0
ARC
  5
16A
330
1F
100
AcDbEntity
  8
A-2_仕上
  6
Continuous
 62
     3
370
     9
100
AcDbCircle
 10
-752.371960754597
 20
201.5028774308629
 30
0.0
 40
18.68299983060874
100
AcDbArc
 50
11.35968828051082
 51
90.0
  0
LINE
  5
16B
330
1F
100
AcDbEntity
  8
A-2_仕上
  6
Continuous
 62
     3
370
     9
100
AcDbLine
 10
-734.0549609206826
 20
194.6858774926712
 30
0.0
 11
-740.0549608662757
 21
194.6858774926675
 31
0.0
  0
ARC
  5
16C
330
1F
100
AcDbEntity
  8
A-2_仕上
  6
Continuous
 62
     3
370
     9
100
AcDbCircle
 10
0.0000000000001705
 20
217.1858772614718
 30
0.0
 40
3.0
100
AcDbArc
 50
90.0
 51
180.0
  0
ARC
  5
16D
330
1F
100
AcDbEntity
  8
A-2_仕上
  6
Continuous
 62
     3
370
     9
100
AcDbCircle
 10
0.0
 20
217.1858772614718
 30
0.0
 40
3.0
100
AcDbArc
 50
0.0
 51
90.0
  0
LINE
  5
16E
330
1F
100
AcDbEntity
  8
A-2_仕上
  6
Continuous
 62
     3
370
     9
100
AcDbLine
 10
-2.999999999999829
 20
171.1858777329373
 30
0.0
 11
-2.999999999999829
 21
217.1858772614718
 31
0.0
  0
ARC
  5
16F
330
1F
100
AcDbEntity
  8
A-2_仕上
  6
Continuous
 62
     3
370
     9
100
AcDbCircle
 10
0.0000000000001705
 20
171.1858777329373
 30
0.0
 40
3.0
100
AcDbArc
 50
180.0
 51
270.0
  0
LINE
  5
170
330
1F
100
AcDbEntity
  8
A-2_仕上
  6
Continuous
 62
     3
370
     9
100
AcDbLine
 10
3.0
 20
171.1858777329373
 30
0.0
 11
3.0
 21
217.1858772614718
 31
0.0
  0
ARC
  5
171
330
1F
100
AcDbEntity
  8
A-2_仕上
  6
Continuous
 62
     3
370
     9
100
AcDbCircle
 10
0.0
 20
171.1858777329373
 30
0.0
 40
3.0
100
AcDbArc
 50
270.0
 51
0.0
  0
TEXT
  5
172
330
1F
100
AcDbEntity
  8
A-5_建具
  6
Continuous
 62
     2
370
   211
100
AcDbText
 10
-601.7374924833065
 20
436.2036430081843
 30
0.0
 40
18.288
  1
4-φ12
 41
1.104166666666667
  7
ＭＳ ゴシック
100
AcDbText
  0
LINE
  5
173
330
1F
100
AcDbEntity
  8
A-A_インテリア
  6
JWW_CENTER1
 62
     7
370
     9
100
AcDbLine
 10
-753.8087185947563
 20
-532.0028518447297
 30
0.0
 11
-753.8087185947563
 21
-588.254951283028
 31
0.0
  0
LINE
  5
174
330
1F
100
AcDbEntity
  8
A-A_インテリア
  6
JWW_CENTER1
 62
     7
370
     9
100
AcDbLine
 10
-653.8087195014207
 20
-532.0028518447297
 30
0.0
 11
-653.8087195014207
 21
-588.254951283028
 31
0.0
  0
LINE
  5
175
330
1F
100
AcDbEntity
  8
A-A_インテリア
  6
JWW_CENTER1
 62
     7
370
     9
100
AcDbLine
 10
-50.00377087087168
 20
-532.0028518447297
 30
0.0
 11
-50.00377087087168
 21
-588.254951283028
 31
0.0
  0
LINE
  5
176
330
1F
100
AcDbEntity
  8
A-A_インテリア
  6
JWW_CENTER1
 62
     7
370
     9
100
AcDbLine
 10
49.99622822246391
 20
-532.0028518447297
 30
0.0
 11
49.99622822246391
 21
-588.254951283028
 31
0.0
  0
LINE
  5
177
330
1F
100
AcDbEntity
  8
A-2_仕上
  6
Continuous
 62
     3
370
     9
100
AcDbLine
 10
-778.8049477238847
 20
-555.8147358929264
 30
0.0
 11
-628.8049477238847
 21
-555.8147358929264
 31
0.0
  0
LINE
  5
178
330
1F
100
AcDbEntity
  8
A-2_仕上
  6
Continuous
 62
     3
370
     9
100
AcDbLine
 10
-74.99999999999983
 20
-555.8147358929264
 30
0.0
 11
75.00000000000034
 21
-555.8147358929264
 31
0.0
  0
ARC
  5
179
330
1F
100
AcDbEntity
  8
A-2_仕上
  6
Continuous
 62
     3
370
     9
100
AcDbCircle
 10
-737.0549474224183
 20
556.6004268237714
 30
0.0
 40
2.999999972800059
100
AcDbArc
 50
270.0
 51
90.0
  0
ARC
  5
17A
330
1F
100
AcDbEntity
  8
A-2_仕上
  6
Continuous
 62
     3
370
     9
100
AcDbCircle
 10
-670.554948025351
 20
556.6004268237714
 30
0.0
 40
2.999999972800059
100
AcDbArc
 50
90.0
 51
270.0
  0
LINE
  5
17B
330
1F
100
AcDbEntity
  8
A-A_インテリア
  6
JWW_CENTER1
 62
     7
370
     9
100
AcDbLine
 10
-681.4263417823852
 20
194.1858774972068
 30
0.0
 11
-630.1124272467564
 21
194.1858774971914
 31
0.0
  0
LINE
  5
17C
330
1F
100
AcDbEntity
  8
A-A_インテリア
  6
JWW_CENTER1
 62
     7
370
     9
100
AcDbLine
 10
-655.2379346931721
 20
159.6657489339235
 30
0.0
 11
-655.2379346931721
 21
228.7060060604744
 31
0.0
  0
LINE
  5
17D
330
1F
100
AcDbEntity
  8
A-A_インテリア
  6
JWW_CENTER1
 62
     7
370
     9
100
AcDbLine
 10
-726.1835536653841
 20
194.1858774972068
 30
0.0
 11
-777.4974682010127
 21
194.1858774971914
 31
0.0
  0
LINE
  5
17E
330
1F
100
AcDbEntity
  8
A-A_インテリア
  6
JWW_CENTER1
 62
     7
370
     9
100
AcDbLine
 10
-752.371960754597
 20
159.6657489339235
 30
0.0
 11
-752.371960754597
 21
228.7060060604744
 31
0.0
  0
LINE
  5
17F
330
1F
100
AcDbEntity
  8
A-A_インテリア
  6
JWW_CENTER1
 62
     7
370
     9
100
AcDbLine
 10
-752.5549472818855
 20
550.6004268781712
 30
0.0
 11
-752.5549472818855
 21
562.6004267693717
 31
0.0
  0
LINE
  5
180
330
1F
100
AcDbEntity
  8
A-A_インテリア
  6
JWW_CENTER1
 62
     7
370
     9
100
AcDbLine
 10
-655.0549481658836
 20
550.6004268781712
 30
0.0
 11
-655.0549481658836
 21
562.6004267693717
 31
0.0
  0
LINE
  5
181
330
1F
100
AcDbEntity
  8
A-6_間仕切
  6
Continuous
 62
     6
370
     5
100
AcDbLine
 10
-324.6191969320639
 20
-555.8147359473265
 30
0.0
 11
-1037.26425923821
 21
-555.8147359473265
 31
0.0
  0
LINE
  5
182
330
1F
100
AcDbEntity
  8
A-6_間仕切
  6
Continuous
 62
     6
370
     5
100
AcDbLine
 10
210.0
 20
-555.8147359473265
 30
0.0
 11
-210.0
 21
-555.8147359473265
 31
0.0
  0
LINE
  5
183
330
1F
100
AcDbEntity
  8
A-6_間仕切
  6
Continuous
 62
     6
370
     5
100
AcDbLine
 10
-114.8994949366116
 20
-555.8147359473265
 30
0.0
 11
-216.374136476247
 21
-657.2893774869619
 31
0.0
  0
LINE
  5
184
330
1F
100
AcDbEntity
  8
A-6_間仕切
  6
Continuous
 62
     6
370
     5
100
AcDbLine
 10
-95.10050506338837
 20
-555.8147359473265
 30
0.0
 11
-196.5751466030237
 21
-657.2893774869619
 31
0.0
  0
LINE
  5
185
330
1F
100
AcDbEntity
  8
A-6_間仕切
  6
Continuous
 62
     6
370
     5
100
AcDbLine
 10
-105.0
 20
-555.8147359473265
 30
0.0
 11
-206.4746415396353
 21
-657.2893774869619
 31
0.0
  0
LINE
  5
186
330
1F
100
AcDbEntity
  8
A-6_間仕切
  6
Continuous
 62
     6
370
     5
100
AcDbLine
 10
147.495165896388
 20
-555.8147359473265
 30
0.0
 11
46.02052435675261
 21
-657.2893774869619
 31
0.0
  0
LINE
  5
187
330
1F
100
AcDbEntity
  8
A-6_間仕切
  6
Continuous
 62
     6
370
     5
100
AcDbLine
 10
167.2941557696112
 20
-555.8147359473265
 30
0.0
 11
65.81951422997588
 21
-657.2893774869619
 31
0.0
  0
LINE
  5
188
330
1F
100
AcDbEntity
  8
A-6_間仕切
  6
Continuous
 62
     6
370
     5
100
AcDbLine
 10
157.3946608329996
 20
-555.8147359473265
 30
0.0
 11
55.92001929336424
 21
-657.2893774869619
 31
0.0
  0
LINE
  5
189
330
1F
100
AcDbEntity
  8
A-6_間仕切
  6
Continuous
 62
     6
370
     5
100
AcDbLine
 10
-459.9456657780204
 20
-555.8147359473265
 30
0.0
 11
-561.4203073176557
 21
-657.2893774869619
 31
0.0
  0
LINE
  5
18A
330
1F
100
AcDbEntity
  8
A-6_間仕切
  6
Continuous
 62
     6
370
     5
100
AcDbLine
 10
-440.1466759047971
 20
-555.8147359473265
 30
0.0
 11
-541.6213174444324
 21
-657.2893774869619
 31
0.0
  0
LINE
  5
18B
330
1F
100
AcDbEntity
  8
A-6_間仕切
  6
Continuous
 62
     6
370
     5
100
AcDbLine
 10
-450.0461708414088
 20
-555.8147359473265
 30
0.0
 11
-551.520812381044
 21
-657.2893774869619
 31
0.0
  0
LINE
  5
18C
330
1F
100
AcDbEntity
  8
A-6_間仕切
  6
Continuous
 62
     6
370
     5
100
AcDbLine
 10
-887.4705496532692
 20
-555.8147359473265
 30
0.0
 11
-988.9451911929046
 21
-657.2893774869619
 31
0.0
  0
LINE
  5
18D
330
1F
100
AcDbEntity
  8
A-6_間仕切
  6
Continuous
 62
     6
370
     5
100
AcDbLine
 10
-867.671559780046
 20
-555.8147359473265
 30
0.0
 11
-969.1462013196814
 21
-657.2893774869619
 31
0.0
  0
LINE
  5
18E
330
1F
100
AcDbEntity
  8
A-6_間仕切
  6
Continuous
 62
     6
370
     5
100
AcDbLine
 10
-877.5710547166577
 20
-555.8147359473265
 30
0.0
 11
-979.045696256293
 21
-657.2893774869619
 31
0.0
  0
LINE
  5
18F
330
1F
100
AcDbEntity
  8
D-2_仕上
  6
Continuous
 62
     3
370
     9
100
AcDbLine
 10
776.9242160170251
 20
-140.8429167710567
 30
0.0
 11
776.9242160170251
 21
-140.8129167713289
 31
0.0
  0
ARC
  5
190
330
1F
100
AcDbEntity
  8
D-2_仕上
  6
Continuous
 62
     3
370
     9
100
AcDbCircle
 10
776.9242160170251
 20
-102.7939171160306
 30
0.0
 40
38.04899965502587
100
AcDbArc
 50
270.0
 51
0.0
  0
ARC
  5
191
330
1F
100
AcDbEntity
  8
D-2_仕上
  6
Continuous
 62
     3
370
     9
100
AcDbCircle
 10
776.9242160170251
 20
-102.7939171160306
 30
0.0
 40
56.04899949182623
100
AcDbArc
 50
270.0
 51
0.0
  0
LINE
  5
192
330
1F
100
AcDbEntity
  8
D-2_仕上
  6
Continuous
 62
     3
370
     9
100
AcDbLine
 10
814.9732156720393
 20
-102.7939171160306
 30
0.0
 11
814.9732156720393
 21
-80.84291731505608
 31
0.0
  0
LINE
  5
193
330
1F
100
AcDbEntity
  8
D-2_仕上
  6
Continuous
 62
     3
370
     9
100
AcDbLine
 10
832.9732155088408
 20
-102.7939171160306
 30
0.0
 11
832.9732155088408
 21
-80.84291731505608
 31
0.0
  0
LINE
  5
194
330
1F
100
AcDbEntity
  8
D-2_仕上
  6
Continuous
 62
     3
370
     9
100
AcDbLine
 10
739.973216352061
 20
-82.34291730145561
 30
0.0
 11
739.973216352061
 21
-111.8686071111309
 31
0.0
  0
LINE
  5
195
330
1F
100
AcDbEntity
  8
D-2_仕上
  6
Continuous
 62
     3
370
     9
100
AcDbLine
 10
721.9732165152593
 20
190.2327621622952
 30
0.0
 11
721.9732165152593
 21
-248.8429166078568
 31
0.0
  0
LINE
  5
196
330
1F
100
AcDbEntity
  8
D-2_仕上
  6
Continuous
 62
     3
370
     9
100
AcDbLine
 10
721.9732165152374
 20
-82.34291730145561
 30
0.0
 11
739.9732163520389
 21
-82.34291730145561
 31
0.0
  0
ARC
  5
197
330
1F
100
AcDbEntity
  8
D-2_仕上
  6
Continuous
 62
     3
370
     9
100
AcDbCircle
 10
776.9242160170251
 20
-102.7939171160306
 30
0.0
 40
38.04899965502587
100
AcDbArc
 50
193.7980315976056
 51
270.0
  0
ARC
  5
198
330
1F
100
AcDbEntity
  8
D-2_仕上
  6
Continuous
 62
     3
370
     9
100
AcDbCircle
 10
776.9242160170251
 20
-102.7939171160306
 30
0.0
 40
56.04899949182623
100
AcDbArc
 50
191.3596882805108
 51
270.0
  0
ARC
  5
199
330
1F
100
AcDbEntity
  8
D-2_仕上
  6
Continuous
 62
     3
370
     9
100
AcDbCircle
 10
776.9242160170251
 20
-58.89191751408056
 30
0.0
 40
38.04899965502587
100
AcDbArc
 50
0.0
 51
90.0
  0
ARC
  5
19A
330
1F
100
AcDbEntity
  8
D-2_仕上
  6
Continuous
 62
     3
370
     9
100
AcDbCircle
 10
776.9242160170251
 20
-58.89191751408056
 30
0.0
 40
56.04899949182623
100
AcDbArc
 50
0.0
 51
90.0
  0
LINE
  5
19B
330
1F
100
AcDbEntity
  8
D-2_仕上
  6
Continuous
 62
     3
370
     9
100
AcDbLine
 10
814.9732156720393
 20
-58.89191751408056
 30
0.0
 11
814.9732156720393
 21
-80.84291731505608
 31
0.0
  0
LINE
  5
19C
330
1F
100
AcDbEntity
  8
D-2_仕上
  6
Continuous
 62
     3
370
     9
100
AcDbLine
 10
832.9732155088408
 20
-58.89191751408056
 30
0.0
 11
832.9732155088408
 21
-80.84291731505608
 31
0.0
  0
LINE
  5
19D
330
1F
100
AcDbEntity
  8
D-2_仕上
  6
Continuous
 62
     3
370
     9
100
AcDbLine
 10
739.973216352061
 20
-79.34291732865553
 30
0.0
 11
739.973216352061
 21
-49.8172275189802
 31
0.0
  0
ARC
  5
19E
330
1F
100
AcDbEntity
  8
D-2_仕上
  6
Continuous
 62
     3
370
     9
100
AcDbCircle
 10
776.9242160170251
 20
-58.89191751408056
 30
0.0
 40
38.04899965502587
100
AcDbArc
 50
90.0
 51
166.2019684023945
  0
ARC
  5
19F
330
1F
100
AcDbEntity
  8
D-2_仕上
  6
Continuous
 62
     3
370
     9
100
AcDbCircle
 10
776.9242160170251
 20
-58.89191751408056
 30
0.0
 40
56.04899949182623
100
AcDbArc
 50
90.0
 51
168.6403117194892
  0
LINE
  5
1A0
330
1F
100
AcDbEntity
  8
D-2_仕上
  6
Continuous
 62
     3
370
     9
100
AcDbLine
 10
721.9732165152817
 20
-79.34291732865553
 30
0.0
 11
739.973216352061
 21
-79.34291732866679
 31
0.0
  0
LINE
  5
1A1
330
1F
100
AcDbEntity
  8
D-2_仕上
  6
Continuous
 62
     3
370
     9
100
AcDbLine
 10
485.5221378327501
 20
-140.8429167710567
 30
0.0
 11
485.5221378327501
 21
-140.8129167713289
 31
0.0
  0
ARC
  5
1A2
330
1F
100
AcDbEntity
  8
D-2_仕上
  6
Continuous
 62
     3
370
     9
100
AcDbCircle
 10
485.5221378327501
 20
-102.7939171160306
 30
0.0
 40
38.04899965502587
100
AcDbArc
 50
180.0
 51
270.0
  0
ARC
  5
1A3
330
1F
100
AcDbEntity
  8
D-2_仕上
  6
Continuous
 62
     3
370
     9
100
AcDbCircle
 10
485.5221378327501
 20
-102.7939171160306
 30
0.0
 40
56.04899949182623
100
AcDbArc
 50
180.0
 51
270.0
  0
LINE
  5
1A4
330
1F
100
AcDbEntity
  8
D-2_仕上
  6
Continuous
 62
     3
370
     9
100
AcDbLine
 10
447.473138177736
 20
-102.7939171160306
 30
0.0
 11
447.473138177736
 21
-80.84291731505608
 31
0.0
  0
LINE
  5
1A5
330
1F
100
AcDbEntity
  8
D-2_仕上
  6
Continuous
 62
     3
370
     9
100
AcDbLine
 10
429.4731383409345
 20
-102.7939171160306
 30
0.0
 11
429.4731383409345
 21
-80.84291731505608
 31
0.0
  0
LINE
  5
1A6
330
1F
100
AcDbEntity
  8
D-2_仕上
  6
Continuous
 62
     3
370
     9
100
AcDbLine
 10
522.4731374977141
 20
-82.34291730145561
 30
0.0
 11
522.4731374977141
 21
-111.8686071111309
 31
0.0
  0
LINE
  5
1A7
330
1F
100
AcDbEntity
  8
D-2_仕上
  6
Continuous
 62
     3
370
     9
100
AcDbLine
 10
540.4731373345155
 20
190.2327621621385
 30
0.0
 11
540.4731373345155
 21
-248.8429166078568
 31
0.0
  0
LINE
  5
1A8
330
1F
100
AcDbEntity
  8
D-2_仕上
  6
Continuous
 62
     3
370
     9
100
AcDbLine
 10
540.4731373345378
 20
-82.34291730145561
 30
0.0
 11
522.4731374977363
 21
-82.34291730145561
 31
0.0
  0
ARC
  5
1A9
330
1F
100
AcDbEntity
  8
D-2_仕上
  6
Continuous
 62
     3
370
     9
100
AcDbCircle
 10
485.5221378327501
 20
-102.7939171160306
 30
0.0
 40
38.04899965502587
100
AcDbArc
 50
270.0
 51
346.2019684023944
  0
ARC
  5
1AA
330
1F
100
AcDbEntity
  8
D-2_仕上
  6
Continuous
 62
     3
370
     9
100
AcDbCircle
 10
485.5221378327501
 20
-102.7939171160306
 30
0.0
 40
56.04899949182623
100
AcDbArc
 50
270.0
 51
348.6403117194892
  0
ARC
  5
1AB
330
1F
100
AcDbEntity
  8
D-2_仕上
  6
Continuous
 62
     3
370
     9
100
AcDbCircle
 10
485.5221378327501
 20
-58.89191751408056
 30
0.0
 40
38.04899965502587
100
AcDbArc
 50
90.0
 51
180.0
  0
ARC
  5
1AC
330
1F
100
AcDbEntity
  8
D-2_仕上
  6
Continuous
 62
     3
370
     9
100
AcDbCircle
 10
485.5221378327501
 20
-58.89191751408056
 30
0.0
 40
56.04899949182623
100
AcDbArc
 50
90.0
 51
180.0
  0
LINE
  5
1AD
330
1F
100
AcDbEntity
  8
D-2_仕上
  6
Continuous
 62
     3
370
     9
100
AcDbLine
 10
447.473138177736
 20
-58.89191751408056
 30
0.0
 11
447.473138177736
 21
-80.84291731505608
 31
0.0
  0
LINE
  5
1AE
330
1F
100
AcDbEntity
  8
D-2_仕上
  6
Continuous
 62
     3
370
     9
100
AcDbLine
 10
429.4731383409345
 20
-58.89191751408056
 30
0.0
 11
429.4731383409345
 21
-80.84291731505608
 31
0.0
  0
LINE
  5
1AF
330
1F
100
AcDbEntity
  8
D-2_仕上
  6
Continuous
 62
     3
370
     9
100
AcDbLine
 10
522.4731374977141
 20
-79.34291732865553
 30
0.0
 11
522.4731374977141
 21
-49.8172275189802
 31
0.0
  0
ARC
  5
1B0
330
1F
100
AcDbEntity
  8
D-2_仕上
  6
Continuous
 62
     3
370
     9
100
AcDbCircle
 10
485.5221378327501
 20
-58.89191751408056
 30
0.0
 40
38.04899965502587
100
AcDbArc
 50
13.79803159760555
 51
90.0
  0
ARC
  5
1B1
330
1F
100
AcDbEntity
  8
D-2_仕上
  6
Continuous
 62
     3
370
     9
100
AcDbCircle
 10
485.5221378327501
 20
-58.89191751408056
 30
0.0
 40
56.04899949182623
100
AcDbArc
 50
11.35968828051082
 51
90.0
  0
LINE
  5
1B2
330
1F
100
AcDbEntity
  8
D-2_仕上
  6
Continuous
 62
     3
370
     9
100
AcDbLine
 10
540.4731373344936
 20
-79.34291732865553
 30
0.0
 11
522.4731374977141
 21
-79.34291732866679
 31
0.0
  0
LINE
  5
1B3
330
1F
100
AcDbEntity
  8
D-A_インテリア
  6
JWW_CENTER1
 62
     7
370
     9
100
AcDbLine
 10
698.3589947493858
 20
-80.84291731504892
 30
0.0
 11
852.3007383562722
 21
-80.84291731509497
 31
0.0
  0
LINE
  5
1B4
330
1F
100
AcDbEntity
  8
D-A_インテリア
  6
JWW_CENTER1
 62
     7
370
     9
100
AcDbLine
 10
776.9242160170251
 20
-184.4033030048987
 30
0.0
 11
776.9242160170251
 21
22.71746837475381
 31
0.0
  0
LINE
  5
1B5
330
1F
100
AcDbEntity
  8
D-A_インテリア
  6
JWW_CENTER1
 62
     7
370
     9
100
AcDbLine
 10
564.087359100389
 20
-80.84291731504892
 30
0.0
 11
410.1456154935032
 21
-80.84291731509497
 31
0.0
  0
LINE
  5
1B6
330
1F
100
AcDbEntity
  8
D-A_インテリア
  6
JWW_CENTER1
 62
     7
370
     9
100
AcDbLine
 10
485.5221378327501
 20
-184.4033030048987
 30
0.0
 11
485.5221378327501
 21
22.71746837475381
 31
0.0
  0
ARC
  5
1B7
330
1F
100
AcDbEntity
  8
A-2_仕上
  6
Continuous
 62
     3
370
     9
100
AcDbCircle
 10
-703.8049477238847
 20
241.9071318200139
 30
0.0
 40
52.27812452601248
100
AcDbArc
 50
54.64534367901268
 51
125.3546563210863
  0
LINE
  5
1B8
330
1F
100
AcDbEntity
  8
A-2_仕上
  6
Continuous
 62
     3
370
     9
100
AcDbLine
 10
-673.554934527094
 20
284.1852564366756
 30
0.0
 11
-734.0549609206753
 21
284.1852564366756
 31
0.0
  0
ARC
  5
1B9
330
1F
100
AcDbEntity
  8
A-2_仕上
  6
Continuous
 62
     3
370
     9
100
AcDbCircle
 10
0.0
 20
241.9071318200139
 30
0.0
 40
52.27812452601248
100
AcDbArc
 50
54.64534367901268
 51
125.3546563210863
  0
LINE
  5
1BA
330
1F
100
AcDbEntity
  8
A-2_仕上
  6
Continuous
 62
     3
370
     9
100
AcDbLine
 10
30.25001319679063
 20
284.1852564366756
 30
0.0
 11
-30.25001319679063
 21
284.1852564366756
 31
0.0
  0
LINE
  5
1BB
330
1F
100
AcDbEntity
  8
A-2_仕上
  6
Continuous
 62
     3
370
     9
100
AcDbLine
 10
30.25001319679063
 20
-549.8147359473265
 30
0.0
 11
30.25001319679063
 21
284.5444373229957
 31
0.0
  0
LINE
  5
1BC
330
1F
100
AcDbEntity
  8
A-2_仕上
  6
Continuous
 62
     3
370
     9
100
AcDbLine
 10
-30.25001319679063
 20
-549.8147359473265
 30
0.0
 11
-30.25001319679063
 21
284.5444373229435
 31
0.0
  0
ARC
  5
1BD
330
1F
100
AcDbEntity
  8
D-2_仕上
  6
Continuous
 62
     3
370
     9
100
AcDbCircle
 10
631.2231769248874
 20
62.32084565334986
 30
0.0
 40
156.8343735780375
100
AcDbArc
 50
54.64534367901268
 51
125.3546563210863
  0
LINE
  5
1BE
330
1F
100
AcDbEntity
  8
D-2_仕上
  6
Continuous
 62
     3
370
     9
100
AcDbLine
 10
721.9732165152593
 20
189.1552195033349
 30
0.0
 11
540.4731373345155
 21
189.1552195033349
 31
0.0
  0
LINE
  5
1BF
330
1F
100
AcDbEntity
  8
D-4_文字
  6
Continuous
 62
     7
370
     9
100
AcDbLine
 10
721.9732165152593
 20
268.307094520904
 30
0.0
 11
832.9732155088514
 21
268.307094520904
 31
0.0
  0
LWPOLYLINE
  5
1C0
330
1F
100
AcDbEntity
  8
D-4_文字
  6
Continuous
 62
     7
370
     9
100
AcDbPolyline
 90
        4
 70
     1
 43
1.2
 10
722.5732165152593
 20
268.307094520904
 42
0.4142135623731
 10
721.9732165152593
 20
268.907094520904
 42
0.4142135623731
 10
721.3732165152594
 20
268.307094520904
 42
0.4142135623731
 10
721.9732165152593
 20
267.707094520904
 42
0.4142135623731
  0
LWPOLYLINE
  5
1C1
330
1F
100
AcDbEntity
  8
D-4_文字
  6
Continuous
 62
     7
370
     9
100
AcDbPolyline
 90
        4
 70
     1
 43
1.2
 10
833.5732155088513
 20
268.307094520904
 42
0.4142135623731
 10
832.9732155088514
 20
268.907094520904
 42
0.4142135623731
 10
832.3732155088514
 20
268.307094520904
 42
0.4142135623731
 10
832.9732155088514
 20
267.707094520904
 42
0.4142135623731
  0
LINE
  5
1C2
330
1F
100
AcDbEntity
  8
D-4_文字
  6
Continuous
 62
     7
370
     9
100
AcDbLine
 10
721.9732165152593
 20
270.107094520904
 30
0.0
 11
721.9732165152593
 21
202.2327621622952
 31
0.0
  0
LINE
  5
1C3
330
1F
100
AcDbEntity
  8
D-4_文字
  6
Continuous
 62
     7
370
     9
100
AcDbLine
 10
832.9732155088514
 20
270.107094520904
 30
0.0
 11
832.9732155088514
 21
-46.89191751408056
 31
0.0
  0
TEXT
  5
1C4
330
1F
100
AcDbEntity
  8
D-4_文字
  6
Continuous
 62
     2
370
   211
100
AcDbText
 10
764.7232160120554
 20
275.291094520904
 30
0.0
 40
18.288
  1
37
 41
1.0625
  7
ＭＳ ゴシック
100
AcDbText
  0
TEXT
  5
1C5
330
1F
100
AcDbEntity
  8
F-5ﾚｲﾔ
  6
Continuous
 62
     2
370
     0
100
AcDbText
 10
-553.500210323849
 20
-816.6218984000591
 30
0.0
 40
18.288
  1
車止め　スチール製　固定式　後付タイプ　両フック付　ＥＣ０６８５ＲＣ－Ａ
 41
0.8993055555555556
  7
ＭＳ ゴシック
100
AcDbText
  0
TEXT
  5
1C6
330
1F
100
AcDbEntity
  8
A-5_建具
  6
Continuous
 62
     7
370
     9
100
AcDbText
 10
-626.819845415767
 20
-52.66561164956443
 30
0.0
 40
13.716
  1
本体：φ60.5×2.3
 41
1.156862745098039
  7
ＭＳ ゴシック
100
AcDbText
  0
TEXT
  5
1C7
330
1F
100
AcDbEntity
  8
A-5_建具
  6
Continuous
 62
     7
370
   211
100
AcDbText
 10
-626.819845415767
 20
-84.18103061462854
 30
0.0
 40
13.716
  1
STK　溶融亜鉛めっき＋焼付塗装
 41
1.155172413793103
  7
ＭＳ ゴシック
100
AcDbText
  0
LINE
  5
1C8
330
1F
100
AcDbEntity
  8
A-5_建具
  6
Continuous
 62
     7
370
     9
100
AcDbLine
 10
-631.8791895682679
 20
-61.9381308876774
 30
0.0
 11
-325.3198454157669
 21
-61.9381308876774
 31
0.0
  0
TEXT
  5
1C9
330
1F
100
AcDbEntity
  8
A-5_建具
  6
Continuous
 62
     2
370
     0
100
AcDbText
 10
608.0823446176956
 20
-676.2662993107502
 30
0.0
 40
18.28799999999998
  1
ご注文の際にご指示下さい。
 41
1.115384615384616
  7
ＭＳ ゴシック
100
AcDbText
  0
TEXT
  5
1CA
330
1F
100
AcDbEntity
  8
A-5_建具
  6
Continuous
 62
     2
370
     0
100
AcDbText
 10
608.0823446176954
 20
-637.8141170466128
 30
0.0
 40
18.28799999999999
  1
標準色は、黄または白を設定しています。
 41
1.118421052631579
  7
ＭＳ ゴシック
100
AcDbText
  0
TEXT
  5
1CB
330
1F
100
AcDbEntity
  8
A-5_建具
  6
Continuous
 62
     2
370
     0
100
AcDbText
 10
864.5823446176954
 20
-595.6923779161782
 30
0.0
 40
18.28800000000002
  1
支柱質量：3.9kg／本
 41
1.111842105263157
  7
ＭＳ ゴシック
100
AcDbText
  0
TEXT
  5
1CC
330
1F
100
AcDbEntity
  8
A-5_建具
  6
Continuous
 62
     7
370
   211
100
AcDbText
 10
-573.3591018101769
 20
-453.2700881604238
 30
0.0
 40
13.716
  1
ベースプレート：t=6.0
 41
1.158730158730158
  7
ＭＳ ゴシック
100
AcDbText
  0
TEXT
  5
1CD
330
1F
100
AcDbEntity
  8
A-5_建具
  6
Continuous
 62
     7
370
     9
100
AcDbText
 10
-573.3591018101769
 20
-484.7855071254883
 30
0.0
 40
13.716
  1
SPHC　電気亜鉛めっき＋焼付塗装
 41
1.155555555555555
  7
ＭＳ ゴシック
100
AcDbText
  0
LINE
  5
1CE
330
1F
100
AcDbEntity
  8
A-5_建具
  6
Continuous
 62
     7
370
     9
100
AcDbLine
 10
-578.4184459626779
 20
-462.5426073985368
 30
0.0
 11
-261.3591018101769
 21
-462.5426073985368
 31
0.0
  0
CIRCLE
  5
1CF
330
1F
100
AcDbEntity
  8
A-2_仕上
  6
JWW_DASHED2
 62
     3
370
     9
100
AcDbCircle
 10
-703.8049477238847
 20
556.6004268237714
 30
0.0
 40
27.94999972573394
  0
TEXT
  5
1D0
330
1F
100
AcDbEntity
  8
A-5_建具
  6
Continuous
 62
     7
370
   211
100
AcDbText
 10
-565.2974785182321
 20
-412.468085620622
 30
0.0
 40
13.716
  1
M10
 41
1.111111111111111
  7
ＭＳ ゴシック
100
AcDbText
  0
ENDSEC
  0
SECTION
  2
OBJECTS
  0
DICTIONARY
  5
C
330
0
100
AcDbDictionary
281
     1
  3
ACAD_DETAILVIEWSTYLE
350
1D8
  3
ACAD_GROUP
350
D
  3
ACAD_LAYOUT
350
1A
  3
ACAD_MATERIAL
350
43
  3
ACAD_MLEADERSTYLE
350
6B
  3
ACAD_MLINESTYLE
350
17
  3
ACAD_PLOTSETTINGS
350
19
  3
ACAD_PLOTSTYLENAME
350
E
  3
ACAD_SCALELIST
350
47
  3
ACAD_SECTIONVIEWSTYLE
350
1D9
  3
ACAD_TABLESTYLE
350
69
  3
ACAD_VISUALSTYLE
350
2A
  3
ACDB_RECOMPOSE_DATA
350
1D5
  3
AcDbVariableDictionary
350
1D1
  0
SUN
  5
6D
330
29
100
AcDbSun
 90
        1
290
     0
 63
     7
421
 16777215
 40
1.0
291
     1
 91
  2455826
 92
 54000000
292
     0
 70
     2
 71
   256
280
     1
  0
DICTIONARY
  5
1D8
102
{ACAD_REACTORS
330
C
102
}
330
C
100
AcDbDictionary
281
     1
  0
DICTIONARY
  5
D
102
{ACAD_REACTORS
330
C
102
}
330
C
100
AcDbDictionary
281
     1
  0
DICTIONARY
  5
1A
102
{ACAD_REACTORS
330
C
102
}
330
C
100
AcDbDictionary
281
     1
  3
Layout1
350
1E
  3
Layout2
350
26
  3
Model
350
22
  0
DICTIONARY
  5
43
102
{ACAD_REACTORS
330
C
102
}
330
C
100
AcDbDictionary
281
     1
  3
ByBlock
350
45
  3
ByLayer
350
44
  3
Global
350
46
  0
DICTIONARY
  5
6B
102
{ACAD_REACTORS
330
C
102
}
330
C
100
AcDbDictionary
281
     1
  3
Standard
350
6C
  0
DICTIONARY
  5
17
102
{ACAD_REACTORS
330
C
102
}
330
C
100
AcDbDictionary
281
     1
  3
Standard
350
18
  0
DICTIONARY
  5
19
102
{ACAD_REACTORS
330
C
102
}
330
C
100
AcDbDictionary
281
     1
  0
ACDBDICTIONARYWDFLT
  5
E
102
{ACAD_REACTORS
330
C
102
}
330
C
100
AcDbDictionary
281
     1
  3
Normal
350
F
100
AcDbDictionaryWithDefault
340
F
  0
DICTIONARY
  5
47
102
{ACAD_REACTORS
330
C
102
}
330
C
100
AcDbDictionary
281
     1
  3
A0
350
48
  3
A1
350
49
  3
A2
350
4A
  3
A3
350
4B
  3
A4
350
4C
  3
A5
350
4D
  3
A6
350
4E
  3
A7
350
4F
  3
A8
350
50
  3
A9
350
51
  3
B0
350
52
  3
B1
350
53
  3
B2
350
54
  3
B3
350
55
  3
B4
350
56
  3
B5
350
57
  3
B6
350
58
  3
B7
350
59
  3
B8
350
5A
  3
B9
350
5B
  3
C0
350
5C
  3
C1
350
5D
  3
C2
350
5E
  3
C3
350
5F
  3
C4
350
60
  3
C5
350
61
  3
C6
350
62
  3
C7
350
63
  3
C8
350
64
  3
C9
350
65
  3
D0
350
66
  3
D1
350
67
  3
D2
350
68
  0
DICTIONARY
  5
1D9
102
{ACAD_REACTORS
330
C
102
}
330
C
100
AcDbDictionary
281
     1
  0
DICTIONARY
  5
69
102
{ACAD_REACTORS
330
C
102
}
330
C
100
AcDbDictionary
281
     1
  3
Standard
350
6A
  0
DICTIONARY
  5
2A
102
{ACAD_REACTORS
330
C
102
}
330
C
100
AcDbDictionary
281
     1
  3
2dWireframe
350
2F
  3
Basic
350
32
  3
Brighten
350
36
  3
ColorChange
350
3A
  3
Conceptual
350
34
  3
Dim
350
35
  3
EdgeColorOff
350
3D
  3
Facepattern
350
39
  3
Flat
350
2B
  3
FlatWithEdges
350
2C
  3
Gouraud
350
2D
  3
GouraudWithEdges
350
2E
  3
Hidden
350
31
  3
JitterOff
350
3B
  3
Linepattern
350
38
  3
OverhangOff
350
3C
  3
Realistic
350
33
  3
Shaded
350
42
  3
Shaded with edges
350
41
  3
Shades of Gray
350
3E
  3
Sketchy
350
3F
  3
Thicken
350
37
  3
Wireframe
350
30
  3
X-Ray
350
40
  0
XRECORD
  5
1D5
102
{ACAD_REACTORS
330
C
102
}
330
C
100
AcDbXrecord
280
     1
 90
        1
330
6A
  0
DICTIONARY
  5
1D1
102
{ACAD_REACTORS
330
C
102
}
330
C
100
AcDbDictionary
281
     1
  3
CANNOSCALE
350
1D2
  3
CENTEREXE
350
1DA
  3
CENTERLTYPEFILE
350
1DB
  3
CMLEADERSTYLE
350
1D7
  3
CTABLESTYLE
350
1D6
  0
LAYOUT
  5
1E
102
{ACAD_REACTORS
330
1A
102
}
330
1A
100
AcDbPlotSettings
  1

  2
none_device
  4

  6

 40
0.0
 41
0.0
 42
0.0
 43
0.0
 44
0.0
 45
0.0
 46
0.0
 47
0.0
 48
0.0
 49
0.0
140
0.0
141
0.0
142
1.0
143
1.0
 70
   688
 72
     1
 73
     0
 74
     5
  7

 75
    16
 76
     0
 77
     5
 78
   300
147
1.0
148
0.0
149
0.0
100
AcDbLayout
  1
Layout1
 70
     1
 71
     1
 10
0.0
 20
0.0
 11
420.0
 21
297.0
 12
0.0
 22
0.0
 32
0.0
 14
1.000000000000000E+20
 24
1.000000000000000E+20
 34
1.000000000000000E+20
 15
-1.000000000000000E+20
 25
-1.000000000000000E+20
 35
-1.000000000000000E+20
146
0.0
 13
0.0
 23
0.0
 33
0.0
 16
1.0
 26
0.0
 36
0.0
 17
0.0
 27
1.0
 37
0.0
 76
     0
330
1B
  0
LAYOUT
  5
26
102
{ACAD_REACTORS
330
1A
102
}
330
1A
100
AcDbPlotSettings
  1

  2
none_device
  4

  6

 40
0.0
 41
0.0
 42
0.0
 43
0.0
 44
0.0
 45
0.0
 46
0.0
 47
0.0
 48
0.0
 49
0.0
140
0.0
141
0.0
142
1.0
143
1.0
 70
   688
 72
     1
 73
     0
 74
     5
  7

 75
    16
 76
     0
 77
     5
 78
   300
147
1.0
148
0.0
149
0.0
100
AcDbLayout
  1
Layout2
 70
     1
 71
     2
 10
0.0
 20
0.0
 11
0.0
 21
0.0
 12
0.0
 22
0.0
 32
0.0
 14
0.0
 24
0.0
 34
0.0
 15
0.0
 25
0.0
 35
0.0
146
0.0
 13
0.0
 23
0.0
 33
0.0
 16
1.0
 26
0.0
 36
0.0
 17
0.0
 27
1.0
 37
0.0
 76
     0
330
23
  0
LAYOUT
  5
22
102
{ACAD_REACTORS
330
1A
102
}
330
1A
100
AcDbPlotSettings
  1

  2
none_device
  4
Letter_(8.50_x_11.00_Inches)
  6

 40
6.35
 41
6.35
 42
6.35000508
 43
6.35000508
 44
215.9
 45
279.4
 46
0.0
 47
0.0
 48
0.0
 49
0.0
140
0.0
141
0.0
142
1.0
143
1.0
 70
  1712
 72
     1
 73
     0
 74
     0
  7

 75
     0
 76
     0
 77
     5
 78
   300
147
1.0
148
0.0
149
0.0
100
AcDbLayout
  1
Model
 70
     1
 71
     0
 10
-1260.0
 20
-891.0
 11
1260.0
 21
891.0
 12
0.0
 22
0.0
 32
0.0
 14
-1260.0
 24
-891.0
 34
0.0
 15
1260.0
 25
891.0
 35
0.0
146
0.0
 13
0.0
 23
0.0
 33
0.0
 16
1.0
 26
0.0
 36
0.0
 17
0.0
 27
1.0
 37
0.0
 76
     0
330
1F
331
29
  0
MATERIAL
  5
45
102
{ACAD_REACTORS
330
43
102
}
330
43
100
AcDbMaterial
  1
ByBlock
 72
     1
 94
      127
  0
MATERIAL
  5
44
102
{ACAD_REACTORS
330
43
102
}
330
43
100
AcDbMaterial
  1
ByLayer
 72
     1
 94
      127
  0
MATERIAL
  5
46
102
{ACAD_REACTORS
330
43
102
}
330
43
100
AcDbMaterial
  1
Global
 72
     1
 94
      127
  0
MLEADERSTYLE
  5
6C
102
{ACAD_REACTORS
330
6B
102
}
330
6B
100
AcDbMLeaderStyle
179
     2
170
     2
171
     1
172
     0
 90
        2
 40
0.0
 41
0.0
173
     1
 91
-1056964608
340
14
 92
       -2
290
     1
 42
2.0
291
     1
 43
8.0
  3
Standard
341
0
 44
4.0
300

342
11
174
     1
178
     6
175
     1
176
     0
 93
-1056964608
 45
4.0
292
     0
297
     0
 46
4.0
343
0
 94
-1056964608
 47
1.0
 49
1.0
140
1.0
293
     1
141
0.0
294
     1
177
     0
142
1.0
295
     0
296
     0
143
3.75
271
     0
272
     9
273
     9
298
     0
  0
MLINESTYLE
  5
18
102
{ACAD_REACTORS
330
17
102
}
330
17
100
AcDbMlineStyle
  2
Standard
 70
     0
  3

 62
   256
 51
90.0
 52
90.0
 71
     2
 49
0.5
 62
   256
  6
BYLAYER
 49
-0.5
 62
   256
  6
BYLAYER
  0
ACDBPLACEHOLDER
  5
F
102
{ACAD_REACTORS
330
E
102
}
330
E
  0
SCALE
  5
48
102
{ACAD_REACTORS
330
47
102
}
330
47
100
AcDbScale
 70
     0
300
1:1
140
1.0
141
1.0
290
     1
  0
SCALE
  5
49
102
{ACAD_REACTORS
330
47
102
}
330
47
100
AcDbScale
 70
     0
300
1:2
140
1.0
141
2.0
290
     0
  0
SCALE
  5
4A
102
{ACAD_REACTORS
330
47
102
}
330
47
100
AcDbScale
 70
     0
300
1:4
140
1.0
141
4.0
290
     0
  0
SCALE
  5
4B
102
{ACAD_REACTORS
330
47
102
}
330
47
100
AcDbScale
 70
     0
300
1:5
140
1.0
141
5.0
290
     0
  0
SCALE
  5
4C
102
{ACAD_REACTORS
330
47
102
}
330
47
100
AcDbScale
 70
     0
300
1:8
140
1.0
141
8.0
290
     0
  0
SCALE
  5
4D
102
{ACAD_REACTORS
330
47
102
}
330
47
100
AcDbScale
 70
     0
300
1:10
140
1.0
141
10.0
290
     0
  0
SCALE
  5
4E
102
{ACAD_REACTORS
330
47
102
}
330
47
100
AcDbScale
 70
     0
300
1:16
140
1.0
141
16.0
290
     0
  0
SCALE
  5
4F
102
{ACAD_REACTORS
330
47
102
}
330
47
100
AcDbScale
 70
     0
300
1:20
140
1.0
141
20.0
290
     0
  0
SCALE
  5
50
102
{ACAD_REACTORS
330
47
102
}
330
47
100
AcDbScale
 70
     0
300
1:30
140
1.0
141
30.0
290
     0
  0
SCALE
  5
51
102
{ACAD_REACTORS
330
47
102
}
330
47
100
AcDbScale
 70
     0
300
1:40
140
1.0
141
40.0
290
     0
  0
SCALE
  5
52
102
{ACAD_REACTORS
330
47
102
}
330
47
100
AcDbScale
 70
     0
300
1:50
140
1.0
141
50.0
290
     0
  0
SCALE
  5
53
102
{ACAD_REACTORS
330
47
102
}
330
47
100
AcDbScale
 70
     0
300
1:100
140
1.0
141
100.0
290
     0
  0
SCALE
  5
54
102
{ACAD_REACTORS
330
47
102
}
330
47
100
AcDbScale
 70
     0
300
2:1
140
2.0
141
1.0
290
     0
  0
SCALE
  5
55
102
{ACAD_REACTORS
330
47
102
}
330
47
100
AcDbScale
 70
     0
300
4:1
140
4.0
141
1.0
290
     0
  0
SCALE
  5
56
102
{ACAD_REACTORS
330
47
102
}
330
47
100
AcDbScale
 70
     0
300
8:1
140
8.0
141
1.0
290
     0
  0
SCALE
  5
57
102
{ACAD_REACTORS
330
47
102
}
330
47
100
AcDbScale
 70
     0
300
10:1
140
10.0
141
1.0
290
     0
  0
SCALE
  5
58
102
{ACAD_REACTORS
330
47
102
}
330
47
100
AcDbScale
 70
     0
300
100:1
140
100.0
141
1.0
290
     0
  0
SCALE
  5
59
102
{ACAD_REACTORS
330
47
102
}
330
47
100
AcDbScale
 70
     0
300
1/128" = 1'-0"
140
0.0078125
141
12.0
290
     0
  0
SCALE
  5
5A
102
{ACAD_REACTORS
330
47
102
}
330
47
100
AcDbScale
 70
     0
300
1/64" = 1'-0"
140
0.015625
141
12.0
290
     0
  0
SCALE
  5
5B
102
{ACAD_REACTORS
330
47
102
}
330
47
100
AcDbScale
 70
     0
300
1/32" = 1'-0"
140
0.03125
141
12.0
290
     0
  0
SCALE
  5
5C
102
{ACAD_REACTORS
330
47
102
}
330
47
100
AcDbScale
 70
     0
300
1/16" = 1'-0"
140
0.0625
141
12.0
290
     0
  0
SCALE
  5
5D
102
{ACAD_REACTORS
330
47
102
}
330
47
100
AcDbScale
 70
     0
300
3/32" = 1'-0"
140
0.09375
141
12.0
290
     0
  0
SCALE
  5
5E
102
{ACAD_REACTORS
330
47
102
}
330
47
100
AcDbScale
 70
     0
300
1/8" = 1'-0"
140
0.125
141
12.0
290
     0
  0
SCALE
  5
5F
102
{ACAD_REACTORS
330
47
102
}
330
47
100
AcDbScale
 70
     0
300
3/16" = 1'-0"
140
0.1875
141
12.0
290
     0
  0
SCALE
  5
60
102
{ACAD_REACTORS
330
47
102
}
330
47
100
AcDbScale
 70
     0
300
1/4" = 1'-0"
140
0.25
141
12.0
290
     0
  0
SCALE
  5
61
102
{ACAD_REACTORS
330
47
102
}
330
47
100
AcDbScale
 70
     0
300
3/8" = 1'-0"
140
0.375
141
12.0
290
     0
  0
SCALE
  5
62
102
{ACAD_REACTORS
330
47
102
}
330
47
100
AcDbScale
 70
     0
300
1/2" = 1'-0"
140
0.5
141
12.0
290
     0
  0
SCALE
  5
63
102
{ACAD_REACTORS
330
47
102
}
330
47
100
AcDbScale
 70
     0
300
3/4" = 1'-0"
140
0.75
141
12.0
290
     0
  0
SCALE
  5
64
102
{ACAD_REACTORS
330
47
102
}
330
47
100
AcDbScale
 70
     0
300
1" = 1'-0"
140
1.0
141
12.0
290
     0
  0
SCALE
  5
65
102
{ACAD_REACTORS
330
47
102
}
330
47
100
AcDbScale
 70
     0
300
1-1/2" = 1'-0"
140
1.5
141
12.0
290
     0
  0
SCALE
  5
66
102
{ACAD_REACTORS
330
47
102
}
330
47
100
AcDbScale
 70
     0
300
3" = 1'-0"
140
3.0
141
12.0
290
     0
  0
SCALE
  5
67
102
{ACAD_REACTORS
330
47
102
}
330
47
100
AcDbScale
 70
     0
300
6" = 1'-0"
140
6.0
141
12.0
290
     0
  0
SCALE
  5
68
102
{ACAD_REACTORS
330
47
102
}
330
47
100
AcDbScale
 70
     0
300
1'-0" = 1'-0"
140
12.0
141
12.0
290
     0
  0
TABLESTYLE
  5
6A
102
{ACAD_REACTORS
330
69
102
}
102
{ACAD_XDICTIONARY
360
1D3
102
}
330
69
100
AcDbTableStyle
  3
Standard
 70
     0
 71
     0
 40
0.06
 41
0.06
280
     0
281
     0
  7
Standard
140
4.5
170
     2
 62
     0
 63
   257
283
     0
 90
        4
 91
        0
  1

274
    -2
284
     1
 64
     0
275
    -2
285
     1
 65
     0
276
    -2
286
     1
 66
     0
277
    -2
287
     1
 67
     0
278
    -2
288
     1
 68
     0
279
    -2
289
     1
 69
     0
  7
Standard
140
6.0
170
     5
 62
     0
 63
   257
283
     0
 90
        4
 91
        0
  1

274
    -2
284
     1
 64
     0
275
    -2
285
     1
 65
     0
276
    -2
286
     1
 66
     0
277
    -2
287
     1
 67
     0
278
    -2
288
     1
 68
     0
279
    -2
289
     1
 69
     0
  7
Standard
140
4.5
170
     5
 62
     0
 63
   257
283
     0
 90
        4
 91
        0
  1

274
    -2
284
     1
 64
     0
275
    -2
285
     1
 65
     0
276
    -2
286
     1
 66
     0
277
    -2
287
     1
 67
     0
278
    -2
288
     1
 68
     0
279
    -2
289
     1
 69
     0
  0
VISUALSTYLE
  5
2F
102
{ACAD_REACTORS
330
2A
102
}
330
2A
100
AcDbVisualStyle
  2
2dWireframe
 70
     4
177
     3
291
     0
 70
    58
 90
        0
176
     1
 90
        2
176
     1
 90
        0
176
     1
 90
        0
176
     1
 40
0.6
176
     1
 40
30.0
176
     1
 62
     7
420
 16777215
176
     1
 90
        1
176
     1
 90
        4
176
     1
 62
     7
176
     1
 62
   257
176
     1
 90
        1
176
     1
 90
        1
176
     1
 40
1.0
176
     1
 90
        0
176
     1
 62
   257
176
     1
 40
1.0
176
     1
 90
        1
176
     1
 90
        6
176
     1
 90
        2
176
     1
 62
     7
176
     1
 90
        5
176
     1
 90
        0
176
     1
 90
        0
176
     1
290
     0
176
     1
 90
        1
176
     1
 40
0.0
176
     1
 90
        0
176
     1
290
     1
176
     1
290
     1
176
     1
290
     0
176
     1
290
     0
176
     1
290
     0
176
     1
290
     0
176
     1
290
     0
176
     1
290
     0
176
     1
290
     0
176
     1
 90
       50
176
     1
 40
0.0
176
     1
 40
1.0
176
     1
 90
        0
176
     1
 62
    18
420
        0
176
     1
 90
       50
176
     1
 90
        3
176
     1
 62
     5
420
      255
176
     1
290
     0
176
     1
 90
       50
176
     1
 90
       50
176
     1
 90
       50
176
     1
290
     0
176
     1
 90
       50
176
     1
 62
   256
176
     0
 40
1.0
176
     0
 90
        2
176
     1
  1
strokes_ogs.tif
176
     1
290
     0
176
     1
 40
1.0
176
     1
 40
1.0
176
     1
  0
VISUALSTYLE
  5
32
102
{ACAD_REACTORS
330
2A
102
}
330
2A
100
AcDbVisualStyle
  2
Basic
 70
     7
177
     3
291
     1
 70
    58
 90
        1
176
     1
 90
        0
176
     1
 90
        1
176
     1
 90
        0
176
     1
 40
0.6
176
     1
 40
30.0
176
     1
 62
     7
420
 16777215
176
     1
 90
        0
176
     1
 90
        4
176
     1
 62
     7
176
     1
 62
   257
176
     1
 90
        1
176
     1
 90
        1
176
     1
 40
1.0
176
     1
 90
        8
176
     1
 62
     7
176
     1
 40
1.0
176
     1
 90
        1
176
     1
 90
        6
176
     1
 90
        2
176
     1
 62
     7
176
     1
 90
        5
176
     1
 90
        0
176
     1
 90
        0
176
     1
290
     0
176
     1
 90
        1
176
     1
 40
0.0
176
     1
 90
        0
176
     1
290
     0
176
     1
290
     1
176
     1
290
     1
176
     1
290
     0
176
     1
290
     0
176
     1
290
     0
176
     1
290
     0
176
     1
290
     0
176
     1
290
     0
176
     1
 90
       50
176
     1
 40
0.0
176
     1
 40
1.0
176
     1
 90
        0
176
     1
 62
    18
420
        0
176
     1
 90
       50
176
     1
 90
        3
176
     1
 62
     5
420
      255
176
     1
290
     0
176
     1
 90
       50
176
     1
 90
       50
176
     1
 90
       50
176
     1
290
     0
176
     1
 90
       50
176
     1
 62
   256
176
     0
 40
1.0
176
     0
 90
        2
176
     1
  1
strokes_ogs.tif
176
     1
290
     0
176
     1
 40
1.0
176
     1
 40
1.0
176
     1
  0
VISUALSTYLE
  5
36
102
{ACAD_REACTORS
330
2A
102
}
330
2A
100
AcDbVisualStyle
  2
Brighten
 70
    12
177
     3
291
     1
 70
    58
 90
        2
176
     1
 90
        2
176
     1
 90
        0
176
     1
 90
        0
176
     1
 40
0.6
176
     1
 40
30.0
176
     1
 62
     7
420
 16777215
176
     1
 90
        1
176
     1
 90
        4
176
     1
 62
     7
176
     1
 62
   257
176
     1
 90
        1
176
     1
 90
        1
176
     1
 40
1.0
176
     1
 90
        8
176
     1
 62
     7
176
     1
 40
1.0
176
     1
 90
        1
176
     1
 90
        6
176
     1
 90
        2
176
     1
 62
     7
176
     1
 90
        5
176
     1
 90
        0
176
     1
 90
        0
176
     1
290
     0
176
     1
 90
        1
176
     1
 40
50.0
176
     1
 90
        0
176
     1
290
     0
176
     1
290
     1
176
     1
290
     1
176
     1
290
     0
176
     1
290
     0
176
     1
290
     0
176
     1
290
     0
176
     1
290
     0
176
     1
290
     0
176
     1
 90
       50
176
     1
 40
0.0
176
     1
 40
1.0
176
     1
 90
        0
176
     1
 62
    18
420
        0
176
     1
 90
       50
176
     1
 90
        3
176
     1
 62
     5
420
      255
176
     1
290
     0
176
     1
 90
       50
176
     1
 90
       50
176
     1
 90
       50
176
     1
290
     0
176
     1
 90
       50
176
     1
 62
   256
176
     0
 40
1.0
176
     0
 90
        2
176
     1
  1
strokes_ogs.tif
176
     1
290
     0
176
     1
 40
1.0
176
     1
 40
1.0
176
     1
  0
VISUALSTYLE
  5
3A
102
{ACAD_REACTORS
330
2A
102
}
330
2A
100
AcDbVisualStyle
  2
ColorChange
 70
    16
177
     3
291
     1
 70
    58
 90
        2
176
     1
 90
        2
176
     1
 90
        3
176
     1
 90
        0
176
     1
 40
0.6
176
     1
 40
30.0
176
     1
 62
     8
420
  8421504
176
     1
 90
        1
176
     1
 90
        4
176
     1
 62
     7
176
     1
 62
   257
176
     1
 90
        1
176
     1
 90
        1
176
     1
 40
1.0
176
     1
 90
        8
176
     1
 62
     8
420
  8421504
176
     1
 40
1.0
176
     1
 90
        1
176
     1
 90
        6
176
     1
 90
        2
176
     1
 62
     7
176
     1
 90
        5
176
     1
 90
        0
176
     1
 90
        0
176
     1
290
     0
176
     1
 90
        1
176
     1
 40
0.0
176
     1
 90
        0
176
     1
290
     0
176
     1
290
     1
176
     1
290
     1
176
     1
290
     0
176
     1
290
     0
176
     1
290
     0
176
     1
290
     0
176
     1
290
     0
176
     1
290
     0
176
     1
 90
       50
176
     1
 40
0.0
176
     1
 40
1.0
176
     1
 90
        0
176
     1
 62
    18
420
        0
176
     1
 90
       50
176
     1
 90
        3
176
     1
 62
     5
420
      255
176
     1
290
     0
176
     1
 90
       50
176
     1
 90
       50
176
     1
 90
       50
176
     1
290
     0
176
     1
 90
       50
176
     1
 62
   256
176
     0
 40
1.0
176
     0
 90
        2
176
     1
  1
strokes_ogs.tif
176
     1
290
     0
176
     1
 40
1.0
176
     1
 40
1.0
176
     1
  0
VISUALSTYLE
  5
34
102
{ACAD_REACTORS
330
2A
102
}
330
2A
100
AcDbVisualStyle
  2
Conceptual
 70
     9
177
     3
291
     0
 70
    58
 90
        3
176
     1
 90
        2
176
     1
 90
        0
176
     1
 90
        0
176
     1
 40
0.6
176
     1
 40
30.0
176
     1
 62
     7
420
 16777215
176
     1
 90
        2
176
     1
 90
        2
176
     1
 62
     7
176
     1
 62
   257
176
     1
 90
        1
176
     1
 90
        1
176
     1
 40
179.0
176
     1
 90
        8
176
     1
 62
     7
176
     1
 40
1.0
176
     1
 90
        1
176
     1
 90
        6
176
     1
 90
        2
176
     1
 62
     7
176
     1
 90
        3
176
     1
 90
        0
176
     1
 90
        0
176
     1
290
     0
176
     1
 90
        1
176
     1
 40
0.0
176
     1
 90
        0
176
     1
290
     0
176
     1
290
     1
176
     1
290
     1
176
     1
290
     0
176
     1
290
     0
176
     1
290
     0
176
     1
290
     0
176
     1
290
     0
176
     1
290
     0
176
     1
 90
       50
176
     1
 40
0.0
176
     1
 40
1.0
176
     1
 90
        0
176
     1
 62
    18
420
        0
176
     1
 90
       50
176
     1
 90
        3
176
     1
 62
     5
420
      255
176
     1
290
     0
176
     1
 90
       50
176
     1
 90
       50
176
     1
 90
       50
176
     1
290
     0
176
     1
 90
       50
176
     1
 62
   256
176
     0
 40
1.0
176
     0
 90
        2
176
     1
  1
strokes_ogs.tif
176
     1
290
     0
176
     1
 40
1.0
176
     1
 40
1.0
176
     1
  0
VISUALSTYLE
  5
35
102
{ACAD_REACTORS
330
2A
102
}
330
2A
100
AcDbVisualStyle
  2
Dim
 70
    11
177
     3
291
     1
 70
    58
 90
        2
176
     1
 90
        2
176
     1
 90
        0
176
     1
 90
        0
176
     1
 40
0.6
176
     1
 40
30.0
176
     1
 62
     7
420
 16777215
176
     1
 90
        1
176
     1
 90
        4
176
     1
 62
     7
176
     1
 62
   257
176
     1
 90
        1
176
     1
 90
        1
176
     1
 40
1.0
176
     1
 90
        8
176
     1
 62
     7
176
     1
 40
1.0
176
     1
 90
        1
176
     1
 90
        6
176
     1
 90
        2
176
     1
 62
     7
176
     1
 90
        5
176
     1
 90
        0
176
     1
 90
        0
176
     1
290
     0
176
     1
 90
        1
176
     1
 40
-50.0
176
     1
 90
        0
176
     1
290
     0
176
     1
290
     1
176
     1
290
     1
176
     1
290
     0
176
     1
290
     0
176
     1
290
     0
176
     1
290
     0
176
     1
290
     0
176
     1
290
     0
176
     1
 90
       50
176
     1
 40
0.0
176
     1
 40
1.0
176
     1
 90
        0
176
     1
 62
    18
420
        0
176
     1
 90
       50
176
     1
 90
        3
176
     1
 62
     5
420
      255
176
     1
290
     0
176
     1
 90
       50
176
     1
 90
       50
176
     1
 90
       50
176
     1
290
     0
176
     1
 90
       50
176
     1
 62
   256
176
     0
 40
1.0
176
     0
 90
        2
176
     1
  1
strokes_ogs.tif
176
     1
290
     0
176
     1
 40
1.0
176
     1
 40
1.0
176
     1
  0
VISUALSTYLE
  5
3D
102
{ACAD_REACTORS
330
2A
102
}
330
2A
100
AcDbVisualStyle
  2
EdgeColorOff
 70
    22
177
     3
291
     1
 70
    58
 90
        2
176
     0
 90
        2
176
     0
 90
        0
176
     0
 90
        0
176
     0
 40
0.6
176
     0
 40
30.0
176
     0
 62
     7
420
 16777215
176
     0
 90
        1
176
     0
 90
        4
176
     0
 62
     7
176
     0
 62
   257
176
     0
 90
        1
176
     0
 90
        1
176
     0
 40
1.0
176
     0
 90
        8
176
     2
 62
     7
176
     0
 40
1.0
176
     0
 90
        1
176
     0
 90
        6
176
     0
 90
        2
176
     0
 62
     7
176
     0
 90
        5
176
     0
 90
        0
176
     0
 90
        0
176
     0
290
     0
176
     0
 90
        1
176
     0
 40
0.0
176
     0
 90
        0
176
     0
290
     0
176
     0
290
     1
176
     0
290
     1
176
     0
290
     0
176
     0
290
     0
176
     0
290
     0
176
     0
290
     0
176
     0
290
     0
176
     0
290
     0
176
     0
 90
       50
176
     0
 40
0.0
176
     0
 40
1.0
176
     0
 90
        0
176
     0
 62
    18
420
        0
176
     0
 90
       50
176
     0
 90
        3
176
     0
 62
     5
420
      255
176
     0
290
     0
176
     0
 90
       50
176
     0
 90
       50
176
     0
 90
       50
176
     0
290
     0
176
     0
 90
       50
176
     0
 62
   256
176
     0
 40
1.0
176
     0
 90
        2
176
     0
  1
strokes_ogs.tif
176
     0
290
     0
176
     0
 40
1.0
176
     0
 40
1.0
176
     0
  0
VISUALSTYLE
  5
39
102
{ACAD_REACTORS
330
2A
102
}
330
2A
100
AcDbVisualStyle
  2
Facepattern
 70
    15
177
     3
291
     1
 70
    58
 90
        2
176
     1
 90
        2
176
     1
 90
        0
176
     1
 90
        0
176
     1
 40
0.6
176
     1
 40
30.0
176
     1
 62
     7
420
 16777215
176
     1
 90
        1
176
     1
 90
        4
176
     1
 62
     7
176
     1
 62
   257
176
     1
 90
        1
176
     1
 90
        1
176
     1
 40
1.0
176
     1
 90
        8
176
     1
 62
     7
176
     1
 40
1.0
176
     1
 90
        1
176
     1
 90
        6
176
     1
 90
        2
176
     1
 62
     7
176
     1
 90
        5
176
     1
 90
        0
176
     1
 90
        0
176
     1
290
     0
176
     1
 90
        1
176
     1
 40
0.0
176
     1
 90
        0
176
     1
290
     0
176
     1
290
     1
176
     1
290
     1
176
     1
290
     0
176
     1
290
     0
176
     1
290
     0
176
     1
290
     0
176
     1
290
     0
176
     1
290
     0
176
     1
 90
       50
176
     1
 40
0.0
176
     1
 40
1.0
176
     1
 90
        0
176
     1
 62
    18
420
        0
176
     1
 90
       50
176
     1
 90
        3
176
     1
 62
     5
420
      255
176
     1
290
     0
176
     1
 90
       50
176
     1
 90
       50
176
     1
 90
       50
176
     1
290
     0
176
     1
 90
       50
176
     1
 62
   256
176
     0
 40
1.0
176
     0
 90
        2
176
     1
  1
strokes_ogs.tif
176
     1
290
     0
176
     1
 40
1.0
176
     1
 40
1.0
176
     1
  0
VISUALSTYLE
  5
2B
102
{ACAD_REACTORS
330
2A
102
}
330
2A
100
AcDbVisualStyle
  2
Flat
 70
     0
177
     3
291
     1
 70
    58
 90
        2
176
     1
 90
        1
176
     1
 90
        1
176
     1
 90
        2
176
     1
 40
0.6
176
     1
 40
30.0
176
     1
 62
     7
420
 16777215
176
     1
 90
        0
176
     1
 90
        0
176
     1
 62
     7
176
     1
 62
   257
176
     1
 90
        1
176
     1
 90
        1
176
     1
 40
1.0
176
     1
 90
        8
176
     1
 62
     7
176
     1
 40
1.0
176
     1
 90
        1
176
     1
 90
        6
176
     1
 90
        2
176
     1
 62
     7
176
     1
 90
        5
176
     1
 90
        0
176
     1
 90
        0
176
     1
290
     0
176
     1
 90
       13
176
     1
 40
0.0
176
     1
 90
        0
176
     1
290
     0
176
     1
290
     1
176
     1
290
     1
176
     1
290
     0
176
     1
290
     0
176
     1
290
     0
176
     1
290
     0
176
     1
290
     0
176
     1
290
     0
176
     1
 90
       50
176
     1
 40
0.0
176
     1
 40
1.0
176
     1
 90
        0
176
     1
 62
    18
420
        0
176
     1
 90
       50
176
     1
 90
        3
176
     1
 62
     5
420
      255
176
     1
290
     0
176
     1
 90
       50
176
     1
 90
       50
176
     1
 90
       50
176
     1
290
     0
176
     1
 90
       50
176
     1
 62
   256
176
     0
 40
1.0
176
     0
 90
        2
176
     1
  1
strokes_ogs.tif
176
     1
290
     0
176
     1
 40
1.0
176
     1
 40
1.0
176
     1
  0
VISUALSTYLE
  5
2C
102
{ACAD_REACTORS
330
2A
102
}
330
2A
100
AcDbVisualStyle
  2
FlatWithEdges
 70
     1
177
     3
291
     1
 70
    58
 90
        2
176
     1
 90
        1
176
     1
 90
        1
176
     1
 90
        2
176
     1
 40
0.6
176
     1
 40
30.0
176
     1
 62
     7
420
 16777215
176
     1
 90
        1
176
     1
 90
        0
176
     1
 62
     7
176
     1
 62
   257
176
     1
 90
        1
176
     1
 90
        1
176
     1
 40
1.0
176
     1
 90
        0
176
     1
 62
   257
176
     1
 40
1.0
176
     1
 90
        1
176
     1
 90
        6
176
     1
 90
        2
176
     1
 62
     7
176
     1
 90
        5
176
     1
 90
        0
176
     1
 90
        0
176
     1
290
     0
176
     1
 90
       13
176
     1
 40
0.0
176
     1
 90
        0
176
     1
290
     0
176
     1
290
     1
176
     1
290
     1
176
     1
290
     0
176
     1
290
     0
176
     1
290
     0
176
     1
290
     0
176
     1
290
     0
176
     1
290
     0
176
     1
 90
       50
176
     1
 40
0.0
176
     1
 40
1.0
176
     1
 90
        0
176
     1
 62
    18
420
        0
176
     1
 90
       50
176
     1
 90
        3
176
     1
 62
     5
420
      255
176
     1
290
     0
176
     1
 90
       50
176
     1
 90
       50
176
     1
 90
       50
176
     1
290
     0
176
     1
 90
       50
176
     1
 62
   256
176
     0
 40
1.0
176
     0
 90
        2
176
     1
  1
strokes_ogs.tif
176
     1
290
     0
176
     1
 40
1.0
176
     1
 40
1.0
176
     1
  0
VISUALSTYLE
  5
2D
102
{ACAD_REACTORS
330
2A
102
}
330
2A
100
AcDbVisualStyle
  2
Gouraud
 70
     2
177
     3
291
     1
 70
    58
 90
        2
176
     1
 90
        2
176
     1
 90
        1
176
     1
 90
        2
176
     1
 40
0.6
176
     1
 40
30.0
176
     1
 62
     7
420
 16777215
176
     1
 90
        0
176
     1
 90
        0
176
     1
 62
     7
176
     1
 62
   257
176
     1
 90
        1
176
     1
 90
        1
176
     1
 40
1.0
176
     1
 90
        0
176
     1
 62
     7
176
     1
 40
1.0
176
     1
 90
        1
176
     1
 90
        6
176
     1
 90
        2
176
     1
 62
     7
176
     1
 90
        5
176
     1
 90
        0
176
     1
 90
        0
176
     1
290
     0
176
     1
 90
       13
176
     1
 40
0.0
176
     1
 90
        0
176
     1
290
     0
176
     1
290
     1
176
     1
290
     1
176
     1
290
     0
176
     1
290
     0
176
     1
290
     0
176
     1
290
     0
176
     1
290
     0
176
     1
290
     0
176
     1
 90
       50
176
     1
 40
0.0
176
     1
 40
1.0
176
     1
 90
        0
176
     1
 62
    18
420
        0
176
     1
 90
       50
176
     1
 90
        3
176
     1
 62
     5
420
      255
176
     1
290
     0
176
     1
 90
       50
176
     1
 90
       50
176
     1
 90
       50
176
     1
290
     0
176
     1
 90
       50
176
     1
 62
   256
176
     0
 40
1.0
176
     0
 90
        2
176
     1
  1
strokes_ogs.tif
176
     1
290
     0
176
     1
 40
1.0
176
     1
 40
1.0
176
     1
  0
VISUALSTYLE
  5
2E
102
{ACAD_REACTORS
330
2A
102
}
330
2A
100
AcDbVisualStyle
  2
GouraudWithEdges
 70
     3
177
     3
291
     1
 70
    58
 90
        2
176
     1
 90
        2
176
     1
 90
        1
176
     1
 90
        2
176
     1
 40
0.6
176
     1
 40
30.0
176
     1
 62
     7
420
 16777215
176
     1
 90
        1
176
     1
 90
        0
176
     1
 62
     7
176
     1
 62
   257
176
     1
 90
        1
176
     1
 90
        1
176
     1
 40
1.0
176
     1
 90
        0
176
     1
 62
   257
176
     1
 40
1.0
176
     1
 90
        1
176
     1
 90
        6
176
     1
 90
        2
176
     1
 62
     7
176
     1
 90
        5
176
     1
 90
        0
176
     1
 90
        0
176
     1
290
     0
176
     1
 90
       13
176
     1
 40
0.0
176
     1
 90
        0
176
     1
290
     0
176
     1
290
     1
176
     1
290
     1
176
     1
290
     0
176
     1
290
     0
176
     1
290
     0
176
     1
290
     0
176
     1
290
     0
176
     1
290
     0
176
     1
 90
       50
176
     1
 40
0.0
176
     1
 40
1.0
176
     1
 90
        0
176
     1
 62
    18
420
        0
176
     1
 90
       50
176
     1
 90
        3
176
     1
 62
     5
420
      255
176
     1
290
     0
176
     1
 90
       50
176
     1
 90
       50
176
     1
 90
       50
176
     1
290
     0
176
     1
 90
       50
176
     1
 62
   256
176
     0
 40
1.0
176
     0
 90
        2
176
     1
  1
strokes_ogs.tif
176
     1
290
     0
176
     1
 40
1.0
176
     1
 40
1.0
176
     1
  0
VISUALSTYLE
  5
31
102
{ACAD_REACTORS
330
2A
102
}
330
2A
100
AcDbVisualStyle
  2
Hidden
 70
     6
177
     3
291
     0
 70
    58
 90
        1
176
     1
 90
        2
176
     1
 90
        2
176
     1
 90
        0
176
     1
 40
0.6
176
     1
 40
30.0
176
     1
 62
     7
420
 16777215
176
     1
 90
        2
176
     1
 90
        2
176
     1
 62
     7
176
     1
 62
   257
176
     1
 90
        2
176
     1
 90
        1
176
     1
 40
40.0
176
     1
 90
        0
176
     1
 62
   257
176
     1
 40
1.0
176
     1
 90
        1
176
     1
 90
        6
176
     1
 90
        2
176
     1
 62
     7
176
     1
 90
        3
176
     1
 90
        0
176
     1
 90
        0
176
     1
290
     0
176
     1
 90
        1
176
     1
 40
0.0
176
     1
 90
        0
176
     1
290
     0
176
     1
290
     1
176
     1
290
     1
176
     1
290
     0
176
     1
290
     0
176
     1
290
     0
176
     1
290
     0
176
     1
290
     0
176
     1
290
     0
176
     1
 90
       50
176
     1
 40
0.0
176
     1
 40
1.0
176
     1
 90
        0
176
     1
 62
    18
420
        0
176
     1
 90
       50
176
     1
 90
        3
176
     1
 62
     5
420
      255
176
     1
290
     0
176
     1
 90
       50
176
     1
 90
       50
176
     1
 90
       50
176
     1
290
     0
176
     1
 90
       50
176
     1
 62
   256
176
     0
 40
1.0
176
     0
 90
        2
176
     1
  1
strokes_ogs.tif
176
     1
290
     0
176
     1
 40
1.0
176
     1
 40
1.0
176
     1
  0
VISUALSTYLE
  5
3B
102
{ACAD_REACTORS
330
2A
102
}
330
2A
100
AcDbVisualStyle
  2
JitterOff
 70
    20
177
     3
291
     1
 70
    58
 90
        2
176
     0
 90
        2
176
     0
 90
        0
176
     0
 90
        0
176
     0
 40
0.6
176
     0
 40
30.0
176
     0
 62
     7
420
 16777215
176
     0
 90
        1
176
     0
 90
        4
176
     0
 62
     7
176
     0
 62
   257
176
     0
 90
        1
176
     0
 90
        1
176
     0
 40
1.0
176
     0
 90
       10
176
     2
 62
     7
176
     0
 40
1.0
176
     0
 90
        1
176
     0
 90
        6
176
     0
 90
        2
176
     0
 62
     7
176
     0
 90
        5
176
     0
 90
        0
176
     0
 90
        0
176
     0
290
     0
176
     0
 90
        1
176
     0
 40
0.0
176
     0
 90
        0
176
     0
290
     0
176
     0
290
     1
176
     0
290
     1
176
     0
290
     0
176
     0
290
     0
176
     0
290
     0
176
     0
290
     0
176
     0
290
     0
176
     0
290
     0
176
     0
 90
       50
176
     0
 40
0.0
176
     0
 40
1.0
176
     0
 90
        0
176
     0
 62
    18
420
        0
176
     0
 90
       50
176
     0
 90
        3
176
     0
 62
     5
420
      255
176
     0
290
     0
176
     0
 90
       50
176
     0
 90
       50
176
     0
 90
       50
176
     0
290
     0
176
     0
 90
       50
176
     0
 62
   256
176
     0
 40
1.0
176
     0
 90
        2
176
     0
  1
strokes_ogs.tif
176
     0
290
     0
176
     0
 40
1.0
176
     0
 40
1.0
176
     0
  0
VISUALSTYLE
  5
38
102
{ACAD_REACTORS
330
2A
102
}
330
2A
100
AcDbVisualStyle
  2
Linepattern
 70
    14
177
     3
291
     1
 70
    58
 90
        2
176
     1
 90
        2
176
     1
 90
        0
176
     1
 90
        0
176
     1
 40
0.6
176
     1
 40
30.0
176
     1
 62
     7
420
 16777215
176
     1
 90
        1
176
     1
 90
        4
176
     1
 62
     7
176
     1
 62
   257
176
     1
 90
        7
176
     1
 90
        7
176
     1
 40
1.0
176
     1
 90
        8
176
     1
 62
     7
176
     1
 40
1.0
176
     1
 90
        1
176
     1
 90
        6
176
     1
 90
        2
176
     1
 62
     7
176
     1
 90
        5
176
     1
 90
        0
176
     1
 90
        0
176
     1
290
     0
176
     1
 90
        1
176
     1
 40
0.0
176
     1
 90
        0
176
     1
290
     0
176
     1
290
     1
176
     1
290
     1
176
     1
290
     0
176
     1
290
     0
176
     1
290
     0
176
     1
290
     0
176
     1
290
     0
176
     1
290
     0
176
     1
 90
       50
176
     1
 40
0.0
176
     1
 40
1.0
176
     1
 90
        0
176
     1
 62
    18
420
        0
176
     1
 90
       50
176
     1
 90
        3
176
     1
 62
     5
420
      255
176
     1
290
     0
176
     1
 90
       50
176
     1
 90
       50
176
     1
 90
       50
176
     1
290
     0
176
     1
 90
       50
176
     1
 62
   256
176
     0
 40
1.0
176
     0
 90
        2
176
     1
  1
strokes_ogs.tif
176
     1
290
     0
176
     1
 40
1.0
176
     1
 40
1.0
176
     1
  0
VISUALSTYLE
  5
3C
102
{ACAD_REACTORS
330
2A
102
}
330
2A
100
AcDbVisualStyle
  2
OverhangOff
 70
    21
177
     3
291
     1
 70
    58
 90
        2
176
     0
 90
        2
176
     0
 90
        0
176
     0
 90
        0
176
     0
 40
0.6
176
     0
 40
30.0
176
     0
 62
     7
420
 16777215
176
     0
 90
        1
176
     0
 90
        4
176
     0
 62
     7
176
     0
 62
   257
176
     0
 90
        1
176
     0
 90
        1
176
     0
 40
1.0
176
     0
 90
        9
176
     2
 62
     7
176
     0
 40
1.0
176
     0
 90
        1
176
     0
 90
        6
176
     0
 90
        2
176
     0
 62
     7
176
     0
 90
        5
176
     0
 90
        0
176
     0
 90
        0
176
     0
290
     0
176
     0
 90
        1
176
     0
 40
0.0
176
     0
 90
        0
176
     0
290
     0
176
     0
290
     1
176
     0
290
     1
176
     0
290
     0
176
     0
290
     0
176
     0
290
     0
176
     0
290
     0
176
     0
290
     0
176
     0
290
     0
176
     0
 90
       50
176
     0
 40
0.0
176
     0
 40
1.0
176
     0
 90
        0
176
     0
 62
    18
420
        0
176
     0
 90
       50
176
     0
 90
        3
176
     0
 62
     5
420
      255
176
     0
290
     0
176
     0
 90
       50
176
     0
 90
       50
176
     0
 90
       50
176
     0
290
     0
176
     0
 90
       50
176
     0
 62
   256
176
     0
 40
1.0
176
     0
 90
        2
176
     0
  1
strokes_ogs.tif
176
     0
290
     0
176
     0
 40
1.0
176
     0
 40
1.0
176
     0
  0
VISUALSTYLE
  5
33
102
{ACAD_REACTORS
330
2A
102
}
330
2A
100
AcDbVisualStyle
  2
Realistic
 70
     8
177
     3
291
     0
 70
    58
 90
        2
176
     1
 90
        3
176
     1
 90
        0
176
     1
 90
        2
176
     1
 40
0.6
176
     1
 40
30.0
176
     1
 62
     7
420
 16777215
176
     1
 90
        0
176
     1
 90
        0
176
     1
 62
     7
176
     1
 62
   257
176
     1
 90
        1
176
     1
 90
        1
176
     1
 40
1.0
176
     1
 90
        8
176
     1
 62
   257
176
     1
 40
1.0
176
     1
 90
        1
176
     1
 90
        6
176
     1
 90
        2
176
     1
 62
     7
176
     1
 90
        3
176
     1
 90
        0
176
     1
 90
        0
176
     1
290
     0
176
     1
 90
       13
176
     1
 40
0.0
176
     1
 90
        0
176
     1
290
     0
176
     1
290
     1
176
     1
290
     1
176
     1
290
     0
176
     1
290
     0
176
     1
290
     0
176
     1
290
     0
176
     1
290
     0
176
     1
290
     0
176
     1
 90
       50
176
     1
 40
0.0
176
     1
 40
1.0
176
     1
 90
        0
176
     1
 62
    18
420
        0
176
     1
 90
       50
176
     1
 90
        3
176
     1
 62
     5
420
      255
176
     1
290
     0
176
     1
 90
       50
176
     1
 90
       50
176
     1
 90
       50
176
     1
290
     0
176
     1
 90
       50
176
     1
 62
   256
176
     0
 40
1.0
176
     0
 90
        2
176
     1
  1
strokes_ogs.tif
176
     1
290
     0
176
     1
 40
1.0
176
     1
 40
1.0
176
     1
  0
VISUALSTYLE
  5
42
102
{ACAD_REACTORS
330
2A
102
}
330
2A
100
AcDbVisualStyle
  2
Shaded
 70
    27
177
     3
291
     0
 70
    58
 90
        2
176
     1
 90
        2
176
     1
 90
        1
176
     1
 90
        2
176
     1
 40
0.6
176
     1
 40
30.0
176
     1
 62
     7
420
 16777215
176
     1
 90
        0
176
     1
 90
        4
176
     1
 62
     7
176
     1
 62
   257
176
     1
 90
        1
176
     1
 90
        1
176
     1
 40
1.0
176
     1
 90
        8
176
     1
 62
   257
176
     1
 40
1.0
176
     1
 90
        1
176
     1
 90
        6
176
     1
 90
        2
176
     1
 62
     8
420
  7895160
176
     1
 90
        3
176
     1
 90
        0
176
     1
 90
        0
176
     1
290
     0
176
     1
 90
        5
176
     1
 40
0.0
176
     1
 90
        0
176
     1
290
     0
176
     1
290
     1
176
     1
290
     1
176
     1
290
     0
176
     1
290
     0
176
     1
290
     0
176
     1
290
     0
176
     1
290
     0
176
     1
290
     0
176
     1
 90
       50
176
     1
 40
0.0
176
     1
 40
1.0
176
     1
 90
        0
176
     1
 62
    18
420
        0
176
     1
 90
       50
176
     1
 90
        3
176
     1
 62
     5
420
      255
176
     1
290
     0
176
     1
 90
       50
176
     1
 90
       50
176
     1
 90
       50
176
     1
290
     0
176
     1
 90
       50
176
     1
 62
   256
176
     0
 40
1.0
176
     0
 90
        2
176
     1
  1
strokes_ogs.tif
176
     1
290
     0
176
     1
 40
1.0
176
     1
 40
1.0
176
     1
  0
VISUALSTYLE
  5
41
102
{ACAD_REACTORS
330
2A
102
}
330
2A
100
AcDbVisualStyle
  2
Shaded with edges
 70
    26
177
     3
291
     0
 70
    58
 90
        2
176
     1
 90
        2
176
     1
 90
        1
176
     1
 90
        2
176
     1
 40
0.6
176
     1
 40
30.0
176
     1
 62
     7
420
 16777215
176
     1
 90
        1
176
     1
 90
       10
176
     1
 62
     7
176
     1
 62
   257
176
     1
 90
        2
176
     1
 90
        1
176
     1
 40
1.0
176
     1
 90
        8
176
     1
 62
   257
176
     1
 40
1.0
176
     1
 90
        1
176
     1
 90
        6
176
     1
 90
        2
176
     1
 62
     7
176
     1
 90
        3
176
     1
 90
        0
176
     1
 90
        0
176
     1
290
     0
176
     1
 90
        5
176
     1
 40
0.0
176
     1
 90
        0
176
     1
290
     0
176
     1
290
     1
176
     1
290
     1
176
     1
290
     0
176
     1
290
     0
176
     1
290
     0
176
     1
290
     0
176
     1
290
     0
176
     1
290
     0
176
     1
 90
       50
176
     1
 40
0.0
176
     1
 40
1.0
176
     1
 90
        0
176
     1
 62
    18
420
        0
176
     1
 90
       50
176
     1
 90
        3
176
     1
 62
     5
420
      255
176
     1
290
     0
176
     1
 90
       50
176
     1
 90
       50
176
     1
 90
       50
176
     1
290
     0
176
     1
 90
       50
176
     1
 62
   256
176
     0
 40
1.0
176
     0
 90
        2
176
     1
  1
strokes_ogs.tif
176
     1
290
     0
176
     1
 40
1.0
176
     1
 40
1.0
176
     1
  0
VISUALSTYLE
  5
3E
102
{ACAD_REACTORS
330
2A
102
}
330
2A
100
AcDbVisualStyle
  2
Shades of Gray
 70
    23
177
     3
291
     0
 70
    58
 90
        2
176
     1
 90
        2
176
     1
 90
        3
176
     1
 90
        0
176
     1
 40
0.6
176
     1
 40
30.0
176
     1
 62
     7
420
 16777215
176
     1
 90
        2
176
     1
 90
        2
176
     1
 62
     7
176
     1
 62
     7
176
     1
 90
        1
176
     1
 90
        1
176
     1
 40
40.0
176
     1
 90
        8
176
     1
 62
     7
176
     1
 40
1.0
176
     1
 90
        1
176
     1
 90
        6
176
     1
 90
        2
176
     1
 62
     7
176
     1
 90
        3
176
     1
 90
        0
176
     1
 90
        0
176
     1
290
     0
176
     1
 90
        1
176
     1
 40
0.0
176
     1
 90
        0
176
     1
290
     0
176
     1
290
     1
176
     1
290
     1
176
     1
290
     0
176
     1
290
     0
176
     1
290
     0
176
     1
290
     0
176
     1
290
     0
176
     1
290
     0
176
     1
 90
       50
176
     1
 40
0.0
176
     1
 40
1.0
176
     1
 90
        0
176
     1
 62
    18
420
        0
176
     1
 90
       50
176
     1
 90
        3
176
     1
 62
     5
420
      255
176
     1
290
     0
176
     1
 90
       50
176
     1
 90
       50
176
     1
 90
       50
176
     1
290
     0
176
     1
 90
       50
176
     1
 62
   256
176
     0
 40
1.0
176
     0
 90
        2
176
     1
  1
strokes_ogs.tif
176
     1
290
     0
176
     1
 40
1.0
176
     1
 40
1.0
176
     1
  0
VISUALSTYLE
  5
3F
102
{ACAD_REACTORS
330
2A
102
}
330
2A
100
AcDbVisualStyle
  2
Sketchy
 70
    24
177
     3
291
     0
 70
    58
 90
        1
176
     1
 90
        2
176
     1
 90
        2
176
     1
 90
        0
176
     1
 40
0.6
176
     1
 40
30.0
176
     1
 62
     7
420
 16777215
176
     1
 90
        2
176
     1
 90
        2
176
     1
 62
     7
176
     1
 62
     7
176
     1
 90
        1
176
     1
 90
        1
176
     1
 40
40.0
176
     1
 90
       11
176
     1
 62
     7
176
     1
 40
1.0
176
     1
 90
        1
176
     1
 90
        6
176
     1
 90
        2
176
     1
 62
     7
176
     1
 90
        6
176
     1
 90
        0
176
     1
 90
        0
176
     1
290
     0
176
     1
 90
        1
176
     1
 40
0.0
176
     1
 90
        0
176
     1
290
     0
176
     1
290
     1
176
     1
290
     1
176
     1
290
     0
176
     1
290
     0
176
     1
290
     0
176
     1
290
     0
176
     1
290
     0
176
     1
290
     0
176
     1
 90
       50
176
     1
 40
0.0
176
     1
 40
1.0
176
     1
 90
        0
176
     1
 62
    18
420
        0
176
     1
 90
       50
176
     1
 90
        3
176
     1
 62
     5
420
      255
176
     1
290
     0
176
     1
 90
       50
176
     1
 90
       50
176
     1
 90
       50
176
     1
290
     0
176
     1
 90
       50
176
     1
 62
   256
176
     0
 40
1.0
176
     0
 90
        2
176
     1
  1
strokes_ogs.tif
176
     1
290
     0
176
     1
 40
1.0
176
     1
 40
1.0
176
     1
  0
VISUALSTYLE
  5
37
102
{ACAD_REACTORS
330
2A
102
}
330
2A
100
AcDbVisualStyle
  2
Thicken
 70
    13
177
     3
291
     1
 70
    58
 90
        2
176
     1
 90
        2
176
     1
 90
        0
176
     1
 90
        0
176
     1
 40
0.6
176
     1
 40
30.0
176
     1
 62
     7
420
 16777215
176
     1
 90
        1
176
     1
 90
        4
176
     1
 62
     7
176
     1
 62
   257
176
     1
 90
        1
176
     1
 90
        1
176
     1
 40
1.0
176
     1
 90
       12
176
     1
 62
     7
176
     1
 40
1.0
176
     1
 90
        1
176
     1
 90
        6
176
     1
 90
        2
176
     1
 62
     7
176
     1
 90
        5
176
     1
 90
        0
176
     1
 90
        0
176
     1
290
     0
176
     1
 90
        1
176
     1
 40
0.0
176
     1
 90
        0
176
     1
290
     0
176
     1
290
     1
176
     1
290
     1
176
     1
290
     0
176
     1
290
     0
176
     1
290
     0
176
     1
290
     0
176
     1
290
     0
176
     1
290
     0
176
     1
 90
       50
176
     1
 40
0.0
176
     1
 40
1.0
176
     1
 90
        0
176
     1
 62
    18
420
        0
176
     1
 90
       50
176
     1
 90
        3
176
     1
 62
     5
420
      255
176
     1
290
     0
176
     1
 90
       50
176
     1
 90
       50
176
     1
 90
       50
176
     1
290
     0
176
     1
 90
       50
176
     1
 62
   256
176
     0
 40
1.0
176
     0
 90
        2
176
     1
  1
strokes_ogs.tif
176
     1
290
     0
176
     1
 40
1.0
176
     1
 40
1.0
176
     1
  0
VISUALSTYLE
  5
30
102
{ACAD_REACTORS
330
2A
102
}
330
2A
100
AcDbVisualStyle
  2
Wireframe
 70
     5
177
     3
291
     0
 70
    58
 90
        0
176
     1
 90
        2
176
     1
 90
        0
176
     1
 90
        0
176
     1
 40
0.6
176
     1
 40
30.0
176
     1
 62
     7
420
 16777215
176
     1
 90
        1
176
     1
 90
        4
176
     1
 62
     7
176
     1
 62
   257
176
     1
 90
        1
176
     1
 90
        1
176
     1
 40
1.0
176
     1
 90
        0
176
     1
 62
   257
176
     1
 40
1.0
176
     1
 90
        1
176
     1
 90
        6
176
     1
 90
        2
176
     1
 62
     7
176
     1
 90
        3
176
     1
 90
        0
176
     1
 90
        0
176
     1
290
     0
176
     1
 90
        1
176
     1
 40
0.0
176
     1
 90
        0
176
     1
290
     0
176
     1
290
     1
176
     1
290
     1
176
     1
290
     0
176
     1
290
     0
176
     1
290
     0
176
     1
290
     0
176
     1
290
     0
176
     1
290
     0
176
     1
 90
       50
176
     1
 40
0.0
176
     1
 40
1.0
176
     1
 90
        0
176
     1
 62
    18
420
        0
176
     1
 90
       50
176
     1
 90
        3
176
     1
 62
     5
420
      255
176
     1
290
     0
176
     1
 90
       50
176
     1
 90
       50
176
     1
 90
       50
176
     1
290
     0
176
     1
 90
       50
176
     1
 62
   256
176
     0
 40
1.0
176
     0
 90
        2
176
     1
  1
strokes_ogs.tif
176
     1
290
     0
176
     1
 40
1.0
176
     1
 40
1.0
176
     1
  0
VISUALSTYLE
  5
40
102
{ACAD_REACTORS
330
2A
102
}
330
2A
100
AcDbVisualStyle
  2
X-Ray
 70
    25
177
     3
291
     0
 70
    58
 90
        2
176
     1
 90
        2
176
     1
 90
        1
176
     1
 90
        1
176
     1
 40
0.5
176
     1
 40
30.0
176
     1
 62
     7
420
 16777215
176
     1
 90
        1
176
     1
 90
        0
176
     1
 62
     7
176
     1
 62
   257
176
     1
 90
        1
176
     1
 90
        1
176
     1
 40
1.0
176
     1
 90
        8
176
     1
 62
     7
176
     1
 40
1.0
176
     1
 90
        1
176
     1
 90
        6
176
     1
 90
        2
176
     1
 62
     7
176
     1
 90
        3
176
     1
 90
        0
176
     1
 90
        0
176
     1
290
     0
176
     1
 90
       13
176
     1
 40
0.0
176
     1
 90
        0
176
     1
290
     0
176
     1
290
     1
176
     1
290
     1
176
     1
290
     0
176
     1
290
     0
176
     1
290
     0
176
     1
290
     0
176
     1
290
     0
176
     1
290
     0
176
     1
 90
       50
176
     1
 40
0.0
176
     1
 40
1.0
176
     1
 90
        0
176
     1
 62
    18
420
        0
176
     1
 90
       50
176
     1
 90
        3
176
     1
 62
     5
420
      255
176
     1
290
     0
176
     1
 90
       50
176
     1
 90
       50
176
     1
 90
       50
176
     1
290
     0
176
     1
 90
       50
176
     1
 62
   256
176
     0
 40
1.0
176
     0
 90
        2
176
     1
  1
strokes_ogs.tif
176
     1
290
     0
176
     1
 40
1.0
176
     1
 40
1.0
176
     1
  0
DICTIONARYVAR
  5
1D2
102
{ACAD_REACTORS
330
1D1
102
}
330
1D1
100
DictionaryVariables
280
     0
  1
1:1
  0
DICTIONARYVAR
  5
1DA
102
{ACAD_REACTORS
330
1D1
102
}
330
1D1
100
DictionaryVariables
280
     0
  1
3.500000
  0
DICTIONARYVAR
  5
1DB
102
{ACAD_REACTORS
330
1D1
102
}
330
1D1
100
DictionaryVariables
280
     0
  1
acadiso.lin
  0
DICTIONARYVAR
  5
1D7
102
{ACAD_REACTORS
330
1D1
102
}
330
1D1
100
DictionaryVariables
280
     0
  1
Standard
  0
DICTIONARYVAR
  5
1D6
102
{ACAD_REACTORS
330
1D1
102
}
330
1D1
100
DictionaryVariables
280
     0
  1
Standard
  0
DICTIONARY
  5
1D3
330
6A
100
AcDbDictionary
280
     1
281
     1
  3
ACAD_ROUNDTRIP_2008_TABLESTYLE_CELLSTYLEMAP
360
1D4
  0
CELLSTYLEMAP
  5
1D4
102
{ACAD_REACTORS
330
1D3
102
}
330
1D3
100
AcDbCellStyleMap
 90
        3
300
CELLSTYLE
  1
TABLEFORMAT_BEGIN
 90
        5
170
     1
 91
        0
 92
    32768
 62
   257
 93
        1
300
CONTENTFORMAT
  1
CONTENTFORMAT_BEGIN
 90
        0
 91
        0
 92
        4
 93
        0
300

 40
0.0
140
1.0
 94
        5
 62
     0
340
11
144
6.0
309
CONTENTFORMAT_END
171
     1
301
MARGIN
  1
CELLMARGIN_BEGIN
 40
1.5
 40
1.5
 40
1.5
 40
1.5
 40
1.5
 40
1.5
309
CELLMARGIN_END
 94
        6
 95
        1
302
GRIDFORMAT
  1
GRIDFORMAT_BEGIN
 90
        0
 91
        1
 62
     0
 92
       -2
340
14
 93
        0
 40
0.045
309
GRIDFORMAT_END
 95
        2
302
GRIDFORMAT
  1
GRIDFORMAT_BEGIN
 90
        0
 91
        1
 62
     0
 92
       -2
340
14
 93
        0
 40
0.045
309
GRIDFORMAT_END
 95
        4
302
GRIDFORMAT
  1
GRIDFORMAT_BEGIN
 90
        0
 91
        1
 62
     0
 92
       -2
340
14
 93
        0
 40
0.045
309
GRIDFORMAT_END
 95
        8
302
GRIDFORMAT
  1
GRIDFORMAT_BEGIN
 90
        0
 91
        1
 62
     0
 92
       -2
340
14
 93
        0
 40
0.045
309
GRIDFORMAT_END
 95
       16
302
GRIDFORMAT
  1
GRIDFORMAT_BEGIN
 90
        0
 91
        1
 62
     0
 92
       -2
340
14
 93
        0
 40
0.045
309
GRIDFORMAT_END
 95
       32
302
GRIDFORMAT
  1
GRIDFORMAT_BEGIN
 90
        0
 91
        1
 62
     0
 92
       -2
340
14
 93
        0
 40
0.045
309
GRIDFORMAT_END
309
TABLEFORMAT_END
  1
CELLSTYLE_BEGIN
 90
        1
 91
        1
300
_TITLE
309
CELLSTYLE_END
300
CELLSTYLE
  1
TABLEFORMAT_BEGIN
 90
        5
170
     1
 91
        0
 92
        0
 62
   257
 93
        1
300
CONTENTFORMAT
  1
CONTENTFORMAT_BEGIN
 90
        0
 91
        0
 92
        4
 93
        0
300

 40
0.0
140
1.0
 94
        5
 62
     0
340
11
144
4.5
309
CONTENTFORMAT_END
171
     1
301
MARGIN
  1
CELLMARGIN_BEGIN
 40
1.5
 40
1.5
 40
1.5
 40
1.5
 40
1.5
 40
1.5
309
CELLMARGIN_END
 94
        6
 95
        1
302
GRIDFORMAT
  1
GRIDFORMAT_BEGIN
 90
        0
 91
        1
 62
     0
 92
       -2
340
14
 93
        0
 40
0.045
309
GRIDFORMAT_END
 95
        2
302
GRIDFORMAT
  1
GRIDFORMAT_BEGIN
 90
        0
 91
        1
 62
     0
 92
       -2
340
14
 93
        0
 40
0.045
309
GRIDFORMAT_END
 95
        4
302
GRIDFORMAT
  1
GRIDFORMAT_BEGIN
 90
        0
 91
        1
 62
     0
 92
       -2
340
14
 93
        0
 40
0.045
309
GRIDFORMAT_END
 95
        8
302
GRIDFORMAT
  1
GRIDFORMAT_BEGIN
 90
        0
 91
        1
 62
     0
 92
       -2
340
14
 93
        0
 40
0.045
309
GRIDFORMAT_END
 95
       16
302
GRIDFORMAT
  1
GRIDFORMAT_BEGIN
 90
        0
 91
        1
 62
     0
 92
       -2
340
14
 93
        0
 40
0.045
309
GRIDFORMAT_END
 95
       32
302
GRIDFORMAT
  1
GRIDFORMAT_BEGIN
 90
        0
 91
        1
 62
     0
 92
       -2
340
14
 93
        0
 40
0.045
309
GRIDFORMAT_END
309
TABLEFORMAT_END
  1
CELLSTYLE_BEGIN
 90
        2
 91
        1
300
_HEADER
309
CELLSTYLE_END
300
CELLSTYLE
  1
TABLEFORMAT_BEGIN
 90
        5
170
     1
 91
        0
 92
        0
 62
   257
 93
        1
300
CONTENTFORMAT
  1
CONTENTFORMAT_BEGIN
 90
        0
 91
        0
 92
        4
 93
        0
300

 40
0.0
140
1.0
 94
        2
 62
     0
340
11
144
4.5
309
CONTENTFORMAT_END
171
     1
301
MARGIN
  1
CELLMARGIN_BEGIN
 40
1.5
 40
1.5
 40
1.5
 40
1.5
 40
1.5
 40
1.5
309
CELLMARGIN_END
 94
        6
 95
        1
302
GRIDFORMAT
  1
GRIDFORMAT_BEGIN
 90
        0
 91
        1
 62
     0
 92
       -2
340
14
 93
        0
 40
0.045
309
GRIDFORMAT_END
 95
        2
302
GRIDFORMAT
  1
GRIDFORMAT_BEGIN
 90
        0
 91
        1
 62
     0
 92
       -2
340
14
 93
        0
 40
0.045
309
GRIDFORMAT_END
 95
        4
302
GRIDFORMAT
  1
GRIDFORMAT_BEGIN
 90
        0
 91
        1
 62
     0
 92
       -2
340
14
 93
        0
 40
0.045
309
GRIDFORMAT_END
 95
        8
302
GRIDFORMAT
  1
GRIDFORMAT_BEGIN
 90
        0
 91
        1
 62
     0
 92
       -2
340
14
 93
        0
 40
0.045
309
GRIDFORMAT_END
 95
       16
302
GRIDFORMAT
  1
GRIDFORMAT_BEGIN
 90
        0
 91
        1
 62
     0
 92
       -2
340
14
 93
        0
 40
0.045
309
GRIDFORMAT_END
 95
       32
302
GRIDFORMAT
  1
GRIDFORMAT_BEGIN
 90
        0
 91
        1
 62
     0
 92
       -2
340
14
 93
        0
 40
0.045
309
GRIDFORMAT_END
309
TABLEFORMAT_END
  1
CELLSTYLE_BEGIN
 90
        3
 91
        2
300
_DATA
309
CELLSTYLE_END
  0
ENDSEC
  0
EOF
