  0
SECTION
  2
HEADER
  9
$ACADVER
  1
AC1027
  9
$ACADMAINTVER
 70
   105
  9
$DWGCODEPAGE
  3
ANSI_932
  9
$REQUIREDVERSIONS
160
                 0
  9
$INSBASE
 10
0.0
 20
0.0
 30
0.0
  9
$EXTMIN
 10
-2100.0
 20
-1485.0
 30
0.0
  9
$EXTMAX
 10
2100.0
 20
1485.0
 30
0.0
  9
$LIMMIN
 10
-2100.0
 20
-1485.0
  9
$LIMMAX
 10
2100.0
 20
1485.0
  9
$ORTHOMODE
 70
     0
  9
$REGENMODE
 70
     1
  9
$FILLMODE
 70
     1
  9
$QTEXTMODE
 70
     0
  9
$MIRRTEXT
 70
     1
  9
$LTSCALE
 40
10.0
  9
$ATTMODE
 70
     1
  9
$TEXTSIZE
 40
2.5
  9
$TRACEWID
 40
1.0
  9
$TEXTSTYLE
  7
Standard
  9
$CLAYER
  8
0
  9
$CELTYPE
  6
ByLayer
  9
$CECOLOR
 62
   256
  9
$CELTSCALE
 40
1.0
  9
$DISPSILH
 70
     0
  9
$DIMSCALE
 40
1.0
  9
$DIMASZ
 40
2.5
  9
$DIMEXO
 40
0.625
  9
$DIMDLI
 40
3.75
  9
$DIMRND
 40
0.0
  9
$DIMDLE
 40
0.0
  9
$DIMEXE
 40
1.25
  9
$DIMTP
 40
0.0
  9
$DIMTM
 40
0.0
  9
$DIMTXT
 40
2.5
  9
$DIMCEN
 40
2.5
  9
$DIMTSZ
 40
0.0
  9
$DIMTOL
 70
     0
  9
$DIMLIM
 70
     0
  9
$DIMTIH
 70
     0
  9
$DIMTOH
 70
     0
  9
$DIMSE1
 70
     0
  9
$DIMSE2
 70
     0
  9
$DIMTAD
 70
     1
  9
$DIMZIN
 70
     8
  9
$DIMBLK
  1

  9
$DIMASO
 70
     1
  9
$DIMSHO
 70
     1
  9
$DIMPOST
  1

  9
$DIMAPOST
  1

  9
$DIMALT
 70
     0
  9
$DIMALTD
 70
     3
  9
$DIMALTF
 40
0.03937007874016
  9
$DIMLFAC
 40
1.0
  9
$DIMTOFL
 70
     1
  9
$DIMTVP
 40
0.0
  9
$DIMTIX
 70
     0
  9
$DIMSOXD
 70
     0
  9
$DIMSAH
 70
     0
  9
$DIMBLK1
  1

  9
$DIMBLK2
  1

  9
$DIMSTYLE
  2
ISO-25
  9
$DIMCLRD
 70
     0
  9
$DIMCLRE
 70
     0
  9
$DIMCLRT
 70
     0
  9
$DIMTFAC
 40
1.0
  9
$DIMGAP
 40
0.625
  9
$DIMJUST
 70
     0
  9
$DIMSD1
 70
     0
  9
$DIMSD2
 70
     0
  9
$DIMTOLJ
 70
     0
  9
$DIMTZIN
 70
     8
  9
$DIMALTZ
 70
     0
  9
$DIMALTTZ
 70
     0
  9
$DIMUPT
 70
     0
  9
$DIMDEC
 70
     2
  9
$DIMTDEC
 70
     2
  9
$DIMALTU
 70
     2
  9
$DIMALTTD
 70
     3
  9
$DIMTXSTY
  7
Standard
  9
$DIMAUNIT
 70
     0
  9
$DIMADEC
 70
     0
  9
$DIMALTRND
 40
0.0
  9
$DIMAZIN
 70
     0
  9
$DIMDSEP
 70
    44
  9
$DIMATFIT
 70
     3
  9
$DIMFRAC
 70
     0
  9
$DIMLDRBLK
  1

  9
$DIMLUNIT
 70
     2
  9
$DIMLWD
 70
    -2
  9
$DIMLWE
 70
    -2
  9
$DIMTMOVE
 70
     0
  9
$DIMFXL
 40
1.0
  9
$DIMFXLON
 70
     0
  9
$DIMJOGANG
 40
0.7853981633974483
  9
$DIMTFILL
 70
     0
  9
$DIMTFILLCLR
 70
     0
  9
$DIMARCSYM
 70
     0
  9
$DIMLTYPE
  6

  9
$DIMLTEX1
  6

  9
$DIMLTEX2
  6

  9
$DIMTXTDIRECTION
 70
     0
  9
$LUNITS
 70
     2
  9
$LUPREC
 70
     4
  9
$SKETCHINC
 40
1.0
  9
$FILLETRAD
 40
10.0
  9
$AUNITS
 70
     0
  9
$AUPREC
 70
     0
  9
$MENU
  1
.
  9
$ELEVATION
 40
0.0
  9
$PELEVATION
 40
0.0
  9
$THICKNESS
 40
0.0
  9
$LIMCHECK
 70
     0
  9
$CHAMFERA
 40
0.0
  9
$CHAMFERB
 40
0.0
  9
$CHAMFERC
 40
0.0
  9
$CHAMFERD
 40
0.0
  9
$SKPOLY
 70
     0
  9
$TDCREATE
 40
2458893.451446736
  9
$TDUCREATE
 40
2458893.076446736
  9
$TDUPDATE
 40
2458893.451446806
  9
$TDUUPDATE
 40
2458893.076446806
  9
$TDINDWG
 40
0.0000000116
  9
$TDUSRTIMER
 40
0.0000000116
  9
$USRTIMER
 70
     1
  9
$ANGBASE
 50
0.0
  9
$ANGDIR
 70
     0
  9
$PDMODE
 70
     0
  9
$PDSIZE
 40
0.0
  9
$PLINEWID
 40
0.0
  9
$SPLFRAME
 70
     0
  9
$SPLINETYPE
 70
     6
  9
$SPLINESEGS
 70
     8
  9
$HANDSEED
  5
19F
  9
$SURFTAB1
 70
     6
  9
$SURFTAB2
 70
     6
  9
$SURFTYPE
 70
     6
  9
$SURFU
 70
     6
  9
$SURFV
 70
     6
  9
$UCSBASE
  2

  9
$UCSNAME
  2

  9
$UCSORG
 10
0.0
 20
0.0
 30
0.0
  9
$UCSXDIR
 10
1.0
 20
0.0
 30
0.0
  9
$UCSYDIR
 10
0.0
 20
1.0
 30
0.0
  9
$UCSORTHOREF
  2

  9
$UCSORTHOVIEW
 70
     0
  9
$UCSORGTOP
 10
0.0
 20
0.0
 30
0.0
  9
$UCSORGBOTTOM
 10
0.0
 20
0.0
 30
0.0
  9
$UCSORGLEFT
 10
0.0
 20
0.0
 30
0.0
  9
$UCSORGRIGHT
 10
0.0
 20
0.0
 30
0.0
  9
$UCSORGFRONT
 10
0.0
 20
0.0
 30
0.0
  9
$UCSORGBACK
 10
0.0
 20
0.0
 30
0.0
  9
$PUCSBASE
  2

  9
$PUCSNAME
  2

  9
$PUCSORG
 10
0.0
 20
0.0
 30
0.0
  9
$PUCSXDIR
 10
1.0
 20
0.0
 30
0.0
  9
$PUCSYDIR
 10
0.0
 20
1.0
 30
0.0
  9
$PUCSORTHOREF
  2

  9
$PUCSORTHOVIEW
 70
     0
  9
$PUCSORGTOP
 10
0.0
 20
0.0
 30
0.0
  9
$PUCSORGBOTTOM
 10
0.0
 20
0.0
 30
0.0
  9
$PUCSORGLEFT
 10
0.0
 20
0.0
 30
0.0
  9
$PUCSORGRIGHT
 10
0.0
 20
0.0
 30
0.0
  9
$PUCSORGFRONT
 10
0.0
 20
0.0
 30
0.0
  9
$PUCSORGBACK
 10
0.0
 20
0.0
 30
0.0
  9
$USERI1
 70
     0
  9
$USERI2
 70
     0
  9
$USERI3
 70
     0
  9
$USERI4
 70
     0
  9
$USERI5
 70
     0
  9
$USERR1
 40
0.0
  9
$USERR2
 40
0.0
  9
$USERR3
 40
0.0
  9
$USERR4
 40
0.0
  9
$USERR5
 40
0.0
  9
$WORLDVIEW
 70
     1
  9
$SHADEDGE
 70
     3
  9
$SHADEDIF
 70
    70
  9
$TILEMODE
 70
     1
  9
$MAXACTVP
 70
    64
  9
$PINSBASE
 10
0.0
 20
0.0
 30
0.0
  9
$PLIMCHECK
 70
     0
  9
$PEXTMIN
 10
1.000000000000000E+20
 20
1.000000000000000E+20
 30
1.000000000000000E+20
  9
$PEXTMAX
 10
-1.000000000000000E+20
 20
-1.000000000000000E+20
 30
-1.000000000000000E+20
  9
$PLIMMIN
 10
0.0
 20
0.0
  9
$PLIMMAX
 10
420.0
 20
297.0
  9
$UNITMODE
 70
     0
  9
$VISRETAIN
 70
     1
  9
$PLINEGEN
 70
     0
  9
$PSLTSCALE
 70
     1
  9
$TREEDEPTH
 70
  3020
  9
$CMLSTYLE
  2
Standard
  9
$CMLJUST
 70
     0
  9
$CMLSCALE
 40
20.0
  9
$PROXYGRAPHICS
 70
     1
  9
$MEASUREMENT
 70
     1
  9
$CELWEIGHT
370
    -1
  9
$ENDCAPS
280
     0
  9
$JOINSTYLE
280
     0
  9
$LWDISPLAY
290
     0
  9
$INSUNITS
 70
     4
  9
$HYPERLINKBASE
  1

  9
$STYLESHEET
  1

  9
$XEDIT
290
     1
  9
$CEPSNTYPE
380
     0
  9
$PSTYLEMODE
290
     1
  9
$FINGERPRINTGUID
  2
{3E0E1334-2944-4B83-BBBD-4D9158253309}
  9
$VERSIONGUID
  2
{FAEB1C32-E019-11D5-929B-00C0DF256EC4}
  9
$EXTNAMES
290
     1
  9
$PSVPSCALE
 40
0.0
  9
$OLESTARTUP
290
     0
  9
$SORTENTS
280
   127
  9
$INDEXCTL
280
     0
  9
$HIDETEXT
280
     1
  9
$XCLIPFRAME
280
     2
  9
$HALOGAP
280
     0
  9
$OBSCOLOR
 70
   257
  9
$OBSLTYPE
280
     0
  9
$INTERSECTIONDISPLAY
280
     0
  9
$INTERSECTIONCOLOR
 70
   257
  9
$DIMASSOC
280
     2
  9
$PROJECTNAME
  1

  9
$CAMERADISPLAY
290
     0
  9
$LENSLENGTH
 40
50.0
  9
$CAMERAHEIGHT
 40
0.0
  9
$STEPSPERSEC
 40
2.0
  9
$STEPSIZE
 40
6.0
  9
$3DDWFPREC
 40
2.0
  9
$PSOLWIDTH
 40
5.0
  9
$PSOLHEIGHT
 40
80.0
  9
$LOFTANG1
 40
1.570796326794897
  9
$LOFTANG2
 40
1.570796326794897
  9
$LOFTMAG1
 40
0.0
  9
$LOFTMAG2
 40
0.0
  9
$LOFTPARAM
 70
     7
  9
$LOFTNORMALS
280
     1
  9
$LATITUDE
 40
37.795
  9
$LONGITUDE
 40
-122.394
  9
$NORTHDIRECTION
 40
0.0
  9
$TIMEZONE
 70
 -8000
  9
$LIGHTGLYPHDISPLAY
280
     1
  9
$TILEMODELIGHTSYNCH
280
     1
  9
$CMATERIAL
347
44
  9
$SOLIDHIST
280
     0
  9
$SHOWHIST
280
     1
  9
$DWFFRAME
280
     2
  9
$DGNFRAME
280
     2
  9
$REALWORLDSCALE
290
     1
  9
$INTERFERECOLOR
 62
   256
  9
$CSHADOW
280
     0
  9
$SHADOWPLANELOCATION
 40
0.0
  0
ENDSEC
  0
SECTION
  2
CLASSES
  0
CLASS
  1
ACDBDICTIONARYWDFLT
  2
AcDbDictionaryWithDefault
  3
ObjectDBX Classes
 90
        0
 91
        4
280
     0
281
     0
  0
CLASS
  1
VISUALSTYLE
  2
AcDbVisualStyle
  3
ObjectDBX Classes
 90
     4095
 91
        4
280
     0
281
     0
  0
CLASS
  1
MATERIAL
  2
AcDbMaterial
  3
ObjectDBX Classes
 90
     1153
 91
        4
280
     0
281
     0
  0
CLASS
  1
SCALE
  2
AcDbScale
  3
ObjectDBX Classes
 90
     1153
 91
        4
280
     0
281
     0
  0
CLASS
  1
TABLESTYLE
  2
AcDbTableStyle
  3
ObjectDBX Classes
 90
     4095
 91
        4
280
     0
281
     0
  0
CLASS
  1
MLEADERSTYLE
  2
AcDbMLeaderStyle
  3
ACDB_MLEADERSTYLE_CLASS
 90
     4095
 91
        4
280
     0
281
     0
  0
CLASS
  1
SUN
  2
AcDbSun
  3
SCENEOE
 90
     1153
 91
        4
280
     0
281
     0
  0
CLASS
  1
DICTIONARYVAR
  2
AcDbDictionaryVar
  3
ObjectDBX Classes
 90
        0
 91
        4
280
     0
281
     0
  0
CLASS
  1
CELLSTYLEMAP
  2
AcDbCellStyleMap
  3
ObjectDBX Classes
 90
     1152
 91
        4
280
     0
281
     0
  0
ENDSEC
  0
SECTION
  2
TABLES
  0
TABLE
  2
VPORT
  5
8
330
0
100
AcDbSymbolTable
 70
     1
  0
VPORT
  5
29
330
8
100
AcDbSymbolTableRecord
100
AcDbViewportTableRecord
  2
*Active
 70
     0
 10
0.0
 20
0.0
 11
1.0
 21
1.0
 12
0.0
 22
0.0
 13
0.0
 23
0.0
 14
10.0
 24
10.0
 15
10.0
 25
10.0
 16
0.0
 26
0.0
 36
1.0
 17
0.0
 27
0.0
 37
0.0
 40
3267.0
 41
1.414141414141414
 42
50.0
 43
0.0
 44
0.0
 50
0.0
 51
0.0
 71
     0
 72
 10000
 73
     1
 74
     3
 75
     0
 76
     0
 77
     0
 78
     0
281
     0
 65
     1
110
0.0
120
0.0
130
0.0
111
1.0
121
0.0
131
0.0
112
0.0
122
1.0
132
0.0
 79
     0
146
0.0
348
2F
 60
     3
 61
     5
292
     1
282
     1
141
0.0
142
0.0
 63
   250
361
6D
  0
ENDTAB
  0
TABLE
  2
LTYPE
  5
5
330
0
100
AcDbSymbolTable
 70
     4
  0
LTYPE
  5
14
330
5
100
AcDbSymbolTableRecord
100
AcDbLinetypeTableRecord
  2
ByBlock
 70
     0
  3

 72
    65
 73
     0
 40
0.0
  0
LTYPE
  5
15
330
5
100
AcDbSymbolTableRecord
100
AcDbLinetypeTableRecord
  2
ByLayer
 70
     0
  3

 72
    65
 73
     0
 40
0.0
  0
LTYPE
  5
16
330
5
100
AcDbSymbolTableRecord
100
AcDbLinetypeTableRecord
  2
Continuous
 70
     0
  3
Solid line
 72
    65
 73
     0
 40
0.0
  0
LTYPE
  5
6F
330
5
100
AcDbSymbolTableRecord
100
AcDbLinetypeTableRecord
  2
JWW_CENTER2
 70
     0
  3
-------------  --  -------------
 72
    65
 73
     4
 40
13.54666666666667
 49
11.00666666666667
 74
     0
 49
-0.8466666666666667
 74
     0
 49
0.8466666666666667
 74
     0
 49
-0.8466666666666667
 74
     0
  0
LTYPE
  5
70
330
5
100
AcDbSymbolTableRecord
100
AcDbLinetypeTableRecord
  2
JWW_DASHED1
 70
     0
  3
-  --  --  --  --  --  --  --  -
 72
    65
 73
     2
 40
1.693333333333333
 49
0.8466666666666667
 74
     0
 49
-0.8466666666666667
 74
     0
  0
LTYPE
  5
71
330
5
100
AcDbSymbolTableRecord
100
AcDbLinetypeTableRecord
  2
JWW_CENTER1
 70
     0
  3
-----  --  ----------  --  -----
 72
    65
 73
     4
 40
6.773333333333333
 49
4.233333333333333
 74
     0
 49
-0.8466666666666667
 74
     0
 49
0.8466666666666667
 74
     0
 49
-0.8466666666666667
 74
     0
  0
ENDTAB
  0
TABLE
  2
LAYER
  5
2
330
0
100
AcDbSymbolTable
 70
    14
  0
LAYER
  5
10
330
2
100
AcDbSymbolTableRecord
100
AcDbLayerTableRecord
  2
0
 70
     0
 62
     7
  6
Continuous
370
    -3
390
F
347
46
348
0
  0
LAYER
  5
72
330
2
100
AcDbSymbolTableRecord
100
AcDbLayerTableRecord
  2
C-E
 70
     0
 62
     7
  6
Continuous
370
    -3
390
F
347
46
348
0
  0
LAYER
  5
73
330
2
100
AcDbSymbolTableRecord
100
AcDbLayerTableRecord
  2
C-0
 70
     0
 62
     7
  6
Continuous
370
    -3
390
F
347
46
348
0
  0
LAYER
  5
74
330
2
100
AcDbSymbolTableRecord
100
AcDbLayerTableRecord
  2
C-4
 70
     0
 62
     7
  6
Continuous
370
    -3
390
F
347
46
348
0
  0
LAYER
  5
75
330
2
100
AcDbSymbolTableRecord
100
AcDbLayerTableRecord
  2
C-1
 70
     0
 62
     7
  6
Continuous
370
    -3
390
F
347
46
348
0
  0
LAYER
  5
76
330
2
100
AcDbSymbolTableRecord
100
AcDbLayerTableRecord
  2
C-5
 70
     0
 62
     7
  6
Continuous
370
    -3
390
F
347
46
348
0
  0
LAYER
  5
77
330
2
100
AcDbSymbolTableRecord
100
AcDbLayerTableRecord
  2
C-2
 70
     0
 62
     7
  6
Continuous
370
    -3
390
F
347
46
348
0
  0
LAYER
  5
78
330
2
100
AcDbSymbolTableRecord
100
AcDbLayerTableRecord
  2
C-A
 70
     0
 62
     7
  6
Continuous
370
    -3
390
F
347
46
348
0
  0
LAYER
  5
79
330
2
100
AcDbSymbolTableRecord
100
AcDbLayerTableRecord
  2
3-5
 70
     0
 62
     7
  6
Continuous
370
    -3
390
F
347
46
348
0
  0
LAYER
  5
7A
330
2
100
AcDbSymbolTableRecord
100
AcDbLayerTableRecord
  2
3-2
 70
     0
 62
     7
  6
Continuous
370
    -3
390
F
347
46
348
0
  0
LAYER
  5
7B
330
2
100
AcDbSymbolTableRecord
100
AcDbLayerTableRecord
  2
3-0
 70
     0
 62
     7
  6
Continuous
370
    -3
390
F
347
46
348
0
  0
LAYER
  5
7C
330
2
100
AcDbSymbolTableRecord
100
AcDbLayerTableRecord
  2
3-A
 70
     0
 62
     7
  6
Continuous
370
    -3
390
F
347
46
348
0
  0
LAYER
  5
7D
330
2
100
AcDbSymbolTableRecord
100
AcDbLayerTableRecord
  2
3-4
 70
     0
 62
     7
  6
Continuous
370
    -3
390
F
347
46
348
0
  0
LAYER
  5
7E
330
2
100
AcDbSymbolTableRecord
100
AcDbLayerTableRecord
  2
F-5ﾚｲﾔ
 70
     0
 62
     7
  6
Continuous
370
    -3
390
F
347
46
348
0
  0
ENDTAB
  0
TABLE
  2
STYLE
  5
3
330
0
100
AcDbSymbolTable
 70
     2
  0
STYLE
  5
11
330
3
100
AcDbSymbolTableRecord
100
AcDbTextStyleTableRecord
  2
Standard
 70
     0
 40
0.0
 41
1.0
 50
0.0
 71
     0
 42
2.5
  3
txt
  4

  0
STYLE
  5
6E
330
3
100
AcDbSymbolTableRecord
100
AcDbTextStyleTableRecord
  2
ＭＳ ゴシック
 70
     0
 40
1.0
 41
1.0
 50
0.0
 71
     0
 42
2.5
  3

  4

1001
ACAD
1000
MS Gothic
1071
    32817
  0
ENDTAB
  0
TABLE
  2
VIEW
  5
6
330
0
100
AcDbSymbolTable
 70
     0
  0
ENDTAB
  0
TABLE
  2
UCS
  5
7
330
0
100
AcDbSymbolTable
 70
     0
  0
ENDTAB
  0
TABLE
  2
APPID
  5
9
330
0
100
AcDbSymbolTable
 70
     1
  0
APPID
  5
12
330
9
100
AcDbSymbolTableRecord
100
AcDbRegAppTableRecord
  2
ACAD
 70
     0
  0
ENDTAB
  0
TABLE
  2
DIMSTYLE
  5
A
330
0
100
AcDbSymbolTable
 70
     1
100
AcDbDimStyleTable
  0
DIMSTYLE
105
27
330
A
100
AcDbSymbolTableRecord
100
AcDbDimStyleTableRecord
  2
ISO-25
 70
     0
 41
2.5
 42
0.625
 43
3.75
 44
1.25
 73
     0
 74
     0
 77
     1
 78
     8
140
2.5
141
2.5
143
0.03937007874016
147
0.625
171
     3
172
     1
178
     0
271
     2
272
     2
274
     3
278
    44
283
     0
284
     8
340
11
  0
ENDTAB
  0
TABLE
  2
BLOCK_RECORD
  5
1
330
0
100
AcDbSymbolTable
 70
     1
  0
BLOCK_RECORD
  5
1F
330
1
100
AcDbSymbolTableRecord
100
AcDbBlockTableRecord
  2
*Model_Space
340
22
 70
     0
280
     1
281
     0
  0
BLOCK_RECORD
  5
1B
330
1
100
AcDbSymbolTableRecord
100
AcDbBlockTableRecord
  2
*Paper_Space
340
1E
 70
     0
280
     1
281
     0
  0
BLOCK_RECORD
  5
23
330
1
100
AcDbSymbolTableRecord
100
AcDbBlockTableRecord
  2
*Paper_Space0
340
26
 70
     0
280
     1
281
     0
  0
ENDTAB
  0
ENDSEC
  0
SECTION
  2
BLOCKS
  0
BLOCK
  5
20
330
1F
100
AcDbEntity
  8
0
100
AcDbBlockBegin
  2
*Model_Space
 70
     0
 10
0.0
 20
0.0
 30
0.0
  3
*Model_Space
  1

  0
ENDBLK
  5
21
330
1F
100
AcDbEntity
  8
0
100
AcDbBlockEnd
  0
BLOCK
  5
1C
330
1B
100
AcDbEntity
 67
     1
  8
0
100
AcDbBlockBegin
  2
*Paper_Space
 70
     0
 10
0.0
 20
0.0
 30
0.0
  3
*Paper_Space
  1

  0
ENDBLK
  5
1D
330
1B
100
AcDbEntity
 67
     1
  8
0
100
AcDbBlockEnd
  0
BLOCK
  5
24
330
23
100
AcDbEntity
  8
0
100
AcDbBlockBegin
  2
*Paper_Space0
 70
     0
 10
0.0
 20
0.0
 30
0.0
  3
*Paper_Space0
  1

  0
ENDBLK
  5
25
330
23
100
AcDbEntity
  8
0
100
AcDbBlockEnd
  0
ENDSEC
  0
SECTION
  2
ENTITIES
  0
LINE
  5
7F
330
1F
100
AcDbEntity
  8
C-E
  6
Continuous
 62
     6
370
     5
100
AcDbLine
 10
-38.1500244140625
 20
-231.6703911346052
 30
0.0
 11
-150.0000000000003
 21
-343.5203667205427
 31
0.0
  0
LINE
  5
80
330
1F
100
AcDbEntity
  8
C-E
  6
Continuous
 62
     6
370
     5
100
AcDbLine
 10
123.2464311473528
 20
-112.2960362467717
 30
0.0
 11
38.1500244140625
 21
-193.9509993519133
 31
0.0
  0
LINE
  5
81
330
1F
100
AcDbEntity
  8
C-0
  6
JWW_CENTER2
 62
     7
370
     9
100
AcDbLine
 10
0.0
 20
-387.2959950068014
 30
0.0
 11
0.0
 21
762.7039018932726
 31
0.0
  0
LINE
  5
82
330
1F
100
AcDbEntity
  8
C-E
  6
Continuous
 62
     6
370
     5
100
AcDbLine
 10
-199.9999999999997
 20
-362.2960362467717
 30
0.0
 11
199.9999999999999
 21
-362.2960362467717
 31
0.0
  0
LINE
  5
83
330
1F
100
AcDbEntity
  8
C-E
  6
Continuous
 62
     6
370
     5
100
AcDbLine
 10
-199.9999999999997
 20
-462.2960362467717
 30
0.0
 11
-199.9999999999997
 21
-362.2960362467717
 31
0.0
  0
LINE
  5
84
330
1F
100
AcDbEntity
  8
C-E
  6
Continuous
 62
     6
370
     5
100
AcDbLine
 10
-199.9999999999997
 20
-462.2960362467717
 30
0.0
 11
199.9999999999999
 21
-462.2960362467717
 31
0.0
  0
LINE
  5
85
330
1F
100
AcDbEntity
  8
C-E
  6
Continuous
 62
     6
370
     5
100
AcDbLine
 10
0.0
 20
-362.2960362467717
 30
0.0
 11
-26.79491924311236
 21
-462.2960362467717
 31
0.0
  0
LINE
  5
86
330
1F
100
AcDbEntity
  8
C-E
  6
Continuous
 62
     6
370
     5
100
AcDbLine
 10
-13.7455504295724
 20
-462.2960362467717
 30
0.0
 11
-20.27023483634252
 21
-437.9455825373537
 31
0.0
  0
LINE
  5
87
330
1F
100
AcDbEntity
  8
C-E
  6
Continuous
 62
     6
370
     5
100
AcDbLine
 10
-13.04936881354024
 20
-362.2960362467717
 30
0.0
 11
-6.52468440677012
 21
-386.6464899561898
 31
0.0
  0
LINE
  5
88
330
1F
100
AcDbEntity
  8
C-E
  6
Continuous
 62
     6
370
     5
100
AcDbLine
 10
-50.0
 20
-362.2960362467717
 30
0.0
 11
-76.79491924311236
 21
-462.2960362467717
 31
0.0
  0
LINE
  5
89
330
1F
100
AcDbEntity
  8
C-E
  6
Continuous
 62
     6
370
     5
100
AcDbLine
 10
-63.7455504295724
 20
-462.2960362467717
 30
0.0
 11
-70.27023483634252
 21
-437.9455825373537
 31
0.0
  0
LINE
  5
8A
330
1F
100
AcDbEntity
  8
C-E
  6
Continuous
 62
     6
370
     5
100
AcDbLine
 10
-63.04936881354024
 20
-362.2960362467717
 30
0.0
 11
-56.52468440677012
 21
-386.6464899561898
 31
0.0
  0
LINE
  5
8B
330
1F
100
AcDbEntity
  8
C-E
  6
Continuous
 62
     6
370
     5
100
AcDbLine
 10
-100.0
 20
-362.2960362467717
 30
0.0
 11
-126.7949192431124
 21
-462.2960362467717
 31
0.0
  0
LINE
  5
8C
330
1F
100
AcDbEntity
  8
C-E
  6
Continuous
 62
     6
370
     5
100
AcDbLine
 10
-113.7455504295724
 20
-462.2960362467717
 30
0.0
 11
-120.2702348363425
 21
-437.9455825373537
 31
0.0
  0
LINE
  5
8D
330
1F
100
AcDbEntity
  8
C-E
  6
Continuous
 62
     6
370
     5
100
AcDbLine
 10
-113.0493688135402
 20
-362.2960362467717
 30
0.0
 11
-106.5246844067701
 21
-386.6464899561898
 31
0.0
  0
LINE
  5
8E
330
1F
100
AcDbEntity
  8
C-E
  6
Continuous
 62
     6
370
     5
100
AcDbLine
 10
-150.0000000000003
 20
-362.2960362467717
 30
0.0
 11
-176.7949192431118
 21
-462.2960362467717
 31
0.0
  0
LINE
  5
8F
330
1F
100
AcDbEntity
  8
C-E
  6
Continuous
 62
     6
370
     5
100
AcDbLine
 10
-163.7455504295727
 20
-462.2960362467717
 30
0.0
 11
-170.2702348363417
 21
-437.9455825373537
 31
0.0
  0
LINE
  5
90
330
1F
100
AcDbEntity
  8
C-E
  6
Continuous
 62
     6
370
     5
100
AcDbLine
 10
-163.04936881354
 20
-362.2960362467717
 30
0.0
 11
-156.5246844067704
 21
-386.6464899561898
 31
0.0
  0
LINE
  5
91
330
1F
100
AcDbEntity
  8
C-E
  6
Continuous
 62
     6
370
     5
100
AcDbLine
 10
49.99999999999986
 20
-362.2960362467717
 30
0.0
 11
23.20508075688764
 21
-462.2960362467717
 31
0.0
  0
LINE
  5
92
330
1F
100
AcDbEntity
  8
C-E
  6
Continuous
 62
     6
370
     5
100
AcDbLine
 10
36.2544495704276
 20
-462.2960362467717
 30
0.0
 11
29.72976516365748
 21
-437.9455825373537
 31
0.0
  0
LINE
  5
93
330
1F
100
AcDbEntity
  8
C-E
  6
Continuous
 62
     6
370
     5
100
AcDbLine
 10
36.95063118645976
 20
-362.2960362467717
 30
0.0
 11
43.47531559322988
 21
-386.6464899561898
 31
0.0
  0
LINE
  5
94
330
1F
100
AcDbEntity
  8
C-E
  6
Continuous
 62
     6
370
     5
100
AcDbLine
 10
99.99999999999986
 20
-362.2960362467717
 30
0.0
 11
73.20508075688764
 21
-462.2960362467717
 31
0.0
  0
LINE
  5
95
330
1F
100
AcDbEntity
  8
C-E
  6
Continuous
 62
     6
370
     5
100
AcDbLine
 10
86.2544495704276
 20
-462.2960362467717
 30
0.0
 11
79.72976516365762
 21
-437.9455825373537
 31
0.0
  0
LINE
  5
96
330
1F
100
AcDbEntity
  8
C-E
  6
Continuous
 62
     6
370
     5
100
AcDbLine
 10
86.9506311864599
 20
-362.2960362467717
 30
0.0
 11
93.47531559322988
 21
-386.6464899561898
 31
0.0
  0
LINE
  5
97
330
1F
100
AcDbEntity
  8
C-E
  6
Continuous
 62
     6
370
     5
100
AcDbLine
 10
149.9999999999999
 20
-362.2960362467717
 30
0.0
 11
123.2050807568876
 21
-462.2960362467717
 31
0.0
  0
LINE
  5
98
330
1F
100
AcDbEntity
  8
C-E
  6
Continuous
 62
     6
370
     5
100
AcDbLine
 10
136.2544495704276
 20
-462.2960362467717
 30
0.0
 11
129.7297651636576
 21
-437.9455825373537
 31
0.0
  0
LINE
  5
99
330
1F
100
AcDbEntity
  8
C-E
  6
Continuous
 62
     6
370
     5
100
AcDbLine
 10
136.9506311864599
 20
-362.2960362467717
 30
0.0
 11
143.4753155932299
 21
-386.6464899561898
 31
0.0
  0
LINE
  5
9A
330
1F
100
AcDbEntity
  8
C-E
  6
Continuous
 62
     6
370
     5
100
AcDbLine
 10
199.9999999999999
 20
-362.2960362467717
 30
0.0
 11
173.2050807568876
 21
-462.2960362467717
 31
0.0
  0
LINE
  5
9B
330
1F
100
AcDbEntity
  8
C-E
  6
Continuous
 62
     6
370
     5
100
AcDbLine
 10
186.2544495704276
 20
-462.2960362467717
 30
0.0
 11
179.7297651636576
 21
-437.9455825373537
 31
0.0
  0
LINE
  5
9C
330
1F
100
AcDbEntity
  8
C-E
  6
Continuous
 62
     6
370
     5
100
AcDbLine
 10
186.9506311864599
 20
-362.2960362467717
 30
0.0
 11
193.4753155932299
 21
-386.6464899561898
 31
0.0
  0
LINE
  5
9D
330
1F
100
AcDbEntity
  8
C-E
  6
Continuous
 62
     6
370
     5
100
AcDbLine
 10
-150.0000000000003
 20
-362.2960362467717
 30
0.0
 11
-150.0000000000003
 21
-112.2960362467717
 31
0.0
  0
LINE
  5
9E
330
1F
100
AcDbEntity
  8
C-E
  6
Continuous
 62
     6
370
     5
100
AcDbLine
 10
149.9999999999999
 20
-362.2960362467717
 30
0.0
 11
149.9999999999999
 21
-112.2960362467717
 31
0.0
  0
LINE
  5
9F
330
1F
100
AcDbEntity
  8
C-E
  6
Continuous
 62
     6
370
     5
100
AcDbLine
 10
199.9999999999999
 20
-462.2960362467717
 30
0.0
 11
199.9999999999999
 21
-365.5053967667916
 31
0.0
  0
LINE
  5
A0
330
1F
100
AcDbEntity
  8
C-E
  6
Continuous
 62
     6
370
     5
100
AcDbLine
 10
199.9999999999999
 20
-365.5053967667916
 30
0.0
 11
199.9999999999999
 21
-362.2960362467717
 31
0.0
  0
LINE
  5
A1
330
1F
100
AcDbEntity
  8
C-E
  6
Continuous
 62
     6
370
     5
100
AcDbLine
 10
-38.1500244140625
 20
-245.8125267583362
 30
0.0
 11
-150.0000000000003
 21
-357.6625023442736
 31
0.0
  0
LINE
  5
A2
330
1F
100
AcDbEntity
  8
C-E
  6
Continuous
 62
     6
370
     5
100
AcDbLine
 10
149.9999999999999
 20
-256.1173356384405
 30
0.0
 11
43.82129939166859
 21
-362.2960362467717
 31
0.0
  0
LINE
  5
A3
330
1F
100
AcDbEntity
  8
C-E
  6
Continuous
 62
     6
370
     5
100
AcDbLine
 10
149.9999999999999
 20
-241.9752000147096
 30
0.0
 11
38.1500244140625
 21
-353.8251756006468
 31
0.0
  0
LINE
  5
A4
330
1F
100
AcDbEntity
  8
C-E
  6
Continuous
 62
     6
370
     5
100
AcDbLine
 10
149.9999999999999
 20
-227.8330643909786
 30
0.0
 11
38.1500244140625
 21
-339.6830399769158
 31
0.0
  0
LINE
  5
A5
330
1F
100
AcDbEntity
  8
C-E
  6
Continuous
 62
     6
370
     5
100
AcDbLine
 10
108.9836792809425
 20
-112.2960362467717
 30
0.0
 11
38.1500244140625
 21
-179.6416429121018
 31
0.0
  0
LINE
  5
A6
330
1F
100
AcDbEntity
  8
C-E
  6
Continuous
 62
     6
370
     5
100
AcDbLine
 10
137.4841664759317
 20
-112.2960362467717
 30
0.0
 11
38.15002441406249
 21
-208.2067075892851
 31
0.0
  0
LINE
  5
A7
330
1F
100
AcDbEntity
  8
C-E
  6
Continuous
 62
     6
370
     5
100
AcDbLine
 10
-38.15002441406251
 20
-217.5282555108742
 30
0.0
 11
-150.0000000000003
 21
-329.3782310968118
 31
0.0
  0
LINE
  5
A8
330
1F
100
AcDbEntity
  8
C-0
  6
JWW_CENTER2
 62
     7
370
     9
100
AcDbLine
 10
-12.37187387207102
 20
-212.295982453484
 30
0.0
 11
12.53102429796663
 21
-212.295982453484
 31
0.0
  0
TEXT
  5
A9
330
1F
100
AcDbEntity
  8
C-4
  6
Continuous
 62
     2
370
   211
100
AcDbText
 10
-1203.957886098172
 20
821.4069556261062
 30
0.0
 40
30.48
  1
φ76.3
 41
1.104166666666667
  7
ＭＳ ゴシック
100
AcDbText
  0
LINE
  5
AA
330
1F
100
AcDbEntity
  8
C-1
  6
Continuous
 62
     3
370
     9
100
AcDbLine
 10
-1099.777511139474
 20
-206.5459059284654
 30
0.0
 11
-1099.777511139474
 21
-218.0459191252556
 31
0.0
  0
LINE
  5
AB
330
1F
100
AcDbEntity
  8
C-1
  6
Continuous
 62
     3
370
     9
100
AcDbLine
 10
-1095.268167811771
 20
-206.5459059284654
 30
0.0
 11
-1099.777511139474
 21
-206.5459059284654
 31
0.0
  0
LINE
  5
AC
330
1F
100
AcDbEntity
  8
C-1
  6
Continuous
 62
     3
370
     9
100
AcDbLine
 10
-1095.268167811771
 20
-218.0459191252556
 30
0.0
 11
-1099.777511139474
 21
-218.0459191252556
 31
0.0
  0
LINE
  5
AD
330
1F
100
AcDbEntity
  8
C-1
  6
Continuous
 62
     3
370
     9
100
AcDbLine
 10
-1094.777494643486
 20
-207.989222413896
 30
0.0
 11
-1094.777494643486
 21
-216.6024789199137
 31
0.0
  0
LINE
  5
AE
330
1F
100
AcDbEntity
  8
C-1
  6
Continuous
 62
     3
370
     9
100
AcDbLine
 10
-1095.268167811771
 20
-215.1591624344831
 30
0.0
 11
-1099.777511139474
 21
-215.1591624344831
 31
0.0
  0
LINE
  5
AF
330
1F
100
AcDbEntity
  8
C-1
  6
Continuous
 62
     3
370
     9
100
AcDbLine
 10
-1095.268167811771
 20
-209.4326626192379
 30
0.0
 11
-1099.777511139474
 21
-209.4326626192379
 31
0.0
  0
LINE
  5
B0
330
1F
100
AcDbEntity
  8
C-1
  6
Continuous
 62
     3
370
     9
100
AcDbLine
 10
-1094.777494643486
 20
-209.8374741690691
 30
0.0
 11
-1037.927700513418
 21
-209.8374741690691
 31
0.0
  0
LINE
  5
B1
330
1F
100
AcDbEntity
  8
C-1
  6
Continuous
 62
     3
370
     9
100
AcDbLine
 10
-1037.927700513418
 20
-209.8374741690691
 30
0.0
 11
-1037.927700513418
 21
-214.754350884652
 31
0.0
  0
LINE
  5
B2
330
1F
100
AcDbEntity
  8
C-1
  6
Continuous
 62
     3
370
     9
100
AcDbLine
 10
-1094.777494643486
 20
-214.754350884652
 30
0.0
 11
-1037.927700513418
 21
-214.754350884652
 31
0.0
  0
LINE
  5
B3
330
1F
100
AcDbEntity
  8
C-1
  6
Continuous
 62
     3
370
     9
100
AcDbLine
 10
-1037.927700513418
 20
-209.8374741690691
 30
0.0
 11
-1038.469098845344
 21
-209.2959521172322
 31
0.0
  0
LINE
  5
B4
330
1F
100
AcDbEntity
  8
C-1
  6
Continuous
 62
     3
370
     9
100
AcDbLine
 10
-1094.777494643486
 20
-209.2959521172322
 30
0.0
 11
-1038.469098845344
 21
-209.2959521172322
 31
0.0
  0
LINE
  5
B5
330
1F
100
AcDbEntity
  8
C-1
  6
Continuous
 62
     3
370
     9
100
AcDbLine
 10
-1094.777494643486
 20
-215.2958729364889
 30
0.0
 11
-1038.469222565255
 21
-215.2958729364889
 31
0.0
  0
LINE
  5
B6
330
1F
100
AcDbEntity
  8
C-1
  6
Continuous
 62
     3
370
     9
100
AcDbLine
 10
-1037.927700513418
 20
-214.754350884652
 30
0.0
 11
-1038.469222565255
 21
-215.2958729364889
 31
0.0
  0
LINE
  5
B7
330
1F
100
AcDbEntity
  8
C-1
  6
Continuous
 62
     3
370
     9
100
AcDbLine
 10
-1038.469098845344
 20
-209.2959521172322
 30
0.0
 11
-1038.469098845344
 21
-215.2958729364889
 31
0.0
  0
LINE
  5
B8
330
1F
100
AcDbEntity
  8
C-1
  6
Continuous
 62
     3
370
     9
100
AcDbLine
 10
-1176.077559967599
 20
-206.5459059284654
 30
0.0
 11
-1176.077559967599
 21
-218.0459191252556
 31
0.0
  0
LINE
  5
B9
330
1F
100
AcDbEntity
  8
C-1
  6
Continuous
 62
     3
370
     9
100
AcDbLine
 10
-1180.586903295302
 20
-206.5459059284654
 30
0.0
 11
-1176.077559967599
 21
-206.5459059284654
 31
0.0
  0
LINE
  5
BA
330
1F
100
AcDbEntity
  8
C-1
  6
Continuous
 62
     3
370
     9
100
AcDbLine
 10
-1180.586903295302
 20
-218.0459191252556
 30
0.0
 11
-1176.077559967599
 21
-218.0459191252556
 31
0.0
  0
LINE
  5
BB
330
1F
100
AcDbEntity
  8
C-1
  6
Continuous
 62
     3
370
     9
100
AcDbLine
 10
-1181.077576463587
 20
-207.989222413896
 30
0.0
 11
-1181.077576463587
 21
-216.6024789199137
 31
0.0
  0
LINE
  5
BC
330
1F
100
AcDbEntity
  8
C-1
  6
Continuous
 62
     3
370
     9
100
AcDbLine
 10
-1180.586903295302
 20
-215.1591624344831
 30
0.0
 11
-1176.077559967599
 21
-215.1591624344831
 31
0.0
  0
LINE
  5
BD
330
1F
100
AcDbEntity
  8
C-1
  6
Continuous
 62
     3
370
     9
100
AcDbLine
 10
-1180.586903295302
 20
-209.4326626192379
 30
0.0
 11
-1176.077559967599
 21
-209.4326626192379
 31
0.0
  0
LINE
  5
BE
330
1F
100
AcDbEntity
  8
C-1
  6
Continuous
 62
     3
370
     9
100
AcDbLine
 10
-1181.077576463587
 20
-209.8374741690691
 30
0.0
 11
-1237.927556173522
 21
-209.8374741690691
 31
0.0
  0
LINE
  5
BF
330
1F
100
AcDbEntity
  8
C-1
  6
Continuous
 62
     3
370
     9
100
AcDbLine
 10
-1237.927556173522
 20
-209.8374741690691
 30
0.0
 11
-1237.927556173522
 21
-214.754350884652
 31
0.0
  0
LINE
  5
C0
330
1F
100
AcDbEntity
  8
C-1
  6
Continuous
 62
     3
370
     9
100
AcDbLine
 10
-1181.077576463587
 20
-214.754350884652
 30
0.0
 11
-1237.927556173522
 21
-214.754350884652
 31
0.0
  0
LINE
  5
C1
330
1F
100
AcDbEntity
  8
C-1
  6
Continuous
 62
     3
370
     9
100
AcDbLine
 10
-1237.927556173522
 20
-209.8374741690691
 30
0.0
 11
-1237.386157841596
 21
-209.2959521172322
 31
0.0
  0
LINE
  5
C2
330
1F
100
AcDbEntity
  8
C-1
  6
Continuous
 62
     3
370
     9
100
AcDbLine
 10
-1181.077576463587
 20
-209.2959521172322
 30
0.0
 11
-1237.386157841596
 21
-209.2959521172322
 31
0.0
  0
LINE
  5
C3
330
1F
100
AcDbEntity
  8
C-1
  6
Continuous
 62
     3
370
     9
100
AcDbLine
 10
-1181.077576463587
 20
-215.2958729364889
 30
0.0
 11
-1237.386034121685
 21
-215.2958729364889
 31
0.0
  0
LINE
  5
C4
330
1F
100
AcDbEntity
  8
C-1
  6
Continuous
 62
     3
370
     9
100
AcDbLine
 10
-1237.927556173522
 20
-214.754350884652
 30
0.0
 11
-1237.386034121685
 21
-215.2958729364889
 31
0.0
  0
LINE
  5
C5
330
1F
100
AcDbEntity
  8
C-1
  6
Continuous
 62
     3
370
     9
100
AcDbLine
 10
-1237.386157841596
 20
-209.2959521172322
 30
0.0
 11
-1237.386157841596
 21
-215.2958729364889
 31
0.0
  0
ARC
  5
C6
330
1F
100
AcDbEntity
  8
C-1
  6
Continuous
 62
     3
370
     9
100
AcDbCircle
 10
-1097.145493746104
 20
-207.989222413896
 30
0.0
 40
2.367928785246772
100
AcDbArc
 50
322.4427795410156
 51
37.55722045898439
  0
ARC
  5
C7
330
1F
100
AcDbEntity
  8
C-1
  6
Continuous
 62
     3
370
     9
100
AcDbCircle
 10
-1103.3754098805
 20
-212.2959125268605
 30
0.0
 40
8.59791813669978
100
AcDbArc
 50
340.5480041503906
 51
19.45199584960938
  0
ARC
  5
C8
330
1F
100
AcDbEntity
  8
C-1
  6
Continuous
 62
     3
370
     9
100
AcDbCircle
 10
-1097.145493746104
 20
-216.6024789199137
 30
0.0
 40
2.367928785246772
100
AcDbArc
 50
322.4427795410156
 51
37.55722045898439
  0
ARC
  5
C9
330
1F
100
AcDbEntity
  8
C-1
  6
Continuous
 62
     3
370
     9
100
AcDbCircle
 10
-1178.709577360969
 20
-207.989222413896
 30
0.0
 40
2.367928785246772
100
AcDbArc
 50
142.4427795410156
 51
217.5572204589844
  0
ARC
  5
CA
330
1F
100
AcDbEntity
  8
C-1
  6
Continuous
 62
     3
370
     9
100
AcDbCircle
 10
-1172.479661226573
 20
-212.2959125268605
 30
0.0
 40
8.59791813669978
100
AcDbArc
 50
160.5480041503906
 51
199.4519958496094
  0
ARC
  5
CB
330
1F
100
AcDbEntity
  8
C-1
  6
Continuous
 62
     3
370
     9
100
AcDbCircle
 10
-1178.709577360969
 20
-216.6024789199137
 30
0.0
 40
2.367928785246772
100
AcDbArc
 50
142.4427795410156
 51
217.5572204589844
  0
LINE
  5
CC
330
1F
100
AcDbEntity
  8
C-0
  6
JWW_CENTER2
 62
     7
370
     9
100
AcDbLine
 10
-1137.927535553536
 20
-387.2959950068014
 30
0.0
 11
-1137.927535553536
 21
762.7039018932726
 31
0.0
  0
LINE
  5
CD
330
1F
100
AcDbEntity
  8
C-0
  6
JWW_CENTER2
 62
     7
370
     9
100
AcDbLine
 10
-1242.927820109333
 20
-212.2959125268605
 30
0.0
 11
-1032.92768401743
 21
-212.2959125268605
 31
0.0
  0
LINE
  5
CE
330
1F
100
AcDbEntity
  8
C-1
  6
JWW_DASHED1
 62
     3
370
     9
100
AcDbLine
 10
-1176.077559967599
 20
-209.2959521172322
 30
0.0
 11
-1099.777511139474
 21
-209.2959521172322
 31
0.0
  0
LINE
  5
CF
330
1F
100
AcDbEntity
  8
C-1
  6
JWW_DASHED1
 62
     3
370
     9
100
AcDbLine
 10
-1176.077559967599
 20
-215.2958729364889
 30
0.0
 11
-1099.777511139474
 21
-215.2958729364889
 31
0.0
  0
LINE
  5
D0
330
1F
100
AcDbEntity
  8
C-4
  6
Continuous
 62
     7
370
     9
100
AcDbLine
 10
-1176.077559967599
 20
809.7669556261063
 30
0.0
 11
-1099.777511139474
 21
809.7669556261063
 31
0.0
  0
LWPOLYLINE
  5
D1
330
1F
100
AcDbEntity
  8
C-4
  6
Continuous
 62
     7
370
     9
100
AcDbPolyline
 90
        4
 70
     1
 43
2.0
 10
-1175.077559967599
 20
809.7669556261063
 42
0.4142135623731
 10
-1176.077559967599
 20
810.7669556261062
 42
0.4142135623731
 10
-1177.077559967599
 20
809.7669556261063
 42
0.4142135623731
 10
-1176.077559967599
 20
808.7669556261063
 42
0.4142135623731
  0
LWPOLYLINE
  5
D2
330
1F
100
AcDbEntity
  8
C-4
  6
Continuous
 62
     7
370
     9
100
AcDbPolyline
 90
        4
 70
     1
 43
2.0
 10
-1098.777511139474
 20
809.7669556261063
 42
0.4142135623731
 10
-1099.777511139474
 20
810.7669556261062
 42
0.4142135623731
 10
-1100.777511139474
 20
809.7669556261063
 42
0.4142135623731
 10
-1099.777511139474
 20
808.7669556261063
 42
0.4142135623731
  0
LINE
  5
D3
330
1F
100
AcDbEntity
  8
C-4
  6
Continuous
 62
     7
370
     9
100
AcDbLine
 10
-1176.077559967599
 20
812.7669556261062
 30
0.0
 11
-1176.077559967599
 21
745.0873577368116
 31
0.0
  0
LINE
  5
D4
330
1F
100
AcDbEntity
  8
C-4
  6
Continuous
 62
     7
370
     9
100
AcDbLine
 10
-1099.777511139474
 20
812.7669556261062
 30
0.0
 11
-1099.777511139474
 21
745.0873577368113
 31
0.0
  0
LINE
  5
D5
330
1F
100
AcDbEntity
  8
C-4
  6
Continuous
 62
     7
370
     9
100
AcDbLine
 10
-1337.927535553536
 20
-723.1931637513787
 30
0.0
 11
-937.9275355535367
 21
-723.1931637513787
 31
0.0
  0
LWPOLYLINE
  5
D6
330
1F
100
AcDbEntity
  8
C-4
  6
Continuous
 62
     7
370
     9
100
AcDbPolyline
 90
        4
 70
     1
 43
2.0
 10
-1336.927535553536
 20
-723.1931637513787
 42
0.4142135623731
 10
-1337.927535553536
 20
-722.1931637513787
 42
0.4142135623731
 10
-1338.927535553536
 20
-723.1931637513787
 42
0.4142135623731
 10
-1337.927535553536
 20
-724.1931637513787
 42
0.4142135623731
  0
LWPOLYLINE
  5
D7
330
1F
100
AcDbEntity
  8
C-4
  6
Continuous
 62
     7
370
     9
100
AcDbPolyline
 90
        4
 70
     1
 43
2.0
 10
-936.9275355535367
 20
-723.1931637513787
 42
0.4142135623731
 10
-937.9275355535367
 20
-722.1931637513787
 42
0.4142135623731
 10
-938.9275355535367
 20
-723.1931637513787
 42
0.4142135623731
 10
-937.9275355535367
 20
-724.1931637513787
 42
0.4142135623731
  0
LINE
  5
D8
330
1F
100
AcDbEntity
  8
C-4
  6
Continuous
 62
     7
370
     9
100
AcDbLine
 10
-1337.927535553536
 20
-726.1931637513788
 30
0.0
 11
-1337.927535553536
 21
-482.29613676965
 31
0.0
  0
LINE
  5
D9
330
1F
100
AcDbEntity
  8
C-4
  6
Continuous
 62
     7
370
     9
100
AcDbLine
 10
-937.9275355535367
 20
-726.1931637513788
 30
0.0
 11
-937.9275355535367
 21
-482.29613676965
 31
0.0
  0
LINE
  5
DA
330
1F
100
AcDbEntity
  8
C-4
  6
Continuous
 62
     7
370
     9
100
AcDbLine
 10
-1287.927535553537
 20
-609.6013270166848
 30
0.0
 11
-987.9275355535367
 21
-609.6013270166848
 31
0.0
  0
LWPOLYLINE
  5
DB
330
1F
100
AcDbEntity
  8
C-4
  6
Continuous
 62
     7
370
     9
100
AcDbPolyline
 90
        4
 70
     1
 43
2.0
 10
-1286.927535553537
 20
-609.6013270166848
 42
0.4142135623731
 10
-1287.927535553537
 20
-608.6013270166846
 42
0.4142135623731
 10
-1288.927535553537
 20
-609.6013270166848
 42
0.4142135623731
 10
-1287.927535553537
 20
-610.6013270166848
 42
0.4142135623731
  0
LWPOLYLINE
  5
DC
330
1F
100
AcDbEntity
  8
C-4
  6
Continuous
 62
     7
370
     9
100
AcDbPolyline
 90
        4
 70
     1
 43
2.0
 10
-986.9275355535367
 20
-609.6013270166848
 42
0.4142135623731
 10
-987.9275355535367
 20
-608.6013270166846
 42
0.4142135623731
 10
-988.9275355535367
 20
-609.6013270166848
 42
0.4142135623731
 10
-987.9275355535367
 20
-610.6013270166848
 42
0.4142135623731
  0
LINE
  5
DD
330
1F
100
AcDbEntity
  8
C-4
  6
Continuous
 62
     7
370
     9
100
AcDbLine
 10
-1287.927535553537
 20
-612.6013270166848
 30
0.0
 11
-1287.927535553537
 21
-482.29613676965
 31
0.0
  0
LINE
  5
DE
330
1F
100
AcDbEntity
  8
C-4
  6
Continuous
 62
     7
370
     9
100
AcDbLine
 10
-987.9275355535367
 20
-612.6013270166848
 30
0.0
 11
-987.9275355535367
 21
-482.29613676965
 31
0.0
  0
TEXT
  5
DF
330
1F
100
AcDbEntity
  8
C-4
  6
Continuous
 62
     2
370
   211
100
AcDbText
 10
-1192.927535553536
 20
-707.5531637513787
 30
0.0
 40
30.48
  1
□400
 41
1.099999999999994
  7
ＭＳ ゴシック
100
AcDbText
  0
TEXT
  5
E0
330
1F
100
AcDbEntity
  8
C-4
  6
Continuous
 62
     2
370
   211
100
AcDbText
 10
-1192.927535553536
 20
-593.9613270166848
 30
0.0
 40
30.48
  1
□300
 41
1.099999999999994
  7
ＭＳ ゴシック
100
AcDbText
  0
LINE
  5
E1
330
1F
100
AcDbEntity
  8
C-4
  6
Continuous
 62
     7
370
     9
100
AcDbLine
 10
-1660.482041331562
 20
737.703896737826
 30
0.0
 11
-1660.482041331562
 21
-362.29613676965
 31
0.0
  0
LWPOLYLINE
  5
E2
330
1F
100
AcDbEntity
  8
C-4
  6
Continuous
 62
     7
370
     9
100
AcDbPolyline
 90
        4
 70
     1
 43
2.0
 10
-1659.482041331562
 20
737.703896737826
 42
0.4142135623731
 10
-1660.482041331562
 20
738.703896737826
 42
0.4142135623731
 10
-1661.482041331562
 20
737.703896737826
 42
0.4142135623731
 10
-1660.482041331562
 20
736.7038967378261
 42
0.4142135623731
  0
LWPOLYLINE
  5
E3
330
1F
100
AcDbEntity
  8
C-4
  6
Continuous
 62
     7
370
     9
100
AcDbPolyline
 90
        4
 70
     1
 43
2.0
 10
-1659.482041331562
 20
-362.29613676965
 42
0.4142135623731
 10
-1660.482041331562
 20
-361.29613676965
 42
0.4142135623731
 10
-1661.482041331562
 20
-362.29613676965
 42
0.4142135623731
 10
-1660.482041331562
 20
-363.29613676965
 42
0.4142135623731
  0
LINE
  5
E4
330
1F
100
AcDbEntity
  8
C-4
  6
Continuous
 62
     7
370
     9
100
AcDbLine
 10
-1663.482041331563
 20
737.703896737826
 30
0.0
 11
-1157.927535553536
 21
737.703896737826
 31
0.0
  0
TEXT
  5
E5
330
1F
100
AcDbEntity
  8
C-4
  6
Continuous
 62
     2
370
   211
100
AcDbText
 10
-1672.122041331563
 20
143.9538799840878
 30
0.0
 40
30.48
  1
1100
 50
90.0
 41
1.09375
  7
ＭＳ ゴシック
100
AcDbText
  0
LWPOLYLINE
  5
E6
330
1F
100
AcDbEntity
  8
C-4
  6
Continuous
 62
     7
370
     9
100
AcDbPolyline
 90
        4
 70
     1
 43
2.0
 10
-1518.194895207337
 20
737.703896737826
 42
0.4142135623731
 10
-1519.194895207337
 20
738.703896737826
 42
0.4142135623731
 10
-1520.194895207337
 20
737.703896737826
 42
0.4142135623731
 10
-1519.194895207337
 20
736.7038967378261
 42
0.4142135623731
  0
LINE
  5
E7
330
1F
100
AcDbEntity
  8
C-4
  6
Continuous
 62
     7
370
     9
100
AcDbLine
 10
-1519.194895207337
 20
-112.2961367696504
 30
0.0
 11
-1519.194895207337
 21
737.703896737826
 31
0.0
  0
LWPOLYLINE
  5
E8
330
1F
100
AcDbEntity
  8
C-4
  6
Continuous
 62
     7
370
     9
100
AcDbPolyline
 90
        4
 70
     1
 43
2.0
 10
-1518.194895207337
 20
-112.2961367696504
 42
0.4142135623731
 10
-1519.194895207337
 20
-111.2961367696504
 42
0.4142135623731
 10
-1520.194895207337
 20
-112.2961367696504
 42
0.4142135623731
 10
-1519.194895207337
 20
-113.2961367696504
 42
0.4142135623731
  0
TEXT
  5
E9
330
1F
100
AcDbEntity
  8
C-4
  6
Continuous
 62
     2
370
   211
100
AcDbText
 10
-1530.834895207337
 20
280.203879984088
 30
0.0
 40
30.48
  1
850
 50
90.0
 41
1.083333333333333
  7
ＭＳ ゴシック
100
AcDbText
  0
LINE
  5
EA
330
1F
100
AcDbEntity
  8
C-4
  6
Continuous
 62
     7
370
     9
100
AcDbLine
 10
-1519.194895207337
 20
-112.2961367696504
 30
0.0
 11
-1519.194895207337
 21
-362.29613676965
 31
0.0
  0
LWPOLYLINE
  5
EB
330
1F
100
AcDbEntity
  8
C-4
  6
Continuous
 62
     7
370
     9
100
AcDbPolyline
 90
        4
 70
     1
 43
2.0
 10
-1518.194895207337
 20
-362.29613676965
 42
0.4142135623731
 10
-1519.194895207337
 20
-361.29613676965
 42
0.4142135623731
 10
-1520.194895207337
 20
-362.29613676965
 42
0.4142135623731
 10
-1519.194895207337
 20
-363.29613676965
 42
0.4142135623731
  0
TEXT
  5
EC
330
1F
100
AcDbEntity
  8
C-4
  6
Continuous
 62
     2
370
   211
100
AcDbText
 10
-1530.834895207337
 20
-269.79613676965
 30
0.0
 40
30.48
  1
250
 50
90.0
 41
1.083333333333333
  7
ＭＳ ゴシック
100
AcDbText
  0
LINE
  5
ED
330
1F
100
AcDbEntity
  8
C-4
  6
Continuous
 62
     7
370
     9
100
AcDbLine
 10
-1519.194895207337
 20
-362.29613676965
 30
0.0
 11
-1519.194895207337
 21
-462.29613676965
 31
0.0
  0
LWPOLYLINE
  5
EE
330
1F
100
AcDbEntity
  8
C-4
  6
Continuous
 62
     7
370
     9
100
AcDbPolyline
 90
        4
 70
     1
 43
2.0
 10
-1518.194895207337
 20
-462.29613676965
 42
0.4142135623731
 10
-1519.194895207337
 20
-461.29613676965
 42
0.4142135623731
 10
-1520.194895207337
 20
-462.29613676965
 42
0.4142135623731
 10
-1519.194895207337
 20
-463.29613676965
 42
0.4142135623731
  0
LINE
  5
EF
330
1F
100
AcDbEntity
  8
C-4
  6
Continuous
 62
     7
370
     9
100
AcDbLine
 10
-1522.194895207337
 20
-462.29613676965
 30
0.0
 11
-1357.927535553536
 21
-462.29613676965
 31
0.0
  0
TEXT
  5
F0
330
1F
100
AcDbEntity
  8
C-4
  6
Continuous
 62
     2
370
   211
100
AcDbText
 10
-1530.834895207337
 20
-444.79613676965
 30
0.0
 40
30.48
  1
100
 50
90.0
 41
1.083333333333333
  7
ＭＳ ゴシック
100
AcDbText
  0
LINE
  5
F1
330
1F
100
AcDbEntity
  8
C-4
  6
Continuous
 62
     7
370
     9
100
AcDbLine
 10
-1663.482041331563
 20
-362.29613676965
 30
0.0
 11
-1357.927535553536
 21
-362.29613676965
 31
0.0
  0
LINE
  5
F2
330
1F
100
AcDbEntity
  8
C-4
  6
Continuous
 62
     7
370
     9
100
AcDbLine
 10
-1402.83232512241
 20
-362.29613676965
 30
0.0
 11
-1402.83232512241
 21
-212.29613676965
 31
0.0
  0
LWPOLYLINE
  5
F3
330
1F
100
AcDbEntity
  8
C-4
  6
Continuous
 62
     7
370
     9
100
AcDbPolyline
 90
        4
 70
     1
 43
2.0
 10
-1401.83232512241
 20
-362.29613676965
 42
0.4142135623731
 10
-1402.83232512241
 20
-361.29613676965
 42
0.4142135623731
 10
-1403.83232512241
 20
-362.29613676965
 42
0.4142135623731
 10
-1402.83232512241
 20
-363.29613676965
 42
0.4142135623731
  0
LWPOLYLINE
  5
F4
330
1F
100
AcDbEntity
  8
C-4
  6
Continuous
 62
     7
370
     9
100
AcDbPolyline
 90
        4
 70
     1
 43
2.0
 10
-1401.83232512241
 20
-212.29613676965
 42
0.4142135623731
 10
-1402.83232512241
 20
-211.29613676965
 42
0.4142135623731
 10
-1403.83232512241
 20
-212.29613676965
 42
0.4142135623731
 10
-1402.83232512241
 20
-213.29613676965
 42
0.4142135623731
  0
LINE
  5
F5
330
1F
100
AcDbEntity
  8
C-4
  6
Continuous
 62
     7
370
     9
100
AcDbLine
 10
-1405.83232512241
 20
-212.29613676965
 30
0.0
 11
-1259.702689461106
 21
-212.29613676965
 31
0.0
  0
TEXT
  5
F6
330
1F
100
AcDbEntity
  8
C-4
  6
Continuous
 62
     2
370
   211
100
AcDbText
 10
-1414.47232512241
 20
-319.79613676965
 30
0.0
 40
30.48
  1
150
 50
90.0
 41
1.083333333333333
  7
ＭＳ ゴシック
100
AcDbText
  0
TEXT
  5
F7
330
1F
100
AcDbEntity
  8
C-5
  6
Continuous
 62
     2
370
     9
100
AcDbText
 10
-872.6417959789882
 20
-99.71483514696722
 30
0.0
 40
30.48
  1
▽G.L.
 41
1.104166666666667
  7
ＭＳ ゴシック
100
AcDbText
  0
LINE
  5
F8
330
1F
100
AcDbEntity
  8
C-E
  6
Continuous
 62
     6
370
     5
100
AcDbLine
 10
-1337.927535553536
 20
-362.2960362467717
 30
0.0
 11
-937.9275355535366
 21
-362.2960362467717
 31
0.0
  0
LINE
  5
F9
330
1F
100
AcDbEntity
  8
C-E
  6
Continuous
 62
     6
370
     5
100
AcDbLine
 10
-1337.927535553536
 20
-462.2960362467717
 30
0.0
 11
-1337.927535553536
 21
-362.2960362467717
 31
0.0
  0
LINE
  5
FA
330
1F
100
AcDbEntity
  8
C-E
  6
Continuous
 62
     6
370
     5
100
AcDbLine
 10
-1337.927535553536
 20
-462.2960362467717
 30
0.0
 11
-937.9275355535366
 21
-462.2960362467717
 31
0.0
  0
LINE
  5
FB
330
1F
100
AcDbEntity
  8
C-E
  6
Continuous
 62
     6
370
     5
100
AcDbLine
 10
-1137.927535553536
 20
-362.2960362467717
 30
0.0
 11
-1164.722454796649
 21
-462.2960362467717
 31
0.0
  0
LINE
  5
FC
330
1F
100
AcDbEntity
  8
C-E
  6
Continuous
 62
     6
370
     5
100
AcDbLine
 10
-1151.673085983109
 20
-462.2960362467717
 30
0.0
 11
-1158.197770389879
 21
-437.9455825373537
 31
0.0
  0
LINE
  5
FD
330
1F
100
AcDbEntity
  8
C-E
  6
Continuous
 62
     6
370
     5
100
AcDbLine
 10
-1150.976904367077
 20
-362.2960362467717
 30
0.0
 11
-1144.452219960307
 21
-386.6464899561898
 31
0.0
  0
LINE
  5
FE
330
1F
100
AcDbEntity
  8
C-E
  6
Continuous
 62
     6
370
     5
100
AcDbLine
 10
-1187.927535553536
 20
-362.2960362467717
 30
0.0
 11
-1214.722454796649
 21
-462.2960362467717
 31
0.0
  0
LINE
  5
FF
330
1F
100
AcDbEntity
  8
C-E
  6
Continuous
 62
     6
370
     5
100
AcDbLine
 10
-1201.673085983109
 20
-462.2960362467717
 30
0.0
 11
-1208.197770389879
 21
-437.9455825373537
 31
0.0
  0
LINE
  5
100
330
1F
100
AcDbEntity
  8
C-E
  6
Continuous
 62
     6
370
     5
100
AcDbLine
 10
-1200.976904367077
 20
-362.2960362467717
 30
0.0
 11
-1194.452219960307
 21
-386.6464899561898
 31
0.0
  0
LINE
  5
101
330
1F
100
AcDbEntity
  8
C-E
  6
Continuous
 62
     6
370
     5
100
AcDbLine
 10
-1237.927535553536
 20
-362.2960362467717
 30
0.0
 11
-1264.722454796649
 21
-462.2960362467717
 31
0.0
  0
LINE
  5
102
330
1F
100
AcDbEntity
  8
C-E
  6
Continuous
 62
     6
370
     5
100
AcDbLine
 10
-1251.673085983109
 20
-462.2960362467717
 30
0.0
 11
-1258.197770389879
 21
-437.9455825373537
 31
0.0
  0
LINE
  5
103
330
1F
100
AcDbEntity
  8
C-E
  6
Continuous
 62
     6
370
     5
100
AcDbLine
 10
-1250.976904367077
 20
-362.2960362467717
 30
0.0
 11
-1244.452219960307
 21
-386.6464899561898
 31
0.0
  0
LINE
  5
104
330
1F
100
AcDbEntity
  8
C-E
  6
Continuous
 62
     6
370
     5
100
AcDbLine
 10
-1287.927535553537
 20
-362.2960362467717
 30
0.0
 11
-1314.722454796648
 21
-462.2960362467717
 31
0.0
  0
LINE
  5
105
330
1F
100
AcDbEntity
  8
C-E
  6
Continuous
 62
     6
370
     5
100
AcDbLine
 10
-1301.673085983109
 20
-462.2960362467717
 30
0.0
 11
-1308.197770389878
 21
-437.9455825373537
 31
0.0
  0
LINE
  5
106
330
1F
100
AcDbEntity
  8
C-E
  6
Continuous
 62
     6
370
     5
100
AcDbLine
 10
-1300.976904367076
 20
-362.2960362467717
 30
0.0
 11
-1294.452219960307
 21
-386.6464899561898
 31
0.0
  0
LINE
  5
107
330
1F
100
AcDbEntity
  8
C-E
  6
Continuous
 62
     6
370
     5
100
AcDbLine
 10
-1087.927535553536
 20
-362.2960362467717
 30
0.0
 11
-1114.722454796649
 21
-462.2960362467717
 31
0.0
  0
LINE
  5
108
330
1F
100
AcDbEntity
  8
C-E
  6
Continuous
 62
     6
370
     5
100
AcDbLine
 10
-1101.673085983109
 20
-462.2960362467717
 30
0.0
 11
-1108.197770389879
 21
-437.9455825373537
 31
0.0
  0
LINE
  5
109
330
1F
100
AcDbEntity
  8
C-E
  6
Continuous
 62
     6
370
     5
100
AcDbLine
 10
-1100.976904367077
 20
-362.2960362467717
 30
0.0
 11
-1094.452219960307
 21
-386.6464899561898
 31
0.0
  0
LINE
  5
10A
330
1F
100
AcDbEntity
  8
C-E
  6
Continuous
 62
     6
370
     5
100
AcDbLine
 10
-1037.927535553536
 20
-362.2960362467717
 30
0.0
 11
-1064.722454796649
 21
-462.2960362467717
 31
0.0
  0
LINE
  5
10B
330
1F
100
AcDbEntity
  8
C-E
  6
Continuous
 62
     6
370
     5
100
AcDbLine
 10
-1051.673085983109
 20
-462.2960362467717
 30
0.0
 11
-1058.197770389879
 21
-437.9455825373537
 31
0.0
  0
LINE
  5
10C
330
1F
100
AcDbEntity
  8
C-E
  6
Continuous
 62
     6
370
     5
100
AcDbLine
 10
-1050.976904367076
 20
-362.2960362467717
 30
0.0
 11
-1044.452219960307
 21
-386.6464899561898
 31
0.0
  0
LINE
  5
10D
330
1F
100
AcDbEntity
  8
C-E
  6
Continuous
 62
     6
370
     5
100
AcDbLine
 10
-987.9275355535366
 20
-362.2960362467717
 30
0.0
 11
-1014.722454796649
 21
-462.2960362467717
 31
0.0
  0
LINE
  5
10E
330
1F
100
AcDbEntity
  8
C-E
  6
Continuous
 62
     6
370
     5
100
AcDbLine
 10
-1001.673085983109
 20
-462.2960362467717
 30
0.0
 11
-1008.197770389879
 21
-437.9455825373537
 31
0.0
  0
LINE
  5
10F
330
1F
100
AcDbEntity
  8
C-E
  6
Continuous
 62
     6
370
     5
100
AcDbLine
 10
-1000.976904367076
 20
-362.2960362467717
 30
0.0
 11
-994.4522199603066
 21
-386.6464899561898
 31
0.0
  0
LINE
  5
110
330
1F
100
AcDbEntity
  8
C-E
  6
Continuous
 62
     6
370
     5
100
AcDbLine
 10
-937.9275355535366
 20
-362.2960362467717
 30
0.0
 11
-964.7224547966488
 21
-462.2960362467717
 31
0.0
  0
LINE
  5
111
330
1F
100
AcDbEntity
  8
C-E
  6
Continuous
 62
     6
370
     5
100
AcDbLine
 10
-951.6730859831089
 20
-462.2960362467717
 30
0.0
 11
-958.1977703898788
 21
-437.9455825373537
 31
0.0
  0
LINE
  5
112
330
1F
100
AcDbEntity
  8
C-E
  6
Continuous
 62
     6
370
     5
100
AcDbLine
 10
-950.9769043670765
 20
-362.2960362467717
 30
0.0
 11
-944.4522199603066
 21
-386.6464899561898
 31
0.0
  0
LINE
  5
113
330
1F
100
AcDbEntity
  8
C-E
  6
Continuous
 62
     6
370
     5
100
AcDbLine
 10
-1287.927535553537
 20
-362.2960362467717
 30
0.0
 11
-1287.927535553537
 21
-112.2960362467717
 31
0.0
  0
LINE
  5
114
330
1F
100
AcDbEntity
  8
C-E
  6
Continuous
 62
     6
370
     5
100
AcDbLine
 10
-987.9275355535366
 20
-362.2960362467717
 30
0.0
 11
-987.9275355535366
 21
-112.2960362467717
 31
0.0
  0
LINE
  5
115
330
1F
100
AcDbEntity
  8
C-E
  6
Continuous
 62
     6
370
     5
100
AcDbLine
 10
-937.9275355535366
 20
-462.2960362467717
 30
0.0
 11
-937.9275355535366
 21
-365.5053967667916
 31
0.0
  0
LINE
  5
116
330
1F
100
AcDbEntity
  8
C-E
  6
Continuous
 62
     6
370
     5
100
AcDbLine
 10
-937.9275355535366
 20
-365.5053967667916
 30
0.0
 11
-937.9275355535366
 21
-362.2960362467717
 31
0.0
  0
LINE
  5
117
330
1F
100
AcDbEntity
  8
C-5
  6
Continuous
 62
     7
370
     9
100
AcDbLine
 10
-1030.253772167329
 20
336.1064053306342
 30
0.0
 11
-1099.713347098706
 21
215.7986891672051
 31
0.0
  0
LINE
  5
118
330
1F
100
AcDbEntity
  8
C-5
  6
Continuous
 62
     7
370
     9
100
AcDbLine
 10
-1099.713347098706
 20
215.7986891672051
 30
0.0
 11
-1090.146278190944
 21
238.8956844807552
 31
0.0
  0
LINE
  5
119
330
1F
100
AcDbEntity
  8
C-5
  6
Continuous
 62
     7
370
     9
100
AcDbLine
 10
-1099.713347098706
 20
215.7986891672051
 30
0.0
 11
-1084.494325887021
 21
235.6325338111038
 31
0.0
  0
LINE
  5
11A
330
1F
100
AcDbEntity
  8
C-5
  6
Continuous
 62
     7
370
     9
100
AcDbLine
 10
-965.7753845564447
 20
15.60033463199698
 30
0.0
 11
-598.6027281967675
 21
15.60033463199698
 31
0.0
  0
LINE
  5
11B
330
1F
100
AcDbEntity
  8
C-5
  6
Continuous
 62
     7
370
     9
100
AcDbLine
 10
-1095.285749951941
 20
-206.5686222049546
 30
0.0
 11
-965.7753845564447
 21
15.60033463199698
 31
0.0
  0
LINE
  5
11C
330
1F
100
AcDbEntity
  8
C-5
  6
Continuous
 62
     7
370
     9
100
AcDbLine
 10
-1095.285749951941
 20
-206.5686222049546
 30
0.0
 11
-1085.622215450703
 21
-183.5118205849685
 31
0.0
  0
LINE
  5
11D
330
1F
100
AcDbEntity
  8
C-5
  6
Continuous
 62
     7
370
     9
100
AcDbLine
 10
-1095.285749951941
 20
-206.5686222049546
 30
0.0
 11
-1079.983953025557
 21
-186.7985688205121
 31
0.0
  0
LINE
  5
11E
330
1F
100
AcDbEntity
  8
C-5
  6
Continuous
 62
     7
370
     9
100
AcDbLine
 10
-1052.406003993397
 20
-215.2958729364889
 30
0.0
 11
-861.8173740312686
 21
-545.3283929504024
 31
0.0
  0
LINE
  5
11F
330
1F
100
AcDbEntity
  8
C-5
  6
Continuous
 62
     7
370
     9
100
AcDbLine
 10
-479.9357994656485
 20
-545.3283929504024
 30
0.0
 11
-861.8173740312686
 21
-545.3283929504024
 31
0.0
  0
LINE
  5
120
330
1F
100
AcDbEntity
  8
C-5
  6
Continuous
 62
     7
370
     9
100
AcDbLine
 10
-1052.406003993397
 20
-215.2958729364889
 30
0.0
 11
-1042.836594950797
 21
-238.3918987975631
 31
0.0
  0
LINE
  5
121
330
1F
100
AcDbEntity
  8
C-5
  6
Continuous
 62
     7
370
     9
100
AcDbLine
 10
-1052.406003993397
 20
-215.2958729364889
 30
0.0
 11
-1037.184973297799
 21
-235.1281754897395
 31
0.0
  0
LINE
  5
122
330
1F
100
AcDbEntity
  8
C-E
  6
Continuous
 62
     6
370
     5
100
AcDbLine
 10
-1176.59522358198
 20
-218.0459191252556
 30
0.0
 11
-1287.927535553537
 21
-329.3782310968118
 31
0.0
  0
LINE
  5
123
330
1F
100
AcDbEntity
  8
C-E
  6
Continuous
 62
     6
370
     5
100
AcDbLine
 10
-1176.077559967599
 20
-231.6703911346052
 30
0.0
 11
-1287.927535553537
 21
-343.5203667205427
 31
0.0
  0
LINE
  5
124
330
1F
100
AcDbEntity
  8
C-E
  6
Continuous
 62
     6
370
     5
100
AcDbLine
 10
-1176.077559967599
 20
-245.8125267583362
 30
0.0
 11
-1287.927535553537
 21
-357.6625023442736
 31
0.0
  0
LINE
  5
125
330
1F
100
AcDbEntity
  8
C-E
  6
Continuous
 62
     6
370
     5
100
AcDbLine
 10
-987.9275355535366
 20
-256.1173356384405
 30
0.0
 11
-1094.106236161868
 21
-362.2960362467717
 31
0.0
  0
LINE
  5
126
330
1F
100
AcDbEntity
  8
C-E
  6
Continuous
 62
     6
370
     5
100
AcDbLine
 10
-987.9275355535366
 20
-241.9752000147096
 30
0.0
 11
-1099.777511139474
 21
-353.8251756006468
 31
0.0
  0
LINE
  5
127
330
1F
100
AcDbEntity
  8
C-E
  6
Continuous
 62
     6
370
     5
100
AcDbLine
 10
-987.9275355535366
 20
-227.8330643909786
 30
0.0
 11
-1099.777511139474
 21
-339.6830399769158
 31
0.0
  0
LINE
  5
128
330
1F
100
AcDbEntity
  8
C-E
  6
Continuous
 62
     6
370
     5
100
AcDbLine
 10
-1000.443369077605
 20
-112.2960362467717
 30
0.0
 11
-1098.05742821436
 21
-206.5459059284654
 31
0.0
  0
LINE
  5
129
330
1F
100
AcDbEntity
  8
C-E
  6
Continuous
 62
     6
370
     5
100
AcDbLine
 10
-1014.681104406184
 20
-112.2960362467717
 30
0.0
 11
-1099.777511139474
 21
-193.9509993519133
 31
0.0
  0
LINE
  5
12A
330
1F
100
AcDbEntity
  8
C-E
  6
Continuous
 62
     6
370
     5
100
AcDbLine
 10
-1028.943856272594
 20
-112.2960362467717
 30
0.0
 11
-1099.777511139474
 21
-179.6416429121018
 31
0.0
  0
TEXT
  5
12B
330
1F
100
AcDbEntity
  8
C-5
  6
Continuous
 62
     7
370
     9
100
AcDbText
 10
-956.9906404346191
 20
29.6986693747983
 30
0.0
 40
22.86
  1
六角ナット：M6
 41
1.154761904761905
  7
ＭＳ ゴシック
100
AcDbText
  0
TEXT
  5
12C
330
1F
100
AcDbEntity
  8
C-5
  6
Continuous
 62
     7
370
     9
100
AcDbText
 10
-956.9906404346191
 20
-16.63702802472903
 30
0.0
 40
22.86
  1
SWRCH　電気亜鉛めっき
 41
1.150793650793651
  7
ＭＳ ゴシック
100
AcDbText
  0
TEXT
  5
12D
330
1F
100
AcDbEntity
  8
C-5
  6
Continuous
 62
     7
370
     9
100
AcDbText
 10
-851.9565355694126
 20
-580.9511765878627
 30
0.0
 40
22.86
  1
SS400　電気亜鉛めっき
 41
1.150793650793651
  7
ＭＳ ゴシック
100
AcDbText
  0
TEXT
  5
12E
330
1F
100
AcDbEntity
  8
C-5
  6
Continuous
 62
     7
370
     9
100
AcDbText
 10
-851.9565355694126
 20
-532.3483397084304
 30
0.0
 40
22.86
  1
長ネジボルト：M6×200
 41
1.158730158730159
  7
ＭＳ ゴシック
100
AcDbText
  0
TEXT
  5
12F
330
1F
100
AcDbEntity
  8
C-5
  6
Continuous
 62
     2
370
     9
100
AcDbText
 10
272.4069580223127
 20
-99.71483514696722
 30
0.0
 40
30.48
  1
▽G.L.
 41
1.104166666666667
  7
ＭＳ ゴシック
100
AcDbText
  0
LINE
  5
130
330
1F
100
AcDbEntity
  8
C-E
  6
Continuous
 62
     6
370
     5
100
AcDbLine
 10
-1176.077559967599
 20
-112.2960362467717
 30
0.0
 11
-1556.438174240509
 21
-112.2960362467717
 31
0.0
  0
LINE
  5
131
330
1F
100
AcDbEntity
  8
C-E
  6
Continuous
 62
     6
370
     5
100
AcDbLine
 10
-1099.777511139474
 20
-112.2960362467717
 30
0.0
 11
-714.3538972264289
 21
-112.2960362467717
 31
0.0
  0
LINE
  5
132
330
1F
100
AcDbEntity
  8
C-E
  6
Continuous
 62
     6
370
     5
100
AcDbLine
 10
-38.1500244140625
 20
-112.2960362467717
 30
0.0
 11
-418.5106386869728
 21
-112.2960362467717
 31
0.0
  0
LINE
  5
133
330
1F
100
AcDbEntity
  8
C-E
  6
Continuous
 62
     6
370
     5
100
AcDbLine
 10
38.1500244140625
 20
-112.2960362467717
 30
0.0
 11
423.5736383271075
 21
-112.2960362467717
 31
0.0
  0
ARC
  5
134
330
1F
100
AcDbEntity
  8
C-2
  6
Continuous
 62
     3
370
     9
100
AcDbCircle
 10
-1137.927534861717
 20
669.4615843640071
 30
0.0
 40
68.24260354793822
100
AcDbArc
 50
56.01091647065034
 51
123.9890835293496
  0
LINE
  5
135
330
1F
100
AcDbEntity
  8
C-2
  6
Continuous
 62
     3
370
     9
100
AcDbLine
 10
-1081.460535373731
 20
617.7039922870543
 30
0.0
 11
-1081.460535373731
 21
617.7139922869636
 31
0.0
  0
ARC
  5
136
330
1F
100
AcDbEntity
  8
C-2
  6
Continuous
 62
     3
370
     9
100
AcDbCircle
 10
-1081.460535373731
 20
630.3869921720631
 30
0.0
 40
12.68299988500862
100
AcDbArc
 50
270.0
 51
0.0
  0
ARC
  5
137
330
1F
100
AcDbEntity
  8
C-2
  6
Continuous
 62
     3
370
     9
100
AcDbCircle
 10
-1081.460535373731
 20
630.3869921720631
 30
0.0
 40
18.68299983060874
100
AcDbArc
 50
270.0
 51
0.0
  0
LINE
  5
138
330
1F
100
AcDbEntity
  8
C-2
  6
Continuous
 62
     3
370
     9
100
AcDbLine
 10
-1093.777535262052
 20
637.2039921102547
 30
0.0
 11
-1093.777535262052
 21
627.3620955070297
 31
0.0
  0
LINE
  5
139
330
1F
100
AcDbEntity
  8
C-2
  6
Continuous
 62
     3
370
     9
100
AcDbLine
 10
-1099.77753520766
 20
637.2039921102547
 30
0.0
 11
-1093.777535262059
 21
637.2039921102547
 31
0.0
  0
ARC
  5
13A
330
1F
100
AcDbEntity
  8
C-2
  6
Continuous
 62
     3
370
     9
100
AcDbCircle
 10
-1081.460535373731
 20
630.3869921720631
 30
0.0
 40
12.68299988500862
100
AcDbArc
 50
193.7980315976056
 51
270.0
  0
ARC
  5
13B
330
1F
100
AcDbEntity
  8
C-2
  6
Continuous
 62
     3
370
     9
100
AcDbCircle
 10
-1081.460535373731
 20
630.3869921720631
 30
0.0
 40
18.68299983060874
100
AcDbArc
 50
191.3596882805108
 51
270.0
  0
ARC
  5
13C
330
1F
100
AcDbEntity
  8
C-2
  6
Continuous
 62
     3
370
     9
100
AcDbCircle
 10
-1081.460535373731
 20
645.0209920393795
 30
0.0
 40
12.68299988500862
100
AcDbArc
 50
0.0
 51
90.0
  0
ARC
  5
13D
330
1F
100
AcDbEntity
  8
C-2
  6
Continuous
 62
     3
370
     9
100
AcDbCircle
 10
-1081.460535373731
 20
645.0209920393795
 30
0.0
 40
18.68299983060874
100
AcDbArc
 50
0.0
 51
90.0
  0
LINE
  5
13E
330
1F
100
AcDbEntity
  8
C-2
  6
Continuous
 62
     3
370
     9
100
AcDbLine
 10
-1093.777535262052
 20
638.2039921011877
 30
0.0
 11
-1093.777535262052
 21
648.0458887044131
 31
0.0
  0
ARC
  5
13F
330
1F
100
AcDbEntity
  8
C-2
  6
Continuous
 62
     3
370
     9
100
AcDbCircle
 10
-1081.460535373731
 20
645.0209920393795
 30
0.0
 40
12.68299988500862
100
AcDbArc
 50
90.0
 51
166.2019684023945
  0
ARC
  5
140
330
1F
100
AcDbEntity
  8
C-2
  6
Continuous
 62
     3
370
     9
100
AcDbCircle
 10
-1081.460535373731
 20
645.0209920393795
 30
0.0
 40
18.68299983060874
100
AcDbArc
 50
90.0
 51
168.6403117194892
  0
LINE
  5
141
330
1F
100
AcDbEntity
  8
C-2
  6
Continuous
 62
     3
370
     9
100
AcDbLine
 10
-1099.777535207645
 20
638.2039921011877
 30
0.0
 11
-1093.777535262052
 21
638.2039921011843
 31
0.0
  0
LINE
  5
142
330
1F
100
AcDbEntity
  8
C-2
  6
Continuous
 62
     3
370
     9
100
AcDbLine
 10
-1068.777535488726
 20
630.3869921720631
 30
0.0
 11
-1068.777535488726
 21
645.0209920393795
 31
0.0
  0
LINE
  5
143
330
1F
100
AcDbEntity
  8
C-2
  6
Continuous
 62
     3
370
     9
100
AcDbLine
 10
-1062.777535543126
 20
630.3869921720631
 30
0.0
 11
-1062.777535543126
 21
645.0209920393795
 31
0.0
  0
LINE
  5
144
330
1F
100
AcDbEntity
  8
C-A
  6
JWW_CENTER1
 62
     7
370
     9
100
AcDbLine
 10
-1107.648942462944
 20
637.7039921057236
 30
0.0
 11
-1056.335027927315
 21
637.7039921057079
 31
0.0
  0
LINE
  5
145
330
1F
100
AcDbEntity
  8
C-A
  6
JWW_CENTER1
 62
     7
370
     9
100
AcDbLine
 10
-1081.460535373731
 20
603.18386354244
 30
0.0
 11
-1081.460535373731
 21
672.224120668991
 31
0.0
  0
LINE
  5
146
330
1F
100
AcDbEntity
  8
C-2
  6
Continuous
 62
     3
370
     9
100
AcDbLine
 10
-1099.777535899465
 20
724.7041880297894
 30
0.0
 11
-1176.077535207608
 21
724.7041880297894
 31
0.0
  0
ARC
  5
147
330
1F
100
AcDbEntity
  8
C-2
  6
Continuous
 62
     3
370
     9
100
AcDbCircle
 10
0.0000006918194253
 20
669.4615843640067
 30
0.0
 40
68.24260354793822
100
AcDbArc
 50
56.01091647065034
 51
123.9890835293496
  0
ARC
  5
148
330
1F
100
AcDbEntity
  8
C-2
  6
Continuous
 62
     3
370
     9
100
AcDbCircle
 10
0.1613586288615268
 20
660.7039918699752
 30
0.0
 40
3.0
100
AcDbArc
 50
90.0
 51
180.0
  0
ARC
  5
149
330
1F
100
AcDbEntity
  8
C-2
  6
Continuous
 62
     3
370
     9
100
AcDbCircle
 10
0.1613586288613562
 20
660.7039918699752
 30
0.0
 40
3.0
100
AcDbArc
 50
0.0
 51
90.0
  0
LINE
  5
14A
330
1F
100
AcDbEntity
  8
C-2
  6
Continuous
 62
     3
370
     9
100
AcDbLine
 10
-2.838641371138473
 20
614.7039923414409
 30
0.0
 11
-2.838641371138473
 21
660.7039918699752
 31
0.0
  0
ARC
  5
14B
330
1F
100
AcDbEntity
  8
C-2
  6
Continuous
 62
     3
370
     9
100
AcDbCircle
 10
0.1613586288615268
 20
614.7039923414409
 30
0.0
 40
3.0
100
AcDbArc
 50
180.0
 51
270.0
  0
LINE
  5
14C
330
1F
100
AcDbEntity
  8
C-2
  6
Continuous
 62
     3
370
     9
100
AcDbLine
 10
3.161358628861357
 20
614.7039923414409
 30
0.0
 11
3.161358628861357
 21
660.7039918699752
 31
0.0
  0
ARC
  5
14D
330
1F
100
AcDbEntity
  8
C-2
  6
Continuous
 62
     3
370
     9
100
AcDbCircle
 10
0.1613586288613562
 20
614.7039923414409
 30
0.0
 40
3.0
100
AcDbArc
 50
270.0
 51
0.0
  0
LINE
  5
14E
330
1F
100
AcDbEntity
  8
C-2
  6
Continuous
 62
     3
370
     9
100
AcDbLine
 10
-38.14999965407196
 20
724.7041880297894
 30
0.0
 11
38.14999965407196
 21
724.7041880297894
 31
0.0
  0
LINE
  5
14F
330
1F
100
AcDbEntity
  8
C-2
  6
Continuous
 62
     3
370
     9
100
AcDbLine
 10
-38.14999896228937
 20
-362.2960362467717
 30
0.0
 11
-38.14999896228937
 21
726.0445364378648
 31
0.0
  0
LINE
  5
150
330
1F
100
AcDbEntity
  8
C-2
  6
Continuous
 62
     3
370
     9
100
AcDbLine
 10
38.15000034592812
 20
-362.2960362467717
 30
0.0
 11
38.15000034592856
 21
726.0445364378648
 31
0.0
  0
LINE
  5
151
330
1F
100
AcDbEntity
  8
3-5
  6
Continuous
 62
     7
370
     9
100
AcDbLine
 10
830.3510250141136
 20
-360.1633111533545
 30
0.0
 11
1446.351025014113
 21
-360.1633111533545
 31
0.0
  0
LINE
  5
152
330
1F
100
AcDbEntity
  8
3-5
  6
Continuous
 62
     7
370
     9
100
AcDbLine
 10
830.3510250141136
 20
-430.1633111533545
 30
0.0
 11
1446.351025014113
 21
-430.1633111533545
 31
0.0
  0
LINE
  5
153
330
1F
100
AcDbEntity
  8
3-5
  6
Continuous
 62
     7
370
     9
100
AcDbLine
 10
830.3510250141136
 20
-360.1633111533545
 30
0.0
 11
830.3510250141136
 21
-430.1633111533545
 31
0.0
  0
LINE
  5
154
330
1F
100
AcDbEntity
  8
3-5
  6
Continuous
 62
     7
370
     9
100
AcDbLine
 10
1446.351025014113
 20
-360.1633111533545
 30
0.0
 11
1446.351025014113
 21
-430.1633111533545
 31
0.0
  0
TEXT
  5
155
330
1F
100
AcDbEntity
  8
3-5
  6
Continuous
 62
     2
370
     9
100
AcDbText
 10
848.3510250141137
 20
-409.5233111533545
 30
0.0
 40
30.48
  1
フック部詳細図　Ｓ＝１：３
 41
1.115384615384615
  7
ＭＳ ゴシック
100
AcDbText
  0
LINE
  5
156
330
1F
100
AcDbEntity
  8
3-2
  6
Continuous
 62
     3
370
     9
100
AcDbLine
 10
1011.1843577709
 20
227.309919075432
 30
0.0
 11
1265.517688798046
 21
227.309919075432
 31
0.0
  0
LINE
  5
157
330
1F
100
AcDbEntity
  8
3-0
  6
JWW_CENTER2
 62
     7
370
     9
100
AcDbLine
 10
1138.351023284473
 20
-309.810020978493
 30
0.0
 11
1138.351023284473
 21
323.593804762277
 31
0.0
  0
LINE
  5
158
330
1F
100
AcDbEntity
  8
3-2
  6
Continuous
 62
     3
370
     9
100
AcDbLine
 10
1011.184357770777
 20
-249.3569799278657
 30
0.0
 11
1011.184357770777
 21
231.7781670601526
 31
0.0
  0
ARC
  5
159
330
1F
100
AcDbEntity
  8
3-2
  6
Continuous
 62
     3
370
     9
100
AcDbCircle
 10
1138.351023284473
 20
43.16832681395908
 30
0.0
 40
227.475345159794
100
AcDbArc
 50
56.01091647065034
 51
123.9890835293496
  0
LINE
  5
15A
330
1F
100
AcDbEntity
  8
3-A
  6
JWW_CENTER1
 62
     7
370
     9
100
AcDbLine
 10
1239.279664613593
 20
-62.69031404698495
 30
0.0
 11
1410.326046399023
 21
-62.69031404703725
 31
0.0
  0
LINE
  5
15B
330
1F
100
AcDbEntity
  8
3-A
  6
JWW_CENTER1
 62
     7
370
     9
100
AcDbLine
 10
1326.57435491097
 20
-177.7574092579303
 30
0.0
 11
1326.57435491097
 21
52.37678116390583
 31
0.0
  0
LINE
  5
15C
330
1F
100
AcDbEntity
  8
3-2
  6
Continuous
 62
     3
370
     9
100
AcDbLine
 10
1326.57435491097
 20
-129.3569801092158
 30
0.0
 11
1326.57435491097
 21
-129.3236467761849
 31
0.0
  0
ARC
  5
15D
330
1F
100
AcDbEntity
  8
3-2
  6
Continuous
 62
     3
370
     9
100
AcDbCircle
 10
1326.57435491097
 20
-87.08031382585347
 30
0.0
 40
42.27666628336208
100
AcDbArc
 50
270.0
 51
0.0
  0
ARC
  5
15E
330
1F
100
AcDbEntity
  8
3-2
  6
Continuous
 62
     3
370
     9
100
AcDbCircle
 10
1326.57435491097
 20
-87.08031382585347
 30
0.0
 40
62.27666610202914
100
AcDbArc
 50
270.0
 51
0.0
  0
LINE
  5
15F
330
1F
100
AcDbEntity
  8
3-2
  6
Continuous
 62
     3
370
     9
100
AcDbLine
 10
1285.517688616566
 20
-64.35698069854794
 30
0.0
 11
1285.517688616566
 21
-97.1633027092983
 31
0.0
  0
LINE
  5
160
330
1F
100
AcDbEntity
  8
3-2
  6
Continuous
 62
     3
370
     9
100
AcDbLine
 10
1265.517688797873
 20
-64.35698069854794
 30
0.0
 11
1285.517688616541
 21
-64.35698069854794
 31
0.0
  0
ARC
  5
161
330
1F
100
AcDbEntity
  8
3-2
  6
Continuous
 62
     3
370
     9
100
AcDbCircle
 10
1326.57435491097
 20
-87.08031382585347
 30
0.0
 40
42.27666628336208
100
AcDbArc
 50
193.7980315976056
 51
270.0
  0
ARC
  5
162
330
1F
100
AcDbEntity
  8
3-2
  6
Continuous
 62
     3
370
     9
100
AcDbCircle
 10
1326.57435491097
 20
-87.08031382585347
 30
0.0
 40
62.27666610202914
100
AcDbArc
 50
191.3596882805108
 51
270.0
  0
ARC
  5
163
330
1F
100
AcDbEntity
  8
3-2
  6
Continuous
 62
     3
370
     9
100
AcDbCircle
 10
1326.57435491097
 20
-38.30031426813235
 30
0.0
 40
42.27666628336208
100
AcDbArc
 50
0.0
 51
90.0
  0
ARC
  5
164
330
1F
100
AcDbEntity
  8
3-2
  6
Continuous
 62
     3
370
     9
100
AcDbCircle
 10
1326.57435491097
 20
-38.30031426813235
 30
0.0
 40
62.27666610202914
100
AcDbArc
 50
0.0
 51
90.0
  0
ARC
  5
165
330
1F
100
AcDbEntity
  8
3-2
  6
Continuous
 62
     3
370
     9
100
AcDbCircle
 10
1326.57435491097
 20
-38.30031426813235
 30
0.0
 40
42.27666628336208
100
AcDbArc
 50
90.0
 51
166.2019684023945
  0
ARC
  5
166
330
1F
100
AcDbEntity
  8
3-2
  6
Continuous
 62
     3
370
     9
100
AcDbCircle
 10
1326.57435491097
 20
-38.30031426813235
 30
0.0
 40
62.27666610202914
100
AcDbArc
 50
90.0
 51
168.6403117194892
  0
LINE
  5
167
330
1F
100
AcDbEntity
  8
3-2
  6
Continuous
 62
     3
370
     9
100
AcDbLine
 10
1265.517688797922
 20
-61.02364739543788
 30
0.0
 11
1285.517688616566
 21
-61.02364739544925
 31
0.0
  0
LINE
  5
168
330
1F
100
AcDbEntity
  8
3-2
  6
Continuous
 62
     3
370
     9
100
AcDbLine
 10
1368.85102119432
 20
-87.08031382585347
 30
0.0
 11
1368.85102119432
 21
-38.30031426813235
 31
0.0
  0
LINE
  5
169
330
1F
100
AcDbEntity
  8
3-2
  6
Continuous
 62
     3
370
     9
100
AcDbLine
 10
1388.851021012988
 20
-87.08031382585347
 30
0.0
 11
1388.851021012988
 21
-38.30031426813235
 31
0.0
  0
LINE
  5
16A
330
1F
100
AcDbEntity
  8
3-4
  6
Continuous
 62
     7
370
     9
100
AcDbLine
 10
1388.851021012999
 20
328.4448337268195
 30
0.0
 11
1265.517688798046
 21
328.4448337268195
 31
0.0
  0
LWPOLYLINE
  5
16B
330
1F
100
AcDbEntity
  8
3-4
  6
Continuous
 62
     7
370
     9
100
AcDbPolyline
 90
        4
 70
     1
 43
2.0
 10
1389.851021012999
 20
328.4448337268195
 42
0.4142135623731
 10
1388.851021012999
 20
329.4448337268195
 42
0.4142135623731
 10
1387.851021012999
 20
328.4448337268195
 42
0.4142135623731
 10
1388.851021012999
 20
327.4448337268195
 42
0.4142135623731
  0
LWPOLYLINE
  5
16C
330
1F
100
AcDbEntity
  8
3-4
  6
Continuous
 62
     7
370
     9
100
AcDbPolyline
 90
        4
 70
     1
 43
2.0
 10
1266.517688798046
 20
328.4448337268195
 42
0.4142135623731
 10
1265.517688798046
 20
329.4448337268195
 42
0.4142135623731
 10
1264.517688798046
 20
328.4448337268195
 42
0.4142135623731
 10
1265.517688798046
 20
327.4448337268195
 42
0.4142135623731
  0
LINE
  5
16D
330
1F
100
AcDbEntity
  8
3-4
  6
Continuous
 62
     7
370
     9
100
AcDbLine
 10
1388.851021012999
 20
331.4448337268195
 30
0.0
 11
1388.851021012999
 21
-18.30031426813235
 31
0.0
  0
LINE
  5
16E
330
1F
100
AcDbEntity
  8
3-4
  6
Continuous
 62
     7
370
     9
100
AcDbLine
 10
1265.517688798046
 20
331.4448337268195
 30
0.0
 11
1265.517688798046
 21
251.7781670602368
 31
0.0
  0
TEXT
  5
16F
330
1F
100
AcDbEntity
  8
3-4
  6
Continuous
 62
     2
370
   211
100
AcDbText
 10
1305.934354905523
 20
344.0848337268195
 30
0.0
 40
30.48
  1
37
 41
1.0625
  7
ＭＳ ゴシック
100
AcDbText
  0
LINE
  5
170
330
1F
100
AcDbEntity
  8
3-4
  6
Continuous
 62
     7
370
     9
100
AcDbLine
 10
1552.893769101321
 20
270.6436719737529
 30
0.0
 11
1552.893769101321
 21
-62.69031404703725
 31
0.0
  0
LWPOLYLINE
  5
171
330
1F
100
AcDbEntity
  8
3-4
  6
Continuous
 62
     7
370
     9
100
AcDbPolyline
 90
        4
 70
     1
 43
2.0
 10
1553.893769101321
 20
270.6436719737529
 42
0.4142135623731
 10
1552.893769101321
 20
271.6436719737529
 42
0.4142135623731
 10
1551.893769101321
 20
270.6436719737529
 42
0.4142135623731
 10
1552.893769101321
 20
269.6436719737529
 42
0.4142135623731
  0
LWPOLYLINE
  5
172
330
1F
100
AcDbEntity
  8
3-4
  6
Continuous
 62
     7
370
     9
100
AcDbPolyline
 90
        4
 70
     1
 43
2.0
 10
1553.893769101321
 20
-62.69031404703725
 42
0.4142135623731
 10
1552.893769101321
 20
-61.69031404703725
 42
0.4142135623731
 10
1551.893769101321
 20
-62.69031404703725
 42
0.4142135623731
 10
1552.893769101321
 20
-63.69031404703725
 42
0.4142135623731
  0
LINE
  5
173
330
1F
100
AcDbEntity
  8
3-4
  6
Continuous
 62
     7
370
     9
100
AcDbLine
 10
1555.893769101321
 20
270.6436719737529
 30
0.0
 11
1158.351023284473
 21
270.6436719737529
 31
0.0
  0
TEXT
  5
174
330
1F
100
AcDbEntity
  8
3-4
  6
Continuous
 62
     2
370
   211
100
AcDbText
 10
1537.253769101321
 20
71.4766789633579
 30
0.0
 40
30.48
  1
100
 50
90.0
 41
1.083333333333333
  7
ＭＳ ゴシック
100
AcDbText
  0
LINE
  5
175
330
1F
100
AcDbEntity
  8
3-4
  6
Continuous
 62
     7
370
     9
100
AcDbLine
 10
1555.893769101321
 20
-62.69031404703725
 30
0.0
 11
1502.893769101321
 21
-62.69031404703725
 31
0.0
  0
LINE
  5
176
330
1F
100
AcDbEntity
  8
3-4
  6
Continuous
 62
     7
370
     9
100
AcDbLine
 10
1485.646375148382
 20
-149.3569799278827
 30
0.0
 11
1485.646375148382
 21
23.97635183389681
 31
0.0
  0
LWPOLYLINE
  5
177
330
1F
100
AcDbEntity
  8
3-4
  6
Continuous
 62
     7
370
     9
100
AcDbPolyline
 90
        4
 70
     1
 43
2.0
 10
1486.646375148382
 20
-149.3569799278827
 42
0.4142135623731
 10
1485.646375148382
 20
-148.3569799278827
 42
0.4142135623731
 10
1484.646375148382
 20
-149.3569799278827
 42
0.4142135623731
 10
1485.646375148382
 20
-150.3569799278827
 42
0.4142135623731
  0
LWPOLYLINE
  5
178
330
1F
100
AcDbEntity
  8
3-4
  6
Continuous
 62
     7
370
     9
100
AcDbPolyline
 90
        4
 70
     1
 43
2.0
 10
1486.646375148382
 20
23.97635183389681
 42
0.4142135623731
 10
1485.646375148382
 20
24.97635183389681
 42
0.4142135623731
 10
1484.646375148382
 20
23.97635183389681
 42
0.4142135623731
 10
1485.646375148382
 20
22.97635183389681
 42
0.4142135623731
  0
LINE
  5
179
330
1F
100
AcDbEntity
  8
3-4
  6
Continuous
 62
     7
370
     9
100
AcDbLine
 10
1488.646375148382
 20
-149.3569799278827
 30
0.0
 11
1346.57435491097
 21
-149.3569799278827
 31
0.0
  0
LINE
  5
17A
330
1F
100
AcDbEntity
  8
3-4
  6
Continuous
 62
     7
370
     9
100
AcDbLine
 10
1488.646375148382
 20
23.97635183389681
 30
0.0
 11
1346.57435491097
 21
23.97635183389681
 31
0.0
  0
TEXT
  5
17B
330
1F
100
AcDbEntity
  8
3-4
  6
Continuous
 62
     2
370
   211
100
AcDbText
 10
1470.006375148382
 20
-83.94031404699298
 30
0.0
 40
30.48
  1
52
 50
90.0
 41
1.062500000000002
  7
ＭＳ ゴシック
100
AcDbText
  0
LINE
  5
17C
330
1F
100
AcDbEntity
  8
3-4
  6
Continuous
 62
     7
370
     9
100
AcDbLine
 10
1285.517688616566
 20
-44.70225624336024
 30
0.0
 11
1265.517688798046
 21
-44.70225624336024
 31
0.0
  0
LWPOLYLINE
  5
17D
330
1F
100
AcDbEntity
  8
3-4
  6
Continuous
 62
     7
370
     9
100
AcDbPolyline
 90
        4
 70
     1
 43
2.0
 10
1286.517688616566
 20
-44.70225624336024
 42
0.4142135623731
 10
1285.517688616566
 20
-43.70225624336024
 42
0.4142135623731
 10
1284.517688616566
 20
-44.70225624336024
 42
0.4142135623731
 10
1285.517688616566
 20
-45.70225624336024
 42
0.4142135623731
  0
LWPOLYLINE
  5
17E
330
1F
100
AcDbEntity
  8
3-4
  6
Continuous
 62
     7
370
     9
100
AcDbPolyline
 90
        4
 70
     1
 43
2.0
 10
1266.517688798046
 20
-44.70225624336024
 42
0.4142135623731
 10
1265.517688798046
 20
-43.70225624336024
 42
0.4142135623731
 10
1264.517688798046
 20
-44.70225624336024
 42
0.4142135623731
 10
1265.517688798046
 20
-45.70225624336024
 42
0.4142135623731
  0
LINE
  5
17F
330
1F
100
AcDbEntity
  8
3-2
  6
Continuous
 62
     3
370
     9
100
AcDbLine
 10
1285.517688616566
 20
-61.02364739543788
 30
0.0
 11
1285.517688616566
 21
-28.21732538468638
 31
0.0
  0
LINE
  5
180
330
1F
100
AcDbEntity
  8
3-2
  6
Continuous
 62
     3
370
     9
100
AcDbLine
 10
1265.517688798046
 20
-249.3569799278659
 30
0.0
 11
1265.517688798046
 21
231.7781670601526
 31
0.0
  0
TEXT
  5
181
330
1F
100
AcDbEntity
  8
3-4
  6
Continuous
 62
     2
370
   211
100
AcDbText
 10
1187.797444234831
 20
-29.06225624336024
 30
0.0
 40
30.48
  1
φ6
 41
1.083333333333333
  7
ＭＳ ゴシック
100
AcDbText
  0
LINE
  5
182
330
1F
100
AcDbEntity
  8
3-4
  6
Continuous
 62
     7
370
     9
100
AcDbLine
 10
1265.517688798046
 20
-44.70225624336024
 30
0.0
 11
1188.807852453268
 21
-44.70225624336024
 31
0.0
  0
TEXT
  5
183
330
1F
100
AcDbEntity
  8
C-5
  6
Continuous
 62
     2
370
     9
100
AcDbText
 10
1192.638704563886
 20
-1052.200916680239
 30
0.0
 40
30.48
  1
本体色は、黄または白です。
 41
1.115384615384615
  7
ＭＳ ゴシック
100
AcDbText
  0
TEXT
  5
184
330
1F
100
AcDbEntity
  8
C-5
  6
Continuous
 62
     2
370
     9
100
AcDbText
 10
1192.638704563886
 20
-1111.671894792166
 30
0.0
 40
30.48
  1
ご注文の際にご指示ください。
 41
1.116071428571428
  7
ＭＳ ゴシック
100
AcDbText
  0
TEXT
  5
185
330
1F
100
AcDbEntity
  8
C-5
  6
Continuous
 62
     2
370
     9
100
AcDbText
 10
1395.138704563886
 20
-962.1984870323607
 30
0.0
 40
30.48
  1
支柱質量：5.6kg／本
 41
1.111842105263158
  7
ＭＳ ゴシック
100
AcDbText
  0
TEXT
  5
186
330
1F
100
AcDbEntity
  8
C-5
  6
Continuous
 62
     7
370
     9
100
AcDbText
 10
-1025.770693731691
 20
351.5606040608222
 30
0.0
 40
22.86
  1
本体：φ76.3×2.8
 41
1.156862745098039
  7
ＭＳ ゴシック
100
AcDbText
  0
TEXT
  5
187
330
1F
100
AcDbEntity
  8
C-5
  6
Continuous
 62
     7
370
     9
100
AcDbText
 10
-1030.253772167329
 20
299.0349057857154
 30
0.0
 40
22.86
  1
STK　溶融亜鉛めっき＋焼付塗装
 41
1.155172413793103
  7
ＭＳ ゴシック
100
AcDbText
  0
LINE
  5
188
330
1F
100
AcDbEntity
  8
C-5
  6
Continuous
 62
     7
370
     9
100
AcDbLine
 10
-1030.253772167329
 20
336.1064053306342
 30
0.0
 11
-527.7537721673287
 21
336.1064053306342
 31
0.0
  0
TEXT
  5
189
330
1F
100
AcDbEntity
  8
F-5ﾚｲﾔ
  6
Continuous
 62
     2
370
     0
100
AcDbText
 10
-922.5003505397488
 20
-1363.044456699427
 30
0.0
 40
30.48
  1
車止め　スチール製　先付タイプ　固定式　片フック付　ＥＣ０７８５ＲＥ－Ｋ
 41
0.8993055555555554
  7
ＭＳ ゴシック
100
AcDbText
  0
LINE
  5
18A
330
1F
100
AcDbEntity
  8
C-2
  6
Continuous
 62
     3
370
     9
100
AcDbLine
 10
-1176.077535207608
 20
726.0445364378648
 30
0.0
 11
-1176.077535207608
 21
-362.2960362467717
 31
0.0
  0
LINE
  5
18B
330
1F
100
AcDbEntity
  8
C-2
  6
Continuous
 62
     3
370
     9
100
AcDbLine
 10
-1099.777535207608
 20
726.0445364378648
 30
0.0
 11
-1099.777535207608
 21
-362.2960362467717
 31
0.0
  0
CIRCLE
  5
18C
330
1F
100
AcDbEntity
  8
C-2
  6
Continuous
 62
     3
370
     9
100
AcDbCircle
 10
0.0000000000000011
 20
-212.295982453484
 30
0.0
 40
3.0
  0
CIRCLE
  5
18D
330
1F
100
AcDbEntity
  8
C-2
  6
Continuous
 62
     3
370
     9
100
AcDbCircle
 10
0.0000000000000011
 20
-212.295982453484
 30
0.0
 40
4.999898746488498
  0
LINE
  5
18E
330
1F
100
AcDbEntity
  8
C-2
  6
Continuous
 62
     3
370
     9
100
AcDbLine
 10
0.0000000000000011
 20
-206.5460987938442
 30
0.0
 11
4.99989874648847
 21
-209.4327916810502
 31
0.0
  0
LINE
  5
18F
330
1F
100
AcDbEntity
  8
C-2
  6
Continuous
 62
     3
370
     9
100
AcDbLine
 10
4.99989874648847
 20
-209.4327916810502
 30
0.0
 11
4.99989874648847
 21
-215.1593580246291
 31
0.0
  0
LINE
  5
190
330
1F
100
AcDbEntity
  8
C-2
  6
Continuous
 62
     3
370
     9
100
AcDbLine
 10
0.0000000000000011
 20
-218.0460509118351
 30
0.0
 11
4.99989874648847
 21
-215.1593580246291
 31
0.0
  0
LINE
  5
191
330
1F
100
AcDbEntity
  8
C-2
  6
Continuous
 62
     3
370
     9
100
AcDbLine
 10
0.0000000000000011
 20
-218.0460509118351
 30
0.0
 11
-4.999898746488468
 21
-215.1593580246291
 31
0.0
  0
LINE
  5
192
330
1F
100
AcDbEntity
  8
C-2
  6
Continuous
 62
     3
370
     9
100
AcDbLine
 10
-4.999898746488468
 20
-209.4327916810502
 30
0.0
 11
-4.999898746488468
 21
-215.1593580246291
 31
0.0
  0
LINE
  5
193
330
1F
100
AcDbEntity
  8
C-2
  6
Continuous
 62
     3
370
     9
100
AcDbLine
 10
0.0000000000000011
 20
-206.5460987938442
 30
0.0
 11
-4.999898746488468
 21
-209.4327916810502
 31
0.0
  0
ENDSEC
  0
SECTION
  2
OBJECTS
  0
DICTIONARY
  5
C
330
0
100
AcDbDictionary
281
     1
  3
ACAD_DETAILVIEWSTYLE
350
19B
  3
ACAD_GROUP
350
D
  3
ACAD_LAYOUT
350
1A
  3
ACAD_MATERIAL
350
43
  3
ACAD_MLEADERSTYLE
350
6B
  3
ACAD_MLINESTYLE
350
17
  3
ACAD_PLOTSETTINGS
350
19
  3
ACAD_PLOTSTYLENAME
350
E
  3
ACAD_SCALELIST
350
47
  3
ACAD_SECTIONVIEWSTYLE
350
19C
  3
ACAD_TABLESTYLE
350
69
  3
ACAD_VISUALSTYLE
350
2A
  3
ACDB_RECOMPOSE_DATA
350
198
  3
AcDbVariableDictionary
350
194
  0
SUN
  5
6D
330
29
100
AcDbSun
 90
        1
290
     0
 63
     7
421
 16777215
 40
1.0
291
     1
 91
  2455826
 92
 54000000
292
     0
 70
     2
 71
   256
280
     1
  0
DICTIONARY
  5
19B
102
{ACAD_REACTORS
330
C
102
}
330
C
100
AcDbDictionary
281
     1
  0
DICTIONARY
  5
D
102
{ACAD_REACTORS
330
C
102
}
330
C
100
AcDbDictionary
281
     1
  0
DICTIONARY
  5
1A
102
{ACAD_REACTORS
330
C
102
}
330
C
100
AcDbDictionary
281
     1
  3
Layout1
350
1E
  3
Layout2
350
26
  3
Model
350
22
  0
DICTIONARY
  5
43
102
{ACAD_REACTORS
330
C
102
}
330
C
100
AcDbDictionary
281
     1
  3
ByBlock
350
45
  3
ByLayer
350
44
  3
Global
350
46
  0
DICTIONARY
  5
6B
102
{ACAD_REACTORS
330
C
102
}
330
C
100
AcDbDictionary
281
     1
  3
Standard
350
6C
  0
DICTIONARY
  5
17
102
{ACAD_REACTORS
330
C
102
}
330
C
100
AcDbDictionary
281
     1
  3
Standard
350
18
  0
DICTIONARY
  5
19
102
{ACAD_REACTORS
330
C
102
}
330
C
100
AcDbDictionary
281
     1
  0
ACDBDICTIONARYWDFLT
  5
E
102
{ACAD_REACTORS
330
C
102
}
330
C
100
AcDbDictionary
281
     1
  3
Normal
350
F
100
AcDbDictionaryWithDefault
340
F
  0
DICTIONARY
  5
47
102
{ACAD_REACTORS
330
C
102
}
330
C
100
AcDbDictionary
281
     1
  3
A0
350
48
  3
A1
350
49
  3
A2
350
4A
  3
A3
350
4B
  3
A4
350
4C
  3
A5
350
4D
  3
A6
350
4E
  3
A7
350
4F
  3
A8
350
50
  3
A9
350
51
  3
B0
350
52
  3
B1
350
53
  3
B2
350
54
  3
B3
350
55
  3
B4
350
56
  3
B5
350
57
  3
B6
350
58
  3
B7
350
59
  3
B8
350
5A
  3
B9
350
5B
  3
C0
350
5C
  3
C1
350
5D
  3
C2
350
5E
  3
C3
350
5F
  3
C4
350
60
  3
C5
350
61
  3
C6
350
62
  3
C7
350
63
  3
C8
350
64
  3
C9
350
65
  3
D0
350
66
  3
D1
350
67
  3
D2
350
68
  0
DICTIONARY
  5
19C
102
{ACAD_REACTORS
330
C
102
}
330
C
100
AcDbDictionary
281
     1
  0
DICTIONARY
  5
69
102
{ACAD_REACTORS
330
C
102
}
330
C
100
AcDbDictionary
281
     1
  3
Standard
350
6A
  0
DICTIONARY
  5
2A
102
{ACAD_REACTORS
330
C
102
}
330
C
100
AcDbDictionary
281
     1
  3
2dWireframe
350
2F
  3
Basic
350
32
  3
Brighten
350
36
  3
ColorChange
350
3A
  3
Conceptual
350
34
  3
Dim
350
35
  3
EdgeColorOff
350
3D
  3
Facepattern
350
39
  3
Flat
350
2B
  3
FlatWithEdges
350
2C
  3
Gouraud
350
2D
  3
GouraudWithEdges
350
2E
  3
Hidden
350
31
  3
JitterOff
350
3B
  3
Linepattern
350
38
  3
OverhangOff
350
3C
  3
Realistic
350
33
  3
Shaded
350
42
  3
Shaded with edges
350
41
  3
Shades of Gray
350
3E
  3
Sketchy
350
3F
  3
Thicken
350
37
  3
Wireframe
350
30
  3
X-Ray
350
40
  0
XRECORD
  5
198
102
{ACAD_REACTORS
330
C
102
}
330
C
100
AcDbXrecord
280
     1
 90
        1
330
6A
  0
DICTIONARY
  5
194
102
{ACAD_REACTORS
330
C
102
}
330
C
100
AcDbDictionary
281
     1
  3
CANNOSCALE
350
195
  3
CENTEREXE
350
19D
  3
CENTERLTYPEFILE
350
19E
  3
CMLEADERSTYLE
350
19A
  3
CTABLESTYLE
350
199
  0
LAYOUT
  5
1E
102
{ACAD_REACTORS
330
1A
102
}
330
1A
100
AcDbPlotSettings
  1

  2
none_device
  4

  6

 40
0.0
 41
0.0
 42
0.0
 43
0.0
 44
0.0
 45
0.0
 46
0.0
 47
0.0
 48
0.0
 49
0.0
140
0.0
141
0.0
142
1.0
143
1.0
 70
   688
 72
     1
 73
     0
 74
     5
  7

 75
    16
 76
     0
 77
     5
 78
   300
147
1.0
148
0.0
149
0.0
100
AcDbLayout
  1
Layout1
 70
     1
 71
     1
 10
0.0
 20
0.0
 11
420.0
 21
297.0
 12
0.0
 22
0.0
 32
0.0
 14
1.000000000000000E+20
 24
1.000000000000000E+20
 34
1.000000000000000E+20
 15
-1.000000000000000E+20
 25
-1.000000000000000E+20
 35
-1.000000000000000E+20
146
0.0
 13
0.0
 23
0.0
 33
0.0
 16
1.0
 26
0.0
 36
0.0
 17
0.0
 27
1.0
 37
0.0
 76
     0
330
1B
  0
LAYOUT
  5
26
102
{ACAD_REACTORS
330
1A
102
}
330
1A
100
AcDbPlotSettings
  1

  2
none_device
  4

  6

 40
0.0
 41
0.0
 42
0.0
 43
0.0
 44
0.0
 45
0.0
 46
0.0
 47
0.0
 48
0.0
 49
0.0
140
0.0
141
0.0
142
1.0
143
1.0
 70
   688
 72
     1
 73
     0
 74
     5
  7

 75
    16
 76
     0
 77
     5
 78
   300
147
1.0
148
0.0
149
0.0
100
AcDbLayout
  1
Layout2
 70
     1
 71
     2
 10
0.0
 20
0.0
 11
0.0
 21
0.0
 12
0.0
 22
0.0
 32
0.0
 14
0.0
 24
0.0
 34
0.0
 15
0.0
 25
0.0
 35
0.0
146
0.0
 13
0.0
 23
0.0
 33
0.0
 16
1.0
 26
0.0
 36
0.0
 17
0.0
 27
1.0
 37
0.0
 76
     0
330
23
  0
LAYOUT
  5
22
102
{ACAD_REACTORS
330
1A
102
}
330
1A
100
AcDbPlotSettings
  1

  2
none_device
  4
Letter_(8.50_x_11.00_Inches)
  6

 40
6.35
 41
6.35
 42
6.35000508
 43
6.35000508
 44
215.9
 45
279.4
 46
0.0
 47
0.0
 48
0.0
 49
0.0
140
0.0
141
0.0
142
1.0
143
1.0
 70
  1712
 72
     1
 73
     0
 74
     0
  7

 75
     0
 76
     0
 77
     5
 78
   300
147
1.0
148
0.0
149
0.0
100
AcDbLayout
  1
Model
 70
     1
 71
     0
 10
-2100.0
 20
-1485.0
 11
2100.0
 21
1485.0
 12
0.0
 22
0.0
 32
0.0
 14
-2100.0
 24
-1485.0
 34
0.0
 15
2100.0
 25
1485.0
 35
0.0
146
0.0
 13
0.0
 23
0.0
 33
0.0
 16
1.0
 26
0.0
 36
0.0
 17
0.0
 27
1.0
 37
0.0
 76
     0
330
1F
331
29
  0
MATERIAL
  5
45
102
{ACAD_REACTORS
330
43
102
}
330
43
100
AcDbMaterial
  1
ByBlock
 72
     1
 94
      127
  0
MATERIAL
  5
44
102
{ACAD_REACTORS
330
43
102
}
330
43
100
AcDbMaterial
  1
ByLayer
 72
     1
 94
      127
  0
MATERIAL
  5
46
102
{ACAD_REACTORS
330
43
102
}
330
43
100
AcDbMaterial
  1
Global
 72
     1
 94
      127
  0
MLEADERSTYLE
  5
6C
102
{ACAD_REACTORS
330
6B
102
}
330
6B
100
AcDbMLeaderStyle
179
     2
170
     2
171
     1
172
     0
 90
        2
 40
0.0
 41
0.0
173
     1
 91
-1056964608
340
14
 92
       -2
290
     1
 42
2.0
291
     1
 43
8.0
  3
Standard
341
0
 44
4.0
300

342
11
174
     1
178
     6
175
     1
176
     0
 93
-1056964608
 45
4.0
292
     0
297
     0
 46
4.0
343
0
 94
-1056964608
 47
1.0
 49
1.0
140
1.0
293
     1
141
0.0
294
     1
177
     0
142
1.0
295
     0
296
     0
143
3.75
271
     0
272
     9
273
     9
298
     0
  0
MLINESTYLE
  5
18
102
{ACAD_REACTORS
330
17
102
}
330
17
100
AcDbMlineStyle
  2
Standard
 70
     0
  3

 62
   256
 51
90.0
 52
90.0
 71
     2
 49
0.5
 62
   256
  6
BYLAYER
 49
-0.5
 62
   256
  6
BYLAYER
  0
ACDBPLACEHOLDER
  5
F
102
{ACAD_REACTORS
330
E
102
}
330
E
  0
SCALE
  5
48
102
{ACAD_REACTORS
330
47
102
}
330
47
100
AcDbScale
 70
     0
300
1:1
140
1.0
141
1.0
290
     1
  0
SCALE
  5
49
102
{ACAD_REACTORS
330
47
102
}
330
47
100
AcDbScale
 70
     0
300
1:2
140
1.0
141
2.0
290
     0
  0
SCALE
  5
4A
102
{ACAD_REACTORS
330
47
102
}
330
47
100
AcDbScale
 70
     0
300
1:4
140
1.0
141
4.0
290
     0
  0
SCALE
  5
4B
102
{ACAD_REACTORS
330
47
102
}
330
47
100
AcDbScale
 70
     0
300
1:5
140
1.0
141
5.0
290
     0
  0
SCALE
  5
4C
102
{ACAD_REACTORS
330
47
102
}
330
47
100
AcDbScale
 70
     0
300
1:8
140
1.0
141
8.0
290
     0
  0
SCALE
  5
4D
102
{ACAD_REACTORS
330
47
102
}
330
47
100
AcDbScale
 70
     0
300
1:10
140
1.0
141
10.0
290
     0
  0
SCALE
  5
4E
102
{ACAD_REACTORS
330
47
102
}
330
47
100
AcDbScale
 70
     0
300
1:16
140
1.0
141
16.0
290
     0
  0
SCALE
  5
4F
102
{ACAD_REACTORS
330
47
102
}
330
47
100
AcDbScale
 70
     0
300
1:20
140
1.0
141
20.0
290
     0
  0
SCALE
  5
50
102
{ACAD_REACTORS
330
47
102
}
330
47
100
AcDbScale
 70
     0
300
1:30
140
1.0
141
30.0
290
     0
  0
SCALE
  5
51
102
{ACAD_REACTORS
330
47
102
}
330
47
100
AcDbScale
 70
     0
300
1:40
140
1.0
141
40.0
290
     0
  0
SCALE
  5
52
102
{ACAD_REACTORS
330
47
102
}
330
47
100
AcDbScale
 70
     0
300
1:50
140
1.0
141
50.0
290
     0
  0
SCALE
  5
53
102
{ACAD_REACTORS
330
47
102
}
330
47
100
AcDbScale
 70
     0
300
1:100
140
1.0
141
100.0
290
     0
  0
SCALE
  5
54
102
{ACAD_REACTORS
330
47
102
}
330
47
100
AcDbScale
 70
     0
300
2:1
140
2.0
141
1.0
290
     0
  0
SCALE
  5
55
102
{ACAD_REACTORS
330
47
102
}
330
47
100
AcDbScale
 70
     0
300
4:1
140
4.0
141
1.0
290
     0
  0
SCALE
  5
56
102
{ACAD_REACTORS
330
47
102
}
330
47
100
AcDbScale
 70
     0
300
8:1
140
8.0
141
1.0
290
     0
  0
SCALE
  5
57
102
{ACAD_REACTORS
330
47
102
}
330
47
100
AcDbScale
 70
     0
300
10:1
140
10.0
141
1.0
290
     0
  0
SCALE
  5
58
102
{ACAD_REACTORS
330
47
102
}
330
47
100
AcDbScale
 70
     0
300
100:1
140
100.0
141
1.0
290
     0
  0
SCALE
  5
59
102
{ACAD_REACTORS
330
47
102
}
330
47
100
AcDbScale
 70
     0
300
1/128" = 1'-0"
140
0.0078125
141
12.0
290
     0
  0
SCALE
  5
5A
102
{ACAD_REACTORS
330
47
102
}
330
47
100
AcDbScale
 70
     0
300
1/64" = 1'-0"
140
0.015625
141
12.0
290
     0
  0
SCALE
  5
5B
102
{ACAD_REACTORS
330
47
102
}
330
47
100
AcDbScale
 70
     0
300
1/32" = 1'-0"
140
0.03125
141
12.0
290
     0
  0
SCALE
  5
5C
102
{ACAD_REACTORS
330
47
102
}
330
47
100
AcDbScale
 70
     0
300
1/16" = 1'-0"
140
0.0625
141
12.0
290
     0
  0
SCALE
  5
5D
102
{ACAD_REACTORS
330
47
102
}
330
47
100
AcDbScale
 70
     0
300
3/32" = 1'-0"
140
0.09375
141
12.0
290
     0
  0
SCALE
  5
5E
102
{ACAD_REACTORS
330
47
102
}
330
47
100
AcDbScale
 70
     0
300
1/8" = 1'-0"
140
0.125
141
12.0
290
     0
  0
SCALE
  5
5F
102
{ACAD_REACTORS
330
47
102
}
330
47
100
AcDbScale
 70
     0
300
3/16" = 1'-0"
140
0.1875
141
12.0
290
     0
  0
SCALE
  5
60
102
{ACAD_REACTORS
330
47
102
}
330
47
100
AcDbScale
 70
     0
300
1/4" = 1'-0"
140
0.25
141
12.0
290
     0
  0
SCALE
  5
61
102
{ACAD_REACTORS
330
47
102
}
330
47
100
AcDbScale
 70
     0
300
3/8" = 1'-0"
140
0.375
141
12.0
290
     0
  0
SCALE
  5
62
102
{ACAD_REACTORS
330
47
102
}
330
47
100
AcDbScale
 70
     0
300
1/2" = 1'-0"
140
0.5
141
12.0
290
     0
  0
SCALE
  5
63
102
{ACAD_REACTORS
330
47
102
}
330
47
100
AcDbScale
 70
     0
300
3/4" = 1'-0"
140
0.75
141
12.0
290
     0
  0
SCALE
  5
64
102
{ACAD_REACTORS
330
47
102
}
330
47
100
AcDbScale
 70
     0
300
1" = 1'-0"
140
1.0
141
12.0
290
     0
  0
SCALE
  5
65
102
{ACAD_REACTORS
330
47
102
}
330
47
100
AcDbScale
 70
     0
300
1-1/2" = 1'-0"
140
1.5
141
12.0
290
     0
  0
SCALE
  5
66
102
{ACAD_REACTORS
330
47
102
}
330
47
100
AcDbScale
 70
     0
300
3" = 1'-0"
140
3.0
141
12.0
290
     0
  0
SCALE
  5
67
102
{ACAD_REACTORS
330
47
102
}
330
47
100
AcDbScale
 70
     0
300
6" = 1'-0"
140
6.0
141
12.0
290
     0
  0
SCALE
  5
68
102
{ACAD_REACTORS
330
47
102
}
330
47
100
AcDbScale
 70
     0
300
1'-0" = 1'-0"
140
12.0
141
12.0
290
     0
  0
TABLESTYLE
  5
6A
102
{ACAD_REACTORS
330
69
102
}
102
{ACAD_XDICTIONARY
360
196
102
}
330
69
100
AcDbTableStyle
  3
Standard
 70
     0
 71
     0
 40
0.06
 41
0.06
280
     0
281
     0
  7
Standard
140
4.5
170
     2
 62
     0
 63
   257
283
     0
 90
        4
 91
        0
  1

274
    -2
284
     1
 64
     0
275
    -2
285
     1
 65
     0
276
    -2
286
     1
 66
     0
277
    -2
287
     1
 67
     0
278
    -2
288
     1
 68
     0
279
    -2
289
     1
 69
     0
  7
Standard
140
6.0
170
     5
 62
     0
 63
   257
283
     0
 90
        4
 91
        0
  1

274
    -2
284
     1
 64
     0
275
    -2
285
     1
 65
     0
276
    -2
286
     1
 66
     0
277
    -2
287
     1
 67
     0
278
    -2
288
     1
 68
     0
279
    -2
289
     1
 69
     0
  7
Standard
140
4.5
170
     5
 62
     0
 63
   257
283
     0
 90
        4
 91
        0
  1

274
    -2
284
     1
 64
     0
275
    -2
285
     1
 65
     0
276
    -2
286
     1
 66
     0
277
    -2
287
     1
 67
     0
278
    -2
288
     1
 68
     0
279
    -2
289
     1
 69
     0
  0
VISUALSTYLE
  5
2F
102
{ACAD_REACTORS
330
2A
102
}
330
2A
100
AcDbVisualStyle
  2
2dWireframe
 70
     4
177
     3
291
     0
 70
    58
 90
        0
176
     1
 90
        2
176
     1
 90
        0
176
     1
 90
        0
176
     1
 40
0.6
176
     1
 40
30.0
176
     1
 62
     7
420
 16777215
176
     1
 90
        1
176
     1
 90
        4
176
     1
 62
     7
176
     1
 62
   257
176
     1
 90
        1
176
     1
 90
        1
176
     1
 40
1.0
176
     1
 90
        0
176
     1
 62
   257
176
     1
 40
1.0
176
     1
 90
        1
176
     1
 90
        6
176
     1
 90
        2
176
     1
 62
     7
176
     1
 90
        5
176
     1
 90
        0
176
     1
 90
        0
176
     1
290
     0
176
     1
 90
        1
176
     1
 40
0.0
176
     1
 90
        0
176
     1
290
     1
176
     1
290
     1
176
     1
290
     0
176
     1
290
     0
176
     1
290
     0
176
     1
290
     0
176
     1
290
     0
176
     1
290
     0
176
     1
290
     0
176
     1
 90
       50
176
     1
 40
0.0
176
     1
 40
1.0
176
     1
 90
        0
176
     1
 62
    18
420
        0
176
     1
 90
       50
176
     1
 90
        3
176
     1
 62
     5
420
      255
176
     1
290
     0
176
     1
 90
       50
176
     1
 90
       50
176
     1
 90
       50
176
     1
290
     0
176
     1
 90
       50
176
     1
 62
   256
176
     0
 40
1.0
176
     0
 90
        2
176
     1
  1
strokes_ogs.tif
176
     1
290
     0
176
     1
 40
1.0
176
     1
 40
1.0
176
     1
  0
VISUALSTYLE
  5
32
102
{ACAD_REACTORS
330
2A
102
}
330
2A
100
AcDbVisualStyle
  2
Basic
 70
     7
177
     3
291
     1
 70
    58
 90
        1
176
     1
 90
        0
176
     1
 90
        1
176
     1
 90
        0
176
     1
 40
0.6
176
     1
 40
30.0
176
     1
 62
     7
420
 16777215
176
     1
 90
        0
176
     1
 90
        4
176
     1
 62
     7
176
     1
 62
   257
176
     1
 90
        1
176
     1
 90
        1
176
     1
 40
1.0
176
     1
 90
        8
176
     1
 62
     7
176
     1
 40
1.0
176
     1
 90
        1
176
     1
 90
        6
176
     1
 90
        2
176
     1
 62
     7
176
     1
 90
        5
176
     1
 90
        0
176
     1
 90
        0
176
     1
290
     0
176
     1
 90
        1
176
     1
 40
0.0
176
     1
 90
        0
176
     1
290
     0
176
     1
290
     1
176
     1
290
     1
176
     1
290
     0
176
     1
290
     0
176
     1
290
     0
176
     1
290
     0
176
     1
290
     0
176
     1
290
     0
176
     1
 90
       50
176
     1
 40
0.0
176
     1
 40
1.0
176
     1
 90
        0
176
     1
 62
    18
420
        0
176
     1
 90
       50
176
     1
 90
        3
176
     1
 62
     5
420
      255
176
     1
290
     0
176
     1
 90
       50
176
     1
 90
       50
176
     1
 90
       50
176
     1
290
     0
176
     1
 90
       50
176
     1
 62
   256
176
     0
 40
1.0
176
     0
 90
        2
176
     1
  1
strokes_ogs.tif
176
     1
290
     0
176
     1
 40
1.0
176
     1
 40
1.0
176
     1
  0
VISUALSTYLE
  5
36
102
{ACAD_REACTORS
330
2A
102
}
330
2A
100
AcDbVisualStyle
  2
Brighten
 70
    12
177
     3
291
     1
 70
    58
 90
        2
176
     1
 90
        2
176
     1
 90
        0
176
     1
 90
        0
176
     1
 40
0.6
176
     1
 40
30.0
176
     1
 62
     7
420
 16777215
176
     1
 90
        1
176
     1
 90
        4
176
     1
 62
     7
176
     1
 62
   257
176
     1
 90
        1
176
     1
 90
        1
176
     1
 40
1.0
176
     1
 90
        8
176
     1
 62
     7
176
     1
 40
1.0
176
     1
 90
        1
176
     1
 90
        6
176
     1
 90
        2
176
     1
 62
     7
176
     1
 90
        5
176
     1
 90
        0
176
     1
 90
        0
176
     1
290
     0
176
     1
 90
        1
176
     1
 40
50.0
176
     1
 90
        0
176
     1
290
     0
176
     1
290
     1
176
     1
290
     1
176
     1
290
     0
176
     1
290
     0
176
     1
290
     0
176
     1
290
     0
176
     1
290
     0
176
     1
290
     0
176
     1
 90
       50
176
     1
 40
0.0
176
     1
 40
1.0
176
     1
 90
        0
176
     1
 62
    18
420
        0
176
     1
 90
       50
176
     1
 90
        3
176
     1
 62
     5
420
      255
176
     1
290
     0
176
     1
 90
       50
176
     1
 90
       50
176
     1
 90
       50
176
     1
290
     0
176
     1
 90
       50
176
     1
 62
   256
176
     0
 40
1.0
176
     0
 90
        2
176
     1
  1
strokes_ogs.tif
176
     1
290
     0
176
     1
 40
1.0
176
     1
 40
1.0
176
     1
  0
VISUALSTYLE
  5
3A
102
{ACAD_REACTORS
330
2A
102
}
330
2A
100
AcDbVisualStyle
  2
ColorChange
 70
    16
177
     3
291
     1
 70
    58
 90
        2
176
     1
 90
        2
176
     1
 90
        3
176
     1
 90
        0
176
     1
 40
0.6
176
     1
 40
30.0
176
     1
 62
     8
420
  8421504
176
     1
 90
        1
176
     1
 90
        4
176
     1
 62
     7
176
     1
 62
   257
176
     1
 90
        1
176
     1
 90
        1
176
     1
 40
1.0
176
     1
 90
        8
176
     1
 62
     8
420
  8421504
176
     1
 40
1.0
176
     1
 90
        1
176
     1
 90
        6
176
     1
 90
        2
176
     1
 62
     7
176
     1
 90
        5
176
     1
 90
        0
176
     1
 90
        0
176
     1
290
     0
176
     1
 90
        1
176
     1
 40
0.0
176
     1
 90
        0
176
     1
290
     0
176
     1
290
     1
176
     1
290
     1
176
     1
290
     0
176
     1
290
     0
176
     1
290
     0
176
     1
290
     0
176
     1
290
     0
176
     1
290
     0
176
     1
 90
       50
176
     1
 40
0.0
176
     1
 40
1.0
176
     1
 90
        0
176
     1
 62
    18
420
        0
176
     1
 90
       50
176
     1
 90
        3
176
     1
 62
     5
420
      255
176
     1
290
     0
176
     1
 90
       50
176
     1
 90
       50
176
     1
 90
       50
176
     1
290
     0
176
     1
 90
       50
176
     1
 62
   256
176
     0
 40
1.0
176
     0
 90
        2
176
     1
  1
strokes_ogs.tif
176
     1
290
     0
176
     1
 40
1.0
176
     1
 40
1.0
176
     1
  0
VISUALSTYLE
  5
34
102
{ACAD_REACTORS
330
2A
102
}
330
2A
100
AcDbVisualStyle
  2
Conceptual
 70
     9
177
     3
291
     0
 70
    58
 90
        3
176
     1
 90
        2
176
     1
 90
        0
176
     1
 90
        0
176
     1
 40
0.6
176
     1
 40
30.0
176
     1
 62
     7
420
 16777215
176
     1
 90
        2
176
     1
 90
        2
176
     1
 62
     7
176
     1
 62
   257
176
     1
 90
        1
176
     1
 90
        1
176
     1
 40
179.0
176
     1
 90
        8
176
     1
 62
     7
176
     1
 40
1.0
176
     1
 90
        1
176
     1
 90
        6
176
     1
 90
        2
176
     1
 62
     7
176
     1
 90
        3
176
     1
 90
        0
176
     1
 90
        0
176
     1
290
     0
176
     1
 90
        1
176
     1
 40
0.0
176
     1
 90
        0
176
     1
290
     0
176
     1
290
     1
176
     1
290
     1
176
     1
290
     0
176
     1
290
     0
176
     1
290
     0
176
     1
290
     0
176
     1
290
     0
176
     1
290
     0
176
     1
 90
       50
176
     1
 40
0.0
176
     1
 40
1.0
176
     1
 90
        0
176
     1
 62
    18
420
        0
176
     1
 90
       50
176
     1
 90
        3
176
     1
 62
     5
420
      255
176
     1
290
     0
176
     1
 90
       50
176
     1
 90
       50
176
     1
 90
       50
176
     1
290
     0
176
     1
 90
       50
176
     1
 62
   256
176
     0
 40
1.0
176
     0
 90
        2
176
     1
  1
strokes_ogs.tif
176
     1
290
     0
176
     1
 40
1.0
176
     1
 40
1.0
176
     1
  0
VISUALSTYLE
  5
35
102
{ACAD_REACTORS
330
2A
102
}
330
2A
100
AcDbVisualStyle
  2
Dim
 70
    11
177
     3
291
     1
 70
    58
 90
        2
176
     1
 90
        2
176
     1
 90
        0
176
     1
 90
        0
176
     1
 40
0.6
176
     1
 40
30.0
176
     1
 62
     7
420
 16777215
176
     1
 90
        1
176
     1
 90
        4
176
     1
 62
     7
176
     1
 62
   257
176
     1
 90
        1
176
     1
 90
        1
176
     1
 40
1.0
176
     1
 90
        8
176
     1
 62
     7
176
     1
 40
1.0
176
     1
 90
        1
176
     1
 90
        6
176
     1
 90
        2
176
     1
 62
     7
176
     1
 90
        5
176
     1
 90
        0
176
     1
 90
        0
176
     1
290
     0
176
     1
 90
        1
176
     1
 40
-50.0
176
     1
 90
        0
176
     1
290
     0
176
     1
290
     1
176
     1
290
     1
176
     1
290
     0
176
     1
290
     0
176
     1
290
     0
176
     1
290
     0
176
     1
290
     0
176
     1
290
     0
176
     1
 90
       50
176
     1
 40
0.0
176
     1
 40
1.0
176
     1
 90
        0
176
     1
 62
    18
420
        0
176
     1
 90
       50
176
     1
 90
        3
176
     1
 62
     5
420
      255
176
     1
290
     0
176
     1
 90
       50
176
     1
 90
       50
176
     1
 90
       50
176
     1
290
     0
176
     1
 90
       50
176
     1
 62
   256
176
     0
 40
1.0
176
     0
 90
        2
176
     1
  1
strokes_ogs.tif
176
     1
290
     0
176
     1
 40
1.0
176
     1
 40
1.0
176
     1
  0
VISUALSTYLE
  5
3D
102
{ACAD_REACTORS
330
2A
102
}
330
2A
100
AcDbVisualStyle
  2
EdgeColorOff
 70
    22
177
     3
291
     1
 70
    58
 90
        2
176
     0
 90
        2
176
     0
 90
        0
176
     0
 90
        0
176
     0
 40
0.6
176
     0
 40
30.0
176
     0
 62
     7
420
 16777215
176
     0
 90
        1
176
     0
 90
        4
176
     0
 62
     7
176
     0
 62
   257
176
     0
 90
        1
176
     0
 90
        1
176
     0
 40
1.0
176
     0
 90
        8
176
     2
 62
     7
176
     0
 40
1.0
176
     0
 90
        1
176
     0
 90
        6
176
     0
 90
        2
176
     0
 62
     7
176
     0
 90
        5
176
     0
 90
        0
176
     0
 90
        0
176
     0
290
     0
176
     0
 90
        1
176
     0
 40
0.0
176
     0
 90
        0
176
     0
290
     0
176
     0
290
     1
176
     0
290
     1
176
     0
290
     0
176
     0
290
     0
176
     0
290
     0
176
     0
290
     0
176
     0
290
     0
176
     0
290
     0
176
     0
 90
       50
176
     0
 40
0.0
176
     0
 40
1.0
176
     0
 90
        0
176
     0
 62
    18
420
        0
176
     0
 90
       50
176
     0
 90
        3
176
     0
 62
     5
420
      255
176
     0
290
     0
176
     0
 90
       50
176
     0
 90
       50
176
     0
 90
       50
176
     0
290
     0
176
     0
 90
       50
176
     0
 62
   256
176
     0
 40
1.0
176
     0
 90
        2
176
     0
  1
strokes_ogs.tif
176
     0
290
     0
176
     0
 40
1.0
176
     0
 40
1.0
176
     0
  0
VISUALSTYLE
  5
39
102
{ACAD_REACTORS
330
2A
102
}
330
2A
100
AcDbVisualStyle
  2
Facepattern
 70
    15
177
     3
291
     1
 70
    58
 90
        2
176
     1
 90
        2
176
     1
 90
        0
176
     1
 90
        0
176
     1
 40
0.6
176
     1
 40
30.0
176
     1
 62
     7
420
 16777215
176
     1
 90
        1
176
     1
 90
        4
176
     1
 62
     7
176
     1
 62
   257
176
     1
 90
        1
176
     1
 90
        1
176
     1
 40
1.0
176
     1
 90
        8
176
     1
 62
     7
176
     1
 40
1.0
176
     1
 90
        1
176
     1
 90
        6
176
     1
 90
        2
176
     1
 62
     7
176
     1
 90
        5
176
     1
 90
        0
176
     1
 90
        0
176
     1
290
     0
176
     1
 90
        1
176
     1
 40
0.0
176
     1
 90
        0
176
     1
290
     0
176
     1
290
     1
176
     1
290
     1
176
     1
290
     0
176
     1
290
     0
176
     1
290
     0
176
     1
290
     0
176
     1
290
     0
176
     1
290
     0
176
     1
 90
       50
176
     1
 40
0.0
176
     1
 40
1.0
176
     1
 90
        0
176
     1
 62
    18
420
        0
176
     1
 90
       50
176
     1
 90
        3
176
     1
 62
     5
420
      255
176
     1
290
     0
176
     1
 90
       50
176
     1
 90
       50
176
     1
 90
       50
176
     1
290
     0
176
     1
 90
       50
176
     1
 62
   256
176
     0
 40
1.0
176
     0
 90
        2
176
     1
  1
strokes_ogs.tif
176
     1
290
     0
176
     1
 40
1.0
176
     1
 40
1.0
176
     1
  0
VISUALSTYLE
  5
2B
102
{ACAD_REACTORS
330
2A
102
}
330
2A
100
AcDbVisualStyle
  2
Flat
 70
     0
177
     3
291
     1
 70
    58
 90
        2
176
     1
 90
        1
176
     1
 90
        1
176
     1
 90
        2
176
     1
 40
0.6
176
     1
 40
30.0
176
     1
 62
     7
420
 16777215
176
     1
 90
        0
176
     1
 90
        0
176
     1
 62
     7
176
     1
 62
   257
176
     1
 90
        1
176
     1
 90
        1
176
     1
 40
1.0
176
     1
 90
        8
176
     1
 62
     7
176
     1
 40
1.0
176
     1
 90
        1
176
     1
 90
        6
176
     1
 90
        2
176
     1
 62
     7
176
     1
 90
        5
176
     1
 90
        0
176
     1
 90
        0
176
     1
290
     0
176
     1
 90
       13
176
     1
 40
0.0
176
     1
 90
        0
176
     1
290
     0
176
     1
290
     1
176
     1
290
     1
176
     1
290
     0
176
     1
290
     0
176
     1
290
     0
176
     1
290
     0
176
     1
290
     0
176
     1
290
     0
176
     1
 90
       50
176
     1
 40
0.0
176
     1
 40
1.0
176
     1
 90
        0
176
     1
 62
    18
420
        0
176
     1
 90
       50
176
     1
 90
        3
176
     1
 62
     5
420
      255
176
     1
290
     0
176
     1
 90
       50
176
     1
 90
       50
176
     1
 90
       50
176
     1
290
     0
176
     1
 90
       50
176
     1
 62
   256
176
     0
 40
1.0
176
     0
 90
        2
176
     1
  1
strokes_ogs.tif
176
     1
290
     0
176
     1
 40
1.0
176
     1
 40
1.0
176
     1
  0
VISUALSTYLE
  5
2C
102
{ACAD_REACTORS
330
2A
102
}
330
2A
100
AcDbVisualStyle
  2
FlatWithEdges
 70
     1
177
     3
291
     1
 70
    58
 90
        2
176
     1
 90
        1
176
     1
 90
        1
176
     1
 90
        2
176
     1
 40
0.6
176
     1
 40
30.0
176
     1
 62
     7
420
 16777215
176
     1
 90
        1
176
     1
 90
        0
176
     1
 62
     7
176
     1
 62
   257
176
     1
 90
        1
176
     1
 90
        1
176
     1
 40
1.0
176
     1
 90
        0
176
     1
 62
   257
176
     1
 40
1.0
176
     1
 90
        1
176
     1
 90
        6
176
     1
 90
        2
176
     1
 62
     7
176
     1
 90
        5
176
     1
 90
        0
176
     1
 90
        0
176
     1
290
     0
176
     1
 90
       13
176
     1
 40
0.0
176
     1
 90
        0
176
     1
290
     0
176
     1
290
     1
176
     1
290
     1
176
     1
290
     0
176
     1
290
     0
176
     1
290
     0
176
     1
290
     0
176
     1
290
     0
176
     1
290
     0
176
     1
 90
       50
176
     1
 40
0.0
176
     1
 40
1.0
176
     1
 90
        0
176
     1
 62
    18
420
        0
176
     1
 90
       50
176
     1
 90
        3
176
     1
 62
     5
420
      255
176
     1
290
     0
176
     1
 90
       50
176
     1
 90
       50
176
     1
 90
       50
176
     1
290
     0
176
     1
 90
       50
176
     1
 62
   256
176
     0
 40
1.0
176
     0
 90
        2
176
     1
  1
strokes_ogs.tif
176
     1
290
     0
176
     1
 40
1.0
176
     1
 40
1.0
176
     1
  0
VISUALSTYLE
  5
2D
102
{ACAD_REACTORS
330
2A
102
}
330
2A
100
AcDbVisualStyle
  2
Gouraud
 70
     2
177
     3
291
     1
 70
    58
 90
        2
176
     1
 90
        2
176
     1
 90
        1
176
     1
 90
        2
176
     1
 40
0.6
176
     1
 40
30.0
176
     1
 62
     7
420
 16777215
176
     1
 90
        0
176
     1
 90
        0
176
     1
 62
     7
176
     1
 62
   257
176
     1
 90
        1
176
     1
 90
        1
176
     1
 40
1.0
176
     1
 90
        0
176
     1
 62
     7
176
     1
 40
1.0
176
     1
 90
        1
176
     1
 90
        6
176
     1
 90
        2
176
     1
 62
     7
176
     1
 90
        5
176
     1
 90
        0
176
     1
 90
        0
176
     1
290
     0
176
     1
 90
       13
176
     1
 40
0.0
176
     1
 90
        0
176
     1
290
     0
176
     1
290
     1
176
     1
290
     1
176
     1
290
     0
176
     1
290
     0
176
     1
290
     0
176
     1
290
     0
176
     1
290
     0
176
     1
290
     0
176
     1
 90
       50
176
     1
 40
0.0
176
     1
 40
1.0
176
     1
 90
        0
176
     1
 62
    18
420
        0
176
     1
 90
       50
176
     1
 90
        3
176
     1
 62
     5
420
      255
176
     1
290
     0
176
     1
 90
       50
176
     1
 90
       50
176
     1
 90
       50
176
     1
290
     0
176
     1
 90
       50
176
     1
 62
   256
176
     0
 40
1.0
176
     0
 90
        2
176
     1
  1
strokes_ogs.tif
176
     1
290
     0
176
     1
 40
1.0
176
     1
 40
1.0
176
     1
  0
VISUALSTYLE
  5
2E
102
{ACAD_REACTORS
330
2A
102
}
330
2A
100
AcDbVisualStyle
  2
GouraudWithEdges
 70
     3
177
     3
291
     1
 70
    58
 90
        2
176
     1
 90
        2
176
     1
 90
        1
176
     1
 90
        2
176
     1
 40
0.6
176
     1
 40
30.0
176
     1
 62
     7
420
 16777215
176
     1
 90
        1
176
     1
 90
        0
176
     1
 62
     7
176
     1
 62
   257
176
     1
 90
        1
176
     1
 90
        1
176
     1
 40
1.0
176
     1
 90
        0
176
     1
 62
   257
176
     1
 40
1.0
176
     1
 90
        1
176
     1
 90
        6
176
     1
 90
        2
176
     1
 62
     7
176
     1
 90
        5
176
     1
 90
        0
176
     1
 90
        0
176
     1
290
     0
176
     1
 90
       13
176
     1
 40
0.0
176
     1
 90
        0
176
     1
290
     0
176
     1
290
     1
176
     1
290
     1
176
     1
290
     0
176
     1
290
     0
176
     1
290
     0
176
     1
290
     0
176
     1
290
     0
176
     1
290
     0
176
     1
 90
       50
176
     1
 40
0.0
176
     1
 40
1.0
176
     1
 90
        0
176
     1
 62
    18
420
        0
176
     1
 90
       50
176
     1
 90
        3
176
     1
 62
     5
420
      255
176
     1
290
     0
176
     1
 90
       50
176
     1
 90
       50
176
     1
 90
       50
176
     1
290
     0
176
     1
 90
       50
176
     1
 62
   256
176
     0
 40
1.0
176
     0
 90
        2
176
     1
  1
strokes_ogs.tif
176
     1
290
     0
176
     1
 40
1.0
176
     1
 40
1.0
176
     1
  0
VISUALSTYLE
  5
31
102
{ACAD_REACTORS
330
2A
102
}
330
2A
100
AcDbVisualStyle
  2
Hidden
 70
     6
177
     3
291
     0
 70
    58
 90
        1
176
     1
 90
        2
176
     1
 90
        2
176
     1
 90
        0
176
     1
 40
0.6
176
     1
 40
30.0
176
     1
 62
     7
420
 16777215
176
     1
 90
        2
176
     1
 90
        2
176
     1
 62
     7
176
     1
 62
   257
176
     1
 90
        2
176
     1
 90
        1
176
     1
 40
40.0
176
     1
 90
        0
176
     1
 62
   257
176
     1
 40
1.0
176
     1
 90
        1
176
     1
 90
        6
176
     1
 90
        2
176
     1
 62
     7
176
     1
 90
        3
176
     1
 90
        0
176
     1
 90
        0
176
     1
290
     0
176
     1
 90
        1
176
     1
 40
0.0
176
     1
 90
        0
176
     1
290
     0
176
     1
290
     1
176
     1
290
     1
176
     1
290
     0
176
     1
290
     0
176
     1
290
     0
176
     1
290
     0
176
     1
290
     0
176
     1
290
     0
176
     1
 90
       50
176
     1
 40
0.0
176
     1
 40
1.0
176
     1
 90
        0
176
     1
 62
    18
420
        0
176
     1
 90
       50
176
     1
 90
        3
176
     1
 62
     5
420
      255
176
     1
290
     0
176
     1
 90
       50
176
     1
 90
       50
176
     1
 90
       50
176
     1
290
     0
176
     1
 90
       50
176
     1
 62
   256
176
     0
 40
1.0
176
     0
 90
        2
176
     1
  1
strokes_ogs.tif
176
     1
290
     0
176
     1
 40
1.0
176
     1
 40
1.0
176
     1
  0
VISUALSTYLE
  5
3B
102
{ACAD_REACTORS
330
2A
102
}
330
2A
100
AcDbVisualStyle
  2
JitterOff
 70
    20
177
     3
291
     1
 70
    58
 90
        2
176
     0
 90
        2
176
     0
 90
        0
176
     0
 90
        0
176
     0
 40
0.6
176
     0
 40
30.0
176
     0
 62
     7
420
 16777215
176
     0
 90
        1
176
     0
 90
        4
176
     0
 62
     7
176
     0
 62
   257
176
     0
 90
        1
176
     0
 90
        1
176
     0
 40
1.0
176
     0
 90
       10
176
     2
 62
     7
176
     0
 40
1.0
176
     0
 90
        1
176
     0
 90
        6
176
     0
 90
        2
176
     0
 62
     7
176
     0
 90
        5
176
     0
 90
        0
176
     0
 90
        0
176
     0
290
     0
176
     0
 90
        1
176
     0
 40
0.0
176
     0
 90
        0
176
     0
290
     0
176
     0
290
     1
176
     0
290
     1
176
     0
290
     0
176
     0
290
     0
176
     0
290
     0
176
     0
290
     0
176
     0
290
     0
176
     0
290
     0
176
     0
 90
       50
176
     0
 40
0.0
176
     0
 40
1.0
176
     0
 90
        0
176
     0
 62
    18
420
        0
176
     0
 90
       50
176
     0
 90
        3
176
     0
 62
     5
420
      255
176
     0
290
     0
176
     0
 90
       50
176
     0
 90
       50
176
     0
 90
       50
176
     0
290
     0
176
     0
 90
       50
176
     0
 62
   256
176
     0
 40
1.0
176
     0
 90
        2
176
     0
  1
strokes_ogs.tif
176
     0
290
     0
176
     0
 40
1.0
176
     0
 40
1.0
176
     0
  0
VISUALSTYLE
  5
38
102
{ACAD_REACTORS
330
2A
102
}
330
2A
100
AcDbVisualStyle
  2
Linepattern
 70
    14
177
     3
291
     1
 70
    58
 90
        2
176
     1
 90
        2
176
     1
 90
        0
176
     1
 90
        0
176
     1
 40
0.6
176
     1
 40
30.0
176
     1
 62
     7
420
 16777215
176
     1
 90
        1
176
     1
 90
        4
176
     1
 62
     7
176
     1
 62
   257
176
     1
 90
        7
176
     1
 90
        7
176
     1
 40
1.0
176
     1
 90
        8
176
     1
 62
     7
176
     1
 40
1.0
176
     1
 90
        1
176
     1
 90
        6
176
     1
 90
        2
176
     1
 62
     7
176
     1
 90
        5
176
     1
 90
        0
176
     1
 90
        0
176
     1
290
     0
176
     1
 90
        1
176
     1
 40
0.0
176
     1
 90
        0
176
     1
290
     0
176
     1
290
     1
176
     1
290
     1
176
     1
290
     0
176
     1
290
     0
176
     1
290
     0
176
     1
290
     0
176
     1
290
     0
176
     1
290
     0
176
     1
 90
       50
176
     1
 40
0.0
176
     1
 40
1.0
176
     1
 90
        0
176
     1
 62
    18
420
        0
176
     1
 90
       50
176
     1
 90
        3
176
     1
 62
     5
420
      255
176
     1
290
     0
176
     1
 90
       50
176
     1
 90
       50
176
     1
 90
       50
176
     1
290
     0
176
     1
 90
       50
176
     1
 62
   256
176
     0
 40
1.0
176
     0
 90
        2
176
     1
  1
strokes_ogs.tif
176
     1
290
     0
176
     1
 40
1.0
176
     1
 40
1.0
176
     1
  0
VISUALSTYLE
  5
3C
102
{ACAD_REACTORS
330
2A
102
}
330
2A
100
AcDbVisualStyle
  2
OverhangOff
 70
    21
177
     3
291
     1
 70
    58
 90
        2
176
     0
 90
        2
176
     0
 90
        0
176
     0
 90
        0
176
     0
 40
0.6
176
     0
 40
30.0
176
     0
 62
     7
420
 16777215
176
     0
 90
        1
176
     0
 90
        4
176
     0
 62
     7
176
     0
 62
   257
176
     0
 90
        1
176
     0
 90
        1
176
     0
 40
1.0
176
     0
 90
        9
176
     2
 62
     7
176
     0
 40
1.0
176
     0
 90
        1
176
     0
 90
        6
176
     0
 90
        2
176
     0
 62
     7
176
     0
 90
        5
176
     0
 90
        0
176
     0
 90
        0
176
     0
290
     0
176
     0
 90
        1
176
     0
 40
0.0
176
     0
 90
        0
176
     0
290
     0
176
     0
290
     1
176
     0
290
     1
176
     0
290
     0
176
     0
290
     0
176
     0
290
     0
176
     0
290
     0
176
     0
290
     0
176
     0
290
     0
176
     0
 90
       50
176
     0
 40
0.0
176
     0
 40
1.0
176
     0
 90
        0
176
     0
 62
    18
420
        0
176
     0
 90
       50
176
     0
 90
        3
176
     0
 62
     5
420
      255
176
     0
290
     0
176
     0
 90
       50
176
     0
 90
       50
176
     0
 90
       50
176
     0
290
     0
176
     0
 90
       50
176
     0
 62
   256
176
     0
 40
1.0
176
     0
 90
        2
176
     0
  1
strokes_ogs.tif
176
     0
290
     0
176
     0
 40
1.0
176
     0
 40
1.0
176
     0
  0
VISUALSTYLE
  5
33
102
{ACAD_REACTORS
330
2A
102
}
330
2A
100
AcDbVisualStyle
  2
Realistic
 70
     8
177
     3
291
     0
 70
    58
 90
        2
176
     1
 90
        3
176
     1
 90
        0
176
     1
 90
        2
176
     1
 40
0.6
176
     1
 40
30.0
176
     1
 62
     7
420
 16777215
176
     1
 90
        0
176
     1
 90
        0
176
     1
 62
     7
176
     1
 62
   257
176
     1
 90
        1
176
     1
 90
        1
176
     1
 40
1.0
176
     1
 90
        8
176
     1
 62
   257
176
     1
 40
1.0
176
     1
 90
        1
176
     1
 90
        6
176
     1
 90
        2
176
     1
 62
     7
176
     1
 90
        3
176
     1
 90
        0
176
     1
 90
        0
176
     1
290
     0
176
     1
 90
       13
176
     1
 40
0.0
176
     1
 90
        0
176
     1
290
     0
176
     1
290
     1
176
     1
290
     1
176
     1
290
     0
176
     1
290
     0
176
     1
290
     0
176
     1
290
     0
176
     1
290
     0
176
     1
290
     0
176
     1
 90
       50
176
     1
 40
0.0
176
     1
 40
1.0
176
     1
 90
        0
176
     1
 62
    18
420
        0
176
     1
 90
       50
176
     1
 90
        3
176
     1
 62
     5
420
      255
176
     1
290
     0
176
     1
 90
       50
176
     1
 90
       50
176
     1
 90
       50
176
     1
290
     0
176
     1
 90
       50
176
     1
 62
   256
176
     0
 40
1.0
176
     0
 90
        2
176
     1
  1
strokes_ogs.tif
176
     1
290
     0
176
     1
 40
1.0
176
     1
 40
1.0
176
     1
  0
VISUALSTYLE
  5
42
102
{ACAD_REACTORS
330
2A
102
}
330
2A
100
AcDbVisualStyle
  2
Shaded
 70
    27
177
     3
291
     0
 70
    58
 90
        2
176
     1
 90
        2
176
     1
 90
        1
176
     1
 90
        2
176
     1
 40
0.6
176
     1
 40
30.0
176
     1
 62
     7
420
 16777215
176
     1
 90
        0
176
     1
 90
        4
176
     1
 62
     7
176
     1
 62
   257
176
     1
 90
        1
176
     1
 90
        1
176
     1
 40
1.0
176
     1
 90
        8
176
     1
 62
   257
176
     1
 40
1.0
176
     1
 90
        1
176
     1
 90
        6
176
     1
 90
        2
176
     1
 62
     8
420
  7895160
176
     1
 90
        3
176
     1
 90
        0
176
     1
 90
        0
176
     1
290
     0
176
     1
 90
        5
176
     1
 40
0.0
176
     1
 90
        0
176
     1
290
     0
176
     1
290
     1
176
     1
290
     1
176
     1
290
     0
176
     1
290
     0
176
     1
290
     0
176
     1
290
     0
176
     1
290
     0
176
     1
290
     0
176
     1
 90
       50
176
     1
 40
0.0
176
     1
 40
1.0
176
     1
 90
        0
176
     1
 62
    18
420
        0
176
     1
 90
       50
176
     1
 90
        3
176
     1
 62
     5
420
      255
176
     1
290
     0
176
     1
 90
       50
176
     1
 90
       50
176
     1
 90
       50
176
     1
290
     0
176
     1
 90
       50
176
     1
 62
   256
176
     0
 40
1.0
176
     0
 90
        2
176
     1
  1
strokes_ogs.tif
176
     1
290
     0
176
     1
 40
1.0
176
     1
 40
1.0
176
     1
  0
VISUALSTYLE
  5
41
102
{ACAD_REACTORS
330
2A
102
}
330
2A
100
AcDbVisualStyle
  2
Shaded with edges
 70
    26
177
     3
291
     0
 70
    58
 90
        2
176
     1
 90
        2
176
     1
 90
        1
176
     1
 90
        2
176
     1
 40
0.6
176
     1
 40
30.0
176
     1
 62
     7
420
 16777215
176
     1
 90
        1
176
     1
 90
       10
176
     1
 62
     7
176
     1
 62
   257
176
     1
 90
        2
176
     1
 90
        1
176
     1
 40
1.0
176
     1
 90
        8
176
     1
 62
   257
176
     1
 40
1.0
176
     1
 90
        1
176
     1
 90
        6
176
     1
 90
        2
176
     1
 62
     7
176
     1
 90
        3
176
     1
 90
        0
176
     1
 90
        0
176
     1
290
     0
176
     1
 90
        5
176
     1
 40
0.0
176
     1
 90
        0
176
     1
290
     0
176
     1
290
     1
176
     1
290
     1
176
     1
290
     0
176
     1
290
     0
176
     1
290
     0
176
     1
290
     0
176
     1
290
     0
176
     1
290
     0
176
     1
 90
       50
176
     1
 40
0.0
176
     1
 40
1.0
176
     1
 90
        0
176
     1
 62
    18
420
        0
176
     1
 90
       50
176
     1
 90
        3
176
     1
 62
     5
420
      255
176
     1
290
     0
176
     1
 90
       50
176
     1
 90
       50
176
     1
 90
       50
176
     1
290
     0
176
     1
 90
       50
176
     1
 62
   256
176
     0
 40
1.0
176
     0
 90
        2
176
     1
  1
strokes_ogs.tif
176
     1
290
     0
176
     1
 40
1.0
176
     1
 40
1.0
176
     1
  0
VISUALSTYLE
  5
3E
102
{ACAD_REACTORS
330
2A
102
}
330
2A
100
AcDbVisualStyle
  2
Shades of Gray
 70
    23
177
     3
291
     0
 70
    58
 90
        2
176
     1
 90
        2
176
     1
 90
        3
176
     1
 90
        0
176
     1
 40
0.6
176
     1
 40
30.0
176
     1
 62
     7
420
 16777215
176
     1
 90
        2
176
     1
 90
        2
176
     1
 62
     7
176
     1
 62
     7
176
     1
 90
        1
176
     1
 90
        1
176
     1
 40
40.0
176
     1
 90
        8
176
     1
 62
     7
176
     1
 40
1.0
176
     1
 90
        1
176
     1
 90
        6
176
     1
 90
        2
176
     1
 62
     7
176
     1
 90
        3
176
     1
 90
        0
176
     1
 90
        0
176
     1
290
     0
176
     1
 90
        1
176
     1
 40
0.0
176
     1
 90
        0
176
     1
290
     0
176
     1
290
     1
176
     1
290
     1
176
     1
290
     0
176
     1
290
     0
176
     1
290
     0
176
     1
290
     0
176
     1
290
     0
176
     1
290
     0
176
     1
 90
       50
176
     1
 40
0.0
176
     1
 40
1.0
176
     1
 90
        0
176
     1
 62
    18
420
        0
176
     1
 90
       50
176
     1
 90
        3
176
     1
 62
     5
420
      255
176
     1
290
     0
176
     1
 90
       50
176
     1
 90
       50
176
     1
 90
       50
176
     1
290
     0
176
     1
 90
       50
176
     1
 62
   256
176
     0
 40
1.0
176
     0
 90
        2
176
     1
  1
strokes_ogs.tif
176
     1
290
     0
176
     1
 40
1.0
176
     1
 40
1.0
176
     1
  0
VISUALSTYLE
  5
3F
102
{ACAD_REACTORS
330
2A
102
}
330
2A
100
AcDbVisualStyle
  2
Sketchy
 70
    24
177
     3
291
     0
 70
    58
 90
        1
176
     1
 90
        2
176
     1
 90
        2
176
     1
 90
        0
176
     1
 40
0.6
176
     1
 40
30.0
176
     1
 62
     7
420
 16777215
176
     1
 90
        2
176
     1
 90
        2
176
     1
 62
     7
176
     1
 62
     7
176
     1
 90
        1
176
     1
 90
        1
176
     1
 40
40.0
176
     1
 90
       11
176
     1
 62
     7
176
     1
 40
1.0
176
     1
 90
        1
176
     1
 90
        6
176
     1
 90
        2
176
     1
 62
     7
176
     1
 90
        6
176
     1
 90
        0
176
     1
 90
        0
176
     1
290
     0
176
     1
 90
        1
176
     1
 40
0.0
176
     1
 90
        0
176
     1
290
     0
176
     1
290
     1
176
     1
290
     1
176
     1
290
     0
176
     1
290
     0
176
     1
290
     0
176
     1
290
     0
176
     1
290
     0
176
     1
290
     0
176
     1
 90
       50
176
     1
 40
0.0
176
     1
 40
1.0
176
     1
 90
        0
176
     1
 62
    18
420
        0
176
     1
 90
       50
176
     1
 90
        3
176
     1
 62
     5
420
      255
176
     1
290
     0
176
     1
 90
       50
176
     1
 90
       50
176
     1
 90
       50
176
     1
290
     0
176
     1
 90
       50
176
     1
 62
   256
176
     0
 40
1.0
176
     0
 90
        2
176
     1
  1
strokes_ogs.tif
176
     1
290
     0
176
     1
 40
1.0
176
     1
 40
1.0
176
     1
  0
VISUALSTYLE
  5
37
102
{ACAD_REACTORS
330
2A
102
}
330
2A
100
AcDbVisualStyle
  2
Thicken
 70
    13
177
     3
291
     1
 70
    58
 90
        2
176
     1
 90
        2
176
     1
 90
        0
176
     1
 90
        0
176
     1
 40
0.6
176
     1
 40
30.0
176
     1
 62
     7
420
 16777215
176
     1
 90
        1
176
     1
 90
        4
176
     1
 62
     7
176
     1
 62
   257
176
     1
 90
        1
176
     1
 90
        1
176
     1
 40
1.0
176
     1
 90
       12
176
     1
 62
     7
176
     1
 40
1.0
176
     1
 90
        1
176
     1
 90
        6
176
     1
 90
        2
176
     1
 62
     7
176
     1
 90
        5
176
     1
 90
        0
176
     1
 90
        0
176
     1
290
     0
176
     1
 90
        1
176
     1
 40
0.0
176
     1
 90
        0
176
     1
290
     0
176
     1
290
     1
176
     1
290
     1
176
     1
290
     0
176
     1
290
     0
176
     1
290
     0
176
     1
290
     0
176
     1
290
     0
176
     1
290
     0
176
     1
 90
       50
176
     1
 40
0.0
176
     1
 40
1.0
176
     1
 90
        0
176
     1
 62
    18
420
        0
176
     1
 90
       50
176
     1
 90
        3
176
     1
 62
     5
420
      255
176
     1
290
     0
176
     1
 90
       50
176
     1
 90
       50
176
     1
 90
       50
176
     1
290
     0
176
     1
 90
       50
176
     1
 62
   256
176
     0
 40
1.0
176
     0
 90
        2
176
     1
  1
strokes_ogs.tif
176
     1
290
     0
176
     1
 40
1.0
176
     1
 40
1.0
176
     1
  0
VISUALSTYLE
  5
30
102
{ACAD_REACTORS
330
2A
102
}
330
2A
100
AcDbVisualStyle
  2
Wireframe
 70
     5
177
     3
291
     0
 70
    58
 90
        0
176
     1
 90
        2
176
     1
 90
        0
176
     1
 90
        0
176
     1
 40
0.6
176
     1
 40
30.0
176
     1
 62
     7
420
 16777215
176
     1
 90
        1
176
     1
 90
        4
176
     1
 62
     7
176
     1
 62
   257
176
     1
 90
        1
176
     1
 90
        1
176
     1
 40
1.0
176
     1
 90
        0
176
     1
 62
   257
176
     1
 40
1.0
176
     1
 90
        1
176
     1
 90
        6
176
     1
 90
        2
176
     1
 62
     7
176
     1
 90
        3
176
     1
 90
        0
176
     1
 90
        0
176
     1
290
     0
176
     1
 90
        1
176
     1
 40
0.0
176
     1
 90
        0
176
     1
290
     0
176
     1
290
     1
176
     1
290
     1
176
     1
290
     0
176
     1
290
     0
176
     1
290
     0
176
     1
290
     0
176
     1
290
     0
176
     1
290
     0
176
     1
 90
       50
176
     1
 40
0.0
176
     1
 40
1.0
176
     1
 90
        0
176
     1
 62
    18
420
        0
176
     1
 90
       50
176
     1
 90
        3
176
     1
 62
     5
420
      255
176
     1
290
     0
176
     1
 90
       50
176
     1
 90
       50
176
     1
 90
       50
176
     1
290
     0
176
     1
 90
       50
176
     1
 62
   256
176
     0
 40
1.0
176
     0
 90
        2
176
     1
  1
strokes_ogs.tif
176
     1
290
     0
176
     1
 40
1.0
176
     1
 40
1.0
176
     1
  0
VISUALSTYLE
  5
40
102
{ACAD_REACTORS
330
2A
102
}
330
2A
100
AcDbVisualStyle
  2
X-Ray
 70
    25
177
     3
291
     0
 70
    58
 90
        2
176
     1
 90
        2
176
     1
 90
        1
176
     1
 90
        1
176
     1
 40
0.5
176
     1
 40
30.0
176
     1
 62
     7
420
 16777215
176
     1
 90
        1
176
     1
 90
        0
176
     1
 62
     7
176
     1
 62
   257
176
     1
 90
        1
176
     1
 90
        1
176
     1
 40
1.0
176
     1
 90
        8
176
     1
 62
     7
176
     1
 40
1.0
176
     1
 90
        1
176
     1
 90
        6
176
     1
 90
        2
176
     1
 62
     7
176
     1
 90
        3
176
     1
 90
        0
176
     1
 90
        0
176
     1
290
     0
176
     1
 90
       13
176
     1
 40
0.0
176
     1
 90
        0
176
     1
290
     0
176
     1
290
     1
176
     1
290
     1
176
     1
290
     0
176
     1
290
     0
176
     1
290
     0
176
     1
290
     0
176
     1
290
     0
176
     1
290
     0
176
     1
 90
       50
176
     1
 40
0.0
176
     1
 40
1.0
176
     1
 90
        0
176
     1
 62
    18
420
        0
176
     1
 90
       50
176
     1
 90
        3
176
     1
 62
     5
420
      255
176
     1
290
     0
176
     1
 90
       50
176
     1
 90
       50
176
     1
 90
       50
176
     1
290
     0
176
     1
 90
       50
176
     1
 62
   256
176
     0
 40
1.0
176
     0
 90
        2
176
     1
  1
strokes_ogs.tif
176
     1
290
     0
176
     1
 40
1.0
176
     1
 40
1.0
176
     1
  0
DICTIONARYVAR
  5
195
102
{ACAD_REACTORS
330
194
102
}
330
194
100
DictionaryVariables
280
     0
  1
1:1
  0
DICTIONARYVAR
  5
19D
102
{ACAD_REACTORS
330
194
102
}
330
194
100
DictionaryVariables
280
     0
  1
3.500000
  0
DICTIONARYVAR
  5
19E
102
{ACAD_REACTORS
330
194
102
}
330
194
100
DictionaryVariables
280
     0
  1
acadiso.lin
  0
DICTIONARYVAR
  5
19A
102
{ACAD_REACTORS
330
194
102
}
330
194
100
DictionaryVariables
280
     0
  1
Standard
  0
DICTIONARYVAR
  5
199
102
{ACAD_REACTORS
330
194
102
}
330
194
100
DictionaryVariables
280
     0
  1
Standard
  0
DICTIONARY
  5
196
330
6A
100
AcDbDictionary
280
     1
281
     1
  3
ACAD_ROUNDTRIP_2008_TABLESTYLE_CELLSTYLEMAP
360
197
  0
CELLSTYLEMAP
  5
197
102
{ACAD_REACTORS
330
196
102
}
330
196
100
AcDbCellStyleMap
 90
        3
300
CELLSTYLE
  1
TABLEFORMAT_BEGIN
 90
        5
170
     1
 91
        0
 92
    32768
 62
   257
 93
        1
300
CONTENTFORMAT
  1
CONTENTFORMAT_BEGIN
 90
        0
 91
        0
 92
        4
 93
        0
300

 40
0.0
140
1.0
 94
        5
 62
     0
340
11
144
6.0
309
CONTENTFORMAT_END
171
     1
301
MARGIN
  1
CELLMARGIN_BEGIN
 40
1.5
 40
1.5
 40
1.5
 40
1.5
 40
1.5
 40
1.5
309
CELLMARGIN_END
 94
        6
 95
        1
302
GRIDFORMAT
  1
GRIDFORMAT_BEGIN
 90
        0
 91
        1
 62
     0
 92
       -2
340
14
 93
        0
 40
0.045
309
GRIDFORMAT_END
 95
        2
302
GRIDFORMAT
  1
GRIDFORMAT_BEGIN
 90
        0
 91
        1
 62
     0
 92
       -2
340
14
 93
        0
 40
0.045
309
GRIDFORMAT_END
 95
        4
302
GRIDFORMAT
  1
GRIDFORMAT_BEGIN
 90
        0
 91
        1
 62
     0
 92
       -2
340
14
 93
        0
 40
0.045
309
GRIDFORMAT_END
 95
        8
302
GRIDFORMAT
  1
GRIDFORMAT_BEGIN
 90
        0
 91
        1
 62
     0
 92
       -2
340
14
 93
        0
 40
0.045
309
GRIDFORMAT_END
 95
       16
302
GRIDFORMAT
  1
GRIDFORMAT_BEGIN
 90
        0
 91
        1
 62
     0
 92
       -2
340
14
 93
        0
 40
0.045
309
GRIDFORMAT_END
 95
       32
302
GRIDFORMAT
  1
GRIDFORMAT_BEGIN
 90
        0
 91
        1
 62
     0
 92
       -2
340
14
 93
        0
 40
0.045
309
GRIDFORMAT_END
309
TABLEFORMAT_END
  1
CELLSTYLE_BEGIN
 90
        1
 91
        1
300
_TITLE
309
CELLSTYLE_END
300
CELLSTYLE
  1
TABLEFORMAT_BEGIN
 90
        5
170
     1
 91
        0
 92
        0
 62
   257
 93
        1
300
CONTENTFORMAT
  1
CONTENTFORMAT_BEGIN
 90
        0
 91
        0
 92
        4
 93
        0
300

 40
0.0
140
1.0
 94
        5
 62
     0
340
11
144
4.5
309
CONTENTFORMAT_END
171
     1
301
MARGIN
  1
CELLMARGIN_BEGIN
 40
1.5
 40
1.5
 40
1.5
 40
1.5
 40
1.5
 40
1.5
309
CELLMARGIN_END
 94
        6
 95
        1
302
GRIDFORMAT
  1
GRIDFORMAT_BEGIN
 90
        0
 91
        1
 62
     0
 92
       -2
340
14
 93
        0
 40
0.045
309
GRIDFORMAT_END
 95
        2
302
GRIDFORMAT
  1
GRIDFORMAT_BEGIN
 90
        0
 91
        1
 62
     0
 92
       -2
340
14
 93
        0
 40
0.045
309
GRIDFORMAT_END
 95
        4
302
GRIDFORMAT
  1
GRIDFORMAT_BEGIN
 90
        0
 91
        1
 62
     0
 92
       -2
340
14
 93
        0
 40
0.045
309
GRIDFORMAT_END
 95
        8
302
GRIDFORMAT
  1
GRIDFORMAT_BEGIN
 90
        0
 91
        1
 62
     0
 92
       -2
340
14
 93
        0
 40
0.045
309
GRIDFORMAT_END
 95
       16
302
GRIDFORMAT
  1
GRIDFORMAT_BEGIN
 90
        0
 91
        1
 62
     0
 92
       -2
340
14
 93
        0
 40
0.045
309
GRIDFORMAT_END
 95
       32
302
GRIDFORMAT
  1
GRIDFORMAT_BEGIN
 90
        0
 91
        1
 62
     0
 92
       -2
340
14
 93
        0
 40
0.045
309
GRIDFORMAT_END
309
TABLEFORMAT_END
  1
CELLSTYLE_BEGIN
 90
        2
 91
        1
300
_HEADER
309
CELLSTYLE_END
300
CELLSTYLE
  1
TABLEFORMAT_BEGIN
 90
        5
170
     1
 91
        0
 92
        0
 62
   257
 93
        1
300
CONTENTFORMAT
  1
CONTENTFORMAT_BEGIN
 90
        0
 91
        0
 92
        4
 93
        0
300

 40
0.0
140
1.0
 94
        2
 62
     0
340
11
144
4.5
309
CONTENTFORMAT_END
171
     1
301
MARGIN
  1
CELLMARGIN_BEGIN
 40
1.5
 40
1.5
 40
1.5
 40
1.5
 40
1.5
 40
1.5
309
CELLMARGIN_END
 94
        6
 95
        1
302
GRIDFORMAT
  1
GRIDFORMAT_BEGIN
 90
        0
 91
        1
 62
     0
 92
       -2
340
14
 93
        0
 40
0.045
309
GRIDFORMAT_END
 95
        2
302
GRIDFORMAT
  1
GRIDFORMAT_BEGIN
 90
        0
 91
        1
 62
     0
 92
       -2
340
14
 93
        0
 40
0.045
309
GRIDFORMAT_END
 95
        4
302
GRIDFORMAT
  1
GRIDFORMAT_BEGIN
 90
        0
 91
        1
 62
     0
 92
       -2
340
14
 93
        0
 40
0.045
309
GRIDFORMAT_END
 95
        8
302
GRIDFORMAT
  1
GRIDFORMAT_BEGIN
 90
        0
 91
        1
 62
     0
 92
       -2
340
14
 93
        0
 40
0.045
309
GRIDFORMAT_END
 95
       16
302
GRIDFORMAT
  1
GRIDFORMAT_BEGIN
 90
        0
 91
        1
 62
     0
 92
       -2
340
14
 93
        0
 40
0.045
309
GRIDFORMAT_END
 95
       32
302
GRIDFORMAT
  1
GRIDFORMAT_BEGIN
 90
        0
 91
        1
 62
     0
 92
       -2
340
14
 93
        0
 40
0.045
309
GRIDFORMAT_END
309
TABLEFORMAT_END
  1
CELLSTYLE_BEGIN
 90
        3
 91
        2
300
_DATA
309
CELLSTYLE_END
  0
ENDSEC
  0
EOF
