  0
SECTION
  2
HEADER
  9
$ACADVER
  1
AC1021
  9
$ACADMAINTVER
 70
    25
  9
$DWGCODEPAGE
  3
ANSI_932
  9
$INSBASE
 10
0.0
 20
0.0
 30
0.0
  9
$EXTMIN
 10
-1050.0
 20
-742.5
 30
0.0
  9
$EXTMAX
 10
1050.0
 20
742.5
 30
0.0
  9
$LIMMIN
 10
-1050.0
 20
-742.5
  9
$LIMMAX
 10
1050.0
 20
742.5
  9
$ORTHOMODE
 70
     0
  9
$REGENMODE
 70
     1
  9
$FILLMODE
 70
     1
  9
$QTEXTMODE
 70
     0
  9
$MIRRTEXT
 70
     1
  9
$LTSCALE
 40
5.0
  9
$ATTMODE
 70
     1
  9
$TEXTSIZE
 40
2.5
  9
$TRACEWID
 40
1.0
  9
$TEXTSTYLE
  7
Standard
  9
$CLAYER
  8
0
  9
$CELTYPE
  6
ByLayer
  9
$CECOLOR
 62
   256
  9
$CELTSCALE
 40
1.0
  9
$DISPSILH
 70
     0
  9
$DIMSCALE
 40
1.0
  9
$DIMASZ
 40
2.5
  9
$DIMEXO
 40
0.625
  9
$DIMDLI
 40
3.75
  9
$DIMRND
 40
0.0
  9
$DIMDLE
 40
0.0
  9
$DIMEXE
 40
1.25
  9
$DIMTP
 40
0.0
  9
$DIMTM
 40
0.0
  9
$DIMTXT
 40
2.5
  9
$DIMCEN
 40
2.5
  9
$DIMTSZ
 40
0.0
  9
$DIMTOL
 70
     0
  9
$DIMLIM
 70
     0
  9
$DIMTIH
 70
     0
  9
$DIMTOH
 70
     0
  9
$DIMSE1
 70
     0
  9
$DIMSE2
 70
     0
  9
$DIMTAD
 70
     1
  9
$DIMZIN
 70
     8
  9
$DIMBLK
  1

  9
$DIMASO
 70
     1
  9
$DIMSHO
 70
     1
  9
$DIMPOST
  1

  9
$DIMAPOST
  1

  9
$DIMALT
 70
     0
  9
$DIMALTD
 70
     3
  9
$DIMALTF
 40
0.03937007874016
  9
$DIMLFAC
 40
1.0
  9
$DIMTOFL
 70
     1
  9
$DIMTVP
 40
0.0
  9
$DIMTIX
 70
     0
  9
$DIMSOXD
 70
     0
  9
$DIMSAH
 70
     0
  9
$DIMBLK1
  1

  9
$DIMBLK2
  1

  9
$DIMSTYLE
  2
ISO-25
  9
$DIMCLRD
 70
     0
  9
$DIMCLRE
 70
     0
  9
$DIMCLRT
 70
     0
  9
$DIMTFAC
 40
1.0
  9
$DIMGAP
 40
0.625
  9
$DIMJUST
 70
     0
  9
$DIMSD1
 70
     0
  9
$DIMSD2
 70
     0
  9
$DIMTOLJ
 70
     0
  9
$DIMTZIN
 70
     8
  9
$DIMALTZ
 70
     0
  9
$DIMALTTZ
 70
     0
  9
$DIMUPT
 70
     0
  9
$DIMDEC
 70
     2
  9
$DIMTDEC
 70
     2
  9
$DIMALTU
 70
     2
  9
$DIMALTTD
 70
     3
  9
$DIMTXSTY
  7
Standard
  9
$DIMAUNIT
 70
     0
  9
$DIMADEC
 70
     0
  9
$DIMALTRND
 40
0.0
  9
$DIMAZIN
 70
     0
  9
$DIMDSEP
 70
    44
  9
$DIMATFIT
 70
     3
  9
$DIMFRAC
 70
     0
  9
$DIMLDRBLK
  1

  9
$DIMLUNIT
 70
     2
  9
$DIMLWD
 70
    -2
  9
$DIMLWE
 70
    -2
  9
$DIMTMOVE
 70
     0
  9
$DIMFXL
 40
1.0
  9
$DIMFXLON
 70
     0
  9
$DIMJOGANG
 40
0.7853981633974483
  9
$DIMTFILL
 70
     0
  9
$DIMTFILLCLR
 70
     0
  9
$DIMARCSYM
 70
     0
  9
$DIMLTYPE
  6

  9
$DIMLTEX1
  6

  9
$DIMLTEX2
  6

  9
$LUNITS
 70
     2
  9
$LUPREC
 70
     4
  9
$SKETCHINC
 40
1.0
  9
$FILLETRAD
 40
10.0
  9
$AUNITS
 70
     0
  9
$AUPREC
 70
     0
  9
$MENU
  1
.
  9
$ELEVATION
 40
0.0
  9
$PELEVATION
 40
0.0
  9
$THICKNESS
 40
0.0
  9
$LIMCHECK
 70
     0
  9
$CHAMFERA
 40
10.0
  9
$CHAMFERB
 40
10.0
  9
$CHAMFERC
 40
20.0
  9
$CHAMFERD
 40
0.0
  9
$SKPOLY
 70
     0
  9
$TDCREATE
 40
2457774.654322268
  9
$TDUCREATE
 40
2457774.279322268
  9
$TDUPDATE
 40
2457774.65432228
  9
$TDUUPDATE
 40
2457774.27932228
  9
$TDINDWG
 40
0.0000000116
  9
$TDUSRTIMER
 40
0.0000000116
  9
$USRTIMER
 70
     1
  9
$ANGBASE
 50
0.0
  9
$ANGDIR
 70
     0
  9
$PDMODE
 70
     0
  9
$PDSIZE
 40
0.0
  9
$PLINEWID
 40
0.0
  9
$SPLFRAME
 70
     0
  9
$SPLINETYPE
 70
     6
  9
$SPLINESEGS
 70
     8
  9
$HANDSEED
  5
14A
  9
$SURFTAB1
 70
     6
  9
$SURFTAB2
 70
     6
  9
$SURFTYPE
 70
     6
  9
$SURFU
 70
     6
  9
$SURFV
 70
     6
  9
$UCSBASE
  2

  9
$UCSNAME
  2

  9
$UCSORG
 10
0.0
 20
0.0
 30
0.0
  9
$UCSXDIR
 10
1.0
 20
0.0
 30
0.0
  9
$UCSYDIR
 10
0.0
 20
1.0
 30
0.0
  9
$UCSORTHOREF
  2

  9
$UCSORTHOVIEW
 70
     0
  9
$UCSORGTOP
 10
0.0
 20
0.0
 30
0.0
  9
$UCSORGBOTTOM
 10
0.0
 20
0.0
 30
0.0
  9
$UCSORGLEFT
 10
0.0
 20
0.0
 30
0.0
  9
$UCSORGRIGHT
 10
0.0
 20
0.0
 30
0.0
  9
$UCSORGFRONT
 10
0.0
 20
0.0
 30
0.0
  9
$UCSORGBACK
 10
0.0
 20
0.0
 30
0.0
  9
$PUCSBASE
  2

  9
$PUCSNAME
  2

  9
$PUCSORG
 10
0.0
 20
0.0
 30
0.0
  9
$PUCSXDIR
 10
1.0
 20
0.0
 30
0.0
  9
$PUCSYDIR
 10
0.0
 20
1.0
 30
0.0
  9
$PUCSORTHOREF
  2

  9
$PUCSORTHOVIEW
 70
     0
  9
$PUCSORGTOP
 10
0.0
 20
0.0
 30
0.0
  9
$PUCSORGBOTTOM
 10
0.0
 20
0.0
 30
0.0
  9
$PUCSORGLEFT
 10
0.0
 20
0.0
 30
0.0
  9
$PUCSORGRIGHT
 10
0.0
 20
0.0
 30
0.0
  9
$PUCSORGFRONT
 10
0.0
 20
0.0
 30
0.0
  9
$PUCSORGBACK
 10
0.0
 20
0.0
 30
0.0
  9
$USERI1
 70
     0
  9
$USERI2
 70
     0
  9
$USERI3
 70
     0
  9
$USERI4
 70
     0
  9
$USERI5
 70
     0
  9
$USERR1
 40
0.0
  9
$USERR2
 40
0.0
  9
$USERR3
 40
0.0
  9
$USERR4
 40
0.0
  9
$USERR5
 40
0.0
  9
$WORLDVIEW
 70
     1
  9
$SHADEDGE
 70
     3
  9
$SHADEDIF
 70
    70
  9
$TILEMODE
 70
     1
  9
$MAXACTVP
 70
    64
  9
$PINSBASE
 10
0.0
 20
0.0
 30
0.0
  9
$PLIMCHECK
 70
     0
  9
$PEXTMIN
 10
1.000000000000000E+20
 20
1.000000000000000E+20
 30
1.000000000000000E+20
  9
$PEXTMAX
 10
-1.000000000000000E+20
 20
-1.000000000000000E+20
 30
-1.000000000000000E+20
  9
$PLIMMIN
 10
0.0
 20
0.0
  9
$PLIMMAX
 10
420.0
 20
297.0
  9
$UNITMODE
 70
     0
  9
$VISRETAIN
 70
     1
  9
$PLINEGEN
 70
     0
  9
$PSLTSCALE
 70
     1
  9
$TREEDEPTH
 70
  3020
  9
$CMLSTYLE
  2
Standard
  9
$CMLJUST
 70
     0
  9
$CMLSCALE
 40
20.0
  9
$PROXYGRAPHICS
 70
     1
  9
$MEASUREMENT
 70
     1
  9
$CELWEIGHT
370
    -1
  9
$ENDCAPS
280
     0
  9
$JOINSTYLE
280
     0
  9
$LWDISPLAY
290
     0
  9
$INSUNITS
 70
     4
  9
$HYPERLINKBASE
  1

  9
$STYLESHEET
  1

  9
$XEDIT
290
     1
  9
$CEPSNTYPE
380
     0
  9
$PSTYLEMODE
290
     1
  9
$FINGERPRINTGUID
  2
{E425664C-6E97-43CC-8170-94C47DF2B1AC}
  9
$VERSIONGUID
  2
{FAEB1C32-E019-11D5-929B-00C0DF256EC4}
  9
$EXTNAMES
290
     1
  9
$PSVPSCALE
 40
0.0
  9
$OLESTARTUP
290
     0
  9
$SORTENTS
280
   127
  9
$INDEXCTL
280
     0
  9
$HIDETEXT
280
     1
  9
$XCLIPFRAME
290
     0
  9
$HALOGAP
280
     0
  9
$OBSCOLOR
 70
   257
  9
$OBSLTYPE
280
     0
  9
$INTERSECTIONDISPLAY
280
     0
  9
$INTERSECTIONCOLOR
 70
   257
  9
$DIMASSOC
280
     2
  9
$PROJECTNAME
  1

  9
$CAMERADISPLAY
290
     0
  9
$LENSLENGTH
 40
50.0
  9
$CAMERAHEIGHT
 40
0.0
  9
$STEPSPERSEC
 40
2.0
  9
$STEPSIZE
 40
6.0
  9
$3DDWFPREC
 40
2.0
  9
$PSOLWIDTH
 40
5.0
  9
$PSOLHEIGHT
 40
80.0
  9
$LOFTANG1
 40
1.570796326794897
  9
$LOFTANG2
 40
1.570796326794897
  9
$LOFTMAG1
 40
0.0
  9
$LOFTMAG2
 40
0.0
  9
$LOFTPARAM
 70
     7
  9
$LOFTNORMALS
280
     1
  9
$LATITUDE
 40
37.795
  9
$LONGITUDE
 40
-122.394
  9
$NORTHDIRECTION
 40
0.0
  9
$TIMEZONE
 70
 -8000
  9
$LIGHTGLYPHDISPLAY
280
     1
  9
$TILEMODELIGHTSYNCH
280
     1
  9
$SOLIDHIST
280
     1
  9
$SHOWHIST
280
     1
  9
$DWFFRAME
280
     2
  9
$DGNFRAME
280
     2
  9
$REALWORLDSCALE
290
     1
  9
$INTERFERECOLOR
 62
   256
  9
$CSHADOW
280
     0
  9
$SHADOWPLANELOCATION
 40
0.0
  0
ENDSEC
  0
SECTION
  2
CLASSES
  0
CLASS
  1
ACDBDICTIONARYWDFLT
  2
AcDbDictionaryWithDefault
  3
ObjectDBX Classes
 90
        0
 91
        4
280
     0
281
     0
  0
CLASS
  1
VISUALSTYLE
  2
AcDbVisualStyle
  3
ObjectDBX Classes
 90
     4095
 91
        4
280
     0
281
     0
  0
ENDSEC
  0
SECTION
  2
TABLES
  0
TABLE
  2
VPORT
  5
8
330
0
100
AcDbSymbolTable
 70
     1
  0
VPORT
  5
29
330
8
100
AcDbSymbolTableRecord
100
AcDbViewportTableRecord
  2
*Active
 70
     0
 10
0.0
 20
0.0
 11
1.0
 21
1.0
 12
0.0
 22
0.0
 13
0.0
 23
0.0
 14
10.0
 24
10.0
 15
10.0
 25
10.0
 16
0.0
 26
0.0
 36
1.0
 17
0.0
 27
0.0
 37
0.0
 40
1633.5
 41
1.414141414141414
 42
50.0
 43
0.0
 44
0.0
 50
0.0
 51
0.0
 71
     0
 72
 10000
 73
     1
 74
     3
 75
     0
 76
     0
 77
     0
 78
     0
281
     0
 65
     1
110
0.0
120
0.0
130
0.0
111
1.0
121
0.0
131
0.0
112
0.0
122
1.0
132
0.0
 79
     0
146
0.0
 60
     3
 61
     5
292
     1
282
     1
141
0.0
142
0.0
 63
   256
  0
ENDTAB
  0
TABLE
  2
LTYPE
  5
5
330
0
100
AcDbSymbolTable
 70
     4
  0
LTYPE
  5
14
330
5
100
AcDbSymbolTableRecord
100
AcDbLinetypeTableRecord
  2
ByBlock
 70
     0
  3

 72
    65
 73
     0
 40
0.0
  0
LTYPE
  5
15
330
5
100
AcDbSymbolTableRecord
100
AcDbLinetypeTableRecord
  2
ByLayer
 70
     0
  3

 72
    65
 73
     0
 40
0.0
  0
LTYPE
  5
16
330
5
100
AcDbSymbolTableRecord
100
AcDbLinetypeTableRecord
  2
Continuous
 70
     0
  3
Solid line
 72
    65
 73
     0
 40
0.0
  0
LTYPE
  5
3C
330
5
100
AcDbSymbolTableRecord
100
AcDbLinetypeTableRecord
  2
JWW_CENTER1
 70
     0
  3
-----  --  ----------  --  -----
 72
    65
 73
     4
 40
6.773333333333333
 49
4.233333333333333
 74
     0
 49
-0.8466666666666667
 74
     0
 49
0.8466666666666667
 74
     0
 49
-0.8466666666666667
 74
     0
  0
LTYPE
  5
3D
330
5
100
AcDbSymbolTableRecord
100
AcDbLinetypeTableRecord
  2
JWW_DASHED1
 70
     0
  3
-  --  --  --  --  --  --  --  -
 72
    65
 73
     2
 40
1.693333333333333
 49
0.8466666666666667
 74
     0
 49
-0.8466666666666667
 74
     0
  0
LTYPE
  5
3E
330
5
100
AcDbSymbolTableRecord
100
AcDbLinetypeTableRecord
  2
JWW_PHANTOM1
 70
     0
  3
----  -  -  --------  -  -  ----
 72
    65
 73
     6
 40
6.773333333333333
 49
3.386666666666667
 74
     0
 49
-0.8466666666666667
 74
     0
 49
0.4233333333333333
 74
     0
 49
-0.8466666666666667
 74
     0
 49
0.4233333333333333
 74
     0
 49
-0.8466666666666667
 74
     0
  0
ENDTAB
  0
TABLE
  2
LAYER
  5
2
330
0
100
AcDbSymbolTable
 70
    10
  0
LAYER
  5
10
330
2
100
AcDbSymbolTableRecord
100
AcDbLayerTableRecord
  2
0
 70
     0
 62
     7
  6
Continuous
370
    -3
390
F
347
0
  0
LAYER
  5
3F
330
2
100
AcDbSymbolTableRecord
100
AcDbLayerTableRecord
  2
通り芯
 70
     0
 62
     7
  6
Continuous
370
    -3
390
F
347
0
  0
LAYER
  5
40
330
2
100
AcDbSymbolTableRecord
100
AcDbLayerTableRecord
  2
躯体
 70
     0
 62
     7
  6
Continuous
370
    -3
390
F
347
0
  0
LAYER
  5
41
330
2
100
AcDbSymbolTableRecord
100
AcDbLayerTableRecord
  2
その他
 70
     0
 62
     7
  6
Continuous
370
    -3
390
F
347
0
  0
LAYER
  5
42
330
2
100
AcDbSymbolTableRecord
100
AcDbLayerTableRecord
  2
建具
 70
     0
 62
     7
  6
Continuous
370
    -3
390
F
347
0
  0
LAYER
  5
43
330
2
100
AcDbSymbolTableRecord
100
AcDbLayerTableRecord
  2
仕上
 70
     0
 62
     7
  6
Continuous
370
    -3
390
F
347
0
  0
LAYER
  5
44
330
2
100
AcDbSymbolTableRecord
100
AcDbLayerTableRecord
  2
寸法
 70
     0
 62
     7
  6
Continuous
370
    -3
390
F
347
0
  0
LAYER
  5
45
330
2
100
AcDbSymbolTableRecord
100
AcDbLayerTableRecord
  2
ハッチ
 70
     0
 62
     7
  6
Continuous
370
    -3
390
F
347
0
  0
LAYER
  5
46
330
2
100
AcDbSymbolTableRecord
100
AcDbLayerTableRecord
  2
0-F
 70
     0
 62
     7
  6
Continuous
370
    -3
390
F
347
0
  0
LAYER
  5
47
330
2
100
AcDbSymbolTableRecord
100
AcDbLayerTableRecord
  2
F-5ﾚｲﾔ
 70
     0
 62
     7
  6
Continuous
370
    -3
390
F
347
0
  0
ENDTAB
  0
TABLE
  2
STYLE
  5
3
330
0
100
AcDbSymbolTable
 70
     2
  0
STYLE
  5
11
330
3
100
AcDbSymbolTableRecord
100
AcDbTextStyleTableRecord
  2
Standard
 70
     0
 40
0.0
 41
1.0
 50
0.0
 71
     0
 42
2.5
  3
txt
  4

1001
ACAD
1000

1071
        0
  0
STYLE
  5
3B
330
3
100
AcDbSymbolTableRecord
100
AcDbTextStyleTableRecord
  2
ＭＳ ゴシック
 70
     0
 40
1.0
 41
1.0
 50
0.0
 71
     0
 42
10.0
  3

  4

1001
ACAD
1000
MS Gothic
1071
    32817
  0
ENDTAB
  0
TABLE
  2
VIEW
  5
6
330
0
100
AcDbSymbolTable
 70
     0
  0
ENDTAB
  0
TABLE
  2
UCS
  5
7
330
0
100
AcDbSymbolTable
 70
     0
  0
ENDTAB
  0
TABLE
  2
APPID
  5
9
330
0
100
AcDbSymbolTable
 70
     1
  0
APPID
  5
12
330
9
100
AcDbSymbolTableRecord
100
AcDbRegAppTableRecord
  2
ACAD
 70
     0
  0
ENDTAB
  0
TABLE
  2
DIMSTYLE
  5
A
330
0
100
AcDbSymbolTable
 70
     1
100
AcDbDimStyleTable
  0
DIMSTYLE
105
27
330
A
100
AcDbSymbolTableRecord
100
AcDbDimStyleTableRecord
  2
ISO-25
 70
     0
 41
2.5
 42
0.625
 43
3.75
 44
1.25
 73
     0
 74
     0
 77
     1
 78
     8
140
2.5
141
2.5
143
0.03937007874016
147
0.625
171
     3
172
     1
271
     2
272
     2
274
     3
278
    44
283
     0
284
     8
340
11
  0
ENDTAB
  0
TABLE
  2
BLOCK_RECORD
  5
1
330
0
100
AcDbSymbolTable
 70
     1
  0
BLOCK_RECORD
  5
1F
330
1
100
AcDbSymbolTableRecord
100
AcDbBlockTableRecord
  2
*Model_Space
340
22
 70
     0
280
     1
281
     0
  0
BLOCK_RECORD
  5
1B
330
1
100
AcDbSymbolTableRecord
100
AcDbBlockTableRecord
  2
*Paper_Space
340
1E
 70
     0
280
     1
281
     0
  0
BLOCK_RECORD
  5
23
330
1
100
AcDbSymbolTableRecord
100
AcDbBlockTableRecord
  2
*Paper_Space0
340
26
 70
     0
280
     1
281
     0
  0
ENDTAB
  0
ENDSEC
  0
SECTION
  2
BLOCKS
  0
BLOCK
  5
20
330
1F
100
AcDbEntity
  8
0
100
AcDbBlockBegin
  2
*Model_Space
 70
     0
 10
0.0
 20
0.0
 30
0.0
  3
*Model_Space
  1

  0
ENDBLK
  5
21
330
1F
100
AcDbEntity
  8
0
100
AcDbBlockEnd
  0
BLOCK
  5
1C
330
1B
100
AcDbEntity
 67
     1
  8
0
100
AcDbBlockBegin
  2
*Paper_Space
 70
     0
 10
0.0
 20
0.0
 30
0.0
  3
*Paper_Space
  1

  0
ENDBLK
  5
1D
330
1B
100
AcDbEntity
 67
     1
  8
0
100
AcDbBlockEnd
  0
BLOCK
  5
24
330
23
100
AcDbEntity
  8
0
100
AcDbBlockBegin
  2
*Paper_Space0
 70
     0
 10
0.0
 20
0.0
 30
0.0
  3
*Paper_Space0
  1

  0
ENDBLK
  5
25
330
23
100
AcDbEntity
  8
0
100
AcDbBlockEnd
  0
ENDSEC
  0
SECTION
  2
ENTITIES
  0
LINE
  5
48
330
1F
100
AcDbEntity
  8
通り芯
  6
JWW_CENTER1
 62
     4
370
     9
100
AcDbLine
 10
-741.8918918918919
 20
-80.61078458218958
 30
0.0
 11
-741.8918918918919
 21
188.3942846349768
 31
0.0
  0
LINE
  5
49
330
1F
100
AcDbEntity
  8
躯体
  6
JWW_CENTER1
 62
     3
370
     9
100
AcDbLine
 10
-730.3115844726562
 20
-47.35270732157929
 30
0.0
 11
-752.6286769557644
 21
-47.35270732157929
 31
0.0
  0
LINE
  5
4A
330
1F
100
AcDbEntity
  8
その他
  6
Continuous
 62
     2
370
     9
100
AcDbLine
 10
-629.8917203336148
 20
35.64726958403725
 30
0.0
 11
-641.891809411951
 21
35.64726958403725
 31
0.0
  0
LINE
  5
4B
330
1F
100
AcDbEntity
  8
その他
  6
Continuous
 62
     2
370
     9
100
AcDbLine
 10
-629.8917203336148
 20
59.64744774070951
 30
0.0
 11
-641.891809411951
 21
59.64744774070951
 31
0.0
  0
LINE
  5
4C
330
1F
100
AcDbEntity
  8
その他
  6
Continuous
 62
     2
370
     9
100
AcDbLine
 10
-629.8917203336148
 20
29.64728690482474
 30
0.0
 11
-641.891809411951
 21
29.64728690482474
 31
0.0
  0
LINE
  5
4D
330
1F
100
AcDbEntity
  8
その他
  6
Continuous
 62
     2
370
     9
100
AcDbLine
 10
-629.8917203336148
 20
65.64743041992188
 30
0.0
 11
-641.891809411951
 21
65.64743041992188
 31
0.0
  0
LINE
  5
4E
330
1F
100
AcDbEntity
  8
その他
  6
Continuous
 62
     2
370
     9
100
AcDbLine
 10
-597.391736829603
 20
69.64735701277448
 30
0.0
 11
-597.391736829603
 21
25.64736031197214
 31
0.0
  0
LINE
  5
4F
330
1F
100
AcDbEntity
  8
その他
  6
Continuous
 62
     2
370
     9
100
AcDbLine
 10
-597.391736829603
 20
69.64735701277448
 30
0.0
 11
-629.8917203336148
 21
69.64735701277448
 31
0.0
  0
LINE
  5
50
330
1F
100
AcDbEntity
  8
その他
  6
Continuous
 62
     2
370
     9
100
AcDbLine
 10
-597.391736829603
 20
25.64736031197214
 30
0.0
 11
-629.8917203336148
 21
25.64736031197214
 31
0.0
  0
LINE
  5
51
330
1F
100
AcDbEntity
  8
その他
  6
Continuous
 62
     2
370
     9
100
AcDbLine
 10
-629.8917203336148
 20
69.64735701277448
 30
0.0
 11
-629.8917203336148
 21
25.64736031197214
 31
0.0
  0
LINE
  5
52
330
1F
100
AcDbEntity
  8
通り芯
  6
JWW_CENTER1
 62
     4
370
     9
100
AcDbLine
 10
-586.8447381096918
 20
47.64735866237331
 30
0.0
 11
-881.4578494510135
 21
47.64735866237331
 31
0.0
  0
LINE
  5
53
330
1F
100
AcDbEntity
  8
躯体
  6
JWW_DASHED1
 62
     3
370
     9
100
AcDbLine
 10
-650.8919380806589
 20
47.64735866237331
 30
0.0
 11
-650.8919380806589
 21
39.64725803684544
 31
0.0
  0
LINE
  5
54
330
1F
100
AcDbEntity
  8
躯体
  6
Continuous
 62
     3
370
     9
100
AcDbLine
 10
-650.8919380806589
 20
47.64735866237331
 30
0.0
 11
-650.8919380806589
 21
55.64745928790117
 31
0.0
  0
LINE
  5
55
330
1F
100
AcDbEntity
  8
躯体
  6
JWW_CENTER1
 62
     3
370
     9
100
AcDbLine
 10
-730.8524879249367
 20
142.647424646326
 30
0.0
 11
-753.3503351984797
 21
142.647424646326
 31
0.0
  0
LINE
  5
56
330
1F
100
AcDbEntity
  8
躯体
  6
JWW_CENTER1
 62
     3
370
     9
100
AcDbLine
 10
-656.8918588999155
 20
33.78200634105795
 30
0.0
 11
-656.8918588999155
 21
61.37030936576224
 31
0.0
  0
LINE
  5
57
330
1F
100
AcDbEntity
  8
躯体
  6
Continuous
 62
     3
370
     9
100
AcDbLine
 10
-662.8917797191723
 20
55.64745928790117
 30
0.0
 11
-662.8917797191723
 21
47.64735866237331
 31
0.0
  0
LINE
  5
58
330
1F
100
AcDbEntity
  8
躯体
  6
JWW_DASHED1
 62
     3
370
     9
100
AcDbLine
 10
-662.8917797191723
 20
47.64735866237331
 30
0.0
 11
-662.8917797191723
 21
39.64725803684544
 31
0.0
  0
LINE
  5
59
330
1F
100
AcDbEntity
  8
通り芯
  6
Continuous
 62
     4
370
     9
100
AcDbLine
 10
-401.3513513513513
 20
-9.502579972550649
 30
0.0
 11
-401.3513513513513
 21
104.7972972972974
 31
0.0
  0
LINE
  5
5A
330
1F
100
AcDbEntity
  8
建具
  6
Continuous
 62
     6
370
     9
100
AcDbLine
 10
755.1486041094807
 20
117.5473764780406
 30
0.0
 11
311.1486486486487
 21
117.5473764780406
 31
0.0
  0
LINE
  5
5B
330
1F
100
AcDbEntity
  8
建具
  6
Continuous
 62
     6
370
     9
100
AcDbLine
 10
755.1486041094807
 20
-22.25265915329388
 30
0.0
 11
311.1486486486487
 21
-22.25265915329388
 31
0.0
  0
LINE
  5
5C
330
1F
100
AcDbEntity
  8
躯体
  6
Continuous
 62
     3
370
     9
100
AcDbLine
 10
311.1486486486487
 20
169.647315772804
 30
0.0
 11
299.1485595703125
 21
169.647315772804
 31
0.0
  0
LINE
  5
5D
330
1F
100
AcDbEntity
  8
躯体
  6
Continuous
 62
     3
370
     9
100
AcDbLine
 10
311.1486486486487
 20
-74.35259844805742
 30
0.0
 11
299.1485595703125
 21
-74.35259844805742
 31
0.0
  0
LINE
  5
5E
330
1F
100
AcDbEntity
  8
建具
  6
Continuous
 62
     6
370
     9
100
AcDbLine
 10
411.1486074086784
 20
-71.65265882337408
 30
0.0
 11
311.1486486486487
 21
-71.65265882337408
 31
0.0
  0
LINE
  5
5F
330
1F
100
AcDbEntity
  8
建具
  6
Continuous
 62
     6
370
     9
100
AcDbLine
 10
411.1486074086784
 20
-23.05263209987331
 30
0.0
 11
411.1486074086784
 21
-71.65265882337408
 31
0.0
  0
LINE
  5
60
330
1F
100
AcDbEntity
  8
建具
  6
Continuous
 62
     6
370
     9
100
AcDbLine
 10
411.1486074086784
 20
-23.05263209987331
 30
0.0
 11
311.1486486486487
 21
-23.05263209987331
 31
0.0
  0
LINE
  5
61
330
1F
100
AcDbEntity
  8
建具
  6
Continuous
 62
     6
370
     9
100
AcDbLine
 10
411.1486074086784
 20
166.9472524282095
 30
0.0
 11
311.1486486486487
 21
166.9472524282095
 31
0.0
  0
LINE
  5
62
330
1F
100
AcDbEntity
  8
建具
  6
Continuous
 62
     6
370
     9
100
AcDbLine
 10
411.1486074086784
 20
118.3473494246199
 30
0.0
 11
411.1486074086784
 21
166.9472524282095
 31
0.0
  0
LINE
  5
63
330
1F
100
AcDbEntity
  8
建具
  6
Continuous
 62
     6
370
     9
100
AcDbLine
 10
411.1486074086784
 20
118.3473494246199
 30
0.0
 11
311.1486486486487
 21
118.3473494246199
 31
0.0
  0
LINE
  5
64
330
1F
100
AcDbEntity
  8
建具
  6
Continuous
 62
     6
370
     9
100
AcDbLine
 10
411.1486074086784
 20
163.4474635768582
 30
0.0
 11
311.1486486486487
 21
163.4474635768582
 31
0.0
  0
LINE
  5
65
330
1F
100
AcDbEntity
  8
建具
  6
Continuous
 62
     6
370
     9
100
AcDbLine
 10
411.1486074086784
 20
121.847385715794
 30
0.0
 11
311.1486486486487
 21
121.847385715794
 31
0.0
  0
LINE
  5
66
330
1F
100
AcDbEntity
  8
建具
  6
Continuous
 62
     6
370
     9
100
AcDbLine
 10
755.1486041094807
 20
113.0474358635981
 30
0.0
 11
311.1486486486487
 21
113.0474358635981
 31
0.0
  0
LINE
  5
67
330
1F
100
AcDbEntity
  8
躯体
  6
Continuous
 62
     3
370
     9
100
AcDbLine
 10
299.1485595703125
 20
169.647315772804
 30
0.0
 11
299.1485595703125
 21
104.7972972972974
 31
0.0
  0
LINE
  5
68
330
1F
100
AcDbEntity
  8
通り芯
  6
JWW_DASHED1
 62
     4
370
     9
100
AcDbLine
 10
505.148645349451
 20
47.64735866237331
 30
0.0
 11
505.148645349451
 21
-9.502579972550649
 31
0.0
  0
LINE
  5
69
330
1F
100
AcDbEntity
  8
通り芯
  6
Continuous
 62
     4
370
     9
100
AcDbLine
 10
505.148645349451
 20
104.7972972972974
 30
0.0
 11
505.148645349451
 21
47.64735866237331
 31
0.0
  0
LINE
  5
6A
330
1F
100
AcDbEntity
  8
通り芯
  6
Continuous
 62
     4
370
     9
100
AcDbLine
 10
505.148645349451
 20
100.7974325644004
 30
0.0
 11
-401.3513513513513
 21
100.7974325644004
 31
0.0
  0
LINE
  5
6B
330
1F
100
AcDbEntity
  8
建具
  6
Continuous
 62
     6
370
     9
100
AcDbLine
 10
755.1486041094807
 20
-22.25265915329388
 30
0.0
 11
755.1486041094807
 21
117.5473764780406
 31
0.0
  0
LINE
  5
6C
330
1F
100
AcDbEntity
  8
躯体
  6
Continuous
 62
     3
370
     9
100
AcDbLine
 10
305.1486041094807
 20
36.64742134712839
 30
0.0
 11
299.1485595703125
 21
36.64742134712839
 31
0.0
  0
LINE
  5
6D
330
1F
100
AcDbEntity
  8
躯体
  6
JWW_DASHED1
 62
     3
370
     9
100
AcDbLine
 10
305.1486041094807
 20
58.64729597761823
 30
0.0
 11
299.1485595703125
 21
58.64729597761823
 31
0.0
  0
LINE
  5
6E
330
1F
100
AcDbEntity
  8
躯体
  6
Continuous
 62
     3
370
     9
100
AcDbLine
 10
311.1486486486487
 20
133.6472959776182
 30
0.0
 11
305.1486041094807
 21
133.6472959776182
 31
0.0
  0
LINE
  5
6F
330
1F
100
AcDbEntity
  8
躯体
  6
Continuous
 62
     3
370
     9
100
AcDbLine
 10
311.1486486486487
 20
151.6473058752112
 30
0.0
 11
305.1486041094807
 21
151.6473058752112
 31
0.0
  0
LINE
  5
70
330
1F
100
AcDbEntity
  8
躯体
  6
Continuous
 62
     3
370
     9
100
AcDbLine
 10
305.1486041094807
 20
169.647315772804
 30
0.0
 11
305.1486041094807
 21
104.7972972972974
 31
0.0
  0
LINE
  5
71
330
1F
100
AcDbEntity
  8
躯体
  6
Continuous
 62
     3
370
     9
100
AcDbLine
 10
355.148645349451
 20
150.6474015519426
 30
0.0
 11
355.148645349451
 21
134.6474477407095
 31
0.0
  0
LINE
  5
72
330
1F
100
AcDbEntity
  8
躯体
  6
Continuous
 62
     3
370
     9
100
AcDbLine
 10
355.148645349451
 20
134.6474477407095
 30
0.0
 11
305.1486041094807
 21
134.6474477407095
 31
0.0
  0
LINE
  5
73
330
1F
100
AcDbEntity
  8
躯体
  6
Continuous
 62
     3
370
     9
100
AcDbLine
 10
355.148645349451
 20
150.6474015519426
 30
0.0
 11
305.1486041094807
 21
150.6474015519426
 31
0.0
  0
LINE
  5
74
330
1F
100
AcDbEntity
  8
仕上
  6
JWW_CENTER1
 62
     2
370
     9
100
AcDbLine
 10
485.1485793654984
 20
-17.49686576224661
 30
0.0
 11
485.1485793654984
 21
112.0799461570947
 31
0.0
  0
LINE
  5
75
330
1F
100
AcDbEntity
  8
躯体
  6
Continuous
 62
     3
370
     9
100
AcDbLine
 10
311.1486486486487
 20
169.647315772804
 30
0.0
 11
311.1486486486487
 21
150.6474015519426
 31
0.0
  0
LINE
  5
76
330
1F
100
AcDbEntity
  8
躯体
  6
Continuous
 62
     3
370
     9
100
AcDbLine
 10
311.1486486486487
 20
134.6474477407095
 30
0.0
 11
311.1486486486487
 21
104.7972972972974
 31
0.0
  0
LINE
  5
77
330
1F
100
AcDbEntity
  8
通り芯
  6
JWW_DASHED1
 62
     4
370
     9
100
AcDbLine
 10
505.148645349451
 20
-5.502715239653639
 30
0.0
 11
-401.3513513513513
 21
-5.502715239653639
 31
0.0
  0
LINE
  5
78
330
1F
100
AcDbEntity
  8
建具
  6
JWW_DASHED1
 62
     6
370
     9
100
AcDbLine
 10
411.1486074086784
 20
-68.15262253220013
 30
0.0
 11
311.1486486486487
 21
-68.15262253220013
 31
0.0
  0
LINE
  5
79
330
1F
100
AcDbEntity
  8
建具
  6
JWW_DASHED1
 62
     6
370
     9
100
AcDbLine
 10
411.1486074086784
 20
-26.55266839104726
 30
0.0
 11
311.1486486486487
 21
-26.55266839104726
 31
0.0
  0
LINE
  5
7A
330
1F
100
AcDbEntity
  8
躯体
  6
JWW_DASHED1
 62
     3
370
     9
100
AcDbLine
 10
311.1486486486487
 20
-56.35258855046445
 30
0.0
 11
305.1486041094807
 21
-56.35258855046445
 31
0.0
  0
LINE
  5
7B
330
1F
100
AcDbEntity
  8
躯体
  6
JWW_DASHED1
 62
     3
370
     9
100
AcDbLine
 10
311.1486486486487
 20
-38.35270237278294
 30
0.0
 11
305.1486041094807
 21
-38.35270237278294
 31
0.0
  0
LINE
  5
7C
330
1F
100
AcDbEntity
  8
躯体
  6
JWW_DASHED1
 62
     3
370
     9
100
AcDbLine
 10
355.148645349451
 20
-39.35273041596275
 30
0.0
 11
355.148645349451
 21
-55.35268422719597
 31
0.0
  0
LINE
  5
7D
330
1F
100
AcDbEntity
  8
躯体
  6
JWW_DASHED1
 62
     3
370
     9
100
AcDbLine
 10
355.148645349451
 20
-55.35268422719597
 30
0.0
 11
305.1486041094807
 21
-55.35268422719597
 31
0.0
  0
LINE
  5
7E
330
1F
100
AcDbEntity
  8
躯体
  6
JWW_DASHED1
 62
     3
370
     9
100
AcDbLine
 10
355.148645349451
 20
-39.35273041596275
 30
0.0
 11
305.1486041094807
 21
-39.35273041596275
 31
0.0
  0
LINE
  5
7F
330
1F
100
AcDbEntity
  8
躯体
  6
Continuous
 62
     3
370
     9
100
AcDbLine
 10
311.1486486486487
 20
-55.35268422719597
 30
0.0
 11
311.1486486486487
 21
-74.35259844805742
 31
0.0
  0
LINE
  5
80
330
1F
100
AcDbEntity
  8
躯体
  6
JWW_DASHED1
 62
     3
370
     9
100
AcDbLine
 10
311.1486486486487
 20
-55.35268422719597
 30
0.0
 11
311.1486486486487
 21
-39.35273041596275
 31
0.0
  0
LINE
  5
81
330
1F
100
AcDbEntity
  8
建具
  6
JWW_DASHED1
 62
     6
370
     9
100
AcDbLine
 10
755.1486041094807
 20
-17.7527185388513
 30
0.0
 11
311.1486486486487
 21
-17.7527185388513
 31
0.0
  0
LINE
  5
82
330
1F
100
AcDbEntity
  8
躯体
  6
Continuous
 62
     3
370
     9
100
AcDbLine
 10
281.1485496727198
 20
37.64732567039701
 30
0.0
 11
278.1485892630914
 21
40.6472860800254
 31
0.0
  0
LINE
  5
83
330
1F
100
AcDbEntity
  8
躯体
  6
Continuous
 62
     3
370
     9
100
AcDbLine
 10
278.1485892630914
 20
47.64735866237331
 30
0.0
 11
278.1485892630914
 21
40.6472860800254
 31
0.0
  0
LINE
  5
84
330
1F
100
AcDbEntity
  8
躯体
  6
JWW_DASHED1
 62
     3
370
     9
100
AcDbLine
 10
305.1486041094807
 20
-10.10262154244089
 30
0.0
 11
299.1485595703125
 21
-10.10262154244089
 31
0.0
  0
LINE
  5
85
330
1F
100
AcDbEntity
  8
躯体
  6
Continuous
 62
     3
370
     9
100
AcDbLine
 10
305.1486041094807
 20
105.3973388671875
 30
0.0
 11
299.1485595703125
 21
105.3973388671875
 31
0.0
  0
LINE
  5
86
330
1F
100
AcDbEntity
  8
躯体
  6
JWW_DASHED1
 62
     3
370
     9
100
AcDbLine
 10
311.1486486486487
 20
-17.7527185388513
 30
0.0
 11
305.1486041094807
 21
-17.7527185388513
 31
0.0
  0
LINE
  5
87
330
1F
100
AcDbEntity
  8
躯体
  6
Continuous
 62
     3
370
     9
100
AcDbLine
 10
311.1486486486487
 20
113.0474358635981
 30
0.0
 11
305.1486041094807
 21
113.0474358635981
 31
0.0
  0
LINE
  5
88
330
1F
100
AcDbEntity
  8
躯体
  6
Continuous
 62
     3
370
     9
100
AcDbLine
 10
281.1485496727198
 20
47.64735866237331
 30
0.0
 11
281.1485496727198
 21
37.64732567039701
 31
0.0
  0
LINE
  5
89
330
1F
100
AcDbEntity
  8
その他
  6
Continuous
 62
     2
370
     9
100
AcDbLine
 10
296.6485513223185
 20
25.64723659206081
 30
0.0
 11
289.6486024598818
 21
25.64723659206081
 31
0.0
  0
LINE
  5
8A
330
1F
100
AcDbEntity
  8
通り芯
  6
Continuous
 62
     4
370
     9
100
AcDbLine
 10
505.148645349451
 20
104.7972972972974
 30
0.0
 11
-403.2831140466638
 21
104.7972972972974
 31
0.0
  0
LINE
  5
8B
330
1F
100
AcDbEntity
  8
躯体
  6
JWW_DASHED1
 62
     3
370
     9
100
AcDbLine
 10
311.1486486486487
 20
47.64735866237331
 30
0.0
 11
311.1486486486487
 21
104.7972972972974
 31
0.0
  0
LINE
  5
8C
330
1F
100
AcDbEntity
  8
躯体
  6
JWW_DASHED1
 62
     3
370
     9
100
AcDbLine
 10
305.1486041094807
 20
47.64735866237331
 30
0.0
 11
305.1486041094807
 21
104.7972972972974
 31
0.0
  0
LINE
  5
8D
330
1F
100
AcDbEntity
  8
躯体
  6
Continuous
 62
     3
370
     9
100
AcDbLine
 10
311.1486486486487
 20
47.64735866237331
 30
0.0
 11
311.1486486486487
 21
-39.35273041596275
 31
0.0
  0
LINE
  5
8E
330
1F
100
AcDbEntity
  8
躯体
  6
Continuous
 62
     3
370
     9
100
AcDbLine
 10
305.1486041094807
 20
47.64735866237331
 30
0.0
 11
305.1486041094807
 21
-74.35259844805742
 31
0.0
  0
LINE
  5
8F
330
1F
100
AcDbEntity
  8
躯体
  6
Continuous
 62
     3
370
     9
100
AcDbLine
 10
287.6598048854518
 20
37.64732567039701
 30
0.0
 11
281.1485496727198
 21
37.64732567039701
 31
0.0
  0
LINE
  5
90
330
1F
100
AcDbEntity
  8
通り芯
  6
Continuous
 62
     4
370
     9
100
AcDbLine
 10
299.1485595703125
 20
-9.502579972550649
 30
0.0
 11
-403.2831140466638
 21
-9.502579972550649
 31
0.0
  0
LINE
  5
91
330
1F
100
AcDbEntity
  8
通り芯
  6
JWW_DASHED1
 62
     4
370
     9
100
AcDbLine
 10
299.1485595703125
 20
-9.502579972550649
 30
0.0
 11
505.148645349451
 21
-9.502579972550649
 31
0.0
  0
LINE
  5
92
330
1F
100
AcDbEntity
  8
仕上
  6
JWW_CENTER1
 62
     2
370
     9
100
AcDbLine
 10
335.1485793654984
 20
-16.88173036317565
 30
0.0
 11
335.1485793654984
 21
112.0799461570947
 31
0.0
  0
LINE
  5
93
330
1F
100
AcDbEntity
  8
仕上
  6
JWW_CENTER1
 62
     2
370
     9
100
AcDbLine
 10
489.6321889516472
 20
-12.50278782200169
 30
0.0
 11
481.0225203230576
 21
-12.50278782200169
 31
0.0
  0
LINE
  5
94
330
1F
100
AcDbEntity
  8
仕上
  6
JWW_CENTER1
 62
     2
370
     9
100
AcDbLine
 10
489.6321889516472
 20
107.7975051467483
 30
0.0
 11
481.0225203230576
 21
107.7975051467483
 31
0.0
  0
LINE
  5
95
330
1F
100
AcDbEntity
  8
仕上
  6
JWW_CENTER1
 62
     2
370
     9
100
AcDbLine
 10
339.6321889516472
 20
-12.50278782200169
 30
0.0
 11
331.0225203230576
 21
-12.50278782200169
 31
0.0
  0
LINE
  5
96
330
1F
100
AcDbEntity
  8
仕上
  6
JWW_CENTER1
 62
     2
370
     9
100
AcDbLine
 10
339.6321889516472
 20
107.7975051467483
 30
0.0
 11
331.0225203230576
 21
107.7975051467483
 31
0.0
  0
LINE
  5
97
330
1F
100
AcDbEntity
  8
建具
  6
JWW_CENTER1
 62
     6
370
     9
100
AcDbLine
 10
424.0277264569258
 20
-47.35270732157929
 30
0.0
 11
293.9397038640203
 21
-47.35270732157929
 31
0.0
  0
LINE
  5
98
330
1F
100
AcDbEntity
  8
建具
  6
JWW_CENTER1
 62
     6
370
     9
100
AcDbLine
 10
424.0277264569258
 20
142.647424646326
 30
0.0
 11
292.9985664986276
 21
142.647424646326
 31
0.0
  0
LINE
  5
99
330
1F
100
AcDbEntity
  8
仕上
  6
Continuous
 62
     2
370
     9
100
AcDbLine
 10
332.1486189558701
 20
107.7975051467483
 30
0.0
 11
332.1486189558701
 21
104.7972972972974
 31
0.0
  0
LINE
  5
9A
330
1F
100
AcDbEntity
  8
仕上
  6
Continuous
 62
     2
370
     9
100
AcDbLine
 10
338.148663495038
 20
107.7975051467483
 30
0.0
 11
338.148663495038
 21
104.7972972972974
 31
0.0
  0
LINE
  5
9B
330
1F
100
AcDbEntity
  8
仕上
  6
Continuous
 62
     2
370
     9
100
AcDbLine
 10
482.1486189558701
 20
107.7975051467483
 30
0.0
 11
482.1486189558701
 21
104.7972972972974
 31
0.0
  0
LINE
  5
9C
330
1F
100
AcDbEntity
  8
仕上
  6
Continuous
 62
     2
370
     9
100
AcDbLine
 10
488.148663495038
 20
107.7975051467483
 30
0.0
 11
488.148663495038
 21
104.7972972972974
 31
0.0
  0
LINE
  5
9D
330
1F
100
AcDbEntity
  8
仕上
  6
JWW_DASHED1
 62
     2
370
     9
100
AcDbLine
 10
332.1486189558701
 20
104.7972972972974
 30
0.0
 11
332.1486189558701
 21
-12.50278782200169
 31
0.0
  0
LINE
  5
9E
330
1F
100
AcDbEntity
  8
仕上
  6
JWW_DASHED1
 62
     2
370
     9
100
AcDbLine
 10
338.148663495038
 20
104.7972972972974
 30
0.0
 11
338.148663495038
 21
-12.50278782200169
 31
0.0
  0
LINE
  5
9F
330
1F
100
AcDbEntity
  8
仕上
  6
JWW_DASHED1
 62
     2
370
     9
100
AcDbLine
 10
482.1486189558701
 20
104.7972972972974
 30
0.0
 11
482.1486189558701
 21
-12.50278782200169
 31
0.0
  0
LINE
  5
A0
330
1F
100
AcDbEntity
  8
仕上
  6
JWW_DASHED1
 62
     2
370
     9
100
AcDbLine
 10
488.148663495038
 20
104.7972972972974
 30
0.0
 11
488.148663495038
 21
-12.50278782200169
 31
0.0
  0
LINE
  5
A1
330
1F
100
AcDbEntity
  8
躯体
  6
Continuous
 62
     3
370
     9
100
AcDbLine
 10
299.1485595703125
 20
47.64735866237331
 30
0.0
 11
299.1485595703125
 21
-74.35259844805742
 31
0.0
  0
LINE
  5
A2
330
1F
100
AcDbEntity
  8
躯体
  6
JWW_DASHED1
 62
     3
370
     9
100
AcDbLine
 10
285.1485381255279
 20
37.64732567039701
 30
0.0
 11
285.1485381255279
 21
47.64735866237331
 31
0.0
  0
LINE
  5
A3
330
1F
100
AcDbEntity
  8
躯体
  6
JWW_DASHED1
 62
     3
370
     9
100
AcDbLine
 10
297.1486272038641
 20
37.64732567039701
 30
0.0
 11
297.1486272038641
 21
47.64735866237331
 31
0.0
  0
LINE
  5
A4
330
1F
100
AcDbEntity
  8
躯体
  6
JWW_DASHED1
 62
     3
370
     9
100
AcDbLine
 10
305.1486041094807
 20
37.64732567039701
 30
0.0
 11
287.6598048854518
 21
37.64732567039701
 31
0.0
  0
LINE
  5
A5
330
1F
100
AcDbEntity
  8
躯体
  6
JWW_DASHED1
 62
     3
370
     9
100
AcDbLine
 10
299.1485595703125
 20
47.64735866237331
 30
0.0
 11
299.1485595703125
 21
104.7972972972974
 31
0.0
  0
LINE
  5
A6
330
1F
100
AcDbEntity
  8
その他
  6
JWW_CENTER1
 62
     2
370
     9
100
AcDbLine
 10
293.1485150311445
 20
24.03021735114024
 30
0.0
 11
293.1485150311445
 21
68.00645982896967
 31
0.0
  0
LINE
  5
A7
330
1F
100
AcDbEntity
  8
寸法
  6
Continuous
 62
    30
370
     5
100
AcDbLine
 10
413.4486842799831
 20
-23.05263209987331
 30
0.0
 11
413.4486842799831
 21
-71.65265882337408
 31
0.0
  0
LINE
  5
A8
330
1F
100
AcDbEntity
  8
寸法
  6
Continuous
 62
    30
370
     5
100
AcDbLine
 10
413.4486842799831
 20
118.3473494246199
 30
0.0
 11
413.4486842799831
 21
166.9472524282095
 31
0.0
  0
LINE
  5
A9
330
1F
100
AcDbEntity
  8
寸法
  6
Continuous
 62
    30
370
     5
100
AcDbLine
 10
413.4486842799831
 20
-71.65265882337408
 30
0.0
 11
411.1486074086784
 21
-71.65265882337408
 31
0.0
  0
LINE
  5
AA
330
1F
100
AcDbEntity
  8
寸法
  6
Continuous
 62
    30
370
     5
100
AcDbLine
 10
413.4486842799831
 20
-23.05263209987331
 30
0.0
 11
411.1486074086784
 21
-23.05263209987331
 31
0.0
  0
LINE
  5
AB
330
1F
100
AcDbEntity
  8
寸法
  6
Continuous
 62
    30
370
     5
100
AcDbLine
 10
413.4486842799831
 20
118.3473494246199
 30
0.0
 11
411.1486074086784
 21
118.3473494246199
 31
0.0
  0
LINE
  5
AC
330
1F
100
AcDbEntity
  8
寸法
  6
Continuous
 62
    30
370
     5
100
AcDbLine
 10
413.4486842799831
 20
166.9472524282095
 30
0.0
 11
411.1486074086784
 21
166.9472524282095
 31
0.0
  0
LINE
  5
AD
330
1F
100
AcDbEntity
  8
ハッチ
  6
Continuous
 62
     3
370
     9
100
AcDbLine
 10
414.4485886032518
 20
-54.85273206556158
 30
0.0
 11
413.4486842799831
 21
-54.85273206556158
 31
0.0
  0
LINE
  5
AE
330
1F
100
AcDbEntity
  8
ハッチ
  6
Continuous
 62
     3
370
     9
100
AcDbLine
 10
414.4485886032518
 20
-39.85255885768581
 30
0.0
 11
413.4486842799831
 21
-39.85255885768581
 31
0.0
  0
LINE
  5
AF
330
1F
100
AcDbEntity
  8
ハッチ
  6
Continuous
 62
     3
370
     9
100
AcDbLine
 10
414.4485886032518
 20
-39.85255885768581
 30
0.0
 11
414.4485886032518
 21
-54.85273206556158
 31
0.0
  0
LINE
  5
B0
330
1F
100
AcDbEntity
  8
ハッチ
  6
JWW_DASHED1
 62
     3
370
     9
100
AcDbLine
 10
409.4485721072635
 20
-52.35260009765625
 30
0.0
 11
413.4486842799831
 21
-52.35260009765625
 31
0.0
  0
LINE
  5
B1
330
1F
100
AcDbEntity
  8
ハッチ
  6
JWW_DASHED1
 62
     3
370
     9
100
AcDbLine
 10
407.4486397408151
 20
-44.35274691195104
 30
0.0
 11
407.4486397408151
 21
-50.35254401129635
 31
0.0
  0
LINE
  5
B2
330
1F
100
AcDbEntity
  8
ハッチ
  6
JWW_DASHED1
 62
     3
370
     9
100
AcDbLine
 10
409.4485721072635
 20
-42.35269082559114
 30
0.0
 11
413.4486842799831
 21
-42.35269082559114
 31
0.0
  0
LINE
  5
B3
330
1F
100
AcDbEntity
  8
ハッチ
  6
Continuous
 62
     3
370
     9
100
AcDbLine
 10
414.4485886032518
 20
135.1472761824324
 30
0.0
 11
413.4486842799831
 21
135.1472761824324
 31
0.0
  0
LINE
  5
B4
330
1F
100
AcDbEntity
  8
ハッチ
  6
Continuous
 62
     3
370
     9
100
AcDbLine
 10
414.4485886032518
 20
150.147325670397
 30
0.0
 11
413.4486842799831
 21
150.147325670397
 31
0.0
  0
LINE
  5
B5
330
1F
100
AcDbEntity
  8
ハッチ
  6
Continuous
 62
     3
370
     9
100
AcDbLine
 10
414.4485886032518
 20
150.147325670397
 30
0.0
 11
414.4485886032518
 21
135.1472761824324
 31
0.0
  0
LINE
  5
B6
330
1F
100
AcDbEntity
  8
ハッチ
  6
Continuous
 62
     3
370
     9
100
AcDbLine
 10
409.4485721072635
 20
137.6474081503379
 30
0.0
 11
413.4486842799831
 21
137.6474081503379
 31
0.0
  0
LINE
  5
B7
330
1F
100
AcDbEntity
  8
ハッチ
  6
Continuous
 62
     3
370
     9
100
AcDbLine
 10
407.4486397408151
 20
145.6473850559544
 30
0.0
 11
407.4486397408151
 21
139.6474642366977
 31
0.0
  0
LINE
  5
B8
330
1F
100
AcDbEntity
  8
ハッチ
  6
Continuous
 62
     3
370
     9
100
AcDbLine
 10
409.4485721072635
 20
147.6474411423142
 30
0.0
 11
413.4486842799831
 21
147.6474411423142
 31
0.0
  0
LINE
  5
B9
330
1F
100
AcDbEntity
  8
躯体
  6
Continuous
 62
     3
370
     9
100
AcDbLine
 10
326.1485744167018
 20
47.64735866237331
 30
0.0
 11
326.1485744167018
 21
39.64738175675677
 31
0.0
  0
LINE
  5
BA
330
1F
100
AcDbEntity
  8
躯体
  6
Continuous
 62
     3
370
     9
100
AcDbLine
 10
326.1485744167018
 20
39.64738175675677
 30
0.0
 11
328.1486305030617
 21
41.64743784311653
 31
0.0
  0
LINE
  5
BB
330
1F
100
AcDbEntity
  8
躯体
  6
Continuous
 62
     3
370
     9
100
AcDbLine
 10
328.1486305030617
 20
47.64735866237331
 30
0.0
 11
328.1486305030617
 21
41.64743784311653
 31
0.0
  0
LINE
  5
BC
330
1F
100
AcDbEntity
  8
躯体
  6
Continuous
 62
     3
370
     9
100
AcDbLine
 10
312.3486080685177
 20
47.64735866237331
 30
0.0
 11
312.3486080685177
 21
34.64736526076862
 31
0.0
  0
LINE
  5
BD
330
1F
100
AcDbEntity
  8
躯体
  6
Continuous
 62
     3
370
     9
100
AcDbLine
 10
312.3486080685177
 20
34.64736526076862
 30
0.0
 11
311.1486486486487
 21
34.64736526076862
 31
0.0
  0
LINE
  5
BE
330
1F
100
AcDbEntity
  8
躯体
  6
Continuous
 62
     2
370
     9
100
AcDbLine
 10
323.9918889226141
 20
33.79740947001693
 30
0.0
 11
312.3486080685177
 21
33.79740947001693
 31
0.0
  0
LINE
  5
BF
330
1F
100
AcDbEntity
  8
躯体
  6
Continuous
 62
     2
370
     9
100
AcDbLine
 10
323.9918889226141
 20
40.72572450380065
 30
0.0
 11
312.3486080685177
 21
40.72572450380065
 31
0.0
  0
LINE
  5
C0
330
1F
100
AcDbEntity
  8
躯体
  6
Continuous
 62
     2
370
     9
100
AcDbLine
 10
312.3486080685177
 20
47.64735866237331
 30
0.0
 11
312.3486080685177
 21
33.79740947001693
 31
0.0
  0
LINE
  5
C1
330
1F
100
AcDbEntity
  8
躯体
  6
Continuous
 62
     2
370
     9
100
AcDbLine
 10
325.3486014701227
 20
47.64735866237331
 30
0.0
 11
325.3486014701227
 21
37.2613195470862
 31
0.0
  0
LINE
  5
C2
330
1F
100
AcDbEntity
  8
躯体
  6
Continuous
 62
     3
370
     9
100
AcDbLine
 10
326.1485744167018
 20
39.64738175675677
 30
0.0
 11
325.3486014701227
 21
39.64738175675677
 31
0.0
  0
LINE
  5
C3
330
1F
100
AcDbEntity
  8
躯体
  6
Continuous
 62
     3
370
     9
100
AcDbLine
 10
328.1486305030617
 20
41.64743784311653
 30
0.0
 11
325.3486014701227
 21
41.64743784311653
 31
0.0
  0
LINE
  5
C4
330
1F
100
AcDbEntity
  8
0-F
  6
Continuous
 62
     7
370
     9
100
AcDbLine
 10
-424.851453626478
 20
369.3371911951015
 30
0.0
 11
755.1486041094807
 21
369.3371911951015
 31
0.0
  0
LINE
  5
C5
330
1F
100
AcDbEntity
  8
0-F
  6
Continuous
 62
     7
370
     9
100
AcDbLine
 10
-424.851453626478
 20
57.64739165434975
 30
0.0
 11
-424.851453626478
 21
370.8371713999156
 31
0.0
  0
LINE
  5
C6
330
1F
100
AcDbEntity
  8
0-F
  6
Continuous
 62
     7
370
     9
100
AcDbLine
 10
755.1486041094807
 20
127.5474094700169
 30
0.0
 11
755.1486041094807
 21
370.8371713999156
 31
0.0
  0
LINE
  5
C7
330
1F
100
AcDbEntity
  8
0-F
  6
Continuous
 62
     7
370
     9
100
AcDbLine
 10
-424.851453626478
 20
369.3371911951015
 30
0.0
 11
-409.9797016865497
 21
371.2951825116133
 31
0.0
  0
LINE
  5
C8
330
1F
100
AcDbEntity
  8
0-F
  6
Continuous
 62
     7
370
     9
100
AcDbLine
 10
-424.851453626478
 20
369.3371911951015
 30
0.0
 11
-409.9797016865497
 21
367.3794473184122
 31
0.0
  0
LINE
  5
C9
330
1F
100
AcDbEntity
  8
0-F
  6
Continuous
 62
     7
370
     9
100
AcDbLine
 10
755.1486041094807
 20
369.3371911951015
 30
0.0
 11
740.2769758894638
 21
371.2951825116133
 31
0.0
  0
LINE
  5
CA
330
1F
100
AcDbEntity
  8
0-F
  6
Continuous
 62
     7
370
     9
100
AcDbLine
 10
755.1486041094807
 20
369.3371911951015
 30
0.0
 11
740.2769758894638
 21
367.3794473184122
 31
0.0
  0
LINE
  5
CB
330
1F
100
AcDbEntity
  8
ハッチ
  6
JWW_PHANTOM1
 62
     6
370
     9
100
AcDbLine
 10
305.1486041094807
 20
169.647315772804
 30
0.0
 11
305.1486041094807
 21
330.103751517631
 31
0.0
  0
LINE
  5
CC
330
1F
100
AcDbEntity
  8
0-F
  6
Continuous
 62
     7
370
     9
100
AcDbLine
 10
-424.8513299065667
 20
312.0092196077914
 30
0.0
 11
755.1486041094807
 21
312.0092196077914
 31
0.0
  0
LINE
  5
CD
330
1F
100
AcDbEntity
  8
0-F
  6
Continuous
 62
     7
370
     9
100
AcDbLine
 10
-424.8513299065667
 20
312.0092196077914
 30
0.0
 11
-409.9797016865497
 21
313.9670872043919
 31
0.0
  0
LINE
  5
CE
330
1F
100
AcDbEntity
  8
0-F
  6
Continuous
 62
     7
370
     9
100
AcDbLine
 10
-424.8513299065667
 20
312.0092196077914
 30
0.0
 11
-409.9797016865497
 21
310.0513520111909
 31
0.0
  0
LINE
  5
CF
330
1F
100
AcDbEntity
  8
0-F
  6
Continuous
 62
     7
370
     9
100
AcDbLine
 10
320.0202323294977
 20
310.0513520111909
 30
0.0
 11
290.2769758894638
 21
313.9670872043919
 31
0.0
  0
LINE
  5
D0
330
1F
100
AcDbEntity
  8
0-F
  6
Continuous
 62
     7
370
     9
100
AcDbLine
 10
320.0202323294977
 20
313.9670872043919
 30
0.0
 11
290.2769758894638
 21
310.0513520111909
 31
0.0
  0
LINE
  5
D1
330
1F
100
AcDbEntity
  8
0-F
  6
Continuous
 62
     7
370
     9
100
AcDbLine
 10
755.1486041094807
 20
312.0092196077914
 30
0.0
 11
740.2769758894638
 21
313.9670872043919
 31
0.0
  0
LINE
  5
D2
330
1F
100
AcDbEntity
  8
0-F
  6
Continuous
 62
     7
370
     9
100
AcDbLine
 10
755.1486041094807
 20
312.0092196077914
 30
0.0
 11
740.2769758894638
 21
310.0513520111909
 31
0.0
  0
LINE
  5
D3
330
1F
100
AcDbEntity
  8
0-F
  6
Continuous
 62
     7
370
     9
100
AcDbLine
 10
305.1486041094807
 20
215.1336834881758
 30
0.0
 11
411.1486074086784
 21
215.1336834881758
 31
0.0
  0
LINE
  5
D4
330
1F
100
AcDbEntity
  8
0-F
  6
Continuous
 62
     7
370
     9
100
AcDbLine
 10
411.1486074086784
 20
176.9472854201858
 30
0.0
 11
411.1486074086784
 21
216.63366369299
 31
0.0
  0
LINE
  5
D5
330
1F
100
AcDbEntity
  8
0-F
  6
Continuous
 62
     7
370
     9
100
AcDbLine
 10
305.1486041094807
 20
215.1336834881758
 30
0.0
 11
320.0202323294977
 21
217.0915510847762
 31
0.0
  0
LINE
  5
D6
330
1F
100
AcDbEntity
  8
0-F
  6
Continuous
 62
     7
370
     9
100
AcDbLine
 10
305.1486041094807
 20
215.1336834881758
 30
0.0
 11
320.0202323294977
 21
213.1758158915753
 31
0.0
  0
LINE
  5
D7
330
1F
100
AcDbEntity
  8
0-F
  6
Continuous
 62
     7
370
     9
100
AcDbLine
 10
411.1486074086784
 20
215.1336834881758
 30
0.0
 11
396.2769791886615
 21
217.0915510847762
 31
0.0
  0
LINE
  5
D8
330
1F
100
AcDbEntity
  8
0-F
  6
Continuous
 62
     7
370
     9
100
AcDbLine
 10
411.1486074086784
 20
215.1336834881758
 30
0.0
 11
396.2769791886615
 21
213.1758158915753
 31
0.0
  0
LINE
  5
D9
330
1F
100
AcDbEntity
  8
0-F
  6
Continuous
 62
     7
370
     9
100
AcDbLine
 10
299.1485595703125
 20
179.6473487647805
 30
0.0
 11
299.1485595703125
 21
264.1585643871412
 31
0.0
  0
LINE
  5
DA
330
1F
100
AcDbEntity
  8
0-F
  6
Continuous
 62
     7
370
     9
100
AcDbLine
 10
299.1485595703125
 20
262.658584182327
 30
0.0
 11
284.2769313502956
 21
264.6164517789275
 31
0.0
  0
LINE
  5
DB
330
1F
100
AcDbEntity
  8
0-F
  6
Continuous
 62
     7
370
     9
100
AcDbLine
 10
299.1485595703125
 20
262.658584182327
 30
0.0
 11
284.2769313502956
 21
260.7007165857265
 31
0.0
  0
LINE
  5
DC
330
1F
100
AcDbEntity
  8
0-F
  6
Continuous
 62
     7
370
     9
100
AcDbLine
 10
267.4283826673354
 20
262.658584182327
 30
0.0
 11
505.148645349451
 21
262.658584182327
 31
0.0
  0
LINE
  5
DD
330
1F
100
AcDbEntity
  8
0-F
  6
Continuous
 62
     7
370
     9
100
AcDbLine
 10
505.148645349451
 20
114.7973302892737
 30
0.0
 11
505.148645349451
 21
264.1585643871412
 31
0.0
  0
LINE
  5
DE
330
1F
100
AcDbEntity
  8
0-F
  6
Continuous
 62
     7
370
     9
100
AcDbLine
 10
305.1486041094807
 20
262.658584182327
 30
0.0
 11
320.0202323294977
 21
264.6164517789275
 31
0.0
  0
LINE
  5
DF
330
1F
100
AcDbEntity
  8
0-F
  6
Continuous
 62
     7
370
     9
100
AcDbLine
 10
305.1486041094807
 20
262.658584182327
 30
0.0
 11
320.0202323294977
 21
260.7007165857265
 31
0.0
  0
LINE
  5
E0
330
1F
100
AcDbEntity
  8
0-F
  6
Continuous
 62
     7
370
     9
100
AcDbLine
 10
505.148645349451
 20
262.658584182327
 30
0.0
 11
490.2770171294341
 21
264.6164517789275
 31
0.0
  0
LINE
  5
E1
330
1F
100
AcDbEntity
  8
0-F
  6
Continuous
 62
     7
370
     9
100
AcDbLine
 10
505.148645349451
 20
262.658584182327
 30
0.0
 11
490.2770171294341
 21
260.7007165857265
 31
0.0
  0
LINE
  5
E2
330
1F
100
AcDbEntity
  8
0-F
  6
Continuous
 62
     7
370
     9
100
AcDbLine
 10
838.3007565060177
 20
-22.25265915329388
 30
0.0
 11
838.3007565060177
 21
117.5473764780406
 31
0.0
  0
LINE
  5
E3
330
1F
100
AcDbEntity
  8
0-F
  6
Continuous
 62
     7
370
     9
100
AcDbLine
 10
765.1486371014571
 20
-22.25265915329388
 30
0.0
 11
839.8007367108321
 21
-22.25265915329388
 31
0.0
  0
LINE
  5
E4
330
1F
100
AcDbEntity
  8
0-F
  6
Continuous
 62
     7
370
     9
100
AcDbLine
 10
765.1486371014571
 20
117.5473764780406
 30
0.0
 11
839.8007367108321
 21
117.5473764780406
 31
0.0
  0
LINE
  5
E5
330
1F
100
AcDbEntity
  8
0-F
  6
Continuous
 62
     7
370
     9
100
AcDbLine
 10
838.3007565060177
 20
-22.25265915329388
 30
0.0
 11
836.3428889094175
 21
-7.380969073321353
 31
0.0
  0
LINE
  5
E6
330
1F
100
AcDbEntity
  8
0-F
  6
Continuous
 62
     7
370
     9
100
AcDbLine
 10
838.3007565060177
 20
-22.25265915329388
 30
0.0
 11
840.2586241026182
 21
-7.380969073321353
 31
0.0
  0
LINE
  5
E7
330
1F
100
AcDbEntity
  8
0-F
  6
Continuous
 62
     7
370
     9
100
AcDbLine
 10
838.3007565060177
 20
117.5473764780406
 30
0.0
 11
836.3428889094175
 21
102.675686398068
 31
0.0
  0
LINE
  5
E8
330
1F
100
AcDbEntity
  8
0-F
  6
Continuous
 62
     7
370
     9
100
AcDbLine
 10
838.3007565060177
 20
117.5473764780406
 30
0.0
 11
840.2586241026182
 21
102.675686398068
 31
0.0
  0
LINE
  5
E9
330
1F
100
AcDbEntity
  8
0-F
  6
Continuous
 62
     7
370
     9
100
AcDbLine
 10
-486.2291490709459
 20
-9.502579972550649
 30
0.0
 11
-486.2291490709459
 21
104.7972972972974
 31
0.0
  0
LINE
  5
EA
330
1F
100
AcDbEntity
  8
0-F
  6
Continuous
 62
     7
370
     9
100
AcDbLine
 10
-411.3513843433277
 20
-9.502579972550649
 30
0.0
 11
-487.7291292757601
 21
-9.502579972550649
 31
0.0
  0
LINE
  5
EB
330
1F
100
AcDbEntity
  8
0-F
  6
Continuous
 62
     7
370
     9
100
AcDbLine
 10
-411.3512606234164
 20
104.7972972972974
 30
0.0
 11
-487.7291292757601
 21
104.7972972972974
 31
0.0
  0
LINE
  5
EC
330
1F
100
AcDbEntity
  8
0-F
  6
Continuous
 62
     7
370
     9
100
AcDbLine
 10
-486.2291490709459
 20
-9.502579972550649
 30
0.0
 11
-488.1870166675464
 21
5.369110107421875
 31
0.0
  0
LINE
  5
ED
330
1F
100
AcDbEntity
  8
0-F
  6
Continuous
 62
     7
370
     9
100
AcDbLine
 10
-486.2291490709459
 20
-9.502579972550649
 30
0.0
 11
-484.2712814743454
 21
5.369110107421875
 31
0.0
  0
LINE
  5
EE
330
1F
100
AcDbEntity
  8
0-F
  6
Continuous
 62
     7
370
     9
100
AcDbLine
 10
-486.2291490709459
 20
104.7972972972974
 30
0.0
 11
-488.1870166675464
 21
89.92560721732474
 31
0.0
  0
LINE
  5
EF
330
1F
100
AcDbEntity
  8
0-F
  6
Continuous
 62
     7
370
     9
100
AcDbLine
 10
-486.2291490709459
 20
104.7972972972974
 30
0.0
 11
-484.2712814743454
 21
89.92560721732474
 31
0.0
  0
LINE
  5
F0
330
1F
100
AcDbEntity
  8
0-F
  6
Continuous
 62
     7
370
     9
100
AcDbLine
 10
548.5681482263516
 20
-124.641401961043
 30
0.0
 11
856.6901129645271
 21
-124.641401961043
 31
0.0
  0
LINE
  5
F1
330
1F
100
AcDbEntity
  8
0-F
  6
Continuous
 62
     7
370
     9
100
AcDbLine
 10
-158.3575274493242
 20
-103.8697567501583
 30
0.0
 11
60.79274770375847
 21
-103.8697567501583
 31
0.0
  0
LINE
  5
F2
330
1F
100
AcDbEntity
  8
0-F
  6
Continuous
 62
     7
370
     9
100
AcDbLine
 10
-158.3575274493242
 20
-103.8697567501583
 30
0.0
 11
-199.2266062143686
 21
-9.502579972550649
 31
0.0
  0
LINE
  5
F3
330
1F
100
AcDbEntity
  8
0-F
  6
Continuous
 62
     7
370
     9
100
AcDbLine
 10
-41.23040276604726
 20
-192.4212935164168
 30
0.0
 11
195.2061421162374
 21
-192.4212935164168
 31
0.0
  0
LINE
  5
F4
330
1F
100
AcDbEntity
  8
0-F
  6
Continuous
 62
     7
370
     9
100
AcDbLine
 10
195.2061421162374
 20
-192.4212935164168
 30
0.0
 11
289.6486024598818
 21
25.64723659206081
 31
0.0
  0
LINE
  5
F5
330
1F
100
AcDbEntity
  8
0-F
  6
Continuous
 62
     7
370
     9
100
AcDbLine
 10
289.6486024598818
 20
25.64723659206081
 30
0.0
 11
285.5350391284841
 21
11.22229911185599
 31
0.0
  0
LINE
  5
F6
330
1F
100
AcDbEntity
  8
0-F
  6
Continuous
 62
     7
370
     9
100
AcDbLine
 10
289.6486024598818
 20
25.64723659206081
 30
0.0
 11
281.9417180241766
 21
12.77851001636407
 31
0.0
  0
LINE
  5
F7
330
1F
100
AcDbEntity
  8
0-F
  6
Continuous
 62
     7
370
     9
100
AcDbLine
 10
548.5681482263516
 20
-124.641401961043
 30
0.0
 11
504.2250762114654
 21
-22.25265915329388
 31
0.0
  0
LINE
  5
F8
330
1F
100
AcDbEntity
  8
0-F
  6
Continuous
 62
     7
370
     9
100
AcDbLine
 10
504.2250762114654
 20
-22.25265915329388
 30
0.0
 11
511.9319606471706
 21
-35.12138572899062
 31
0.0
  0
LINE
  5
F9
330
1F
100
AcDbEntity
  8
0-F
  6
Continuous
 62
     7
370
     9
100
AcDbLine
 10
504.2250762114654
 20
-22.25265915329388
 30
0.0
 11
508.3386395428633
 21
-36.67759663349869
 31
0.0
  0
LINE
  5
FA
330
1F
100
AcDbEntity
  8
0-F
  6
Continuous
 62
     7
370
     9
100
AcDbLine
 10
215.9484038481843
 20
-47.35270732157929
 30
0.0
 11
215.9484038481843
 21
142.647424646326
 31
0.0
  0
LINE
  5
FB
330
1F
100
AcDbEntity
  8
0-F
  6
Continuous
 62
     7
370
     9
100
AcDbLine
 10
283.939670872044
 20
-47.35270732157929
 30
0.0
 11
214.4484236433701
 21
-47.35270732157929
 31
0.0
  0
LINE
  5
FC
330
1F
100
AcDbEntity
  8
0-F
  6
Continuous
 62
     7
370
     9
100
AcDbLine
 10
282.9985335066513
 20
142.647424646326
 30
0.0
 11
214.4484236433701
 21
142.647424646326
 31
0.0
  0
LINE
  5
FD
330
1F
100
AcDbEntity
  8
0-F
  6
Continuous
 62
     7
370
     9
100
AcDbLine
 10
215.9484038481843
 20
-47.35270732157929
 30
0.0
 11
213.9905362515837
 21
-32.48101724160676
 31
0.0
  0
LINE
  5
FE
330
1F
100
AcDbEntity
  8
0-F
  6
Continuous
 62
     7
370
     9
100
AcDbLine
 10
215.9484038481843
 20
-47.35270732157929
 30
0.0
 11
217.9062714447846
 21
-32.48101724160676
 31
0.0
  0
LINE
  5
FF
330
1F
100
AcDbEntity
  8
0-F
  6
Continuous
 62
     7
370
     9
100
AcDbLine
 10
215.9484038481843
 20
142.647424646326
 30
0.0
 11
213.9905362515837
 21
127.7757345663535
 31
0.0
  0
LINE
  5
100
330
1F
100
AcDbEntity
  8
0-F
  6
Continuous
 62
     7
370
     9
100
AcDbLine
 10
215.9484038481843
 20
142.647424646326
 30
0.0
 11
217.9062714447846
 21
127.7757345663535
 31
0.0
  0
LINE
  5
101
330
1F
100
AcDbEntity
  8
0-F
  6
Continuous
 62
     7
370
     9
100
AcDbLine
 10
170.8360414247255
 20
-74.35259844805742
 30
0.0
 11
170.8360414247255
 21
169.647315772804
 31
0.0
  0
LINE
  5
102
330
1F
100
AcDbEntity
  8
0-F
  6
Continuous
 62
     7
370
     9
100
AcDbLine
 10
289.1485265783362
 20
-74.35259844805742
 30
0.0
 11
169.3360612199113
 21
-74.35259844805742
 31
0.0
  0
LINE
  5
103
330
1F
100
AcDbEntity
  8
0-F
  6
Continuous
 62
     7
370
     9
100
AcDbLine
 10
289.1485265783362
 20
169.647315772804
 30
0.0
 11
169.3360612199113
 21
169.647315772804
 31
0.0
  0
LINE
  5
104
330
1F
100
AcDbEntity
  8
0-F
  6
Continuous
 62
     7
370
     9
100
AcDbLine
 10
170.8360414247255
 20
-74.35259844805742
 30
0.0
 11
168.878173828125
 21
-59.4809083680849
 31
0.0
  0
LINE
  5
105
330
1F
100
AcDbEntity
  8
0-F
  6
Continuous
 62
     7
370
     9
100
AcDbLine
 10
170.8360414247255
 20
-74.35259844805742
 30
0.0
 11
172.793909021326
 21
-59.4809083680849
 31
0.0
  0
LINE
  5
106
330
1F
100
AcDbEntity
  8
0-F
  6
Continuous
 62
     7
370
     9
100
AcDbLine
 10
170.8360414247255
 20
169.647315772804
 30
0.0
 11
168.878173828125
 21
154.7756256928315
 31
0.0
  0
LINE
  5
107
330
1F
100
AcDbEntity
  8
0-F
  6
Continuous
 62
     7
370
     9
100
AcDbLine
 10
170.8360414247255
 20
169.647315772804
 30
0.0
 11
172.793909021326
 21
154.7756256928315
 31
0.0
  0
LINE
  5
108
330
1F
100
AcDbEntity
  8
通り芯
  6
JWW_CENTER1
 62
     4
370
     9
100
AcDbLine
 10
135.122062064506
 20
47.64735866237331
 30
0.0
 11
-434.5152158994932
 21
47.64735866237331
 31
0.0
  0
LINE
  5
109
330
1F
100
AcDbEntity
  8
通り芯
  6
JWW_CENTER1
 62
     4
370
     9
100
AcDbLine
 10
776.3612489442568
 20
47.64735866237331
 30
0.0
 11
228.8303684543919
 21
47.64735866237331
 31
0.0
  0
LINE
  5
10A
330
1F
100
AcDbEntity
  8
ハッチ
  6
JWW_PHANTOM1
 62
     6
370
     9
100
AcDbLine
 10
305.1486041094807
 20
-74.35259844805742
 30
0.0
 11
305.1486041094807
 21
-212.184497730152
 31
0.0
  0
LINE
  5
10B
330
1F
100
AcDbEntity
  8
0-F
  6
Continuous
 62
     7
370
     9
100
AcDbLine
 10
-199.2266062143686
 20
-9.502579972550649
 30
0.0
 11
-191.5197217786634
 21
-22.37130654824739
 31
0.0
  0
LINE
  5
10C
330
1F
100
AcDbEntity
  8
0-F
  6
Continuous
 62
     7
370
     9
100
AcDbLine
 10
-199.2266062143686
 20
-9.502579972550649
 30
0.0
 11
-195.1129810230151
 21
-23.92751745275547
 31
0.0
  0
LINE
  5
10D
330
1F
100
AcDbEntity
  8
0-F
  6
Continuous
 62
     7
370
     9
100
AcDbLine
 10
-50.41833826013502
 20
104.7974210172086
 30
0.0
 11
-52.37620585673554
 21
119.6691110971813
 31
0.0
  0
LINE
  5
10E
330
1F
100
AcDbEntity
  8
0-F
  6
Continuous
 62
     7
370
     9
100
AcDbLine
 10
-50.41833826013502
 20
104.7974210172086
 30
0.0
 11
-48.46047066353464
 21
119.6691110971813
 31
0.0
  0
LINE
  5
10F
330
1F
100
AcDbEntity
  8
0-F
  6
Continuous
 62
     7
370
     9
100
AcDbLine
 10
-50.41833826013502
 20
100.7975562843117
 30
0.0
 11
-52.37620585673554
 21
85.9258662043392
 31
0.0
  0
LINE
  5
110
330
1F
100
AcDbEntity
  8
0-F
  6
Continuous
 62
     7
370
     9
100
AcDbLine
 10
-50.41833826013502
 20
100.7975562843117
 30
0.0
 11
-48.46047066353464
 21
85.9258662043392
 31
0.0
  0
LINE
  5
111
330
1F
100
AcDbEntity
  8
0-F
  6
Continuous
 62
     7
370
     9
100
AcDbLine
 10
-50.41833826013502
 20
137.1734371700803
 30
0.0
 11
-50.41833826013502
 21
78.86164484797305
 31
0.0
  0
CIRCLE
  5
112
330
1F
100
AcDbEntity
  8
通り芯
  6
Continuous
 62
     4
370
     9
100
AcDbCircle
 10
-741.8918918918919
 20
47.64735866237331
 30
0.0
 40
57.15000049487965
  0
CIRCLE
  5
113
330
1F
100
AcDbEntity
  8
躯体
  6
JWW_DASHED1
 62
     3
370
     9
100
AcDbCircle
 10
-741.8918918918919
 20
-47.35270732157929
 30
0.0
 40
7.999999619819023
  0
CIRCLE
  5
114
330
1F
100
AcDbEntity
  8
躯体
  6
JWW_DASHED1
 62
     3
370
     9
100
AcDbCircle
 10
-741.8918918918919
 20
142.647424646326
 30
0.0
 40
7.999999619819023
  0
ARC
  5
115
330
1F
100
AcDbEntity
  8
通り芯
  6
Continuous
 62
     4
370
     9
100
AcDbCircle
 10
-741.8918918918919
 20
47.64735866237331
 30
0.0
 40
53.15000044332969
100
AcDbArc
 50
0.0
 51
180.0009613037109
  0
ARC
  5
116
330
1F
100
AcDbEntity
  8
通り芯
  6
JWW_DASHED1
 62
     4
370
     9
100
AcDbCircle
 10
-741.8918918918919
 20
47.64735866237331
 30
0.0
 40
53.15000044332969
100
AcDbArc
 50
180.0009613037109
 51
0.0
  0
CIRCLE
  5
117
330
1F
100
AcDbEntity
  8
躯体
  6
JWW_DASHED1
 62
     3
370
     9
100
AcDbCircle
 10
-741.8918918918919
 20
142.647424646326
 30
0.0
 40
8.99999914942561
  0
CIRCLE
  5
118
330
1F
100
AcDbEntity
  8
躯体
  6
JWW_DASHED1
 62
     3
370
     9
100
AcDbCircle
 10
-741.8918918918919
 20
-47.35270732157929
 30
0.0
 40
8.99999914942561
  0
ARC
  5
119
330
1F
100
AcDbEntity
  8
その他
  6
Continuous
 62
     2
370
     9
100
AcDbCircle
 10
-641.891809411951
 20
47.64735866237331
 30
0.0
 40
11.99999918808808
100
AcDbArc
 50
90.0
 51
270.0
  0
ARC
  5
11A
330
1F
100
AcDbEntity
  8
その他
  6
Continuous
 62
     2
370
     9
100
AcDbCircle
 10
-641.891809411951
 20
47.64735866237331
 30
0.0
 40
17.99999829885122
100
AcDbArc
 50
90.0
 51
270.0
  0
ARC
  5
11B
330
1F
100
AcDbEntity
  8
躯体
  6
JWW_DASHED1
 62
     3
370
     9
100
AcDbCircle
 10
-741.8918918918919
 20
47.64735866237331
 30
0.0
 40
121.999995772903
100
AcDbArc
 50
349.6111450195312
 51
10.38885498046876
  0
ARC
  5
11C
330
1F
100
AcDbEntity
  8
躯体
  6
Continuous
 62
     3
370
     9
100
AcDbCircle
 10
-741.8918918918919
 20
47.64735866237331
 30
0.0
 40
121.999995772903
100
AcDbArc
 50
10.38885498046875
 51
349.6111450195312
  0
ARC
  5
11D
330
1F
100
AcDbEntity
  8
躯体
  6
Continuous
 62
     3
370
     9
100
AcDbCircle
 10
-656.8918588999155
 20
47.64735866237331
 30
0.0
 40
10.99999917520059
100
AcDbArc
 50
307.7434844970704
 51
52.25651550292972
  0
ARC
  5
11E
330
1F
100
AcDbEntity
  8
躯体
  6
Continuous
 62
     3
370
     9
100
AcDbCircle
 10
-656.8918588999155
 20
47.64735866237331
 30
0.0
 40
9.9999991623131
100
AcDbArc
 50
307.1090393066406
 51
52.89096069335935
  0
ARC
  5
11F
330
1F
100
AcDbEntity
  8
躯体
  6
JWW_DASHED1
 62
     3
370
     9
100
AcDbCircle
 10
-656.8918588999155
 20
47.64735866237331
 30
0.0
 40
9.9999991623131
100
AcDbArc
 50
270.1916198730469
 51
307.1090393066406
  0
ARC
  5
120
330
1F
100
AcDbEntity
  8
躯体
  6
JWW_DASHED1
 62
     3
370
     9
100
AcDbCircle
 10
-656.8918588999155
 20
47.64735866237331
 30
0.0
 40
9.9999991623131
100
AcDbArc
 50
52.89096069335938
 51
89.80838012695312
  0
ARC
  5
121
330
1F
100
AcDbEntity
  8
躯体
  6
Continuous
 62
     3
370
     9
100
AcDbCircle
 10
-656.8918588999155
 20
47.64735866237331
 30
0.0
 40
9.9999991623131
100
AcDbArc
 50
89.80838012695312
 51
270.1916198730469
  0
ARC
  5
122
330
1F
100
AcDbEntity
  8
躯体
  6
JWW_DASHED1
 62
     3
370
     9
100
AcDbCircle
 10
-656.8918588999155
 20
47.64735866237331
 30
0.0
 40
10.99999917520059
100
AcDbArc
 50
52.25651550292969
 51
86.17713928222656
  0
ARC
  5
123
330
1F
100
AcDbEntity
  8
躯体
  6
Continuous
 62
     3
370
     9
100
AcDbCircle
 10
-656.8918588999155
 20
47.64735866237331
 30
0.0
 40
10.99999917520059
100
AcDbArc
 50
86.17713928222656
 51
273.8228607177734
  0
ARC
  5
124
330
1F
100
AcDbEntity
  8
躯体
  6
JWW_DASHED1
 62
     3
370
     9
100
AcDbCircle
 10
-656.8918588999155
 20
47.64735866237331
 30
0.0
 40
10.99999917520059
100
AcDbArc
 50
273.8228607177734
 51
307.7434844970703
  0
CIRCLE
  5
125
330
1F
100
AcDbEntity
  8
仕上
  6
JWW_DASHED1
 62
     2
370
     9
100
AcDbCircle
 10
335.1485793654984
 20
-12.50278782200169
 30
0.0
 40
2.999999797022021
  0
CIRCLE
  5
126
330
1F
100
AcDbEntity
  8
仕上
  6
JWW_DASHED1
 62
     2
370
     9
100
AcDbCircle
 10
485.1485793654984
 20
-12.50278782200169
 30
0.0
 40
2.999999797022021
  0
ARC
  5
127
330
1F
100
AcDbEntity
  8
仕上
  6
JWW_DASHED1
 62
     2
370
     9
100
AcDbCircle
 10
485.1485793654984
 20
107.7975051467483
 30
0.0
 40
2.999999797022021
100
AcDbArc
 50
188.25927734375
 51
0.0
  0
ARC
  5
128
330
1F
100
AcDbEntity
  8
仕上
  6
Continuous
 62
     2
370
     9
100
AcDbCircle
 10
485.1485793654984
 20
107.7975051467483
 30
0.0
 40
2.999999797022021
100
AcDbArc
 50
0.0
 51
180.0
  0
ARC
  5
129
330
1F
100
AcDbEntity
  8
仕上
  6
JWW_DASHED1
 62
     2
370
     9
100
AcDbCircle
 10
335.1485793654984
 20
107.7975051467483
 30
0.0
 40
2.999999797022021
100
AcDbArc
 50
180.0
 51
0.0
  0
ARC
  5
12A
330
1F
100
AcDbEntity
  8
仕上
  6
Continuous
 62
     2
370
     9
100
AcDbCircle
 10
335.1485793654984
 20
107.7975051467483
 30
0.0
 40
2.999999797022021
100
AcDbArc
 50
0.0
 51
180.0
  0
ARC
  5
12B
330
1F
100
AcDbEntity
  8
通り芯
  6
Continuous
 62
     4
370
     9
100
AcDbCircle
 10
-338.3514404296875
 20
47.64735866237331
 30
0.0
 40
86.49999773180163
100
AcDbArc
 50
138.6472015380859
 51
221.3527984619141
  0
ARC
  5
12C
330
1F
100
AcDbEntity
  8
通り芯
  6
Continuous
 62
     4
370
     9
100
AcDbCircle
 10
-338.3514404296875
 20
47.64735866237331
 30
0.0
 40
84.49999577290302
100
AcDbArc
 50
138.2074127197266
 51
180.0
  0
ARC
  5
12D
330
1F
100
AcDbEntity
  8
通り芯
  6
JWW_DASHED1
 62
     4
370
     9
100
AcDbCircle
 10
-338.3514404296875
 20
47.64735866237331
 30
0.0
 40
84.49999577290302
100
AcDbArc
 50
180.0
 51
221.7925872802734
  0
ARC
  5
12E
330
1F
100
AcDbEntity
  8
その他
  6
Continuous
 62
     2
370
     9
100
AcDbCircle
 10
385.196252771326
 20
47.64735866237331
 30
0.0
 40
98.04768175692173
100
AcDbArc
 50
180.0
 51
192.9664611816406
  0
ARC
  5
12F
330
1F
100
AcDbEntity
  8
その他
  6
Continuous
 62
     2
370
     9
100
AcDbCircle
 10
201.1009010108742
 20
47.64735866237331
 30
0.0
 40
98.04768175692173
100
AcDbArc
 50
347.0335388183594
 51
0.0000000000000286
  0
ARC
  5
130
330
1F
100
AcDbEntity
  8
ハッチ
  6
JWW_DASHED1
 62
     3
370
     9
100
AcDbCircle
 10
409.4485721072635
 20
-50.35254401129635
 30
0.0
 40
1.999999904954756
100
AcDbArc
 50
180.0
 51
269.9978637695312
  0
ARC
  5
131
330
1F
100
AcDbEntity
  8
ハッチ
  6
JWW_DASHED1
 62
     3
370
     9
100
AcDbCircle
 10
409.4485721072635
 20
-44.35274691195104
 30
0.0
 40
1.999999904954756
100
AcDbArc
 50
90.00213623046875
 51
180.0
  0
ARC
  5
132
330
1F
100
AcDbEntity
  8
ハッチ
  6
Continuous
 62
     3
370
     9
100
AcDbCircle
 10
409.4485721072635
 20
139.6474642366977
 30
0.0
 40
1.999999904954756
100
AcDbArc
 50
180.0
 51
269.9978637695312
  0
ARC
  5
133
330
1F
100
AcDbEntity
  8
ハッチ
  6
Continuous
 62
     3
370
     9
100
AcDbCircle
 10
409.4485721072635
 20
145.6473850559544
 30
0.0
 40
1.999999904954756
100
AcDbArc
 50
90.00213623046875
 51
180.0
  0
ARC
  5
134
330
1F
100
AcDbEntity
  8
躯体
  6
Continuous
 62
     2
370
     9
100
AcDbCircle
 10
320.2480006862331
 20
37.2613195470862
 30
0.0
 40
5.100574203439662
100
AcDbArc
 50
317.22216796875
 51
42.77783203124999
  0
ARC
  5
135
330
1F
100
AcDbEntity
  8
躯体
  6
Continuous
 62
     2
370
     9
100
AcDbCircle
 10
307.0140529323268
 20
47.64735866237331
 30
0.0
 40
18.33455433716645
100
AcDbArc
 50
337.8193054199219
 51
0.0000000000000223
  0
TEXT
  5
136
330
1F
100
AcDbEntity
  8
0-F
  6
Continuous
 62
     2
370
     9
100
AcDbText
 10
513.8986041094806
 20
317.3292278557855
 30
0.0
 40
15.24
  1
450
 41
1.083333333333333
  7
ＭＳ ゴシック
100
AcDbText
  0
TEXT
  5
137
330
1F
100
AcDbEntity
  8
0-F
  6
Continuous
 62
     2
370
     9
100
AcDbText
 10
341.8986057590794
 20
220.4536917361698
 30
0.0
 40
15.24
  1
106
 41
1.083333333333333
  7
ＭＳ ゴシック
100
AcDbText
  0
TEXT
  5
138
330
1F
100
AcDbEntity
  8
0-F
  6
Continuous
 62
     2
370
     9
100
AcDbText
 10
269.5295344172298
 20
267.9785924303209
 30
0.0
 40
15.24
  1
6
 41
0.9999999999999998
  7
ＭＳ ゴシック
100
AcDbText
  0
TEXT
  5
139
330
1F
100
AcDbEntity
  8
0-F
  6
Continuous
 62
     2
370
     9
100
AcDbText
 10
-491.5491556251236
 20
8.897358539107298
 30
0.0
 40
15.24
  1
φ114.3
 50
90.00000250447816
 41
1.107142857142857
  7
ＭＳ ゴシック
100
AcDbText
  0
TEXT
  5
13A
330
1F
100
AcDbEntity
  8
0-F
  6
Continuous
 62
     2
370
     9
100
AcDbText
 10
832.98074995184
 20
8.897358539107298
 30
0.0
 40
15.24
  1
φ139.8
 50
90.00000250447816
 41
1.107142857142857
  7
ＭＳ ゴシック
100
AcDbText
  0
TEXT
  5
13B
330
1F
100
AcDbEntity
  8
0-F
  6
Continuous
 62
     2
370
     9
100
AcDbText
 10
556.8753051757814
 20
-114.2694148543074
 30
0.0
 40
15.24
  1
埋設管：ＳＧＰ管，１２５Ａ
 41
1.115384615384615
  7
ＭＳ ゴシック
100
AcDbText
  0
TEXT
  5
13C
330
1F
100
AcDbEntity
  8
0-F
  6
Continuous
 62
     2
370
     9
100
AcDbText
 10
556.8753175477725
 20
-148.2534805545291
 30
0.0
 40
15.24
  1
樹脂系塗装
 41
1.1
  7
ＭＳ ゴシック
100
AcDbText
  0
TEXT
  5
13D
330
1F
100
AcDbEntity
  8
0-F
  6
Continuous
 62
     2
370
     9
100
AcDbText
 10
-150.050333383921
 20
-93.49776964342266
 30
0.0
 40
15.24
  1
本体：ＳＵＳ３０４
 41
1.111111111111111
  7
ＭＳ ゴシック
100
AcDbText
  0
TEXT
  5
13E
330
1F
100
AcDbEntity
  8
0-F
  6
Continuous
 62
     2
370
     9
100
AcDbText
 10
-150.0503581279033
 20
-127.4818353436444
 30
0.0
 40
15.24
  1
ヘアライン
 41
1.1
  7
ＭＳ ゴシック
100
AcDbText
  0
TEXT
  5
13F
330
1F
100
AcDbEntity
  8
0-F
  6
Continuous
 62
     2
370
     9
100
AcDbText
 10
210.6283963105002
 20
31.39735853910728
 30
0.0
 40
15.24
  1
190
 50
90.00000250447816
 41
1.083333333333333
  7
ＭＳ ゴシック
100
AcDbText
  0
TEXT
  5
140
330
1F
100
AcDbEntity
  8
0-F
  6
Continuous
 62
     2
370
     9
100
AcDbText
 10
165.5160343787948
 20
20.14738946908508
 30
0.0
 40
15.24
  1
φ244
 50
90.00000250447816
 41
1.1
  7
ＭＳ ゴシック
100
AcDbText
  0
TEXT
  5
141
330
1F
100
AcDbEntity
  8
0-F
  6
Continuous
 62
     2
370
     9
100
AcDbText
 10
297.9687158552696
 20
-208.9140094237042
 30
0.0
 40
15.24
  1
Ｇ．Ｌ
 50
90.00000250447816
 41
1.083333333333333
  7
ＭＳ ゴシック
100
AcDbText
  0
TEXT
  5
142
330
1F
100
AcDbEntity
  8
0-F
  6
Continuous
 62
     2
370
     9
100
AcDbText
 10
-55.73834628957221
 20
122.483910102267
 30
0.0
 40
15.24
  1
4
 50
90.00000250447816
 41
0.9999999999999989
  7
ＭＳ ゴシック
100
AcDbText
  0
TEXT
  5
143
330
1F
100
AcDbEntity
  8
0-F
  6
Continuous
 62
     2
370
     9
100
AcDbText
 10
388.8985628695102
 20
267.9785924303209
 30
0.0
 40
15.24
  1
200
 41
1.083333333333333
  7
ＭＳ ゴシック
100
AcDbText
  0
TEXT
  5
144
330
1F
100
AcDbEntity
  8
0-F
  6
Continuous
 62
     2
370
     9
100
AcDbText
 10
-32.92323344462623
 20
-182.0493064096811
 30
0.0
 40
15.24
  1
南京錠：ＣＡＣ２０２
 41
1.1125
  7
ＭＳ ゴシック
100
AcDbText
  0
TEXT
  5
145
330
1F
100
AcDbEntity
  8
0-F
  6
Continuous
 62
     2
370
     9
100
AcDbText
 10
-76.10136289854303
 20
317.3292278557855
 30
0.0
 40
15.24
  1
730
 41
1.083333333333333
  7
ＭＳ ゴシック
100
AcDbText
  0
TEXT
  5
146
330
1F
100
AcDbEntity
  8
0-F
  6
Continuous
 62
     2
370
     9
100
AcDbText
 10
143.2735752415014
 20
374.6571994430954
 30
0.0
 40
15.24
  1
1180
 41
1.09375
  7
ＭＳ ゴシック
100
AcDbText
  0
TEXT
  5
147
330
1F
100
AcDbEntity
  8
F-5ﾚｲﾔ
  6
Continuous
 62
     2
370
     9
100
AcDbText
 10
-390.9423044565561
 20
-673.7341556074812
 30
0.0
 40
15.24
  1
ステンレス製脱着式・鍵付車止め　ＥＤ１１７３－ＤＬ
 41
1.12
  7
ＭＳ ゴシック
100
AcDbText
  0
ENDSEC
  0
SECTION
  2
OBJECTS
  0
DICTIONARY
  5
C
330
0
100
AcDbDictionary
281
     1
  3
ACAD_GROUP
350
D
  3
ACAD_LAYOUT
350
1A
  3
ACAD_MLEADERSTYLE
350
149
  3
ACAD_MLINESTYLE
350
17
  3
ACAD_PLOTSETTINGS
350
19
  3
ACAD_PLOTSTYLENAME
350
E
  3
ACAD_TABLESTYLE
350
148
  3
ACAD_VISUALSTYLE
350
2A
  0
DICTIONARY
  5
D
102
{ACAD_REACTORS
330
C
102
}
330
C
100
AcDbDictionary
281
     1
  0
DICTIONARY
  5
1A
102
{ACAD_REACTORS
330
C
102
}
330
C
100
AcDbDictionary
281
     1
  3
Layout1
350
1E
  3
Layout2
350
26
  3
Model
350
22
  0
DICTIONARY
  5
149
102
{ACAD_REACTORS
330
C
102
}
330
C
100
AcDbDictionary
281
     1
  0
DICTIONARY
  5
17
102
{ACAD_REACTORS
330
C
102
}
330
C
100
AcDbDictionary
281
     1
  3
Standard
350
18
  0
DICTIONARY
  5
19
102
{ACAD_REACTORS
330
C
102
}
330
C
100
AcDbDictionary
281
     1
  0
ACDBDICTIONARYWDFLT
  5
E
102
{ACAD_REACTORS
330
C
102
}
330
C
100
AcDbDictionary
281
     1
  3
Normal
350
F
100
AcDbDictionaryWithDefault
340
F
  0
DICTIONARY
  5
148
102
{ACAD_REACTORS
330
C
102
}
330
C
100
AcDbDictionary
281
     1
  0
DICTIONARY
  5
2A
102
{ACAD_REACTORS
330
C
102
}
330
C
100
AcDbDictionary
281
     1
  3
2dWireframe
350
2F
  3
3D Hidden
350
31
  3
3dWireframe
350
30
  3
Basic
350
32
  3
Brighten
350
36
  3
ColorChange
350
3A
  3
Conceptual
350
34
  3
Dim
350
35
  3
Facepattern
350
39
  3
Flat
350
2B
  3
FlatWithEdges
350
2C
  3
Gouraud
350
2D
  3
GouraudWithEdges
350
2E
  3
Linepattern
350
38
  3
Realistic
350
33
  3
Thicken
350
37
  0
LAYOUT
  5
1E
102
{ACAD_REACTORS
330
1A
102
}
330
1A
100
AcDbPlotSettings
  1

  2
none_device
  4

  6

 40
0.0
 41
0.0
 42
0.0
 43
0.0
 44
0.0
 45
0.0
 46
0.0
 47
0.0
 48
0.0
 49
0.0
140
0.0
141
0.0
142
1.0
143
1.0
 70
   688
 72
     0
 73
     0
 74
     5
  7

 75
    16
 76
     0
 77
     5
 78
   300
147
1.0
148
0.0
149
0.0
100
AcDbLayout
  1
Layout1
 70
     1
 71
     1
 10
0.0
 20
0.0
 11
420.0
 21
297.0
 12
0.0
 22
0.0
 32
0.0
 14
1.000000000000000E+20
 24
1.000000000000000E+20
 34
1.000000000000000E+20
 15
-1.000000000000000E+20
 25
-1.000000000000000E+20
 35
-1.000000000000000E+20
146
0.0
 13
0.0
 23
0.0
 33
0.0
 16
1.0
 26
0.0
 36
0.0
 17
0.0
 27
1.0
 37
0.0
 76
     0
330
1B
  0
LAYOUT
  5
26
102
{ACAD_REACTORS
330
1A
102
}
330
1A
100
AcDbPlotSettings
  1

  2
none_device
  4

  6

 40
0.0
 41
0.0
 42
0.0
 43
0.0
 44
0.0
 45
0.0
 46
0.0
 47
0.0
 48
0.0
 49
0.0
140
0.0
141
0.0
142
1.0
143
1.0
 70
   688
 72
     0
 73
     0
 74
     5
  7

 75
    16
 76
     0
 77
     5
 78
   300
147
1.0
148
0.0
149
0.0
100
AcDbLayout
  1
Layout2
 70
     1
 71
     2
 10
0.0
 20
0.0
 11
0.0
 21
0.0
 12
0.0
 22
0.0
 32
0.0
 14
0.0
 24
0.0
 34
0.0
 15
0.0
 25
0.0
 35
0.0
146
0.0
 13
0.0
 23
0.0
 33
0.0
 16
1.0
 26
0.0
 36
0.0
 17
0.0
 27
1.0
 37
0.0
 76
     0
330
23
  0
LAYOUT
  5
22
102
{ACAD_REACTORS
330
1A
102
}
330
1A
100
AcDbPlotSettings
  1

  2
none_device
  4

  6

 40
0.0
 41
0.0
 42
0.0
 43
0.0
 44
0.0
 45
0.0
 46
0.0
 47
0.0
 48
0.0
 49
0.0
140
0.0
141
0.0
142
1.0
143
1.0
 70
  1712
 72
     0
 73
     0
 74
     0
  7

 75
     0
 76
     0
 77
     5
 78
   300
147
1.0
148
0.0
149
0.0
100
AcDbLayout
  1
Model
 70
     1
 71
     0
 10
-1050.0
 20
-742.5
 11
1050.0
 21
742.5
 12
0.0
 22
0.0
 32
0.0
 14
-1050.0
 24
-742.5
 34
0.0
 15
1050.0
 25
742.5
 35
0.0
146
0.0
 13
0.0
 23
0.0
 33
0.0
 16
1.0
 26
0.0
 36
0.0
 17
0.0
 27
1.0
 37
0.0
 76
     0
330
1F
331
29
  0
MLINESTYLE
  5
18
102
{ACAD_REACTORS
330
17
102
}
330
17
100
AcDbMlineStyle
  2
Standard
 70
     0
  3

 62
   256
 51
90.0
 52
90.0
 71
     2
 49
0.5
 62
   256
  6
BYLAYER
 49
-0.5
 62
   256
  6
BYLAYER
  0
ACDBPLACEHOLDER
  5
F
102
{ACAD_REACTORS
330
E
102
}
330
E
  0
VISUALSTYLE
  5
2F
102
{ACAD_REACTORS
330
2A
102
}
330
2A
100
AcDbVisualStyle
  2
2dWireframe
 70
     4
 71
     0
 72
     2
 73
     0
 90
        0
 40
-0.6
 41
-30.0
 62
     5
 63
     7
421
 16777215
 74
     1
 91
        4
 64
     7
 65
   257
 75
     1
175
     1
 42
1.0
 92
        0
 66
   257
 43
1.0
 76
     1
 77
     6
 78
     2
 67
     7
 79
     5
170
     0
171
     0
290
     0
174
     0
 93
        1
 44
0.0
173
     0
291
     0
 45
0.0
  0
VISUALSTYLE
  5
31
102
{ACAD_REACTORS
330
2A
102
}
330
2A
100
AcDbVisualStyle
  2
3D Hidden
 70
     6
 71
     1
 72
     2
 73
     2
 90
        0
 40
-0.6
 41
-30.0
 62
     5
 63
     7
421
 16777215
 74
     2
 91
        2
 64
     7
 65
   257
 75
     2
175
     1
 42
40.0
 92
        0
 66
   257
 43
1.0
 76
     1
 77
     6
 78
     2
 67
     7
 79
     3
170
     0
171
     0
290
     0
174
     0
 93
        1
 44
0.0
173
     0
291
     0
 45
0.0
  0
VISUALSTYLE
  5
30
102
{ACAD_REACTORS
330
2A
102
}
330
2A
100
AcDbVisualStyle
  2
3dWireframe
 70
     5
 71
     0
 72
     2
 73
     0
 90
        0
 40
-0.6
 41
-30.0
 62
     5
 63
     7
421
 16777215
 74
     1
 91
        4
 64
     7
 65
   257
 75
     1
175
     1
 42
1.0
 92
        0
 66
   257
 43
1.0
 76
     1
 77
     6
 78
     2
 67
     7
 79
     5
170
     0
171
     0
290
     0
174
     0
 93
        1
 44
0.0
173
     0
291
     0
 45
0.0
  0
VISUALSTYLE
  5
32
102
{ACAD_REACTORS
330
2A
102
}
330
2A
100
AcDbVisualStyle
  2
Basic
 70
     7
 71
     1
 72
     0
 73
     1
 90
        0
 40
-0.6
 41
-30.0
 62
     5
 63
     7
421
 16777215
 74
     0
 91
        4
 64
     7
 65
   257
 75
     1
175
     1
 42
1.0
 92
        8
 66
     7
 43
1.0
 76
     1
 77
     6
 78
     2
 67
     7
 79
     5
170
     0
171
     0
290
     0
174
     0
 93
        1
 44
0.0
173
     0
291
     1
 45
0.0
  0
VISUALSTYLE
  5
36
102
{ACAD_REACTORS
330
2A
102
}
330
2A
100
AcDbVisualStyle
  2
Brighten
 70
    12
 71
     2
 72
     2
 73
     0
 90
        0
 40
-0.6
 41
-30.0
 62
     5
 63
     7
421
 16777215
 74
     1
 91
        4
 64
     7
 65
   257
 75
     1
175
     1
 42
1.0
 92
        8
 66
     7
 43
1.0
 76
     1
 77
     6
 78
     2
 67
     7
 79
     5
170
     0
171
     0
290
     0
174
     0
 93
        1
 44
50.0
173
     0
291
     1
 45
0.0
  0
VISUALSTYLE
  5
3A
102
{ACAD_REACTORS
330
2A
102
}
330
2A
100
AcDbVisualStyle
  2
ColorChange
 70
    16
 71
     2
 72
     2
 73
     3
 90
        0
 40
-0.6
 41
-30.0
 62
     5
 63
     8
421
  8421504
 74
     1
 91
        4
 64
     7
 65
   257
 75
     1
175
     1
 42
1.0
 92
        8
 66
     8
424
  8421504
 43
1.0
 76
     1
 77
     6
 78
     2
 67
     7
 79
     5
170
     0
171
     0
290
     0
174
     0
 93
        1
 44
0.0
173
     0
291
     1
 45
0.0
  0
VISUALSTYLE
  5
34
102
{ACAD_REACTORS
330
2A
102
}
330
2A
100
AcDbVisualStyle
  2
Conceptual
 70
     9
 71
     3
 72
     2
 73
     0
 90
        0
 40
-0.6
 41
-30.0
 62
     5
 63
     7
421
 16777215
 74
     2
 91
        2
 64
     7
 65
   257
 75
     1
175
     1
 42
40.0
 92
        8
 66
     7
 43
1.0
 76
     1
 77
     6
 78
     2
 67
     7
 79
     3
170
     0
171
     0
290
     0
174
     0
 93
        1
 44
0.0
173
     0
291
     0
 45
0.0
  0
VISUALSTYLE
  5
35
102
{ACAD_REACTORS
330
2A
102
}
330
2A
100
AcDbVisualStyle
  2
Dim
 70
    11
 71
     2
 72
     2
 73
     0
 90
        0
 40
-0.6
 41
-30.0
 62
     5
 63
     7
421
 16777215
 74
     1
 91
        4
 64
     7
 65
   257
 75
     1
175
     1
 42
1.0
 92
        8
 66
     7
 43
1.0
 76
     1
 77
     6
 78
     2
 67
     7
 79
     5
170
     0
171
     0
290
     0
174
     0
 93
        1
 44
-50.0
173
     0
291
     1
 45
0.0
  0
VISUALSTYLE
  5
39
102
{ACAD_REACTORS
330
2A
102
}
330
2A
100
AcDbVisualStyle
  2
Facepattern
 70
    15
 71
     2
 72
     2
 73
     0
 90
        0
 40
-0.6
 41
-30.0
 62
     5
 63
     7
421
 16777215
 74
     1
 91
        4
 64
     7
 65
   257
 75
     1
175
     1
 42
1.0
 92
        8
 66
     7
 43
1.0
 76
     1
 77
     6
 78
     2
 67
     7
 79
     5
170
     0
171
     0
290
     0
174
     0
 93
        1
 44
0.0
173
     0
291
     1
 45
0.0
  0
VISUALSTYLE
  5
2B
102
{ACAD_REACTORS
330
2A
102
}
330
2A
100
AcDbVisualStyle
  2
Flat
 70
     0
 71
     2
 72
     1
 73
     1
 90
        2
 40
-0.6
 41
30.0
 62
     5
 63
     7
421
 16777215
 74
     0
 91
        4
 64
     7
 65
   257
 75
     1
175
     1
 42
1.0
 92
        8
 66
     7
 43
1.0
 76
     1
 77
     6
 78
     2
 67
     7
 79
     5
170
     0
171
     0
290
     0
174
     0
 93
       13
 44
0.0
173
     0
291
     1
 45
0.0
  0
VISUALSTYLE
  5
2C
102
{ACAD_REACTORS
330
2A
102
}
330
2A
100
AcDbVisualStyle
  2
FlatWithEdges
 70
     1
 71
     2
 72
     1
 73
     1
 90
        2
 40
-0.6
 41
30.0
 62
     5
 63
     7
421
 16777215
 74
     1
 91
        4
 64
     7
 65
   257
 75
     1
175
     1
 42
1.0
 92
        0
 66
   257
 43
1.0
 76
     1
 77
     6
 78
     2
 67
     7
 79
     5
170
     0
171
     0
290
     0
174
     0
 93
       13
 44
0.0
173
     0
291
     1
 45
0.0
  0
VISUALSTYLE
  5
2D
102
{ACAD_REACTORS
330
2A
102
}
330
2A
100
AcDbVisualStyle
  2
Gouraud
 70
     2
 71
     2
 72
     2
 73
     1
 90
        2
 40
-0.6
 41
30.0
 62
     5
 63
     7
421
 16777215
 74
     0
 91
        4
 64
     7
 65
   257
 75
     1
175
     1
 42
1.0
 92
        0
 66
     7
 43
1.0
 76
     1
 77
     6
 78
     2
 67
     7
 79
     5
170
     0
171
     0
290
     0
174
     0
 93
       13
 44
0.0
173
     0
291
     1
 45
0.0
  0
VISUALSTYLE
  5
2E
102
{ACAD_REACTORS
330
2A
102
}
330
2A
100
AcDbVisualStyle
  2
GouraudWithEdges
 70
     3
 71
     2
 72
     2
 73
     1
 90
        2
 40
-0.6
 41
30.0
 62
     5
 63
     7
421
 16777215
 74
     1
 91
        4
 64
     7
 65
   257
 75
     1
175
     1
 42
1.0
 92
        0
 66
   257
 43
1.0
 76
     1
 77
     6
 78
     2
 67
     7
 79
     5
170
     0
171
     0
290
     0
174
     0
 93
       13
 44
0.0
173
     0
291
     1
 45
0.0
  0
VISUALSTYLE
  5
38
102
{ACAD_REACTORS
330
2A
102
}
330
2A
100
AcDbVisualStyle
  2
Linepattern
 70
    14
 71
     2
 72
     2
 73
     0
 90
        0
 40
-0.6
 41
-30.0
 62
     5
 63
     7
421
 16777215
 74
     1
 91
        4
 64
     7
 65
   257
 75
     7
175
     7
 42
1.0
 92
        8
 66
     7
 43
1.0
 76
     1
 77
     6
 78
     2
 67
     7
 79
     5
170
     0
171
     0
290
     0
174
     0
 93
        1
 44
0.0
173
     0
291
     1
 45
0.0
  0
VISUALSTYLE
  5
33
102
{ACAD_REACTORS
330
2A
102
}
330
2A
100
AcDbVisualStyle
  2
Realistic
 70
     8
 71
     2
 72
     2
 73
     0
 90
        0
 40
-0.6
 41
-30.0
 62
     5
 63
     7
421
 16777215
 74
     1
 91
        0
 64
     7
 65
   257
 75
     1
175
     1
 42
1.0
 92
        8
 66
     8
424
  7895160
 43
1.0
 76
     1
 77
     6
 78
     2
 67
     7
 79
     5
170
     0
171
     0
290
     0
174
     0
 93
       13
 44
0.0
173
     0
291
     0
 45
0.0
  0
VISUALSTYLE
  5
37
102
{ACAD_REACTORS
330
2A
102
}
330
2A
100
AcDbVisualStyle
  2
Thicken
 70
    13
 71
     2
 72
     2
 73
     0
 90
        0
 40
-0.6
 41
-30.0
 62
     5
 63
     7
421
 16777215
 74
     1
 91
        4
 64
     7
 65
   257
 75
     1
175
     1
 42
1.0
 92
       12
 66
     7
 43
1.0
 76
     1
 77
     6
 78
     2
 67
     7
 79
     5
170
     0
171
     0
290
     0
174
     0
 93
        1
 44
0.0
173
     0
291
     1
 45
0.0
  0
ENDSEC
  0
EOF
