  0
SECTION
  2
HEADER
  9
$ACADVER
  1
AC1018
  9
$ACADMAINTVER
 70
     0
  9
$DWGCODEPAGE
  3
ANSI_932
  9
$INSBASE
 10
0.0
 20
0.0
 30
0.0
  9
$EXTMIN
 10
-840.0
 20
-594.0
 30
0.0
  9
$EXTMAX
 10
840.0
 20
594.0
 30
0.0
  9
$LIMMIN
 10
-840.0
 20
-594.0
  9
$LIMMAX
 10
840.0
 20
594.0
  9
$ORTHOMODE
 70
     0
  9
$REGENMODE
 70
     1
  9
$FILLMODE
 70
     1
  9
$QTEXTMODE
 70
     0
  9
$MIRRTEXT
 70
     1
  9
$LTSCALE
 40
4.0
  9
$ATTMODE
 70
     1
  9
$TEXTSIZE
 40
2.5
  9
$TRACEWID
 40
1.0
  9
$TEXTSTYLE
  7
Standard
  9
$CLAYER
  8
0
  9
$CELTYPE
  6
ByLayer
  9
$CECOLOR
 62
   256
  9
$CELTSCALE
 40
1.0
  9
$DISPSILH
 70
     0
  9
$DIMSCALE
 40
1.0
  9
$DIMASZ
 40
2.5
  9
$DIMEXO
 40
0.625
  9
$DIMDLI
 40
3.75
  9
$DIMRND
 40
0.0
  9
$DIMDLE
 40
0.0
  9
$DIMEXE
 40
1.25
  9
$DIMTP
 40
0.0
  9
$DIMTM
 40
0.0
  9
$DIMTXT
 40
2.5
  9
$DIMCEN
 40
2.5
  9
$DIMTSZ
 40
0.0
  9
$DIMTOL
 70
     0
  9
$DIMLIM
 70
     0
  9
$DIMTIH
 70
     0
  9
$DIMTOH
 70
     0
  9
$DIMSE1
 70
     0
  9
$DIMSE2
 70
     0
  9
$DIMTAD
 70
     1
  9
$DIMZIN
 70
     8
  9
$DIMBLK
  1

  9
$DIMASO
 70
     1
  9
$DIMSHO
 70
     1
  9
$DIMPOST
  1

  9
$DIMAPOST
  1

  9
$DIMALT
 70
     0
  9
$DIMALTD
 70
     3
  9
$DIMALTF
 40
0.03937007874016
  9
$DIMLFAC
 40
1.0
  9
$DIMTOFL
 70
     1
  9
$DIMTVP
 40
0.0
  9
$DIMTIX
 70
     0
  9
$DIMSOXD
 70
     0
  9
$DIMSAH
 70
     0
  9
$DIMBLK1
  1

  9
$DIMBLK2
  1

  9
$DIMSTYLE
  2
ISO-25
  9
$DIMCLRD
 70
     0
  9
$DIMCLRE
 70
     0
  9
$DIMCLRT
 70
     0
  9
$DIMTFAC
 40
1.0
  9
$DIMGAP
 40
0.625
  9
$DIMJUST
 70
     0
  9
$DIMSD1
 70
     0
  9
$DIMSD2
 70
     0
  9
$DIMTOLJ
 70
     0
  9
$DIMTZIN
 70
     8
  9
$DIMALTZ
 70
     0
  9
$DIMALTTZ
 70
     0
  9
$DIMUPT
 70
     0
  9
$DIMDEC
 70
     2
  9
$DIMTDEC
 70
     2
  9
$DIMALTU
 70
     2
  9
$DIMALTTD
 70
     3
  9
$DIMTXSTY
  7
Standard
  9
$DIMAUNIT
 70
     0
  9
$DIMADEC
 70
     0
  9
$DIMALTRND
 40
0.0
  9
$DIMAZIN
 70
     0
  9
$DIMDSEP
 70
    44
  9
$DIMATFIT
 70
     3
  9
$DIMFRAC
 70
     0
  9
$DIMLDRBLK
  1

  9
$DIMLUNIT
 70
     2
  9
$DIMLWD
 70
    -2
  9
$DIMLWE
 70
    -2
  9
$DIMTMOVE
 70
     0
  9
$LUNITS
 70
     2
  9
$LUPREC
 70
     4
  9
$SKETCHINC
 40
1.0
  9
$FILLETRAD
 40
10.0
  9
$AUNITS
 70
     0
  9
$AUPREC
 70
     0
  9
$MENU
  1
.
  9
$ELEVATION
 40
0.0
  9
$PELEVATION
 40
0.0
  9
$THICKNESS
 40
0.0
  9
$LIMCHECK
 70
     0
  9
$CHAMFERA
 40
0.0
  9
$CHAMFERB
 40
0.0
  9
$CHAMFERC
 40
0.0
  9
$CHAMFERD
 40
0.0
  9
$SKPOLY
 70
     0
  9
$TDCREATE
 40
2460018.443315104
  9
$TDUCREATE
 40
2460018.068315104
  9
$TDUPDATE
 40
2460018.443315232
  9
$TDUUPDATE
 40
2460018.068315232
  9
$TDINDWG
 40
0.0000000116
  9
$TDUSRTIMER
 40
0.0000000116
  9
$USRTIMER
 70
     1
  9
$ANGBASE
 50
0.0
  9
$ANGDIR
 70
     0
  9
$PDMODE
 70
     0
  9
$PDSIZE
 40
0.0
  9
$PLINEWID
 40
0.0
  9
$SPLFRAME
 70
     0
  9
$SPLINETYPE
 70
     6
  9
$SPLINESEGS
 70
     8
  9
$HANDSEED
  5
3F0
  9
$SURFTAB1
 70
     6
  9
$SURFTAB2
 70
     6
  9
$SURFTYPE
 70
     6
  9
$SURFU
 70
     6
  9
$SURFV
 70
     6
  9
$UCSBASE
  2

  9
$UCSNAME
  2

  9
$UCSORG
 10
0.0
 20
0.0
 30
0.0
  9
$UCSXDIR
 10
1.0
 20
0.0
 30
0.0
  9
$UCSYDIR
 10
0.0
 20
1.0
 30
0.0
  9
$UCSORTHOREF
  2

  9
$UCSORTHOVIEW
 70
     0
  9
$UCSORGTOP
 10
0.0
 20
0.0
 30
0.0
  9
$UCSORGBOTTOM
 10
0.0
 20
0.0
 30
0.0
  9
$UCSORGLEFT
 10
0.0
 20
0.0
 30
0.0
  9
$UCSORGRIGHT
 10
0.0
 20
0.0
 30
0.0
  9
$UCSORGFRONT
 10
0.0
 20
0.0
 30
0.0
  9
$UCSORGBACK
 10
0.0
 20
0.0
 30
0.0
  9
$PUCSBASE
  2

  9
$PUCSNAME
  2

  9
$PUCSORG
 10
0.0
 20
0.0
 30
0.0
  9
$PUCSXDIR
 10
1.0
 20
0.0
 30
0.0
  9
$PUCSYDIR
 10
0.0
 20
1.0
 30
0.0
  9
$PUCSORTHOREF
  2

  9
$PUCSORTHOVIEW
 70
     0
  9
$PUCSORGTOP
 10
0.0
 20
0.0
 30
0.0
  9
$PUCSORGBOTTOM
 10
0.0
 20
0.0
 30
0.0
  9
$PUCSORGLEFT
 10
0.0
 20
0.0
 30
0.0
  9
$PUCSORGRIGHT
 10
0.0
 20
0.0
 30
0.0
  9
$PUCSORGFRONT
 10
0.0
 20
0.0
 30
0.0
  9
$PUCSORGBACK
 10
0.0
 20
0.0
 30
0.0
  9
$USERI1
 70
     0
  9
$USERI2
 70
     0
  9
$USERI3
 70
     0
  9
$USERI4
 70
     0
  9
$USERI5
 70
     0
  9
$USERR1
 40
0.0
  9
$USERR2
 40
0.0
  9
$USERR3
 40
0.0
  9
$USERR4
 40
0.0
  9
$USERR5
 40
0.0
  9
$WORLDVIEW
 70
     1
  9
$SHADEDGE
 70
     3
  9
$SHADEDIF
 70
    70
  9
$TILEMODE
 70
     1
  9
$MAXACTVP
 70
    64
  9
$PINSBASE
 10
0.0
 20
0.0
 30
0.0
  9
$PLIMCHECK
 70
     0
  9
$PEXTMIN
 10
1.000000000000000E+20
 20
1.000000000000000E+20
 30
1.000000000000000E+20
  9
$PEXTMAX
 10
-1.000000000000000E+20
 20
-1.000000000000000E+20
 30
-1.000000000000000E+20
  9
$PLIMMIN
 10
0.0
 20
0.0
  9
$PLIMMAX
 10
420.0
 20
297.0
  9
$UNITMODE
 70
     0
  9
$VISRETAIN
 70
     1
  9
$PLINEGEN
 70
     0
  9
$PSLTSCALE
 70
     1
  9
$TREEDEPTH
 70
  3020
  9
$CMLSTYLE
  2
Standard
  9
$CMLJUST
 70
     0
  9
$CMLSCALE
 40
20.0
  9
$PROXYGRAPHICS
 70
     1
  9
$MEASUREMENT
 70
     1
  9
$CELWEIGHT
370
    -1
  9
$ENDCAPS
280
     0
  9
$JOINSTYLE
280
     0
  9
$LWDISPLAY
290
     0
  9
$INSUNITS
 70
     4
  9
$HYPERLINKBASE
  1

  9
$STYLESHEET
  1

  9
$XEDIT
290
     1
  9
$CEPSNTYPE
380
     0
  9
$PSTYLEMODE
290
     1
  9
$FINGERPRINTGUID
  2
{AEBCA90E-4003-4D3F-9635-6628C82423C8}
  9
$VERSIONGUID
  2
{FAEB1C32-E019-11D5-929B-00C0DF256EC4}
  9
$EXTNAMES
290
     1
  9
$PSVPSCALE
 40
0.0
  9
$OLESTARTUP
290
     0
  9
$SORTENTS
280
   127
  9
$INDEXCTL
280
     0
  9
$HIDETEXT
280
     1
  9
$XCLIPFRAME
290
     0
  9
$HALOGAP
280
     0
  9
$OBSCOLOR
 70
   257
  9
$OBSLTYPE
280
     0
  9
$INTERSECTIONDISPLAY
280
     0
  9
$INTERSECTIONCOLOR
 70
   257
  9
$DIMASSOC
280
     2
  9
$PROJECTNAME
  1

  0
ENDSEC
  0
SECTION
  2
CLASSES
  0
CLASS
  1
ACDBDICTIONARYWDFLT
  2
AcDbDictionaryWithDefault
  3
ObjectDBX Classes
 90
        0
 91
        4
280
     0
281
     0
  0
CLASS
  1
VISUALSTYLE
  2
AcDbVisualStyle
  3
ObjectDBX Classes
 90
     4095
 91
        4
280
     0
281
     0
  0
CLASS
  1
MATERIAL
  2
AcDbMaterial
  3
ObjectDBX Classes
 90
     1153
 91
        4
280
     0
281
     0
  0
CLASS
  1
SCALE
  2
AcDbScale
  3
ObjectDBX Classes
 90
     1153
 91
        4
280
     0
281
     0
  0
CLASS
  1
TABLESTYLE
  2
AcDbTableStyle
  3
ObjectDBX Classes
 90
     4095
 91
        4
280
     0
281
     0
  0
CLASS
  1
MLEADERSTYLE
  2
AcDbMLeaderStyle
  3
ACDB_MLEADERSTYLE_CLASS
 90
     4095
 91
        4
280
     0
281
     0
  0
CLASS
  1
SUN
  2
AcDbSun
  3
SCENEOE
 90
     1153
 91
        4
280
     0
281
     0
  0
CLASS
  1
DICTIONARYVAR
  2
AcDbDictionaryVar
  3
ObjectDBX Classes
 90
        0
 91
        4
280
     0
281
     0
  0
CLASS
  1
CELLSTYLEMAP
  2
AcDbCellStyleMap
  3
ObjectDBX Classes
 90
     1152
 91
        4
280
     0
281
     0
  0
ENDSEC
  0
SECTION
  2
TABLES
  0
TABLE
  2
VPORT
  5
8
102
{ACAD_XDICTIONARY
360
3A7
102
}
330
0
100
AcDbSymbolTable
 70
     1
  0
VPORT
  5
29
330
8
100
AcDbSymbolTableRecord
100
AcDbViewportTableRecord
  2
*Active
 70
     0
 10
0.0
 20
0.0
 11
1.0
 21
1.0
 12
0.0
 22
0.0
 13
0.0
 23
0.0
 14
10.0
 24
10.0
 15
10.0
 25
10.0
 16
0.0
 26
0.0
 36
1.0
 17
0.0
 27
0.0
 37
0.0
 40
1306.8
 41
1.414141414141414
 42
50.0
 43
0.0
 44
0.0
 50
0.0
 51
0.0
 71
     0
 72
 10000
 73
     1
 74
     3
 75
     0
 76
     0
 77
     0
 78
     0
281
     0
 65
     1
110
0.0
120
0.0
130
0.0
111
1.0
121
0.0
131
0.0
112
0.0
122
1.0
132
0.0
 79
     0
146
0.0
  0
ENDTAB
  0
TABLE
  2
LTYPE
  5
5
330
0
100
AcDbSymbolTable
 70
     4
  0
LTYPE
  5
14
330
5
100
AcDbSymbolTableRecord
100
AcDbLinetypeTableRecord
  2
ByBlock
 70
     0
  3

 72
    65
 73
     0
 40
0.0
  0
LTYPE
  5
15
330
5
100
AcDbSymbolTableRecord
100
AcDbLinetypeTableRecord
  2
ByLayer
 70
     0
  3

 72
    65
 73
     0
 40
0.0
  0
LTYPE
  5
16
330
5
100
AcDbSymbolTableRecord
100
AcDbLinetypeTableRecord
  2
Continuous
 70
     0
  3
Solid line
 72
    65
 73
     0
 40
0.0
  0
LTYPE
  5
6F
330
5
100
AcDbSymbolTableRecord
100
AcDbLinetypeTableRecord
  2
JWW_CENTER1
 70
     0
  3
-----  --  ----------  --  -----
 72
    65
 73
     4
 40
6.773333333333333
 49
4.233333333333333
 74
     0
 49
-0.8466666666666667
 74
     0
 49
0.8466666666666667
 74
     0
 49
-0.8466666666666667
 74
     0
  0
LTYPE
  5
70
330
5
100
AcDbSymbolTableRecord
100
AcDbLinetypeTableRecord
  2
JWW_DASHED1
 70
     0
  3
-  --  --  --  --  --  --  --  -
 72
    65
 73
     2
 40
1.693333333333333
 49
0.8466666666666667
 74
     0
 49
-0.8466666666666667
 74
     0
  0
LTYPE
  5
71
330
5
100
AcDbSymbolTableRecord
100
AcDbLinetypeTableRecord
  2
JWW_PHANTOM1
 70
     0
  3
----  -  -  --------  -  -  ----
 72
    65
 73
     6
 40
6.773333333333333
 49
3.386666666666667
 74
     0
 49
-0.8466666666666667
 74
     0
 49
0.4233333333333333
 74
     0
 49
-0.8466666666666667
 74
     0
 49
0.4233333333333333
 74
     0
 49
-0.8466666666666667
 74
     0
  0
ENDTAB
  0
TABLE
  2
LAYER
  5
2
330
0
100
AcDbSymbolTable
 70
    10
  0
LAYER
  5
10
330
2
100
AcDbSymbolTableRecord
100
AcDbLayerTableRecord
  2
0
 70
     0
 62
     7
  6
Continuous
370
    -3
390
F
  0
LAYER
  5
72
330
2
100
AcDbSymbolTableRecord
100
AcDbLayerTableRecord
  2
通り芯
 70
     0
 62
     7
  6
Continuous
370
    -3
390
F
  0
LAYER
  5
73
330
2
100
AcDbSymbolTableRecord
100
AcDbLayerTableRecord
  2
躯体
 70
     0
 62
     7
  6
Continuous
370
    -3
390
F
  0
LAYER
  5
74
330
2
100
AcDbSymbolTableRecord
100
AcDbLayerTableRecord
  2
建具
 70
     0
 62
     7
  6
Continuous
370
    -3
390
F
  0
LAYER
  5
75
330
2
100
AcDbSymbolTableRecord
100
AcDbLayerTableRecord
  2
その他
 70
     0
 62
     7
  6
Continuous
370
    -3
390
F
  0
LAYER
  5
76
330
2
100
AcDbSymbolTableRecord
100
AcDbLayerTableRecord
  2
仕上
 70
     0
 62
     7
  6
Continuous
370
    -3
390
F
  0
LAYER
  5
77
330
2
100
AcDbSymbolTableRecord
100
AcDbLayerTableRecord
  2
寸法
 70
     0
 62
     7
  6
Continuous
370
    -3
390
F
  0
LAYER
  5
78
330
2
100
AcDbSymbolTableRecord
100
AcDbLayerTableRecord
  2
0-B
 70
     0
 62
     7
  6
Continuous
370
    -3
390
F
  0
LAYER
  5
79
330
2
100
AcDbSymbolTableRecord
100
AcDbLayerTableRecord
  2
F-4ﾚｲﾔ
 70
     0
 62
     7
  6
Continuous
370
    -3
390
F
  0
LAYER
  5
7A
330
2
100
AcDbSymbolTableRecord
100
AcDbLayerTableRecord
  2
F-5ﾚｲﾔ
 70
     0
 62
     7
  6
Continuous
370
    -3
390
F
  0
ENDTAB
  0
TABLE
  2
STYLE
  5
3
330
0
100
AcDbSymbolTable
 70
     2
  0
STYLE
  5
11
330
3
100
AcDbSymbolTableRecord
100
AcDbTextStyleTableRecord
  2
Standard
 70
     0
 40
0.0
 41
1.0
 50
0.0
 71
     0
 42
2.5
  3
txt
  4

  0
STYLE
  5
6E
330
3
100
AcDbSymbolTableRecord
100
AcDbTextStyleTableRecord
  2
ＭＳ ゴシック
 70
     0
 40
1.0
 41
1.0
 50
0.0
 71
     0
 42
2.5
  3

  4

1001
ACAD
1000
MS Gothic
1071
    32817
  0
ENDTAB
  0
TABLE
  2
VIEW
  5
6
330
0
100
AcDbSymbolTable
 70
     0
  0
ENDTAB
  0
TABLE
  2
UCS
  5
7
330
0
100
AcDbSymbolTable
 70
     0
  0
ENDTAB
  0
TABLE
  2
APPID
  5
9
330
0
100
AcDbSymbolTable
 70
     2
  0
APPID
  5
12
330
9
100
AcDbSymbolTableRecord
100
AcDbRegAppTableRecord
  2
ACAD
 70
     0
  0
APPID
  5
3E6
330
9
100
AcDbSymbolTableRecord
100
AcDbRegAppTableRecord
  2
ACAD_MLEADERVER
 70
     0
  0
ENDTAB
  0
TABLE
  2
DIMSTYLE
  5
A
330
0
100
AcDbSymbolTable
 70
     1
100
AcDbDimStyleTable
  0
DIMSTYLE
105
27
330
A
100
AcDbSymbolTableRecord
100
AcDbDimStyleTableRecord
  2
ISO-25
 70
     0
 41
2.5
 42
0.625
 43
3.75
 44
1.25
 73
     0
 74
     0
 77
     1
 78
     8
140
2.5
141
2.5
143
0.03937007874016
147
0.625
171
     3
172
     1
178
     0
271
     2
272
     2
274
     3
278
    44
283
     0
284
     8
340
11
  0
ENDTAB
  0
TABLE
  2
BLOCK_RECORD
  5
1
330
0
100
AcDbSymbolTable
 70
     1
  0
BLOCK_RECORD
  5
1F
330
1
100
AcDbSymbolTableRecord
100
AcDbBlockTableRecord
  2
*Model_Space
340
22
  0
BLOCK_RECORD
  5
1B
330
1
100
AcDbSymbolTableRecord
100
AcDbBlockTableRecord
  2
*Paper_Space
340
1E
  0
BLOCK_RECORD
  5
23
330
1
100
AcDbSymbolTableRecord
100
AcDbBlockTableRecord
  2
*Paper_Space0
340
26
  0
ENDTAB
  0
ENDSEC
  0
SECTION
  2
BLOCKS
  0
BLOCK
  5
20
330
1F
100
AcDbEntity
  8
0
100
AcDbBlockBegin
  2
*Model_Space
 70
     0
 10
0.0
 20
0.0
 30
0.0
  3
*Model_Space
  1

  0
ENDBLK
  5
21
330
1F
100
AcDbEntity
  8
0
100
AcDbBlockEnd
  0
BLOCK
  5
1C
330
1B
100
AcDbEntity
 67
     1
  8
0
100
AcDbBlockBegin
  2
*Paper_Space
 70
     0
 10
0.0
 20
0.0
 30
0.0
  3
*Paper_Space
  1

  0
ENDBLK
  5
1D
330
1B
100
AcDbEntity
 67
     1
  8
0
100
AcDbBlockEnd
  0
BLOCK
  5
24
330
23
100
AcDbEntity
  8
0
100
AcDbBlockBegin
  2
*Paper_Space0
 70
     0
 10
0.0
 20
0.0
 30
0.0
  3
*Paper_Space0
  1

  0
ENDBLK
  5
25
330
23
100
AcDbEntity
  8
0
100
AcDbBlockEnd
  0
ENDSEC
  0
SECTION
  2
ENTITIES
  0
LINE
  5
7B
330
1F
100
AcDbEntity
  8
通り芯
  6
Continuous
 62
     3
370
     9
100
AcDbLine
 10
-221.8107976140202
 20
-80.63976257579117
 30
0.0
 11
-229.8108240076014
 21
-80.63976257579117
 31
0.0
  0
LINE
  5
7C
330
1F
100
AcDbEntity
  8
躯体
  6
Continuous
 62
     2
370
     9
100
AcDbLine
 10
-194.1497967694256
 20
326.1606590616666
 30
0.0
 11
-198.0767657305743
 21
326.9417770937612
 31
0.0
  0
LINE
  5
7D
330
1F
100
AcDbEntity
  8
躯体
  6
Continuous
 62
     2
370
     9
100
AcDbLine
 10
-192.4434517525337
 20
327.3507456326126
 30
0.0
 11
-198.8222524282094
 21
328.6196170430855
 31
0.0
  0
LINE
  5
7E
330
1F
100
AcDbEntity
  8
躯体
  6
Continuous
 62
     2
370
     9
100
AcDbLine
 10
89.99198294974667
 20
338.910936194268
 30
0.0
 11
93.91905088682438
 21
339.6920542263626
 31
0.0
  0
LINE
  5
7F
330
1F
100
AcDbEntity
  8
躯体
  6
Continuous
 62
     2
370
     9
100
AcDbLine
 10
88.87098157728042
 20
337.1584683944369
 30
0.0
 11
95.24968327702709
 21
338.4273398049099
 31
0.0
  0
LINE
  5
80
330
1F
100
AcDbEntity
  8
躯体
  6
Continuous
 62
     2
370
     9
100
AcDbLine
 10
73.24228647592906
 20
379.3483438167341
 30
0.0
 11
76.57144082559125
 21
381.572728846295
 31
0.0
  0
LINE
  5
81
330
1F
100
AcDbEntity
  8
躯体
  6
Continuous
 62
     2
370
     9
100
AcDbLine
 10
71.2105086043075
 20
379.794725256768
 30
0.0
 11
76.6181574641048
 21
383.4079405228153
 31
0.0
  0
LINE
  5
82
330
1F
100
AcDbEntity
  8
躯体
  6
Continuous
 62
     2
370
     9
100
AcDbLine
 10
66.01981498099667
 20
390.1575050287274
 30
0.0
 11
69.34896933065886
 21
392.3818900582882
 31
0.0
  0
LINE
  5
83
330
1F
100
AcDbEntity
  8
躯体
  6
Continuous
 62
     2
370
     9
100
AcDbLine
 10
65.65479175464532
 20
388.1094951047409
 30
0.0
 11
71.06244061444261
 21
391.7227103707882
 31
0.0
  0
LINE
  5
84
330
1F
100
AcDbEntity
  8
躯体
  6
Continuous
 62
     2
370
     9
100
AcDbLine
 10
35.07043786951022
 20
421.1068821402139
 30
0.0
 11
37.294921875
 21
424.436036489876
 31
0.0
  0
LINE
  5
85
330
1F
100
AcDbEntity
  8
躯体
  6
Continuous
 62
     2
370
     9
100
AcDbLine
 10
33.02242794552365
 20
420.7418589138626
 30
0.0
 11
36.6357421875
 21
426.1493098218018
 31
0.0
  0
LINE
  5
86
330
1F
100
AcDbEntity
  8
躯体
  6
Continuous
 62
     2
370
     9
100
AcDbLine
 10
24.26137563344605
 20
428.3293536351463
 30
0.0
 11
26.48576066300677
 21
431.6583100329504
 31
0.0
  0
LINE
  5
87
330
1F
100
AcDbEntity
  8
躯体
  6
Continuous
 62
     2
370
     9
100
AcDbLine
 10
24.7077570734798
 20
426.2973778116666
 30
0.0
 11
28.32107131545615
 21
431.7050266714639
 31
0.0
  0
LINE
  5
88
330
1F
100
AcDbEntity
  8
躯体
  6
Continuous
 62
     2
370
     9
100
AcDbLine
 10
-16.1760319890202
 20
445.0788521571058
 30
0.0
 11
-15.39491395692562
 21
449.0058211182545
 31
0.0
  0
LINE
  5
89
330
1F
100
AcDbEntity
  8
躯体
  6
Continuous
 62
     2
370
     9
100
AcDbLine
 10
-17.92840081292229
 20
443.9578507846396
 30
0.0
 11
-16.65962837837833
 21
450.3366514603153
 31
0.0
  0
LINE
  5
8A
330
1F
100
AcDbEntity
  8
躯体
  6
Continuous
 62
     2
370
     9
100
AcDbLine
 10
-28.92621014569249
 20
447.6150113631869
 30
0.0
 11
-28.14509211359791
 21
451.5421782761936
 31
0.0
  0
LINE
  5
8B
330
1F
100
AcDbEntity
  8
躯体
  6
Continuous
 62
     2
370
     9
100
AcDbLine
 10
-27.73622255067562
 20
445.9088642981531
 30
0.0
 11
-26.46745011613166
 21
452.2876649738287
 31
0.0
  0
LINE
  5
8C
330
1F
100
AcDbEntity
  8
躯体
  6
Continuous
 62
     2
370
     9
100
AcDbLine
 10
-72.69534549197635
 20
447.6150113631869
 30
0.0
 11
-73.47646352407094
 21
451.5421782761936
 31
0.0
  0
LINE
  5
8D
330
1F
100
AcDbEntity
  8
躯体
  6
Continuous
 62
     2
370
     9
100
AcDbLine
 10
-73.88533308699323
 20
445.9088642981531
 30
0.0
 11
-75.15415500950166
 21
452.2876649738287
 31
0.0
  0
LINE
  5
8E
330
1F
100
AcDbEntity
  8
躯体
  6
Continuous
 62
     2
370
     9
100
AcDbLine
 10
-85.44557313661312
 20
445.0788521571058
 30
0.0
 11
-86.22664168074323
 21
449.0060190701126
 31
0.0
  0
LINE
  5
8F
330
1F
100
AcDbEntity
  8
躯体
  6
Continuous
 62
     2
370
     9
100
AcDbLine
 10
-83.69315482474656
 20
443.9578507846396
 30
0.0
 11
-84.96202623521958
 21
450.3366514603153
 31
0.0
  0
LINE
  5
90
330
1F
100
AcDbEntity
  8
躯体
  6
Continuous
 62
     2
370
     9
100
AcDbLine
 10
-125.8829312711148
 20
428.3293536351463
 30
0.0
 11
-128.1074152766047
 21
431.6583100329504
 31
0.0
  0
LINE
  5
91
330
1F
100
AcDbEntity
  8
躯体
  6
Continuous
 62
     2
370
     9
100
AcDbLine
 10
-126.3293621991131
 20
426.2973778116666
 30
0.0
 11
-129.9426764410895
 21
431.7050266714639
 31
0.0
  0
LINE
  5
92
330
1F
100
AcDbEntity
  8
躯体
  6
Continuous
 62
     2
370
     9
100
AcDbLine
 10
-136.6920429951435
 20
421.1068821402139
 30
0.0
 11
-138.9164775126688
 21
424.436036489876
 31
0.0
  0
LINE
  5
93
330
1F
100
AcDbEntity
  8
躯体
  6
Continuous
 62
     2
370
     9
100
AcDbLine
 10
-134.6440330711571
 20
420.7418589138626
 30
0.0
 11
-138.2573473131334
 21
426.1493098218018
 31
0.0
  0
LINE
  5
94
330
1F
100
AcDbEntity
  8
躯体
  6
Continuous
 62
     2
370
     9
100
AcDbLine
 10
-167.6414695945946
 20
390.1573070768694
 30
0.0
 11
-170.9706239442568
 21
392.3818900582882
 31
0.0
  0
LINE
  5
95
330
1F
100
AcDbEntity
  8
躯体
  6
Continuous
 62
     2
370
     9
100
AcDbLine
 10
-167.2763968802786
 20
388.1094951047409
 30
0.0
 11
-172.6840952280405
 21
391.7227103707882
 31
0.0
  0
LINE
  5
96
330
1F
100
AcDbEntity
  8
躯体
  6
Continuous
 62
     2
370
     9
100
AcDbLine
 10
-174.8638421135979
 20
379.3483438167341
 30
0.0
 11
-178.1929964632601
 21
381.572728846295
 31
0.0
  0
LINE
  5
97
330
1F
100
AcDbEntity
  8
躯体
  6
Continuous
 62
     2
370
     9
100
AcDbLine
 10
-172.8320642419764
 20
379.794725256768
 30
0.0
 11
-178.2397625897381
 21
383.4079405228153
 31
0.0
  0
LINE
  5
98
330
1F
100
AcDbEntity
  8
躯体
  6
Continuous
 62
     2
370
     9
100
AcDbLine
 10
-191.6135385874155
 20
338.910936194268
 30
0.0
 11
-195.5405570365286
 21
339.6920542263626
 31
0.0
  0
LINE
  5
99
330
1F
100
AcDbEntity
  8
躯体
  6
Continuous
 62
     2
370
     9
100
AcDbLine
 10
-190.4925372149493
 20
337.1584683944369
 30
0.0
 11
-196.8713873785895
 21
338.4273398049099
 31
0.0
  0
LINE
  5
9A
330
1F
100
AcDbEntity
  8
躯体
  6
Continuous
 62
     2
370
     9
100
AcDbLine
 10
90.8218961148649
 20
327.3507456326126
 30
0.0
 11
97.20069679054063
 21
328.6196170430855
 31
0.0
  0
LINE
  5
9B
330
1F
100
AcDbEntity
  8
躯体
  6
Continuous
 62
     2
370
     9
100
AcDbLine
 10
92.52814215582771
 20
326.1606590616666
 30
0.0
 11
96.45511111697635
 21
326.9417770937612
 31
0.0
  0
LINE
  5
9C
330
1F
100
AcDbEntity
  8
躯体
  6
Continuous
 62
     2
370
     9
100
AcDbLine
 10
95.24968327702709
 20
338.4273398049099
 30
0.0
 11
93.91905088682438
 21
339.6920542263626
 31
0.0
  0
LINE
  5
9D
330
1F
100
AcDbEntity
  8
躯体
  6
Continuous
 62
     2
370
     9
100
AcDbLine
 10
89.99198294974667
 20
338.910936194268
 30
0.0
 11
88.87098157728042
 21
337.1584683944369
 31
0.0
  0
LINE
  5
9E
330
1F
100
AcDbEntity
  8
躯体
  6
Continuous
 62
     2
370
     9
100
AcDbLine
 10
97.20059781461157
 20
328.6196170430855
 30
0.0
 11
96.45511111697635
 21
326.9417770937612
 31
0.0
  0
LINE
  5
9F
330
1F
100
AcDbEntity
  8
躯体
  6
Continuous
 62
     2
370
     9
100
AcDbLine
 10
92.52814215582771
 20
326.1606590616666
 30
0.0
 11
90.8218961148649
 21
327.3507456326126
 31
0.0
  0
LINE
  5
A0
330
1F
100
AcDbEntity
  8
躯体
  6
Continuous
 62
     2
370
     9
100
AcDbLine
 10
76.6181574641048
 20
383.4079405228153
 30
0.0
 11
76.57144082559125
 21
381.572728846295
 31
0.0
  0
LINE
  5
A1
330
1F
100
AcDbEntity
  8
躯体
  6
Continuous
 62
     2
370
     9
100
AcDbLine
 10
73.24228647592906
 20
379.3483438167341
 30
0.0
 11
71.2105086043075
 21
379.794725256768
 31
0.0
  0
LINE
  5
A2
330
1F
100
AcDbEntity
  8
躯体
  6
Continuous
 62
     2
370
     9
100
AcDbLine
 10
71.06244061444261
 20
391.7227103707882
 30
0.0
 11
69.34896933065886
 21
392.3818900582882
 31
0.0
  0
LINE
  5
A3
330
1F
100
AcDbEntity
  8
躯体
  6
Continuous
 62
     2
370
     9
100
AcDbLine
 10
66.01981498099667
 20
390.1573070768694
 30
0.0
 11
65.65479175464532
 21
388.1092971528828
 31
0.0
  0
LINE
  5
A4
330
1F
100
AcDbEntity
  8
躯体
  6
Continuous
 62
     2
370
     9
100
AcDbLine
 10
36.6357421875
 20
426.1493098218018
 30
0.0
 11
37.294921875
 21
424.436036489876
 31
0.0
  0
LINE
  5
A5
330
1F
100
AcDbEntity
  8
躯体
  6
Continuous
 62
     2
370
     9
100
AcDbLine
 10
35.07043786951022
 20
421.1068821402139
 30
0.0
 11
33.02242794552365
 21
420.7416609620045
 31
0.0
  0
LINE
  5
A6
330
1F
100
AcDbEntity
  8
躯体
  6
Continuous
 62
     2
370
     9
100
AcDbLine
 10
28.32097233952709
 20
431.7050266714639
 30
0.0
 11
26.48576066300677
 21
431.6583100329504
 31
0.0
  0
LINE
  5
A7
330
1F
100
AcDbEntity
  8
躯体
  6
Continuous
 62
     2
370
     9
100
AcDbLine
 10
24.26127665751699
 20
428.3291556832882
 30
0.0
 11
24.7077570734798
 21
426.2973778116666
 31
0.0
  0
LINE
  5
A8
330
1F
100
AcDbEntity
  8
躯体
  6
Continuous
 62
     2
370
     9
100
AcDbLine
 10
-16.65962837837833
 20
450.3366514603153
 30
0.0
 11
-15.39491395692562
 21
449.0060190701126
 31
0.0
  0
LINE
  5
A9
330
1F
100
AcDbEntity
  8
躯体
  6
Continuous
 62
     2
370
     9
100
AcDbLine
 10
-16.1760319890202
 20
445.0788521571058
 30
0.0
 11
-17.92840081292229
 21
443.9578507846396
 31
0.0
  0
LINE
  5
AA
330
1F
100
AcDbEntity
  8
躯体
  6
Continuous
 62
     2
370
     9
100
AcDbLine
 10
-26.46745011613166
 20
452.2876649738287
 30
0.0
 11
-28.14509211359791
 21
451.5421782761936
 31
0.0
  0
LINE
  5
AB
330
1F
100
AcDbEntity
  8
躯体
  6
Continuous
 62
     2
370
     9
100
AcDbLine
 10
-28.92630912162156
 20
447.6150113631869
 30
0.0
 11
-27.73622255067562
 21
445.9088642981531
 31
0.0
  0
LINE
  5
AC
330
1F
100
AcDbEntity
  8
躯体
  6
Continuous
 62
     2
370
     9
100
AcDbLine
 10
-75.15420449746614
 20
452.2876649738287
 30
0.0
 11
-73.47646352407094
 21
451.5421782761936
 31
0.0
  0
LINE
  5
AD
330
1F
100
AcDbEntity
  8
躯体
  6
Continuous
 62
     2
370
     9
100
AcDbLine
 10
-72.69534549197635
 20
447.6150113631869
 30
0.0
 11
-73.88533308699323
 21
445.9088642981531
 31
0.0
  0
LINE
  5
AE
330
1F
100
AcDbEntity
  8
躯体
  6
Continuous
 62
     2
370
     9
100
AcDbLine
 10
-84.96202623521958
 20
450.3366514603153
 30
0.0
 11
-86.2266911687077
 21
449.0060190701126
 31
0.0
  0
LINE
  5
AF
330
1F
100
AcDbEntity
  8
躯体
  6
Continuous
 62
     2
370
     9
100
AcDbLine
 10
-85.44557313661312
 20
445.0788521571058
 30
0.0
 11
-83.69315482474656
 21
443.9578507846396
 31
0.0
  0
LINE
  5
B0
330
1F
100
AcDbEntity
  8
躯体
  6
Continuous
 62
     2
370
     9
100
AcDbLine
 10
-129.9427259290541
 20
431.7050266714639
 30
0.0
 11
-128.1074152766047
 21
431.6583100329504
 31
0.0
  0
LINE
  5
B1
330
1F
100
AcDbEntity
  8
躯体
  6
Continuous
 62
     2
370
     9
100
AcDbLine
 10
-125.8829312711148
 20
428.3291556832882
 30
0.0
 11
-126.3294116870777
 21
426.2973778116666
 31
0.0
  0
LINE
  5
B2
330
1F
100
AcDbEntity
  8
躯体
  6
Continuous
 62
     2
370
     9
100
AcDbLine
 10
-138.2572978251688
 20
426.1493098218018
 30
0.0
 11
-138.9164775126688
 21
424.436036489876
 31
0.0
  0
LINE
  5
B3
330
1F
100
AcDbEntity
  8
躯体
  6
Continuous
 62
     2
370
     9
100
AcDbLine
 10
-136.6920429951435
 20
421.1068821402139
 30
0.0
 11
-134.6440330711571
 21
420.7416609620045
 31
0.0
  0
LINE
  5
B4
330
1F
100
AcDbEntity
  8
躯体
  6
Continuous
 62
     2
370
     9
100
AcDbLine
 10
-172.6840952280405
 20
391.7227103707882
 30
0.0
 11
-170.9706239442568
 21
392.3818900582882
 31
0.0
  0
LINE
  5
B5
330
1F
100
AcDbEntity
  8
躯体
  6
Continuous
 62
     2
370
     9
100
AcDbLine
 10
-167.6414695945946
 20
390.1573070768694
 30
0.0
 11
-167.2763968802786
 21
388.1094951047409
 31
0.0
  0
LINE
  5
B6
330
1F
100
AcDbEntity
  8
躯体
  6
Continuous
 62
     2
370
     9
100
AcDbLine
 10
-178.2397131017736
 20
383.4079405228153
 30
0.0
 11
-178.1930459512246
 21
381.572728846295
 31
0.0
  0
LINE
  5
B7
330
1F
100
AcDbEntity
  8
躯体
  6
Continuous
 62
     2
370
     9
100
AcDbLine
 10
-174.8638421135979
 20
379.3483438167341
 30
0.0
 11
-172.8320642419764
 21
379.794725256768
 31
0.0
  0
LINE
  5
B8
330
1F
100
AcDbEntity
  8
躯体
  6
Continuous
 62
     2
370
     9
100
AcDbLine
 10
-196.8713873785895
 20
338.4273398049099
 30
0.0
 11
-195.5406065244932
 21
339.6920542263626
 31
0.0
  0
LINE
  5
B9
330
1F
100
AcDbEntity
  8
躯体
  6
Continuous
 62
     2
370
     9
100
AcDbLine
 10
-191.61358807538
 20
338.910936194268
 30
0.0
 11
-190.4925372149493
 21
337.1584683944369
 31
0.0
  0
LINE
  5
BA
330
1F
100
AcDbEntity
  8
躯体
  6
Continuous
 62
     2
370
     9
100
AcDbLine
 10
-198.8222524282094
 20
328.6194190912274
 30
0.0
 11
-198.0767657305743
 21
326.9417770937612
 31
0.0
  0
LINE
  5
BB
330
1F
100
AcDbEntity
  8
躯体
  6
Continuous
 62
     2
370
     9
100
AcDbLine
 10
-194.1497472814611
 20
326.1606590616666
 30
0.0
 11
-192.4434517525337
 21
327.3507456326126
 31
0.0
  0
LINE
  5
BC
330
1F
100
AcDbEntity
  8
躯体
  6
JWW_CENTER1
 62
     4
370
     9
100
AcDbLine
 10
-4.073651288006658
 20
385.2273160506869
 30
0.0
 11
8.193821262668962
 21
406.4748746444369
 31
0.0
  0
LINE
  5
BD
330
1F
100
AcDbEntity
  8
躯体
  6
Continuous
 62
     4
370
     9
100
AcDbLine
 10
-2.710752744932392
 20
387.587694006768
 30
0.0
 11
6.133043443834481
 21
387.587694006768
 31
0.0
  0
LINE
  5
BE
330
1F
100
AcDbEntity
  8
躯体
  6
Continuous
 62
     4
370
     9
100
AcDbLine
 10
-2.710752744932392
 20
387.587694006768
 30
0.0
 11
-7.132700327280304
 21
395.2468473006869
 31
0.0
  0
LINE
  5
BF
330
1F
100
AcDbEntity
  8
躯体
  6
JWW_CENTER1
 62
     4
370
     9
100
AcDbLine
 10
-4.798155088682392
 20
400.1089408395382
 30
0.0
 11
9.17655326224667
 21
392.0406210549099
 31
0.0
  0
LINE
  5
C0
330
1F
100
AcDbEntity
  8
躯体
  6
Continuous
 62
     4
370
     9
100
AcDbLine
 10
-147.0108279666384
 20
304.2760913885247
 30
0.0
 11
-151.4327260610219
 21
311.9350467305855
 31
0.0
  0
LINE
  5
C1
330
1F
100
AcDbEntity
  8
躯体
  6
Continuous
 62
     2
370
     9
100
AcDbLine
 10
-204.0903452280405
 20
-70.08714697190607
 30
0.0
 11
-208.9563483160895
 21
-68.78343603440607
 31
0.0
  0
LINE
  5
C2
330
1F
100
AcDbEntity
  8
躯体
  6
Continuous
 62
     2
370
     9
100
AcDbLine
 10
-179.5240247571791
 20
-75.45946142503107
 30
0.0
 11
-180.2406104835304
 21
-71.20042822190607
 31
0.0
  0
LINE
  5
C3
330
1F
100
AcDbEntity
  8
躯体
  6
Continuous
 62
     2
370
     9
100
AcDbLine
 10
102.4687895903717
 20
-70.08714697190607
 30
0.0
 11
107.3347431904562
 21
-68.78343603440607
 31
0.0
  0
LINE
  5
C4
330
1F
100
AcDbEntity
  8
躯体
  6
Continuous
 62
     2
370
     9
100
AcDbLine
 10
-194.8107580236486
 20
-77.75006135112903
 30
0.0
 11
-164.8299593538851
 21
-85.78334365687226
 31
0.0
  0
LINE
  5
C5
330
1F
100
AcDbEntity
  8
躯体
  6
Continuous
 62
     2
370
     9
100
AcDbLine
 10
-220.8107943148226
 20
-70.78334365687226
 30
0.0
 11
-198.8107712204392
 21
-76.67825101540268
 31
0.0
  0
LINE
  5
C6
330
1F
100
AcDbEntity
  8
躯体
  6
Continuous
 62
     2
370
     9
100
AcDbLine
 10
-197.810817409206
 20
-77.46382296430471
 30
0.0
 11
-195.8108108108107
 21
-77.99967864420336
 31
0.0
  0
LINE
  5
C7
330
1F
100
AcDbEntity
  8
躯体
  6
Continuous
 62
     2
370
     9
100
AcDbLine
 10
-194.8107580236486
 20
-77.75006135112903
 30
0.0
 11
-195.8108108108107
 21
-77.99967864420336
 31
0.0
  0
LINE
  5
C8
330
1F
100
AcDbEntity
  8
躯体
  6
Continuous
 62
     2
370
     9
100
AcDbLine
 10
-197.810817409206
 20
-77.46382296430471
 30
0.0
 11
-198.8107712204392
 21
-76.67825101540268
 31
0.0
  0
LINE
  5
C9
330
1F
100
AcDbEntity
  8
躯体
  6
Continuous
 62
     2
370
     9
100
AcDbLine
 10
96.18916279560813
 20
-77.46382296430471
 30
0.0
 11
94.18915619721292
 21
-77.99967864420336
 31
0.0
  0
LINE
  5
CA
330
1F
100
AcDbEntity
  8
躯体
  6
Continuous
 62
     2
370
     9
100
AcDbLine
 10
119.1891891891893
 20
-70.78334365687226
 30
0.0
 11
97.18921558277032
 21
-76.67825101540268
 31
0.0
  0
LINE
  5
CB
330
1F
100
AcDbEntity
  8
躯体
  6
Continuous
 62
     2
370
     9
100
AcDbLine
 10
96.18916279560813
 20
-77.46382296430471
 30
0.0
 11
97.18921558277032
 21
-76.67825101540268
 31
0.0
  0
LINE
  5
CC
330
1F
100
AcDbEntity
  8
躯体
  6
Continuous
 62
     2
370
     9
100
AcDbLine
 10
93.1892023859798
 20
-77.75006135112903
 30
0.0
 11
94.18915619721292
 21
-77.99967864420336
 31
0.0
  0
LINE
  5
CD
330
1F
100
AcDbEntity
  8
躯体
  6
Continuous
 62
     2
370
     9
100
AcDbLine
 10
93.1892023859798
 20
-77.75006135112903
 30
0.0
 11
63.20840371621625
 21
-85.78334365687226
 31
0.0
  0
LINE
  5
CE
330
1F
100
AcDbEntity
  8
躯体
  6
Continuous
 62
     2
370
     9
100
AcDbLine
 10
-142.6018957189611
 20
-81.036755027227
 30
0.0
 11
-141.8107811180321
 21
-85.78334365687226
 31
0.0
  0
LINE
  5
CF
330
1F
100
AcDbEntity
  8
躯体
  6
Continuous
 62
     2
370
     9
100
AcDbLine
 10
-149.9500171558277
 20
-80.61897763068981
 30
0.0
 11
-150.8108108108107
 21
-85.78334365687226
 31
0.0
  0
LINE
  5
D0
330
1F
100
AcDbEntity
  8
躯体
  6
Continuous
 62
     2
370
     9
100
AcDbLine
 10
-163.6714955922719
 20
-80.61897763068981
 30
0.0
 11
-162.8107514252533
 21
-85.78334365687226
 31
0.0
  0
LINE
  5
D1
330
1F
100
AcDbEntity
  8
躯体
  6
Continuous
 62
     2
370
     9
100
AcDbLine
 10
76.44781989020271
 20
-77.05950629411888
 30
0.0
 11
62.55031276393584
 21
-80.78337664884862
 31
0.0
  0
LINE
  5
D2
330
1F
100
AcDbEntity
  8
躯体
  6
Continuous
 62
     2
370
     9
100
AcDbLine
 10
-178.0694250158361
 20
-77.05950629411888
 30
0.0
 11
-167.9037558065878
 21
-79.78342283761549
 31
0.0
  0
LINE
  5
D3
330
1F
100
AcDbEntity
  8
躯体
  6
Continuous
 62
     2
370
     9
100
AcDbLine
 10
52.02847867398657
 20
-81.58725914462565
 30
0.0
 11
51.18916279560813
 21
-85.78334365687226
 31
0.0
  0
LINE
  5
D4
330
1F
100
AcDbEntity
  8
躯体
  6
JWW_DASHED1
 62
     2
370
     9
100
AcDbLine
 10
102.4687895903717
 20
-70.08714697190607
 30
0.0
 11
76.44781989020271
 21
-77.05950629411888
 31
0.0
  0
LINE
  5
D5
330
1F
100
AcDbEntity
  8
躯体
  6
JWW_DASHED1
 62
     2
370
     9
100
AcDbLine
 10
-204.090394716005
 20
-70.08714697190607
 30
0.0
 11
-178.0693755278716
 21
-77.05950629411888
 31
0.0
  0
LINE
  5
D6
330
1F
100
AcDbEntity
  8
躯体
  6
Continuous
 62
     2
370
     9
100
AcDbLine
 10
78.47870697846292
 20
-72.03449837604455
 30
0.0
 11
77.90246911951022
 21
-75.45946142503107
 31
0.0
  0
LINE
  5
D7
330
1F
100
AcDbEntity
  8
躯体
  6
Continuous
 62
     2
370
     9
100
AcDbLine
 10
-219.9203573690878
 20
-68.78343603440607
 30
0.0
 11
-208.9563483160895
 21
-68.78343603440607
 31
0.0
  0
LINE
  5
D8
330
1F
100
AcDbEntity
  8
躯体
  6
Continuous
 62
     2
370
     9
100
AcDbLine
 10
-220.4054383973818
 20
-69.16211793896684
 30
0.0
 11
-220.8107943148226
 21
-70.78334365687226
 31
0.0
  0
LINE
  5
D9
330
1F
100
AcDbEntity
  8
躯体
  6
Continuous
 62
     2
370
     9
100
AcDbLine
 10
118.7838827597129
 20
-69.16211793896684
 30
0.0
 11
119.1891891891893
 21
-70.78334365687226
 31
0.0
  0
LINE
  5
DA
330
1F
100
AcDbEntity
  8
躯体
  6
Continuous
 62
     2
370
     9
100
AcDbLine
 10
118.298801731419
 20
-68.78343603440607
 30
0.0
 11
107.3347431904562
 21
-68.78343603440607
 31
0.0
  0
LINE
  5
DB
330
1F
100
AcDbEntity
  8
躯体
  6
Continuous
 62
     4
370
     9
100
AcDbLine
 10
-151.8108141100084
 20
-91.93964644403445
 30
0.0
 11
-161.8107976140202
 21
-91.93964644403445
 31
0.0
  0
LINE
  5
DC
330
1F
100
AcDbEntity
  8
躯体
  6
Continuous
 62
     4
370
     9
100
AcDbLine
 10
-161.1107903557854
 20
-92.63970319023377
 30
0.0
 11
-161.8107976140202
 21
-91.93964644403445
 31
0.0
  0
LINE
  5
DD
330
1F
100
AcDbEntity
  8
躯体
  6
Continuous
 62
     4
370
     9
100
AcDbLine
 10
-151.8108141100084
 20
-91.93964644403445
 30
0.0
 11
-152.5107718802786
 21
-92.63970319023377
 31
0.0
  0
LINE
  5
DE
330
1F
100
AcDbEntity
  8
躯体
  6
Continuous
 62
     4
370
     9
100
AcDbLine
 10
-152.5107718802786
 20
-92.63970319023377
 30
0.0
 11
-161.1107903557854
 21
-92.63970319023377
 31
0.0
  0
LINE
  5
DF
330
1F
100
AcDbEntity
  8
躯体
  6
Continuous
 62
     4
370
     9
100
AcDbLine
 10
-151.8108141100084
 20
-53.33972694445674
 30
0.0
 11
-161.8107976140202
 21
-53.33972694445674
 31
0.0
  0
LINE
  5
E0
330
1F
100
AcDbEntity
  8
躯体
  6
Continuous
 62
     4
370
     9
100
AcDbLine
 10
-152.5107718802786
 20
-52.63967019825742
 30
0.0
 11
-161.1107903557854
 21
-52.63967019825742
 31
0.0
  0
LINE
  5
E1
330
1F
100
AcDbEntity
  8
躯体
  6
Continuous
 62
     4
370
     9
100
AcDbLine
 10
-151.8108141100084
 20
-53.33972694445674
 30
0.0
 11
-152.5107718802786
 21
-52.63967019825742
 31
0.0
  0
LINE
  5
E2
330
1F
100
AcDbEntity
  8
躯体
  6
Continuous
 62
     4
370
     9
100
AcDbLine
 10
-161.1107903557854
 20
-52.63967019825742
 30
0.0
 11
-161.8107976140202
 21
-53.33972694445674
 31
0.0
  0
LINE
  5
E3
330
1F
100
AcDbEntity
  8
躯体
  6
JWW_CENTER1
 62
     4
370
     9
100
AcDbLine
 10
-156.8107811180321
 20
-97.11371211126419
 30
0.0
 11
-156.8107811180321
 21
-49.85072646937226
 31
0.0
  0
LINE
  5
E4
330
1F
100
AcDbEntity
  8
躯体
  6
Continuous
 62
     4
370
     9
100
AcDbLine
 10
-166.6108332453547
 20
-72.67833679454117
 30
0.0
 11
-166.6108332453547
 21
-79.78342283761549
 31
0.0
  0
LINE
  5
E5
330
1F
100
AcDbEntity
  8
躯体
  6
Continuous
 62
     4
370
     9
100
AcDbLine
 10
-147.0108279666384
 20
-72.67833679454117
 30
0.0
 11
-147.0108279666384
 21
-79.78342283761549
 31
0.0
  0
LINE
  5
E6
330
1F
100
AcDbEntity
  8
躯体
  6
Continuous
 62
     4
370
     9
100
AcDbLine
 10
-161.7033592430321
 20
-72.67833679454117
 30
0.0
 11
-161.7033592430321
 21
-79.78342283761549
 31
0.0
  0
LINE
  5
E7
330
1F
100
AcDbEntity
  8
躯体
  6
Continuous
 62
     4
370
     9
100
AcDbLine
 10
-151.9182524809966
 20
-72.67833679454117
 30
0.0
 11
-151.9182524809966
 21
-79.78342283761549
 31
0.0
  0
LINE
  5
E8
330
1F
100
AcDbEntity
  8
躯体
  6
Continuous
 62
     4
370
     9
100
AcDbLine
 10
-164.1570715002111
 20
-71.78339644403445
 30
0.0
 11
-149.4645402238175
 21
-71.78339644403445
 31
0.0
  0
LINE
  5
E9
330
1F
100
AcDbEntity
  8
躯体
  6
Continuous
 62
     4
370
     9
100
AcDbLine
 10
-151.8108141100084
 20
-91.93964644403445
 30
0.0
 11
-151.8108141100084
 21
-79.78342283761549
 31
0.0
  0
LINE
  5
EA
330
1F
100
AcDbEntity
  8
躯体
  6
Continuous
 62
     4
370
     9
100
AcDbLine
 10
-151.8108141100084
 20
-71.78339644403445
 30
0.0
 11
-151.8108141100084
 21
-53.33972694445674
 31
0.0
  0
LINE
  5
EB
330
1F
100
AcDbEntity
  8
躯体
  6
Continuous
 62
     4
370
     9
100
AcDbLine
 10
-152.5107718802786
 20
-92.63970319023377
 30
0.0
 11
-152.5107718802786
 21
-79.78342283761549
 31
0.0
  0
LINE
  5
EC
330
1F
100
AcDbEntity
  8
躯体
  6
Continuous
 62
     4
370
     9
100
AcDbLine
 10
-152.5107718802786
 20
-71.78339644403445
 30
0.0
 11
-152.5107718802786
 21
-52.63967019825742
 31
0.0
  0
LINE
  5
ED
330
1F
100
AcDbEntity
  8
躯体
  6
Continuous
 62
     4
370
     9
100
AcDbLine
 10
-161.1107903557854
 20
-92.63970319023377
 30
0.0
 11
-161.1107903557854
 21
-79.78342283761549
 31
0.0
  0
LINE
  5
EE
330
1F
100
AcDbEntity
  8
躯体
  6
Continuous
 62
     4
370
     9
100
AcDbLine
 10
-161.1107903557854
 20
-71.78339644403445
 30
0.0
 11
-161.1107903557854
 21
-52.63967019825742
 31
0.0
  0
LINE
  5
EF
330
1F
100
AcDbEntity
  8
躯体
  6
Continuous
 62
     4
370
     9
100
AcDbLine
 10
-161.8107976140202
 20
-91.93964644403445
 30
0.0
 11
-161.8107976140202
 21
-79.78342283761549
 31
0.0
  0
LINE
  5
F0
330
1F
100
AcDbEntity
  8
躯体
  6
Continuous
 62
     4
370
     9
100
AcDbLine
 10
-161.8107976140202
 20
-71.78339644403445
 30
0.0
 11
-161.8107976140202
 21
-53.33972694445674
 31
0.0
  0
LINE
  5
F1
330
1F
100
AcDbEntity
  8
躯体
  6
Continuous
 62
     2
370
     9
100
AcDbLine
 10
-184.3107976140202
 20
-75.08335289462565
 30
0.0
 11
-184.3107976140202
 21
-80.56345213449049
 31
0.0
  0
LINE
  5
F2
330
1F
100
AcDbEntity
  8
躯体
  6
Continuous
 62
     2
370
     9
100
AcDbLine
 10
-185.010804872255
 20
-75.78331066489591
 30
0.0
 11
-185.010804872255
 21
-80.3758927489331
 31
0.0
  0
LINE
  5
F3
330
1F
100
AcDbEntity
  8
躯体
  6
Continuous
 62
     2
370
     9
100
AcDbLine
 10
-189.6108596389357
 20
-75.78331066489591
 30
0.0
 11
-189.6108596389357
 21
-79.14334550442294
 31
0.0
  0
LINE
  5
F4
330
1F
100
AcDbEntity
  8
躯体
  6
Continuous
 62
     2
370
     9
100
AcDbLine
 10
-190.310817409206
 20
-75.08335289462565
 30
0.0
 11
-190.310817409206
 21
-78.95578611886549
 31
0.0
  0
LINE
  5
F5
330
1F
100
AcDbEntity
  8
躯体
  6
Continuous
 62
     2
370
     9
100
AcDbLine
 10
82.68924197635135
 20
-75.08335289462565
 30
0.0
 11
82.68924197635135
 21
-80.56345213449049
 31
0.0
  0
LINE
  5
F6
330
1F
100
AcDbEntity
  8
躯体
  6
Continuous
 62
     2
370
     9
100
AcDbLine
 10
83.38919974662167
 20
-75.78331066489591
 30
0.0
 11
83.38919974662167
 21
-80.3758927489331
 31
0.0
  0
LINE
  5
F7
330
1F
100
AcDbEntity
  8
躯体
  6
Continuous
 62
     2
370
     9
100
AcDbLine
 10
87.98920502533792
 20
-75.78331066489591
 30
0.0
 11
87.98920502533792
 21
-79.14334550442294
 31
0.0
  0
LINE
  5
F8
330
1F
100
AcDbEntity
  8
躯体
  6
Continuous
 62
     2
370
     9
100
AcDbLine
 10
88.68926177153719
 20
-75.08335289462565
 30
0.0
 11
88.68926177153719
 21
-78.95578611886549
 31
0.0
  0
LINE
  5
F9
330
1F
100
AcDbEntity
  8
躯体
  6
JWW_DASHED1
 62
     2
370
     9
100
AcDbLine
 10
92.97848263302365
 20
-70.76038124133174
 30
0.0
 11
93.16525021114865
 21
-69.50398079791955
 31
0.0
  0
LINE
  5
FA
330
1F
100
AcDbEntity
  8
躯体
  6
Continuous
 62
     2
370
     9
100
AcDbLine
 10
98.20223421663854
 20
-64.15472773626414
 30
0.0
 11
98.64831872888522
 21
-67.59374536717633
 31
0.0
  0
LINE
  5
FB
330
1F
100
AcDbEntity
  8
躯体
  6
Continuous
 62
     2
370
     9
100
AcDbLine
 10
93.96250131967906
 20
-64.13631821346013
 30
0.0
 11
93.1651512352197
 21
-69.50368387013242
 31
0.0
  0
LINE
  5
FC
330
1F
100
AcDbEntity
  8
躯体
  6
Continuous
 62
     2
370
     9
100
AcDbLine
 10
-199.8238393422719
 20
-64.15472773626414
 30
0.0
 11
-200.2699733424831
 21
-67.59374536717633
 31
0.0
  0
LINE
  5
FD
330
1F
100
AcDbEntity
  8
躯体
  6
Continuous
 62
     2
370
     9
100
AcDbLine
 10
-195.5840569573479
 20
-64.13631821346013
 30
0.0
 11
-194.7867068728884
 21
-69.50368387013242
 31
0.0
  0
LINE
  5
FE
330
1F
100
AcDbEntity
  8
躯体
  6
JWW_DASHED1
 62
     2
370
     9
100
AcDbLine
 10
-194.7868058488175
 20
-69.50368387013242
 30
0.0
 11
-194.6001372466216
 21
-70.76038124133174
 31
0.0
  0
LINE
  5
FF
330
1F
100
AcDbEntity
  8
躯体
  6
Continuous
 62
     2
370
     9
100
AcDbLine
 10
90.6892683699325
 20
-63.28334365687226
 30
0.0
 11
97.21059438344605
 21
-63.28334365687226
 31
0.0
  0
LINE
  5
100
330
1F
100
AcDbEntity
  8
躯体
  6
Continuous
 62
     2
370
     9
100
AcDbLine
 10
-193.3653135557432
 20
-70.78334365687226
 30
0.0
 11
-191.0982204127956
 21
-70.78334365687226
 31
0.0
  0
LINE
  5
101
330
1F
100
AcDbEntity
  8
躯体
  6
Continuous
 62
     2
370
     9
100
AcDbLine
 10
89.47661528716219
 20
-70.78334365687226
 30
0.0
 11
91.74375791807438
 21
-70.78334365687226
 31
0.0
  0
LINE
  5
102
330
1F
100
AcDbEntity
  8
建具
  6
Continuous
 62
     4
370
     9
100
AcDbLine
 10
-169.3526644320101
 20
-128.6398219613486
 30
0.0
 11
-169.8108240076014
 21
-128.6398219613486
 31
0.0
  0
LINE
  5
103
330
1F
100
AcDbEntity
  8
建具
  6
Continuous
 62
     4
370
     9
100
AcDbLine
 10
-169.8108240076014
 20
-148.6398384573368
 30
0.0
 11
68.18916939400344
 21
-148.6398384573368
 31
0.0
  0
LINE
  5
104
330
1F
100
AcDbEntity
  8
通り芯
  6
Continuous
 62
     3
370
     9
100
AcDbLine
 10
-193.8107052364865
 20
-89.33974673964252
 30
0.0
 11
-199.8107745196368
 21
-89.33974673964252
 31
0.0
  0
LINE
  5
105
330
1F
100
AcDbEntity
  8
通り芯
  6
Continuous
 62
     3
370
     9
100
AcDbLine
 10
-194.5107124947212
 20
-88.63978896937226
 30
0.0
 11
-193.8107052364865
 21
-89.33974673964252
 31
0.0
  0
LINE
  5
106
330
1F
100
AcDbEntity
  8
通り芯
  6
Continuous
 62
     3
370
     9
100
AcDbLine
 10
-199.8107745196368
 20
-111.6398153629534
 30
0.0
 11
-199.8107745196368
 21
-88.63978896937226
 31
0.0
  0
LINE
  5
107
330
1F
100
AcDbEntity
  8
通り芯
  6
Continuous
 62
     3
370
     9
100
AcDbLine
 10
-201.8108306059966
 20
-119.6397427806054
 30
0.0
 11
-207.8107514252533
 21
-119.6397427806054
 31
0.0
  0
LINE
  5
108
330
1F
100
AcDbEntity
  8
通り芯
  6
Continuous
 62
     3
370
     9
100
AcDbLine
 10
-207.8107514252533
 20
-119.6397427806054
 30
0.0
 11
-207.8107514252533
 21
-113.6398219613486
 31
0.0
  0
LINE
  5
109
330
1F
100
AcDbEntity
  8
通り芯
  6
Continuous
 62
     3
370
     9
100
AcDbLine
 10
-201.8108306059966
 20
-113.6398219613486
 30
0.0
 11
-207.8107514252533
 21
-113.6398219613486
 31
0.0
  0
LINE
  5
10A
330
1F
100
AcDbEntity
  8
通り芯
  6
JWW_CENTER1
 62
     3
370
     9
100
AcDbLine
 10
-201.8108306059966
 20
-116.6398813469061
 30
0.0
 11
-209.0166741448479
 21
-116.6398813469061
 31
0.0
  0
LINE
  5
10B
330
1F
100
AcDbEntity
  8
通り芯
  6
Continuous
 62
     3
370
     9
100
AcDbLine
 10
-199.1107177734375
 20
-86.96759064800403
 30
0.0
 11
-199.1107177734375
 21
-98.63982196134862
 31
0.0
  0
LINE
  5
10C
330
1F
100
AcDbEntity
  8
通り芯
  6
Continuous
 62
     3
370
     9
100
AcDbLine
 10
-194.5107124947212
 20
-86.96759064800403
 30
0.0
 11
-194.5107124947212
 21
-98.63982196134862
 31
0.0
  0
LINE
  5
10D
330
1F
100
AcDbEntity
  8
通り芯
  6
Continuous
 62
     3
370
     9
100
AcDbLine
 10
-193.8107052364865
 20
-88.63978896937226
 30
0.0
 11
-193.8107052364865
 21
-111.6398153629534
 31
0.0
  0
LINE
  5
10E
330
1F
100
AcDbEntity
  8
通り芯
  6
JWW_CENTER1
 62
     3
370
     9
100
AcDbLine
 10
-196.8107646220438
 20
-84.75320218727768
 30
0.0
 11
-196.8107646220438
 21
-111.6398153629534
 31
0.0
  0
LINE
  5
10F
330
1F
100
AcDbEntity
  8
建具
  6
Continuous
 62
     4
370
     9
100
AcDbLine
 10
67.73100981841219
 20
-128.6398219613486
 30
0.0
 11
68.18916939400344
 21
-128.6398219613486
 31
0.0
  0
LINE
  5
110
330
1F
100
AcDbEntity
  8
通り芯
  6
Continuous
 62
     3
370
     9
100
AcDbLine
 10
-230.8107778188345
 20
-78.63975597739591
 30
0.0
 11
-229.8108240076014
 21
-80.63976257579117
 31
0.0
  0
LINE
  5
111
330
1F
100
AcDbEntity
  8
通り芯
  6
JWW_PHANTOM1
 62
     3
370
     9
100
AcDbLine
 10
-190.7722926784206
 20
-86.18845213449049
 30
0.0
 11
-191.5624670080236
 21
-87.07943344783513
 31
0.0
  0
LINE
  5
112
330
1F
100
AcDbEntity
  8
通り芯
  6
Continuous
 62
     3
370
     9
100
AcDbLine
 10
-206.5274295291384
 20
-81.96683183254794
 30
0.0
 11
-206.288600612331
 21
-83.13365906016617
 31
0.0
  0
LINE
  5
113
330
1F
100
AcDbEntity
  8
通り芯
  6
Continuous
 62
     3
370
     9
100
AcDbLine
 10
-207.9691129117398
 20
-80.43597113786888
 30
0.0
 11
-212.8170528927365
 21
-79.13691206903445
 31
0.0
  0
LINE
  5
114
330
1F
100
AcDbEntity
  8
通り芯
  6
Continuous
 62
     3
370
     9
100
AcDbLine
 10
-229.9008921030405
 20
-69.54020598795336
 30
0.0
 11
-230.8107778188345
 21
-78.63975597739591
 31
0.0
  0
LINE
  5
115
330
1F
100
AcDbEntity
  8
通り芯
  6
Continuous
 62
     3
370
     9
100
AcDbLine
 10
129.1892221811656
 20
-78.63975597739591
 30
0.0
 11
128.1891693940034
 21
-80.63976257579117
 31
0.0
  0
LINE
  5
116
330
1F
100
AcDbEntity
  8
通り芯
  6
Continuous
 62
     3
370
     9
100
AcDbLine
 10
120.1892419763514
 20
-80.63976257579117
 30
0.0
 11
128.1891693940034
 21
-80.63976257579117
 31
0.0
  0
LINE
  5
117
330
1F
100
AcDbEntity
  8
通り芯
  6
Continuous
 62
     3
370
     9
100
AcDbLine
 10
89.15068755278719
 20
-86.18845213449049
 30
0.0
 11
89.9409113703548
 21
-87.07943344783513
 31
0.0
  0
LINE
  5
118
330
1F
100
AcDbEntity
  8
通り芯
  6
Continuous
 62
     3
370
     9
100
AcDbLine
 10
104.9057749155406
 20
-81.96683183254794
 30
0.0
 11
104.6669459987331
 21
-83.13365906016617
 31
0.0
  0
LINE
  5
119
330
1F
100
AcDbEntity
  8
通り芯
  6
Continuous
 62
     3
370
     9
100
AcDbLine
 10
106.3475572740711
 20
-80.43597113786888
 30
0.0
 11
111.1953982791385
 21
-79.13691206903445
 31
0.0
  0
LINE
  5
11A
330
1F
100
AcDbEntity
  8
通り芯
  6
Continuous
 62
     3
370
     9
100
AcDbLine
 10
128.2792374894426
 20
-69.54020598795336
 30
0.0
 11
129.1892221811656
 21
-78.63975597739591
 31
0.0
  0
LINE
  5
11B
330
1F
100
AcDbEntity
  8
通り芯
  6
Continuous
 62
     3
370
     9
100
AcDbLine
 10
-156.5998139252533
 20
-147.1606926855885
 30
0.0
 11
-158.1257753114443
 21
-148.6397889693723
 31
0.0
  0
LINE
  5
11C
330
1F
100
AcDbEntity
  8
通り芯
  6
Continuous
 62
     3
370
     9
100
AcDbLine
 10
-156.8107811180321
 20
-96.63981536295336
 30
0.0
 11
-152.5107718802786
 21
-94.15720213449049
 31
0.0
  0
LINE
  5
11D
330
1F
100
AcDbEntity
  8
通り芯
  6
Continuous
 62
     3
370
     9
100
AcDbLine
 10
-156.8107811180321
 20
-96.63981536295336
 30
0.0
 11
-161.1107408678209
 21
-94.15720213449049
 31
0.0
  0
LINE
  5
11E
330
1F
100
AcDbEntity
  8
通り芯
  6
Continuous
 62
     3
370
     9
100
AcDbLine
 10
-161.1107408678209
 20
-94.15720213449049
 30
0.0
 11
-152.5107718802786
 21
-94.15720213449049
 31
0.0
  0
LINE
  5
11F
330
1F
100
AcDbEntity
  8
通り芯
  6
Continuous
 62
     3
370
     9
100
AcDbLine
 10
54.97825828758448
 20
-147.1606926855885
 30
0.0
 11
56.50417018581084
 21
-148.6397889693723
 31
0.0
  0
LINE
  5
120
330
1F
100
AcDbEntity
  8
通り芯
  6
Continuous
 62
     3
370
     9
100
AcDbLine
 10
58.18923537795615
 20
-99.63977577258174
 30
0.0
 11
58.18923537795615
 21
-114.6397757725817
 31
0.0
  0
LINE
  5
121
330
1F
100
AcDbEntity
  8
通り芯
  6
Continuous
 62
     3
370
     9
100
AcDbLine
 10
-159.810791015625
 20
-99.63977577258174
 30
0.0
 11
-159.810791015625
 21
-114.6397757725817
 31
0.0
  0
LINE
  5
122
330
1F
100
AcDbEntity
  8
通り芯
  6
Continuous
 62
     3
370
     9
100
AcDbLine
 10
103.4644874366554
 20
-84.31424394192294
 30
0.0
 11
103.5856339738176
 21
-84.28168086126419
 31
0.0
  0
LINE
  5
123
330
1F
100
AcDbEntity
  8
通り芯
  6
Continuous
 62
     3
370
     9
100
AcDbLine
 10
91.45138302364865
 20
-87.53313910661888
 30
0.0
 11
103.4644874366554
 21
-84.314342917852
 31
0.0
  0
LINE
  5
124
330
1F
100
AcDbEntity
  8
通り芯
  6
Continuous
 62
     3
370
     9
100
AcDbLine
 10
-201.9949258340371
 20
-97.35204614842633
 30
0.0
 11
-203.6238716744087
 21
-85.96298496810539
 31
0.0
  0
LINE
  5
125
330
1F
100
AcDbEntity
  8
通り芯
  6
Continuous
 62
     3
370
     9
100
AcDbLine
 10
-193.098424963049
 20
-98.63972298541955
 30
0.0
 11
-200.5100889463682
 21
-98.63972298541955
 31
0.0
  0
LINE
  5
126
330
1F
100
AcDbEntity
  8
通り芯
  6
Continuous
 62
     3
370
     9
100
AcDbLine
 10
-191.6157160578547
 20
-97.36689253778445
 30
0.0
 11
-190.1067290434966
 21
-87.51957940433851
 31
0.0
  0
LINE
  5
127
330
1F
100
AcDbEntity
  8
通り芯
  6
Continuous
 62
     3
370
     9
100
AcDbLine
 10
-196.8107646220438
 20
-85.63972958381481
 30
0.0
 11
-199.110767261402
 21
-86.96759064800403
 31
0.0
  0
LINE
  5
128
330
1F
100
AcDbEntity
  8
通り芯
  6
Continuous
 62
     3
370
     9
100
AcDbLine
 10
-196.8107646220438
 20
-85.63972958381481
 30
0.0
 11
-194.5107619826857
 21
-86.96759064800403
 31
0.0
  0
LINE
  5
129
330
1F
100
AcDbEntity
  8
通り芯
  6
Continuous
 62
     3
370
     9
100
AcDbLine
 10
-199.110767261402
 20
-86.96759064800403
 30
0.0
 11
-194.5107619826857
 21
-86.96759064800403
 31
0.0
  0
LINE
  5
12A
330
1F
100
AcDbEntity
  8
通り芯
  6
Continuous
 62
     3
370
     9
100
AcDbLine
 10
-195.1019946948902
 20
-80.77783399682158
 30
0.0
 11
-200.0725163640202
 21
-79.44591491954117
 31
0.0
  0
LINE
  5
12B
330
1F
100
AcDbEntity
  8
通り芯
  6
Continuous
 62
     3
370
     9
100
AcDbLine
 10
-193.5914240656672
 20
-80.32412833803784
 30
0.0
 11
-192.3911924619932
 21
-78.97063250822362
 31
0.0
  0
LINE
  5
12C
330
1F
100
AcDbEntity
  8
通り芯
  6
Continuous
 62
     3
370
     9
100
AcDbLine
 10
-201.1538283889357
 20
-78.29779414251414
 30
0.0
 11
-201.5164761929898
 21
-76.52553115687226
 31
0.0
  0
LINE
  5
12D
330
1F
100
AcDbEntity
  8
通り芯
  6
Continuous
 62
     3
370
     9
100
AcDbLine
 10
-213.2315145956503
 20
-72.81413176920336
 30
0.0
 11
-228.8108701963682
 21
-68.63972298541955
 31
0.0
  0
LINE
  5
12E
330
1F
100
AcDbEntity
  8
通り芯
  6
Continuous
 62
     3
370
     9
100
AcDbLine
 10
-210.3337468327702
 20
-73.59069690856148
 30
0.0
 11
-207.4359790698902
 21
-74.36716307199049
 31
0.0
  0
LINE
  5
12F
330
1F
100
AcDbEntity
  8
通り芯
  6
Continuous
 62
     3
370
     9
100
AcDbLine
 10
-202.237367372255
 20
-75.76015029749726
 30
0.0
 11
-204.5382113070101
 21
-75.14362923541955
 31
0.0
  0
LINE
  5
130
330
1F
100
AcDbEntity
  8
通り芯
  6
Continuous
 62
     3
370
     9
100
AcDbLine
 10
-191.3841618718327
 20
-78.66826104496351
 30
0.0
 11
-189.0834169130068
 21
-79.28468313111216
 31
0.0
  0
LINE
  5
131
330
1F
100
AcDbEntity
  8
通り芯
  6
Continuous
 62
     3
370
     9
100
AcDbLine
 10
-186.1855996621621
 20
-80.06114929454117
 30
0.0
 11
-183.2878813872466
 21
-80.83761545797023
 31
0.0
  0
LINE
  5
132
330
1F
100
AcDbEntity
  8
通り芯
  6
Continuous
 62
     3
370
     9
100
AcDbLine
 10
93.48029059332771
 20
-80.77783399682158
 30
0.0
 11
98.4508617504224
 21
-79.44591491954117
 31
0.0
  0
LINE
  5
133
330
1F
100
AcDbEntity
  8
通り芯
  6
Continuous
 62
     3
370
     9
100
AcDbLine
 10
91.96981894003386
 20
-80.32412833803784
 30
0.0
 11
90.76963682432438
 21
-78.97063250822362
 31
0.0
  0
LINE
  5
134
330
1F
100
AcDbEntity
  8
通り芯
  6
Continuous
 62
     3
370
     9
100
AcDbLine
 10
99.53227275126699
 20
-78.29779414251414
 30
0.0
 11
99.89482157939199
 21
-76.52553115687226
 31
0.0
  0
LINE
  5
135
330
1F
100
AcDbEntity
  8
通り芯
  6
Continuous
 62
     3
370
     9
100
AcDbLine
 10
111.609909470017
 20
-72.81413176920336
 30
0.0
 11
127.1892155827703
 21
-68.63972298541955
 31
0.0
  0
LINE
  5
136
330
1F
100
AcDbEntity
  8
通り芯
  6
Continuous
 62
     3
370
     9
100
AcDbLine
 10
108.7121911951014
 20
-73.59069690856148
 30
0.0
 11
105.8143739442568
 21
-74.36716307199049
 31
0.0
  0
LINE
  5
137
330
1F
100
AcDbEntity
  8
通り芯
  6
Continuous
 62
     3
370
     9
100
AcDbLine
 10
100.6157622466217
 20
-75.76015029749726
 30
0.0
 11
102.9166556693413
 21
-75.14362923541955
 31
0.0
  0
LINE
  5
138
330
1F
100
AcDbEntity
  8
通り芯
  6
Continuous
 62
     3
370
     9
100
AcDbLine
 10
89.76255674619938
 20
-78.66826104496351
 30
0.0
 11
87.46176229940886
 21
-79.28468313111216
 31
0.0
  0
LINE
  5
139
330
1F
100
AcDbEntity
  8
通り芯
  6
Continuous
 62
     3
370
     9
100
AcDbLine
 10
84.56404402449334
 20
-80.06114929454117
 30
0.0
 11
81.66622677364865
 21
-80.83761545797023
 31
0.0
  0
LINE
  5
13A
330
1F
100
AcDbEntity
  8
通り芯
  6
Continuous
 62
     3
370
     9
100
AcDbLine
 10
64.92603198902032
 20
-85.32310558677091
 30
0.0
 11
78.76840952280406
 21
-81.61398264547023
 31
0.0
  0
LINE
  5
13B
330
1F
100
AcDbEntity
  8
通り芯
  6
Continuous
 62
     3
370
     9
100
AcDbLine
 10
62.61435019003386
 20
-89.09695878567294
 30
0.0
 11
62.71382099873313
 21
-87.95942843305471
 31
0.0
  0
LINE
  5
13C
330
1F
100
AcDbEntity
  8
通り芯
  6
Continuous
 62
     3
370
     9
100
AcDbLine
 10
-180.390064136402
 20
-81.61398264547023
 30
0.0
 11
-166.5475381387246
 21
-85.32310558677091
 31
0.0
  0
LINE
  5
13D
330
1F
100
AcDbEntity
  8
通り芯
  6
Continuous
 62
     3
370
     9
100
AcDbLine
 10
-146.6268013619087
 20
-87.9275581838993
 30
0.0
 11
-144.95361328125
 21
-99.63977577258174
 31
0.0
  0
LINE
  5
13E
330
1F
100
AcDbEntity
  8
通り芯
  6
Continuous
 62
     3
370
     9
100
AcDbLine
 10
49.91148252744938
 20
-92.55992859141617
 30
0.0
 11
59.84638935810813
 21
-91.82750671641617
 31
0.0
  0
LINE
  5
13F
330
1F
100
AcDbEntity
  8
通り芯
  6
Continuous
 62
     3
370
     9
100
AcDbLine
 10
48.56659760346292
 20
-93.69221321979455
 30
0.0
 11
47.07968222128386
 21
-99.63977577258174
 31
0.0
  0
LINE
  5
140
330
1F
100
AcDbEntity
  8
通り芯
  6
Continuous
 62
     3
370
     9
100
AcDbLine
 10
68.22905669341219
 20
-128.1834439524804
 30
0.0
 11
71.40865841427365
 21
-91.84136334648377
 31
0.0
  0
LINE
  5
141
330
1F
100
AcDbEntity
  8
通り芯
  6
Continuous
 62
     3
370
     9
100
AcDbLine
 10
-169.8507607949746
 20
-128.1834439524804
 30
0.0
 11
-173.030164563978
 21
-91.84136334648377
 31
0.0
  0
LINE
  5
142
330
1F
100
AcDbEntity
  8
通り芯
  6
Continuous
 62
     3
370
     9
100
AcDbLine
 10
65.59421848606428
 20
-128.6397229854196
 30
0.0
 11
67.73100981841219
 21
-128.6397229854196
 31
0.0
  0
LINE
  5
143
330
1F
100
AcDbEntity
  8
通り芯
  6
Continuous
 62
     3
370
     9
100
AcDbLine
 10
62.82427813555751
 20
-147.2889654896425
 30
0.0
 11
64.59921347128386
 21
-129.5403049638824
 31
0.0
  0
LINE
  5
144
330
1F
100
AcDbEntity
  8
通り芯
  6
Continuous
 62
     3
370
     9
100
AcDbLine
 10
-167.2157741237331
 20
-128.6397229854196
 30
0.0
 11
-169.3526644320101
 21
-128.6397229854196
 31
0.0
  0
LINE
  5
145
330
1F
100
AcDbEntity
  8
通り芯
  6
Continuous
 62
     3
370
     9
100
AcDbLine
 10
-164.4458337732264
 20
-147.2889654896425
 30
0.0
 11
-166.2207691089527
 21
-129.5403049638824
 31
0.0
  0
LINE
  5
146
330
1F
100
AcDbEntity
  8
通り芯
  6
Continuous
 62
     3
370
     9
100
AcDbLine
 10
-156.5998139252533
 20
-147.1606926855885
 30
0.0
 11
-155.5835785736908
 21
-114.6397757725817
 31
0.0
  0
LINE
  5
147
330
1F
100
AcDbEntity
  8
通り芯
  6
Continuous
 62
     3
370
     9
100
AcDbLine
 10
-158.1257753114443
 20
-148.6397889693723
 30
0.0
 11
-157.0632192250844
 21
-114.6397757725817
 31
0.0
  0
LINE
  5
148
330
1F
100
AcDbEntity
  8
通り芯
  6
Continuous
 62
     3
370
     9
100
AcDbLine
 10
54.97825828758448
 20
-147.1606926855885
 30
0.0
 11
53.96187447212844
 21
-114.6397757725817
 31
0.0
  0
LINE
  5
149
330
1F
100
AcDbEntity
  8
通り芯
  6
Continuous
 62
     3
370
     9
100
AcDbLine
 10
56.50417018581084
 20
-148.6397889693723
 30
0.0
 11
55.44166358741563
 21
-114.6397757725817
 31
0.0
  0
LINE
  5
14A
330
1F
100
AcDbEntity
  8
通り芯
  6
Continuous
 62
     3
370
     9
100
AcDbLine
 10
54.97825828758448
 20
-147.1606926855885
 30
0.0
 11
-156.5998139252533
 21
-147.1606926855885
 31
0.0
  0
LINE
  5
14B
330
1F
100
AcDbEntity
  8
通り芯
  6
Continuous
 62
     3
370
     9
100
AcDbLine
 10
61.33172112542229
 20
-148.6397889693723
 30
0.0
 11
-162.9533262510557
 21
-148.6397889693723
 31
0.0
  0
LINE
  5
14C
330
1F
100
AcDbEntity
  8
通り芯
  6
Continuous
 62
     3
370
     9
100
AcDbLine
 10
58.18923537795615
 20
-114.6397757725817
 30
0.0
 11
-159.810791015625
 21
-114.6397757725817
 31
0.0
  0
LINE
  5
14D
330
1F
100
AcDbEntity
  8
通り芯
  6
Continuous
 62
     3
370
     9
100
AcDbLine
 10
58.18923537795615
 20
-99.63977577258174
 30
0.0
 11
-159.810791015625
 21
-99.63977577258174
 31
0.0
  0
LINE
  5
14E
330
1F
100
AcDbEntity
  8
躯体
  6
Continuous
 62
     2
370
     9
100
AcDbLine
 10
-167.9037558065878
 20
-79.78342283761549
 30
0.0
 11
-144.0814373944256
 21
-79.78342283761549
 31
0.0
  0
LINE
  5
14F
330
1F
100
AcDbEntity
  8
躯体
  6
Continuous
 62
     2
370
     9
100
AcDbLine
 10
63.20840371621625
 20
-85.78334365687226
 30
0.0
 11
-151.8108141100084
 21
-85.78334365687226
 31
0.0
  0
LINE
  5
150
330
1F
100
AcDbEntity
  8
躯体
  6
Continuous
 62
     2
370
     9
100
AcDbLine
 10
-161.8107976140202
 20
-85.78334365687226
 30
0.0
 11
-164.8299593538851
 21
-85.78334365687226
 31
0.0
  0
LINE
  5
151
330
1F
100
AcDbEntity
  8
通り芯
  6
Continuous
 62
     3
370
     9
100
AcDbLine
 10
-152.5107718802786
 20
-92.63970319023377
 30
0.0
 11
-152.5107718802786
 21
-94.15720213449049
 31
0.0
  0
LINE
  5
152
330
1F
100
AcDbEntity
  8
通り芯
  6
Continuous
 62
     3
370
     9
100
AcDbLine
 10
-161.1107903557854
 20
-92.63970319023377
 30
0.0
 11
-161.1107903557854
 21
-94.15720213449049
 31
0.0
  0
LINE
  5
153
330
1F
100
AcDbEntity
  8
通り芯
  6
Continuous
 62
     3
370
     9
100
AcDbLine
 10
-148.1117372255068
 20
-86.639782370977
 30
0.0
 11
-152.5107718802786
 21
-86.639782370977
 31
0.0
  0
LINE
  5
154
330
1F
100
AcDbEntity
  8
通り芯
  6
Continuous
 62
     3
370
     9
100
AcDbLine
 10
-161.1107903557854
 20
-86.639782370977
 30
0.0
 11
-164.7744833456503
 21
-86.639782370977
 31
0.0
  0
LINE
  5
155
330
1F
100
AcDbEntity
  8
躯体
  6
Continuous
 62
     2
370
     9
100
AcDbLine
 10
-142.6672693201014
 20
-80.78337664884862
 30
0.0
 11
62.55031276393584
 21
-80.78337664884862
 31
0.0
  0
LINE
  5
156
330
1F
100
AcDbEntity
  8
通り芯
  6
JWW_CENTER1
 62
     3
370
     9
100
AcDbLine
 10
-50.81077781883437
 20
300.7192924020382
 30
0.0
 11
-50.81077781883437
 21
494.9532187111599
 31
0.0
  0
LINE
  5
157
330
1F
100
AcDbEntity
  8
躯体
  6
JWW_CENTER1
 62
     4
370
     9
100
AcDbLine
 10
-156.8107811180321
 20
302.2088801343018
 30
0.0
 11
-156.8107811180321
 21
312.3444111731531
 31
0.0
  0
LINE
  5
158
330
1F
100
AcDbEntity
  8
通り芯
  6
Continuous
 62
     3
370
     9
100
AcDbLine
 10
87.13672534839532
 20
-85.58361023204117
 30
0.0
 11
73.62077042863177
 21
-89.20504050019997
 31
0.0
  0
LINE
  5
159
330
1F
100
AcDbEntity
  8
通り芯
  6
Continuous
 62
     3
370
     9
100
AcDbLine
 10
-205.0859935863598
 20
-84.31414496599388
 30
0.0
 11
-205.2072390994509
 21
-84.28168086126419
 31
0.0
  0
LINE
  5
15A
330
1F
100
AcDbEntity
  8
通り芯
  6
JWW_PHANTOM1
 62
     3
370
     9
100
AcDbLine
 10
-193.0730376372466
 20
-87.53313910661888
 30
0.0
 11
-205.0859935863598
 21
-84.31414496599388
 31
0.0
  0
LINE
  5
15B
330
1F
100
AcDbEntity
  8
通り芯
  6
Continuous
 62
     3
370
     9
100
AcDbLine
 10
-175.2423260663006
 20
-89.20513947612903
 30
0.0
 11
-187.6121397276182
 21
-85.89063356396684
 31
0.0
  0
LINE
  5
15C
330
1F
100
AcDbEntity
  8
通り芯
  6
JWW_PHANTOM1
 62
     3
370
     9
100
AcDbLine
 10
-187.6120902396536
 20
-85.89063356396684
 30
0.0
 11
-188.7582809860642
 21
-85.58351125611216
 31
0.0
  0
LINE
  5
15D
330
1F
100
AcDbEntity
  8
通り芯
  6
Continuous
 62
     3
370
     9
100
AcDbLine
 10
-199.8107745196368
 20
-89.33974673964252
 30
0.0
 11
-199.1107177734375
 21
-88.63978896937226
 31
0.0
  0
LINE
  5
15E
330
1F
100
AcDbEntity
  8
通り芯
  6
Continuous
 62
     3
370
     9
100
AcDbLine
 10
-193.8108042124155
 20
-88.63978896937226
 30
0.0
 11
-199.8108240076014
 21
-88.63978896937226
 31
0.0
  0
LINE
  5
15F
330
1F
100
AcDbEntity
  8
その他
  6
Continuous
 62
     7
370
     9
100
AcDbLine
 10
-220.8107943148226
 20
112.2958964719284
 30
0.0
 11
119.1891891891893
 21
112.2958964719284
 31
0.0
  0
LINE
  5
160
330
1F
100
AcDbEntity
  8
その他
  6
Continuous
 62
     7
370
     9
100
AcDbLine
 10
-220.8107943148226
 20
-60.78331066489591
 30
0.0
 11
-220.8107943148226
 21
113.4958806357798
 31
0.0
  0
LINE
  5
161
330
1F
100
AcDbEntity
  8
その他
  6
Continuous
 62
     7
370
     9
100
AcDbLine
 10
119.1891891891893
 20
-60.78331066489591
 30
0.0
 11
119.1891891891893
 21
113.4958806357798
 31
0.0
  0
LINE
  5
162
330
1F
100
AcDbEntity
  8
その他
  6
Continuous
 62
     7
370
     9
100
AcDbLine
 10
-220.8107943148226
 20
112.2958964719284
 30
0.0
 11
-210.8963260135134
 21
113.6011415363287
 31
0.0
  0
LINE
  5
163
330
1F
100
AcDbEntity
  8
その他
  6
Continuous
 62
     7
370
     9
100
AcDbLine
 10
-220.8107943148226
 20
112.2958964719284
 30
0.0
 11
-210.8963260135134
 21
110.9906514075281
 31
0.0
  0
LINE
  5
164
330
1F
100
AcDbEntity
  8
その他
  6
Continuous
 62
     7
370
     9
100
AcDbLine
 10
119.1891891891893
 20
112.2958964719284
 30
0.0
 11
109.2747703758447
 21
113.6011415363287
 31
0.0
  0
LINE
  5
165
330
1F
100
AcDbEntity
  8
その他
  6
Continuous
 62
     7
370
     9
100
AcDbLine
 10
119.1891891891893
 20
112.2958964719284
 30
0.0
 11
109.2747703758447
 21
110.9906514075281
 31
0.0
  0
LINE
  5
166
330
1F
100
AcDbEntity
  8
その他
  6
Continuous
 62
     7
370
     9
100
AcDbLine
 10
-230.8107778188345
 20
144.2959030703237
 30
0.0
 11
129.1892221811656
 21
144.2959030703237
 31
0.0
  0
LINE
  5
167
330
1F
100
AcDbEntity
  8
その他
  6
Continuous
 62
     7
370
     9
100
AcDbLine
 10
129.1892221811656
 20
-68.63972298541955
 30
0.0
 11
129.1892221811656
 21
145.4958872341751
 31
0.0
  0
LINE
  5
168
330
1F
100
AcDbEntity
  8
その他
  6
Continuous
 62
     7
370
     9
100
AcDbLine
 10
-230.8107778188345
 20
144.2959030703237
 30
0.0
 11
-220.8963095175253
 21
145.601148134724
 31
0.0
  0
LINE
  5
169
330
1F
100
AcDbEntity
  8
その他
  6
Continuous
 62
     7
370
     9
100
AcDbLine
 10
-230.8107778188345
 20
144.2959030703237
 30
0.0
 11
-220.8963095175253
 21
142.9906580059233
 31
0.0
  0
LINE
  5
16A
330
1F
100
AcDbEntity
  8
その他
  6
Continuous
 62
     7
370
     9
100
AcDbLine
 10
129.1892221811656
 20
144.2959030703237
 30
0.0
 11
119.2748033678211
 21
145.601148134724
 31
0.0
  0
LINE
  5
16B
330
1F
100
AcDbEntity
  8
その他
  6
Continuous
 62
     7
370
     9
100
AcDbLine
 10
129.1892221811656
 20
144.2959030703237
 30
0.0
 11
119.2748033678211
 21
142.9906580059233
 31
0.0
  0
LINE
  5
16C
330
1F
100
AcDbEntity
  8
その他
  6
Continuous
 62
     7
370
     9
100
AcDbLine
 10
169.189255173142
 20
-128.6398219613486
 30
0.0
 11
169.189255173142
 21
-68.63977247338408
 31
0.0
  0
LINE
  5
16D
330
1F
100
AcDbEntity
  8
その他
  6
Continuous
 62
     7
370
     9
100
AcDbLine
 10
78.1892023859798
 20
-128.6398219613486
 30
0.0
 11
170.3892393369933
 21
-128.6398219613486
 31
0.0
  0
LINE
  5
16E
330
1F
100
AcDbEntity
  8
その他
  6
Continuous
 62
     7
370
     9
100
AcDbLine
 10
137.2842654666385
 20
-68.63977247338408
 30
0.0
 11
202.3892459353885
 21
-68.63977247338408
 31
0.0
  0
LINE
  5
16F
330
1F
100
AcDbEntity
  8
その他
  6
Continuous
 62
     7
370
     9
100
AcDbLine
 10
169.189255173142
 20
-128.6398219613486
 30
0.0
 11
167.8839606207771
 21
-118.725403148004
 31
0.0
  0
LINE
  5
170
330
1F
100
AcDbEntity
  8
その他
  6
Continuous
 62
     7
370
     9
100
AcDbLine
 10
169.189255173142
 20
-128.6398219613486
 30
0.0
 11
170.4945497255068
 21
-118.725403148004
 31
0.0
  0
LINE
  5
171
330
1F
100
AcDbEntity
  8
その他
  6
Continuous
 62
     7
370
     9
100
AcDbLine
 10
169.189255173142
 20
-68.63977247338408
 30
0.0
 11
167.8839606207771
 21
-78.5542407746932
 31
0.0
  0
LINE
  5
172
330
1F
100
AcDbEntity
  8
その他
  6
Continuous
 62
     7
370
     9
100
AcDbLine
 10
169.189255173142
 20
-68.63977247338408
 30
0.0
 11
170.4945497255068
 21
-78.5542407746932
 31
0.0
  0
LINE
  5
173
330
1F
100
AcDbEntity
  8
その他
  6
Continuous
 62
     7
370
     9
100
AcDbLine
 10
201.1892617715373
 20
-148.6398384573368
 30
0.0
 11
201.1892617715373
 21
-68.63977247338408
 31
0.0
  0
LINE
  5
174
330
1F
100
AcDbEntity
  8
その他
  6
Continuous
 62
     7
370
     9
100
AcDbLine
 10
201.1892617715373
 20
-148.6398384573368
 30
0.0
 11
199.8839672191723
 21
-138.7254196439922
 31
0.0
  0
LINE
  5
175
330
1F
100
AcDbEntity
  8
その他
  6
Continuous
 62
     7
370
     9
100
AcDbLine
 10
201.1892617715373
 20
-148.6398384573368
 30
0.0
 11
202.4945563239021
 21
-138.7254196439922
 31
0.0
  0
LINE
  5
176
330
1F
100
AcDbEntity
  8
その他
  6
Continuous
 62
     7
370
     9
100
AcDbLine
 10
201.1892617715373
 20
-68.63977247338408
 30
0.0
 11
199.8839672191723
 21
-78.5542407746932
 31
0.0
  0
LINE
  5
177
330
1F
100
AcDbEntity
  8
その他
  6
Continuous
 62
     7
370
     9
100
AcDbLine
 10
201.1892617715373
 20
-68.63977247338408
 30
0.0
 11
202.4945563239021
 21
-78.5542407746932
 31
0.0
  0
LINE
  5
178
330
1F
100
AcDbEntity
  8
建具
  6
Continuous
 62
     4
370
     9
100
AcDbLine
 10
-169.8108240076014
 20
-128.6398219613486
 30
0.0
 11
-169.8108240076014
 21
-148.6398384573368
 31
0.0
  0
LINE
  5
179
330
1F
100
AcDbEntity
  8
建具
  6
Continuous
 62
     4
370
     9
100
AcDbLine
 10
-166.8108141100084
 20
-128.6398219613486
 30
0.0
 11
-166.8108141100084
 21
-148.6398384573368
 31
0.0
  0
LINE
  5
17A
330
1F
100
AcDbEntity
  8
建具
  6
Continuous
 62
     4
370
     9
100
AcDbLine
 10
65.189208984375
 20
-128.6398219613486
 30
0.0
 11
65.189208984375
 21
-148.6398384573368
 31
0.0
  0
LINE
  5
17B
330
1F
100
AcDbEntity
  8
建具
  6
Continuous
 62
     4
370
     9
100
AcDbLine
 10
68.18916939400344
 20
-128.6398219613486
 30
0.0
 11
68.18916939400344
 21
-148.6398384573368
 31
0.0
  0
LINE
  5
17C
330
1F
100
AcDbEntity
  8
通り芯
  6
JWW_CENTER1
 62
     3
370
     9
100
AcDbLine
 10
-269.9613498997044
 20
304.2760913885247
 30
0.0
 11
162.3166635874156
 21
304.2760913885247
 31
0.0
  0
LINE
  5
17D
330
1F
100
AcDbEntity
  8
仕上
  6
Continuous
 62
     4
370
     9
100
AcDbLine
 10
80.68923537795615
 20
-61.2834855223706
 30
0.0
 11
80.68923537795615
 21
-63.78351851434695
 31
0.0
  0
LINE
  5
17E
330
1F
100
AcDbEntity
  8
仕上
  6
Continuous
 62
     4
370
     9
100
AcDbLine
 10
90.68916939400344
 20
-61.2834855223706
 30
0.0
 11
90.68916939400344
 21
-63.78351851434695
 31
0.0
  0
LINE
  5
17F
330
1F
100
AcDbEntity
  8
仕上
  6
Continuous
 62
     4
370
     9
100
AcDbLine
 10
82.6891430004224
 20
-75.08350135851924
 30
0.0
 11
82.6891430004224
 21
-63.78351851434695
 31
0.0
  0
LINE
  5
180
330
1F
100
AcDbEntity
  8
仕上
  6
Continuous
 62
     4
370
     9
100
AcDbLine
 10
82.6891430004224
 20
-75.08350135851924
 30
0.0
 11
88.68926177153719
 21
-75.08350135851924
 31
0.0
  0
LINE
  5
181
330
1F
100
AcDbEntity
  8
仕上
  6
Continuous
 62
     4
370
     9
100
AcDbLine
 10
88.68926177153719
 20
-75.08350135851924
 30
0.0
 11
88.68926177153719
 21
-63.78351851434695
 31
0.0
  0
LINE
  5
182
330
1F
100
AcDbEntity
  8
仕上
  6
Continuous
 62
     4
370
     9
100
AcDbLine
 10
83.38929872255073
 20
-75.78350861675403
 30
0.0
 11
83.38929872255073
 21
-63.78351851434695
 31
0.0
  0
LINE
  5
183
330
1F
100
AcDbEntity
  8
仕上
  6
Continuous
 62
     4
370
     9
100
AcDbLine
 10
83.38929872255073
 20
-75.78350861675403
 30
0.0
 11
87.98930400126699
 21
-75.78350861675403
 31
0.0
  0
LINE
  5
184
330
1F
100
AcDbEntity
  8
仕上
  6
Continuous
 62
     4
370
     9
100
AcDbLine
 10
87.98930400126699
 20
-75.78350861675403
 30
0.0
 11
87.98930400126699
 21
-63.78351851434695
 31
0.0
  0
LINE
  5
185
330
1F
100
AcDbEntity
  8
仕上
  6
Continuous
 62
     4
370
     9
100
AcDbLine
 10
82.6891430004224
 20
-75.08350135851924
 30
0.0
 11
83.38929872255073
 21
-75.78350861675403
 31
0.0
  0
LINE
  5
186
330
1F
100
AcDbEntity
  8
仕上
  6
Continuous
 62
     4
370
     9
100
AcDbLine
 10
87.98930400126699
 20
-75.78350861675403
 30
0.0
 11
88.68926177153719
 21
-75.08350135851924
 31
0.0
  0
LINE
  5
187
330
1F
100
AcDbEntity
  8
仕上
  6
Continuous
 62
     4
370
     9
100
AcDbLine
 10
86.18912980363177
 20
-60.7834591287895
 30
0.0
 11
85.18927496832771
 21
-60.7834591287895
 31
0.0
  0
LINE
  5
188
330
1F
100
AcDbEntity
  8
仕上
  6
Continuous
 62
     4
370
     9
100
AcDbLine
 10
85.18927496832771
 20
-60.7834591287895
 30
0.0
 11
85.18927496832771
 21
-59.78345582959184
 31
0.0
  0
LINE
  5
189
330
1F
100
AcDbEntity
  8
仕上
  6
Continuous
 62
     4
370
     9
100
AcDbLine
 10
86.18912980363177
 20
-60.7834591287895
 30
0.0
 11
86.18912980363177
 21
-59.78345582959184
 31
0.0
  0
LINE
  5
18A
330
1F
100
AcDbEntity
  8
仕上
  6
Continuous
 62
     4
370
     9
100
AcDbLine
 10
89.18928816511834
 20
-59.78345582959184
 30
0.0
 11
86.18912980363177
 21
-59.78345582959184
 31
0.0
  0
LINE
  5
18B
330
1F
100
AcDbEntity
  8
仕上
  6
Continuous
 62
     4
370
     9
100
AcDbLine
 10
85.18927496832771
 20
-59.78345582959184
 30
0.0
 11
82.18931455869938
 21
-59.78345582959184
 31
0.0
  0
LINE
  5
18C
330
1F
100
AcDbEntity
  8
仕上
  6
Continuous
 62
     6
370
     9
100
AcDbLine
 10
-192.5648952174831
 20
-69.59771100273377
 30
0.0
 11
-193.8108042124155
 21
-63.78351851434695
 31
0.0
  0
LINE
  5
18D
330
1F
100
AcDbEntity
  8
仕上
  6
Continuous
 62
     6
370
     9
100
AcDbLine
 10
90.94333957981428
 20
-69.59771100273377
 30
0.0
 11
92.18924857474667
 21
-63.78351851434695
 31
0.0
  0
LINE
  5
18E
330
1F
100
AcDbEntity
  8
仕上
  6
Continuous
 62
     6
370
     9
100
AcDbLine
 10
79.9433527766048
 20
-69.5977604906983
 30
0.0
 11
81.18926177153719
 21
-63.78351851434695
 31
0.0
  0
LINE
  5
18F
330
1F
100
AcDbEntity
  8
仕上
  6
Continuous
 62
     6
370
     9
100
AcDbLine
 10
89.47671426309125
 20
-70.78349212076586
 30
0.0
 11
88.68926177153719
 21
-70.78349212076586
 31
0.0
  0
LINE
  5
190
330
1F
100
AcDbEntity
  8
仕上
  6
Continuous
 62
     6
370
     9
100
AcDbLine
 10
79.84952359586157
 20
-63.78351851434695
 30
0.0
 11
92.18924857474667
 21
-63.78351851434695
 31
0.0
  0
LINE
  5
191
330
1F
100
AcDbEntity
  8
仕上
  6
Continuous
 62
     6
370
     9
100
AcDbLine
 10
76.87094198690886
 20
-61.1423458475395
 30
0.0
 11
67.18931455869938
 21
19.21655736719873
 31
0.0
  0
LINE
  5
192
330
1F
100
AcDbEntity
  8
仕上
  6
Continuous
 62
     6
370
     9
100
AcDbLine
 10
-151.8107646220438
 20
-70.78349212076586
 30
0.0
 11
82.6891430004224
 21
-70.78349212076586
 31
0.0
  0
LINE
  5
193
330
1F
100
AcDbEntity
  8
仕上
  6
Continuous
 62
     6
370
     9
100
AcDbLine
 10
67.18931455869938
 20
19.21655736719873
 30
0.0
 11
-168.8107712204392
 21
19.21655736719873
 31
0.0
  0
LINE
  5
194
330
1F
100
AcDbEntity
  8
仕上
  6
Continuous
 62
     6
370
     9
100
AcDbLine
 10
70.60833905194261
 20
-67.26192856502263
 30
0.0
 11
60.18914300042229
 21
19.21655736719873
 31
0.0
  0
LINE
  5
195
330
1F
100
AcDbEntity
  8
仕上
  6
JWW_DASHED1
 62
     6
370
     9
100
AcDbLine
 10
-165.2425900021115
 20
0.0560547014469535
 30
0.0
 11
-171.2204391891892
 21
-0.7834591287895023
 31
0.0
  0
LINE
  5
196
330
1F
100
AcDbEntity
  8
仕上
  6
Continuous
 62
     4
370
     9
100
AcDbLine
 10
-172.9975519953547
 20
15.21659365837269
 30
0.0
 11
-170.4975190033783
 21
15.21659365837269
 31
0.0
  0
LINE
  5
197
330
1F
100
AcDbEntity
  8
仕上
  6
Continuous
 62
     4
370
     9
100
AcDbLine
 10
-172.9975519953547
 20
5.216511178431745
 30
0.0
 11
-170.4975190033783
 21
5.216511178431745
 31
0.0
  0
LINE
  5
198
330
1F
100
AcDbEntity
  8
仕上
  6
Continuous
 62
     4
370
     9
100
AcDbLine
 10
-159.197536159206
 20
13.21658705997737
 30
0.0
 11
-170.4975190033783
 21
13.21658705997737
 31
0.0
  0
LINE
  5
199
330
1F
100
AcDbEntity
  8
仕上
  6
Continuous
 62
     4
370
     9
100
AcDbLine
 10
-159.197536159206
 20
13.21658705997737
 30
0.0
 11
-159.197536159206
 21
7.216517776827061
 31
0.0
  0
LINE
  5
19A
330
1F
100
AcDbEntity
  8
仕上
  6
Continuous
 62
     4
370
     9
100
AcDbLine
 10
-159.197536159206
 20
7.216517776827061
 30
0.0
 11
-170.4975190033783
 21
7.216517776827061
 31
0.0
  0
LINE
  5
19B
330
1F
100
AcDbEntity
  8
仕上
  6
Continuous
 62
     4
370
     9
100
AcDbLine
 10
-158.4974794130068
 20
12.51657980174258
 30
0.0
 11
-170.4975190033783
 21
12.51657980174258
 31
0.0
  0
LINE
  5
19C
330
1F
100
AcDbEntity
  8
仕上
  6
Continuous
 62
     4
370
     9
100
AcDbLine
 10
-158.4974794130068
 20
12.51657980174258
 30
0.0
 11
-158.4974794130068
 21
7.916525035061852
 31
0.0
  0
LINE
  5
19D
330
1F
100
AcDbEntity
  8
仕上
  6
Continuous
 62
     4
370
     9
100
AcDbLine
 10
-158.4974794130068
 20
7.916525035061852
 30
0.0
 11
-170.4975190033783
 21
7.916525035061852
 31
0.0
  0
LINE
  5
19E
330
1F
100
AcDbEntity
  8
仕上
  6
Continuous
 62
     4
370
     9
100
AcDbLine
 10
-159.197536159206
 20
13.21658705997737
 30
0.0
 11
-158.4974794130068
 21
12.51657980174258
 31
0.0
  0
LINE
  5
19F
330
1F
100
AcDbEntity
  8
仕上
  6
Continuous
 62
     4
370
     9
100
AcDbLine
 10
-158.4974794130068
 20
7.916525035061852
 30
0.0
 11
-159.197536159206
 21
7.216517776827061
 31
0.0
  0
LINE
  5
1A0
330
1F
100
AcDbEntity
  8
仕上
  6
Continuous
 62
     4
370
     9
100
AcDbLine
 10
-173.4974794130068
 20
9.71660025676789
 30
0.0
 11
-173.4974794130068
 21
10.71655406800102
 31
0.0
  0
LINE
  5
1A1
330
1F
100
AcDbEntity
  8
仕上
  6
Continuous
 62
     4
370
     9
100
AcDbLine
 10
-173.4974794130068
 20
10.71655406800102
 30
0.0
 11
-174.4975322001688
 21
10.71655406800102
 31
0.0
  0
LINE
  5
1A2
330
1F
100
AcDbEntity
  8
仕上
  6
Continuous
 62
     4
370
     9
100
AcDbLine
 10
-173.4974794130068
 20
9.71660025676789
 30
0.0
 11
-174.4975322001688
 21
9.71660025676789
 31
0.0
  0
LINE
  5
1A3
330
1F
100
AcDbEntity
  8
仕上
  6
Continuous
 62
     4
370
     9
100
AcDbLine
 10
-174.4975322001688
 20
6.716540871210498
 30
0.0
 11
-174.4975322001688
 21
9.71660025676789
 31
0.0
  0
LINE
  5
1A4
330
1F
100
AcDbEntity
  8
仕上
  6
Continuous
 62
     4
370
     9
100
AcDbLine
 10
-174.4975322001688
 20
10.71655406800102
 30
0.0
 11
-174.4975322001688
 21
13.71651447762946
 31
0.0
  0
LINE
  5
1A5
330
1F
100
AcDbEntity
  8
仕上
  6
Continuous
 62
     4
370
     9
100
AcDbLine
 10
-170.4975190033783
 20
5.216511178431745
 30
0.0
 11
-170.4975190033783
 21
15.21659365837269
 31
0.0
  0
LINE
  5
1A6
330
1F
100
AcDbEntity
  8
仕上
  6
JWW_CENTER1
 62
     6
370
     9
100
AcDbLine
 10
-157.5152422930743
 20
10.21652767441998
 30
0.0
 11
-177.6515981313344
 21
10.21652767441998
 31
0.0
  0
LINE
  5
1A7
330
1F
100
AcDbEntity
  8
仕上
  6
Continuous
 62
     6
370
     9
100
AcDbLine
 10
-178.4925966005068
 20
-61.1423458475395
 30
0.0
 11
-170.2566115920607
 21
7.216517776827061
 31
0.0
  0
LINE
  5
1A8
330
1F
100
AcDbEntity
  8
仕上
  6
Continuous
 62
     6
370
     9
100
AcDbLine
 10
-169.53369140625
 20
13.21658705997737
 30
0.0
 11
-168.8107712204392
 21
19.21655736719873
 31
0.0
  0
LINE
  5
1A9
330
1F
100
AcDbEntity
  8
仕上
  6
Continuous
 62
     6
370
     9
100
AcDbLine
 10
-172.2298946896115
 20
-67.26192856502263
 30
0.0
 11
-163.2565390097128
 21
7.216517776827061
 31
0.0
  0
LINE
  5
1AA
330
1F
100
AcDbEntity
  8
仕上
  6
Continuous
 62
     6
370
     9
100
AcDbLine
 10
-162.533717799831
 20
13.21658705997737
 30
0.0
 11
-161.8107976140202
 21
19.21655736719873
 31
0.0
  0
LINE
  5
1AB
330
1F
100
AcDbEntity
  8
仕上
  6
JWW_DASHED1
 62
     6
370
     9
100
AcDbLine
 10
63.62103436444261
 20
0.0560547014469535
 30
0.0
 11
69.59898252744938
 21
-0.7834591287895023
 31
0.0
  0
LINE
  5
1AC
330
1F
100
AcDbEntity
  8
仕上
  6
JWW_DASHED1
 62
     6
370
     9
100
AcDbLine
 10
-178.4924976245777
 20
-61.1423458475395
 30
0.0
 11
-179.654079127956
 21
-70.78349212076586
 31
0.0
  0
LINE
  5
1AD
330
1F
100
AcDbEntity
  8
仕上
  6
Continuous
 62
     6
370
     9
100
AcDbLine
 10
-161.8107976140202
 20
-70.78349212076586
 30
0.0
 11
-191.098170924831
 21
-70.78349212076586
 31
0.0
  0
LINE
  5
1AE
330
1F
100
AcDbEntity
  8
仕上
  6
Continuous
 62
     6
370
     9
100
AcDbLine
 10
-181.4710792335304
 20
-63.78351851434695
 30
0.0
 11
-193.8108042124155
 21
-63.78351851434695
 31
0.0
  0
LINE
  5
1AF
330
1F
100
AcDbEntity
  8
仕上
  6
JWW_CENTER1
 62
     4
370
     9
100
AcDbLine
 10
85.68930136190886
 20
-56.50552152321518
 30
0.0
 11
85.68930136190886
 21
-81.75393460915268
 31
0.0
  0
LINE
  5
1B0
330
1F
100
AcDbEntity
  8
躯体
  6
Continuous
 62
     2
370
     9
100
AcDbLine
 10
-198.8321500211148
 20
-63.28334365687226
 30
0.0
 11
-179.8125890783361
 21
-63.28334365687226
 31
0.0
  0
LINE
  5
1B1
330
1F
100
AcDbEntity
  8
その他
  6
Continuous
 62
     7
370
     9
100
AcDbLine
 10
-230.8107778188345
 20
-62.56532277954966
 30
0.0
 11
-230.8107778188345
 21
145.4958872341751
 31
0.0
  0
LINE
  5
1B2
330
1F
100
AcDbEntity
  8
仕上
  6
Continuous
 62
     4
370
     9
100
AcDbLine
 10
-186.3108042124155
 20
304.7761177821058
 30
0.0
 11
-183.3107448268581
 21
304.7761177821058
 31
0.0
  0
LINE
  5
1B3
330
1F
100
AcDbEntity
  8
仕上
  6
Continuous
 62
     4
370
     9
100
AcDbLine
 10
-186.8108306059966
 20
305.2760451997578
 30
0.0
 11
-186.8108306059966
 21
309.2510174864977
 31
0.0
  0
LINE
  5
1B4
330
1F
100
AcDbEntity
  8
仕上
  6
Continuous
 62
     4
370
     9
100
AcDbLine
 10
-187.8107844172297
 20
305.2760451997578
 30
0.0
 11
-187.8107844172297
 21
309.2510174864977
 31
0.0
  0
LINE
  5
1B5
330
1F
100
AcDbEntity
  8
仕上
  6
Continuous
 62
     4
370
     9
100
AcDbLine
 10
-188.3108108108107
 20
304.7761177821058
 30
0.0
 11
-191.3107712204392
 21
304.7761177821058
 31
0.0
  0
LINE
  5
1B6
330
1F
100
AcDbEntity
  8
仕上
  6
Continuous
 62
     4
370
     9
100
AcDbLine
 10
84.68924857474667
 20
304.7761177821058
 30
0.0
 11
81.68928816511834
 21
304.7761177821058
 31
0.0
  0
LINE
  5
1B7
330
1F
100
AcDbEntity
  8
仕上
  6
Continuous
 62
     4
370
     9
100
AcDbLine
 10
85.18927496832771
 20
305.2760451997578
 30
0.0
 11
85.18927496832771
 21
309.2510174864977
 31
0.0
  0
LINE
  5
1B8
330
1F
100
AcDbEntity
  8
仕上
  6
Continuous
 62
     4
370
     9
100
AcDbLine
 10
86.18912980363177
 20
305.2760451997578
 30
0.0
 11
86.18912980363177
 21
309.2510174864977
 31
0.0
  0
LINE
  5
1B9
330
1F
100
AcDbEntity
  8
仕上
  6
Continuous
 62
     4
370
     9
100
AcDbLine
 10
86.68915619721292
 20
304.7761177821058
 30
0.0
 11
89.68931455869938
 21
304.7761177821058
 31
0.0
  0
LINE
  5
1BA
330
1F
100
AcDbEntity
  8
仕上
  6
Continuous
 62
     6
370
     9
100
AcDbLine
 10
90.582275390625
 20
308.2761045853153
 30
0.0
 11
88.68926177153719
 21
308.2761045853153
 31
0.0
  0
LINE
  5
1BB
330
1F
100
AcDbEntity
  8
仕上
  6
Continuous
 62
     6
370
     9
100
AcDbLine
 10
-192.2038310282938
 20
308.2761045853153
 30
0.0
 11
-190.310817409206
 21
308.2761045853153
 31
0.0
  0
LINE
  5
1BC
330
1F
100
AcDbEntity
  8
仕上
  6
Continuous
 62
     6
370
     9
100
AcDbLine
 10
68.39919631545615
 20
331.4627006051632
 30
0.0
 11
73.90621700802365
 21
333.0797693340483
 31
0.0
  0
LINE
  5
1BD
330
1F
100
AcDbEntity
  8
仕上
  6
Continuous
 62
     6
370
     9
100
AcDbLine
 10
71.0574918179899
 20
313.77609798692
 30
0.0
 11
76.83610245988177
 21
313.77609798692
 31
0.0
  0
LINE
  5
1BE
330
1F
100
AcDbEntity
  8
仕上
  6
Continuous
 62
     6
370
     9
100
AcDbLine
 10
64.17312209670615
 20
345.8549884007713
 30
0.0
 11
69.68034074113177
 21
347.4720571296564
 31
0.0
  0
LINE
  5
1BF
330
1F
100
AcDbEntity
  8
仕上
  6
Continuous
 62
     6
370
     9
100
AcDbLine
 10
34.77687526393584
 20
391.5967140131024
 30
0.0
 11
38.53538719383448
 21
395.9343341038963
 31
0.0
  0
LINE
  5
1C0
330
1F
100
AcDbEntity
  8
仕上
  6
Continuous
 62
     6
370
     9
100
AcDbLine
 10
47.80131572001699
 20
376.5656355713795
 30
0.0
 11
52.6297574429899
 21
379.668530947224
 31
0.0
  0
LINE
  5
1C1
330
1F
100
AcDbEntity
  8
仕上
  6
Continuous
 62
     6
370
     9
100
AcDbLine
 10
6.708885399070937
 20
412.1724240004335
 30
0.0
 11
9.093215529983127
 21
417.3933052821058
 31
0.0
  0
LINE
  5
1C2
330
1F
100
AcDbEntity
  8
仕上
  6
Continuous
 62
     6
370
     9
100
AcDbLine
 10
23.44056825380073
 20
401.4195800920721
 30
0.0
 11
27.19927813555751
 21
405.757299158795
 31
0.0
  0
LINE
  5
1C3
330
1F
100
AcDbEntity
  8
仕上
  6
Continuous
 62
     6
370
     9
100
AcDbLine
 10
-26.01899018158781
 20
424.0069758374268
 30
0.0
 11
-25.20214183910468
 21
429.6881941651295
 31
0.0
  0
LINE
  5
1C4
330
1F
100
AcDbEntity
  8
仕上
  6
Continuous
 62
     6
370
     9
100
AcDbLine
 10
-6.935540276604684
 20
418.4035525899605
 30
0.0
 11
-4.551210145692494
 21
423.6245328475619
 31
0.0
  0
LINE
  5
1C5
330
1F
100
AcDbEntity
  8
仕上
  6
Continuous
 62
     6
370
     9
100
AcDbLine
 10
-60.75528531461146
 20
426.1416886752646
 30
0.0
 11
-61.57213365709458
 21
431.8229070029673
 31
0.0
  0
LINE
  5
1C6
330
1F
100
AcDbEntity
  8
仕上
  6
Continuous
 62
     6
370
     9
100
AcDbLine
 10
-40.86627032305739
 20
426.1416886752646
 30
0.0
 11
-40.04942198057427
 21
431.8229070029673
 31
0.0
  0
LINE
  5
1C7
330
1F
100
AcDbEntity
  8
仕上
  6
Continuous
 62
     6
370
     9
100
AcDbLine
 10
-94.68601536106416
 20
418.4035525899605
 30
0.0
 11
-97.07034549197635
 21
423.6245328475619
 31
0.0
  0
LINE
  5
1C8
330
1F
100
AcDbEntity
  8
仕上
  6
Continuous
 62
     6
370
     9
100
AcDbLine
 10
-75.6026644320101
 20
424.0069758374268
 30
0.0
 11
-76.41951277449323
 21
429.6881941651295
 31
0.0
  0
LINE
  5
1C9
330
1F
100
AcDbEntity
  8
仕上
  6
Continuous
 62
     6
370
     9
100
AcDbLine
 10
-125.0621238914696
 20
401.4195800920721
 30
0.0
 11
-128.8208337732264
 21
405.757299158795
 31
0.0
  0
LINE
  5
1CA
330
1F
100
AcDbEntity
  8
仕上
  6
Continuous
 62
     6
370
     9
100
AcDbLine
 10
-108.3304410367398
 20
412.1723250245045
 30
0.0
 11
-110.714771167652
 21
417.3933052821058
 31
0.0
  0
LINE
  5
1CB
330
1F
100
AcDbEntity
  8
仕上
  6
Continuous
 62
     6
370
     9
100
AcDbLine
 10
-149.4229703336148
 20
376.5655365954504
 30
0.0
 11
-154.2514120565878
 21
379.668530947224
 31
0.0
  0
LINE
  5
1CC
330
1F
100
AcDbEntity
  8
仕上
  6
Continuous
 62
     6
370
     9
100
AcDbLine
 10
-136.3984309016047
 20
391.5966150371733
 30
0.0
 11
-140.1570418074324
 21
395.9343341038963
 31
0.0
  0
LINE
  5
1CD
330
1F
100
AcDbEntity
  8
仕上
  6
Continuous
 62
     6
370
     9
100
AcDbLine
 10
-165.7947767103041
 20
345.8549884007713
 30
0.0
 11
-171.3018963788006
 21
347.4720571296564
 31
0.0
  0
LINE
  5
1CE
330
1F
100
AcDbEntity
  8
仕上
  6
Continuous
 62
     6
370
     9
100
AcDbLine
 10
-170.020751953125
 20
331.4627006051632
 30
0.0
 11
-175.5278716216216
 21
333.0797693340483
 31
0.0
  0
LINE
  5
1CF
330
1F
100
AcDbEntity
  8
仕上
  6
Continuous
 62
     6
370
     9
100
AcDbLine
 10
-172.6790474556587
 20
313.77609798692
 30
0.0
 11
-178.4577570734797
 21
313.77609798692
 31
0.0
  0
LINE
  5
1D0
330
1F
100
AcDbEntity
  8
躯体
  6
JWW_DASHED1
 62
     4
370
     9
100
AcDbLine
 10
-2.725698110219582
 20
404.5618678876801
 30
0.0
 11
-2.834967535895203
 21
404.3727248872578
 31
0.0
  0
LINE
  5
1D1
330
1F
100
AcDbEntity
  8
躯体
  6
Continuous
 62
     4
370
     9
100
AcDbLine
 10
-2.710851720861456
 20
387.5877929826971
 30
0.0
 11
-7.618276235219582
 21
396.0877467939301
 31
0.0
  0
LINE
  5
1D2
330
1F
100
AcDbEntity
  8
躯体
  6
Continuous
 62
     4
370
     9
100
AcDbLine
 10
7.104195259712924
 20
387.5877929826971
 30
0.0
 11
-2.710851720861456
 21
387.587891958626
 31
0.0
  0
LINE
  5
1D3
330
1F
100
AcDbEntity
  8
躯体
  6
Continuous
 62
     4
370
     9
100
AcDbLine
 10
11.88750395903719
 20
395.8726721000957
 30
0.0
 11
7.104195259712924
 21
387.5877929826971
 31
0.0
  0
LINE
  5
1D4
330
1F
100
AcDbEntity
  8
躯体
  6
Continuous
 62
     2
370
     9
100
AcDbLine
 10
15.17964131123313
 20
388.574780947224
 30
0.0
 11
17.17044314822635
 21
392.0231023154673
 31
0.0
  0
LINE
  5
1D5
330
1F
100
AcDbEntity
  8
躯体
  6
Continuous
 62
     2
370
     9
100
AcDbLine
 10
14.31360193201022
 20
389.0748073408051
 30
0.0
 11
16.37032173775344
 21
392.6372479552477
 31
0.0
  0
LINE
  5
1D6
330
1F
100
AcDbEntity
  8
躯体
  6
Continuous
 62
     2
370
     9
100
AcDbLine
 10
-9.935104782516873
 20
403.074754553643
 30
0.0
 11
-7.878384976773646
 21
406.6372941440146
 31
0.0
  0
LINE
  5
1D7
330
1F
100
AcDbEntity
  8
躯体
  6
Continuous
 62
     2
370
     9
100
AcDbLine
 10
-10.80114416173978
 20
403.574780947224
 30
0.0
 11
-8.81014437288843
 21
407.0231023154673
 31
0.0
  0
LINE
  5
1D8
330
1F
100
AcDbEntity
  8
躯体
  6
JWW_CENTER1
 62
     4
370
     9
100
AcDbLine
 10
7.089150918496671
 20
404.5618678876801
 30
0.0
 11
-4.074937975084367
 21
385.2252375561768
 31
0.0
  0
LINE
  5
1D9
330
1F
100
AcDbEntity
  8
躯体
  6
JWW_CENTER1
 62
     4
370
     9
100
AcDbLine
 10
-7.599866712415519
 20
401.7265044480686
 30
0.0
 11
11.25960066511834
 21
390.837964540974
 31
0.0
  0
LINE
  5
1DA
330
1F
100
AcDbEntity
  8
躯体
  6
Continuous
 62
     4
370
     9
100
AcDbLine
 10
2.689274968327709
 20
401.0497070451971
 30
0.0
 11
2.689274968327709
 21
391.099854849251
 31
0.0
  0
LINE
  5
1DB
330
1F
100
AcDbEntity
  8
躯体
  6
Continuous
 62
     4
370
     9
100
AcDbLine
 10
1.689222181165633
 20
401.0497070451971
 30
0.0
 11
1.689222181165633
 21
391.099854849251
 31
0.0
  0
LINE
  5
1DC
330
1F
100
AcDbEntity
  8
躯体
  6
Continuous
 62
     4
370
     9
100
AcDbLine
 10
-151.9182524809966
 20
312.7760451997578
 30
0.0
 11
-147.0108279666384
 21
304.2759924125956
 31
0.0
  0
LINE
  5
1DD
330
1F
100
AcDbEntity
  8
躯体
  6
Continuous
 62
     2
370
     9
100
AcDbLine
 10
-156.8107316300675
 20
319.2760913885247
 30
0.0
 11
-160.7926322318411
 21
319.2760913885247
 31
0.0
  0
LINE
  5
1DE
330
1F
100
AcDbEntity
  8
躯体
  6
Continuous
 62
     2
370
     9
100
AcDbLine
 10
-156.8107316300675
 20
318.2761375772916
 30
0.0
 11
-160.9243691934121
 21
318.2761375772916
 31
0.0
  0
LINE
  5
1DF
330
1F
100
AcDbEntity
  8
仕上
  6
Continuous
 62
     4
370
     9
100
AcDbLine
 10
57.506103515625
 20
361.039380556599
 30
0.0
 11
55.34090609163854
 21
359.7893145726463
 31
0.0
  0
LINE
  5
1E0
330
1F
100
AcDbEntity
  8
仕上
  6
Continuous
 62
     4
370
     9
100
AcDbLine
 10
52.50603753167229
 20
369.6995763969707
 30
0.0
 11
50.34103805954396
 21
368.449609388947
 31
0.0
  0
LINE
  5
1E1
330
1F
100
AcDbEntity
  8
仕上
  6
Continuous
 62
     4
370
     9
100
AcDbLine
 10
44.55490524704396
 20
355.8713524210416
 30
0.0
 11
41.55494483741563
 21
361.0675886963795
 31
0.0
  0
LINE
  5
1E2
330
1F
100
AcDbEntity
  8
仕上
  6
Continuous
 62
     4
370
     9
100
AcDbLine
 10
43.59859982052365
 20
356.1276011013626
 30
0.0
 11
41.29859718116563
 21
360.1112832698591
 31
0.0
  0
LINE
  5
1E3
330
1F
100
AcDbEntity
  8
仕上
  6
Continuous
 62
     4
370
     9
100
AcDbLine
 10
44.55490524704396
 20
355.8713524210416
 30
0.0
 11
43.59859982052365
 21
356.1276011013626
 31
0.0
  0
LINE
  5
1E4
330
1F
100
AcDbEntity
  8
仕上
  6
Continuous
 62
     4
370
     9
100
AcDbLine
 10
41.29859718116563
 20
360.1112832698591
 30
0.0
 11
41.55494483741563
 21
361.0675886963795
 31
0.0
  0
LINE
  5
1E5
330
1F
100
AcDbEntity
  8
仕上
  6
Continuous
 62
     4
370
     9
100
AcDbLine
 10
55.1890770164697
 20
366.0524123872578
 30
0.0
 11
55.68910341005073
 21
365.1863730080349
 31
0.0
  0
LINE
  5
1E6
330
1F
100
AcDbEntity
  8
仕上
  6
Continuous
 62
     4
370
     9
100
AcDbLine
 10
55.68910341005073
 20
365.1863730080349
 30
0.0
 11
56.55514278927365
 21
365.686498377545
 31
0.0
  0
LINE
  5
1E7
330
1F
100
AcDbEntity
  8
仕上
  6
Continuous
 62
     4
370
     9
100
AcDbLine
 10
55.1890770164697
 20
366.0524123872578
 30
0.0
 11
56.05511639569261
 21
366.5524387808389
 31
0.0
  0
LINE
  5
1E8
330
1F
100
AcDbEntity
  8
仕上
  6
Continuous
 62
     4
370
     9
100
AcDbLine
 10
54.55503721494938
 20
369.1505569185078
 30
0.0
 11
56.05511639569261
 21
366.5524387808389
 31
0.0
  0
LINE
  5
1E9
330
1F
100
AcDbEntity
  8
仕上
  6
Continuous
 62
     4
370
     9
100
AcDbLine
 10
56.55514278927365
 20
365.686498377545
 30
0.0
 11
58.05502401815886
 21
363.088380239876
 31
0.0
  0
LINE
  5
1EA
330
1F
100
AcDbEntity
  8
仕上
  6
Continuous
 62
     4
370
     9
100
AcDbLine
 10
50.34103805954396
 20
368.449609388947
 30
0.0
 11
55.34090609163854
 21
359.7893145726463
 31
0.0
  0
LINE
  5
1EB
330
1F
100
AcDbEntity
  8
仕上
  6
Continuous
 62
     6
370
     9
100
AcDbLine
 10
50.50632786106428
 20
366.2356168319369
 30
0.0
 11
53.50628827069261
 21
361.0394795325281
 31
0.0
  0
LINE
  5
1EC
330
1F
100
AcDbEntity
  8
仕上
  6
Continuous
 62
     4
370
     9
100
AcDbLine
 10
41.29859718116563
 20
360.1112832698591
 30
0.0
 11
44.14732237119938
 21
361.7560652588795
 31
0.0
  0
LINE
  5
1ED
330
1F
100
AcDbEntity
  8
仕上
  6
Continuous
 62
     4
370
     9
100
AcDbLine
 10
50.85630674619938
 20
365.6293892664808
 30
0.0
 11
51.69106973184125
 21
366.111402040974
 31
0.0
  0
LINE
  5
1EE
330
1F
100
AcDbEntity
  8
仕上
  6
Continuous
 62
     4
370
     9
100
AcDbLine
 10
41.55494483741563
 20
361.0675886963795
 30
0.0
 11
43.78289300042229
 21
362.3538798703659
 31
0.0
  0
LINE
  5
1EF
330
1F
100
AcDbEntity
  8
仕上
  6
Continuous
 62
     4
370
     9
100
AcDbLine
 10
50.50632786106428
 20
366.2356168319369
 30
0.0
 11
51.34089289484803
 21
366.717530630501
 31
0.0
  0
LINE
  5
1F0
330
1F
100
AcDbEntity
  8
仕上
  6
Continuous
 62
     4
370
     9
100
AcDbLine
 10
43.59859982052365
 20
356.1276011013626
 30
0.0
 11
46.44732501055751
 21
357.7722841144537
 31
0.0
  0
LINE
  5
1F1
330
1F
100
AcDbEntity
  8
仕上
  6
Continuous
 62
     4
370
     9
100
AcDbLine
 10
53.15630938555751
 20
361.6456081220551
 30
0.0
 11
53.99087441934125
 21
362.1276208965483
 31
0.0
  0
LINE
  5
1F2
330
1F
100
AcDbEntity
  8
仕上
  6
Continuous
 62
     4
370
     9
100
AcDbLine
 10
44.55490524704396
 20
355.8713524210416
 30
0.0
 11
46.78305136190886
 21
357.1577425709572
 31
0.0
  0
LINE
  5
1F3
330
1F
100
AcDbEntity
  8
仕上
  6
Continuous
 62
     4
370
     9
100
AcDbLine
 10
53.50628827069261
 20
361.0394795325281
 30
0.0
 11
54.34105125633448
 21
361.5213933310923
 31
0.0
  0
LINE
  5
1F4
330
1F
100
AcDbEntity
  8
仕上
  6
Continuous
 62
     4
370
     9
100
AcDbLine
 10
-154.1275931693411
 20
369.6995763969707
 30
0.0
 11
-151.9624947212837
 21
368.449609388947
 31
0.0
  0
LINE
  5
1F5
330
1F
100
AcDbEntity
  8
仕上
  6
Continuous
 62
     4
370
     9
100
AcDbLine
 10
-159.1276591532938
 20
361.039380556599
 30
0.0
 11
-156.9625607052365
 21
359.7893145726463
 31
0.0
  0
LINE
  5
1F6
330
1F
100
AcDbEntity
  8
仕上
  6
Continuous
 62
     4
370
     9
100
AcDbLine
 10
-143.1764014991554
 20
361.0675886963795
 30
0.0
 11
-146.1764608847128
 21
355.8713524210416
 31
0.0
  0
LINE
  5
1F7
330
1F
100
AcDbEntity
  8
仕上
  6
Continuous
 62
     4
370
     9
100
AcDbLine
 10
-142.9201528188344
 20
360.1112832698591
 30
0.0
 11
-145.2202544341216
 21
356.1276011013626
 31
0.0
  0
LINE
  5
1F8
330
1F
100
AcDbEntity
  8
仕上
  6
Continuous
 62
     4
370
     9
100
AcDbLine
 10
-143.1764014991554
 20
361.0675886963795
 30
0.0
 11
-142.9201528188344
 21
360.1112832698591
 31
0.0
  0
LINE
  5
1F9
330
1F
100
AcDbEntity
  8
仕上
  6
Continuous
 62
     4
370
     9
100
AcDbLine
 10
-145.2202544341216
 20
356.1276011013626
 30
0.0
 11
-146.1764608847128
 21
355.8713524210416
 31
0.0
  0
LINE
  5
1FA
330
1F
100
AcDbEntity
  8
仕上
  6
Continuous
 62
     4
370
     9
100
AcDbLine
 10
-157.3105600717905
 20
365.1863730080349
 30
0.0
 11
-156.8106326541384
 21
366.0524123872578
 31
0.0
  0
LINE
  5
1FB
330
1F
100
AcDbEntity
  8
仕上
  6
Continuous
 62
     4
370
     9
100
AcDbLine
 10
-156.8106326541384
 20
366.0524123872578
 30
0.0
 11
-157.6766720333615
 21
366.5524387808389
 31
0.0
  0
LINE
  5
1FC
330
1F
100
AcDbEntity
  8
仕上
  6
Continuous
 62
     4
370
     9
100
AcDbLine
 10
-157.3105600717905
 20
365.1863730080349
 30
0.0
 11
-158.1765994510134
 21
365.686498377545
 31
0.0
  0
LINE
  5
1FD
330
1F
100
AcDbEntity
  8
仕上
  6
Continuous
 62
     4
370
     9
100
AcDbLine
 10
-159.6766786317568
 20
363.088380239876
 30
0.0
 11
-158.1765994510134
 21
365.686498377545
 31
0.0
  0
LINE
  5
1FE
330
1F
100
AcDbEntity
  8
仕上
  6
Continuous
 62
     4
370
     9
100
AcDbLine
 10
-157.6766720333615
 20
366.5524387808389
 30
0.0
 11
-156.1766918285473
 21
369.1505569185078
 31
0.0
  0
LINE
  5
1FF
330
1F
100
AcDbEntity
  8
仕上
  6
Continuous
 62
     4
370
     9
100
AcDbLine
 10
-156.9625607052365
 20
359.7893145726463
 30
0.0
 11
-151.9624947212837
 21
368.449609388947
 31
0.0
  0
LINE
  5
200
330
1F
100
AcDbEntity
  8
仕上
  6
Continuous
 62
     6
370
     9
100
AcDbLine
 10
-155.1278439083615
 20
361.0394795325281
 30
0.0
 11
-152.1277845228041
 21
366.2356168319369
 31
0.0
  0
LINE
  5
201
330
1F
100
AcDbEntity
  8
仕上
  6
Continuous
 62
     4
370
     9
100
AcDbLine
 10
-145.2202544341216
 20
356.1276011013626
 30
0.0
 11
-148.0689796241554
 21
357.7722841144537
 31
0.0
  0
LINE
  5
202
330
1F
100
AcDbEntity
  8
仕上
  6
Continuous
 62
     4
370
     9
100
AcDbLine
 10
-154.7778650232264
 20
361.6456081220551
 30
0.0
 11
-155.6125290329392
 21
362.1276208965483
 31
0.0
  0
LINE
  5
203
330
1F
100
AcDbEntity
  8
仕上
  6
Continuous
 62
     4
370
     9
100
AcDbLine
 10
-146.1764608847128
 20
355.8713524210416
 30
0.0
 11
-148.4045080236486
 21
357.1577425709572
 31
0.0
  0
LINE
  5
204
330
1F
100
AcDbEntity
  8
仕上
  6
Continuous
 62
     4
370
     9
100
AcDbLine
 10
-155.1278439083615
 20
361.0394795325281
 30
0.0
 11
-155.9625079180743
 21
361.5213933310923
 31
0.0
  0
LINE
  5
205
330
1F
100
AcDbEntity
  8
仕上
  6
Continuous
 62
     4
370
     9
100
AcDbLine
 10
-142.9201528188344
 20
360.1112832698591
 30
0.0
 11
-145.7689769847973
 21
361.7560652588795
 31
0.0
  0
LINE
  5
206
330
1F
100
AcDbEntity
  8
仕上
  6
Continuous
 62
     4
370
     9
100
AcDbLine
 10
-152.4777634079392
 20
365.6293892664808
 30
0.0
 11
-153.312526393581
 21
366.111402040974
 31
0.0
  0
LINE
  5
207
330
1F
100
AcDbEntity
  8
仕上
  6
Continuous
 62
     4
370
     9
100
AcDbLine
 10
-143.1764014991554
 20
361.0675886963795
 30
0.0
 11
-145.4044486380911
 21
362.3538798703659
 31
0.0
  0
LINE
  5
208
330
1F
100
AcDbEntity
  8
仕上
  6
Continuous
 62
     4
370
     9
100
AcDbLine
 10
-152.1277845228041
 20
366.2356168319369
 30
0.0
 11
-152.9625475084459
 21
366.717530630501
 31
0.0
  0
LINE
  5
209
330
1F
100
AcDbEntity
  8
仕上
  6
Continuous
 62
     6
370
     9
100
AcDbLine
 10
57.11336702913854
 20
364.7194045747578
 30
0.0
 11
60.73944916596292
 21
367.0498918002646
 31
0.0
  0
LINE
  5
20A
330
1F
100
AcDbEntity
  8
仕上
  6
Continuous
 62
     6
370
     9
100
AcDbLine
 10
-158.7349226668074
 20
364.7194045747578
 30
0.0
 11
-162.3610048036318
 21
367.0496938484064
 31
0.0
  0
LINE
  5
20B
330
1F
100
AcDbEntity
  8
仕上
  6
JWW_CENTER1
 62
     4
370
     9
100
AcDbLine
 10
41.05076145481428
 20
357.3123429721396
 30
0.0
 11
57.47443121832771
 21
366.7945339033051
 31
0.0
  0
LINE
  5
20C
330
1F
100
AcDbEntity
  8
仕上
  6
JWW_CENTER1
 62
     4
370
     9
100
AcDbLine
 10
-142.9966612119932
 20
357.4996054299099
 30
0.0
 11
-159.0905431798986
 21
366.7914656495045
 31
0.0
  0
LINE
  5
20D
330
1F
100
AcDbEntity
  8
仕上
  6
Continuous
 62
     4
370
     9
100
AcDbLine
 10
81.68928816511834
 20
304.2760913885247
 30
0.0
 11
81.68928816511834
 21
304.7761177821058
 31
0.0
  0
LINE
  5
20E
330
1F
100
AcDbEntity
  8
仕上
  6
Continuous
 62
     4
370
     9
100
AcDbLine
 10
89.68931455869938
 20
304.2760913885247
 30
0.0
 11
89.68931455869938
 21
304.7761177821058
 31
0.0
  0
LINE
  5
20F
330
1F
100
AcDbEntity
  8
仕上
  6
JWW_CENTER1
 62
     6
370
     9
100
AcDbLine
 10
85.68930136190886
 20
302.117723303643
 30
0.0
 11
85.68930136190886
 21
311.2210343783896
 31
0.0
  0
LINE
  5
210
330
1F
100
AcDbEntity
  8
仕上
  6
Continuous
 62
     4
370
     9
100
AcDbLine
 10
-183.3107448268581
 20
304.2760913885247
 30
0.0
 11
-183.3107448268581
 21
304.7761177821058
 31
0.0
  0
LINE
  5
211
330
1F
100
AcDbEntity
  8
仕上
  6
Continuous
 62
     4
370
     9
100
AcDbLine
 10
-191.3107712204392
 20
304.2760913885247
 30
0.0
 11
-191.3107712204392
 21
304.7761177821058
 31
0.0
  0
LINE
  5
212
330
1F
100
AcDbEntity
  8
仕上
  6
JWW_CENTER1
 62
     6
370
     9
100
AcDbLine
 10
-187.3107580236486
 20
301.2476259113287
 30
0.0
 11
-187.3107580236486
 21
312.6933013230686
 31
0.0
  0
LINE
  5
213
330
1F
100
AcDbEntity
  8
躯体
  6
Continuous
 62
     4
370
     9
100
AcDbLine
 10
-155.8106788429054
 20
304.2760913885247
 30
0.0
 11
-152.2522962415541
 21
306.3305347478997
 31
0.0
  0
LINE
  5
214
330
1F
100
AcDbEntity
  8
躯体
  6
Continuous
 62
     4
370
     9
100
AcDbLine
 10
-157.8107844172297
 20
304.2760913885247
 30
0.0
 11
-152.7523226351351
 21
307.1965741271227
 31
0.0
  0
LINE
  5
215
330
1F
100
AcDbEntity
  8
躯体
  6
JWW_CENTER1
 62
     4
370
     9
100
AcDbLine
 10
-156.8108306059966
 20
302.1082216144537
 30
0.0
 11
-156.8107316300675
 21
314.7496252250956
 31
0.0
  0
LINE
  5
216
330
1F
100
AcDbEntity
  8
躯体
  6
Continuous
 62
     4
370
     9
100
AcDbLine
 10
-2.834967535895203
 20
404.3726259113287
 30
0.0
 11
-7.618276235219582
 21
396.0877467939301
 31
0.0
  0
LINE
  5
217
330
1F
100
AcDbEntity
  8
躯体
  6
Continuous
 62
     4
370
     9
100
AcDbLine
 10
-161.4848698796452
 20
312.7760451997578
 30
0.0
 11
-151.9182524809966
 21
312.7760451997578
 31
0.0
  0
ARC
  5
218
330
1F
100
AcDbEntity
  8
躯体
  6
Continuous
 62
     2
370
     9
100
AcDbCircle
 10
-50.81077781883437
 20
304.2760913885247
 30
0.0
 40
144.9999835040118
100
AcDbArc
 50
13.81929016113281
 51
31.18070983886718
  0
ARC
  5
219
330
1F
100
AcDbEntity
  8
躯体
  6
Continuous
 62
     2
370
     9
100
AcDbCircle
 10
-50.81077781883437
 20
304.2760913885247
 30
0.0
 40
148.9999843288113
100
AcDbArc
 50
13.75027465820312
 51
31.24972534179688
  0
ARC
  5
21A
330
1F
100
AcDbEntity
  8
躯体
  6
Continuous
 62
     2
370
     9
100
AcDbCircle
 10
-50.81077781883437
 20
304.2760913885247
 30
0.0
 40
149.9999876280089
100
AcDbArc
 50
13.16020202636719
 51
31.83979797363282
  0
ARC
  5
21B
330
1F
100
AcDbEntity
  8
躯体
  6
Continuous
 62
     2
370
     9
100
AcDbCircle
 10
-50.81077781883437
 20
304.2760913885247
 30
0.0
 40
143.4999909272065
100
AcDbArc
 50
13.24676513671875
 51
31.75323486328125
  0
ARC
  5
21C
330
1F
100
AcDbEntity
  8
躯体
  6
Continuous
 62
     2
370
     9
100
AcDbCircle
 10
-50.81077781883437
 20
304.2760913885247
 30
0.0
 40
144.9999835040118
100
AcDbArc
 50
36.31929016113281
 51
53.68070983886719
  0
ARC
  5
21D
330
1F
100
AcDbEntity
  8
躯体
  6
Continuous
 62
     2
370
     9
100
AcDbCircle
 10
-50.81077781883437
 20
304.2760913885247
 30
0.0
 40
148.9999843288113
100
AcDbArc
 50
36.25027465820312
 51
53.74972534179688
  0
ARC
  5
21E
330
1F
100
AcDbEntity
  8
躯体
  6
Continuous
 62
     2
370
     9
100
AcDbCircle
 10
-50.81077781883437
 20
304.2760913885247
 30
0.0
 40
149.9999876280089
100
AcDbArc
 50
35.66020202636719
 51
54.33979797363281
  0
ARC
  5
21F
330
1F
100
AcDbEntity
  8
躯体
  6
Continuous
 62
     2
370
     9
100
AcDbCircle
 10
-50.81077781883437
 20
304.2760913885247
 30
0.0
 40
143.4999909272065
100
AcDbArc
 50
35.74676513671875
 51
54.25323486328125
  0
ARC
  5
220
330
1F
100
AcDbEntity
  8
躯体
  6
Continuous
 62
     2
370
     9
100
AcDbCircle
 10
-50.81077781883437
 20
304.2760913885247
 30
0.0
 40
144.9999835040118
100
AcDbArc
 50
58.81929016113281
 51
76.18070983886719
  0
ARC
  5
221
330
1F
100
AcDbEntity
  8
躯体
  6
Continuous
 62
     2
370
     9
100
AcDbCircle
 10
-50.81077781883437
 20
304.2760913885247
 30
0.0
 40
148.9999843288113
100
AcDbArc
 50
58.75027465820312
 51
76.24972534179688
  0
ARC
  5
222
330
1F
100
AcDbEntity
  8
躯体
  6
Continuous
 62
     2
370
     9
100
AcDbCircle
 10
-50.81077781883437
 20
304.2760913885247
 30
0.0
 40
149.9999876280089
100
AcDbArc
 50
58.16020202636719
 51
76.83979797363281
  0
ARC
  5
223
330
1F
100
AcDbEntity
  8
躯体
  6
Continuous
 62
     2
370
     9
100
AcDbCircle
 10
-50.81077781883437
 20
304.2760913885247
 30
0.0
 40
143.4999909272065
100
AcDbArc
 50
58.24676513671875
 51
76.75323486328125
  0
ARC
  5
224
330
1F
100
AcDbEntity
  8
躯体
  6
Continuous
 62
     2
370
     9
100
AcDbCircle
 10
-50.81077781883437
 20
304.2760913885247
 30
0.0
 40
144.9999835040118
100
AcDbArc
 50
81.31929016113281
 51
98.6807098388672
  0
ARC
  5
225
330
1F
100
AcDbEntity
  8
躯体
  6
Continuous
 62
     2
370
     9
100
AcDbCircle
 10
-50.81077781883437
 20
304.2760913885247
 30
0.0
 40
148.9999843288113
100
AcDbArc
 50
81.25027465820312
 51
98.74972534179689
  0
ARC
  5
226
330
1F
100
AcDbEntity
  8
躯体
  6
Continuous
 62
     2
370
     9
100
AcDbCircle
 10
-50.81077781883437
 20
304.2760913885247
 30
0.0
 40
149.9999876280089
100
AcDbArc
 50
80.66020202636719
 51
99.33979797363283
  0
ARC
  5
227
330
1F
100
AcDbEntity
  8
躯体
  6
Continuous
 62
     2
370
     9
100
AcDbCircle
 10
-50.81077781883437
 20
304.2760913885247
 30
0.0
 40
144.9999835040118
100
AcDbArc
 50
103.8192901611328
 51
121.1807098388672
  0
ARC
  5
228
330
1F
100
AcDbEntity
  8
躯体
  6
Continuous
 62
     2
370
     9
100
AcDbCircle
 10
-50.81077781883437
 20
304.2760913885247
 30
0.0
 40
148.9999843288113
100
AcDbArc
 50
103.7502746582031
 51
121.2497253417969
  0
ARC
  5
229
330
1F
100
AcDbEntity
  8
躯体
  6
Continuous
 62
     2
370
     9
100
AcDbCircle
 10
-50.81077781883437
 20
304.2760913885247
 30
0.0
 40
149.9999876280089
100
AcDbArc
 50
103.1602020263672
 51
121.8397979736328
  0
ARC
  5
22A
330
1F
100
AcDbEntity
  8
躯体
  6
Continuous
 62
     2
370
     9
100
AcDbCircle
 10
-50.81077781883437
 20
304.2760913885247
 30
0.0
 40
143.4999909272065
100
AcDbArc
 50
103.2467651367188
 51
121.7532348632813
  0
ARC
  5
22B
330
1F
100
AcDbEntity
  8
躯体
  6
Continuous
 62
     2
370
     9
100
AcDbCircle
 10
-50.81077781883437
 20
304.2760913885247
 30
0.0
 40
144.9999835040118
100
AcDbArc
 50
126.3192901611328
 51
143.6807098388672
  0
ARC
  5
22C
330
1F
100
AcDbEntity
  8
躯体
  6
Continuous
 62
     2
370
     9
100
AcDbCircle
 10
-50.81077781883437
 20
304.2760913885247
 30
0.0
 40
148.9999843288113
100
AcDbArc
 50
126.2502746582032
 51
143.7497253417969
  0
ARC
  5
22D
330
1F
100
AcDbEntity
  8
躯体
  6
Continuous
 62
     2
370
     9
100
AcDbCircle
 10
-50.81077781883437
 20
304.2760913885247
 30
0.0
 40
149.9999876280089
100
AcDbArc
 50
125.6602020263672
 51
144.3397979736328
  0
ARC
  5
22E
330
1F
100
AcDbEntity
  8
躯体
  6
Continuous
 62
     2
370
     9
100
AcDbCircle
 10
-50.81077781883437
 20
304.2760913885247
 30
0.0
 40
143.4999909272065
100
AcDbArc
 50
125.7467651367188
 51
144.2532348632813
  0
ARC
  5
22F
330
1F
100
AcDbEntity
  8
躯体
  6
Continuous
 62
     2
370
     9
100
AcDbCircle
 10
-50.81077781883437
 20
304.2760913885247
 30
0.0
 40
144.9999835040118
100
AcDbArc
 50
148.8192901611328
 51
166.1807098388672
  0
ARC
  5
230
330
1F
100
AcDbEntity
  8
躯体
  6
Continuous
 62
     2
370
     9
100
AcDbCircle
 10
-50.81077781883437
 20
304.2760913885247
 30
0.0
 40
148.9999843288113
100
AcDbArc
 50
148.7502746582031
 51
166.2497253417969
  0
ARC
  5
231
330
1F
100
AcDbEntity
  8
躯体
  6
Continuous
 62
     2
370
     9
100
AcDbCircle
 10
-50.81077781883437
 20
304.2760913885247
 30
0.0
 40
149.9999876280089
100
AcDbArc
 50
148.1602020263672
 51
166.8397979736328
  0
ARC
  5
232
330
1F
100
AcDbEntity
  8
躯体
  6
Continuous
 62
     2
370
     9
100
AcDbCircle
 10
-50.81077781883437
 20
304.2760913885247
 30
0.0
 40
143.4999909272065
100
AcDbArc
 50
148.2467651367188
 51
166.7532348632813
  0
ARC
  5
233
330
1F
100
AcDbEntity
  8
躯体
  6
Continuous
 62
     2
370
     9
100
AcDbCircle
 10
-50.81077781883437
 20
304.2760913885247
 30
0.0
 40
143.4999909272065
100
AcDbArc
 50
4.490386962890625
 51
9.25323486328125
  0
ARC
  5
234
330
1F
100
AcDbEntity
  8
躯体
  6
Continuous
 62
     2
370
     9
100
AcDbCircle
 10
-50.81077781883437
 20
304.2760913885247
 30
0.0
 40
143.4999909272065
100
AcDbArc
 50
170.7467651367187
 51
175.5096130371093
  0
ARC
  5
235
330
1F
100
AcDbEntity
  8
躯体
  6
Continuous
 62
     2
370
     9
100
AcDbCircle
 10
-50.81077781883437
 20
304.2760913885247
 30
0.0
 40
143.4999909272065
100
AcDbArc
 50
80.74676513671875
 51
87.14422607421874
  0
ARC
  5
236
330
1F
100
AcDbEntity
  8
躯体
  6
Continuous
 62
     2
370
     9
100
AcDbCircle
 10
-50.81082730679896
 20
304.2760913885247
 30
0.0
 40
143.8229864996833
100
AcDbArc
 50
88.04168701171876
 51
91.95828247070314
  0
ARC
  5
237
330
1F
100
AcDbEntity
  8
躯体
  6
Continuous
 62
     2
370
     9
100
AcDbCircle
 10
-50.81077781883437
 20
304.2760913885247
 30
0.0
 40
143.4999909272065
100
AcDbArc
 50
92.85577392578126
 51
99.25323486328125
  0
CIRCLE
  5
238
330
1F
100
AcDbEntity
  8
躯体
  6
Continuous
 62
     4
370
     9
100
AcDbCircle
 10
2.189248574746671
 20
396.0748799231531
 30
0.0
 40
5.000000257749815
  0
CIRCLE
  5
239
330
1F
100
AcDbEntity
  8
躯体
  6
Continuous
 62
     4
370
     9
100
AcDbCircle
 10
2.189248574746671
 20
396.0748799231531
 30
0.0
 40
4.188000189291465
  0
ARC
  5
23A
330
1F
100
AcDbEntity
  8
躯体
  6
Continuous
 62
     2
370
     9
100
AcDbCircle
 10
89.25787848395271
 20
315.2760781917341
 30
0.0
 40
4.000000051549963
100
AcDbArc
 50
312.5380249023438
 51
330.2130432128907
  0
ARC
  5
23B
330
1F
100
AcDbEntity
  8
躯体
  6
Continuous
 62
     2
370
     9
100
AcDbCircle
 10
89.25787848395271
 20
315.2760781917341
 30
0.0
 40
3.000000038662472
100
AcDbArc
 50
330.5938415527344
 51
4.490402221679705
  0
ARC
  5
23C
330
1F
100
AcDbEntity
  8
躯体
  6
Continuous
 62
     2
370
     9
100
AcDbCircle
 10
-190.8795330975506
 20
315.2760781917341
 30
0.0
 40
3.000000038662472
100
AcDbArc
 50
175.5095977783203
 51
209.4060363769531
  0
ARC
  5
23D
330
1F
100
AcDbEntity
  8
躯体
  6
Continuous
 62
     2
370
     9
100
AcDbCircle
 10
-190.8795330975506
 20
315.2760781917341
 30
0.0
 40
4.000000051549963
100
AcDbArc
 50
209.7869567871093
 51
227.4621124267578
  0
ARC
  5
23E
330
1F
100
AcDbEntity
  8
躯体
  6
Continuous
 62
     2
370
     9
100
AcDbCircle
 10
-43.81080421241552
 20
444.6015902272072
 30
0.0
 40
4.000000051549963
100
AcDbArc
 50
121.4208221435547
 51
139.0964813232422
  0
ARC
  5
23F
330
1F
100
AcDbEntity
  8
躯体
  6
Continuous
 62
     2
370
     9
100
AcDbCircle
 10
-43.81080421241552
 20
444.6015902272072
 30
0.0
 40
3.000000038662472
100
AcDbArc
 50
87.14437866210939
 51
121.0404968261719
  0
ARC
  5
240
330
1F
100
AcDbEntity
  8
躯体
  6
Continuous
 62
     2
370
     9
100
AcDbCircle
 10
-57.81080091321792
 20
444.6015902272072
 30
0.0
 40
4.000000051549963
100
AcDbArc
 50
40.90351867675781
 51
58.57917785644531
  0
ARC
  5
241
330
1F
100
AcDbEntity
  8
躯体
  6
Continuous
 62
     2
370
     9
100
AcDbCircle
 10
-57.81080091321792
 20
444.6015902272072
 30
0.0
 40
3.000000038662472
100
AcDbArc
 50
58.95950317382813
 51
92.85562133789064
  0
ARC
  5
242
330
1F
100
AcDbEntity
  8
躯体
  6
Continuous
 62
     4
370
     9
100
AcDbCircle
 10
2.181726404138544
 20
396.061815100518
 30
0.0
 40
8.499991700455949
100
AcDbArc
 50
173.2059783935547
 51
306.7934112548828
  0
ARC
  5
243
330
1F
100
AcDbEntity
  8
躯体
  6
Continuous
 62
     2
370
     9
100
AcDbCircle
 10
-177.5517809068834
 20
-75.12759513491284
 30
0.0
 40
2.000000025774982
100
AcDbArc
 50
189.5514068603516
 51
255.0001525878906
  0
ARC
  5
244
330
1F
100
AcDbEntity
  8
躯体
  6
Continuous
 62
     2
370
     9
100
AcDbCircle
 10
75.93017578125
 20
-75.12759513491284
 30
0.0
 40
2.000000025774982
100
AcDbArc
 50
284.9998474121094
 51
350.4485931396484
  0
ARC
  5
245
330
1F
100
AcDbEntity
  8
躯体
  6
Continuous
 62
     2
370
     9
100
AcDbCircle
 10
-180.7337085620777
 20
-71.28337005045336
 30
0.0
 40
0.5000000064437454
100
AcDbArc
 50
9.548660278320312
 51
90.0
  0
ARC
  5
246
330
1F
100
AcDbEntity
  8
躯体
  6
Continuous
 62
     2
370
     9
100
AcDbCircle
 10
-144.0814373944256
 20
-81.28340304242971
 30
0.0
 40
1.500000019331236
100
AcDbArc
 50
9.462326049804688
 51
90.0
  0
ARC
  5
247
330
1F
100
AcDbEntity
  8
躯体
  6
Continuous
 62
     2
370
     9
100
AcDbCircle
 10
-148.963623046875
 20
-80.78337664884862
 30
0.0
 40
1.000000012887491
100
AcDbArc
 50
90.0
 51
170.5379180908203
  0
ARC
  5
248
330
1F
100
AcDbEntity
  8
躯体
  6
Continuous
 62
     2
370
     9
100
AcDbCircle
 10
-164.6578897012246
 20
-80.78337664884862
 30
0.0
 40
1.000000012887491
100
AcDbArc
 50
9.462203979492188
 51
90.0
  0
ARC
  5
249
330
1F
100
AcDbEntity
  8
躯体
  6
Continuous
 62
     2
370
     9
100
AcDbCircle
 10
53.009033203125
 20
-81.78333046008174
 30
0.0
 40
1.000000012887491
100
AcDbArc
 50
90.0
 51
168.6906280517578
  0
ARC
  5
24A
330
1F
100
AcDbEntity
  8
躯体
  6
Continuous
 62
     2
370
     9
100
AcDbCircle
 10
79.95790223817573
 20
-72.28332386168648
 30
0.0
 40
1.500000019331236
100
AcDbArc
 50
90.0
 51
170.4493103027344
  0
ARC
  5
24B
330
1F
100
AcDbEntity
  8
躯体
  6
Continuous
 62
     2
370
     9
100
AcDbCircle
 10
-219.9203573690878
 20
-69.2833634520581
 30
0.0
 40
0.5000000064437454
100
AcDbArc
 50
90.0
 51
165.9665069580078
  0
ARC
  5
24C
330
1F
100
AcDbEntity
  8
躯体
  6
Continuous
 62
     2
370
     9
100
AcDbCircle
 10
118.298801731419
 20
-69.2833634520581
 30
0.0
 40
0.5000000064437454
100
AcDbArc
 50
14.03349304199219
 51
90.0
  0
ARC
  5
24D
330
1F
100
AcDbEntity
  8
躯体
  6
Continuous
 62
     4
370
     9
100
AcDbCircle
 10
-164.1570715002111
 20
-75.594860495977
 30
0.0
 40
3.811438921335581
100
AcDbArc
 50
49.92564392089844
 51
130.0743560791016
  0
ARC
  5
24E
330
1F
100
AcDbEntity
  8
躯体
  6
Continuous
 62
     4
370
     9
100
AcDbCircle
 10
-156.8108306059966
 20
-85.60498903271684
 30
0.0
 40
13.82162351866026
100
AcDbArc
 50
69.26925659179688
 51
110.7307434082031
  0
ARC
  5
24F
330
1F
100
AcDbEntity
  8
躯体
  6
Continuous
 62
     4
370
     9
100
AcDbCircle
 10
-149.4645402238175
 20
-75.594860495977
 30
0.0
 40
3.811438921335581
100
AcDbArc
 50
49.92564392089844
 51
130.0743560791016
  0
ARC
  5
250
330
1F
100
AcDbEntity
  8
躯体
  6
Continuous
 62
     2
370
     9
100
AcDbCircle
 10
101.6234361803211
 20
-67.20783821979455
 30
0.0
 40
3.000000038662472
100
AcDbArc
 50
187.3901672363282
 51
284.9997406005859
  0
ARC
  5
251
330
1F
100
AcDbEntity
  8
躯体
  6
Continuous
 62
     2
370
     9
100
AcDbCircle
 10
91.68150205869938
 20
-69.2833634520581
 30
0.0
 40
1.500000019331236
100
AcDbArc
 50
270.0
 51
351.5511169433593
  0
ARC
  5
252
330
1F
100
AcDbEntity
  8
躯体
  6
JWW_DASHED1
 62
     2
370
     9
100
AcDbCircle
 10
90.01108530405406
 20
-70.31934450146684
 30
0.0
 40
3.000000038662472
100
AcDbArc
 50
285.0009002685546
 51
351.5465850830078
  0
ARC
  5
253
330
1F
100
AcDbEntity
  8
躯体
  6
Continuous
 62
     2
370
     9
100
AcDbCircle
 10
97.21059438344605
 20
-64.28339644403445
 30
0.0
 40
1.000000012887491
100
AcDbArc
 50
7.390167236328124
 51
90.0
  0
ARC
  5
254
330
1F
100
AcDbEntity
  8
躯体
  6
Continuous
 62
     2
370
     9
100
AcDbCircle
 10
94.95156777871625
 20
-64.28339644403445
 30
0.0
 40
1.000000012887491
100
AcDbArc
 50
90.0
 51
171.5495300292969
  0
ARC
  5
255
330
1F
100
AcDbEntity
  8
躯体
  6
Continuous
 62
     2
370
     9
100
AcDbCircle
 10
-203.2449918179898
 20
-67.20783821979455
 30
0.0
 40
3.000000038662472
100
AcDbArc
 50
255.000259399414
 51
352.6098327636718
  0
ARC
  5
256
330
1F
100
AcDbEntity
  8
躯体
  6
Continuous
 62
     2
370
     9
100
AcDbCircle
 10
-193.3030576963682
 20
-69.2833634520581
 30
0.0
 40
1.500000019331236
100
AcDbArc
 50
188.4488830566407
 51
270.0
  0
ARC
  5
257
330
1F
100
AcDbEntity
  8
躯体
  6
Continuous
 62
     2
370
     9
100
AcDbCircle
 10
-198.8321500211148
 20
-64.28339644403445
 30
0.0
 40
1.000000012887491
100
AcDbArc
 50
90.0
 51
172.6098327636719
  0
ARC
  5
258
330
1F
100
AcDbEntity
  8
躯体
  6
Continuous
 62
     2
370
     9
100
AcDbCircle
 10
-196.5732223923142
 20
-64.28339644403445
 30
0.0
 40
1.000000012887491
100
AcDbArc
 50
8.450469970703125
 51
90.0
  0
ARC
  5
259
330
1F
100
AcDbEntity
  8
躯体
  6
JWW_DASHED1
 62
     2
370
     9
100
AcDbCircle
 10
-191.6326409417229
 20
-70.31934450146684
 30
0.0
 40
3.000000038662472
100
AcDbArc
 50
188.4534149169922
 51
254.9990997314453
  0
ARC
  5
25A
330
1F
100
AcDbEntity
  8
通り芯
  6
Continuous
 62
     3
370
     9
100
AcDbCircle
 10
-201.8108306059966
 20
-111.6398153629534
 30
0.0
 40
2.000000025774982
100
AcDbArc
 50
270.0
 51
0.0
  0
ARC
  5
25B
330
1F
100
AcDbEntity
  8
通り芯
  6
Continuous
 62
     3
370
     9
100
AcDbCircle
 10
-201.8108306059966
 20
-111.6398153629534
 30
0.0
 40
8.000000103099927
100
AcDbArc
 50
270.0
 51
0.0
  0
ARC
  5
25C
330
1F
100
AcDbEntity
  8
通り芯
  6
JWW_CENTER1
 62
     3
370
     9
100
AcDbCircle
 10
-201.8108306059966
 20
-111.6398153629534
 30
0.0
 40
5.000000257749815
100
AcDbArc
 50
270.0
 51
0.0
  0
ARC
  5
25D
330
1F
100
AcDbEntity
  8
通り芯
  6
Continuous
 62
     3
370
     9
100
AcDbCircle
 10
-215.6640460040118
 20
-89.76207702891617
 30
0.0
 40
10.99999840195115
100
AcDbArc
 50
75.00009155273439
 51
123.9725341796875
  0
ARC
  5
25E
330
1F
100
AcDbEntity
  8
通り芯
  6
Continuous
 62
     3
370
     9
100
AcDbCircle
 10
-204.8190060177365
 20
-82.83287121177091
 30
0.0
 40
1.499999922675056
100
AcDbArc
 50
191.5652618408203
 51
254.9999084472656
  0
ARC
  5
25F
330
1F
100
AcDbEntity
  8
通り芯
  6
JWW_PHANTOM1
 62
     3
370
     9
100
AcDbCircle
 10
-192.6848540434966
 20
-86.08423048119658
 30
0.0
 40
1.499999922675056
100
AcDbArc
 50
255.000244140625
 51
318.4352111816406
  0
ARC
  5
260
330
1F
100
AcDbEntity
  8
通り芯
  6
JWW_PHANTOM1
 62
     3
370
     9
100
AcDbCircle
 10
-189.2758756070523
 20
-87.51532343938919
 30
0.0
 40
1.999999639150259
100
AcDbArc
 50
75.00006103515625
 51
138.435073852539
  0
ARC
  5
261
330
1F
100
AcDbEntity
  8
通り芯
  6
Continuous
 62
     3
370
     9
100
AcDbCircle
 10
-208.4868559966216
 20
-82.36768434521684
 30
0.0
 40
1.999999639150259
100
AcDbArc
 50
11.56510925292969
 51
74.99981689453125
  0
ARC
  5
262
330
1F
100
AcDbEntity
  8
通り芯
  6
Continuous
 62
     3
370
     9
100
AcDbCircle
 10
-228.905788112331
 20
-69.63977577258174
 30
0.0
 40
0.9999998195751294
100
AcDbArc
 50
90.0
 51
174.2891998291016
  0
ARC
  5
263
330
1F
100
AcDbEntity
  8
通り芯
  6
Continuous
 62
     3
370
     9
100
AcDbCircle
 10
114.0424408783784
 20
-89.76207702891617
 30
0.0
 40
10.99999840195115
100
AcDbArc
 50
56.0274658203125
 51
104.9999084472656
  0
ARC
  5
264
330
1F
100
AcDbEntity
  8
通り芯
  6
Continuous
 62
     3
370
     9
100
AcDbCircle
 10
103.1974503800676
 20
-82.83287121177091
 30
0.0
 40
1.499999922675056
100
AcDbArc
 50
285.0000915527344
 51
348.4347381591797
  0
ARC
  5
265
330
1F
100
AcDbEntity
  8
通り芯
  6
Continuous
 62
     3
370
     9
100
AcDbCircle
 10
91.06319942989865
 20
-86.08423048119658
 30
0.0
 40
1.499999922675056
100
AcDbArc
 50
221.5647888183594
 51
284.999755859375
  0
ARC
  5
266
330
1F
100
AcDbEntity
  8
通り芯
  6
Continuous
 62
     3
370
     9
100
AcDbCircle
 10
106.8652013830236
 20
-82.36768434521684
 30
0.0
 40
1.999999639150259
100
AcDbArc
 50
105.0001831054688
 51
168.4348907470703
  0
ARC
  5
267
330
1F
100
AcDbEntity
  8
通り芯
  6
Continuous
 62
     3
370
     9
100
AcDbCircle
 10
127.2842324746622
 20
-69.63977577258174
 30
0.0
 40
0.9999998195751294
100
AcDbArc
 50
5.710800170898438
 51
90.00000000000001
  0
ARC
  5
268
330
1F
100
AcDbEntity
  8
通り芯
  6
Continuous
 62
     3
370
     9
100
AcDbCircle
 10
-188.1297838365709
 20
-87.82254472317294
 30
0.0
 40
2.000000025774982
100
AcDbArc
 50
75.00083923339844
 51
171.2867584228516
  0
ARC
  5
269
330
1F
100
AcDbEntity
  8
通り芯
  6
Continuous
 62
     3
370
     9
100
AcDbCircle
 10
-205.603687183277
 20
-86.24615510112903
 30
0.0
 40
2.000000025774982
100
AcDbArc
 50
8.13934326171875
 51
75.00083923339844
  0
ARC
  5
26A
330
1F
100
AcDbEntity
  8
通り芯
  6
Continuous
 62
     3
370
     9
100
AcDbCircle
 10
-200.5100889463682
 20
-97.13974278060539
 30
0.0
 40
1.500000019331236
100
AcDbArc
 50
188.1389312744141
 51
270.0018920898438
  0
ARC
  5
26B
330
1F
100
AcDbEntity
  8
通り芯
  6
Continuous
 62
     3
370
     9
100
AcDbCircle
 10
-193.098424963049
 20
-97.13974278060539
 30
0.0
 40
1.500000019331236
100
AcDbArc
 50
270.0
 51
351.2890930175781
  0
ARC
  5
26C
330
1F
100
AcDbEntity
  8
通り芯
  6
Continuous
 62
     3
370
     9
100
AcDbCircle
 10
-205.8253437763935
 20
-74.15169247443981
 30
0.0
 40
1.624993182517387
100
AcDbArc
 50
187.6192932128906
 51
322.3808135986329
  0
ARC
  5
26D
330
1F
100
AcDbEntity
  8
通り芯
  6
Continuous
 62
     3
370
     9
100
AcDbCircle
 10
-211.6208793021536
 20
-72.59876014758174
 30
0.0
 40
1.624993182517387
100
AcDbArc
 50
187.6192932128906
 51
322.3808135986329
  0
ARC
  5
26E
330
1F
100
AcDbEntity
  8
通り芯
  6
Continuous
 62
     3
370
     9
100
AcDbCircle
 10
-187.4727321315456
 20
-79.06921253356148
 30
0.0
 40
1.624993182517387
100
AcDbArc
 50
187.6193542480469
 51
322.3808746337891
  0
ARC
  5
26F
330
1F
100
AcDbEntity
  8
通り芯
  6
Continuous
 62
     3
370
     9
100
AcDbCircle
 10
-181.6771966057854
 20
-80.62214486041955
 30
0.0
 40
1.624993182517387
100
AcDbArc
 50
187.6193542480469
 51
322.3808746337891
  0
ARC
  5
270
330
1F
100
AcDbEntity
  8
通り芯
  6
Continuous
 62
     3
370
     9
100
AcDbCircle
 10
-199.6843327702702
 20
-77.99710527004794
 30
0.0
 40
1.500000019331236
100
AcDbArc
 50
191.5652618408203
 51
254.9999084472656
  0
ARC
  5
271
330
1F
100
AcDbEntity
  8
通り芯
  6
Continuous
 62
     3
370
     9
100
AcDbCircle
 10
-194.7137616131756
 20
-79.3289253713993
 30
0.0
 40
1.500000019331236
100
AcDbArc
 50
255.000244140625
 51
318.4352111816406
  0
ARC
  5
272
330
1F
100
AcDbEntity
  8
通り芯
  6
Continuous
 62
     3
370
     9
100
AcDbCircle
 10
-191.6430334142736
 20
-79.634167136602
 30
0.0
 40
1.000000012887491
100
AcDbArc
 50
74.99990844726562
 51
138.4345703125
  0
ARC
  5
273
330
1F
100
AcDbEntity
  8
通り芯
  6
Continuous
 62
     3
370
     9
100
AcDbCircle
 10
-202.4961894267313
 20
-76.72595741320674
 30
0.0
 40
1.000000012887491
100
AcDbArc
 50
11.56475830078125
 51
74.99972534179689
  0
ARC
  5
274
330
1F
100
AcDbEntity
  8
通り芯
  6
Continuous
 62
     3
370
     9
100
AcDbCircle
 10
104.2037386507602
 20
-74.15169247443981
 30
0.0
 40
1.624993182517387
100
AcDbArc
 50
217.6191864013672
 51
352.3807067871094
  0
ARC
  5
275
330
1F
100
AcDbEntity
  8
通り芯
  6
Continuous
 62
     3
370
     9
100
AcDbCircle
 10
109.9993731524494
 20
-72.59876014758174
 30
0.0
 40
1.624993182517387
100
AcDbArc
 50
217.6191864013672
 51
352.3807067871094
  0
ARC
  5
276
330
1F
100
AcDbEntity
  8
通り芯
  6
Continuous
 62
     3
370
     9
100
AcDbCircle
 10
85.85112700591219
 20
-79.06921253356148
 30
0.0
 40
1.624993182517387
100
AcDbArc
 50
217.6185607910156
 51
352.3800811767578
  0
ARC
  5
277
330
1F
100
AcDbEntity
  8
通り芯
  6
Continuous
 62
     3
370
     9
100
AcDbCircle
 10
80.05549250422303
 20
-80.62214486041955
 30
0.0
 40
1.624993182517387
100
AcDbArc
 50
217.6185607910156
 51
352.3800811767578
  0
ARC
  5
278
330
1F
100
AcDbEntity
  8
通り芯
  6
Continuous
 62
     3
370
     9
100
AcDbCircle
 10
98.0626781566724
 20
-77.99710527004794
 30
0.0
 40
1.500000019331236
100
AcDbArc
 50
285.0000915527344
 51
348.4347381591797
  0
ARC
  5
279
330
1F
100
AcDbEntity
  8
通り芯
  6
Continuous
 62
     3
370
     9
100
AcDbCircle
 10
93.09220597550677
 20
-79.3289253713993
 30
0.0
 40
1.500000019331236
100
AcDbArc
 50
221.5647888183594
 51
284.999755859375
  0
ARC
  5
27A
330
1F
100
AcDbEntity
  8
通り芯
  6
Continuous
 62
     3
370
     9
100
AcDbCircle
 10
90.02137880067573
 20
-79.634167136602
 30
0.0
 40
1.000000012887491
100
AcDbArc
 50
41.5654296875
 51
105.0000915527344
  0
ARC
  5
27B
330
1F
100
AcDbEntity
  8
通り芯
  6
Continuous
 62
     3
370
     9
100
AcDbCircle
 10
100.874584301098
 20
-76.72595741320674
 30
0.0
 40
1.000000012887491
100
AcDbArc
 50
105.0002746582031
 51
168.4352416992187
  0
ARC
  5
27C
330
1F
100
AcDbEntity
  8
通り芯
  6
Continuous
 62
     3
370
     9
100
AcDbCircle
 10
-148.1117372255068
 20
-88.13986155172023
 30
0.0
 40
1.500000019331236
100
AcDbArc
 50
8.129165649414062
 51
90.00000000000001
  0
ARC
  5
27D
330
1F
100
AcDbEntity
  8
通り芯
  6
Continuous
 62
     3
370
     9
100
AcDbCircle
 10
65.70239917652032
 20
-88.22082386168648
 30
0.0
 40
3.000000038662472
100
AcDbArc
 50
104.9999847412109
 51
175.0010833740234
  0
ARC
  5
27E
330
1F
100
AcDbEntity
  8
通り芯
  6
Continuous
 62
     3
370
     9
100
AcDbCircle
 10
-167.3240043021536
 20
-88.22082386168648
 30
0.0
 40
3.000000038662472
100
AcDbArc
 50
31.80506896972656
 51
75.00001525878906
  0
ARC
  5
27F
330
1F
100
AcDbEntity
  8
通り芯
  6
Continuous
 62
     3
370
     9
100
AcDbCircle
 10
59.62577201224667
 20
-88.83556335704117
 30
0.0
 40
3.000000038662472
100
AcDbArc
 50
274.2175598144531
 51
355.0002136230469
  0
ARC
  5
280
330
1F
100
AcDbEntity
  8
通り芯
  6
Continuous
 62
     3
370
     9
100
AcDbCircle
 10
50.0218406883447
 20
-94.05585078313919
 30
0.0
 40
1.500000019331236
100
AcDbArc
 50
94.21667480468751
 51
165.9646759033203
  0
ARC
  5
281
330
1F
100
AcDbEntity
  8
通り芯
  6
Continuous
 62
     3
370
     9
100
AcDbCircle
 10
-169.3526644320101
 20
-128.1397955677675
 30
0.0
 40
0.5000000064437454
100
AcDbArc
 50
184.9969177246094
 51
269.9985809326172
  0
ARC
  5
282
330
1F
100
AcDbEntity
  8
通り芯
  6
Continuous
 62
     3
370
     9
100
AcDbCircle
 10
67.73100981841219
 20
-128.1397955677675
 30
0.0
 40
0.5000000064437454
100
AcDbArc
 50
270.0014190673828
 51
355.0030822753906
  0
ARC
  5
283
330
1F
100
AcDbEntity
  8
通り芯
  6
Continuous
 62
     3
370
     9
100
AcDbCircle
 10
74.39713761613177
 20
-92.10275877511549
 30
0.0
 40
3.000000038662472
100
AcDbArc
 50
104.9997406005859
 51
175.0001525878906
  0
ARC
  5
284
330
1F
100
AcDbEntity
  8
通り芯
  6
Continuous
 62
     3
370
     9
100
AcDbCircle
 10
-176.0187922297297
 20
-92.10275877511549
 30
0.0
 40
3.000000038662472
100
AcDbArc
 50
4.999847412109375
 51
75.00025939941408
  0
ARC
  5
285
330
1F
100
AcDbEntity
  8
通り芯
  6
Continuous
 62
     3
370
     9
100
AcDbCircle
 10
65.59421848606428
 20
-129.6397757725817
 30
0.0
 40
1.000000012887491
100
AcDbArc
 50
90.0
 51
174.2899780273438
  0
ARC
  5
286
330
1F
100
AcDbEntity
  8
通り芯
  6
Continuous
 62
     3
370
     9
100
AcDbCircle
 10
61.33172112542229
 20
-147.1398087645581
 30
0.0
 40
1.500000019331236
100
AcDbArc
 50
270.0
 51
354.2901611328126
  0
ARC
  5
287
330
1F
100
AcDbEntity
  8
通り芯
  6
Continuous
 62
     3
370
     9
100
AcDbCircle
 10
-167.2157741237331
 20
-129.6397757725817
 30
0.0
 40
1.000000012887491
100
AcDbArc
 50
5.710021972656251
 51
90.0
  0
ARC
  5
288
330
1F
100
AcDbEntity
  8
通り芯
  6
Continuous
 62
     3
370
     9
100
AcDbCircle
 10
-162.9533262510557
 20
-147.1398087645581
 30
0.0
 40
1.500000019331236
100
AcDbArc
 50
185.7098388671875
 51
270.0
  0
ARC
  5
289
330
1F
100
AcDbEntity
  8
通り芯
  6
Continuous
 62
     3
370
     9
100
AcDbCircle
 10
-50.81077781883437
 20
304.2760913885247
 30
0.0
 40
179.9999876280089
100
AcDbArc
 50
0.0
 51
180.0
  0
ARC
  5
28A
330
1F
100
AcDbEntity
  8
通り芯
  6
Continuous
 62
     3
370
     9
100
AcDbCircle
 10
-50.81077781883437
 20
304.2760913885247
 30
0.0
 40
178.9999843288113
100
AcDbArc
 50
0.0
 51
180.0
  0
ARC
  5
28B
330
1F
100
AcDbEntity
  8
躯体
  6
Continuous
 62
     2
370
     9
100
AcDbCircle
 10
-50.81077781883437
 20
304.2760913885247
 30
0.0
 40
170.0000041239971
100
AcDbArc
 50
0.0
 51
180.0
  0
ARC
  5
28C
330
1F
100
AcDbEntity
  8
躯体
  6
Continuous
 62
     2
370
     9
100
AcDbCircle
 10
-50.81077781883437
 20
304.2760913885247
 30
0.0
 40
169.4999901024071
100
AcDbArc
 50
0.0
 51
180.0
  0
ARC
  5
28D
330
1F
100
AcDbEntity
  8
躯体
  6
Continuous
 62
     2
370
     9
100
AcDbCircle
 10
-50.81077781883437
 20
304.2760913885247
 30
0.0
 40
158.1455581252639
100
AcDbArc
 50
0.0
 51
180.0
  0
ARC
  5
28E
330
1F
100
AcDbEntity
  8
躯体
  6
Continuous
 62
     2
370
     9
100
AcDbCircle
 10
-50.81077781883437
 20
304.2760913885247
 30
0.0
 40
149.9999876280089
100
AcDbArc
 50
170.6602020263672
 51
180.0
  0
ARC
  5
28F
330
1F
100
AcDbEntity
  8
躯体
  6
Continuous
 62
     2
370
     9
100
AcDbCircle
 10
-50.81077781883437
 20
304.2760913885247
 30
0.0
 40
148.9999843288113
100
AcDbArc
 50
171.2502746582031
 51
180.0
  0
ARC
  5
290
330
1F
100
AcDbEntity
  8
躯体
  6
Continuous
 62
     2
370
     9
100
AcDbCircle
 10
-50.81077781883437
 20
304.2760913885247
 30
0.0
 40
143.8229864996833
100
AcDbArc
 50
176.4070739746094
 51
180.0
  0
ARC
  5
291
330
1F
100
AcDbEntity
  8
躯体
  6
Continuous
 62
     2
370
     9
100
AcDbCircle
 10
-50.81077781883437
 20
304.2760913885247
 30
0.0
 40
144.9999835040118
100
AcDbArc
 50
171.3192901611328
 51
180.0
  0
ARC
  5
292
330
1F
100
AcDbEntity
  8
躯体
  6
Continuous
 62
     2
370
     9
100
AcDbCircle
 10
-50.81077781883437
 20
304.2760913885247
 30
0.0
 40
148.9999719568201
100
AcDbArc
 50
0.0
 51
8.749725341796877
  0
ARC
  5
293
330
1F
100
AcDbEntity
  8
躯体
  6
Continuous
 62
     2
370
     9
100
AcDbCircle
 10
-50.81077781883437
 20
304.2760913885247
 30
0.0
 40
149.9999752560177
100
AcDbArc
 50
0.0
 51
9.339797973632812
  0
ARC
  5
294
330
1F
100
AcDbEntity
  8
躯体
  6
Continuous
 62
     2
370
     9
100
AcDbCircle
 10
-50.81077781883437
 20
304.2760913885247
 30
0.0
 40
144.9999835040118
100
AcDbArc
 50
0.0
 51
8.680709838867188
  0
ARC
  5
295
330
1F
100
AcDbEntity
  8
躯体
  6
Continuous
 62
     2
370
     9
100
AcDbCircle
 10
-50.81077781883437
 20
304.2760913885247
 30
0.0
 40
143.8229864996833
100
AcDbArc
 50
0.0
 51
3.592926025390625
  0
ARC
  5
296
330
1F
100
AcDbEntity
  8
躯体
  6
Continuous
 62
     4
370
     9
100
AcDbCircle
 10
-156.8107811180321
 20
304.2760913885247
 30
0.0
 40
4.188000189291465
100
AcDbArc
 50
0.0
 51
180.0
  0
ARC
  5
297
330
1F
100
AcDbEntity
  8
躯体
  6
Continuous
 62
     4
370
     9
100
AcDbCircle
 10
-156.8107811180321
 20
304.2760913885247
 30
0.0
 40
5.000000257749815
100
AcDbArc
 50
0.0
 51
180.0
  0
ARC
  5
298
330
1F
100
AcDbEntity
  8
躯体
  6
Continuous
 62
     4
370
     9
100
AcDbCircle
 10
-156.7958852407094
 20
304.2760913885247
 30
0.0
 40
8.499991700455949
100
AcDbArc
 50
0.0
 51
66.79367065429688
  0
ARC
  5
299
330
1F
100
AcDbEntity
  8
通り芯
  6
Continuous
 62
     3
370
     9
100
AcDbCircle
 10
87.65427048141896
 20
-87.51532343938919
 30
0.0
 40
1.999999639150259
100
AcDbArc
 50
41.56492614746094
 51
104.9986419677735
  0
ARC
  5
29A
330
1F
100
AcDbEntity
  8
仕上
  6
Continuous
 62
     4
370
     9
100
AcDbCircle
 10
82.18931455869938
 20
-61.2834855223706
 30
0.0
 40
1.500000019331236
100
AcDbArc
 50
90.0
 51
180.0
  0
ARC
  5
29B
330
1F
100
AcDbEntity
  8
仕上
  6
Continuous
 62
     4
370
     9
100
AcDbCircle
 10
89.18928816511834
 20
-61.2834855223706
 30
0.0
 40
1.500000019331236
100
AcDbArc
 50
0.0
 51
90.0
  0
ARC
  5
29C
330
1F
100
AcDbEntity
  8
仕上
  6
Continuous
 62
     6
370
     9
100
AcDbCircle
 10
-191.098170924831
 20
-69.28351191595164
 30
0.0
 40
1.500000019331236
100
AcDbArc
 50
192.0923767089844
 51
270.0
  0
ARC
  5
29D
330
1F
100
AcDbEntity
  8
仕上
  6
Continuous
 62
     6
370
     9
100
AcDbCircle
 10
89.47671426309125
 20
-69.28351191595164
 30
0.0
 40
1.500000019331236
100
AcDbArc
 50
270.0
 51
347.9076232910156
  0
ARC
  5
29E
330
1F
100
AcDbEntity
  8
仕上
  6
Continuous
 62
     6
370
     9
100
AcDbCircle
 10
78.47672745988177
 20
-69.28351191595164
 30
0.0
 40
1.500000019331236
100
AcDbArc
 50
270.0
 51
347.9053802490235
  0
ARC
  5
29F
330
1F
100
AcDbEntity
  8
仕上
  6
Continuous
 62
     6
370
     9
100
AcDbCircle
 10
79.84952359586157
 20
-60.7834591287895
 30
0.0
 40
3.000000038662472
100
AcDbArc
 50
186.8703155517578
 51
270.0
  0
ARC
  5
2A0
330
1F
100
AcDbEntity
  8
仕上
  6
Continuous
 62
     6
370
     9
100
AcDbCircle
 10
74.5796492293075
 20
-66.78347892397534
 30
0.0
 40
4.000000051549963
100
AcDbArc
 50
186.8700866699219
 51
270.0
  0
ARC
  5
2A1
330
1F
100
AcDbEntity
  8
仕上
  6
Continuous
 62
     6
370
     9
100
AcDbCircle
 10
-176.2012048669764
 20
-66.78347892397534
 30
0.0
 40
4.000000051549963
100
AcDbArc
 50
270.0
 51
353.1299133300781
  0
ARC
  5
2A2
330
1F
100
AcDbEntity
  8
仕上
  6
JWW_DASHED1
 62
     6
370
     9
100
AcDbCircle
 10
-165.4511322846283
 20
1.541485444690181
 30
0.0
 40
1.500000019331236
100
AcDbArc
 50
277.9936065673828
 51
353.1303863525391
  0
ARC
  5
2A3
330
1F
100
AcDbEntity
  8
仕上
  6
Continuous
 62
     4
370
     9
100
AcDbCircle
 10
-172.9975519953547
 20
13.71651447762946
 30
0.0
 40
1.500000019331236
100
AcDbArc
 50
90.0
 51
180.0
  0
ARC
  5
2A4
330
1F
100
AcDbEntity
  8
仕上
  6
Continuous
 62
     4
370
     9
100
AcDbCircle
 10
-172.9975519953547
 20
6.716540871210498
 30
0.0
 40
1.500000019331236
100
AcDbArc
 50
180.0
 51
270.0
  0
ARC
  5
2A5
330
1F
100
AcDbEntity
  8
仕上
  6
JWW_DASHED1
 62
     6
370
     9
100
AcDbCircle
 10
63.82947767103042
 20
1.541485444690181
 30
0.0
 40
1.500000019331236
100
AcDbArc
 50
186.8696136474609
 51
262.0063934326171
  0
ARC
  5
2A6
330
1F
100
AcDbEntity
  8
仕上
  6
JWW_DASHED1
 62
     6
370
     9
100
AcDbCircle
 10
-183.2011784733952
 20
-66.78347892397534
 30
0.0
 40
4.000000051549963
100
AcDbArc
 50
270.0
 51
353.1299133300781
  0
ARC
  5
2A7
330
1F
100
AcDbEntity
  8
仕上
  6
Continuous
 62
     6
370
     9
100
AcDbCircle
 10
-181.4710792335304
 20
-60.7834591287895
 30
0.0
 40
3.000000038662472
100
AcDbArc
 50
270.0
 51
353.1296844482422
  0
ARC
  5
2A8
330
1F
100
AcDbEntity
  8
仕上
  6
Continuous
 62
     4
370
     9
100
AcDbCircle
 10
-186.3108042124155
 20
305.2760451997578
 30
0.0
 40
0.5000000064437454
100
AcDbArc
 50
180.0
 51
270.0
  0
ARC
  5
2A9
330
1F
100
AcDbEntity
  8
仕上
  6
Continuous
 62
     4
370
     9
100
AcDbCircle
 10
-188.3108108108107
 20
305.2760451997578
 30
0.0
 40
0.5000000064437454
100
AcDbArc
 50
270.0
 51
0.0
  0
ARC
  5
2AA
330
1F
100
AcDbEntity
  8
仕上
  6
Continuous
 62
     4
370
     9
100
AcDbCircle
 10
84.68924857474667
 20
305.2760451997578
 30
0.0
 40
0.5000000064437454
100
AcDbArc
 50
270.0
 51
0.0
  0
ARC
  5
2AB
330
1F
100
AcDbEntity
  8
仕上
  6
Continuous
 62
     4
370
     9
100
AcDbCircle
 10
86.68915619721292
 20
305.2760451997578
 30
0.0
 40
0.5000000064437454
100
AcDbArc
 50
180.0
 51
270.0
  0
ARC
  5
2AC
330
1F
100
AcDbEntity
  8
仕上
  6
Continuous
 62
     6
370
     9
100
AcDbCircle
 10
-192.2038310282938
 20
309.7760847901295
 30
0.0
 40
1.500000019331236
100
AcDbArc
 50
177.7718963623047
 51
270.0
  0
ARC
  5
2AD
330
1F
100
AcDbEntity
  8
仕上
  6
Continuous
 62
     6
370
     9
100
AcDbCircle
 10
90.582275390625
 20
309.7760847901295
 30
0.0
 40
1.500000019331236
100
AcDbArc
 50
270.0
 51
2.228103637695305
  0
ARC
  5
2AE
330
1F
100
AcDbEntity
  8
仕上
  6
Continuous
 62
     6
370
     9
100
AcDbCircle
 10
-50.81077781883437
 20
304.2760913885247
 30
0.0
 40
143.0000016495988
100
AcDbArc
 50
2.227615356445309
 51
177.7723846435547
  0
ARC
  5
2AF
330
1F
100
AcDbEntity
  8
仕上
  6
Continuous
 62
     6
370
     9
100
AcDbCircle
 10
71.0574918179899
 20
315.7761045853153
 30
0.0
 40
2.000000025774982
100
AcDbArc
 50
185.3904113769531
 51
270.0
  0
ARC
  5
2B0
330
1F
100
AcDbEntity
  8
仕上
  6
Continuous
 62
     6
370
     9
100
AcDbCircle
 10
68.9627652554899
 20
329.5437552926632
 30
0.0
 40
2.000000025774982
100
AcDbArc
 50
106.3632202148438
 51
191.9127502441407
  0
ARC
  5
2B1
330
1F
100
AcDbEntity
  8
仕上
  6
Continuous
 62
     6
370
     9
100
AcDbCircle
 10
-50.81077781883437
 20
304.2760913885247
 30
0.0
 40
120.4096613703547
100
AcDbArc
 50
5.390716552734377
 51
11.91255187988282
  0
ARC
  5
2B2
330
1F
100
AcDbEntity
  8
仕上
  6
Continuous
 62
     6
370
     9
100
AcDbCircle
 10
63.60975110853042
 20
347.7741316651295
 30
0.0
 40
2.000000025774982
100
AcDbArc
 50
200.8150482177734
 51
286.3643951416016
  0
ARC
  5
2B3
330
1F
100
AcDbEntity
  8
仕上
  6
Continuous
 62
     6
370
     9
100
AcDbCircle
 10
36.28843565244938
 20
390.2869655439301
 30
0.0
 40
2.000000025774982
100
AcDbArc
 50
139.0905151367188
 51
224.6396789550781
  0
ARC
  5
2B4
330
1F
100
AcDbEntity
  8
仕上
  6
Continuous
 62
     6
370
     9
100
AcDbCircle
 10
46.72010267103042
 20
378.2480284134403
 30
0.0
 40
2.000000025774982
100
AcDbArc
 50
217.1786804199219
 51
302.7280273437501
  0
ARC
  5
2B5
330
1F
100
AcDbEntity
  8
仕上
  6
Continuous
 62
     6
370
     9
100
AcDbCircle
 10
-50.81077781883437
 20
304.2760913885247
 30
0.0
 40
120.4096613703547
100
AcDbArc
 50
37.17837524414062
 51
44.63980102539062
  0
ARC
  5
2B6
330
1F
100
AcDbEntity
  8
仕上
  6
Continuous
 62
     6
370
     9
100
AcDbCircle
 10
8.528062975084481
 20
411.3415210760247
 30
0.0
 40
2.000000025774982
100
AcDbArc
 50
155.4541473388672
 51
241.0033111572265
  0
ARC
  5
2B7
330
1F
100
AcDbEntity
  8
仕上
  6
Continuous
 62
     6
370
     9
100
AcDbCircle
 10
21.92900786528719
 20
402.7293285612444
 30
0.0
 40
2.000000025774982
100
AcDbArc
 50
233.5423126220703
 51
319.0916595458985
  0
ARC
  5
2B8
330
1F
100
AcDbEntity
  8
仕上
  6
Continuous
 62
     6
370
     9
100
AcDbCircle
 10
-50.81077781883437
 20
304.2760913885247
 30
0.0
 40
120.4096613703547
100
AcDbArc
 50
53.54200744628907
 51
61.00343322753908
  0
ARC
  5
2B9
330
1F
100
AcDbEntity
  8
仕上
  6
Continuous
 62
     6
370
     9
100
AcDbCircle
 10
-24.03927364864865
 20
423.7223210654673
 30
0.0
 40
2.000000025774982
100
AcDbArc
 50
171.8177795410156
 51
257.366943359375
  0
ARC
  5
2BA
330
1F
100
AcDbEntity
  8
仕上
  6
Continuous
 62
     6
370
     9
100
AcDbCircle
 10
-8.754915804476354
 20
419.2344555143694
 30
0.0
 40
2.000000025774982
100
AcDbArc
 50
249.9059448242188
 51
335.4552917480468
  0
ARC
  5
2BB
330
1F
100
AcDbEntity
  8
仕上
  6
Continuous
 62
     6
370
     9
100
AcDbCircle
 10
-50.81077781883437
 20
304.2760913885247
 30
0.0
 40
120.4096613703547
100
AcDbArc
 50
69.9056396484375
 51
77.36706542968751
  0
ARC
  5
2BC
330
1F
100
AcDbEntity
  8
仕上
  6
Continuous
 62
     6
370
     9
100
AcDbCircle
 10
-58.77566775760135
 20
426.426343447224
 30
0.0
 40
2.000000025774982
100
AcDbArc
 50
188.1814270019532
 51
273.7305908203125
  0
ARC
  5
2BD
330
1F
100
AcDbEntity
  8
仕上
  6
Continuous
 62
     6
370
     9
100
AcDbCircle
 10
-42.84598685599656
 20
426.426343447224
 30
0.0
 40
2.000000025774982
100
AcDbArc
 50
266.2695922851562
 51
351.8189392089844
  0
ARC
  5
2BE
330
1F
100
AcDbEntity
  8
仕上
  6
Continuous
 62
     6
370
     9
100
AcDbCircle
 10
-50.81077781883437
 20
304.2760913885247
 30
0.0
 40
120.4096613703547
100
AcDbArc
 50
86.26928710937499
 51
93.73071289062499
  0
ARC
  5
2BF
330
1F
100
AcDbEntity
  8
仕上
  6
Continuous
 62
     6
370
     9
100
AcDbCircle
 10
-92.86673880912156
 20
419.2343565384403
 30
0.0
 40
2.000000025774982
100
AcDbArc
 50
204.5450592041016
 51
290.0942230224609
  0
ARC
  5
2C0
330
1F
100
AcDbEntity
  8
仕上
  6
Continuous
 62
     6
370
     9
100
AcDbCircle
 10
-77.5822819890202
 20
423.7223210654673
 30
0.0
 40
2.000000025774982
100
AcDbArc
 50
282.6332244873047
 51
8.182571411132836
  0
ARC
  5
2C1
330
1F
100
AcDbEntity
  8
仕上
  6
Continuous
 62
     6
370
     9
100
AcDbCircle
 10
-50.81077781883437
 20
304.2760913885247
 30
0.0
 40
120.4096613703547
100
AcDbArc
 50
102.6329193115235
 51
110.0943450927734
  0
ARC
  5
2C2
330
1F
100
AcDbEntity
  8
仕上
  6
Continuous
 62
     6
370
     9
100
AcDbCircle
 10
-123.5506624788851
 20
402.7293285612444
 30
0.0
 40
2.000000025774982
100
AcDbArc
 50
220.9086914062501
 51
306.4578552246094
  0
ARC
  5
2C3
330
1F
100
AcDbEntity
  8
仕上
  6
Continuous
 62
     6
370
     9
100
AcDbCircle
 10
-110.1497175886824
 20
411.3415210760247
 30
0.0
 40
2.000000025774982
100
AcDbArc
 50
298.9968566894531
 51
24.54620361328127
  0
ARC
  5
2C4
330
1F
100
AcDbEntity
  8
仕上
  6
Continuous
 62
     6
370
     9
100
AcDbCircle
 10
-50.81077781883437
 20
304.2760913885247
 30
0.0
 40
120.4096613703547
100
AcDbArc
 50
118.9965515136719
 51
126.4579772949218
  0
ARC
  5
2C5
330
1F
100
AcDbEntity
  8
仕上
  6
Continuous
 62
     6
370
     9
100
AcDbCircle
 10
-148.3416583086993
 20
378.2480284134403
 30
0.0
 40
2.000000025774982
100
AcDbArc
 50
237.2723236083984
 51
322.8214874267578
  0
ARC
  5
2C6
330
1F
100
AcDbEntity
  8
仕上
  6
Continuous
 62
     6
370
     9
100
AcDbCircle
 10
-137.9098923141892
 20
390.286866568001
 30
0.0
 40
2.000000025774982
100
AcDbArc
 50
315.3604888916016
 51
40.9098358154297
  0
ARC
  5
2C7
330
1F
100
AcDbEntity
  8
仕上
  6
Continuous
 62
     6
370
     9
100
AcDbCircle
 10
-50.81077781883437
 20
304.2760913885247
 30
0.0
 40
120.4096613703547
100
AcDbArc
 50
135.3601837158203
 51
142.8216094970703
  0
ARC
  5
2C8
330
1F
100
AcDbEntity
  8
仕上
  6
Continuous
 62
     6
370
     9
100
AcDbCircle
 10
-165.2313067461993
 20
347.7739337132713
 30
0.0
 40
2.000000025774982
100
AcDbArc
 50
253.6359558105468
 51
339.1851196289062
  0
ARC
  5
2C9
330
1F
100
AcDbEntity
  8
仕上
  6
Continuous
 62
     6
370
     9
100
AcDbCircle
 10
-172.6790474556587
 20
315.7761045853153
 30
0.0
 40
2.000000025774982
100
AcDbArc
 50
270.0
 51
354.6095886230469
  0
ARC
  5
2CA
330
1F
100
AcDbEntity
  8
仕上
  6
Continuous
 62
     6
370
     9
100
AcDbCircle
 10
-170.5842219172297
 20
329.5437552926632
 30
0.0
 40
2.000000025774982
100
AcDbArc
 50
348.0872497558594
 51
73.63677978515625
  0
ARC
  5
2CB
330
1F
100
AcDbEntity
  8
仕上
  6
Continuous
 62
     6
370
     9
100
AcDbCircle
 10
-50.81077781883437
 20
304.2760913885247
 30
0.0
 40
120.4096613703547
100
AcDbArc
 50
168.0874481201172
 51
174.6092834472657
  0
ARC
  5
2CC
330
1F
100
AcDbEntity
  8
躯体
  6
Continuous
 62
     2
370
     9
100
AcDbCircle
 10
2.189248574746671
 20
396.074780947224
 30
0.0
 40
13.99999979380015
100
AcDbArc
 50
149.9998626708985
 51
330.0001373291016
  0
CIRCLE
  5
2CD
330
1F
100
AcDbEntity
  8
躯体
  6
Continuous
 62
     4
370
     9
100
AcDbCircle
 10
2.189248574746671
 20
396.074780947224
 30
0.0
 40
5.000000257749815
  0
ARC
  5
2CE
330
1F
100
AcDbEntity
  8
躯体
  6
Continuous
 62
     4
370
     9
100
AcDbCircle
 10
2.189248574746671
 20
396.074780947224
 30
0.0
 40
8.514894537023597
100
AcDbArc
 50
115.8823089599609
 51
4.117645263671876
  0
ARC
  5
2CF
330
1F
100
AcDbEntity
  8
躯体
  6
Continuous
 62
     4
370
     9
100
AcDbCircle
 10
2.189248574746671
 20
396.074780947224
 30
0.0
 40
4.000000051549963
100
AcDbArc
 50
97.18115234375001
 51
262.81884765625
  0
ARC
  5
2D0
330
1F
100
AcDbEntity
  8
躯体
  6
Continuous
 62
     4
370
     9
100
AcDbCircle
 10
2.189248574746671
 20
396.074780947224
 30
0.0
 40
4.000000051549963
100
AcDbArc
 50
277.1804351806641
 51
82.81956481933592
  0
ARC
  5
2D1
330
1F
100
AcDbEntity
  8
躯体
  6
Continuous
 62
     2
370
     9
100
AcDbCircle
 10
-15.79289616765197
 20
396.8760900688457
 30
0.0
 40
3.000000038662472
100
AcDbArc
 50
357.4482421875001
 51
69.28530883789064
  0
ARC
  5
2D2
330
1F
100
AcDbEntity
  8
躯体
  6
Continuous
 62
     2
370
     9
100
AcDbCircle
 10
11.87404323268584
 20
380.9023648788119
 30
0.0
 40
3.000000038662472
100
AcDbArc
 50
50.71382141113282
 51
122.5508880615234
  0
ARC
  5
2D3
330
1F
100
AcDbEntity
  8
躯体
  6
Continuous
 62
     2
370
     9
100
AcDbCircle
 10
-15.79289616765197
 20
396.8760900688457
 30
0.0
 40
4.000000051549963
100
AcDbArc
 50
34.45079040527344
 51
69.28530883789064
  0
ARC
  5
2D4
330
1F
100
AcDbEntity
  8
躯体
  6
Continuous
 62
     2
370
     9
100
AcDbCircle
 10
11.87404323268584
 20
380.9023648788119
 30
0.0
 40
4.000000051549963
100
AcDbArc
 50
50.71403503417969
 51
85.54855346679689
  0
ARC
  5
2D5
330
1F
100
AcDbEntity
  8
躯体
  6
Continuous
 62
     2
370
     9
100
AcDbCircle
 10
2.189248574746671
 20
396.074780947224
 30
0.0
 40
15.0
100
AcDbArc
 50
311.7862548828125
 51
330.0001220703126
  0
ARC
  5
2D6
330
1F
100
AcDbEntity
  8
躯体
  6
Continuous
 62
     2
370
     9
100
AcDbCircle
 10
2.189248574746671
 20
396.074780947224
 30
0.0
 40
15.0
100
AcDbArc
 50
149.9998168945312
 51
168.2129821777343
  0
ARC
  5
2D7
330
1F
100
AcDbEntity
  8
躯体
  6
Continuous
 62
     2
370
     9
100
AcDbCircle
 10
2.189248574746671
 20
396.074780947224
 30
0.0
 40
15.0
100
AcDbArc
 50
177.4484710693359
 51
302.5507202148438
  0
ARC
  5
2D8
330
1F
100
AcDbEntity
  8
躯体
  6
Continuous
 62
     2
370
     9
100
AcDbCircle
 10
-148.5134805215371
 20
320.2495196507713
 30
0.0
 40
3.000000038662472
100
AcDbArc
 50
170.7138214111328
 51
242.5508880615234
  0
ARC
  5
2D9
330
1F
100
AcDbEntity
  8
躯体
  6
Continuous
 62
     2
370
     9
100
AcDbCircle
 10
-148.5134805215371
 20
320.2495196507713
 30
0.0
 40
4.000000051549963
100
AcDbArc
 50
170.7140350341797
 51
205.5485534667968
  0
ARC
  5
2DA
330
1F
100
AcDbEntity
  8
躯体
  6
Continuous
 62
     2
370
     9
100
AcDbCircle
 10
-156.8107316300675
 20
304.2760913885247
 30
0.0
 40
15.0
100
AcDbArc
 50
71.7862548828125
 51
90.0001220703125
  0
ARC
  5
2DB
330
1F
100
AcDbEntity
  8
躯体
  6
Continuous
 62
     2
370
     9
100
AcDbCircle
 10
-50.81077781883437
 20
304.2760913885247
 30
0.0
 40
103.0000305175781
100
AcDbArc
 50
69.28526306152344
 51
170.7147979736328
  0
ARC
  5
2DC
330
1F
100
AcDbEntity
  8
躯体
  6
Continuous
 62
     2
370
     9
100
AcDbCircle
 10
-50.81077781883437
 20
304.2760913885247
 30
0.0
 40
102.0000334043761
100
AcDbArc
 50
69.28527832031251
 51
170.7147979736328
  0
ARC
  5
2DD
330
1F
100
AcDbEntity
  8
仕上
  6
Continuous
 62
     4
370
     9
100
AcDbCircle
 10
56.75606392525344
 20
362.3384396254335
 30
0.0
 40
1.500000019331236
100
AcDbArc
 50
300.0
 51
29.99999999999999
  0
ARC
  5
2DE
330
1F
100
AcDbEntity
  8
仕上
  6
Continuous
 62
     4
370
     9
100
AcDbCircle
 10
53.25607712204396
 20
368.4005173281362
 30
0.0
 40
1.500000019331236
100
AcDbArc
 50
29.99999999999999
 51
120.0
  0
ARC
  5
2DF
330
1F
100
AcDbEntity
  8
仕上
  6
Continuous
 62
     4
370
     9
100
AcDbCircle
 10
-154.8776327597128
 20
368.4005173281362
 30
0.0
 40
1.500000019331236
100
AcDbArc
 50
60.00000000000001
 51
150.0
  0
ARC
  5
2E0
330
1F
100
AcDbEntity
  8
仕上
  6
Continuous
 62
     4
370
     9
100
AcDbCircle
 10
-158.3776195629223
 20
362.3384396254335
 30
0.0
 40
1.500000019331236
100
AcDbArc
 50
150.0
 51
240.0
  0
ARC
  5
2E1
330
1F
100
AcDbEntity
  8
仕上
  6
Continuous
 62
     6
370
     9
100
AcDbCircle
 10
-50.81077781883437
 20
304.2760913885247
 30
0.0
 40
120.4096613703547
100
AcDbArc
 50
20.81474304199219
 51
27.62011718750001
  0
ARC
  5
2E2
330
1F
100
AcDbEntity
  8
仕上
  6
Continuous
 62
     6
370
     9
100
AcDbCircle
 10
-50.81077781883437
 20
304.2759924125956
 30
0.0
 40
120.4096613703547
100
AcDbArc
 50
152.379867553711
 51
159.1852416992188
  0
ARC
  5
2E3
330
1F
100
AcDbEntity
  8
仕上
  6
Continuous
 62
     6
370
     9
100
AcDbCircle
 10
-50.81077781883437
 20
304.2760913885247
 30
0.0
 40
128.0000016495988
100
AcDbArc
 50
0.0
 51
180.0
  0
ARC
  5
2E4
330
1F
100
AcDbEntity
  8
仕上
  6
Continuous
 62
     6
370
     9
100
AcDbCircle
 10
-50.81077781883437
 20
304.2760913885247
 30
0.0
 40
118.0000057735959
100
AcDbArc
 50
0.0
 51
180.0
  0
ARC
  5
2E5
330
1F
100
AcDbEntity
  8
仕上
  6
Continuous
 62
     6
370
     9
100
AcDbCircle
 10
-50.81077781883437
 20
304.2760913885247
 30
0.0
 40
111.0000074231947
100
AcDbArc
 50
0.0
 51
180.0
  0
ARC
  5
2E6
330
1F
100
AcDbEntity
  8
躯体
  6
Continuous
 62
     2
370
     9
100
AcDbCircle
 10
-50.81077781883437
 20
304.2760913885247
 30
0.0
 40
103.0000305175781
100
AcDbArc
 50
0.0
 51
50.71482849121094
  0
ARC
  5
2E7
330
1F
100
AcDbEntity
  8
躯体
  6
Continuous
 62
     2
370
     9
100
AcDbCircle
 10
-50.81077781883437
 20
304.2760913885247
 30
0.0
 40
102.0000334043761
100
AcDbArc
 50
0.0
 51
50.71479797363281
  0
ARC
  5
2E8
330
1F
100
AcDbEntity
  8
仕上
  6
Continuous
 62
     4
370
     9
100
AcDbCircle
 10
85.68930136190886
 20
304.2760913885247
 30
0.0
 40
5.000000257749815
100
AcDbArc
 50
0.0
 51
180.0
  0
ARC
  5
2E9
330
1F
100
AcDbEntity
  8
仕上
  6
Continuous
 62
     4
370
     9
100
AcDbCircle
 10
-187.3107580236486
 20
304.2760913885247
 30
0.0
 40
5.000000257749815
100
AcDbArc
 50
0.0
 51
180.0
  0
ARC
  5
2EA
330
1F
100
AcDbEntity
  8
躯体
  6
Continuous
 62
     2
370
     9
100
AcDbCircle
 10
-156.8107316300675
 20
304.2760913885247
 30
0.0
 40
15.0
100
AcDbArc
 50
0.0
 51
62.55072021484375
  0
ARC
  5
2EB
330
1F
100
AcDbEntity
  8
躯体
  6
Continuous
 62
     2
370
     9
100
AcDbCircle
 10
-156.8107316300675
 20
304.2760913885247
 30
0.0
 40
13.99999979380015
100
AcDbArc
 50
0.0
 51
90.00013732910158
  0
ARC
  5
2EC
330
1F
100
AcDbEntity
  8
躯体
  6
Continuous
 62
     4
370
     9
100
AcDbCircle
 10
-156.8107316300675
 20
304.2760913885247
 30
0.0
 40
4.000000051549963
100
AcDbArc
 50
0.0
 51
22.81884765625
  0
ARC
  5
2ED
330
1F
100
AcDbEntity
  8
躯体
  6
Continuous
 62
     4
370
     9
100
AcDbCircle
 10
-156.8107316300675
 20
304.2760913885247
 30
0.0
 40
4.000000051549963
100
AcDbArc
 50
37.18043518066408
 51
180.0
  0
ARC
  5
2EE
330
1F
100
AcDbEntity
  8
躯体
  6
Continuous
 62
     4
370
     9
100
AcDbCircle
 10
-156.8107316300675
 20
304.2760913885247
 30
0.0
 40
5.000000257749815
100
AcDbArc
 50
0.0
 51
180.0
  0
ARC
  5
2EF
330
1F
100
AcDbEntity
  8
躯体
  6
Continuous
 62
     4
370
     9
100
AcDbCircle
 10
-156.8107316300675
 20
304.2760913885247
 30
0.0
 40
8.514894537023597
100
AcDbArc
 50
0.0
 51
124.1176452636719
  0
ARC
  5
2F0
330
1F
100
AcDbEntity
  8
躯体
  6
Continuous
 62
     4
370
     9
100
AcDbCircle
 10
-156.7958852407094
 20
304.2760913885247
 30
0.0
 40
8.499991700455949
100
AcDbArc
 50
104.5009155273438
 51
124.3223571777344
  0
TEXT
  5
2F1
330
1F
100
AcDbEntity
  8
その他
  6
Continuous
 62
     2
370
     9
100
AcDbText
 10
162.9332419763514
 20
-107.1397724733841
 30
0.0
 40
12.192
  1
60
 50
90.0
 41
1.0625
  7
ＭＳ ゴシック
100
AcDbText
  0
TEXT
  5
2F2
330
1F
100
AcDbEntity
  8
その他
  6
Continuous
 62
     2
370
     9
100
AcDbText
 10
-72.81080256281672
 20
150.5519162671143
 30
0.0
 40
12.192
  1
φ360
 41
1.1
  7
ＭＳ ゴシック
100
AcDbText
  0
TEXT
  5
2F3
330
1F
100
AcDbEntity
  8
その他
  6
Continuous
 62
     2
370
     9
100
AcDbText
 10
-72.8108520507812
 20
118.5519096687189
 30
0.0
 40
12.192
  1
φ340
 41
1.1
  7
ＭＳ ゴシック
100
AcDbText
  0
LINE
  5
2F4
330
1F
100
AcDbEntity
  8
その他
  6
Continuous
 62
     7
370
     9
100
AcDbLine
 10
-156.5998139252533
 20
-178.5088492219137
 30
0.0
 11
54.97825828758448
 21
-178.5088492219137
 31
0.0
  0
LINE
  5
2F5
330
1F
100
AcDbEntity
  8
その他
  6
Continuous
 62
     7
370
     9
100
AcDbLine
 10
-156.5998139252533
 20
-178.5088492219137
 30
0.0
 11
-146.6853456239443
 21
-177.2035546695489
 31
0.0
  0
LINE
  5
2F6
330
1F
100
AcDbEntity
  8
その他
  6
Continuous
 62
     7
370
     9
100
AcDbLine
 10
-156.5998139252533
 20
-178.5088492219137
 30
0.0
 11
-146.6853456239443
 21
-179.8141437742786
 31
0.0
  0
LINE
  5
2F7
330
1F
100
AcDbEntity
  8
その他
  6
Continuous
 62
     7
370
     9
100
AcDbLine
 10
54.97825828758448
 20
-178.5088492219137
 30
0.0
 11
45.0638394742399
 21
-177.2035546695489
 31
0.0
  0
LINE
  5
2F8
330
1F
100
AcDbEntity
  8
その他
  6
Continuous
 62
     7
370
     9
100
AcDbLine
 10
54.97825828758448
 20
-178.5088492219137
 30
0.0
 11
45.0638394742399
 21
-179.8141437742786
 31
0.0
  0
TEXT
  5
2F9
330
1F
100
AcDbEntity
  8
その他
  6
Continuous
 62
     2
370
     9
100
AcDbText
 10
-63.81077781883442
 20
-172.2528360251232
 30
0.0
 40
12.192
  1
PT8
 41
1.083333333333333
  7
ＭＳ ゴシック
100
AcDbText
  0
LINE
  5
2FA
330
1F
100
AcDbEntity
  8
その他
  6
Continuous
 62
     7
370
     9
100
AcDbLine
 10
-169.8108240076014
 20
-212.1987296321396
 30
0.0
 11
68.18916939400344
 21
-212.1987296321396
 31
0.0
  0
LINE
  5
2FB
330
1F
100
AcDbEntity
  8
その他
  6
Continuous
 62
     7
370
     9
100
AcDbLine
 10
-169.8108240076014
 20
-212.1987296321396
 30
0.0
 11
-159.8963557062922
 21
-210.8934845677392
 31
0.0
  0
LINE
  5
2FC
330
1F
100
AcDbEntity
  8
その他
  6
Continuous
 62
     7
370
     9
100
AcDbLine
 10
-169.8108240076014
 20
-212.1987296321396
 30
0.0
 11
-159.8963557062922
 21
-213.5040241845043
 31
0.0
  0
LINE
  5
2FD
330
1F
100
AcDbEntity
  8
その他
  6
Continuous
 62
     7
370
     9
100
AcDbLine
 10
68.18916939400344
 20
-212.1987296321396
 30
0.0
 11
58.27475058065886
 21
-210.8934845677392
 31
0.0
  0
LINE
  5
2FE
330
1F
100
AcDbEntity
  8
その他
  6
Continuous
 62
     7
370
     9
100
AcDbLine
 10
68.18916939400344
 20
-212.1987296321396
 30
0.0
 11
58.27475058065886
 21
-213.5040241845043
 31
0.0
  0
TEXT
  5
2FF
330
1F
100
AcDbEntity
  8
その他
  6
Continuous
 62
     2
370
     9
100
AcDbText
 10
-72.8108520507812
 20
-205.9427659233135
 30
0.0
 40
12.192
  1
φ238
 41
1.1
  7
ＭＳ ゴシック
100
AcDbText
  0
LINE
  5
300
330
1F
100
AcDbEntity
  8
その他
  6
Continuous
 62
     7
370
     9
100
AcDbLine
 10
-156.5998139252533
 20
-157.1607256775649
 30
0.0
 11
-156.5998139252533
 21
-180.5513695859684
 31
0.0
  0
LINE
  5
301
330
1F
100
AcDbEntity
  8
その他
  6
Continuous
 62
     7
370
     9
100
AcDbLine
 10
-169.8108240076014
 20
-158.6398467053309
 30
0.0
 11
-169.8108240076014
 21
-212.9600457520734
 31
0.0
  0
LINE
  5
302
330
1F
100
AcDbEntity
  8
その他
  6
Continuous
 62
     7
370
     9
100
AcDbLine
 10
54.97825828758448
 20
-157.1607256775649
 30
0.0
 11
54.97825828758448
 21
-180.9746450267825
 31
0.0
  0
LINE
  5
303
330
1F
100
AcDbEntity
  8
その他
  6
Continuous
 62
     7
370
     9
100
AcDbLine
 10
68.18916939400344
 20
-158.6398467053309
 30
0.0
 11
68.18916939400344
 21
-213.0260388230651
 31
0.0
  0
LINE
  5
304
330
1F
100
AcDbEntity
  8
通り芯
  6
JWW_CENTER1
 62
     3
370
     9
100
AcDbLine
 10
-50.81077781883437
 20
40.48801864781518
 30
0.0
 11
-50.81077781883437
 21
-156.2010294905768
 31
0.0
  0
LINE
  5
305
330
1F
100
AcDbEntity
  8
寸法
  6
Continuous
 62
     7
370
     9
100
AcDbLine
 10
97.21059438344605
 20
-63.28334365687226
 30
0.0
 11
158.3819745038007
 21
54.83952836065311
 31
0.0
  0
LINE
  5
306
330
1F
100
AcDbEntity
  8
寸法
  6
Continuous
 62
     7
370
     9
100
AcDbLine
 10
89.18918918918928
 20
-59.78335685366284
 30
0.0
 11
162.2842984586149
 21
102.839538258246
 31
0.0
  0
LINE
  5
307
330
1F
100
AcDbEntity
  8
寸法
  6
Continuous
 62
     7
370
     9
100
AcDbLine
 10
84.32432432432438
 20
179.9474781072747
 30
0.0
 11
257.2020164695946
 21
179.9474781072747
 31
0.0
  0
LINE
  5
308
330
1F
100
AcDbEntity
  8
寸法
  6
Continuous
 62
     7
370
     9
100
AcDbLine
 10
-174.4975322001688
 20
13.71651447762946
 30
0.0
 11
-251.3200749577702
 21
124.3051903116665
 31
0.0
  0
LINE
  5
309
330
1F
100
AcDbEntity
  8
寸法
  6
Continuous
 62
     7
370
     9
100
AcDbLine
 10
-251.3200749577702
 20
124.3051903116665
 30
0.0
 11
-393.0287624049831
 21
124.3051903116665
 31
0.0
  0
LINE
  5
30A
330
1F
100
AcDbEntity
  8
寸法
  6
Continuous
 62
     7
370
     9
100
AcDbLine
 10
-161.8107976140202
 20
-64.9952808137557
 30
0.0
 11
-169.1487245301943
 21
-58.20152355552091
 31
0.0
  0
LINE
  5
30B
330
1F
100
AcDbEntity
  8
寸法
  6
Continuous
 62
     7
370
     9
100
AcDbLine
 10
-161.8107976140202
 20
-64.9952808137557
 30
0.0
 11
-167.1403544657938
 21
-56.53382863892466
 31
0.0
  0
TEXT
  5
30C
330
1F
100
AcDbEntity
  8
寸法
  6
Continuous
 62
     7
370
     9
100
AcDbText
 10
87.77207823057438
 20
187.2739303084994
 30
0.0
 40
9.144
  1
ストレーナー：ＦＣ１５０
 41
1.152777777777778
  7
ＭＳ ゴシック
100
AcDbText
  0
LINE
  5
30D
330
1F
100
AcDbEntity
  8
寸法
  6
Continuous
 62
     7
370
     9
100
AcDbLine
 10
-175.2107527449324
 20
-228.6398302093427
 30
0.0
 11
-195.9953638025233
 21
-264.6398376325374
 31
0.0
  0
LINE
  5
30E
330
1F
100
AcDbEntity
  8
寸法
  6
Continuous
 62
     7
370
     9
100
AcDbLine
 10
-175.2107527449324
 20
-228.6398302093427
 30
0.0
 11
-179.7764628642315
 21
-234.5899661362853
 31
0.0
  0
LINE
  5
30F
330
1F
100
AcDbEntity
  8
寸法
  6
Continuous
 62
     7
370
     9
100
AcDbLine
 10
-175.2107527449324
 20
-228.6398302093427
 30
0.0
 11
-178.0808938516153
 21
-235.5689370505589
 31
0.0
  0
TEXT
  5
310
330
1F
100
AcDbEntity
  8
寸法
  6
Continuous
 62
     7
370
     0
100
AcDbText
 10
-320.4369299664863
 20
-260.7396178465893
 30
0.0
 40
9.144
  1
固定金具：ＳＧＨＣ
 41
1.148148148148148
  7
ＭＳ ゴシック
100
AcDbText
  0
LINE
  5
311
330
1F
100
AcDbEntity
  8
寸法
  6
Continuous
 62
     7
370
     9
100
AcDbLine
 10
-195.9953638025233
 20
-264.6398376325374
 30
0.0
 11
-326.1877179696322
 21
-264.6398376325374
 31
0.0
  0
LINE
  5
312
330
1F
100
AcDbEntity
  8
寸法
  6
Continuous
 62
     7
370
     9
100
AcDbLine
 10
-241.6649692751657
 20
41.56680414502001
 30
0.0
 11
-161.8107976140202
 21
-64.9952808137557
 31
0.0
  0
TEXT
  5
313
330
1F
100
AcDbEntity
  8
寸法
  6
Continuous
 62
     7
370
     9
100
AcDbText
 10
160.2190486938857
 20
61.07684943856696
 30
0.0
 40
9.144
  1
防水層押え：ＦＣ１５０
  7
ＭＳ ゴシック
100
AcDbText
  0
LINE
  5
314
330
1F
100
AcDbEntity
  8
寸法
  6
Continuous
 62
     7
370
     9
100
AcDbLine
 10
158.3819745038007
 20
54.83952836065311
 30
0.0
 11
291.1082134578822
 21
54.83952836065311
 31
0.0
  0
TEXT
  5
315
330
1F
100
AcDbEntity
  8
寸法
  6
Continuous
 62
     7
370
     9
100
AcDbText
 10
-337.5052305341656
 20
-116.5420708400112
 30
0.0
 40
9.144
  1
樹脂系塗装
 41
1.133333333333333
  7
ＭＳ ゴシック
100
AcDbText
  0
TEXT
  5
316
330
1F
100
AcDbEntity
  8
寸法
  6
Continuous
 62
     7
370
     9
100
AcDbText
 10
-354.7040599788447
 20
-96.83378589490988
 30
0.0
 40
9.144
  1
本体：ＦＣ１５０
 41
1.145833333333333
  7
ＭＳ ゴシック
100
AcDbText
  0
TEXT
  5
317
330
1F
100
AcDbEntity
  8
寸法
  6
Continuous
 62
     7
370
     9
100
AcDbText
 10
-324.06394707828
 20
-156.8659212076678
 30
0.0
 40
9.144
  1
樹脂系塗装
 41
1.133333333333333
  7
ＭＳ ゴシック
100
AcDbText
  0
TEXT
  5
318
330
1F
100
AcDbEntity
  8
寸法
  6
Continuous
 62
     7
370
     9
100
AcDbText
 10
-355.1439542705309
 20
-135.8411574302185
 30
0.0
 40
9.144
  1
アンカー：ＳＷＲＭ
 41
1.148148148148148
  7
ＭＳ ゴシック
100
AcDbText
  0
LINE
  5
319
330
1F
100
AcDbEntity
  8
寸法
  6
Continuous
 62
     7
370
     9
100
AcDbLine
 10
-360.628662489492
 20
-142.9852959701256
 30
0.0
 11
-223.0212836498815
 21
-142.9852959701256
 31
0.0
  0
LINE
  5
31A
330
1F
100
AcDbEntity
  8
寸法
  6
Continuous
 62
     7
370
     9
100
AcDbLine
 10
-243.0161708421072
 20
-103.5120942247241
 30
0.0
 11
-358.8935213518387
 21
-103.5120942247241
 31
0.0
  0
TEXT
  5
31B
330
1F
100
AcDbEntity
  8
寸法
  6
Continuous
 62
     7
370
     9
100
AcDbText
 10
-335.3967793834425
 20
-215.4662801295975
 30
0.0
 40
9.144
  1
アルミニウム合金板
 41
1.148148148148148
  7
ＭＳ ゴシック
100
AcDbText
  0
TEXT
  5
31C
330
1F
100
AcDbEntity
  8
寸法
  6
Continuous
 62
     7
370
     9
100
AcDbText
 10
-315.3367878196042
 20
-196.6087600937134
 30
0.0
 40
9.144
  1
スペーサー
 41
1.133333333333333
  7
ＭＳ ゴシック
100
AcDbText
  0
LINE
  5
31D
330
1F
100
AcDbEntity
  8
寸法
  6
Continuous
 62
     7
370
     9
100
AcDbLine
 10
-207.9487159242722
 20
-202.5667772723701
 30
0.0
 11
-334.9318447636959
 21
-202.5667772723701
 31
0.0
  0
LINE
  5
31E
330
1F
100
AcDbEntity
  8
その他
  6
Continuous
 62
     7
370
     9
100
AcDbLine
 10
201.1892617715373
 20
-228.6398302093427
 30
0.0
 11
201.1892617715373
 21
-148.6398384573368
 31
0.0
  0
LINE
  5
31F
330
1F
100
AcDbEntity
  8
その他
  6
Continuous
 62
     7
370
     9
100
AcDbLine
 10
83.5892300992399
 20
-228.6398302093427
 30
0.0
 11
202.3892459353885
 21
-228.6398302093427
 31
0.0
  0
LINE
  5
320
330
1F
100
AcDbEntity
  8
その他
  6
Continuous
 62
     7
370
     9
100
AcDbLine
 10
201.1892617715373
 20
-228.6398302093427
 30
0.0
 11
199.8839672191723
 21
-218.7253619080336
 31
0.0
  0
LINE
  5
321
330
1F
100
AcDbEntity
  8
その他
  6
Continuous
 62
     7
370
     9
100
AcDbLine
 10
201.1892617715373
 20
-228.6398302093427
 30
0.0
 11
202.4945563239021
 21
-218.7253619080336
 31
0.0
  0
LINE
  5
322
330
1F
100
AcDbEntity
  8
その他
  6
Continuous
 62
     7
370
     9
100
AcDbLine
 10
201.1892617715373
 20
-148.6398384573368
 30
0.0
 11
199.8839672191723
 21
-158.5542325266991
 31
0.0
  0
LINE
  5
323
330
1F
100
AcDbEntity
  8
その他
  6
Continuous
 62
     7
370
     9
100
AcDbLine
 10
201.1892617715373
 20
-148.6398384573368
 30
0.0
 11
202.4945563239021
 21
-158.5542325266991
 31
0.0
  0
LINE
  5
324
330
1F
100
AcDbEntity
  8
その他
  6
Continuous
 62
     7
370
     9
100
AcDbLine
 10
153.7963207347974
 20
-148.6398384573368
 30
0.0
 11
199.9892776076858
 21
-148.6398384573368
 31
0.0
  0
LINE
  5
325
330
1F
100
AcDbEntity
  8
その他
  6
Continuous
 62
     7
370
     9
100
AcDbLine
 10
-235.8107943148226
 20
501.4397051976463
 30
0.0
 11
134.1891891891893
 21
501.4397051976463
 31
0.0
  0
LINE
  5
326
330
1F
100
AcDbEntity
  8
その他
  6
Continuous
 62
     7
370
     9
100
AcDbLine
 10
-235.8107943148226
 20
460.3694454848085
 30
0.0
 11
-235.8107943148226
 21
502.6396893614978
 31
0.0
  0
LINE
  5
327
330
1F
100
AcDbEntity
  8
その他
  6
Continuous
 62
     7
370
     9
100
AcDbLine
 10
134.1891891891893
 20
460.3694454848085
 30
0.0
 11
134.1891891891893
 21
502.6396893614978
 31
0.0
  0
LINE
  5
328
330
1F
100
AcDbEntity
  8
その他
  6
Continuous
 62
     7
370
     9
100
AcDbLine
 10
-235.8107943148226
 20
501.4397051976463
 30
0.0
 11
-225.8963260135134
 21
502.7449997500111
 31
0.0
  0
LINE
  5
329
330
1F
100
AcDbEntity
  8
その他
  6
Continuous
 62
     7
370
     9
100
AcDbLine
 10
-235.8107943148226
 20
501.4397051976463
 30
0.0
 11
-225.8963260135134
 21
500.1344106452815
 31
0.0
  0
LINE
  5
32A
330
1F
100
AcDbEntity
  8
その他
  6
Continuous
 62
     7
370
     9
100
AcDbLine
 10
134.1891891891893
 20
501.4397051976463
 30
0.0
 11
124.2747703758447
 21
502.7449997500111
 31
0.0
  0
LINE
  5
32B
330
1F
100
AcDbEntity
  8
その他
  6
Continuous
 62
     7
370
     9
100
AcDbLine
 10
134.1891891891893
 20
501.4397051976463
 30
0.0
 11
124.2747703758447
 21
500.1344106452815
 31
0.0
  0
LINE
  5
32C
330
1F
100
AcDbEntity
  8
その他
  6
Continuous
 62
     7
370
     9
100
AcDbLine
 10
193.1837917018581
 20
300.7192924020382
 30
0.0
 11
193.1837917018581
 21
443.2761045853153
 31
0.0
  0
LINE
  5
32D
330
1F
100
AcDbEntity
  8
その他
  6
Continuous
 62
     7
370
     9
100
AcDbLine
 10
152.6316709776183
 20
443.2761045853153
 30
0.0
 11
194.3837758657096
 21
443.2761045853153
 31
0.0
  0
LINE
  5
32E
330
1F
100
AcDbEntity
  8
その他
  6
Continuous
 62
     7
370
     9
100
AcDbLine
 10
193.1837917018581
 20
443.2761045853153
 30
0.0
 11
191.8784971494933
 21
433.3616857719707
 31
0.0
  0
LINE
  5
32F
330
1F
100
AcDbEntity
  8
その他
  6
Continuous
 62
     7
370
     9
100
AcDbLine
 10
193.1837917018581
 20
443.2761045853153
 30
0.0
 11
194.4890862542231
 21
433.3616857719707
 31
0.0
  0
TEXT
  5
330
330
1F
100
AcDbEntity
  8
その他
  6
Continuous
 62
     2
370
     9
100
AcDbText
 10
194.9332485747467
 20
-197.1397972173664
 30
0.0
 40
12.192
  1
80
 50
90.0
 41
1.0625
  7
ＭＳ ゴシック
100
AcDbText
  0
TEXT
  5
331
330
1F
100
AcDbEntity
  8
その他
  6
Continuous
 62
     2
370
     9
100
AcDbText
 10
-63.8108273067989
 20
507.695718394437
 30
0.0
 40
12.192
  1
370
 41
1.083333333333333
  7
ＭＳ ゴシック
100
AcDbText
  0
TEXT
  5
332
330
1F
100
AcDbEntity
  8
その他
  6
Continuous
 62
     2
370
     9
100
AcDbText
 10
186.9277785050677
 20
303.7831846634402
 30
0.0
 40
12.192
  1
278
 50
90.0
 41
1.083333333333333
  7
ＭＳ ゴシック
100
AcDbText
  0
LINE
  5
333
330
1F
100
AcDbEntity
  8
その他
  6
Continuous
 62
     7
370
     9
100
AcDbLine
 10
-176.8107976140202
 20
-263.0919781500372
 30
0.0
 11
75.18924197635135
 21
-263.0919781500372
 31
0.0
  0
LINE
  5
334
330
1F
100
AcDbEntity
  8
その他
  6
Continuous
 62
     7
370
     9
100
AcDbLine
 10
-176.8107976140202
 20
-263.0919781500372
 30
0.0
 11
-166.8963293127111
 21
-261.7867825736014
 31
0.0
  0
LINE
  5
335
330
1F
100
AcDbEntity
  8
その他
  6
Continuous
 62
     7
370
     9
100
AcDbLine
 10
-176.8107976140202
 20
-263.0919781500372
 30
0.0
 11
-166.8963293127111
 21
-264.397272702402
 31
0.0
  0
LINE
  5
336
330
1F
100
AcDbEntity
  8
その他
  6
Continuous
 62
     7
370
     9
100
AcDbLine
 10
75.18924197635135
 20
-263.0919781500372
 30
0.0
 11
65.27482316300677
 21
-261.7867825736014
 31
0.0
  0
LINE
  5
337
330
1F
100
AcDbEntity
  8
その他
  6
Continuous
 62
     7
370
     9
100
AcDbLine
 10
75.18924197635135
 20
-263.0919781500372
 30
0.0
 11
65.27482316300677
 21
-264.397272702402
 31
0.0
  0
TEXT
  5
338
330
1F
100
AcDbEntity
  8
その他
  6
Continuous
 62
     2
370
     9
100
AcDbText
 10
-72.81080256281672
 20
-256.8359649532466
 30
0.0
 40
12.192
  1
φ252
 41
1.1
  7
ＭＳ ゴシック
100
AcDbText
  0
LINE
  5
339
330
1F
100
AcDbEntity
  8
その他
  6
Continuous
 62
     7
370
     9
100
AcDbLine
 10
-250.8107943148226
 20
-293.9146662836254
 30
0.0
 11
149.1891891891893
 21
-293.9146662836254
 31
0.0
  0
LINE
  5
33A
330
1F
100
AcDbEntity
  8
その他
  6
Continuous
 62
     7
370
     9
100
AcDbLine
 10
-250.8107943148226
 20
-293.9146662836254
 30
0.0
 11
-240.8963260135134
 21
-292.6093717312606
 31
0.0
  0
LINE
  5
33B
330
1F
100
AcDbEntity
  8
その他
  6
Continuous
 62
     7
370
     9
100
AcDbLine
 10
-250.8107943148226
 20
-293.9146662836254
 30
0.0
 11
-240.8963260135134
 21
-295.2199608359903
 31
0.0
  0
LINE
  5
33C
330
1F
100
AcDbEntity
  8
その他
  6
Continuous
 62
     7
370
     9
100
AcDbLine
 10
149.1891891891893
 20
-293.9146662836254
 30
0.0
 11
139.2747703758447
 21
-292.6093717312606
 31
0.0
  0
LINE
  5
33D
330
1F
100
AcDbEntity
  8
その他
  6
Continuous
 62
     7
370
     9
100
AcDbLine
 10
149.1891891891893
 20
-293.9146662836254
 30
0.0
 11
139.2747703758447
 21
-295.2199608359903
 31
0.0
  0
TEXT
  5
33E
330
1F
100
AcDbEntity
  8
その他
  6
Continuous
 62
     2
370
     9
100
AcDbText
 10
-86.31087679476349
 20
-287.6586530868349
 30
0.0
 40
12.192
  1
400×308
 41
1.109375
  7
ＭＳ ゴシック
100
AcDbText
  0
LINE
  5
33F
330
1F
100
AcDbEntity
  8
その他
  6
Continuous
 62
     7
370
     9
100
AcDbLine
 10
-176.8107976140202
 20
-238.3684072155971
 30
0.0
 11
-176.8107976140202
 21
-264.0999160364915
 31
0.0
  0
LINE
  5
340
330
1F
100
AcDbEntity
  8
その他
  6
Continuous
 62
     7
370
     9
100
AcDbLine
 10
75.18924197635135
 20
-236.5304422998188
 30
0.0
 11
75.18924197635135
 21
-265.9378809522697
 31
0.0
  0
LINE
  5
341
330
1F
100
AcDbEntity
  8
その他
  6
Continuous
 62
     7
370
     9
100
AcDbLine
 10
-250.8107943148226
 20
-271.0208750360162
 30
0.0
 11
-250.8107943148226
 21
-297.1832845204987
 31
0.0
  0
LINE
  5
342
330
1F
100
AcDbEntity
  8
その他
  6
Continuous
 62
     7
370
     9
100
AcDbLine
 10
149.1891891891893
 20
-158.6397972173664
 30
0.0
 11
149.1891891891893
 21
-294.1200096608683
 31
0.0
  0
LINE
  5
343
330
1F
100
AcDbEntity
  8
その他
  6
Continuous
 62
     7
370
     9
100
AcDbLine
 10
-250.8107943148226
 20
-158.6397972173664
 30
0.0
 11
-250.8107943148226
 21
-181.7652143593486
 31
0.0
  0
LINE
  5
344
330
1F
100
AcDbEntity
  8
その他
  6
Continuous
 62
     7
370
     9
100
AcDbLine
 10
-250.8107943148226
 20
-220.1112890522005
 30
0.0
 11
-250.8107943148226
 21
-244.7890313213822
 31
0.0
  0
LINE
  5
345
330
1F
100
AcDbEntity
  8
寸法
  6
Continuous
 62
     7
370
     9
100
AcDbLine
 10
136.111400707348
 20
444.1217549231531
 30
0.0
 11
139.938206028294
 21
453.3605640447747
 31
0.0
  0
LINE
  5
346
330
1F
100
AcDbEntity
  8
寸法
  6
Continuous
 62
     7
370
     9
100
AcDbLine
 10
136.111400707348
 20
444.1217549231531
 30
0.0
 11
172.5891773120777
 21
507.3030392348084
 31
0.0
  0
LINE
  5
347
330
1F
100
AcDbEntity
  8
寸法
  6
Continuous
 62
     7
370
     9
100
AcDbLine
 10
172.5891773120777
 20
507.3030392348084
 30
0.0
 11
238.8450498838683
 21
507.3030392348084
 31
0.0
  0
TEXT
  5
348
330
1F
100
AcDbEntity
  8
寸法
  6
Continuous
 62
     7
370
     9
100
AcDbText
 10
175.7333489495355
 20
514.0240061900452
 30
0.0
 40
9.144
  1
４－φ4.2
 41
1.148148148148148
  7
ＭＳ ゴシック
100
AcDbText
  0
LINE
  5
349
330
1F
100
AcDbEntity
  8
寸法
  6
Continuous
 62
     7
370
     9
100
AcDbLine
 10
136.111400707348
 20
444.1217549231531
 30
0.0
 11
142.1990141997467
 21
452.0552694924099
 31
0.0
  0
LINE
  5
34A
330
1F
100
AcDbEntity
  8
寸法
  6
Continuous
 62
     7
370
     9
100
AcDbLine
 10
-174.4975322001688
 20
13.71651447762946
 30
0.0
 11
-180.9080051731419
 21
21.39155340816154
 31
0.0
  0
LINE
  5
34B
330
1F
100
AcDbEntity
  8
寸法
  6
Continuous
 62
     7
370
     9
100
AcDbLine
 10
-174.4975322001688
 20
13.71651447762946
 30
0.0
 11
-178.7031184016047
 21
22.78914301436924
 31
0.0
  0
LINE
  5
34C
330
1F
100
AcDbEntity
  8
寸法
  6
Continuous
 62
     7
370
     9
100
AcDbLine
 10
89.18918918918928
 20
-59.78335685366284
 30
0.0
 11
92.06325221706084
 21
-50.20525824724388
 31
0.0
  0
LINE
  5
34D
330
1F
100
AcDbEntity
  8
寸法
  6
Continuous
 62
     7
370
     9
100
AcDbLine
 10
89.18918918918928
 20
-59.78335685366284
 30
0.0
 11
94.44431614231428
 21
-51.27548496810539
 31
0.0
  0
LINE
  5
34E
330
1F
100
AcDbEntity
  8
寸法
  6
Continuous
 62
     7
370
     9
100
AcDbLine
 10
97.21059438344605
 20
-63.28334365687226
 30
0.0
 11
100.610813450169
 21
-53.87914575780133
 31
0.0
  0
LINE
  5
34F
330
1F
100
AcDbEntity
  8
寸法
  6
Continuous
 62
     7
370
     9
100
AcDbLine
 10
97.21059438344605
 20
-63.28334365687226
 30
0.0
 11
102.928928684544
 21
-55.07962480129794
 31
0.0
  0
LINE
  5
350
330
1F
100
AcDbEntity
  8
寸法
  6
Continuous
 62
     7
370
     9
100
AcDbLine
 10
4.153821790540633
 20
19.21655736719873
 30
0.0
 11
7.411020639780418
 21
28.67118350212269
 31
0.0
  0
LINE
  5
351
330
1F
100
AcDbEntity
  8
寸法
  6
Continuous
 62
     7
370
     9
100
AcDbLine
 10
4.153821790540633
 20
19.21655736719873
 30
0.0
 11
9.747149493243342
 21
27.50598937733383
 31
0.0
  0
LINE
  5
352
330
1F
100
AcDbEntity
  8
寸法
  6
Continuous
 62
     7
370
     9
100
AcDbLine
 10
-229.8108240076014
 20
-80.63976257579117
 30
0.0
 11
-233.6376583312523
 21
-89.87855790090403
 31
0.0
  0
LINE
  5
353
330
1F
100
AcDbEntity
  8
寸法
  6
Continuous
 62
     7
370
     9
100
AcDbLine
 10
-229.8108240076014
 20
-80.63976257579117
 30
0.0
 11
-235.8984382976886
 21
-88.57329597870351
 31
0.0
  0
LINE
  5
354
330
1F
100
AcDbEntity
  8
寸法
  6
Continuous
 62
     7
370
     9
100
AcDbLine
 10
-207.8107514252533
 20
-116.6398813469061
 30
0.0
 11
-211.6375857489042
 21
-125.8786766720189
 31
0.0
  0
LINE
  5
355
330
1F
100
AcDbEntity
  8
寸法
  6
Continuous
 62
     7
370
     9
100
AcDbLine
 10
-207.8107514252533
 20
-116.6398813469061
 30
0.0
 11
-213.8983657153405
 21
-124.5734147498184
 31
0.0
  0
LINE
  5
356
330
1F
100
AcDbEntity
  8
寸法
  6
Continuous
 62
     7
370
     9
100
AcDbLine
 10
-169.8108240076014
 20
-136.5100107791259
 30
0.0
 11
-173.6376583312523
 21
-145.7488061042388
 31
0.0
  0
LINE
  5
357
330
1F
100
AcDbEntity
  8
寸法
  6
Continuous
 62
     7
370
     9
100
AcDbLine
 10
-169.8108240076014
 20
-136.5100107791259
 30
0.0
 11
-175.8984382976886
 21
-144.4435441820383
 31
0.0
  0
LINE
  5
358
330
1F
100
AcDbEntity
  8
寸法
  6
Continuous
 62
     7
370
     9
100
AcDbLine
 10
-207.8107514252533
 20
-116.6398813469061
 30
0.0
 11
-223.0212836498815
 21
-142.9852959701256
 31
0.0
  0
LINE
  5
359
330
1F
100
AcDbEntity
  8
寸法
  6
Continuous
 62
     7
370
     9
100
AcDbLine
 10
-229.8108240076014
 20
-80.63976257579117
 30
0.0
 11
-243.0161708421072
 21
-103.5120942247241
 31
0.0
  0
LINE
  5
35A
330
1F
100
AcDbEntity
  8
寸法
  6
Continuous
 62
     7
370
     9
100
AcDbLine
 10
-169.8108240076014
 20
-136.5100107791259
 30
0.0
 11
-207.9487159242722
 21
-202.5667772723701
 31
0.0
  0
LINE
  5
35B
330
1F
100
AcDbEntity
  8
その他
  6
Continuous
 62
     7
370
     9
100
AcDbLine
 10
-258.0569705447634
 20
-70.78334365687226
 30
0.0
 11
-258.0569705447634
 21
19.21655736719873
 31
0.0
  0
LINE
  5
35C
330
1F
100
AcDbEntity
  8
その他
  6
Continuous
 62
     7
370
     9
100
AcDbLine
 10
-199.0981973184121
 20
-70.78334365687226
 30
0.0
 11
-259.2569547086148
 21
-70.78334365687226
 31
0.0
  0
LINE
  5
35D
330
1F
100
AcDbEntity
  8
その他
  6
Continuous
 62
     7
370
     9
100
AcDbLine
 10
-258.0569705447634
 20
-70.78334365687226
 30
0.0
 11
-259.3622156091639
 21
-60.86887535556315
 31
0.0
  0
LINE
  5
35E
330
1F
100
AcDbEntity
  8
その他
  6
Continuous
 62
     7
370
     9
100
AcDbLine
 10
-258.0569705447634
 20
-70.78334365687226
 30
0.0
 11
-256.7517254803631
 21
-60.86887535556315
 31
0.0
  0
LINE
  5
35F
330
1F
100
AcDbEntity
  8
その他
  6
Continuous
 62
     7
370
     9
100
AcDbLine
 10
-258.0569705447634
 20
19.21655736719873
 30
0.0
 11
-259.3622156091639
 21
9.302089065889561
 31
0.0
  0
LINE
  5
360
330
1F
100
AcDbEntity
  8
その他
  6
Continuous
 62
     7
370
     9
100
AcDbLine
 10
-258.0569705447634
 20
19.21655736719873
 30
0.0
 11
-256.7517254803631
 21
9.302089065889561
 31
0.0
  0
LINE
  5
361
330
1F
100
AcDbEntity
  8
その他
  6
Continuous
 62
     7
370
     9
100
AcDbLine
 10
201.1892617715373
 20
-68.63977247338408
 30
0.0
 11
201.1892617715373
 21
19.21655736719873
 31
0.0
  0
LINE
  5
362
330
1F
100
AcDbEntity
  8
その他
  6
Continuous
 62
     7
370
     9
100
AcDbLine
 10
75.18934095228042
 20
19.21655736719873
 30
0.0
 11
202.3892459353885
 21
19.21655736719873
 31
0.0
  0
LINE
  5
363
330
1F
100
AcDbEntity
  8
その他
  6
Continuous
 62
     7
370
     9
100
AcDbLine
 10
201.1892617715373
 20
-68.63977247338408
 30
0.0
 11
199.8839672191723
 21
-58.72530417207497
 31
0.0
  0
LINE
  5
364
330
1F
100
AcDbEntity
  8
その他
  6
Continuous
 62
     7
370
     9
100
AcDbLine
 10
201.1892617715373
 20
-68.63977247338408
 30
0.0
 11
202.4945563239021
 21
-58.72530417207497
 31
0.0
  0
LINE
  5
365
330
1F
100
AcDbEntity
  8
その他
  6
Continuous
 62
     7
370
     9
100
AcDbLine
 10
201.1892617715373
 20
19.21655736719873
 30
0.0
 11
199.8839672191723
 21
9.302089065889561
 31
0.0
  0
LINE
  5
366
330
1F
100
AcDbEntity
  8
その他
  6
Continuous
 62
     7
370
     9
100
AcDbLine
 10
201.1892617715373
 20
19.21655736719873
 30
0.0
 11
202.4945563239021
 21
9.302089065889561
 31
0.0
  0
LINE
  5
367
330
1F
100
AcDbEntity
  8
その他
  6
Continuous
 62
     7
370
     9
100
AcDbLine
 10
-161.8107976140202
 20
79.74503934038279
 30
0.0
 11
60.18914300042229
 21
79.74503934038279
 31
0.0
  0
LINE
  5
368
330
1F
100
AcDbEntity
  8
その他
  6
Continuous
 62
     7
370
     9
100
AcDbLine
 10
-161.8107976140202
 20
27.21653427281518
 30
0.0
 11
-161.8107976140202
 21
80.94502350423414
 31
0.0
  0
LINE
  5
369
330
1F
100
AcDbEntity
  8
その他
  6
Continuous
 62
     7
370
     9
100
AcDbLine
 10
60.18914300042229
 20
27.21653427281518
 30
0.0
 11
60.18914300042229
 21
80.94502350423414
 31
0.0
  0
LINE
  5
36A
330
1F
100
AcDbEntity
  8
その他
  6
Continuous
 62
     7
370
     9
100
AcDbLine
 10
-161.8107976140202
 20
79.74503934038279
 30
0.0
 11
-151.8963293127111
 21
81.0502844047831
 31
0.0
  0
LINE
  5
36B
330
1F
100
AcDbEntity
  8
その他
  6
Continuous
 62
     7
370
     9
100
AcDbLine
 10
-161.8107976140202
 20
79.74503934038279
 30
0.0
 11
-151.8963293127111
 21
78.43979427598248
 31
0.0
  0
LINE
  5
36C
330
1F
100
AcDbEntity
  8
その他
  6
Continuous
 62
     7
370
     9
100
AcDbLine
 10
60.18914300042229
 20
79.74503934038279
 30
0.0
 11
50.27472418707771
 21
81.0502844047831
 31
0.0
  0
LINE
  5
36D
330
1F
100
AcDbEntity
  8
その他
  6
Continuous
 62
     7
370
     9
100
AcDbLine
 10
60.18914300042229
 20
79.74503934038279
 30
0.0
 11
50.27472418707771
 21
78.43979427598248
 31
0.0
  0
LINE
  5
36E
330
1F
100
AcDbEntity
  8
その他
  6
Continuous
 62
     7
370
     9
100
AcDbLine
 10
-182.5673861116976
 20
19.21655736719873
 30
0.0
 11
-259.2569547086148
 21
19.21655736719873
 31
0.0
  0
TEXT
  5
36F
330
1F
100
AcDbEntity
  8
その他
  6
Continuous
 62
     2
370
     9
100
AcDbText
 10
-264.312983741554
 20
-34.28339314483682
 30
0.0
 40
12.192
  1
90
 50
90.0
 41
1.0625
  7
ＭＳ ゴシック
100
AcDbText
  0
TEXT
  5
370
330
1F
100
AcDbEntity
  8
その他
  6
Continuous
 62
     2
370
     9
100
AcDbText
 10
194.9332485747467
 20
-33.21158280911047
 30
0.0
 40
12.192
  1
88
 50
90.0
 41
1.0625
  7
ＭＳ ゴシック
100
AcDbText
  0
TEXT
  5
371
330
1F
100
AcDbEntity
  8
その他
  6
Continuous
 62
     2
370
     9
100
AcDbText
 10
-72.8108520507812
 20
86.00105253717331
 30
0.0
 40
12.192
  1
φ222
 41
1.1
  7
ＭＳ ゴシック
100
AcDbText
  0
LINE
  5
372
330
1F
100
AcDbEntity
  8
寸法
  6
Continuous
 62
     7
370
     9
100
AcDbLine
 10
84.32432432432438
 20
179.9474781072747
 30
0.0
 11
4.153821790540633
 21
19.21655736719873
 31
0.0
  0
LINE
  5
373
330
1F
100
AcDbEntity
  8
0-B
  6
Continuous
 62
     2
370
     9
100
AcDbLine
 10
-250.8107943148226
 20
-147.0398430762135
 30
0.0
 11
-250.8107943148226
 21
-148.6398384573368
 31
0.0
  0
LINE
  5
374
330
1F
100
AcDbEntity
  8
0-B
  6
Continuous
 62
     2
370
     9
100
AcDbLine
 10
-250.8107943148226
 20
-148.6398384573368
 30
0.0
 11
-172.4107731999577
 21
-148.6398384573368
 31
0.0
  0
LINE
  5
375
330
1F
100
AcDbEntity
  8
0-B
  6
Continuous
 62
     2
370
     9
100
AcDbLine
 10
-172.4107731999577
 20
-148.6398384573368
 30
0.0
 11
-172.4107731999577
 21
-150.2398338384601
 31
0.0
  0
LINE
  5
376
330
1F
100
AcDbEntity
  8
0-B
  6
Continuous
 62
     2
370
     9
100
AcDbLine
 10
-166.8107646220438
 20
-148.6398384573368
 30
0.0
 11
-166.8107646220438
 21
-150.2398338384601
 31
0.0
  0
LINE
  5
377
330
1F
100
AcDbEntity
  8
0-B
  6
Continuous
 62
     2
370
     9
100
AcDbLine
 10
-250.8107943148226
 20
-147.0398430762135
 30
0.0
 11
-170.8107778188344
 21
-147.0398430762135
 31
0.0
  0
LINE
  5
378
330
1F
100
AcDbEntity
  8
0-B
  6
Continuous
 62
     2
370
     9
100
AcDbLine
 10
-170.8107778188344
 20
-147.0398430762135
 30
0.0
 11
-170.8107778188344
 21
-148.6398384573368
 31
0.0
  0
LINE
  5
379
330
1F
100
AcDbEntity
  8
0-B
  6
Continuous
 62
     2
370
     9
100
AcDbLine
 10
149.1891891891893
 20
-147.0398430762135
 30
0.0
 11
149.1891891891893
 21
-148.6398384573368
 31
0.0
  0
LINE
  5
37A
330
1F
100
AcDbEntity
  8
0-B
  6
Continuous
 62
     2
370
     9
100
AcDbLine
 10
149.1891891891893
 20
-148.6398384573368
 30
0.0
 11
70.78926705025344
 21
-148.6398384573368
 31
0.0
  0
LINE
  5
37B
330
1F
100
AcDbEntity
  8
0-B
  6
Continuous
 62
     2
370
     9
100
AcDbLine
 10
65.189208984375
 20
-148.6398384573368
 30
0.0
 11
65.189208984375
 21
-150.2398338384601
 31
0.0
  0
LINE
  5
37C
330
1F
100
AcDbEntity
  8
0-B
  6
Continuous
 62
     2
370
     9
100
AcDbLine
 10
149.1891891891893
 20
-147.0398430762135
 30
0.0
 11
69.18922218116563
 21
-147.0398430762135
 31
0.0
  0
LINE
  5
37D
330
1F
100
AcDbEntity
  8
0-B
  6
Continuous
 62
     2
370
     9
100
AcDbLine
 10
69.18922218116563
 20
-147.0398430762135
 30
0.0
 11
69.18922218116563
 21
-148.6398384573368
 31
0.0
  0
LINE
  5
37E
330
1F
100
AcDbEntity
  8
0-B
  6
Continuous
 62
     2
370
     9
100
AcDbLine
 10
-170.8107778188344
 20
-148.6398384573368
 30
0.0
 11
69.18922218116563
 21
-148.6398384573368
 31
0.0
  0
LINE
  5
37F
330
1F
100
AcDbEntity
  8
0-B
  6
Continuous
 62
     2
370
     9
100
AcDbLine
 10
-172.4107731999577
 20
-150.2398338384601
 30
0.0
 11
70.78926705025344
 21
-150.2398338384601
 31
0.0
  0
LINE
  5
380
330
1F
100
AcDbEntity
  8
0-B
  6
Continuous
 62
     2
370
     9
100
AcDbLine
 10
70.78926705025344
 20
-148.6398384573368
 30
0.0
 11
70.78926705025344
 21
-150.2398338384601
 31
0.0
  0
LINE
  5
381
330
1F
100
AcDbEntity
  8
0-B
  6
Continuous
 62
     2
370
     9
100
AcDbLine
 10
75.18924197635135
 20
-148.6398384573368
 30
0.0
 11
75.18924197635135
 21
-228.6398302093427
 31
0.0
  0
LINE
  5
382
330
1F
100
AcDbEntity
  8
0-B
  6
Continuous
 62
     2
370
     9
100
AcDbLine
 10
73.58919710726354
 20
-148.6398384573368
 30
0.0
 11
73.58919710726354
 21
-228.6398302093427
 31
0.0
  0
LINE
  5
383
330
1F
100
AcDbEntity
  8
0-B
  6
Continuous
 62
     2
370
     9
100
AcDbLine
 10
-175.2107527449324
 20
-148.6398384573368
 30
0.0
 11
-175.2107527449324
 21
-228.6398302093427
 31
0.0
  0
LINE
  5
384
330
1F
100
AcDbEntity
  8
0-B
  6
Continuous
 62
     2
370
     9
100
AcDbLine
 10
-176.8107976140202
 20
-148.6398384573368
 30
0.0
 11
-176.8107976140202
 21
-228.6398302093427
 31
0.0
  0
LINE
  5
385
330
1F
100
AcDbEntity
  8
0-B
  6
Continuous
 62
     2
370
     9
100
AcDbLine
 10
-176.8107976140202
 20
-228.6398302093427
 30
0.0
 11
75.18924197635135
 21
-228.6398302093427
 31
0.0
  0
LINE
  5
386
330
1F
100
AcDbEntity
  8
0-B
  6
Continuous
 62
     2
370
     9
100
AcDbLine
 10
-250.8107943148226
 20
458.2761045853153
 30
0.0
 11
-143.9986935177365
 21
458.2761045853153
 31
0.0
  0
LINE
  5
387
330
1F
100
AcDbEntity
  8
0-B
  6
Continuous
 62
     2
370
     9
100
AcDbLine
 10
42.37713788006761
 20
458.2761045853153
 30
0.0
 11
149.1892881651183
 21
458.2761045853153
 31
0.0
  0
LINE
  5
388
330
1F
100
AcDbEntity
  8
0-B
  6
Continuous
 62
     2
370
     9
100
AcDbLine
 10
-244.2531936233107
 20
443.2761045853153
 30
0.0
 11
-227.341968433277
 21
443.2761045853153
 31
0.0
  0
LINE
  5
389
330
1F
100
AcDbEntity
  8
0-B
  6
Continuous
 62
     2
370
     9
100
AcDbLine
 10
-235.8107943148226
 20
450.3695114687612
 30
0.0
 11
-235.8107943148226
 21
434.1934794797409
 31
0.0
  0
LINE
  5
38A
330
1F
100
AcDbEntity
  8
0-B
  6
Continuous
 62
     2
370
     9
100
AcDbLine
 10
142.631637985642
 20
443.2761045853153
 30
0.0
 11
125.7204127956081
 21
443.2761045853153
 31
0.0
  0
LINE
  5
38B
330
1F
100
AcDbEntity
  8
0-B
  6
Continuous
 62
     2
370
     9
100
AcDbLine
 10
134.1891891891893
 20
450.3695114687612
 30
0.0
 11
134.1891891891893
 21
434.1934794797409
 31
0.0
  0
LINE
  5
38C
330
1F
100
AcDbEntity
  8
0-B
  6
Continuous
 62
     2
370
     9
100
AcDbLine
 10
149.1892881651183
 20
304.2760913885247
 30
0.0
 11
149.1892881651183
 21
458.2761045853153
 31
0.0
  0
LINE
  5
38D
330
1F
100
AcDbEntity
  8
0-B
  6
Continuous
 62
     2
370
     9
100
AcDbLine
 10
-250.8107943148226
 20
304.2760913885247
 30
0.0
 11
-250.8107943148226
 21
458.2761045853153
 31
0.0
  0
LINE
  5
38E
330
1F
100
AcDbEntity
  8
0-B
  6
Continuous
 62
     2
370
     9
100
AcDbLine
 10
-215.8106788429054
 20
424.2760913885247
 30
0.0
 11
-184.9748271220438
 21
424.2760913885247
 31
0.0
  0
LINE
  5
38F
330
1F
100
AcDbEntity
  8
0-B
  6
Continuous
 62
     2
370
     9
100
AcDbLine
 10
-215.8106788429054
 20
394.2760913885247
 30
0.0
 11
-206.6953421927786
 21
394.2760913885247
 31
0.0
  0
LINE
  5
390
330
1F
100
AcDbEntity
  8
0-B
  6
Continuous
 62
     2
370
     9
100
AcDbLine
 10
114.1893211570947
 20
424.2760913885247
 30
0.0
 11
83.353271484375
 21
424.2760913885247
 31
0.0
  0
LINE
  5
391
330
1F
100
AcDbEntity
  8
0-B
  6
Continuous
 62
     2
370
     9
100
AcDbLine
 10
114.1893211570947
 20
394.2760913885247
 30
0.0
 11
105.0737370671453
 21
394.2760913885247
 31
0.0
  0
CIRCLE
  5
392
330
1F
100
AcDbEntity
  8
0-B
  6
Continuous
 62
     2
370
     9
100
AcDbCircle
 10
-235.8107943148226
 20
443.2761045853153
 30
0.0
 40
2.09999993040755
  0
CIRCLE
  5
393
330
1F
100
AcDbEntity
  8
0-B
  6
Continuous
 62
     2
370
     9
100
AcDbCircle
 10
134.1891891891893
 20
443.2761045853153
 30
0.0
 40
2.09999993040755
  0
ARC
  5
394
330
1F
100
AcDbEntity
  8
0-B
  6
Continuous
 62
     2
370
     9
100
AcDbCircle
 10
-215.8106788429054
 20
409.2760913885247
 30
0.0
 40
15.0
100
AcDbArc
 50
90.0
 51
270.0
  0
ARC
  5
395
330
1F
100
AcDbEntity
  8
0-B
  6
Continuous
 62
     2
370
     9
100
AcDbCircle
 10
114.1893211570947
 20
409.2760913885247
 30
0.0
 40
15.0
100
AcDbArc
 50
270.0
 51
90.0
  0
ARC
  5
396
330
1F
100
AcDbEntity
  8
0-B
  6
Continuous
 62
     2
370
     9
100
AcDbCircle
 10
-215.8106788429054
 20
339.2759594206194
 30
0.0
 40
15.0
100
AcDbArc
 50
125.4287261962891
 51
210.6189575195312
  0
ARC
  5
397
330
1F
100
AcDbEntity
  8
0-B
  6
Continuous
 62
     2
370
     9
100
AcDbCircle
 10
114.1893211570947
 20
339.2759594206194
 30
0.0
 40
15.0
100
AcDbArc
 50
329.3798828125
 51
54.57263183593745
  0
LINE
  5
398
330
1F
100
AcDbEntity
  8
通り芯
  6
Continuous
 62
     3
370
     9
100
AcDbLine
 10
47.07968222128386
 20
-92.55992859141617
 30
0.0
 11
-143.0120500966998
 21
-92.55992859141617
 31
0.0
  0
TEXT
  5
399
330
1F
100
AcDbEntity
  8
F-4ﾚｲﾔ
  6
Continuous
 62
     6
370
     9
100
AcDbText
 10
-60.41412382010375
 20
-446.2019962535609
 30
0.0
 40
12.192
  1
鋳鉄製ルーフドレン　たて引き用　デッキプレート打込型　ねじ込み式
 41
0.6992187500000002
  7
ＭＳ ゴシック
100
AcDbText
  0
TEXT
  5
39A
330
1F
100
AcDbEntity
  8
F-5ﾚｲﾔ
  6
Continuous
 62
     2
370
     9
100
AcDbText
 10
-67.27378772014643
 20
-375.7512212795319
 30
0.0
 40
12.192
  1
※ご注文の際はＣ寸法をご指示ください。
 41
1.118421052631579
  7
ＭＳ ゴシック
100
AcDbText
  0
TEXT
  5
39B
330
1F
100
AcDbEntity
  8
F-4ﾚｲﾔ
  6
Continuous
 62
     6
370
     9
100
AcDbText
 10
-37.9484833725808
 20
-466.5887652624732
 30
0.0
 40
12.192
  1
アスファルト・シート防水用　　ＥＤＳＢ－２－２００　Ｃ＝指示
 41
0.6991666666666667
  7
ＭＳ ゴシック
100
AcDbText
  0
TEXT
  5
39C
330
1F
100
AcDbEntity
  8
寸法
  6
Continuous
 62
     7
370
     9
100
AcDbText
 10
-389.495514740815
 20
131.0770308944369
 30
0.0
 40
9.144
  1
丸小ねじ：Ｃ２７００Ｗ
 41
1.060606060606061
  7
ＭＳ ゴシック
100
AcDbText
  0
TEXT
  5
39D
330
1F
100
AcDbEntity
  8
寸法
  6
Continuous
 62
     7
370
     9
100
AcDbText
 10
-379.0370965196026
 20
49.57539844928522
 30
0.0
 40
9.144
  1
ボルト：Ｃ３６０２Ｗ
 41
1.15
  7
ＭＳ ゴシック
100
AcDbText
  0
LINE
  5
39E
330
1F
100
AcDbEntity
  8
寸法
  6
Continuous
 62
     7
370
     9
100
AcDbLine
 10
-241.6649692751657
 20
41.56680414502001
 30
0.0
 11
-380.0880112925017
 21
41.56680414502001
 31
0.0
  0
TEXT
  5
39F
330
1F
100
AcDbEntity
  8
寸法
  6
Continuous
 62
     7
370
     9
100
AcDbText
 10
161.0873813140473
 20
107.3159711605271
 30
0.0
 40
9.144
  1
丸小ねじ：Ｃ２７００Ｗ
 41
1.0
  7
ＭＳ ゴシック
100
AcDbText
  0
LINE
  5
3A0
330
1F
100
AcDbEntity
  8
寸法
  6
Continuous
 62
     7
370
     9
100
AcDbLine
 10
162.2842984586149
 20
102.839538258246
 30
0.0
 11
291.4693578731896
 21
102.839538258246
 31
0.0
  0
TEXT
  5
3A1
330
1F
100
AcDbEntity
  8
寸法
  6
Continuous
 62
     7
370
     9
100
AcDbText
 10
192.8768281659022
 20
90.29157441745207
 30
0.0
 40
9.144
  1
Ｍ６×１２
 41
1.133333333333333
  7
ＭＳ ゴシック
100
AcDbText
  0
TEXT
  5
3A2
330
1F
100
AcDbEntity
  8
寸法
  6
Continuous
 62
     7
370
     9
100
AcDbText
 10
190.7450939808415
 20
42.10623209270539
 30
0.0
 40
9.144
  1
樹脂系塗装
 41
1.133333333333333
  7
ＭＳ ゴシック
100
AcDbText
  0
TEXT
  5
3A3
330
1F
100
AcDbEntity
  8
寸法
  6
Continuous
 62
     7
370
     9
100
AcDbText
 10
136.7631703969595
 20
165.7259302821058
 30
0.0
 40
9.144
  1
樹脂系塗装
 41
1.133333333333333
  7
ＭＳ ゴシック
100
AcDbText
  0
TEXT
  5
3A4
330
1F
100
AcDbEntity
  8
寸法
  6
Continuous
 62
     7
370
     9
100
AcDbText
 10
-356.1744186813767
 20
110.4011077789385
 30
0.0
 40
9.144
  1
Ｍ６×１２
 41
1.133333333333333
  7
ＭＳ ゴシック
100
AcDbText
  0
TEXT
  5
3A5
330
1F
100
AcDbEntity
  8
寸法
  6
Continuous
 62
     7
370
     9
100
AcDbText
 10
-351.8764902838337
 20
27.13567479007919
 30
0.0
 40
9.144
  1
Ｍ１０×４０
 41
1.138888888888889
  7
ＭＳ ゴシック
100
AcDbText
  0
TEXT
  5
3A6
330
1F
100
AcDbEntity
  8
その他
  6
Continuous
 62
     2
370
     9
100
AcDbText
 10
194.9332485747467
 20
-118.6247677225395
 30
0.0
 40
12.192
  1
Ｃ
 50
90.0
  7
ＭＳ ゴシック
100
AcDbText
  0
ENDSEC
  0
SECTION
  2
OBJECTS
  0
DICTIONARY
  5
C
330
0
100
AcDbDictionary
281
     1
  3
ACAD_DETAILVIEWSTYLE
350
3EC
  3
ACAD_GROUP
350
D
  3
ACAD_LAYOUT
350
1A
  3
ACAD_MATERIAL
350
43
  3
ACAD_MLEADERSTYLE
350
6B
  3
ACAD_MLINESTYLE
350
17
  3
ACAD_PLOTSETTINGS
350
19
  3
ACAD_PLOTSTYLENAME
350
E
  3
ACAD_SCALELIST
350
47
  3
ACAD_SECTIONVIEWSTYLE
350
3ED
  3
ACAD_TABLESTYLE
350
69
  3
ACAD_VISUALSTYLE
350
2A
  3
ACDB_RECOMPOSE_DATA
350
3E9
  3
AcDbVariableDictionary
350
3A9
  0
DICTIONARY
  5
3A7
330
8
100
AcDbDictionary
280
     1
281
     1
  3
ACAD_XREC_ROUNDTRIP
360
3A8
  0
DICTIONARY
  5
3EC
102
{ACAD_REACTORS
330
C
102
}
330
C
100
AcDbDictionary
281
     1
  0
DICTIONARY
  5
D
102
{ACAD_REACTORS
330
C
102
}
330
C
100
AcDbDictionary
281
     1
  0
DICTIONARY
  5
1A
102
{ACAD_REACTORS
330
C
102
}
330
C
100
AcDbDictionary
281
     1
  3
Layout1
350
1E
  3
Layout2
350
26
  3
Model
350
22
  0
DICTIONARY
  5
43
102
{ACAD_REACTORS
330
C
102
}
330
C
100
AcDbDictionary
281
     1
  3
ByBlock
350
45
  3
ByLayer
350
44
  3
Global
350
46
  0
DICTIONARY
  5
6B
102
{ACAD_REACTORS
330
C
102
}
330
C
100
AcDbDictionary
281
     1
  3
Standard
350
6C
  0
DICTIONARY
  5
17
102
{ACAD_REACTORS
330
C
102
}
330
C
100
AcDbDictionary
281
     1
  3
Standard
350
18
  0
DICTIONARY
  5
19
102
{ACAD_REACTORS
330
C
102
}
330
C
100
AcDbDictionary
281
     1
  0
ACDBDICTIONARYWDFLT
  5
E
102
{ACAD_REACTORS
330
C
102
}
330
C
100
AcDbDictionary
281
     1
  3
Normal
350
F
100
AcDbDictionaryWithDefault
340
F
  0
DICTIONARY
  5
47
102
{ACAD_REACTORS
330
C
102
}
330
C
100
AcDbDictionary
281
     1
  3
A0
350
48
  3
A1
350
49
  3
A2
350
4A
  3
A3
350
4B
  3
A4
350
4C
  3
A5
350
4D
  3
A6
350
4E
  3
A7
350
4F
  3
A8
350
50
  3
A9
350
51
  3
B0
350
52
  3
B1
350
53
  3
B2
350
54
  3
B3
350
55
  3
B4
350
56
  3
B5
350
57
  3
B6
350
58
  3
B7
350
59
  3
B8
350
5A
  3
B9
350
5B
  3
C0
350
5C
  3
C1
350
5D
  3
C2
350
5E
  3
C3
350
5F
  3
C4
350
60
  3
C5
350
61
  3
C6
350
62
  3
C7
350
63
  3
C8
350
64
  3
C9
350
65
  3
D0
350
66
  3
D1
350
67
  3
D2
350
68
  0
DICTIONARY
  5
3ED
102
{ACAD_REACTORS
330
C
102
}
330
C
100
AcDbDictionary
281
     1
  0
DICTIONARY
  5
69
102
{ACAD_REACTORS
330
C
102
}
330
C
100
AcDbDictionary
281
     1
  3
Standard
350
6A
  0
DICTIONARY
  5
2A
102
{ACAD_REACTORS
330
C
102
}
330
C
100
AcDbDictionary
281
     1
  3
2dWireframe
350
2F
  3
Basic
350
32
  3
Brighten
350
36
  3
ColorChange
350
3A
  3
Conceptual
350
34
  3
Dim
350
35
  3
EdgeColorOff
350
3D
  3
Facepattern
350
39
  3
Flat
350
2B
  3
FlatWithEdges
350
2C
  3
Gouraud
350
2D
  3
GouraudWithEdges
350
2E
  3
Hidden
350
31
  3
JitterOff
350
3B
  3
Linepattern
350
38
  3
OverhangOff
350
3C
  3
Realistic
350
33
  3
Shaded
350
42
  3
Shaded with edges
350
41
  3
Shades of Gray
350
3E
  3
Sketchy
350
3F
  3
Thicken
350
37
  3
Wireframe
350
30
  3
X-Ray
350
40
  0
XRECORD
  5
3E9
102
{ACAD_REACTORS
330
C
102
}
330
C
100
AcDbXrecord
280
     1
 90
        1
330
6A
  0
DICTIONARY
  5
3A9
102
{ACAD_REACTORS
330
C
102
}
330
C
100
AcDbDictionary
281
     1
  3
CANNOSCALE
350
3AA
  3
CENTEREXE
350
3EE
  3
CENTERLTYPEFILE
350
3EF
  3
CMLEADERSTYLE
350
3EB
  3
CTABLESTYLE
350
3EA
  3
MSLTSCALE
350
3AB
  3
XCLIPFRAME
350
3AC
  0
XRECORD
  5
3A8
102
{ACAD_REACTORS
330
3A7
102
}
330
3A7
100
AcDbXrecord
280
     1
102
VTR_0.000_0.000_1.000_1.000_VISUALSTYLE
340
2F
102
VTR_0.000_0.000_1.000_1.000_GRIDDISPLAY
 70
     3
102
VTR_0.000_0.000_1.000_1.000_GRIDMAJOR
 70
     5
102
VTR_0.000_0.000_1.000_1.000_DEFAULTLIGHTING
280
     1
102
VTR_0.000_0.000_1.000_1.000_DEFAULTLIGHTINGTYPE
 70
     1
102
VTR_0.000_0.000_1.000_1.000_BRIGHTNESS
141
0.0
102
VTR_0.000_0.000_1.000_1.000_CONTRAST
142
0.0
  0
LAYOUT
  5
1E
102
{ACAD_REACTORS
330
1A
102
}
330
1A
100
AcDbPlotSettings
  1

  2
none_device
  4

  6

 40
0.0
 41
0.0
 42
0.0
 43
0.0
 44
0.0
 45
0.0
 46
0.0
 47
0.0
 48
0.0
 49
0.0
140
0.0
141
0.0
142
1.0
143
1.0
 70
   688
 72
     1
 73
     0
 74
     5
  7

 75
    16
 76
     0
 77
     5
 78
   300
147
1.0
148
0.0
149
0.0
100
AcDbLayout
  1
Layout1
 70
     1
 71
     1
 10
0.0
 20
0.0
 11
420.0
 21
297.0
 12
0.0
 22
0.0
 32
0.0
 14
1.000000000000000E+20
 24
1.000000000000000E+20
 34
1.000000000000000E+20
 15
-1.000000000000000E+20
 25
-1.000000000000000E+20
 35
-1.000000000000000E+20
146
0.0
 13
0.0
 23
0.0
 33
0.0
 16
1.0
 26
0.0
 36
0.0
 17
0.0
 27
1.0
 37
0.0
 76
     0
330
1B
  0
LAYOUT
  5
26
102
{ACAD_REACTORS
330
1A
102
}
330
1A
100
AcDbPlotSettings
  1

  2
none_device
  4

  6

 40
0.0
 41
0.0
 42
0.0
 43
0.0
 44
0.0
 45
0.0
 46
0.0
 47
0.0
 48
0.0
 49
0.0
140
0.0
141
0.0
142
1.0
143
1.0
 70
   688
 72
     1
 73
     0
 74
     5
  7

 75
    16
 76
     0
 77
     5
 78
   300
147
1.0
148
0.0
149
0.0
100
AcDbLayout
  1
Layout2
 70
     1
 71
     2
 10
0.0
 20
0.0
 11
0.0
 21
0.0
 12
0.0
 22
0.0
 32
0.0
 14
0.0
 24
0.0
 34
0.0
 15
0.0
 25
0.0
 35
0.0
146
0.0
 13
0.0
 23
0.0
 33
0.0
 16
1.0
 26
0.0
 36
0.0
 17
0.0
 27
1.0
 37
0.0
 76
     0
330
23
  0
LAYOUT
  5
22
102
{ACAD_REACTORS
330
1A
102
}
330
1A
100
AcDbPlotSettings
  1

  2
none_device
  4
Letter_(8.50_x_11.00_Inches)
  6

 40
6.35
 41
6.35
 42
6.35000508
 43
6.35000508
 44
215.9
 45
279.4
 46
0.0
 47
0.0
 48
0.0
 49
0.0
140
0.0
141
0.0
142
1.0
143
1.0
 70
  1712
 72
     1
 73
     0
 74
     0
  7

 75
     0
 76
     0
 77
     5
 78
   300
147
1.0
148
0.0
149
0.0
100
AcDbLayout
  1
Model
 70
     1
 71
     0
 10
-840.0
 20
-594.0
 11
840.0
 21
594.0
 12
0.0
 22
0.0
 32
0.0
 14
-840.0
 24
-594.0
 34
0.0
 15
840.0
 25
594.0
 35
0.0
146
0.0
 13
0.0
 23
0.0
 33
0.0
 16
1.0
 26
0.0
 36
0.0
 17
0.0
 27
1.0
 37
0.0
 76
     0
330
1F
331
29
  0
MATERIAL
  5
45
102
{ACAD_REACTORS
330
43
102
}
102
{ACAD_XDICTIONARY
360
3DF
102
}
330
43
100
AcDbMaterial
  1
ByBlock
  0
MATERIAL
  5
44
102
{ACAD_REACTORS
330
43
102
}
102
{ACAD_XDICTIONARY
360
3DD
102
}
330
43
100
AcDbMaterial
  1
ByLayer
  0
MATERIAL
  5
46
102
{ACAD_REACTORS
330
43
102
}
102
{ACAD_XDICTIONARY
360
3E1
102
}
330
43
100
AcDbMaterial
  1
Global
  0
MLEADERSTYLE
  5
6C
102
{ACAD_REACTORS
330
6B
102
}
102
{ACAD_XDICTIONARY
360
3E7
102
}
330
6B
100
AcDbMLeaderStyle
170
     2
171
     1
172
     0
 90
        2
 40
0.0
 41
0.0
173
     1
 91
-1056964608
340
14
 92
       -2
290
     1
 42
2.0
291
     1
 43
8.0
  3
Standard
341
0
 44
4.0
300

342
11
174
     1
178
     6
175
     1
176
     0
 93
-1056964608
 45
4.0
292
     0
297
     0
 46
4.0
343
0
 94
-1056964608
 47
1.0
 49
1.0
140
1.0
293
     1
141
0.0
294
     1
177
     0
142
1.0
295
     0
296
     0
143
3.75
1001
ACAD_MLEADERVER
1070
     2
  0
MLINESTYLE
  5
18
102
{ACAD_REACTORS
330
17
102
}
330
17
100
AcDbMlineStyle
  2
Standard
 70
     0
  3

 62
   256
 51
90.0
 52
90.0
 71
     2
 49
0.5
 62
   256
  6
BYLAYER
 49
-0.5
 62
   256
  6
BYLAYER
  0
ACDBPLACEHOLDER
  5
F
102
{ACAD_REACTORS
330
E
102
}
330
E
  0
SCALE
  5
48
102
{ACAD_REACTORS
330
47
102
}
330
47
100
AcDbScale
 70
     0
300
1:1
140
1.0
141
1.0
290
     1
  0
SCALE
  5
49
102
{ACAD_REACTORS
330
47
102
}
330
47
100
AcDbScale
 70
     0
300
1:2
140
1.0
141
2.0
290
     0
  0
SCALE
  5
4A
102
{ACAD_REACTORS
330
47
102
}
330
47
100
AcDbScale
 70
     0
300
1:4
140
1.0
141
4.0
290
     0
  0
SCALE
  5
4B
102
{ACAD_REACTORS
330
47
102
}
330
47
100
AcDbScale
 70
     0
300
1:5
140
1.0
141
5.0
290
     0
  0
SCALE
  5
4C
102
{ACAD_REACTORS
330
47
102
}
330
47
100
AcDbScale
 70
     0
300
1:8
140
1.0
141
8.0
290
     0
  0
SCALE
  5
4D
102
{ACAD_REACTORS
330
47
102
}
330
47
100
AcDbScale
 70
     0
300
1:10
140
1.0
141
10.0
290
     0
  0
SCALE
  5
4E
102
{ACAD_REACTORS
330
47
102
}
330
47
100
AcDbScale
 70
     0
300
1:16
140
1.0
141
16.0
290
     0
  0
SCALE
  5
4F
102
{ACAD_REACTORS
330
47
102
}
330
47
100
AcDbScale
 70
     0
300
1:20
140
1.0
141
20.0
290
     0
  0
SCALE
  5
50
102
{ACAD_REACTORS
330
47
102
}
330
47
100
AcDbScale
 70
     0
300
1:30
140
1.0
141
30.0
290
     0
  0
SCALE
  5
51
102
{ACAD_REACTORS
330
47
102
}
330
47
100
AcDbScale
 70
     0
300
1:40
140
1.0
141
40.0
290
     0
  0
SCALE
  5
52
102
{ACAD_REACTORS
330
47
102
}
330
47
100
AcDbScale
 70
     0
300
1:50
140
1.0
141
50.0
290
     0
  0
SCALE
  5
53
102
{ACAD_REACTORS
330
47
102
}
330
47
100
AcDbScale
 70
     0
300
1:100
140
1.0
141
100.0
290
     0
  0
SCALE
  5
54
102
{ACAD_REACTORS
330
47
102
}
330
47
100
AcDbScale
 70
     0
300
2:1
140
2.0
141
1.0
290
     0
  0
SCALE
  5
55
102
{ACAD_REACTORS
330
47
102
}
330
47
100
AcDbScale
 70
     0
300
4:1
140
4.0
141
1.0
290
     0
  0
SCALE
  5
56
102
{ACAD_REACTORS
330
47
102
}
330
47
100
AcDbScale
 70
     0
300
8:1
140
8.0
141
1.0
290
     0
  0
SCALE
  5
57
102
{ACAD_REACTORS
330
47
102
}
330
47
100
AcDbScale
 70
     0
300
10:1
140
10.0
141
1.0
290
     0
  0
SCALE
  5
58
102
{ACAD_REACTORS
330
47
102
}
330
47
100
AcDbScale
 70
     0
300
100:1
140
100.0
141
1.0
290
     0
  0
SCALE
  5
59
102
{ACAD_REACTORS
330
47
102
}
330
47
100
AcDbScale
 70
     0
300
1/128" = 1'-0"
140
0.0078125
141
12.0
290
     0
  0
SCALE
  5
5A
102
{ACAD_REACTORS
330
47
102
}
330
47
100
AcDbScale
 70
     0
300
1/64" = 1'-0"
140
0.015625
141
12.0
290
     0
  0
SCALE
  5
5B
102
{ACAD_REACTORS
330
47
102
}
330
47
100
AcDbScale
 70
     0
300
1/32" = 1'-0"
140
0.03125
141
12.0
290
     0
  0
SCALE
  5
5C
102
{ACAD_REACTORS
330
47
102
}
330
47
100
AcDbScale
 70
     0
300
1/16" = 1'-0"
140
0.0625
141
12.0
290
     0
  0
SCALE
  5
5D
102
{ACAD_REACTORS
330
47
102
}
330
47
100
AcDbScale
 70
     0
300
3/32" = 1'-0"
140
0.09375
141
12.0
290
     0
  0
SCALE
  5
5E
102
{ACAD_REACTORS
330
47
102
}
330
47
100
AcDbScale
 70
     0
300
1/8" = 1'-0"
140
0.125
141
12.0
290
     0
  0
SCALE
  5
5F
102
{ACAD_REACTORS
330
47
102
}
330
47
100
AcDbScale
 70
     0
300
3/16" = 1'-0"
140
0.1875
141
12.0
290
     0
  0
SCALE
  5
60
102
{ACAD_REACTORS
330
47
102
}
330
47
100
AcDbScale
 70
     0
300
1/4" = 1'-0"
140
0.25
141
12.0
290
     0
  0
SCALE
  5
61
102
{ACAD_REACTORS
330
47
102
}
330
47
100
AcDbScale
 70
     0
300
3/8" = 1'-0"
140
0.375
141
12.0
290
     0
  0
SCALE
  5
62
102
{ACAD_REACTORS
330
47
102
}
330
47
100
AcDbScale
 70
     0
300
1/2" = 1'-0"
140
0.5
141
12.0
290
     0
  0
SCALE
  5
63
102
{ACAD_REACTORS
330
47
102
}
330
47
100
AcDbScale
 70
     0
300
3/4" = 1'-0"
140
0.75
141
12.0
290
     0
  0
SCALE
  5
64
102
{ACAD_REACTORS
330
47
102
}
330
47
100
AcDbScale
 70
     0
300
1" = 1'-0"
140
1.0
141
12.0
290
     0
  0
SCALE
  5
65
102
{ACAD_REACTORS
330
47
102
}
330
47
100
AcDbScale
 70
     0
300
1-1/2" = 1'-0"
140
1.5
141
12.0
290
     0
  0
SCALE
  5
66
102
{ACAD_REACTORS
330
47
102
}
330
47
100
AcDbScale
 70
     0
300
3" = 1'-0"
140
3.0
141
12.0
290
     0
  0
SCALE
  5
67
102
{ACAD_REACTORS
330
47
102
}
330
47
100
AcDbScale
 70
     0
300
6" = 1'-0"
140
6.0
141
12.0
290
     0
  0
SCALE
  5
68
102
{ACAD_REACTORS
330
47
102
}
330
47
100
AcDbScale
 70
     0
300
1'-0" = 1'-0"
140
12.0
141
12.0
290
     0
  0
TABLESTYLE
  5
6A
102
{ACAD_REACTORS
330
69
102
}
102
{ACAD_XDICTIONARY
360
3E3
102
}
330
69
100
AcDbTableStyle
  3
Standard
 70
     0
 71
     0
 40
0.06
 41
0.06
280
     0
281
     0
  7
Standard
140
4.5
170
     2
 62
     0
 63
   257
283
     0
274
    -2
284
     1
 64
     0
275
    -2
285
     1
 65
     0
276
    -2
286
     1
 66
     0
277
    -2
287
     1
 67
     0
278
    -2
288
     1
 68
     0
279
    -2
289
     1
 69
     0
  7
Standard
140
6.0
170
     5
 62
     0
 63
   257
283
     0
274
    -2
284
     1
 64
     0
275
    -2
285
     1
 65
     0
276
    -2
286
     1
 66
     0
277
    -2
287
     1
 67
     0
278
    -2
288
     1
 68
     0
279
    -2
289
     1
 69
     0
  7
Standard
140
4.5
170
     5
 62
     0
 63
   257
283
     0
274
    -2
284
     1
 64
     0
275
    -2
285
     1
 65
     0
276
    -2
286
     1
 66
     0
277
    -2
287
     1
 67
     0
278
    -2
288
     1
 68
     0
279
    -2
289
     1
 69
     0
  0
VISUALSTYLE
  5
2F
102
{ACAD_REACTORS
330
2A
102
}
102
{ACAD_XDICTIONARY
360
3B5
102
}
330
2A
100
AcDbVisualStyle
  2
2dWireframe
 70
     4
 71
     0
 72
     2
 73
     0
 90
        0
 40
0.6
 41
30.0
 62
     5
 63
     7
421
 16777215
 74
     1
 91
        4
 64
     7
 65
   257
 75
     1
175
     1
 42
1.0
 92
        0
 66
   257
 43
1.0
 76
     1
 77
     6
 78
     2
 67
     7
 79
     5
170
     0
171
     0
290
     0
174
     0
 93
        1
 44
0.0
173
     0
291
     0
 45
0.0
1001
ACAD
1000
AcDbSavedByObjectVersion
1070
     0
  0
VISUALSTYLE
  5
32
102
{ACAD_REACTORS
330
2A
102
}
102
{ACAD_XDICTIONARY
360
3BB
102
}
330
2A
100
AcDbVisualStyle
  2
Basic
 70
     7
 71
     1
 72
     0
 73
     1
 90
        0
 40
0.6
 41
30.0
 62
     5
 63
     7
421
 16777215
 74
     0
 91
        4
 64
     7
 65
   257
 75
     1
175
     1
 42
1.0
 92
        8
 66
     7
 43
1.0
 76
     1
 77
     6
 78
     2
 67
     7
 79
     5
170
     0
171
     0
290
     0
174
     0
 93
        1
 44
0.0
173
     0
291
     1
 45
0.0
1001
ACAD
1000
AcDbSavedByObjectVersion
1070
     0
  0
VISUALSTYLE
  5
36
102
{ACAD_REACTORS
330
2A
102
}
102
{ACAD_XDICTIONARY
360
3C3
102
}
330
2A
100
AcDbVisualStyle
  2
Brighten
 70
    12
 71
     2
 72
     2
 73
     0
 90
        0
 40
0.6
 41
30.0
 62
     5
 63
     7
421
 16777215
 74
     1
 91
        4
 64
     7
 65
   257
 75
     1
175
     1
 42
1.0
 92
        8
 66
     7
 43
1.0
 76
     1
 77
     6
 78
     2
 67
     7
 79
     5
170
     0
171
     0
290
     0
174
     0
 93
        1
 44
50.0
173
     0
291
     1
 45
0.0
1001
ACAD
1000
AcDbSavedByObjectVersion
1070
     0
  0
VISUALSTYLE
  5
3A
102
{ACAD_REACTORS
330
2A
102
}
102
{ACAD_XDICTIONARY
360
3CB
102
}
330
2A
100
AcDbVisualStyle
  2
ColorChange
 70
    16
 71
     2
 72
     2
 73
     3
 90
        0
 40
0.6
 41
30.0
 62
     5
 63
     8
421
  8421504
 74
     1
 91
        4
 64
     7
 65
   257
 75
     1
175
     1
 42
1.0
 92
        8
 66
     8
424
  8421504
 43
1.0
 76
     1
 77
     6
 78
     2
 67
     7
 79
     5
170
     0
171
     0
290
     0
174
     0
 93
        1
 44
0.0
173
     0
291
     1
 45
0.0
1001
ACAD
1000
AcDbSavedByObjectVersion
1070
     0
  0
VISUALSTYLE
  5
34
102
{ACAD_REACTORS
330
2A
102
}
102
{ACAD_XDICTIONARY
360
3BF
102
}
330
2A
100
AcDbVisualStyle
  2
Conceptual
 70
     9
 71
     3
 72
     2
 73
     0
 90
        0
 40
0.6
 41
30.0
 62
     5
 63
     7
421
 16777215
 74
     2
 91
        2
 64
     7
 65
   257
 75
     1
175
     1
 42
179.0
 92
        8
 66
     7
 43
1.0
 76
     1
 77
     6
 78
     2
 67
     7
 79
     3
170
     0
171
     0
290
     0
174
     0
 93
        1
 44
0.0
173
     0
291
     0
 45
0.0
1001
ACAD
1000
AcDbSavedByObjectVersion
1070
     0
  0
VISUALSTYLE
  5
35
102
{ACAD_REACTORS
330
2A
102
}
102
{ACAD_XDICTIONARY
360
3C1
102
}
330
2A
100
AcDbVisualStyle
  2
Dim
 70
    11
 71
     2
 72
     2
 73
     0
 90
        0
 40
0.6
 41
30.0
 62
     5
 63
     7
421
 16777215
 74
     1
 91
        4
 64
     7
 65
   257
 75
     1
175
     1
 42
1.0
 92
        8
 66
     7
 43
1.0
 76
     1
 77
     6
 78
     2
 67
     7
 79
     5
170
     0
171
     0
290
     0
174
     0
 93
        1
 44
-50.0
173
     0
291
     1
 45
0.0
1001
ACAD
1000
AcDbSavedByObjectVersion
1070
     0
  0
VISUALSTYLE
  5
3D
102
{ACAD_REACTORS
330
2A
102
}
102
{ACAD_XDICTIONARY
360
3D1
102
}
330
2A
100
AcDbVisualStyle
  2
EdgeColorOff
 70
    22
 71
     2
 72
     2
 73
     0
 90
        0
 40
0.6
 41
30.0
 62
     5
 63
     7
421
 16777215
 74
     1
 91
        4
 64
     7
 65
   257
 75
     1
175
     1
 42
1.0
 92
        8
 66
     7
 43
1.0
 76
     1
 77
     6
 78
     2
 67
     7
 79
     5
170
     0
171
     0
290
     0
174
     0
 93
        1
 44
0.0
173
     0
291
     1
 45
0.0
1001
ACAD
1000
AcDbSavedByObjectVersion
1070
     0
  0
VISUALSTYLE
  5
39
102
{ACAD_REACTORS
330
2A
102
}
102
{ACAD_XDICTIONARY
360
3C9
102
}
330
2A
100
AcDbVisualStyle
  2
Facepattern
 70
    15
 71
     2
 72
     2
 73
     0
 90
        0
 40
0.6
 41
30.0
 62
     5
 63
     7
421
 16777215
 74
     1
 91
        4
 64
     7
 65
   257
 75
     1
175
     1
 42
1.0
 92
        8
 66
     7
 43
1.0
 76
     1
 77
     6
 78
     2
 67
     7
 79
     5
170
     0
171
     0
290
     0
174
     0
 93
        1
 44
0.0
173
     0
291
     1
 45
0.0
1001
ACAD
1000
AcDbSavedByObjectVersion
1070
     0
  0
VISUALSTYLE
  5
2B
102
{ACAD_REACTORS
330
2A
102
}
102
{ACAD_XDICTIONARY
360
3AD
102
}
330
2A
100
AcDbVisualStyle
  2
Flat
 70
     0
 71
     2
 72
     1
 73
     1
 90
        2
 40
0.6
 41
30.0
 62
     5
 63
     7
421
 16777215
 74
     0
 91
        0
 64
     7
 65
   257
 75
     1
175
     1
 42
1.0
 92
        8
 66
     7
 43
1.0
 76
     1
 77
     6
 78
     2
 67
     7
 79
     5
170
     0
171
     0
290
     0
174
     0
 93
       13
 44
0.0
173
     0
291
     1
 45
0.0
1001
ACAD
1000
AcDbSavedByObjectVersion
1070
     0
  0
VISUALSTYLE
  5
2C
102
{ACAD_REACTORS
330
2A
102
}
102
{ACAD_XDICTIONARY
360
3AF
102
}
330
2A
100
AcDbVisualStyle
  2
FlatWithEdges
 70
     1
 71
     2
 72
     1
 73
     1
 90
        2
 40
0.6
 41
30.0
 62
     5
 63
     7
421
 16777215
 74
     1
 91
        0
 64
     7
 65
   257
 75
     1
175
     1
 42
1.0
 92
        0
 66
   257
 43
1.0
 76
     1
 77
     6
 78
     2
 67
     7
 79
     5
170
     0
171
     0
290
     0
174
     0
 93
       13
 44
0.0
173
     0
291
     1
 45
0.0
1001
ACAD
1000
AcDbSavedByObjectVersion
1070
     0
  0
VISUALSTYLE
  5
2D
102
{ACAD_REACTORS
330
2A
102
}
102
{ACAD_XDICTIONARY
360
3B1
102
}
330
2A
100
AcDbVisualStyle
  2
Gouraud
 70
     2
 71
     2
 72
     2
 73
     1
 90
        2
 40
0.6
 41
30.0
 62
     5
 63
     7
421
 16777215
 74
     0
 91
        0
 64
     7
 65
   257
 75
     1
175
     1
 42
1.0
 92
        0
 66
     7
 43
1.0
 76
     1
 77
     6
 78
     2
 67
     7
 79
     5
170
     0
171
     0
290
     0
174
     0
 93
       13
 44
0.0
173
     0
291
     1
 45
0.0
1001
ACAD
1000
AcDbSavedByObjectVersion
1070
     0
  0
VISUALSTYLE
  5
2E
102
{ACAD_REACTORS
330
2A
102
}
102
{ACAD_XDICTIONARY
360
3B3
102
}
330
2A
100
AcDbVisualStyle
  2
GouraudWithEdges
 70
     3
 71
     2
 72
     2
 73
     1
 90
        2
 40
0.6
 41
30.0
 62
     5
 63
     7
421
 16777215
 74
     1
 91
        0
 64
     7
 65
   257
 75
     1
175
     1
 42
1.0
 92
        0
 66
   257
 43
1.0
 76
     1
 77
     6
 78
     2
 67
     7
 79
     5
170
     0
171
     0
290
     0
174
     0
 93
       13
 44
0.0
173
     0
291
     1
 45
0.0
1001
ACAD
1000
AcDbSavedByObjectVersion
1070
     0
  0
VISUALSTYLE
  5
31
102
{ACAD_REACTORS
330
2A
102
}
102
{ACAD_XDICTIONARY
360
3B9
102
}
330
2A
100
AcDbVisualStyle
  2
Hidden
 70
     6
 71
     1
 72
     2
 73
     2
 90
        0
 40
0.6
 41
30.0
 62
     5
 63
     7
421
 16777215
 74
     2
 91
        2
 64
     7
 65
   257
 75
     2
175
     1
 42
40.0
 92
        0
 66
   257
 43
1.0
 76
     1
 77
     6
 78
     2
 67
     7
 79
     3
170
     0
171
     0
290
     0
174
     0
 93
        1
 44
0.0
173
     0
291
     0
 45
0.0
1001
ACAD
1000
AcDbSavedByObjectVersion
1070
     0
  0
VISUALSTYLE
  5
3B
102
{ACAD_REACTORS
330
2A
102
}
102
{ACAD_XDICTIONARY
360
3CD
102
}
330
2A
100
AcDbVisualStyle
  2
JitterOff
 70
    20
 71
     2
 72
     2
 73
     0
 90
        0
 40
0.6
 41
30.0
 62
     5
 63
     7
421
 16777215
 74
     1
 91
        4
 64
     7
 65
   257
 75
     1
175
     1
 42
1.0
 92
       10
 66
     7
 43
1.0
 76
     1
 77
     6
 78
     2
 67
     7
 79
     5
170
     0
171
     0
290
     0
174
     0
 93
        1
 44
0.0
173
     0
291
     1
 45
0.0
1001
ACAD
1000
AcDbSavedByObjectVersion
1070
     0
  0
VISUALSTYLE
  5
38
102
{ACAD_REACTORS
330
2A
102
}
102
{ACAD_XDICTIONARY
360
3C7
102
}
330
2A
100
AcDbVisualStyle
  2
Linepattern
 70
    14
 71
     2
 72
     2
 73
     0
 90
        0
 40
0.6
 41
30.0
 62
     5
 63
     7
421
 16777215
 74
     1
 91
        4
 64
     7
 65
   257
 75
     7
175
     7
 42
1.0
 92
        8
 66
     7
 43
1.0
 76
     1
 77
     6
 78
     2
 67
     7
 79
     5
170
     0
171
     0
290
     0
174
     0
 93
        1
 44
0.0
173
     0
291
     1
 45
0.0
1001
ACAD
1000
AcDbSavedByObjectVersion
1070
     0
  0
VISUALSTYLE
  5
3C
102
{ACAD_REACTORS
330
2A
102
}
102
{ACAD_XDICTIONARY
360
3CF
102
}
330
2A
100
AcDbVisualStyle
  2
OverhangOff
 70
    21
 71
     2
 72
     2
 73
     0
 90
        0
 40
0.6
 41
30.0
 62
     5
 63
     7
421
 16777215
 74
     1
 91
        4
 64
     7
 65
   257
 75
     1
175
     1
 42
1.0
 92
        9
 66
     7
 43
1.0
 76
     1
 77
     6
 78
     2
 67
     7
 79
     5
170
     0
171
     0
290
     0
174
     0
 93
        1
 44
0.0
173
     0
291
     1
 45
0.0
1001
ACAD
1000
AcDbSavedByObjectVersion
1070
     0
  0
VISUALSTYLE
  5
33
102
{ACAD_REACTORS
330
2A
102
}
102
{ACAD_XDICTIONARY
360
3BD
102
}
330
2A
100
AcDbVisualStyle
  2
Realistic
 70
     8
 71
     2
 72
     3
 73
     0
 90
        2
 40
0.6
 41
30.0
 62
     5
 63
     7
421
 16777215
 74
     0
 91
        0
 64
     7
 65
   257
 75
     1
175
     1
 42
1.0
 92
        8
 66
   257
 43
1.0
 76
     1
 77
     6
 78
     2
 67
     7
 79
     3
170
     0
171
     0
290
     0
174
     0
 93
       13
 44
0.0
173
     0
291
     0
 45
0.0
1001
ACAD
1000
AcDbSavedByObjectVersion
1070
     0
  0
VISUALSTYLE
  5
42
102
{ACAD_REACTORS
330
2A
102
}
102
{ACAD_XDICTIONARY
360
3DB
102
}
330
2A
100
AcDbVisualStyle
  2
Shaded
 70
    27
 71
     2
 72
     2
 73
     1
 90
        2
 40
0.6
 41
30.0
 62
     5
 63
     7
421
 16777215
 74
     0
 91
        4
 64
     7
 65
   257
 75
     1
175
     1
 42
1.0
 92
        8
 66
   257
 43
1.0
 76
     1
 77
     6
 78
     2
 67
     8
425
  7895160
 79
     3
170
     0
171
     0
290
     0
174
     0
 93
        5
 44
0.0
173
     0
291
     0
 45
0.0
1001
ACAD
1000
AcDbSavedByObjectVersion
1070
     0
  0
VISUALSTYLE
  5
41
102
{ACAD_REACTORS
330
2A
102
}
102
{ACAD_XDICTIONARY
360
3D9
102
}
330
2A
100
AcDbVisualStyle
  2
Shaded with edges
 70
    26
 71
     2
 72
     2
 73
     1
 90
        2
 40
0.6
 41
30.0
 62
     5
 63
     7
421
 16777215
 74
     1
 91
       10
 64
     7
 65
   257
 75
     2
175
     1
 42
1.0
 92
        8
 66
   257
 43
1.0
 76
     1
 77
     6
 78
     2
 67
     7
 79
     3
170
     0
171
     0
290
     0
174
     0
 93
        5
 44
0.0
173
     0
291
     0
 45
0.0
1001
ACAD
1000
AcDbSavedByObjectVersion
1070
     0
  0
VISUALSTYLE
  5
3E
102
{ACAD_REACTORS
330
2A
102
}
102
{ACAD_XDICTIONARY
360
3D3
102
}
330
2A
100
AcDbVisualStyle
  2
Shades of Gray
 70
    23
 71
     2
 72
     2
 73
     3
 90
        0
 40
0.6
 41
30.0
 62
     5
 63
     7
421
 16777215
 74
     2
 91
        2
 64
     7
 65
     7
 75
     1
175
     1
 42
40.0
 92
        8
 66
     7
 43
1.0
 76
     1
 77
     6
 78
     2
 67
     7
 79
     3
170
     0
171
     0
290
     0
174
     0
 93
        1
 44
0.0
173
     0
291
     0
 45
0.0
1001
ACAD
1000
AcDbSavedByObjectVersion
1070
     0
  0
VISUALSTYLE
  5
3F
102
{ACAD_REACTORS
330
2A
102
}
102
{ACAD_XDICTIONARY
360
3D5
102
}
330
2A
100
AcDbVisualStyle
  2
Sketchy
 70
    24
 71
     1
 72
     2
 73
     2
 90
        0
 40
0.6
 41
30.0
 62
     5
 63
     7
421
 16777215
 74
     2
 91
        2
 64
     7
 65
     7
 75
     1
175
     1
 42
40.0
 92
       11
 66
     7
 43
1.0
 76
     1
 77
     6
 78
     2
 67
     7
 79
     6
170
     0
171
     0
290
     0
174
     0
 93
        1
 44
0.0
173
     0
291
     0
 45
0.0
1001
ACAD
1000
AcDbSavedByObjectVersion
1070
     0
  0
VISUALSTYLE
  5
37
102
{ACAD_REACTORS
330
2A
102
}
102
{ACAD_XDICTIONARY
360
3C5
102
}
330
2A
100
AcDbVisualStyle
  2
Thicken
 70
    13
 71
     2
 72
     2
 73
     0
 90
        0
 40
0.6
 41
30.0
 62
     5
 63
     7
421
 16777215
 74
     1
 91
        4
 64
     7
 65
   257
 75
     1
175
     1
 42
1.0
 92
       12
 66
     7
 43
1.0
 76
     1
 77
     6
 78
     2
 67
     7
 79
     5
170
     0
171
     0
290
     0
174
     0
 93
        1
 44
0.0
173
     0
291
     1
 45
0.0
1001
ACAD
1000
AcDbSavedByObjectVersion
1070
     0
  0
VISUALSTYLE
  5
30
102
{ACAD_REACTORS
330
2A
102
}
102
{ACAD_XDICTIONARY
360
3B7
102
}
330
2A
100
AcDbVisualStyle
  2
Wireframe
 70
     5
 71
     0
 72
     2
 73
     0
 90
        0
 40
0.6
 41
30.0
 62
     5
 63
     7
421
 16777215
 74
     1
 91
        4
 64
     7
 65
   257
 75
     1
175
     1
 42
1.0
 92
        0
 66
   257
 43
1.0
 76
     1
 77
     6
 78
     2
 67
     7
 79
     3
170
     0
171
     0
290
     0
174
     0
 93
        1
 44
0.0
173
     0
291
     0
 45
0.0
1001
ACAD
1000
AcDbSavedByObjectVersion
1070
     0
  0
VISUALSTYLE
  5
40
102
{ACAD_REACTORS
330
2A
102
}
102
{ACAD_XDICTIONARY
360
3D7
102
}
330
2A
100
AcDbVisualStyle
  2
X-Ray
 70
    25
 71
     2
 72
     2
 73
     1
 90
        1
 40
0.5
 41
30.0
 62
     5
 63
     7
421
 16777215
 74
     1
 91
        0
 64
     7
 65
   257
 75
     1
175
     1
 42
1.0
 92
        8
 66
     7
 43
1.0
 76
     1
 77
     6
 78
     2
 67
     7
 79
     3
170
     0
171
     0
290
     0
174
     0
 93
       13
 44
0.0
173
     0
291
     0
 45
0.0
1001
ACAD
1000
AcDbSavedByObjectVersion
1070
     0
  0
DICTIONARYVAR
  5
3AA
102
{ACAD_REACTORS
330
3A9
102
}
330
3A9
100
DictionaryVariables
280
     0
  1
1:1
  0
DICTIONARYVAR
  5
3EE
102
{ACAD_REACTORS
330
3A9
102
}
330
3A9
100
DictionaryVariables
280
     0
  1
3.500000
  0
DICTIONARYVAR
  5
3EF
102
{ACAD_REACTORS
330
3A9
102
}
330
3A9
100
DictionaryVariables
280
     0
  1
acadiso.lin
  0
DICTIONARYVAR
  5
3EB
102
{ACAD_REACTORS
330
3A9
102
}
330
3A9
100
DictionaryVariables
280
     0
  1
Standard
  0
DICTIONARYVAR
  5
3EA
102
{ACAD_REACTORS
330
3A9
102
}
330
3A9
100
DictionaryVariables
280
     0
  1
Standard
  0
DICTIONARYVAR
  5
3AB
102
{ACAD_REACTORS
330
3A9
102
}
330
3A9
100
DictionaryVariables
280
     0
  1
1
  0
DICTIONARYVAR
  5
3AC
102
{ACAD_REACTORS
330
3A9
102
}
330
3A9
100
DictionaryVariables
280
     0
  1
2
  0
DICTIONARY
  5
3DF
330
45
100
AcDbDictionary
280
     1
281
     1
  3
ACAD_XREC_ROUNDTRIP
360
3E0
  0
DICTIONARY
  5
3DD
330
44
100
AcDbDictionary
280
     1
281
     1
  3
ACAD_XREC_ROUNDTRIP
360
3DE
  0
DICTIONARY
  5
3E1
330
46
100
AcDbDictionary
280
     1
281
     1
  3
ACAD_XREC_ROUNDTRIP
360
3E2
  0
DICTIONARY
  5
3E7
330
6C
100
AcDbDictionary
280
     1
281
     1
  3
ACAD_XREC_ROUNDTRIP
360
3E8
  0
DICTIONARY
  5
3E3
330
6A
100
AcDbDictionary
280
     1
281
     1
  3
ACAD_ROUNDTRIP_2008_TABLESTYLE_CELLSTYLEMAP
360
3E5
  3
ACAD_XREC_ROUNDTRIP
360
3E4
  0
DICTIONARY
  5
3B5
330
2F
100
AcDbDictionary
280
     1
281
     1
  3
ACAD_XREC_ROUNDTRIP
360
3B6
  0
DICTIONARY
  5
3BB
330
32
100
AcDbDictionary
280
     1
281
     1
  3
ACAD_XREC_ROUNDTRIP
360
3BC
  0
DICTIONARY
  5
3C3
330
36
100
AcDbDictionary
280
     1
281
     1
  3
ACAD_XREC_ROUNDTRIP
360
3C4
  0
DICTIONARY
  5
3CB
330
3A
100
AcDbDictionary
280
     1
281
     1
  3
ACAD_XREC_ROUNDTRIP
360
3CC
  0
DICTIONARY
  5
3BF
330
34
100
AcDbDictionary
280
     1
281
     1
  3
ACAD_XREC_ROUNDTRIP
360
3C0
  0
DICTIONARY
  5
3C1
330
35
100
AcDbDictionary
280
     1
281
     1
  3
ACAD_XREC_ROUNDTRIP
360
3C2
  0
DICTIONARY
  5
3D1
330
3D
100
AcDbDictionary
280
     1
281
     1
  3
ACAD_XREC_ROUNDTRIP
360
3D2
  0
DICTIONARY
  5
3C9
330
39
100
AcDbDictionary
280
     1
281
     1
  3
ACAD_XREC_ROUNDTRIP
360
3CA
  0
DICTIONARY
  5
3AD
330
2B
100
AcDbDictionary
280
     1
281
     1
  3
ACAD_XREC_ROUNDTRIP
360
3AE
  0
DICTIONARY
  5
3AF
330
2C
100
AcDbDictionary
280
     1
281
     1
  3
ACAD_XREC_ROUNDTRIP
360
3B0
  0
DICTIONARY
  5
3B1
330
2D
100
AcDbDictionary
280
     1
281
     1
  3
ACAD_XREC_ROUNDTRIP
360
3B2
  0
DICTIONARY
  5
3B3
330
2E
100
AcDbDictionary
280
     1
281
     1
  3
ACAD_XREC_ROUNDTRIP
360
3B4
  0
DICTIONARY
  5
3B9
330
31
100
AcDbDictionary
280
     1
281
     1
  3
ACAD_XREC_ROUNDTRIP
360
3BA
  0
DICTIONARY
  5
3CD
330
3B
100
AcDbDictionary
280
     1
281
     1
  3
ACAD_XREC_ROUNDTRIP
360
3CE
  0
DICTIONARY
  5
3C7
330
38
100
AcDbDictionary
280
     1
281
     1
  3
ACAD_XREC_ROUNDTRIP
360
3C8
  0
DICTIONARY
  5
3CF
330
3C
100
AcDbDictionary
280
     1
281
     1
  3
ACAD_XREC_ROUNDTRIP
360
3D0
  0
DICTIONARY
  5
3BD
330
33
100
AcDbDictionary
280
     1
281
     1
  3
ACAD_XREC_ROUNDTRIP
360
3BE
  0
DICTIONARY
  5
3DB
330
42
100
AcDbDictionary
280
     1
281
     1
  3
ACAD_XREC_ROUNDTRIP
360
3DC
  0
DICTIONARY
  5
3D9
330
41
100
AcDbDictionary
280
     1
281
     1
  3
ACAD_XREC_ROUNDTRIP
360
3DA
  0
DICTIONARY
  5
3D3
330
3E
100
AcDbDictionary
280
     1
281
     1
  3
ACAD_XREC_ROUNDTRIP
360
3D4
  0
DICTIONARY
  5
3D5
330
3F
100
AcDbDictionary
280
     1
281
     1
  3
ACAD_XREC_ROUNDTRIP
360
3D6
  0
DICTIONARY
  5
3C5
330
37
100
AcDbDictionary
280
     1
281
     1
  3
ACAD_XREC_ROUNDTRIP
360
3C6
  0
DICTIONARY
  5
3B7
330
30
100
AcDbDictionary
280
     1
281
     1
  3
ACAD_XREC_ROUNDTRIP
360
3B8
  0
DICTIONARY
  5
3D7
330
40
100
AcDbDictionary
280
     1
281
     1
  3
ACAD_XREC_ROUNDTRIP
360
3D8
  0
XRECORD
  5
3E0
102
{ACAD_REACTORS
330
3DF
102
}
330
3DF
100
AcDbXrecord
280
     1
102
MATERIAL
148
0.0
149
0.0
149
0.0
 93
        0
 94
      127
282
     0
 72
     1
 77
     1
171
     1
175
     1
179
     1
273
     0
  0
XRECORD
  5
3DE
102
{ACAD_REACTORS
330
3DD
102
}
330
3DD
100
AcDbXrecord
280
     1
102
MATERIAL
148
0.0
149
0.0
149
0.0
 93
        0
 94
      127
282
     0
 72
     1
 77
     1
171
     1
175
     1
179
     1
273
     0
  0
XRECORD
  5
3E2
102
{ACAD_REACTORS
330
3E1
102
}
330
3E1
100
AcDbXrecord
280
     1
102
MATERIAL
148
0.0
149
0.0
149
0.0
 93
        0
 94
      127
282
     0
 72
     1
 77
     1
171
     1
175
     1
179
     1
273
     0
  0
XRECORD
  5
3E8
102
{ACAD_REACTORS
330
3E7
102
}
330
3E7
100
AcDbXrecord
280
     1
102
ACAD_ROUNDTRIP_2010_MLEADER_STYLE
  0
CELLSTYLEMAP
  5
3E5
102
{ACAD_REACTORS
330
3E3
102
}
330
3E3
100
AcDbCellStyleMap
 90
        3
300
CELLSTYLE
  1
TABLEFORMAT_BEGIN
 90
        5
170
     1
 91
        0
 92
    32768
 62
   257
 93
        1
300
CONTENTFORMAT
  1
CONTENTFORMAT_BEGIN
 90
        0
 91
        0
 92
        4
 93
        0
300

 40
0.0
140
1.0
 94
        5
 62
     0
340
11
144
6.0
309
CONTENTFORMAT_END
171
     1
301
MARGIN
  1
CELLMARGIN_BEGIN
 40
1.5
 40
1.5
 40
1.5
 40
1.5
 40
1.5
 40
1.5
309
CELLMARGIN_END
 94
        6
 95
        1
302
GRIDFORMAT
  1
GRIDFORMAT_BEGIN
 90
        0
 91
        1
 62
     0
 92
       -2
340
14
 93
        0
 40
0.045
309
GRIDFORMAT_END
 95
        2
302
GRIDFORMAT
  1
GRIDFORMAT_BEGIN
 90
        0
 91
        1
 62
     0
 92
       -2
340
14
 93
        0
 40
0.045
309
GRIDFORMAT_END
 95
        4
302
GRIDFORMAT
  1
GRIDFORMAT_BEGIN
 90
        0
 91
        1
 62
     0
 92
       -2
340
14
 93
        0
 40
0.045
309
GRIDFORMAT_END
 95
        8
302
GRIDFORMAT
  1
GRIDFORMAT_BEGIN
 90
        0
 91
        1
 62
     0
 92
       -2
340
14
 93
        0
 40
0.045
309
GRIDFORMAT_END
 95
       16
302
GRIDFORMAT
  1
GRIDFORMAT_BEGIN
 90
        0
 91
        1
 62
     0
 92
       -2
340
14
 93
        0
 40
0.045
309
GRIDFORMAT_END
 95
       32
302
GRIDFORMAT
  1
GRIDFORMAT_BEGIN
 90
        0
 91
        1
 62
     0
 92
       -2
340
14
 93
        0
 40
0.045
309
GRIDFORMAT_END
309
TABLEFORMAT_END
  1
CELLSTYLE_BEGIN
 90
        1
 91
        1
300
_TITLE
309
CELLSTYLE_END
300
CELLSTYLE
  1
TABLEFORMAT_BEGIN
 90
        5
170
     1
 91
        0
 92
        0
 62
   257
 93
        1
300
CONTENTFORMAT
  1
CONTENTFORMAT_BEGIN
 90
        0
 91
        0
 92
        4
 93
        0
300

 40
0.0
140
1.0
 94
        5
 62
     0
340
11
144
4.5
309
CONTENTFORMAT_END
171
     1
301
MARGIN
  1
CELLMARGIN_BEGIN
 40
1.5
 40
1.5
 40
1.5
 40
1.5
 40
1.5
 40
1.5
309
CELLMARGIN_END
 94
        6
 95
        1
302
GRIDFORMAT
  1
GRIDFORMAT_BEGIN
 90
        0
 91
        1
 62
     0
 92
       -2
340
14
 93
        0
 40
0.045
309
GRIDFORMAT_END
 95
        2
302
GRIDFORMAT
  1
GRIDFORMAT_BEGIN
 90
        0
 91
        1
 62
     0
 92
       -2
340
14
 93
        0
 40
0.045
309
GRIDFORMAT_END
 95
        4
302
GRIDFORMAT
  1
GRIDFORMAT_BEGIN
 90
        0
 91
        1
 62
     0
 92
       -2
340
14
 93
        0
 40
0.045
309
GRIDFORMAT_END
 95
        8
302
GRIDFORMAT
  1
GRIDFORMAT_BEGIN
 90
        0
 91
        1
 62
     0
 92
       -2
340
14
 93
        0
 40
0.045
309
GRIDFORMAT_END
 95
       16
302
GRIDFORMAT
  1
GRIDFORMAT_BEGIN
 90
        0
 91
        1
 62
     0
 92
       -2
340
14
 93
        0
 40
0.045
309
GRIDFORMAT_END
 95
       32
302
GRIDFORMAT
  1
GRIDFORMAT_BEGIN
 90
        0
 91
        1
 62
     0
 92
       -2
340
14
 93
        0
 40
0.045
309
GRIDFORMAT_END
309
TABLEFORMAT_END
  1
CELLSTYLE_BEGIN
 90
        2
 91
        1
300
_HEADER
309
CELLSTYLE_END
300
CELLSTYLE
  1
TABLEFORMAT_BEGIN
 90
        5
170
     1
 91
        0
 92
        0
 62
   257
 93
        1
300
CONTENTFORMAT
  1
CONTENTFORMAT_BEGIN
 90
        0
 91
        0
 92
        4
 93
        0
300

 40
0.0
140
1.0
 94
        2
 62
     0
340
11
144
4.5
309
CONTENTFORMAT_END
171
     1
301
MARGIN
  1
CELLMARGIN_BEGIN
 40
1.5
 40
1.5
 40
1.5
 40
1.5
 40
1.5
 40
1.5
309
CELLMARGIN_END
 94
        6
 95
        1
302
GRIDFORMAT
  1
GRIDFORMAT_BEGIN
 90
        0
 91
        1
 62
     0
 92
       -2
340
14
 93
        0
 40
0.045
309
GRIDFORMAT_END
 95
        2
302
GRIDFORMAT
  1
GRIDFORMAT_BEGIN
 90
        0
 91
        1
 62
     0
 92
       -2
340
14
 93
        0
 40
0.045
309
GRIDFORMAT_END
 95
        4
302
GRIDFORMAT
  1
GRIDFORMAT_BEGIN
 90
        0
 91
        1
 62
     0
 92
       -2
340
14
 93
        0
 40
0.045
309
GRIDFORMAT_END
 95
        8
302
GRIDFORMAT
  1
GRIDFORMAT_BEGIN
 90
        0
 91
        1
 62
     0
 92
       -2
340
14
 93
        0
 40
0.045
309
GRIDFORMAT_END
 95
       16
302
GRIDFORMAT
  1
GRIDFORMAT_BEGIN
 90
        0
 91
        1
 62
     0
 92
       -2
340
14
 93
        0
 40
0.045
309
GRIDFORMAT_END
 95
       32
302
GRIDFORMAT
  1
GRIDFORMAT_BEGIN
 90
        0
 91
        1
 62
     0
 92
       -2
340
14
 93
        0
 40
0.045
309
GRIDFORMAT_END
309
TABLEFORMAT_END
  1
CELLSTYLE_BEGIN
 90
        3
 91
        2
300
_DATA
309
CELLSTYLE_END
  0
XRECORD
  5
3E4
102
{ACAD_REACTORS
330
3E3
102
}
330
3E3
100
AcDbXrecord
280
     1
102
ACAD_ROUNDTRIP_PRE2007_TABLESTYLE
 90
        4
 91
        0
  1

 92
        4
 93
        0
  2

 94
        4
 95
        0
  3

  0
XRECORD
  5
3B6
102
{ACAD_REACTORS
330
3B5
102
}
330
3B5
100
AcDbXrecord
280
     1
102
RTVSPropertyOp0
 70
     1
102
RTVSPropertyOp1
 70
     1
102
RTVSPropertyOp2
 70
     1
102
RTVSPropertyOp3
 70
     1
102
RTVSPropertyOp4
 70
     1
102
RTVSPropertyOp5
 70
     1
102
RTVSPropertyOp6
 70
     1
102
RTVSPropertyOp7
 70
     1
102
RTVSPropertyOp8
 70
     1
102
RTVSPropertyOp9
 70
     1
102
RTVSPropertyOp10
 70
     1
102
RTVSPropertyOp11
 70
     1
102
RTVSPropertyOp12
 70
     1
102
RTVSPropertyOp13
 70
     1
102
RTVSPropertyOp14
 70
     1
102
RTVSPropertyOp15
 70
     1
102
RTVSPropertyOp16
 70
     1
102
RTVSPropertyOp17
 70
     1
102
RTVSPropertyOp18
 70
     1
102
RTVSPropertyOp19
 70
     1
102
RTVSPropertyOp20
 70
     1
102
RTVSPropertyOp21
 70
     1
102
RTVSPropertyOp22
 70
     1
102
RTVSPropertyOp23
 70
     1
102
RTVSPropertyOp24
 70
     1
102
RTVSPropertyOp25
 70
     1
102
RTVSPropertyOp26
 70
     1
102
RTVSPropertyOp27
 70
     1
102
RTVSPropertyOp28
 70
     1
102
RTVSPropertyOp29
 70
     1
102
RTVSPropertyOp30
 70
     1
102
RTVSPropertyOp31
 70
     1
102
RTVSPropertyOp32
 70
     1
102
RTVSPropertyOp33
 70
     1
102
RTVSPropertyOp34
 70
     1
102
RTVSPropertyOp35
 70
     1
102
RTVSPropertyOp36
 70
     1
102
RTVSPropertyOp37
 70
     1
102
RTVSPropertyOp38
 70
     1
102
RTVSPropertyOp39
 70
     1
102
RTVSPropertyOp40
 70
     1
102
RTVSPropertyOp41
 70
     1
102
RTVSPropertyOp42
 70
     1
102
RTVSPropertyOp43
 70
     1
102
RTVSPropertyOp44
 70
     1
102
RTVSPropertyOp45
 70
     1
102
RTVSPropertyOp46
 70
     1
102
RTVSPropertyOp47
 70
     1
102
RTVSPropertyOp48
 70
     1
102
RTVSPropertyOp49
 70
     1
102
RTVSPropertyOp50
 70
     1
102
RTVSPropertyOp51
 70
     0
102
RTVSPropertyOp52
 70
     0
102
RTVSPropertyOp53
 70
     1
102
RTVSPropertyOp54
 70
     1
102
RTVSPropertyOp55
 70
     1
102
RTVSPropertyOp56
 70
     1
102
RTVSPropertyOp57
 70
     1
102
RTVSPost2010Prop28
280
     1
102
RTVSPost2010PropOp28
 70
     1
102
RTVSPost2010Prop29
280
     1
102
RTVSPost2010PropOp29
 70
     1
102
RTVSPost2010Prop30
280
     0
102
RTVSPost2010PropOp30
 70
     1
102
RTVSPost2010Prop31
280
     0
102
RTVSPost2010PropOp31
 70
     1
102
RTVSPost2010Prop32
280
     0
102
RTVSPost2010PropOp32
 70
     1
102
RTVSPost2010Prop33
280
     0
102
RTVSPost2010PropOp33
 70
     1
102
RTVSPost2010Prop34
280
     0
102
RTVSPost2010PropOp34
 70
     1
102
RTVSPost2010Prop35
280
     0
102
RTVSPost2010PropOp35
 70
     1
102
RTVSPost2010Prop36
280
     0
102
RTVSPost2010PropOp36
 70
     1
102
RTVSPost2010Prop37
 90
       50
102
RTVSPost2010PropOp37
 70
     1
102
RTVSPost2010Prop38
140
0.0
102
RTVSPost2010PropOp38
 70
     1
102
RTVSPost2010Prop39
140
1.0
102
RTVSPost2010PropOp39
 70
     1
102
RTVSPost2010Prop40
 90
        0
102
RTVSPost2010PropOp40
 70
     1
102
RTVSPost2010Prop41ColorIndex
 90
       18
102
RTVSPost2010Prop41ColorRGB
 90
        0
102
RTVSPost2010PropOp41
 70
     1
102
RTVSPost2010Prop42
 90
       50
102
RTVSPost2010PropOp42
 70
     1
102
RTVSPost2010Prop43
 90
        3
102
RTVSPost2010PropOp43
 70
     1
102
RTVSPost2010Prop44ColorIndex
 90
        5
102
RTVSPost2010Prop44ColorRGB
 90
      255
102
RTVSPost2010PropOp44
 70
     1
102
RTVSPost2010Prop45
280
     0
102
RTVSPost2010PropOp45
 70
     1
102
RTVSPost2010Prop46
 90
       50
102
RTVSPost2010PropOp46
 70
     1
102
RTVSPost2010Prop47
 90
       50
102
RTVSPost2010PropOp47
 70
     1
102
RTVSPost2010Prop48
 90
       50
102
RTVSPost2010PropOp48
 70
     1
102
RTVSPost2010Prop49
280
     0
102
RTVSPost2010PropOp49
 70
     1
102
RTVSPost2010Prop50
 90
       50
102
RTVSPost2010PropOp50
 70
     1
102
RTVSPost2010Prop51ColorIndex
 90
      256
102
RTVSPost2010Prop51ColorRGB
 90
-16777216
102
RTVSPost2010PropOp51
 70
     0
102
RTVSPost2010Prop52
140
1.0
102
RTVSPost2010PropOp52
 70
     0
102
RTVSPost2010Prop53
 90
        2
102
RTVSPost2010PropOp53
 70
     1
102
RTVSPost2010Prop54
  1
strokes_ogs.tif
102
RTVSPost2010PropOp54
 70
     1
102
RTVSPost2010Prop55
280
     0
102
RTVSPost2010PropOp55
 70
     1
102
RTVSPost2010Prop56
140
1.0
102
RTVSPost2010PropOp56
 70
     1
102
RTVSPost2010Prop57
140
1.0
102
RTVSPost2010PropOp57
 70
     1
  0
XRECORD
  5
3BC
102
{ACAD_REACTORS
330
3BB
102
}
330
3BB
100
AcDbXrecord
280
     1
102
RTVSPropertyOp0
 70
     1
102
RTVSPropertyOp1
 70
     1
102
RTVSPropertyOp2
 70
     1
102
RTVSPropertyOp3
 70
     1
102
RTVSPropertyOp4
 70
     1
102
RTVSPropertyOp5
 70
     1
102
RTVSPropertyOp6
 70
     1
102
RTVSPropertyOp7
 70
     1
102
RTVSPropertyOp8
 70
     1
102
RTVSPropertyOp9
 70
     1
102
RTVSPropertyOp10
 70
     1
102
RTVSPropertyOp11
 70
     1
102
RTVSPropertyOp12
 70
     1
102
RTVSPropertyOp13
 70
     1
102
RTVSPropertyOp14
 70
     1
102
RTVSPropertyOp15
 70
     1
102
RTVSPropertyOp16
 70
     1
102
RTVSPropertyOp17
 70
     1
102
RTVSPropertyOp18
 70
     1
102
RTVSPropertyOp19
 70
     1
102
RTVSPropertyOp20
 70
     1
102
RTVSPropertyOp21
 70
     1
102
RTVSPropertyOp22
 70
     1
102
RTVSPropertyOp23
 70
     1
102
RTVSPropertyOp24
 70
     1
102
RTVSPropertyOp25
 70
     1
102
RTVSPropertyOp26
 70
     1
102
RTVSPropertyOp27
 70
     1
102
RTVSPropertyOp28
 70
     1
102
RTVSPropertyOp29
 70
     1
102
RTVSPropertyOp30
 70
     1
102
RTVSPropertyOp31
 70
     1
102
RTVSPropertyOp32
 70
     1
102
RTVSPropertyOp33
 70
     1
102
RTVSPropertyOp34
 70
     1
102
RTVSPropertyOp35
 70
     1
102
RTVSPropertyOp36
 70
     1
102
RTVSPropertyOp37
 70
     1
102
RTVSPropertyOp38
 70
     1
102
RTVSPropertyOp39
 70
     1
102
RTVSPropertyOp40
 70
     1
102
RTVSPropertyOp41
 70
     1
102
RTVSPropertyOp42
 70
     1
102
RTVSPropertyOp43
 70
     1
102
RTVSPropertyOp44
 70
     1
102
RTVSPropertyOp45
 70
     1
102
RTVSPropertyOp46
 70
     1
102
RTVSPropertyOp47
 70
     1
102
RTVSPropertyOp48
 70
     1
102
RTVSPropertyOp49
 70
     1
102
RTVSPropertyOp50
 70
     1
102
RTVSPropertyOp51
 70
     0
102
RTVSPropertyOp52
 70
     0
102
RTVSPropertyOp53
 70
     1
102
RTVSPropertyOp54
 70
     1
102
RTVSPropertyOp55
 70
     1
102
RTVSPropertyOp56
 70
     1
102
RTVSPropertyOp57
 70
     1
102
RTVSPost2010Prop28
280
     0
102
RTVSPost2010PropOp28
 70
     1
102
RTVSPost2010Prop29
280
     1
102
RTVSPost2010PropOp29
 70
     1
102
RTVSPost2010Prop30
280
     1
102
RTVSPost2010PropOp30
 70
     1
102
RTVSPost2010Prop31
280
     0
102
RTVSPost2010PropOp31
 70
     1
102
RTVSPost2010Prop32
280
     0
102
RTVSPost2010PropOp32
 70
     1
102
RTVSPost2010Prop33
280
     0
102
RTVSPost2010PropOp33
 70
     1
102
RTVSPost2010Prop34
280
     0
102
RTVSPost2010PropOp34
 70
     1
102
RTVSPost2010Prop35
280
     0
102
RTVSPost2010PropOp35
 70
     1
102
RTVSPost2010Prop36
280
     0
102
RTVSPost2010PropOp36
 70
     1
102
RTVSPost2010Prop37
 90
       50
102
RTVSPost2010PropOp37
 70
     1
102
RTVSPost2010Prop38
140
0.0
102
RTVSPost2010PropOp38
 70
     1
102
RTVSPost2010Prop39
140
1.0
102
RTVSPost2010PropOp39
 70
     1
102
RTVSPost2010Prop40
 90
        0
102
RTVSPost2010PropOp40
 70
     1
102
RTVSPost2010Prop41ColorIndex
 90
       18
102
RTVSPost2010Prop41ColorRGB
 90
        0
102
RTVSPost2010PropOp41
 70
     1
102
RTVSPost2010Prop42
 90
       50
102
RTVSPost2010PropOp42
 70
     1
102
RTVSPost2010Prop43
 90
        3
102
RTVSPost2010PropOp43
 70
     1
102
RTVSPost2010Prop44ColorIndex
 90
        5
102
RTVSPost2010Prop44ColorRGB
 90
      255
102
RTVSPost2010PropOp44
 70
     1
102
RTVSPost2010Prop45
280
     0
102
RTVSPost2010PropOp45
 70
     1
102
RTVSPost2010Prop46
 90
       50
102
RTVSPost2010PropOp46
 70
     1
102
RTVSPost2010Prop47
 90
       50
102
RTVSPost2010PropOp47
 70
     1
102
RTVSPost2010Prop48
 90
       50
102
RTVSPost2010PropOp48
 70
     1
102
RTVSPost2010Prop49
280
     0
102
RTVSPost2010PropOp49
 70
     1
102
RTVSPost2010Prop50
 90
       50
102
RTVSPost2010PropOp50
 70
     1
102
RTVSPost2010Prop51ColorIndex
 90
      256
102
RTVSPost2010Prop51ColorRGB
 90
-16777216
102
RTVSPost2010PropOp51
 70
     0
102
RTVSPost2010Prop52
140
1.0
102
RTVSPost2010PropOp52
 70
     0
102
RTVSPost2010Prop53
 90
        2
102
RTVSPost2010PropOp53
 70
     1
102
RTVSPost2010Prop54
  1
strokes_ogs.tif
102
RTVSPost2010PropOp54
 70
     1
102
RTVSPost2010Prop55
280
     0
102
RTVSPost2010PropOp55
 70
     1
102
RTVSPost2010Prop56
140
1.0
102
RTVSPost2010PropOp56
 70
     1
102
RTVSPost2010Prop57
140
1.0
102
RTVSPost2010PropOp57
 70
     1
  0
XRECORD
  5
3C4
102
{ACAD_REACTORS
330
3C3
102
}
330
3C3
100
AcDbXrecord
280
     1
102
RTVSPropertyOp0
 70
     1
102
RTVSPropertyOp1
 70
     1
102
RTVSPropertyOp2
 70
     1
102
RTVSPropertyOp3
 70
     1
102
RTVSPropertyOp4
 70
     1
102
RTVSPropertyOp5
 70
     1
102
RTVSPropertyOp6
 70
     1
102
RTVSPropertyOp7
 70
     1
102
RTVSPropertyOp8
 70
     1
102
RTVSPropertyOp9
 70
     1
102
RTVSPropertyOp10
 70
     1
102
RTVSPropertyOp11
 70
     1
102
RTVSPropertyOp12
 70
     1
102
RTVSPropertyOp13
 70
     1
102
RTVSPropertyOp14
 70
     1
102
RTVSPropertyOp15
 70
     1
102
RTVSPropertyOp16
 70
     1
102
RTVSPropertyOp17
 70
     1
102
RTVSPropertyOp18
 70
     1
102
RTVSPropertyOp19
 70
     1
102
RTVSPropertyOp20
 70
     1
102
RTVSPropertyOp21
 70
     1
102
RTVSPropertyOp22
 70
     1
102
RTVSPropertyOp23
 70
     1
102
RTVSPropertyOp24
 70
     1
102
RTVSPropertyOp25
 70
     1
102
RTVSPropertyOp26
 70
     1
102
RTVSPropertyOp27
 70
     1
102
RTVSPropertyOp28
 70
     1
102
RTVSPropertyOp29
 70
     1
102
RTVSPropertyOp30
 70
     1
102
RTVSPropertyOp31
 70
     1
102
RTVSPropertyOp32
 70
     1
102
RTVSPropertyOp33
 70
     1
102
RTVSPropertyOp34
 70
     1
102
RTVSPropertyOp35
 70
     1
102
RTVSPropertyOp36
 70
     1
102
RTVSPropertyOp37
 70
     1
102
RTVSPropertyOp38
 70
     1
102
RTVSPropertyOp39
 70
     1
102
RTVSPropertyOp40
 70
     1
102
RTVSPropertyOp41
 70
     1
102
RTVSPropertyOp42
 70
     1
102
RTVSPropertyOp43
 70
     1
102
RTVSPropertyOp44
 70
     1
102
RTVSPropertyOp45
 70
     1
102
RTVSPropertyOp46
 70
     1
102
RTVSPropertyOp47
 70
     1
102
RTVSPropertyOp48
 70
     1
102
RTVSPropertyOp49
 70
     1
102
RTVSPropertyOp50
 70
     1
102
RTVSPropertyOp51
 70
     0
102
RTVSPropertyOp52
 70
     0
102
RTVSPropertyOp53
 70
     1
102
RTVSPropertyOp54
 70
     1
102
RTVSPropertyOp55
 70
     1
102
RTVSPropertyOp56
 70
     1
102
RTVSPropertyOp57
 70
     1
102
RTVSPost2010Prop28
280
     0
102
RTVSPost2010PropOp28
 70
     1
102
RTVSPost2010Prop29
280
     1
102
RTVSPost2010PropOp29
 70
     1
102
RTVSPost2010Prop30
280
     1
102
RTVSPost2010PropOp30
 70
     1
102
RTVSPost2010Prop31
280
     0
102
RTVSPost2010PropOp31
 70
     1
102
RTVSPost2010Prop32
280
     0
102
RTVSPost2010PropOp32
 70
     1
102
RTVSPost2010Prop33
280
     0
102
RTVSPost2010PropOp33
 70
     1
102
RTVSPost2010Prop34
280
     0
102
RTVSPost2010PropOp34
 70
     1
102
RTVSPost2010Prop35
280
     0
102
RTVSPost2010PropOp35
 70
     1
102
RTVSPost2010Prop36
280
     0
102
RTVSPost2010PropOp36
 70
     1
102
RTVSPost2010Prop37
 90
       50
102
RTVSPost2010PropOp37
 70
     1
102
RTVSPost2010Prop38
140
0.0
102
RTVSPost2010PropOp38
 70
     1
102
RTVSPost2010Prop39
140
1.0
102
RTVSPost2010PropOp39
 70
     1
102
RTVSPost2010Prop40
 90
        0
102
RTVSPost2010PropOp40
 70
     1
102
RTVSPost2010Prop41ColorIndex
 90
       18
102
RTVSPost2010Prop41ColorRGB
 90
        0
102
RTVSPost2010PropOp41
 70
     1
102
RTVSPost2010Prop42
 90
       50
102
RTVSPost2010PropOp42
 70
     1
102
RTVSPost2010Prop43
 90
        3
102
RTVSPost2010PropOp43
 70
     1
102
RTVSPost2010Prop44ColorIndex
 90
        5
102
RTVSPost2010Prop44ColorRGB
 90
      255
102
RTVSPost2010PropOp44
 70
     1
102
RTVSPost2010Prop45
280
     0
102
RTVSPost2010PropOp45
 70
     1
102
RTVSPost2010Prop46
 90
       50
102
RTVSPost2010PropOp46
 70
     1
102
RTVSPost2010Prop47
 90
       50
102
RTVSPost2010PropOp47
 70
     1
102
RTVSPost2010Prop48
 90
       50
102
RTVSPost2010PropOp48
 70
     1
102
RTVSPost2010Prop49
280
     0
102
RTVSPost2010PropOp49
 70
     1
102
RTVSPost2010Prop50
 90
       50
102
RTVSPost2010PropOp50
 70
     1
102
RTVSPost2010Prop51ColorIndex
 90
      256
102
RTVSPost2010Prop51ColorRGB
 90
-16777216
102
RTVSPost2010PropOp51
 70
     0
102
RTVSPost2010Prop52
140
1.0
102
RTVSPost2010PropOp52
 70
     0
102
RTVSPost2010Prop53
 90
        2
102
RTVSPost2010PropOp53
 70
     1
102
RTVSPost2010Prop54
  1
strokes_ogs.tif
102
RTVSPost2010PropOp54
 70
     1
102
RTVSPost2010Prop55
280
     0
102
RTVSPost2010PropOp55
 70
     1
102
RTVSPost2010Prop56
140
1.0
102
RTVSPost2010PropOp56
 70
     1
102
RTVSPost2010Prop57
140
1.0
102
RTVSPost2010PropOp57
 70
     1
  0
XRECORD
  5
3CC
102
{ACAD_REACTORS
330
3CB
102
}
330
3CB
100
AcDbXrecord
280
     1
102
RTVSPropertyOp0
 70
     1
102
RTVSPropertyOp1
 70
     1
102
RTVSPropertyOp2
 70
     1
102
RTVSPropertyOp3
 70
     1
102
RTVSPropertyOp4
 70
     1
102
RTVSPropertyOp5
 70
     1
102
RTVSPropertyOp6
 70
     1
102
RTVSPropertyOp7
 70
     1
102
RTVSPropertyOp8
 70
     1
102
RTVSPropertyOp9
 70
     1
102
RTVSPropertyOp10
 70
     1
102
RTVSPropertyOp11
 70
     1
102
RTVSPropertyOp12
 70
     1
102
RTVSPropertyOp13
 70
     1
102
RTVSPropertyOp14
 70
     1
102
RTVSPropertyOp15
 70
     1
102
RTVSPropertyOp16
 70
     1
102
RTVSPropertyOp17
 70
     1
102
RTVSPropertyOp18
 70
     1
102
RTVSPropertyOp19
 70
     1
102
RTVSPropertyOp20
 70
     1
102
RTVSPropertyOp21
 70
     1
102
RTVSPropertyOp22
 70
     1
102
RTVSPropertyOp23
 70
     1
102
RTVSPropertyOp24
 70
     1
102
RTVSPropertyOp25
 70
     1
102
RTVSPropertyOp26
 70
     1
102
RTVSPropertyOp27
 70
     1
102
RTVSPropertyOp28
 70
     1
102
RTVSPropertyOp29
 70
     1
102
RTVSPropertyOp30
 70
     1
102
RTVSPropertyOp31
 70
     1
102
RTVSPropertyOp32
 70
     1
102
RTVSPropertyOp33
 70
     1
102
RTVSPropertyOp34
 70
     1
102
RTVSPropertyOp35
 70
     1
102
RTVSPropertyOp36
 70
     1
102
RTVSPropertyOp37
 70
     1
102
RTVSPropertyOp38
 70
     1
102
RTVSPropertyOp39
 70
     1
102
RTVSPropertyOp40
 70
     1
102
RTVSPropertyOp41
 70
     1
102
RTVSPropertyOp42
 70
     1
102
RTVSPropertyOp43
 70
     1
102
RTVSPropertyOp44
 70
     1
102
RTVSPropertyOp45
 70
     1
102
RTVSPropertyOp46
 70
     1
102
RTVSPropertyOp47
 70
     1
102
RTVSPropertyOp48
 70
     1
102
RTVSPropertyOp49
 70
     1
102
RTVSPropertyOp50
 70
     1
102
RTVSPropertyOp51
 70
     0
102
RTVSPropertyOp52
 70
     0
102
RTVSPropertyOp53
 70
     1
102
RTVSPropertyOp54
 70
     1
102
RTVSPropertyOp55
 70
     1
102
RTVSPropertyOp56
 70
     1
102
RTVSPropertyOp57
 70
     1
102
RTVSPost2010Prop28
280
     0
102
RTVSPost2010PropOp28
 70
     1
102
RTVSPost2010Prop29
280
     1
102
RTVSPost2010PropOp29
 70
     1
102
RTVSPost2010Prop30
280
     1
102
RTVSPost2010PropOp30
 70
     1
102
RTVSPost2010Prop31
280
     0
102
RTVSPost2010PropOp31
 70
     1
102
RTVSPost2010Prop32
280
     0
102
RTVSPost2010PropOp32
 70
     1
102
RTVSPost2010Prop33
280
     0
102
RTVSPost2010PropOp33
 70
     1
102
RTVSPost2010Prop34
280
     0
102
RTVSPost2010PropOp34
 70
     1
102
RTVSPost2010Prop35
280
     0
102
RTVSPost2010PropOp35
 70
     1
102
RTVSPost2010Prop36
280
     0
102
RTVSPost2010PropOp36
 70
     1
102
RTVSPost2010Prop37
 90
       50
102
RTVSPost2010PropOp37
 70
     1
102
RTVSPost2010Prop38
140
0.0
102
RTVSPost2010PropOp38
 70
     1
102
RTVSPost2010Prop39
140
1.0
102
RTVSPost2010PropOp39
 70
     1
102
RTVSPost2010Prop40
 90
        0
102
RTVSPost2010PropOp40
 70
     1
102
RTVSPost2010Prop41ColorIndex
 90
       18
102
RTVSPost2010Prop41ColorRGB
 90
        0
102
RTVSPost2010PropOp41
 70
     1
102
RTVSPost2010Prop42
 90
       50
102
RTVSPost2010PropOp42
 70
     1
102
RTVSPost2010Prop43
 90
        3
102
RTVSPost2010PropOp43
 70
     1
102
RTVSPost2010Prop44ColorIndex
 90
        5
102
RTVSPost2010Prop44ColorRGB
 90
      255
102
RTVSPost2010PropOp44
 70
     1
102
RTVSPost2010Prop45
280
     0
102
RTVSPost2010PropOp45
 70
     1
102
RTVSPost2010Prop46
 90
       50
102
RTVSPost2010PropOp46
 70
     1
102
RTVSPost2010Prop47
 90
       50
102
RTVSPost2010PropOp47
 70
     1
102
RTVSPost2010Prop48
 90
       50
102
RTVSPost2010PropOp48
 70
     1
102
RTVSPost2010Prop49
280
     0
102
RTVSPost2010PropOp49
 70
     1
102
RTVSPost2010Prop50
 90
       50
102
RTVSPost2010PropOp50
 70
     1
102
RTVSPost2010Prop51ColorIndex
 90
      256
102
RTVSPost2010Prop51ColorRGB
 90
-16777216
102
RTVSPost2010PropOp51
 70
     0
102
RTVSPost2010Prop52
140
1.0
102
RTVSPost2010PropOp52
 70
     0
102
RTVSPost2010Prop53
 90
        2
102
RTVSPost2010PropOp53
 70
     1
102
RTVSPost2010Prop54
  1
strokes_ogs.tif
102
RTVSPost2010PropOp54
 70
     1
102
RTVSPost2010Prop55
280
     0
102
RTVSPost2010PropOp55
 70
     1
102
RTVSPost2010Prop56
140
1.0
102
RTVSPost2010PropOp56
 70
     1
102
RTVSPost2010Prop57
140
1.0
102
RTVSPost2010PropOp57
 70
     1
  0
XRECORD
  5
3C0
102
{ACAD_REACTORS
330
3BF
102
}
330
3BF
100
AcDbXrecord
280
     1
102
RTVSPropertyOp0
 70
     1
102
RTVSPropertyOp1
 70
     1
102
RTVSPropertyOp2
 70
     1
102
RTVSPropertyOp3
 70
     1
102
RTVSPropertyOp4
 70
     1
102
RTVSPropertyOp5
 70
     1
102
RTVSPropertyOp6
 70
     1
102
RTVSPropertyOp7
 70
     1
102
RTVSPropertyOp8
 70
     1
102
RTVSPropertyOp9
 70
     1
102
RTVSPropertyOp10
 70
     1
102
RTVSPropertyOp11
 70
     1
102
RTVSPropertyOp12
 70
     1
102
RTVSPropertyOp13
 70
     1
102
RTVSPropertyOp14
 70
     1
102
RTVSPropertyOp15
 70
     1
102
RTVSPropertyOp16
 70
     1
102
RTVSPropertyOp17
 70
     1
102
RTVSPropertyOp18
 70
     1
102
RTVSPropertyOp19
 70
     1
102
RTVSPropertyOp20
 70
     1
102
RTVSPropertyOp21
 70
     1
102
RTVSPropertyOp22
 70
     1
102
RTVSPropertyOp23
 70
     1
102
RTVSPropertyOp24
 70
     1
102
RTVSPropertyOp25
 70
     1
102
RTVSPropertyOp26
 70
     1
102
RTVSPropertyOp27
 70
     1
102
RTVSPropertyOp28
 70
     1
102
RTVSPropertyOp29
 70
     1
102
RTVSPropertyOp30
 70
     1
102
RTVSPropertyOp31
 70
     1
102
RTVSPropertyOp32
 70
     1
102
RTVSPropertyOp33
 70
     1
102
RTVSPropertyOp34
 70
     1
102
RTVSPropertyOp35
 70
     1
102
RTVSPropertyOp36
 70
     1
102
RTVSPropertyOp37
 70
     1
102
RTVSPropertyOp38
 70
     1
102
RTVSPropertyOp39
 70
     1
102
RTVSPropertyOp40
 70
     1
102
RTVSPropertyOp41
 70
     1
102
RTVSPropertyOp42
 70
     1
102
RTVSPropertyOp43
 70
     1
102
RTVSPropertyOp44
 70
     1
102
RTVSPropertyOp45
 70
     1
102
RTVSPropertyOp46
 70
     1
102
RTVSPropertyOp47
 70
     1
102
RTVSPropertyOp48
 70
     1
102
RTVSPropertyOp49
 70
     1
102
RTVSPropertyOp50
 70
     1
102
RTVSPropertyOp51
 70
     0
102
RTVSPropertyOp52
 70
     0
102
RTVSPropertyOp53
 70
     1
102
RTVSPropertyOp54
 70
     1
102
RTVSPropertyOp55
 70
     1
102
RTVSPropertyOp56
 70
     1
102
RTVSPropertyOp57
 70
     1
102
RTVSPost2010Prop28
280
     0
102
RTVSPost2010PropOp28
 70
     1
102
RTVSPost2010Prop29
280
     1
102
RTVSPost2010PropOp29
 70
     1
102
RTVSPost2010Prop30
280
     1
102
RTVSPost2010PropOp30
 70
     1
102
RTVSPost2010Prop31
280
     0
102
RTVSPost2010PropOp31
 70
     1
102
RTVSPost2010Prop32
280
     0
102
RTVSPost2010PropOp32
 70
     1
102
RTVSPost2010Prop33
280
     0
102
RTVSPost2010PropOp33
 70
     1
102
RTVSPost2010Prop34
280
     0
102
RTVSPost2010PropOp34
 70
     1
102
RTVSPost2010Prop35
280
     0
102
RTVSPost2010PropOp35
 70
     1
102
RTVSPost2010Prop36
280
     0
102
RTVSPost2010PropOp36
 70
     1
102
RTVSPost2010Prop37
 90
       50
102
RTVSPost2010PropOp37
 70
     1
102
RTVSPost2010Prop38
140
0.0
102
RTVSPost2010PropOp38
 70
     1
102
RTVSPost2010Prop39
140
1.0
102
RTVSPost2010PropOp39
 70
     1
102
RTVSPost2010Prop40
 90
        0
102
RTVSPost2010PropOp40
 70
     1
102
RTVSPost2010Prop41ColorIndex
 90
       18
102
RTVSPost2010Prop41ColorRGB
 90
        0
102
RTVSPost2010PropOp41
 70
     1
102
RTVSPost2010Prop42
 90
       50
102
RTVSPost2010PropOp42
 70
     1
102
RTVSPost2010Prop43
 90
        3
102
RTVSPost2010PropOp43
 70
     1
102
RTVSPost2010Prop44ColorIndex
 90
        5
102
RTVSPost2010Prop44ColorRGB
 90
      255
102
RTVSPost2010PropOp44
 70
     1
102
RTVSPost2010Prop45
280
     0
102
RTVSPost2010PropOp45
 70
     1
102
RTVSPost2010Prop46
 90
       50
102
RTVSPost2010PropOp46
 70
     1
102
RTVSPost2010Prop47
 90
       50
102
RTVSPost2010PropOp47
 70
     1
102
RTVSPost2010Prop48
 90
       50
102
RTVSPost2010PropOp48
 70
     1
102
RTVSPost2010Prop49
280
     0
102
RTVSPost2010PropOp49
 70
     1
102
RTVSPost2010Prop50
 90
       50
102
RTVSPost2010PropOp50
 70
     1
102
RTVSPost2010Prop51ColorIndex
 90
      256
102
RTVSPost2010Prop51ColorRGB
 90
-16777216
102
RTVSPost2010PropOp51
 70
     0
102
RTVSPost2010Prop52
140
1.0
102
RTVSPost2010PropOp52
 70
     0
102
RTVSPost2010Prop53
 90
        2
102
RTVSPost2010PropOp53
 70
     1
102
RTVSPost2010Prop54
  1
strokes_ogs.tif
102
RTVSPost2010PropOp54
 70
     1
102
RTVSPost2010Prop55
280
     0
102
RTVSPost2010PropOp55
 70
     1
102
RTVSPost2010Prop56
140
1.0
102
RTVSPost2010PropOp56
 70
     1
102
RTVSPost2010Prop57
140
1.0
102
RTVSPost2010PropOp57
 70
     1
  0
XRECORD
  5
3C2
102
{ACAD_REACTORS
330
3C1
102
}
330
3C1
100
AcDbXrecord
280
     1
102
RTVSPropertyOp0
 70
     1
102
RTVSPropertyOp1
 70
     1
102
RTVSPropertyOp2
 70
     1
102
RTVSPropertyOp3
 70
     1
102
RTVSPropertyOp4
 70
     1
102
RTVSPropertyOp5
 70
     1
102
RTVSPropertyOp6
 70
     1
102
RTVSPropertyOp7
 70
     1
102
RTVSPropertyOp8
 70
     1
102
RTVSPropertyOp9
 70
     1
102
RTVSPropertyOp10
 70
     1
102
RTVSPropertyOp11
 70
     1
102
RTVSPropertyOp12
 70
     1
102
RTVSPropertyOp13
 70
     1
102
RTVSPropertyOp14
 70
     1
102
RTVSPropertyOp15
 70
     1
102
RTVSPropertyOp16
 70
     1
102
RTVSPropertyOp17
 70
     1
102
RTVSPropertyOp18
 70
     1
102
RTVSPropertyOp19
 70
     1
102
RTVSPropertyOp20
 70
     1
102
RTVSPropertyOp21
 70
     1
102
RTVSPropertyOp22
 70
     1
102
RTVSPropertyOp23
 70
     1
102
RTVSPropertyOp24
 70
     1
102
RTVSPropertyOp25
 70
     1
102
RTVSPropertyOp26
 70
     1
102
RTVSPropertyOp27
 70
     1
102
RTVSPropertyOp28
 70
     1
102
RTVSPropertyOp29
 70
     1
102
RTVSPropertyOp30
 70
     1
102
RTVSPropertyOp31
 70
     1
102
RTVSPropertyOp32
 70
     1
102
RTVSPropertyOp33
 70
     1
102
RTVSPropertyOp34
 70
     1
102
RTVSPropertyOp35
 70
     1
102
RTVSPropertyOp36
 70
     1
102
RTVSPropertyOp37
 70
     1
102
RTVSPropertyOp38
 70
     1
102
RTVSPropertyOp39
 70
     1
102
RTVSPropertyOp40
 70
     1
102
RTVSPropertyOp41
 70
     1
102
RTVSPropertyOp42
 70
     1
102
RTVSPropertyOp43
 70
     1
102
RTVSPropertyOp44
 70
     1
102
RTVSPropertyOp45
 70
     1
102
RTVSPropertyOp46
 70
     1
102
RTVSPropertyOp47
 70
     1
102
RTVSPropertyOp48
 70
     1
102
RTVSPropertyOp49
 70
     1
102
RTVSPropertyOp50
 70
     1
102
RTVSPropertyOp51
 70
     0
102
RTVSPropertyOp52
 70
     0
102
RTVSPropertyOp53
 70
     1
102
RTVSPropertyOp54
 70
     1
102
RTVSPropertyOp55
 70
     1
102
RTVSPropertyOp56
 70
     1
102
RTVSPropertyOp57
 70
     1
102
RTVSPost2010Prop28
280
     0
102
RTVSPost2010PropOp28
 70
     1
102
RTVSPost2010Prop29
280
     1
102
RTVSPost2010PropOp29
 70
     1
102
RTVSPost2010Prop30
280
     1
102
RTVSPost2010PropOp30
 70
     1
102
RTVSPost2010Prop31
280
     0
102
RTVSPost2010PropOp31
 70
     1
102
RTVSPost2010Prop32
280
     0
102
RTVSPost2010PropOp32
 70
     1
102
RTVSPost2010Prop33
280
     0
102
RTVSPost2010PropOp33
 70
     1
102
RTVSPost2010Prop34
280
     0
102
RTVSPost2010PropOp34
 70
     1
102
RTVSPost2010Prop35
280
     0
102
RTVSPost2010PropOp35
 70
     1
102
RTVSPost2010Prop36
280
     0
102
RTVSPost2010PropOp36
 70
     1
102
RTVSPost2010Prop37
 90
       50
102
RTVSPost2010PropOp37
 70
     1
102
RTVSPost2010Prop38
140
0.0
102
RTVSPost2010PropOp38
 70
     1
102
RTVSPost2010Prop39
140
1.0
102
RTVSPost2010PropOp39
 70
     1
102
RTVSPost2010Prop40
 90
        0
102
RTVSPost2010PropOp40
 70
     1
102
RTVSPost2010Prop41ColorIndex
 90
       18
102
RTVSPost2010Prop41ColorRGB
 90
        0
102
RTVSPost2010PropOp41
 70
     1
102
RTVSPost2010Prop42
 90
       50
102
RTVSPost2010PropOp42
 70
     1
102
RTVSPost2010Prop43
 90
        3
102
RTVSPost2010PropOp43
 70
     1
102
RTVSPost2010Prop44ColorIndex
 90
        5
102
RTVSPost2010Prop44ColorRGB
 90
      255
102
RTVSPost2010PropOp44
 70
     1
102
RTVSPost2010Prop45
280
     0
102
RTVSPost2010PropOp45
 70
     1
102
RTVSPost2010Prop46
 90
       50
102
RTVSPost2010PropOp46
 70
     1
102
RTVSPost2010Prop47
 90
       50
102
RTVSPost2010PropOp47
 70
     1
102
RTVSPost2010Prop48
 90
       50
102
RTVSPost2010PropOp48
 70
     1
102
RTVSPost2010Prop49
280
     0
102
RTVSPost2010PropOp49
 70
     1
102
RTVSPost2010Prop50
 90
       50
102
RTVSPost2010PropOp50
 70
     1
102
RTVSPost2010Prop51ColorIndex
 90
      256
102
RTVSPost2010Prop51ColorRGB
 90
-16777216
102
RTVSPost2010PropOp51
 70
     0
102
RTVSPost2010Prop52
140
1.0
102
RTVSPost2010PropOp52
 70
     0
102
RTVSPost2010Prop53
 90
        2
102
RTVSPost2010PropOp53
 70
     1
102
RTVSPost2010Prop54
  1
strokes_ogs.tif
102
RTVSPost2010PropOp54
 70
     1
102
RTVSPost2010Prop55
280
     0
102
RTVSPost2010PropOp55
 70
     1
102
RTVSPost2010Prop56
140
1.0
102
RTVSPost2010PropOp56
 70
     1
102
RTVSPost2010Prop57
140
1.0
102
RTVSPost2010PropOp57
 70
     1
  0
XRECORD
  5
3D2
102
{ACAD_REACTORS
330
3D1
102
}
330
3D1
100
AcDbXrecord
280
     1
102
RTVSPropertyOp0
 70
     0
102
RTVSPropertyOp1
 70
     0
102
RTVSPropertyOp2
 70
     0
102
RTVSPropertyOp3
 70
     0
102
RTVSPropertyOp4
 70
     0
102
RTVSPropertyOp5
 70
     0
102
RTVSPropertyOp6
 70
     0
102
RTVSPropertyOp7
 70
     0
102
RTVSPropertyOp8
 70
     0
102
RTVSPropertyOp9
 70
     0
102
RTVSPropertyOp10
 70
     0
102
RTVSPropertyOp11
 70
     0
102
RTVSPropertyOp12
 70
     0
102
RTVSPropertyOp13
 70
     0
102
RTVSPropertyOp14
 70
     2
102
RTVSPropertyOp15
 70
     0
102
RTVSPropertyOp16
 70
     0
102
RTVSPropertyOp17
 70
     0
102
RTVSPropertyOp18
 70
     0
102
RTVSPropertyOp19
 70
     0
102
RTVSPropertyOp20
 70
     0
102
RTVSPropertyOp21
 70
     0
102
RTVSPropertyOp22
 70
     0
102
RTVSPropertyOp23
 70
     0
102
RTVSPropertyOp24
 70
     0
102
RTVSPropertyOp25
 70
     0
102
RTVSPropertyOp26
 70
     0
102
RTVSPropertyOp27
 70
     0
102
RTVSPropertyOp28
 70
     0
102
RTVSPropertyOp29
 70
     0
102
RTVSPropertyOp30
 70
     0
102
RTVSPropertyOp31
 70
     0
102
RTVSPropertyOp32
 70
     0
102
RTVSPropertyOp33
 70
     0
102
RTVSPropertyOp34
 70
     0
102
RTVSPropertyOp35
 70
     0
102
RTVSPropertyOp36
 70
     0
102
RTVSPropertyOp37
 70
     0
102
RTVSPropertyOp38
 70
     0
102
RTVSPropertyOp39
 70
     0
102
RTVSPropertyOp40
 70
     0
102
RTVSPropertyOp41
 70
     0
102
RTVSPropertyOp42
 70
     0
102
RTVSPropertyOp43
 70
     0
102
RTVSPropertyOp44
 70
     0
102
RTVSPropertyOp45
 70
     0
102
RTVSPropertyOp46
 70
     0
102
RTVSPropertyOp47
 70
     0
102
RTVSPropertyOp48
 70
     0
102
RTVSPropertyOp49
 70
     0
102
RTVSPropertyOp50
 70
     0
102
RTVSPropertyOp51
 70
     0
102
RTVSPropertyOp52
 70
     0
102
RTVSPropertyOp53
 70
     0
102
RTVSPropertyOp54
 70
     0
102
RTVSPropertyOp55
 70
     0
102
RTVSPropertyOp56
 70
     0
102
RTVSPropertyOp57
 70
     0
102
RTVSPost2010Prop28
280
     0
102
RTVSPost2010PropOp28
 70
     0
102
RTVSPost2010Prop29
280
     1
102
RTVSPost2010PropOp29
 70
     0
102
RTVSPost2010Prop30
280
     1
102
RTVSPost2010PropOp30
 70
     0
102
RTVSPost2010Prop31
280
     0
102
RTVSPost2010PropOp31
 70
     0
102
RTVSPost2010Prop32
280
     0
102
RTVSPost2010PropOp32
 70
     0
102
RTVSPost2010Prop33
280
     0
102
RTVSPost2010PropOp33
 70
     0
102
RTVSPost2010Prop34
280
     0
102
RTVSPost2010PropOp34
 70
     0
102
RTVSPost2010Prop35
280
     0
102
RTVSPost2010PropOp35
 70
     0
102
RTVSPost2010Prop36
280
     0
102
RTVSPost2010PropOp36
 70
     0
102
RTVSPost2010Prop37
 90
       50
102
RTVSPost2010PropOp37
 70
     0
102
RTVSPost2010Prop38
140
0.0
102
RTVSPost2010PropOp38
 70
     0
102
RTVSPost2010Prop39
140
1.0
102
RTVSPost2010PropOp39
 70
     0
102
RTVSPost2010Prop40
 90
        0
102
RTVSPost2010PropOp40
 70
     0
102
RTVSPost2010Prop41ColorIndex
 90
       18
102
RTVSPost2010Prop41ColorRGB
 90
        0
102
RTVSPost2010PropOp41
 70
     0
102
RTVSPost2010Prop42
 90
       50
102
RTVSPost2010PropOp42
 70
     0
102
RTVSPost2010Prop43
 90
        3
102
RTVSPost2010PropOp43
 70
     0
102
RTVSPost2010Prop44ColorIndex
 90
        5
102
RTVSPost2010Prop44ColorRGB
 90
      255
102
RTVSPost2010PropOp44
 70
     0
102
RTVSPost2010Prop45
280
     0
102
RTVSPost2010PropOp45
 70
     0
102
RTVSPost2010Prop46
 90
       50
102
RTVSPost2010PropOp46
 70
     0
102
RTVSPost2010Prop47
 90
       50
102
RTVSPost2010PropOp47
 70
     0
102
RTVSPost2010Prop48
 90
       50
102
RTVSPost2010PropOp48
 70
     0
102
RTVSPost2010Prop49
280
     0
102
RTVSPost2010PropOp49
 70
     0
102
RTVSPost2010Prop50
 90
       50
102
RTVSPost2010PropOp50
 70
     0
102
RTVSPost2010Prop51ColorIndex
 90
      256
102
RTVSPost2010Prop51ColorRGB
 90
-16777216
102
RTVSPost2010PropOp51
 70
     0
102
RTVSPost2010Prop52
140
1.0
102
RTVSPost2010PropOp52
 70
     0
102
RTVSPost2010Prop53
 90
        2
102
RTVSPost2010PropOp53
 70
     0
102
RTVSPost2010Prop54
  1
strokes_ogs.tif
102
RTVSPost2010PropOp54
 70
     0
102
RTVSPost2010Prop55
280
     0
102
RTVSPost2010PropOp55
 70
     0
102
RTVSPost2010Prop56
140
1.0
102
RTVSPost2010PropOp56
 70
     0
102
RTVSPost2010Prop57
140
1.0
102
RTVSPost2010PropOp57
 70
     0
  0
XRECORD
  5
3CA
102
{ACAD_REACTORS
330
3C9
102
}
330
3C9
100
AcDbXrecord
280
     1
102
RTVSPropertyOp0
 70
     1
102
RTVSPropertyOp1
 70
     1
102
RTVSPropertyOp2
 70
     1
102
RTVSPropertyOp3
 70
     1
102
RTVSPropertyOp4
 70
     1
102
RTVSPropertyOp5
 70
     1
102
RTVSPropertyOp6
 70
     1
102
RTVSPropertyOp7
 70
     1
102
RTVSPropertyOp8
 70
     1
102
RTVSPropertyOp9
 70
     1
102
RTVSPropertyOp10
 70
     1
102
RTVSPropertyOp11
 70
     1
102
RTVSPropertyOp12
 70
     1
102
RTVSPropertyOp13
 70
     1
102
RTVSPropertyOp14
 70
     1
102
RTVSPropertyOp15
 70
     1
102
RTVSPropertyOp16
 70
     1
102
RTVSPropertyOp17
 70
     1
102
RTVSPropertyOp18
 70
     1
102
RTVSPropertyOp19
 70
     1
102
RTVSPropertyOp20
 70
     1
102
RTVSPropertyOp21
 70
     1
102
RTVSPropertyOp22
 70
     1
102
RTVSPropertyOp23
 70
     1
102
RTVSPropertyOp24
 70
     1
102
RTVSPropertyOp25
 70
     1
102
RTVSPropertyOp26
 70
     1
102
RTVSPropertyOp27
 70
     1
102
RTVSPropertyOp28
 70
     1
102
RTVSPropertyOp29
 70
     1
102
RTVSPropertyOp30
 70
     1
102
RTVSPropertyOp31
 70
     1
102
RTVSPropertyOp32
 70
     1
102
RTVSPropertyOp33
 70
     1
102
RTVSPropertyOp34
 70
     1
102
RTVSPropertyOp35
 70
     1
102
RTVSPropertyOp36
 70
     1
102
RTVSPropertyOp37
 70
     1
102
RTVSPropertyOp38
 70
     1
102
RTVSPropertyOp39
 70
     1
102
RTVSPropertyOp40
 70
     1
102
RTVSPropertyOp41
 70
     1
102
RTVSPropertyOp42
 70
     1
102
RTVSPropertyOp43
 70
     1
102
RTVSPropertyOp44
 70
     1
102
RTVSPropertyOp45
 70
     1
102
RTVSPropertyOp46
 70
     1
102
RTVSPropertyOp47
 70
     1
102
RTVSPropertyOp48
 70
     1
102
RTVSPropertyOp49
 70
     1
102
RTVSPropertyOp50
 70
     1
102
RTVSPropertyOp51
 70
     0
102
RTVSPropertyOp52
 70
     0
102
RTVSPropertyOp53
 70
     1
102
RTVSPropertyOp54
 70
     1
102
RTVSPropertyOp55
 70
     1
102
RTVSPropertyOp56
 70
     1
102
RTVSPropertyOp57
 70
     1
102
RTVSPost2010Prop28
280
     0
102
RTVSPost2010PropOp28
 70
     1
102
RTVSPost2010Prop29
280
     1
102
RTVSPost2010PropOp29
 70
     1
102
RTVSPost2010Prop30
280
     1
102
RTVSPost2010PropOp30
 70
     1
102
RTVSPost2010Prop31
280
     0
102
RTVSPost2010PropOp31
 70
     1
102
RTVSPost2010Prop32
280
     0
102
RTVSPost2010PropOp32
 70
     1
102
RTVSPost2010Prop33
280
     0
102
RTVSPost2010PropOp33
 70
     1
102
RTVSPost2010Prop34
280
     0
102
RTVSPost2010PropOp34
 70
     1
102
RTVSPost2010Prop35
280
     0
102
RTVSPost2010PropOp35
 70
     1
102
RTVSPost2010Prop36
280
     0
102
RTVSPost2010PropOp36
 70
     1
102
RTVSPost2010Prop37
 90
       50
102
RTVSPost2010PropOp37
 70
     1
102
RTVSPost2010Prop38
140
0.0
102
RTVSPost2010PropOp38
 70
     1
102
RTVSPost2010Prop39
140
1.0
102
RTVSPost2010PropOp39
 70
     1
102
RTVSPost2010Prop40
 90
        0
102
RTVSPost2010PropOp40
 70
     1
102
RTVSPost2010Prop41ColorIndex
 90
       18
102
RTVSPost2010Prop41ColorRGB
 90
        0
102
RTVSPost2010PropOp41
 70
     1
102
RTVSPost2010Prop42
 90
       50
102
RTVSPost2010PropOp42
 70
     1
102
RTVSPost2010Prop43
 90
        3
102
RTVSPost2010PropOp43
 70
     1
102
RTVSPost2010Prop44ColorIndex
 90
        5
102
RTVSPost2010Prop44ColorRGB
 90
      255
102
RTVSPost2010PropOp44
 70
     1
102
RTVSPost2010Prop45
280
     0
102
RTVSPost2010PropOp45
 70
     1
102
RTVSPost2010Prop46
 90
       50
102
RTVSPost2010PropOp46
 70
     1
102
RTVSPost2010Prop47
 90
       50
102
RTVSPost2010PropOp47
 70
     1
102
RTVSPost2010Prop48
 90
       50
102
RTVSPost2010PropOp48
 70
     1
102
RTVSPost2010Prop49
280
     0
102
RTVSPost2010PropOp49
 70
     1
102
RTVSPost2010Prop50
 90
       50
102
RTVSPost2010PropOp50
 70
     1
102
RTVSPost2010Prop51ColorIndex
 90
      256
102
RTVSPost2010Prop51ColorRGB
 90
-16777216
102
RTVSPost2010PropOp51
 70
     0
102
RTVSPost2010Prop52
140
1.0
102
RTVSPost2010PropOp52
 70
     0
102
RTVSPost2010Prop53
 90
        2
102
RTVSPost2010PropOp53
 70
     1
102
RTVSPost2010Prop54
  1
strokes_ogs.tif
102
RTVSPost2010PropOp54
 70
     1
102
RTVSPost2010Prop55
280
     0
102
RTVSPost2010PropOp55
 70
     1
102
RTVSPost2010Prop56
140
1.0
102
RTVSPost2010PropOp56
 70
     1
102
RTVSPost2010Prop57
140
1.0
102
RTVSPost2010PropOp57
 70
     1
  0
XRECORD
  5
3AE
102
{ACAD_REACTORS
330
3AD
102
}
330
3AD
100
AcDbXrecord
280
     1
102
RTVSPropertyOp0
 70
     1
102
RTVSPropertyOp1
 70
     1
102
RTVSPropertyOp2
 70
     1
102
RTVSPropertyOp3
 70
     1
102
RTVSPropertyOp4
 70
     1
102
RTVSPropertyOp5
 70
     1
102
RTVSPropertyOp6
 70
     1
102
RTVSPropertyOp7
 70
     1
102
RTVSPropertyOp8
 70
     1
102
RTVSPropertyOp9
 70
     1
102
RTVSPropertyOp10
 70
     1
102
RTVSPropertyOp11
 70
     1
102
RTVSPropertyOp12
 70
     1
102
RTVSPropertyOp13
 70
     1
102
RTVSPropertyOp14
 70
     1
102
RTVSPropertyOp15
 70
     1
102
RTVSPropertyOp16
 70
     1
102
RTVSPropertyOp17
 70
     1
102
RTVSPropertyOp18
 70
     1
102
RTVSPropertyOp19
 70
     1
102
RTVSPropertyOp20
 70
     1
102
RTVSPropertyOp21
 70
     1
102
RTVSPropertyOp22
 70
     1
102
RTVSPropertyOp23
 70
     1
102
RTVSPropertyOp24
 70
     1
102
RTVSPropertyOp25
 70
     1
102
RTVSPropertyOp26
 70
     1
102
RTVSPropertyOp27
 70
     1
102
RTVSPropertyOp28
 70
     1
102
RTVSPropertyOp29
 70
     1
102
RTVSPropertyOp30
 70
     1
102
RTVSPropertyOp31
 70
     1
102
RTVSPropertyOp32
 70
     1
102
RTVSPropertyOp33
 70
     1
102
RTVSPropertyOp34
 70
     1
102
RTVSPropertyOp35
 70
     1
102
RTVSPropertyOp36
 70
     1
102
RTVSPropertyOp37
 70
     1
102
RTVSPropertyOp38
 70
     1
102
RTVSPropertyOp39
 70
     1
102
RTVSPropertyOp40
 70
     1
102
RTVSPropertyOp41
 70
     1
102
RTVSPropertyOp42
 70
     1
102
RTVSPropertyOp43
 70
     1
102
RTVSPropertyOp44
 70
     1
102
RTVSPropertyOp45
 70
     1
102
RTVSPropertyOp46
 70
     1
102
RTVSPropertyOp47
 70
     1
102
RTVSPropertyOp48
 70
     1
102
RTVSPropertyOp49
 70
     1
102
RTVSPropertyOp50
 70
     1
102
RTVSPropertyOp51
 70
     0
102
RTVSPropertyOp52
 70
     0
102
RTVSPropertyOp53
 70
     1
102
RTVSPropertyOp54
 70
     1
102
RTVSPropertyOp55
 70
     1
102
RTVSPropertyOp56
 70
     1
102
RTVSPropertyOp57
 70
     1
102
RTVSPost2010Prop28
280
     0
102
RTVSPost2010PropOp28
 70
     1
102
RTVSPost2010Prop29
280
     1
102
RTVSPost2010PropOp29
 70
     1
102
RTVSPost2010Prop30
280
     1
102
RTVSPost2010PropOp30
 70
     1
102
RTVSPost2010Prop31
280
     0
102
RTVSPost2010PropOp31
 70
     1
102
RTVSPost2010Prop32
280
     0
102
RTVSPost2010PropOp32
 70
     1
102
RTVSPost2010Prop33
280
     0
102
RTVSPost2010PropOp33
 70
     1
102
RTVSPost2010Prop34
280
     0
102
RTVSPost2010PropOp34
 70
     1
102
RTVSPost2010Prop35
280
     0
102
RTVSPost2010PropOp35
 70
     1
102
RTVSPost2010Prop36
280
     0
102
RTVSPost2010PropOp36
 70
     1
102
RTVSPost2010Prop37
 90
       50
102
RTVSPost2010PropOp37
 70
     1
102
RTVSPost2010Prop38
140
0.0
102
RTVSPost2010PropOp38
 70
     1
102
RTVSPost2010Prop39
140
1.0
102
RTVSPost2010PropOp39
 70
     1
102
RTVSPost2010Prop40
 90
        0
102
RTVSPost2010PropOp40
 70
     1
102
RTVSPost2010Prop41ColorIndex
 90
       18
102
RTVSPost2010Prop41ColorRGB
 90
        0
102
RTVSPost2010PropOp41
 70
     1
102
RTVSPost2010Prop42
 90
       50
102
RTVSPost2010PropOp42
 70
     1
102
RTVSPost2010Prop43
 90
        3
102
RTVSPost2010PropOp43
 70
     1
102
RTVSPost2010Prop44ColorIndex
 90
        5
102
RTVSPost2010Prop44ColorRGB
 90
      255
102
RTVSPost2010PropOp44
 70
     1
102
RTVSPost2010Prop45
280
     0
102
RTVSPost2010PropOp45
 70
     1
102
RTVSPost2010Prop46
 90
       50
102
RTVSPost2010PropOp46
 70
     1
102
RTVSPost2010Prop47
 90
       50
102
RTVSPost2010PropOp47
 70
     1
102
RTVSPost2010Prop48
 90
       50
102
RTVSPost2010PropOp48
 70
     1
102
RTVSPost2010Prop49
280
     0
102
RTVSPost2010PropOp49
 70
     1
102
RTVSPost2010Prop50
 90
       50
102
RTVSPost2010PropOp50
 70
     1
102
RTVSPost2010Prop51ColorIndex
 90
      256
102
RTVSPost2010Prop51ColorRGB
 90
-16777216
102
RTVSPost2010PropOp51
 70
     0
102
RTVSPost2010Prop52
140
1.0
102
RTVSPost2010PropOp52
 70
     0
102
RTVSPost2010Prop53
 90
        2
102
RTVSPost2010PropOp53
 70
     1
102
RTVSPost2010Prop54
  1
strokes_ogs.tif
102
RTVSPost2010PropOp54
 70
     1
102
RTVSPost2010Prop55
280
     0
102
RTVSPost2010PropOp55
 70
     1
102
RTVSPost2010Prop56
140
1.0
102
RTVSPost2010PropOp56
 70
     1
102
RTVSPost2010Prop57
140
1.0
102
RTVSPost2010PropOp57
 70
     1
  0
XRECORD
  5
3B0
102
{ACAD_REACTORS
330
3AF
102
}
330
3AF
100
AcDbXrecord
280
     1
102
RTVSPropertyOp0
 70
     1
102
RTVSPropertyOp1
 70
     1
102
RTVSPropertyOp2
 70
     1
102
RTVSPropertyOp3
 70
     1
102
RTVSPropertyOp4
 70
     1
102
RTVSPropertyOp5
 70
     1
102
RTVSPropertyOp6
 70
     1
102
RTVSPropertyOp7
 70
     1
102
RTVSPropertyOp8
 70
     1
102
RTVSPropertyOp9
 70
     1
102
RTVSPropertyOp10
 70
     1
102
RTVSPropertyOp11
 70
     1
102
RTVSPropertyOp12
 70
     1
102
RTVSPropertyOp13
 70
     1
102
RTVSPropertyOp14
 70
     1
102
RTVSPropertyOp15
 70
     1
102
RTVSPropertyOp16
 70
     1
102
RTVSPropertyOp17
 70
     1
102
RTVSPropertyOp18
 70
     1
102
RTVSPropertyOp19
 70
     1
102
RTVSPropertyOp20
 70
     1
102
RTVSPropertyOp21
 70
     1
102
RTVSPropertyOp22
 70
     1
102
RTVSPropertyOp23
 70
     1
102
RTVSPropertyOp24
 70
     1
102
RTVSPropertyOp25
 70
     1
102
RTVSPropertyOp26
 70
     1
102
RTVSPropertyOp27
 70
     1
102
RTVSPropertyOp28
 70
     1
102
RTVSPropertyOp29
 70
     1
102
RTVSPropertyOp30
 70
     1
102
RTVSPropertyOp31
 70
     1
102
RTVSPropertyOp32
 70
     1
102
RTVSPropertyOp33
 70
     1
102
RTVSPropertyOp34
 70
     1
102
RTVSPropertyOp35
 70
     1
102
RTVSPropertyOp36
 70
     1
102
RTVSPropertyOp37
 70
     1
102
RTVSPropertyOp38
 70
     1
102
RTVSPropertyOp39
 70
     1
102
RTVSPropertyOp40
 70
     1
102
RTVSPropertyOp41
 70
     1
102
RTVSPropertyOp42
 70
     1
102
RTVSPropertyOp43
 70
     1
102
RTVSPropertyOp44
 70
     1
102
RTVSPropertyOp45
 70
     1
102
RTVSPropertyOp46
 70
     1
102
RTVSPropertyOp47
 70
     1
102
RTVSPropertyOp48
 70
     1
102
RTVSPropertyOp49
 70
     1
102
RTVSPropertyOp50
 70
     1
102
RTVSPropertyOp51
 70
     0
102
RTVSPropertyOp52
 70
     0
102
RTVSPropertyOp53
 70
     1
102
RTVSPropertyOp54
 70
     1
102
RTVSPropertyOp55
 70
     1
102
RTVSPropertyOp56
 70
     1
102
RTVSPropertyOp57
 70
     1
102
RTVSPost2010Prop28
280
     0
102
RTVSPost2010PropOp28
 70
     1
102
RTVSPost2010Prop29
280
     1
102
RTVSPost2010PropOp29
 70
     1
102
RTVSPost2010Prop30
280
     1
102
RTVSPost2010PropOp30
 70
     1
102
RTVSPost2010Prop31
280
     0
102
RTVSPost2010PropOp31
 70
     1
102
RTVSPost2010Prop32
280
     0
102
RTVSPost2010PropOp32
 70
     1
102
RTVSPost2010Prop33
280
     0
102
RTVSPost2010PropOp33
 70
     1
102
RTVSPost2010Prop34
280
     0
102
RTVSPost2010PropOp34
 70
     1
102
RTVSPost2010Prop35
280
     0
102
RTVSPost2010PropOp35
 70
     1
102
RTVSPost2010Prop36
280
     0
102
RTVSPost2010PropOp36
 70
     1
102
RTVSPost2010Prop37
 90
       50
102
RTVSPost2010PropOp37
 70
     1
102
RTVSPost2010Prop38
140
0.0
102
RTVSPost2010PropOp38
 70
     1
102
RTVSPost2010Prop39
140
1.0
102
RTVSPost2010PropOp39
 70
     1
102
RTVSPost2010Prop40
 90
        0
102
RTVSPost2010PropOp40
 70
     1
102
RTVSPost2010Prop41ColorIndex
 90
       18
102
RTVSPost2010Prop41ColorRGB
 90
        0
102
RTVSPost2010PropOp41
 70
     1
102
RTVSPost2010Prop42
 90
       50
102
RTVSPost2010PropOp42
 70
     1
102
RTVSPost2010Prop43
 90
        3
102
RTVSPost2010PropOp43
 70
     1
102
RTVSPost2010Prop44ColorIndex
 90
        5
102
RTVSPost2010Prop44ColorRGB
 90
      255
102
RTVSPost2010PropOp44
 70
     1
102
RTVSPost2010Prop45
280
     0
102
RTVSPost2010PropOp45
 70
     1
102
RTVSPost2010Prop46
 90
       50
102
RTVSPost2010PropOp46
 70
     1
102
RTVSPost2010Prop47
 90
       50
102
RTVSPost2010PropOp47
 70
     1
102
RTVSPost2010Prop48
 90
       50
102
RTVSPost2010PropOp48
 70
     1
102
RTVSPost2010Prop49
280
     0
102
RTVSPost2010PropOp49
 70
     1
102
RTVSPost2010Prop50
 90
       50
102
RTVSPost2010PropOp50
 70
     1
102
RTVSPost2010Prop51ColorIndex
 90
      256
102
RTVSPost2010Prop51ColorRGB
 90
-16777216
102
RTVSPost2010PropOp51
 70
     0
102
RTVSPost2010Prop52
140
1.0
102
RTVSPost2010PropOp52
 70
     0
102
RTVSPost2010Prop53
 90
        2
102
RTVSPost2010PropOp53
 70
     1
102
RTVSPost2010Prop54
  1
strokes_ogs.tif
102
RTVSPost2010PropOp54
 70
     1
102
RTVSPost2010Prop55
280
     0
102
RTVSPost2010PropOp55
 70
     1
102
RTVSPost2010Prop56
140
1.0
102
RTVSPost2010PropOp56
 70
     1
102
RTVSPost2010Prop57
140
1.0
102
RTVSPost2010PropOp57
 70
     1
  0
XRECORD
  5
3B2
102
{ACAD_REACTORS
330
3B1
102
}
330
3B1
100
AcDbXrecord
280
     1
102
RTVSPropertyOp0
 70
     1
102
RTVSPropertyOp1
 70
     1
102
RTVSPropertyOp2
 70
     1
102
RTVSPropertyOp3
 70
     1
102
RTVSPropertyOp4
 70
     1
102
RTVSPropertyOp5
 70
     1
102
RTVSPropertyOp6
 70
     1
102
RTVSPropertyOp7
 70
     1
102
RTVSPropertyOp8
 70
     1
102
RTVSPropertyOp9
 70
     1
102
RTVSPropertyOp10
 70
     1
102
RTVSPropertyOp11
 70
     1
102
RTVSPropertyOp12
 70
     1
102
RTVSPropertyOp13
 70
     1
102
RTVSPropertyOp14
 70
     1
102
RTVSPropertyOp15
 70
     1
102
RTVSPropertyOp16
 70
     1
102
RTVSPropertyOp17
 70
     1
102
RTVSPropertyOp18
 70
     1
102
RTVSPropertyOp19
 70
     1
102
RTVSPropertyOp20
 70
     1
102
RTVSPropertyOp21
 70
     1
102
RTVSPropertyOp22
 70
     1
102
RTVSPropertyOp23
 70
     1
102
RTVSPropertyOp24
 70
     1
102
RTVSPropertyOp25
 70
     1
102
RTVSPropertyOp26
 70
     1
102
RTVSPropertyOp27
 70
     1
102
RTVSPropertyOp28
 70
     1
102
RTVSPropertyOp29
 70
     1
102
RTVSPropertyOp30
 70
     1
102
RTVSPropertyOp31
 70
     1
102
RTVSPropertyOp32
 70
     1
102
RTVSPropertyOp33
 70
     1
102
RTVSPropertyOp34
 70
     1
102
RTVSPropertyOp35
 70
     1
102
RTVSPropertyOp36
 70
     1
102
RTVSPropertyOp37
 70
     1
102
RTVSPropertyOp38
 70
     1
102
RTVSPropertyOp39
 70
     1
102
RTVSPropertyOp40
 70
     1
102
RTVSPropertyOp41
 70
     1
102
RTVSPropertyOp42
 70
     1
102
RTVSPropertyOp43
 70
     1
102
RTVSPropertyOp44
 70
     1
102
RTVSPropertyOp45
 70
     1
102
RTVSPropertyOp46
 70
     1
102
RTVSPropertyOp47
 70
     1
102
RTVSPropertyOp48
 70
     1
102
RTVSPropertyOp49
 70
     1
102
RTVSPropertyOp50
 70
     1
102
RTVSPropertyOp51
 70
     0
102
RTVSPropertyOp52
 70
     0
102
RTVSPropertyOp53
 70
     1
102
RTVSPropertyOp54
 70
     1
102
RTVSPropertyOp55
 70
     1
102
RTVSPropertyOp56
 70
     1
102
RTVSPropertyOp57
 70
     1
102
RTVSPost2010Prop28
280
     0
102
RTVSPost2010PropOp28
 70
     1
102
RTVSPost2010Prop29
280
     1
102
RTVSPost2010PropOp29
 70
     1
102
RTVSPost2010Prop30
280
     1
102
RTVSPost2010PropOp30
 70
     1
102
RTVSPost2010Prop31
280
     0
102
RTVSPost2010PropOp31
 70
     1
102
RTVSPost2010Prop32
280
     0
102
RTVSPost2010PropOp32
 70
     1
102
RTVSPost2010Prop33
280
     0
102
RTVSPost2010PropOp33
 70
     1
102
RTVSPost2010Prop34
280
     0
102
RTVSPost2010PropOp34
 70
     1
102
RTVSPost2010Prop35
280
     0
102
RTVSPost2010PropOp35
 70
     1
102
RTVSPost2010Prop36
280
     0
102
RTVSPost2010PropOp36
 70
     1
102
RTVSPost2010Prop37
 90
       50
102
RTVSPost2010PropOp37
 70
     1
102
RTVSPost2010Prop38
140
0.0
102
RTVSPost2010PropOp38
 70
     1
102
RTVSPost2010Prop39
140
1.0
102
RTVSPost2010PropOp39
 70
     1
102
RTVSPost2010Prop40
 90
        0
102
RTVSPost2010PropOp40
 70
     1
102
RTVSPost2010Prop41ColorIndex
 90
       18
102
RTVSPost2010Prop41ColorRGB
 90
        0
102
RTVSPost2010PropOp41
 70
     1
102
RTVSPost2010Prop42
 90
       50
102
RTVSPost2010PropOp42
 70
     1
102
RTVSPost2010Prop43
 90
        3
102
RTVSPost2010PropOp43
 70
     1
102
RTVSPost2010Prop44ColorIndex
 90
        5
102
RTVSPost2010Prop44ColorRGB
 90
      255
102
RTVSPost2010PropOp44
 70
     1
102
RTVSPost2010Prop45
280
     0
102
RTVSPost2010PropOp45
 70
     1
102
RTVSPost2010Prop46
 90
       50
102
RTVSPost2010PropOp46
 70
     1
102
RTVSPost2010Prop47
 90
       50
102
RTVSPost2010PropOp47
 70
     1
102
RTVSPost2010Prop48
 90
       50
102
RTVSPost2010PropOp48
 70
     1
102
RTVSPost2010Prop49
280
     0
102
RTVSPost2010PropOp49
 70
     1
102
RTVSPost2010Prop50
 90
       50
102
RTVSPost2010PropOp50
 70
     1
102
RTVSPost2010Prop51ColorIndex
 90
      256
102
RTVSPost2010Prop51ColorRGB
 90
-16777216
102
RTVSPost2010PropOp51
 70
     0
102
RTVSPost2010Prop52
140
1.0
102
RTVSPost2010PropOp52
 70
     0
102
RTVSPost2010Prop53
 90
        2
102
RTVSPost2010PropOp53
 70
     1
102
RTVSPost2010Prop54
  1
strokes_ogs.tif
102
RTVSPost2010PropOp54
 70
     1
102
RTVSPost2010Prop55
280
     0
102
RTVSPost2010PropOp55
 70
     1
102
RTVSPost2010Prop56
140
1.0
102
RTVSPost2010PropOp56
 70
     1
102
RTVSPost2010Prop57
140
1.0
102
RTVSPost2010PropOp57
 70
     1
  0
XRECORD
  5
3B4
102
{ACAD_REACTORS
330
3B3
102
}
330
3B3
100
AcDbXrecord
280
     1
102
RTVSPropertyOp0
 70
     1
102
RTVSPropertyOp1
 70
     1
102
RTVSPropertyOp2
 70
     1
102
RTVSPropertyOp3
 70
     1
102
RTVSPropertyOp4
 70
     1
102
RTVSPropertyOp5
 70
     1
102
RTVSPropertyOp6
 70
     1
102
RTVSPropertyOp7
 70
     1
102
RTVSPropertyOp8
 70
     1
102
RTVSPropertyOp9
 70
     1
102
RTVSPropertyOp10
 70
     1
102
RTVSPropertyOp11
 70
     1
102
RTVSPropertyOp12
 70
     1
102
RTVSPropertyOp13
 70
     1
102
RTVSPropertyOp14
 70
     1
102
RTVSPropertyOp15
 70
     1
102
RTVSPropertyOp16
 70
     1
102
RTVSPropertyOp17
 70
     1
102
RTVSPropertyOp18
 70
     1
102
RTVSPropertyOp19
 70
     1
102
RTVSPropertyOp20
 70
     1
102
RTVSPropertyOp21
 70
     1
102
RTVSPropertyOp22
 70
     1
102
RTVSPropertyOp23
 70
     1
102
RTVSPropertyOp24
 70
     1
102
RTVSPropertyOp25
 70
     1
102
RTVSPropertyOp26
 70
     1
102
RTVSPropertyOp27
 70
     1
102
RTVSPropertyOp28
 70
     1
102
RTVSPropertyOp29
 70
     1
102
RTVSPropertyOp30
 70
     1
102
RTVSPropertyOp31
 70
     1
102
RTVSPropertyOp32
 70
     1
102
RTVSPropertyOp33
 70
     1
102
RTVSPropertyOp34
 70
     1
102
RTVSPropertyOp35
 70
     1
102
RTVSPropertyOp36
 70
     1
102
RTVSPropertyOp37
 70
     1
102
RTVSPropertyOp38
 70
     1
102
RTVSPropertyOp39
 70
     1
102
RTVSPropertyOp40
 70
     1
102
RTVSPropertyOp41
 70
     1
102
RTVSPropertyOp42
 70
     1
102
RTVSPropertyOp43
 70
     1
102
RTVSPropertyOp44
 70
     1
102
RTVSPropertyOp45
 70
     1
102
RTVSPropertyOp46
 70
     1
102
RTVSPropertyOp47
 70
     1
102
RTVSPropertyOp48
 70
     1
102
RTVSPropertyOp49
 70
     1
102
RTVSPropertyOp50
 70
     1
102
RTVSPropertyOp51
 70
     0
102
RTVSPropertyOp52
 70
     0
102
RTVSPropertyOp53
 70
     1
102
RTVSPropertyOp54
 70
     1
102
RTVSPropertyOp55
 70
     1
102
RTVSPropertyOp56
 70
     1
102
RTVSPropertyOp57
 70
     1
102
RTVSPost2010Prop28
280
     0
102
RTVSPost2010PropOp28
 70
     1
102
RTVSPost2010Prop29
280
     1
102
RTVSPost2010PropOp29
 70
     1
102
RTVSPost2010Prop30
280
     1
102
RTVSPost2010PropOp30
 70
     1
102
RTVSPost2010Prop31
280
     0
102
RTVSPost2010PropOp31
 70
     1
102
RTVSPost2010Prop32
280
     0
102
RTVSPost2010PropOp32
 70
     1
102
RTVSPost2010Prop33
280
     0
102
RTVSPost2010PropOp33
 70
     1
102
RTVSPost2010Prop34
280
     0
102
RTVSPost2010PropOp34
 70
     1
102
RTVSPost2010Prop35
280
     0
102
RTVSPost2010PropOp35
 70
     1
102
RTVSPost2010Prop36
280
     0
102
RTVSPost2010PropOp36
 70
     1
102
RTVSPost2010Prop37
 90
       50
102
RTVSPost2010PropOp37
 70
     1
102
RTVSPost2010Prop38
140
0.0
102
RTVSPost2010PropOp38
 70
     1
102
RTVSPost2010Prop39
140
1.0
102
RTVSPost2010PropOp39
 70
     1
102
RTVSPost2010Prop40
 90
        0
102
RTVSPost2010PropOp40
 70
     1
102
RTVSPost2010Prop41ColorIndex
 90
       18
102
RTVSPost2010Prop41ColorRGB
 90
        0
102
RTVSPost2010PropOp41
 70
     1
102
RTVSPost2010Prop42
 90
       50
102
RTVSPost2010PropOp42
 70
     1
102
RTVSPost2010Prop43
 90
        3
102
RTVSPost2010PropOp43
 70
     1
102
RTVSPost2010Prop44ColorIndex
 90
        5
102
RTVSPost2010Prop44ColorRGB
 90
      255
102
RTVSPost2010PropOp44
 70
     1
102
RTVSPost2010Prop45
280
     0
102
RTVSPost2010PropOp45
 70
     1
102
RTVSPost2010Prop46
 90
       50
102
RTVSPost2010PropOp46
 70
     1
102
RTVSPost2010Prop47
 90
       50
102
RTVSPost2010PropOp47
 70
     1
102
RTVSPost2010Prop48
 90
       50
102
RTVSPost2010PropOp48
 70
     1
102
RTVSPost2010Prop49
280
     0
102
RTVSPost2010PropOp49
 70
     1
102
RTVSPost2010Prop50
 90
       50
102
RTVSPost2010PropOp50
 70
     1
102
RTVSPost2010Prop51ColorIndex
 90
      256
102
RTVSPost2010Prop51ColorRGB
 90
-16777216
102
RTVSPost2010PropOp51
 70
     0
102
RTVSPost2010Prop52
140
1.0
102
RTVSPost2010PropOp52
 70
     0
102
RTVSPost2010Prop53
 90
        2
102
RTVSPost2010PropOp53
 70
     1
102
RTVSPost2010Prop54
  1
strokes_ogs.tif
102
RTVSPost2010PropOp54
 70
     1
102
RTVSPost2010Prop55
280
     0
102
RTVSPost2010PropOp55
 70
     1
102
RTVSPost2010Prop56
140
1.0
102
RTVSPost2010PropOp56
 70
     1
102
RTVSPost2010Prop57
140
1.0
102
RTVSPost2010PropOp57
 70
     1
  0
XRECORD
  5
3BA
102
{ACAD_REACTORS
330
3B9
102
}
330
3B9
100
AcDbXrecord
280
     1
102
RTVSPropertyOp0
 70
     1
102
RTVSPropertyOp1
 70
     1
102
RTVSPropertyOp2
 70
     1
102
RTVSPropertyOp3
 70
     1
102
RTVSPropertyOp4
 70
     1
102
RTVSPropertyOp5
 70
     1
102
RTVSPropertyOp6
 70
     1
102
RTVSPropertyOp7
 70
     1
102
RTVSPropertyOp8
 70
     1
102
RTVSPropertyOp9
 70
     1
102
RTVSPropertyOp10
 70
     1
102
RTVSPropertyOp11
 70
     1
102
RTVSPropertyOp12
 70
     1
102
RTVSPropertyOp13
 70
     1
102
RTVSPropertyOp14
 70
     1
102
RTVSPropertyOp15
 70
     1
102
RTVSPropertyOp16
 70
     1
102
RTVSPropertyOp17
 70
     1
102
RTVSPropertyOp18
 70
     1
102
RTVSPropertyOp19
 70
     1
102
RTVSPropertyOp20
 70
     1
102
RTVSPropertyOp21
 70
     1
102
RTVSPropertyOp22
 70
     1
102
RTVSPropertyOp23
 70
     1
102
RTVSPropertyOp24
 70
     1
102
RTVSPropertyOp25
 70
     1
102
RTVSPropertyOp26
 70
     1
102
RTVSPropertyOp27
 70
     1
102
RTVSPropertyOp28
 70
     1
102
RTVSPropertyOp29
 70
     1
102
RTVSPropertyOp30
 70
     1
102
RTVSPropertyOp31
 70
     1
102
RTVSPropertyOp32
 70
     1
102
RTVSPropertyOp33
 70
     1
102
RTVSPropertyOp34
 70
     1
102
RTVSPropertyOp35
 70
     1
102
RTVSPropertyOp36
 70
     1
102
RTVSPropertyOp37
 70
     1
102
RTVSPropertyOp38
 70
     1
102
RTVSPropertyOp39
 70
     1
102
RTVSPropertyOp40
 70
     1
102
RTVSPropertyOp41
 70
     1
102
RTVSPropertyOp42
 70
     1
102
RTVSPropertyOp43
 70
     1
102
RTVSPropertyOp44
 70
     1
102
RTVSPropertyOp45
 70
     1
102
RTVSPropertyOp46
 70
     1
102
RTVSPropertyOp47
 70
     1
102
RTVSPropertyOp48
 70
     1
102
RTVSPropertyOp49
 70
     1
102
RTVSPropertyOp50
 70
     1
102
RTVSPropertyOp51
 70
     0
102
RTVSPropertyOp52
 70
     0
102
RTVSPropertyOp53
 70
     1
102
RTVSPropertyOp54
 70
     1
102
RTVSPropertyOp55
 70
     1
102
RTVSPropertyOp56
 70
     1
102
RTVSPropertyOp57
 70
     1
102
RTVSPost2010Prop28
280
     0
102
RTVSPost2010PropOp28
 70
     1
102
RTVSPost2010Prop29
280
     1
102
RTVSPost2010PropOp29
 70
     1
102
RTVSPost2010Prop30
280
     1
102
RTVSPost2010PropOp30
 70
     1
102
RTVSPost2010Prop31
280
     0
102
RTVSPost2010PropOp31
 70
     1
102
RTVSPost2010Prop32
280
     0
102
RTVSPost2010PropOp32
 70
     1
102
RTVSPost2010Prop33
280
     0
102
RTVSPost2010PropOp33
 70
     1
102
RTVSPost2010Prop34
280
     0
102
RTVSPost2010PropOp34
 70
     1
102
RTVSPost2010Prop35
280
     0
102
RTVSPost2010PropOp35
 70
     1
102
RTVSPost2010Prop36
280
     0
102
RTVSPost2010PropOp36
 70
     1
102
RTVSPost2010Prop37
 90
       50
102
RTVSPost2010PropOp37
 70
     1
102
RTVSPost2010Prop38
140
0.0
102
RTVSPost2010PropOp38
 70
     1
102
RTVSPost2010Prop39
140
1.0
102
RTVSPost2010PropOp39
 70
     1
102
RTVSPost2010Prop40
 90
        0
102
RTVSPost2010PropOp40
 70
     1
102
RTVSPost2010Prop41ColorIndex
 90
       18
102
RTVSPost2010Prop41ColorRGB
 90
        0
102
RTVSPost2010PropOp41
 70
     1
102
RTVSPost2010Prop42
 90
       50
102
RTVSPost2010PropOp42
 70
     1
102
RTVSPost2010Prop43
 90
        3
102
RTVSPost2010PropOp43
 70
     1
102
RTVSPost2010Prop44ColorIndex
 90
        5
102
RTVSPost2010Prop44ColorRGB
 90
      255
102
RTVSPost2010PropOp44
 70
     1
102
RTVSPost2010Prop45
280
     0
102
RTVSPost2010PropOp45
 70
     1
102
RTVSPost2010Prop46
 90
       50
102
RTVSPost2010PropOp46
 70
     1
102
RTVSPost2010Prop47
 90
       50
102
RTVSPost2010PropOp47
 70
     1
102
RTVSPost2010Prop48
 90
       50
102
RTVSPost2010PropOp48
 70
     1
102
RTVSPost2010Prop49
280
     0
102
RTVSPost2010PropOp49
 70
     1
102
RTVSPost2010Prop50
 90
       50
102
RTVSPost2010PropOp50
 70
     1
102
RTVSPost2010Prop51ColorIndex
 90
      256
102
RTVSPost2010Prop51ColorRGB
 90
-16777216
102
RTVSPost2010PropOp51
 70
     0
102
RTVSPost2010Prop52
140
1.0
102
RTVSPost2010PropOp52
 70
     0
102
RTVSPost2010Prop53
 90
        2
102
RTVSPost2010PropOp53
 70
     1
102
RTVSPost2010Prop54
  1
strokes_ogs.tif
102
RTVSPost2010PropOp54
 70
     1
102
RTVSPost2010Prop55
280
     0
102
RTVSPost2010PropOp55
 70
     1
102
RTVSPost2010Prop56
140
1.0
102
RTVSPost2010PropOp56
 70
     1
102
RTVSPost2010Prop57
140
1.0
102
RTVSPost2010PropOp57
 70
     1
  0
XRECORD
  5
3CE
102
{ACAD_REACTORS
330
3CD
102
}
330
3CD
100
AcDbXrecord
280
     1
102
RTVSPropertyOp0
 70
     0
102
RTVSPropertyOp1
 70
     0
102
RTVSPropertyOp2
 70
     0
102
RTVSPropertyOp3
 70
     0
102
RTVSPropertyOp4
 70
     0
102
RTVSPropertyOp5
 70
     0
102
RTVSPropertyOp6
 70
     0
102
RTVSPropertyOp7
 70
     0
102
RTVSPropertyOp8
 70
     0
102
RTVSPropertyOp9
 70
     0
102
RTVSPropertyOp10
 70
     0
102
RTVSPropertyOp11
 70
     0
102
RTVSPropertyOp12
 70
     0
102
RTVSPropertyOp13
 70
     0
102
RTVSPropertyOp14
 70
     2
102
RTVSPropertyOp15
 70
     0
102
RTVSPropertyOp16
 70
     0
102
RTVSPropertyOp17
 70
     0
102
RTVSPropertyOp18
 70
     0
102
RTVSPropertyOp19
 70
     0
102
RTVSPropertyOp20
 70
     0
102
RTVSPropertyOp21
 70
     0
102
RTVSPropertyOp22
 70
     0
102
RTVSPropertyOp23
 70
     0
102
RTVSPropertyOp24
 70
     0
102
RTVSPropertyOp25
 70
     0
102
RTVSPropertyOp26
 70
     0
102
RTVSPropertyOp27
 70
     0
102
RTVSPropertyOp28
 70
     0
102
RTVSPropertyOp29
 70
     0
102
RTVSPropertyOp30
 70
     0
102
RTVSPropertyOp31
 70
     0
102
RTVSPropertyOp32
 70
     0
102
RTVSPropertyOp33
 70
     0
102
RTVSPropertyOp34
 70
     0
102
RTVSPropertyOp35
 70
     0
102
RTVSPropertyOp36
 70
     0
102
RTVSPropertyOp37
 70
     0
102
RTVSPropertyOp38
 70
     0
102
RTVSPropertyOp39
 70
     0
102
RTVSPropertyOp40
 70
     0
102
RTVSPropertyOp41
 70
     0
102
RTVSPropertyOp42
 70
     0
102
RTVSPropertyOp43
 70
     0
102
RTVSPropertyOp44
 70
     0
102
RTVSPropertyOp45
 70
     0
102
RTVSPropertyOp46
 70
     0
102
RTVSPropertyOp47
 70
     0
102
RTVSPropertyOp48
 70
     0
102
RTVSPropertyOp49
 70
     0
102
RTVSPropertyOp50
 70
     0
102
RTVSPropertyOp51
 70
     0
102
RTVSPropertyOp52
 70
     0
102
RTVSPropertyOp53
 70
     0
102
RTVSPropertyOp54
 70
     0
102
RTVSPropertyOp55
 70
     0
102
RTVSPropertyOp56
 70
     0
102
RTVSPropertyOp57
 70
     0
102
RTVSPost2010Prop28
280
     0
102
RTVSPost2010PropOp28
 70
     0
102
RTVSPost2010Prop29
280
     1
102
RTVSPost2010PropOp29
 70
     0
102
RTVSPost2010Prop30
280
     1
102
RTVSPost2010PropOp30
 70
     0
102
RTVSPost2010Prop31
280
     0
102
RTVSPost2010PropOp31
 70
     0
102
RTVSPost2010Prop32
280
     0
102
RTVSPost2010PropOp32
 70
     0
102
RTVSPost2010Prop33
280
     0
102
RTVSPost2010PropOp33
 70
     0
102
RTVSPost2010Prop34
280
     0
102
RTVSPost2010PropOp34
 70
     0
102
RTVSPost2010Prop35
280
     0
102
RTVSPost2010PropOp35
 70
     0
102
RTVSPost2010Prop36
280
     0
102
RTVSPost2010PropOp36
 70
     0
102
RTVSPost2010Prop37
 90
       50
102
RTVSPost2010PropOp37
 70
     0
102
RTVSPost2010Prop38
140
0.0
102
RTVSPost2010PropOp38
 70
     0
102
RTVSPost2010Prop39
140
1.0
102
RTVSPost2010PropOp39
 70
     0
102
RTVSPost2010Prop40
 90
        0
102
RTVSPost2010PropOp40
 70
     0
102
RTVSPost2010Prop41ColorIndex
 90
       18
102
RTVSPost2010Prop41ColorRGB
 90
        0
102
RTVSPost2010PropOp41
 70
     0
102
RTVSPost2010Prop42
 90
       50
102
RTVSPost2010PropOp42
 70
     0
102
RTVSPost2010Prop43
 90
        3
102
RTVSPost2010PropOp43
 70
     0
102
RTVSPost2010Prop44ColorIndex
 90
        5
102
RTVSPost2010Prop44ColorRGB
 90
      255
102
RTVSPost2010PropOp44
 70
     0
102
RTVSPost2010Prop45
280
     0
102
RTVSPost2010PropOp45
 70
     0
102
RTVSPost2010Prop46
 90
       50
102
RTVSPost2010PropOp46
 70
     0
102
RTVSPost2010Prop47
 90
       50
102
RTVSPost2010PropOp47
 70
     0
102
RTVSPost2010Prop48
 90
       50
102
RTVSPost2010PropOp48
 70
     0
102
RTVSPost2010Prop49
280
     0
102
RTVSPost2010PropOp49
 70
     0
102
RTVSPost2010Prop50
 90
       50
102
RTVSPost2010PropOp50
 70
     0
102
RTVSPost2010Prop51ColorIndex
 90
      256
102
RTVSPost2010Prop51ColorRGB
 90
-16777216
102
RTVSPost2010PropOp51
 70
     0
102
RTVSPost2010Prop52
140
1.0
102
RTVSPost2010PropOp52
 70
     0
102
RTVSPost2010Prop53
 90
        2
102
RTVSPost2010PropOp53
 70
     0
102
RTVSPost2010Prop54
  1
strokes_ogs.tif
102
RTVSPost2010PropOp54
 70
     0
102
RTVSPost2010Prop55
280
     0
102
RTVSPost2010PropOp55
 70
     0
102
RTVSPost2010Prop56
140
1.0
102
RTVSPost2010PropOp56
 70
     0
102
RTVSPost2010Prop57
140
1.0
102
RTVSPost2010PropOp57
 70
     0
  0
XRECORD
  5
3C8
102
{ACAD_REACTORS
330
3C7
102
}
330
3C7
100
AcDbXrecord
280
     1
102
RTVSPropertyOp0
 70
     1
102
RTVSPropertyOp1
 70
     1
102
RTVSPropertyOp2
 70
     1
102
RTVSPropertyOp3
 70
     1
102
RTVSPropertyOp4
 70
     1
102
RTVSPropertyOp5
 70
     1
102
RTVSPropertyOp6
 70
     1
102
RTVSPropertyOp7
 70
     1
102
RTVSPropertyOp8
 70
     1
102
RTVSPropertyOp9
 70
     1
102
RTVSPropertyOp10
 70
     1
102
RTVSPropertyOp11
 70
     1
102
RTVSPropertyOp12
 70
     1
102
RTVSPropertyOp13
 70
     1
102
RTVSPropertyOp14
 70
     1
102
RTVSPropertyOp15
 70
     1
102
RTVSPropertyOp16
 70
     1
102
RTVSPropertyOp17
 70
     1
102
RTVSPropertyOp18
 70
     1
102
RTVSPropertyOp19
 70
     1
102
RTVSPropertyOp20
 70
     1
102
RTVSPropertyOp21
 70
     1
102
RTVSPropertyOp22
 70
     1
102
RTVSPropertyOp23
 70
     1
102
RTVSPropertyOp24
 70
     1
102
RTVSPropertyOp25
 70
     1
102
RTVSPropertyOp26
 70
     1
102
RTVSPropertyOp27
 70
     1
102
RTVSPropertyOp28
 70
     1
102
RTVSPropertyOp29
 70
     1
102
RTVSPropertyOp30
 70
     1
102
RTVSPropertyOp31
 70
     1
102
RTVSPropertyOp32
 70
     1
102
RTVSPropertyOp33
 70
     1
102
RTVSPropertyOp34
 70
     1
102
RTVSPropertyOp35
 70
     1
102
RTVSPropertyOp36
 70
     1
102
RTVSPropertyOp37
 70
     1
102
RTVSPropertyOp38
 70
     1
102
RTVSPropertyOp39
 70
     1
102
RTVSPropertyOp40
 70
     1
102
RTVSPropertyOp41
 70
     1
102
RTVSPropertyOp42
 70
     1
102
RTVSPropertyOp43
 70
     1
102
RTVSPropertyOp44
 70
     1
102
RTVSPropertyOp45
 70
     1
102
RTVSPropertyOp46
 70
     1
102
RTVSPropertyOp47
 70
     1
102
RTVSPropertyOp48
 70
     1
102
RTVSPropertyOp49
 70
     1
102
RTVSPropertyOp50
 70
     1
102
RTVSPropertyOp51
 70
     0
102
RTVSPropertyOp52
 70
     0
102
RTVSPropertyOp53
 70
     1
102
RTVSPropertyOp54
 70
     1
102
RTVSPropertyOp55
 70
     1
102
RTVSPropertyOp56
 70
     1
102
RTVSPropertyOp57
 70
     1
102
RTVSPost2010Prop28
280
     0
102
RTVSPost2010PropOp28
 70
     1
102
RTVSPost2010Prop29
280
     1
102
RTVSPost2010PropOp29
 70
     1
102
RTVSPost2010Prop30
280
     1
102
RTVSPost2010PropOp30
 70
     1
102
RTVSPost2010Prop31
280
     0
102
RTVSPost2010PropOp31
 70
     1
102
RTVSPost2010Prop32
280
     0
102
RTVSPost2010PropOp32
 70
     1
102
RTVSPost2010Prop33
280
     0
102
RTVSPost2010PropOp33
 70
     1
102
RTVSPost2010Prop34
280
     0
102
RTVSPost2010PropOp34
 70
     1
102
RTVSPost2010Prop35
280
     0
102
RTVSPost2010PropOp35
 70
     1
102
RTVSPost2010Prop36
280
     0
102
RTVSPost2010PropOp36
 70
     1
102
RTVSPost2010Prop37
 90
       50
102
RTVSPost2010PropOp37
 70
     1
102
RTVSPost2010Prop38
140
0.0
102
RTVSPost2010PropOp38
 70
     1
102
RTVSPost2010Prop39
140
1.0
102
RTVSPost2010PropOp39
 70
     1
102
RTVSPost2010Prop40
 90
        0
102
RTVSPost2010PropOp40
 70
     1
102
RTVSPost2010Prop41ColorIndex
 90
       18
102
RTVSPost2010Prop41ColorRGB
 90
        0
102
RTVSPost2010PropOp41
 70
     1
102
RTVSPost2010Prop42
 90
       50
102
RTVSPost2010PropOp42
 70
     1
102
RTVSPost2010Prop43
 90
        3
102
RTVSPost2010PropOp43
 70
     1
102
RTVSPost2010Prop44ColorIndex
 90
        5
102
RTVSPost2010Prop44ColorRGB
 90
      255
102
RTVSPost2010PropOp44
 70
     1
102
RTVSPost2010Prop45
280
     0
102
RTVSPost2010PropOp45
 70
     1
102
RTVSPost2010Prop46
 90
       50
102
RTVSPost2010PropOp46
 70
     1
102
RTVSPost2010Prop47
 90
       50
102
RTVSPost2010PropOp47
 70
     1
102
RTVSPost2010Prop48
 90
       50
102
RTVSPost2010PropOp48
 70
     1
102
RTVSPost2010Prop49
280
     0
102
RTVSPost2010PropOp49
 70
     1
102
RTVSPost2010Prop50
 90
       50
102
RTVSPost2010PropOp50
 70
     1
102
RTVSPost2010Prop51ColorIndex
 90
      256
102
RTVSPost2010Prop51ColorRGB
 90
-16777216
102
RTVSPost2010PropOp51
 70
     0
102
RTVSPost2010Prop52
140
1.0
102
RTVSPost2010PropOp52
 70
     0
102
RTVSPost2010Prop53
 90
        2
102
RTVSPost2010PropOp53
 70
     1
102
RTVSPost2010Prop54
  1
strokes_ogs.tif
102
RTVSPost2010PropOp54
 70
     1
102
RTVSPost2010Prop55
280
     0
102
RTVSPost2010PropOp55
 70
     1
102
RTVSPost2010Prop56
140
1.0
102
RTVSPost2010PropOp56
 70
     1
102
RTVSPost2010Prop57
140
1.0
102
RTVSPost2010PropOp57
 70
     1
  0
XRECORD
  5
3D0
102
{ACAD_REACTORS
330
3CF
102
}
330
3CF
100
AcDbXrecord
280
     1
102
RTVSPropertyOp0
 70
     0
102
RTVSPropertyOp1
 70
     0
102
RTVSPropertyOp2
 70
     0
102
RTVSPropertyOp3
 70
     0
102
RTVSPropertyOp4
 70
     0
102
RTVSPropertyOp5
 70
     0
102
RTVSPropertyOp6
 70
     0
102
RTVSPropertyOp7
 70
     0
102
RTVSPropertyOp8
 70
     0
102
RTVSPropertyOp9
 70
     0
102
RTVSPropertyOp10
 70
     0
102
RTVSPropertyOp11
 70
     0
102
RTVSPropertyOp12
 70
     0
102
RTVSPropertyOp13
 70
     0
102
RTVSPropertyOp14
 70
     2
102
RTVSPropertyOp15
 70
     0
102
RTVSPropertyOp16
 70
     0
102
RTVSPropertyOp17
 70
     0
102
RTVSPropertyOp18
 70
     0
102
RTVSPropertyOp19
 70
     0
102
RTVSPropertyOp20
 70
     0
102
RTVSPropertyOp21
 70
     0
102
RTVSPropertyOp22
 70
     0
102
RTVSPropertyOp23
 70
     0
102
RTVSPropertyOp24
 70
     0
102
RTVSPropertyOp25
 70
     0
102
RTVSPropertyOp26
 70
     0
102
RTVSPropertyOp27
 70
     0
102
RTVSPropertyOp28
 70
     0
102
RTVSPropertyOp29
 70
     0
102
RTVSPropertyOp30
 70
     0
102
RTVSPropertyOp31
 70
     0
102
RTVSPropertyOp32
 70
     0
102
RTVSPropertyOp33
 70
     0
102
RTVSPropertyOp34
 70
     0
102
RTVSPropertyOp35
 70
     0
102
RTVSPropertyOp36
 70
     0
102
RTVSPropertyOp37
 70
     0
102
RTVSPropertyOp38
 70
     0
102
RTVSPropertyOp39
 70
     0
102
RTVSPropertyOp40
 70
     0
102
RTVSPropertyOp41
 70
     0
102
RTVSPropertyOp42
 70
     0
102
RTVSPropertyOp43
 70
     0
102
RTVSPropertyOp44
 70
     0
102
RTVSPropertyOp45
 70
     0
102
RTVSPropertyOp46
 70
     0
102
RTVSPropertyOp47
 70
     0
102
RTVSPropertyOp48
 70
     0
102
RTVSPropertyOp49
 70
     0
102
RTVSPropertyOp50
 70
     0
102
RTVSPropertyOp51
 70
     0
102
RTVSPropertyOp52
 70
     0
102
RTVSPropertyOp53
 70
     0
102
RTVSPropertyOp54
 70
     0
102
RTVSPropertyOp55
 70
     0
102
RTVSPropertyOp56
 70
     0
102
RTVSPropertyOp57
 70
     0
102
RTVSPost2010Prop28
280
     0
102
RTVSPost2010PropOp28
 70
     0
102
RTVSPost2010Prop29
280
     1
102
RTVSPost2010PropOp29
 70
     0
102
RTVSPost2010Prop30
280
     1
102
RTVSPost2010PropOp30
 70
     0
102
RTVSPost2010Prop31
280
     0
102
RTVSPost2010PropOp31
 70
     0
102
RTVSPost2010Prop32
280
     0
102
RTVSPost2010PropOp32
 70
     0
102
RTVSPost2010Prop33
280
     0
102
RTVSPost2010PropOp33
 70
     0
102
RTVSPost2010Prop34
280
     0
102
RTVSPost2010PropOp34
 70
     0
102
RTVSPost2010Prop35
280
     0
102
RTVSPost2010PropOp35
 70
     0
102
RTVSPost2010Prop36
280
     0
102
RTVSPost2010PropOp36
 70
     0
102
RTVSPost2010Prop37
 90
       50
102
RTVSPost2010PropOp37
 70
     0
102
RTVSPost2010Prop38
140
0.0
102
RTVSPost2010PropOp38
 70
     0
102
RTVSPost2010Prop39
140
1.0
102
RTVSPost2010PropOp39
 70
     0
102
RTVSPost2010Prop40
 90
        0
102
RTVSPost2010PropOp40
 70
     0
102
RTVSPost2010Prop41ColorIndex
 90
       18
102
RTVSPost2010Prop41ColorRGB
 90
        0
102
RTVSPost2010PropOp41
 70
     0
102
RTVSPost2010Prop42
 90
       50
102
RTVSPost2010PropOp42
 70
     0
102
RTVSPost2010Prop43
 90
        3
102
RTVSPost2010PropOp43
 70
     0
102
RTVSPost2010Prop44ColorIndex
 90
        5
102
RTVSPost2010Prop44ColorRGB
 90
      255
102
RTVSPost2010PropOp44
 70
     0
102
RTVSPost2010Prop45
280
     0
102
RTVSPost2010PropOp45
 70
     0
102
RTVSPost2010Prop46
 90
       50
102
RTVSPost2010PropOp46
 70
     0
102
RTVSPost2010Prop47
 90
       50
102
RTVSPost2010PropOp47
 70
     0
102
RTVSPost2010Prop48
 90
       50
102
RTVSPost2010PropOp48
 70
     0
102
RTVSPost2010Prop49
280
     0
102
RTVSPost2010PropOp49
 70
     0
102
RTVSPost2010Prop50
 90
       50
102
RTVSPost2010PropOp50
 70
     0
102
RTVSPost2010Prop51ColorIndex
 90
      256
102
RTVSPost2010Prop51ColorRGB
 90
-16777216
102
RTVSPost2010PropOp51
 70
     0
102
RTVSPost2010Prop52
140
1.0
102
RTVSPost2010PropOp52
 70
     0
102
RTVSPost2010Prop53
 90
        2
102
RTVSPost2010PropOp53
 70
     0
102
RTVSPost2010Prop54
  1
strokes_ogs.tif
102
RTVSPost2010PropOp54
 70
     0
102
RTVSPost2010Prop55
280
     0
102
RTVSPost2010PropOp55
 70
     0
102
RTVSPost2010Prop56
140
1.0
102
RTVSPost2010PropOp56
 70
     0
102
RTVSPost2010Prop57
140
1.0
102
RTVSPost2010PropOp57
 70
     0
  0
XRECORD
  5
3BE
102
{ACAD_REACTORS
330
3BD
102
}
330
3BD
100
AcDbXrecord
280
     1
102
RTVSPropertyOp0
 70
     1
102
RTVSPropertyOp1
 70
     1
102
RTVSPropertyOp2
 70
     1
102
RTVSPropertyOp3
 70
     1
102
RTVSPropertyOp4
 70
     1
102
RTVSPropertyOp5
 70
     1
102
RTVSPropertyOp6
 70
     1
102
RTVSPropertyOp7
 70
     1
102
RTVSPropertyOp8
 70
     1
102
RTVSPropertyOp9
 70
     1
102
RTVSPropertyOp10
 70
     1
102
RTVSPropertyOp11
 70
     1
102
RTVSPropertyOp12
 70
     1
102
RTVSPropertyOp13
 70
     1
102
RTVSPropertyOp14
 70
     1
102
RTVSPropertyOp15
 70
     1
102
RTVSPropertyOp16
 70
     1
102
RTVSPropertyOp17
 70
     1
102
RTVSPropertyOp18
 70
     1
102
RTVSPropertyOp19
 70
     1
102
RTVSPropertyOp20
 70
     1
102
RTVSPropertyOp21
 70
     1
102
RTVSPropertyOp22
 70
     1
102
RTVSPropertyOp23
 70
     1
102
RTVSPropertyOp24
 70
     1
102
RTVSPropertyOp25
 70
     1
102
RTVSPropertyOp26
 70
     1
102
RTVSPropertyOp27
 70
     1
102
RTVSPropertyOp28
 70
     1
102
RTVSPropertyOp29
 70
     1
102
RTVSPropertyOp30
 70
     1
102
RTVSPropertyOp31
 70
     1
102
RTVSPropertyOp32
 70
     1
102
RTVSPropertyOp33
 70
     1
102
RTVSPropertyOp34
 70
     1
102
RTVSPropertyOp35
 70
     1
102
RTVSPropertyOp36
 70
     1
102
RTVSPropertyOp37
 70
     1
102
RTVSPropertyOp38
 70
     1
102
RTVSPropertyOp39
 70
     1
102
RTVSPropertyOp40
 70
     1
102
RTVSPropertyOp41
 70
     1
102
RTVSPropertyOp42
 70
     1
102
RTVSPropertyOp43
 70
     1
102
RTVSPropertyOp44
 70
     1
102
RTVSPropertyOp45
 70
     1
102
RTVSPropertyOp46
 70
     1
102
RTVSPropertyOp47
 70
     1
102
RTVSPropertyOp48
 70
     1
102
RTVSPropertyOp49
 70
     1
102
RTVSPropertyOp50
 70
     1
102
RTVSPropertyOp51
 70
     0
102
RTVSPropertyOp52
 70
     0
102
RTVSPropertyOp53
 70
     1
102
RTVSPropertyOp54
 70
     1
102
RTVSPropertyOp55
 70
     1
102
RTVSPropertyOp56
 70
     1
102
RTVSPropertyOp57
 70
     1
102
RTVSPost2010Prop28
280
     0
102
RTVSPost2010PropOp28
 70
     1
102
RTVSPost2010Prop29
280
     1
102
RTVSPost2010PropOp29
 70
     1
102
RTVSPost2010Prop30
280
     1
102
RTVSPost2010PropOp30
 70
     1
102
RTVSPost2010Prop31
280
     0
102
RTVSPost2010PropOp31
 70
     1
102
RTVSPost2010Prop32
280
     0
102
RTVSPost2010PropOp32
 70
     1
102
RTVSPost2010Prop33
280
     0
102
RTVSPost2010PropOp33
 70
     1
102
RTVSPost2010Prop34
280
     0
102
RTVSPost2010PropOp34
 70
     1
102
RTVSPost2010Prop35
280
     0
102
RTVSPost2010PropOp35
 70
     1
102
RTVSPost2010Prop36
280
     0
102
RTVSPost2010PropOp36
 70
     1
102
RTVSPost2010Prop37
 90
       50
102
RTVSPost2010PropOp37
 70
     1
102
RTVSPost2010Prop38
140
0.0
102
RTVSPost2010PropOp38
 70
     1
102
RTVSPost2010Prop39
140
1.0
102
RTVSPost2010PropOp39
 70
     1
102
RTVSPost2010Prop40
 90
        0
102
RTVSPost2010PropOp40
 70
     1
102
RTVSPost2010Prop41ColorIndex
 90
       18
102
RTVSPost2010Prop41ColorRGB
 90
        0
102
RTVSPost2010PropOp41
 70
     1
102
RTVSPost2010Prop42
 90
       50
102
RTVSPost2010PropOp42
 70
     1
102
RTVSPost2010Prop43
 90
        3
102
RTVSPost2010PropOp43
 70
     1
102
RTVSPost2010Prop44ColorIndex
 90
        5
102
RTVSPost2010Prop44ColorRGB
 90
      255
102
RTVSPost2010PropOp44
 70
     1
102
RTVSPost2010Prop45
280
     0
102
RTVSPost2010PropOp45
 70
     1
102
RTVSPost2010Prop46
 90
       50
102
RTVSPost2010PropOp46
 70
     1
102
RTVSPost2010Prop47
 90
       50
102
RTVSPost2010PropOp47
 70
     1
102
RTVSPost2010Prop48
 90
       50
102
RTVSPost2010PropOp48
 70
     1
102
RTVSPost2010Prop49
280
     0
102
RTVSPost2010PropOp49
 70
     1
102
RTVSPost2010Prop50
 90
       50
102
RTVSPost2010PropOp50
 70
     1
102
RTVSPost2010Prop51ColorIndex
 90
      256
102
RTVSPost2010Prop51ColorRGB
 90
-16777216
102
RTVSPost2010PropOp51
 70
     0
102
RTVSPost2010Prop52
140
1.0
102
RTVSPost2010PropOp52
 70
     0
102
RTVSPost2010Prop53
 90
        2
102
RTVSPost2010PropOp53
 70
     1
102
RTVSPost2010Prop54
  1
strokes_ogs.tif
102
RTVSPost2010PropOp54
 70
     1
102
RTVSPost2010Prop55
280
     0
102
RTVSPost2010PropOp55
 70
     1
102
RTVSPost2010Prop56
140
1.0
102
RTVSPost2010PropOp56
 70
     1
102
RTVSPost2010Prop57
140
1.0
102
RTVSPost2010PropOp57
 70
     1
  0
XRECORD
  5
3DC
102
{ACAD_REACTORS
330
3DB
102
}
330
3DB
100
AcDbXrecord
280
     1
102
RTVSPropertyOp0
 70
     1
102
RTVSPropertyOp1
 70
     1
102
RTVSPropertyOp2
 70
     1
102
RTVSPropertyOp3
 70
     1
102
RTVSPropertyOp4
 70
     1
102
RTVSPropertyOp5
 70
     1
102
RTVSPropertyOp6
 70
     1
102
RTVSPropertyOp7
 70
     1
102
RTVSPropertyOp8
 70
     1
102
RTVSPropertyOp9
 70
     1
102
RTVSPropertyOp10
 70
     1
102
RTVSPropertyOp11
 70
     1
102
RTVSPropertyOp12
 70
     1
102
RTVSPropertyOp13
 70
     1
102
RTVSPropertyOp14
 70
     1
102
RTVSPropertyOp15
 70
     1
102
RTVSPropertyOp16
 70
     1
102
RTVSPropertyOp17
 70
     1
102
RTVSPropertyOp18
 70
     1
102
RTVSPropertyOp19
 70
     1
102
RTVSPropertyOp20
 70
     1
102
RTVSPropertyOp21
 70
     1
102
RTVSPropertyOp22
 70
     1
102
RTVSPropertyOp23
 70
     1
102
RTVSPropertyOp24
 70
     1
102
RTVSPropertyOp25
 70
     1
102
RTVSPropertyOp26
 70
     1
102
RTVSPropertyOp27
 70
     1
102
RTVSPropertyOp28
 70
     1
102
RTVSPropertyOp29
 70
     1
102
RTVSPropertyOp30
 70
     1
102
RTVSPropertyOp31
 70
     1
102
RTVSPropertyOp32
 70
     1
102
RTVSPropertyOp33
 70
     1
102
RTVSPropertyOp34
 70
     1
102
RTVSPropertyOp35
 70
     1
102
RTVSPropertyOp36
 70
     1
102
RTVSPropertyOp37
 70
     1
102
RTVSPropertyOp38
 70
     1
102
RTVSPropertyOp39
 70
     1
102
RTVSPropertyOp40
 70
     1
102
RTVSPropertyOp41
 70
     1
102
RTVSPropertyOp42
 70
     1
102
RTVSPropertyOp43
 70
     1
102
RTVSPropertyOp44
 70
     1
102
RTVSPropertyOp45
 70
     1
102
RTVSPropertyOp46
 70
     1
102
RTVSPropertyOp47
 70
     1
102
RTVSPropertyOp48
 70
     1
102
RTVSPropertyOp49
 70
     1
102
RTVSPropertyOp50
 70
     1
102
RTVSPropertyOp51
 70
     0
102
RTVSPropertyOp52
 70
     0
102
RTVSPropertyOp53
 70
     1
102
RTVSPropertyOp54
 70
     1
102
RTVSPropertyOp55
 70
     1
102
RTVSPropertyOp56
 70
     1
102
RTVSPropertyOp57
 70
     1
102
RTVSPost2010Prop28
280
     0
102
RTVSPost2010PropOp28
 70
     1
102
RTVSPost2010Prop29
280
     1
102
RTVSPost2010PropOp29
 70
     1
102
RTVSPost2010Prop30
280
     1
102
RTVSPost2010PropOp30
 70
     1
102
RTVSPost2010Prop31
280
     0
102
RTVSPost2010PropOp31
 70
     1
102
RTVSPost2010Prop32
280
     0
102
RTVSPost2010PropOp32
 70
     1
102
RTVSPost2010Prop33
280
     0
102
RTVSPost2010PropOp33
 70
     1
102
RTVSPost2010Prop34
280
     0
102
RTVSPost2010PropOp34
 70
     1
102
RTVSPost2010Prop35
280
     0
102
RTVSPost2010PropOp35
 70
     1
102
RTVSPost2010Prop36
280
     0
102
RTVSPost2010PropOp36
 70
     1
102
RTVSPost2010Prop37
 90
       50
102
RTVSPost2010PropOp37
 70
     1
102
RTVSPost2010Prop38
140
0.0
102
RTVSPost2010PropOp38
 70
     1
102
RTVSPost2010Prop39
140
1.0
102
RTVSPost2010PropOp39
 70
     1
102
RTVSPost2010Prop40
 90
        0
102
RTVSPost2010PropOp40
 70
     1
102
RTVSPost2010Prop41ColorIndex
 90
       18
102
RTVSPost2010Prop41ColorRGB
 90
        0
102
RTVSPost2010PropOp41
 70
     1
102
RTVSPost2010Prop42
 90
       50
102
RTVSPost2010PropOp42
 70
     1
102
RTVSPost2010Prop43
 90
        3
102
RTVSPost2010PropOp43
 70
     1
102
RTVSPost2010Prop44ColorIndex
 90
        5
102
RTVSPost2010Prop44ColorRGB
 90
      255
102
RTVSPost2010PropOp44
 70
     1
102
RTVSPost2010Prop45
280
     0
102
RTVSPost2010PropOp45
 70
     1
102
RTVSPost2010Prop46
 90
       50
102
RTVSPost2010PropOp46
 70
     1
102
RTVSPost2010Prop47
 90
       50
102
RTVSPost2010PropOp47
 70
     1
102
RTVSPost2010Prop48
 90
       50
102
RTVSPost2010PropOp48
 70
     1
102
RTVSPost2010Prop49
280
     0
102
RTVSPost2010PropOp49
 70
     1
102
RTVSPost2010Prop50
 90
       50
102
RTVSPost2010PropOp50
 70
     1
102
RTVSPost2010Prop51ColorIndex
 90
      256
102
RTVSPost2010Prop51ColorRGB
 90
-16777216
102
RTVSPost2010PropOp51
 70
     0
102
RTVSPost2010Prop52
140
1.0
102
RTVSPost2010PropOp52
 70
     0
102
RTVSPost2010Prop53
 90
        2
102
RTVSPost2010PropOp53
 70
     1
102
RTVSPost2010Prop54
  1
strokes_ogs.tif
102
RTVSPost2010PropOp54
 70
     1
102
RTVSPost2010Prop55
280
     0
102
RTVSPost2010PropOp55
 70
     1
102
RTVSPost2010Prop56
140
1.0
102
RTVSPost2010PropOp56
 70
     1
102
RTVSPost2010Prop57
140
1.0
102
RTVSPost2010PropOp57
 70
     1
  0
XRECORD
  5
3DA
102
{ACAD_REACTORS
330
3D9
102
}
330
3D9
100
AcDbXrecord
280
     1
102
RTVSPropertyOp0
 70
     1
102
RTVSPropertyOp1
 70
     1
102
RTVSPropertyOp2
 70
     1
102
RTVSPropertyOp3
 70
     1
102
RTVSPropertyOp4
 70
     1
102
RTVSPropertyOp5
 70
     1
102
RTVSPropertyOp6
 70
     1
102
RTVSPropertyOp7
 70
     1
102
RTVSPropertyOp8
 70
     1
102
RTVSPropertyOp9
 70
     1
102
RTVSPropertyOp10
 70
     1
102
RTVSPropertyOp11
 70
     1
102
RTVSPropertyOp12
 70
     1
102
RTVSPropertyOp13
 70
     1
102
RTVSPropertyOp14
 70
     1
102
RTVSPropertyOp15
 70
     1
102
RTVSPropertyOp16
 70
     1
102
RTVSPropertyOp17
 70
     1
102
RTVSPropertyOp18
 70
     1
102
RTVSPropertyOp19
 70
     1
102
RTVSPropertyOp20
 70
     1
102
RTVSPropertyOp21
 70
     1
102
RTVSPropertyOp22
 70
     1
102
RTVSPropertyOp23
 70
     1
102
RTVSPropertyOp24
 70
     1
102
RTVSPropertyOp25
 70
     1
102
RTVSPropertyOp26
 70
     1
102
RTVSPropertyOp27
 70
     1
102
RTVSPropertyOp28
 70
     1
102
RTVSPropertyOp29
 70
     1
102
RTVSPropertyOp30
 70
     1
102
RTVSPropertyOp31
 70
     1
102
RTVSPropertyOp32
 70
     1
102
RTVSPropertyOp33
 70
     1
102
RTVSPropertyOp34
 70
     1
102
RTVSPropertyOp35
 70
     1
102
RTVSPropertyOp36
 70
     1
102
RTVSPropertyOp37
 70
     1
102
RTVSPropertyOp38
 70
     1
102
RTVSPropertyOp39
 70
     1
102
RTVSPropertyOp40
 70
     1
102
RTVSPropertyOp41
 70
     1
102
RTVSPropertyOp42
 70
     1
102
RTVSPropertyOp43
 70
     1
102
RTVSPropertyOp44
 70
     1
102
RTVSPropertyOp45
 70
     1
102
RTVSPropertyOp46
 70
     1
102
RTVSPropertyOp47
 70
     1
102
RTVSPropertyOp48
 70
     1
102
RTVSPropertyOp49
 70
     1
102
RTVSPropertyOp50
 70
     1
102
RTVSPropertyOp51
 70
     0
102
RTVSPropertyOp52
 70
     0
102
RTVSPropertyOp53
 70
     1
102
RTVSPropertyOp54
 70
     1
102
RTVSPropertyOp55
 70
     1
102
RTVSPropertyOp56
 70
     1
102
RTVSPropertyOp57
 70
     1
102
RTVSPost2010Prop28
280
     0
102
RTVSPost2010PropOp28
 70
     1
102
RTVSPost2010Prop29
280
     1
102
RTVSPost2010PropOp29
 70
     1
102
RTVSPost2010Prop30
280
     1
102
RTVSPost2010PropOp30
 70
     1
102
RTVSPost2010Prop31
280
     0
102
RTVSPost2010PropOp31
 70
     1
102
RTVSPost2010Prop32
280
     0
102
RTVSPost2010PropOp32
 70
     1
102
RTVSPost2010Prop33
280
     0
102
RTVSPost2010PropOp33
 70
     1
102
RTVSPost2010Prop34
280
     0
102
RTVSPost2010PropOp34
 70
     1
102
RTVSPost2010Prop35
280
     0
102
RTVSPost2010PropOp35
 70
     1
102
RTVSPost2010Prop36
280
     0
102
RTVSPost2010PropOp36
 70
     1
102
RTVSPost2010Prop37
 90
       50
102
RTVSPost2010PropOp37
 70
     1
102
RTVSPost2010Prop38
140
0.0
102
RTVSPost2010PropOp38
 70
     1
102
RTVSPost2010Prop39
140
1.0
102
RTVSPost2010PropOp39
 70
     1
102
RTVSPost2010Prop40
 90
        0
102
RTVSPost2010PropOp40
 70
     1
102
RTVSPost2010Prop41ColorIndex
 90
       18
102
RTVSPost2010Prop41ColorRGB
 90
        0
102
RTVSPost2010PropOp41
 70
     1
102
RTVSPost2010Prop42
 90
       50
102
RTVSPost2010PropOp42
 70
     1
102
RTVSPost2010Prop43
 90
        3
102
RTVSPost2010PropOp43
 70
     1
102
RTVSPost2010Prop44ColorIndex
 90
        5
102
RTVSPost2010Prop44ColorRGB
 90
      255
102
RTVSPost2010PropOp44
 70
     1
102
RTVSPost2010Prop45
280
     0
102
RTVSPost2010PropOp45
 70
     1
102
RTVSPost2010Prop46
 90
       50
102
RTVSPost2010PropOp46
 70
     1
102
RTVSPost2010Prop47
 90
       50
102
RTVSPost2010PropOp47
 70
     1
102
RTVSPost2010Prop48
 90
       50
102
RTVSPost2010PropOp48
 70
     1
102
RTVSPost2010Prop49
280
     0
102
RTVSPost2010PropOp49
 70
     1
102
RTVSPost2010Prop50
 90
       50
102
RTVSPost2010PropOp50
 70
     1
102
RTVSPost2010Prop51ColorIndex
 90
      256
102
RTVSPost2010Prop51ColorRGB
 90
-16777216
102
RTVSPost2010PropOp51
 70
     0
102
RTVSPost2010Prop52
140
1.0
102
RTVSPost2010PropOp52
 70
     0
102
RTVSPost2010Prop53
 90
        2
102
RTVSPost2010PropOp53
 70
     1
102
RTVSPost2010Prop54
  1
strokes_ogs.tif
102
RTVSPost2010PropOp54
 70
     1
102
RTVSPost2010Prop55
280
     0
102
RTVSPost2010PropOp55
 70
     1
102
RTVSPost2010Prop56
140
1.0
102
RTVSPost2010PropOp56
 70
     1
102
RTVSPost2010Prop57
140
1.0
102
RTVSPost2010PropOp57
 70
     1
  0
XRECORD
  5
3D4
102
{ACAD_REACTORS
330
3D3
102
}
330
3D3
100
AcDbXrecord
280
     1
102
RTVSPropertyOp0
 70
     1
102
RTVSPropertyOp1
 70
     1
102
RTVSPropertyOp2
 70
     1
102
RTVSPropertyOp3
 70
     1
102
RTVSPropertyOp4
 70
     1
102
RTVSPropertyOp5
 70
     1
102
RTVSPropertyOp6
 70
     1
102
RTVSPropertyOp7
 70
     1
102
RTVSPropertyOp8
 70
     1
102
RTVSPropertyOp9
 70
     1
102
RTVSPropertyOp10
 70
     1
102
RTVSPropertyOp11
 70
     1
102
RTVSPropertyOp12
 70
     1
102
RTVSPropertyOp13
 70
     1
102
RTVSPropertyOp14
 70
     1
102
RTVSPropertyOp15
 70
     1
102
RTVSPropertyOp16
 70
     1
102
RTVSPropertyOp17
 70
     1
102
RTVSPropertyOp18
 70
     1
102
RTVSPropertyOp19
 70
     1
102
RTVSPropertyOp20
 70
     1
102
RTVSPropertyOp21
 70
     1
102
RTVSPropertyOp22
 70
     1
102
RTVSPropertyOp23
 70
     1
102
RTVSPropertyOp24
 70
     1
102
RTVSPropertyOp25
 70
     1
102
RTVSPropertyOp26
 70
     1
102
RTVSPropertyOp27
 70
     1
102
RTVSPropertyOp28
 70
     1
102
RTVSPropertyOp29
 70
     1
102
RTVSPropertyOp30
 70
     1
102
RTVSPropertyOp31
 70
     1
102
RTVSPropertyOp32
 70
     1
102
RTVSPropertyOp33
 70
     1
102
RTVSPropertyOp34
 70
     1
102
RTVSPropertyOp35
 70
     1
102
RTVSPropertyOp36
 70
     1
102
RTVSPropertyOp37
 70
     1
102
RTVSPropertyOp38
 70
     1
102
RTVSPropertyOp39
 70
     1
102
RTVSPropertyOp40
 70
     1
102
RTVSPropertyOp41
 70
     1
102
RTVSPropertyOp42
 70
     1
102
RTVSPropertyOp43
 70
     1
102
RTVSPropertyOp44
 70
     1
102
RTVSPropertyOp45
 70
     1
102
RTVSPropertyOp46
 70
     1
102
RTVSPropertyOp47
 70
     1
102
RTVSPropertyOp48
 70
     1
102
RTVSPropertyOp49
 70
     1
102
RTVSPropertyOp50
 70
     1
102
RTVSPropertyOp51
 70
     0
102
RTVSPropertyOp52
 70
     0
102
RTVSPropertyOp53
 70
     1
102
RTVSPropertyOp54
 70
     1
102
RTVSPropertyOp55
 70
     1
102
RTVSPropertyOp56
 70
     1
102
RTVSPropertyOp57
 70
     1
102
RTVSPost2010Prop28
280
     0
102
RTVSPost2010PropOp28
 70
     1
102
RTVSPost2010Prop29
280
     1
102
RTVSPost2010PropOp29
 70
     1
102
RTVSPost2010Prop30
280
     1
102
RTVSPost2010PropOp30
 70
     1
102
RTVSPost2010Prop31
280
     0
102
RTVSPost2010PropOp31
 70
     1
102
RTVSPost2010Prop32
280
     0
102
RTVSPost2010PropOp32
 70
     1
102
RTVSPost2010Prop33
280
     0
102
RTVSPost2010PropOp33
 70
     1
102
RTVSPost2010Prop34
280
     0
102
RTVSPost2010PropOp34
 70
     1
102
RTVSPost2010Prop35
280
     0
102
RTVSPost2010PropOp35
 70
     1
102
RTVSPost2010Prop36
280
     0
102
RTVSPost2010PropOp36
 70
     1
102
RTVSPost2010Prop37
 90
       50
102
RTVSPost2010PropOp37
 70
     1
102
RTVSPost2010Prop38
140
0.0
102
RTVSPost2010PropOp38
 70
     1
102
RTVSPost2010Prop39
140
1.0
102
RTVSPost2010PropOp39
 70
     1
102
RTVSPost2010Prop40
 90
        0
102
RTVSPost2010PropOp40
 70
     1
102
RTVSPost2010Prop41ColorIndex
 90
       18
102
RTVSPost2010Prop41ColorRGB
 90
        0
102
RTVSPost2010PropOp41
 70
     1
102
RTVSPost2010Prop42
 90
       50
102
RTVSPost2010PropOp42
 70
     1
102
RTVSPost2010Prop43
 90
        3
102
RTVSPost2010PropOp43
 70
     1
102
RTVSPost2010Prop44ColorIndex
 90
        5
102
RTVSPost2010Prop44ColorRGB
 90
      255
102
RTVSPost2010PropOp44
 70
     1
102
RTVSPost2010Prop45
280
     0
102
RTVSPost2010PropOp45
 70
     1
102
RTVSPost2010Prop46
 90
       50
102
RTVSPost2010PropOp46
 70
     1
102
RTVSPost2010Prop47
 90
       50
102
RTVSPost2010PropOp47
 70
     1
102
RTVSPost2010Prop48
 90
       50
102
RTVSPost2010PropOp48
 70
     1
102
RTVSPost2010Prop49
280
     0
102
RTVSPost2010PropOp49
 70
     1
102
RTVSPost2010Prop50
 90
       50
102
RTVSPost2010PropOp50
 70
     1
102
RTVSPost2010Prop51ColorIndex
 90
      256
102
RTVSPost2010Prop51ColorRGB
 90
-16777216
102
RTVSPost2010PropOp51
 70
     0
102
RTVSPost2010Prop52
140
1.0
102
RTVSPost2010PropOp52
 70
     0
102
RTVSPost2010Prop53
 90
        2
102
RTVSPost2010PropOp53
 70
     1
102
RTVSPost2010Prop54
  1
strokes_ogs.tif
102
RTVSPost2010PropOp54
 70
     1
102
RTVSPost2010Prop55
280
     0
102
RTVSPost2010PropOp55
 70
     1
102
RTVSPost2010Prop56
140
1.0
102
RTVSPost2010PropOp56
 70
     1
102
RTVSPost2010Prop57
140
1.0
102
RTVSPost2010PropOp57
 70
     1
  0
XRECORD
  5
3D6
102
{ACAD_REACTORS
330
3D5
102
}
330
3D5
100
AcDbXrecord
280
     1
102
RTVSPropertyOp0
 70
     1
102
RTVSPropertyOp1
 70
     1
102
RTVSPropertyOp2
 70
     1
102
RTVSPropertyOp3
 70
     1
102
RTVSPropertyOp4
 70
     1
102
RTVSPropertyOp5
 70
     1
102
RTVSPropertyOp6
 70
     1
102
RTVSPropertyOp7
 70
     1
102
RTVSPropertyOp8
 70
     1
102
RTVSPropertyOp9
 70
     1
102
RTVSPropertyOp10
 70
     1
102
RTVSPropertyOp11
 70
     1
102
RTVSPropertyOp12
 70
     1
102
RTVSPropertyOp13
 70
     1
102
RTVSPropertyOp14
 70
     1
102
RTVSPropertyOp15
 70
     1
102
RTVSPropertyOp16
 70
     1
102
RTVSPropertyOp17
 70
     1
102
RTVSPropertyOp18
 70
     1
102
RTVSPropertyOp19
 70
     1
102
RTVSPropertyOp20
 70
     1
102
RTVSPropertyOp21
 70
     1
102
RTVSPropertyOp22
 70
     1
102
RTVSPropertyOp23
 70
     1
102
RTVSPropertyOp24
 70
     1
102
RTVSPropertyOp25
 70
     1
102
RTVSPropertyOp26
 70
     1
102
RTVSPropertyOp27
 70
     1
102
RTVSPropertyOp28
 70
     1
102
RTVSPropertyOp29
 70
     1
102
RTVSPropertyOp30
 70
     1
102
RTVSPropertyOp31
 70
     1
102
RTVSPropertyOp32
 70
     1
102
RTVSPropertyOp33
 70
     1
102
RTVSPropertyOp34
 70
     1
102
RTVSPropertyOp35
 70
     1
102
RTVSPropertyOp36
 70
     1
102
RTVSPropertyOp37
 70
     1
102
RTVSPropertyOp38
 70
     1
102
RTVSPropertyOp39
 70
     1
102
RTVSPropertyOp40
 70
     1
102
RTVSPropertyOp41
 70
     1
102
RTVSPropertyOp42
 70
     1
102
RTVSPropertyOp43
 70
     1
102
RTVSPropertyOp44
 70
     1
102
RTVSPropertyOp45
 70
     1
102
RTVSPropertyOp46
 70
     1
102
RTVSPropertyOp47
 70
     1
102
RTVSPropertyOp48
 70
     1
102
RTVSPropertyOp49
 70
     1
102
RTVSPropertyOp50
 70
     1
102
RTVSPropertyOp51
 70
     0
102
RTVSPropertyOp52
 70
     0
102
RTVSPropertyOp53
 70
     1
102
RTVSPropertyOp54
 70
     1
102
RTVSPropertyOp55
 70
     1
102
RTVSPropertyOp56
 70
     1
102
RTVSPropertyOp57
 70
     1
102
RTVSPost2010Prop28
280
     0
102
RTVSPost2010PropOp28
 70
     1
102
RTVSPost2010Prop29
280
     1
102
RTVSPost2010PropOp29
 70
     1
102
RTVSPost2010Prop30
280
     1
102
RTVSPost2010PropOp30
 70
     1
102
RTVSPost2010Prop31
280
     0
102
RTVSPost2010PropOp31
 70
     1
102
RTVSPost2010Prop32
280
     0
102
RTVSPost2010PropOp32
 70
     1
102
RTVSPost2010Prop33
280
     0
102
RTVSPost2010PropOp33
 70
     1
102
RTVSPost2010Prop34
280
     0
102
RTVSPost2010PropOp34
 70
     1
102
RTVSPost2010Prop35
280
     0
102
RTVSPost2010PropOp35
 70
     1
102
RTVSPost2010Prop36
280
     0
102
RTVSPost2010PropOp36
 70
     1
102
RTVSPost2010Prop37
 90
       50
102
RTVSPost2010PropOp37
 70
     1
102
RTVSPost2010Prop38
140
0.0
102
RTVSPost2010PropOp38
 70
     1
102
RTVSPost2010Prop39
140
1.0
102
RTVSPost2010PropOp39
 70
     1
102
RTVSPost2010Prop40
 90
        0
102
RTVSPost2010PropOp40
 70
     1
102
RTVSPost2010Prop41ColorIndex
 90
       18
102
RTVSPost2010Prop41ColorRGB
 90
        0
102
RTVSPost2010PropOp41
 70
     1
102
RTVSPost2010Prop42
 90
       50
102
RTVSPost2010PropOp42
 70
     1
102
RTVSPost2010Prop43
 90
        3
102
RTVSPost2010PropOp43
 70
     1
102
RTVSPost2010Prop44ColorIndex
 90
        5
102
RTVSPost2010Prop44ColorRGB
 90
      255
102
RTVSPost2010PropOp44
 70
     1
102
RTVSPost2010Prop45
280
     0
102
RTVSPost2010PropOp45
 70
     1
102
RTVSPost2010Prop46
 90
       50
102
RTVSPost2010PropOp46
 70
     1
102
RTVSPost2010Prop47
 90
       50
102
RTVSPost2010PropOp47
 70
     1
102
RTVSPost2010Prop48
 90
       50
102
RTVSPost2010PropOp48
 70
     1
102
RTVSPost2010Prop49
280
     0
102
RTVSPost2010PropOp49
 70
     1
102
RTVSPost2010Prop50
 90
       50
102
RTVSPost2010PropOp50
 70
     1
102
RTVSPost2010Prop51ColorIndex
 90
      256
102
RTVSPost2010Prop51ColorRGB
 90
-16777216
102
RTVSPost2010PropOp51
 70
     0
102
RTVSPost2010Prop52
140
1.0
102
RTVSPost2010PropOp52
 70
     0
102
RTVSPost2010Prop53
 90
        2
102
RTVSPost2010PropOp53
 70
     1
102
RTVSPost2010Prop54
  1
strokes_ogs.tif
102
RTVSPost2010PropOp54
 70
     1
102
RTVSPost2010Prop55
280
     0
102
RTVSPost2010PropOp55
 70
     1
102
RTVSPost2010Prop56
140
1.0
102
RTVSPost2010PropOp56
 70
     1
102
RTVSPost2010Prop57
140
1.0
102
RTVSPost2010PropOp57
 70
     1
  0
XRECORD
  5
3C6
102
{ACAD_REACTORS
330
3C5
102
}
330
3C5
100
AcDbXrecord
280
     1
102
RTVSPropertyOp0
 70
     1
102
RTVSPropertyOp1
 70
     1
102
RTVSPropertyOp2
 70
     1
102
RTVSPropertyOp3
 70
     1
102
RTVSPropertyOp4
 70
     1
102
RTVSPropertyOp5
 70
     1
102
RTVSPropertyOp6
 70
     1
102
RTVSPropertyOp7
 70
     1
102
RTVSPropertyOp8
 70
     1
102
RTVSPropertyOp9
 70
     1
102
RTVSPropertyOp10
 70
     1
102
RTVSPropertyOp11
 70
     1
102
RTVSPropertyOp12
 70
     1
102
RTVSPropertyOp13
 70
     1
102
RTVSPropertyOp14
 70
     1
102
RTVSPropertyOp15
 70
     1
102
RTVSPropertyOp16
 70
     1
102
RTVSPropertyOp17
 70
     1
102
RTVSPropertyOp18
 70
     1
102
RTVSPropertyOp19
 70
     1
102
RTVSPropertyOp20
 70
     1
102
RTVSPropertyOp21
 70
     1
102
RTVSPropertyOp22
 70
     1
102
RTVSPropertyOp23
 70
     1
102
RTVSPropertyOp24
 70
     1
102
RTVSPropertyOp25
 70
     1
102
RTVSPropertyOp26
 70
     1
102
RTVSPropertyOp27
 70
     1
102
RTVSPropertyOp28
 70
     1
102
RTVSPropertyOp29
 70
     1
102
RTVSPropertyOp30
 70
     1
102
RTVSPropertyOp31
 70
     1
102
RTVSPropertyOp32
 70
     1
102
RTVSPropertyOp33
 70
     1
102
RTVSPropertyOp34
 70
     1
102
RTVSPropertyOp35
 70
     1
102
RTVSPropertyOp36
 70
     1
102
RTVSPropertyOp37
 70
     1
102
RTVSPropertyOp38
 70
     1
102
RTVSPropertyOp39
 70
     1
102
RTVSPropertyOp40
 70
     1
102
RTVSPropertyOp41
 70
     1
102
RTVSPropertyOp42
 70
     1
102
RTVSPropertyOp43
 70
     1
102
RTVSPropertyOp44
 70
     1
102
RTVSPropertyOp45
 70
     1
102
RTVSPropertyOp46
 70
     1
102
RTVSPropertyOp47
 70
     1
102
RTVSPropertyOp48
 70
     1
102
RTVSPropertyOp49
 70
     1
102
RTVSPropertyOp50
 70
     1
102
RTVSPropertyOp51
 70
     0
102
RTVSPropertyOp52
 70
     0
102
RTVSPropertyOp53
 70
     1
102
RTVSPropertyOp54
 70
     1
102
RTVSPropertyOp55
 70
     1
102
RTVSPropertyOp56
 70
     1
102
RTVSPropertyOp57
 70
     1
102
RTVSPost2010Prop28
280
     0
102
RTVSPost2010PropOp28
 70
     1
102
RTVSPost2010Prop29
280
     1
102
RTVSPost2010PropOp29
 70
     1
102
RTVSPost2010Prop30
280
     1
102
RTVSPost2010PropOp30
 70
     1
102
RTVSPost2010Prop31
280
     0
102
RTVSPost2010PropOp31
 70
     1
102
RTVSPost2010Prop32
280
     0
102
RTVSPost2010PropOp32
 70
     1
102
RTVSPost2010Prop33
280
     0
102
RTVSPost2010PropOp33
 70
     1
102
RTVSPost2010Prop34
280
     0
102
RTVSPost2010PropOp34
 70
     1
102
RTVSPost2010Prop35
280
     0
102
RTVSPost2010PropOp35
 70
     1
102
RTVSPost2010Prop36
280
     0
102
RTVSPost2010PropOp36
 70
     1
102
RTVSPost2010Prop37
 90
       50
102
RTVSPost2010PropOp37
 70
     1
102
RTVSPost2010Prop38
140
0.0
102
RTVSPost2010PropOp38
 70
     1
102
RTVSPost2010Prop39
140
1.0
102
RTVSPost2010PropOp39
 70
     1
102
RTVSPost2010Prop40
 90
        0
102
RTVSPost2010PropOp40
 70
     1
102
RTVSPost2010Prop41ColorIndex
 90
       18
102
RTVSPost2010Prop41ColorRGB
 90
        0
102
RTVSPost2010PropOp41
 70
     1
102
RTVSPost2010Prop42
 90
       50
102
RTVSPost2010PropOp42
 70
     1
102
RTVSPost2010Prop43
 90
        3
102
RTVSPost2010PropOp43
 70
     1
102
RTVSPost2010Prop44ColorIndex
 90
        5
102
RTVSPost2010Prop44ColorRGB
 90
      255
102
RTVSPost2010PropOp44
 70
     1
102
RTVSPost2010Prop45
280
     0
102
RTVSPost2010PropOp45
 70
     1
102
RTVSPost2010Prop46
 90
       50
102
RTVSPost2010PropOp46
 70
     1
102
RTVSPost2010Prop47
 90
       50
102
RTVSPost2010PropOp47
 70
     1
102
RTVSPost2010Prop48
 90
       50
102
RTVSPost2010PropOp48
 70
     1
102
RTVSPost2010Prop49
280
     0
102
RTVSPost2010PropOp49
 70
     1
102
RTVSPost2010Prop50
 90
       50
102
RTVSPost2010PropOp50
 70
     1
102
RTVSPost2010Prop51ColorIndex
 90
      256
102
RTVSPost2010Prop51ColorRGB
 90
-16777216
102
RTVSPost2010PropOp51
 70
     0
102
RTVSPost2010Prop52
140
1.0
102
RTVSPost2010PropOp52
 70
     0
102
RTVSPost2010Prop53
 90
        2
102
RTVSPost2010PropOp53
 70
     1
102
RTVSPost2010Prop54
  1
strokes_ogs.tif
102
RTVSPost2010PropOp54
 70
     1
102
RTVSPost2010Prop55
280
     0
102
RTVSPost2010PropOp55
 70
     1
102
RTVSPost2010Prop56
140
1.0
102
RTVSPost2010PropOp56
 70
     1
102
RTVSPost2010Prop57
140
1.0
102
RTVSPost2010PropOp57
 70
     1
  0
XRECORD
  5
3B8
102
{ACAD_REACTORS
330
3B7
102
}
330
3B7
100
AcDbXrecord
280
     1
102
RTVSPropertyOp0
 70
     1
102
RTVSPropertyOp1
 70
     1
102
RTVSPropertyOp2
 70
     1
102
RTVSPropertyOp3
 70
     1
102
RTVSPropertyOp4
 70
     1
102
RTVSPropertyOp5
 70
     1
102
RTVSPropertyOp6
 70
     1
102
RTVSPropertyOp7
 70
     1
102
RTVSPropertyOp8
 70
     1
102
RTVSPropertyOp9
 70
     1
102
RTVSPropertyOp10
 70
     1
102
RTVSPropertyOp11
 70
     1
102
RTVSPropertyOp12
 70
     1
102
RTVSPropertyOp13
 70
     1
102
RTVSPropertyOp14
 70
     1
102
RTVSPropertyOp15
 70
     1
102
RTVSPropertyOp16
 70
     1
102
RTVSPropertyOp17
 70
     1
102
RTVSPropertyOp18
 70
     1
102
RTVSPropertyOp19
 70
     1
102
RTVSPropertyOp20
 70
     1
102
RTVSPropertyOp21
 70
     1
102
RTVSPropertyOp22
 70
     1
102
RTVSPropertyOp23
 70
     1
102
RTVSPropertyOp24
 70
     1
102
RTVSPropertyOp25
 70
     1
102
RTVSPropertyOp26
 70
     1
102
RTVSPropertyOp27
 70
     1
102
RTVSPropertyOp28
 70
     1
102
RTVSPropertyOp29
 70
     1
102
RTVSPropertyOp30
 70
     1
102
RTVSPropertyOp31
 70
     1
102
RTVSPropertyOp32
 70
     1
102
RTVSPropertyOp33
 70
     1
102
RTVSPropertyOp34
 70
     1
102
RTVSPropertyOp35
 70
     1
102
RTVSPropertyOp36
 70
     1
102
RTVSPropertyOp37
 70
     1
102
RTVSPropertyOp38
 70
     1
102
RTVSPropertyOp39
 70
     1
102
RTVSPropertyOp40
 70
     1
102
RTVSPropertyOp41
 70
     1
102
RTVSPropertyOp42
 70
     1
102
RTVSPropertyOp43
 70
     1
102
RTVSPropertyOp44
 70
     1
102
RTVSPropertyOp45
 70
     1
102
RTVSPropertyOp46
 70
     1
102
RTVSPropertyOp47
 70
     1
102
RTVSPropertyOp48
 70
     1
102
RTVSPropertyOp49
 70
     1
102
RTVSPropertyOp50
 70
     1
102
RTVSPropertyOp51
 70
     0
102
RTVSPropertyOp52
 70
     0
102
RTVSPropertyOp53
 70
     1
102
RTVSPropertyOp54
 70
     1
102
RTVSPropertyOp55
 70
     1
102
RTVSPropertyOp56
 70
     1
102
RTVSPropertyOp57
 70
     1
102
RTVSPost2010Prop28
280
     0
102
RTVSPost2010PropOp28
 70
     1
102
RTVSPost2010Prop29
280
     1
102
RTVSPost2010PropOp29
 70
     1
102
RTVSPost2010Prop30
280
     1
102
RTVSPost2010PropOp30
 70
     1
102
RTVSPost2010Prop31
280
     0
102
RTVSPost2010PropOp31
 70
     1
102
RTVSPost2010Prop32
280
     0
102
RTVSPost2010PropOp32
 70
     1
102
RTVSPost2010Prop33
280
     0
102
RTVSPost2010PropOp33
 70
     1
102
RTVSPost2010Prop34
280
     0
102
RTVSPost2010PropOp34
 70
     1
102
RTVSPost2010Prop35
280
     0
102
RTVSPost2010PropOp35
 70
     1
102
RTVSPost2010Prop36
280
     0
102
RTVSPost2010PropOp36
 70
     1
102
RTVSPost2010Prop37
 90
       50
102
RTVSPost2010PropOp37
 70
     1
102
RTVSPost2010Prop38
140
0.0
102
RTVSPost2010PropOp38
 70
     1
102
RTVSPost2010Prop39
140
1.0
102
RTVSPost2010PropOp39
 70
     1
102
RTVSPost2010Prop40
 90
        0
102
RTVSPost2010PropOp40
 70
     1
102
RTVSPost2010Prop41ColorIndex
 90
       18
102
RTVSPost2010Prop41ColorRGB
 90
        0
102
RTVSPost2010PropOp41
 70
     1
102
RTVSPost2010Prop42
 90
       50
102
RTVSPost2010PropOp42
 70
     1
102
RTVSPost2010Prop43
 90
        3
102
RTVSPost2010PropOp43
 70
     1
102
RTVSPost2010Prop44ColorIndex
 90
        5
102
RTVSPost2010Prop44ColorRGB
 90
      255
102
RTVSPost2010PropOp44
 70
     1
102
RTVSPost2010Prop45
280
     0
102
RTVSPost2010PropOp45
 70
     1
102
RTVSPost2010Prop46
 90
       50
102
RTVSPost2010PropOp46
 70
     1
102
RTVSPost2010Prop47
 90
       50
102
RTVSPost2010PropOp47
 70
     1
102
RTVSPost2010Prop48
 90
       50
102
RTVSPost2010PropOp48
 70
     1
102
RTVSPost2010Prop49
280
     0
102
RTVSPost2010PropOp49
 70
     1
102
RTVSPost2010Prop50
 90
       50
102
RTVSPost2010PropOp50
 70
     1
102
RTVSPost2010Prop51ColorIndex
 90
      256
102
RTVSPost2010Prop51ColorRGB
 90
-16777216
102
RTVSPost2010PropOp51
 70
     0
102
RTVSPost2010Prop52
140
1.0
102
RTVSPost2010PropOp52
 70
     0
102
RTVSPost2010Prop53
 90
        2
102
RTVSPost2010PropOp53
 70
     1
102
RTVSPost2010Prop54
  1
strokes_ogs.tif
102
RTVSPost2010PropOp54
 70
     1
102
RTVSPost2010Prop55
280
     0
102
RTVSPost2010PropOp55
 70
     1
102
RTVSPost2010Prop56
140
1.0
102
RTVSPost2010PropOp56
 70
     1
102
RTVSPost2010Prop57
140
1.0
102
RTVSPost2010PropOp57
 70
     1
  0
XRECORD
  5
3D8
102
{ACAD_REACTORS
330
3D7
102
}
330
3D7
100
AcDbXrecord
280
     1
102
RTVSPropertyOp0
 70
     1
102
RTVSPropertyOp1
 70
     1
102
RTVSPropertyOp2
 70
     1
102
RTVSPropertyOp3
 70
     1
102
RTVSPropertyOp4
 70
     1
102
RTVSPropertyOp5
 70
     1
102
RTVSPropertyOp6
 70
     1
102
RTVSPropertyOp7
 70
     1
102
RTVSPropertyOp8
 70
     1
102
RTVSPropertyOp9
 70
     1
102
RTVSPropertyOp10
 70
     1
102
RTVSPropertyOp11
 70
     1
102
RTVSPropertyOp12
 70
     1
102
RTVSPropertyOp13
 70
     1
102
RTVSPropertyOp14
 70
     1
102
RTVSPropertyOp15
 70
     1
102
RTVSPropertyOp16
 70
     1
102
RTVSPropertyOp17
 70
     1
102
RTVSPropertyOp18
 70
     1
102
RTVSPropertyOp19
 70
     1
102
RTVSPropertyOp20
 70
     1
102
RTVSPropertyOp21
 70
     1
102
RTVSPropertyOp22
 70
     1
102
RTVSPropertyOp23
 70
     1
102
RTVSPropertyOp24
 70
     1
102
RTVSPropertyOp25
 70
     1
102
RTVSPropertyOp26
 70
     1
102
RTVSPropertyOp27
 70
     1
102
RTVSPropertyOp28
 70
     1
102
RTVSPropertyOp29
 70
     1
102
RTVSPropertyOp30
 70
     1
102
RTVSPropertyOp31
 70
     1
102
RTVSPropertyOp32
 70
     1
102
RTVSPropertyOp33
 70
     1
102
RTVSPropertyOp34
 70
     1
102
RTVSPropertyOp35
 70
     1
102
RTVSPropertyOp36
 70
     1
102
RTVSPropertyOp37
 70
     1
102
RTVSPropertyOp38
 70
     1
102
RTVSPropertyOp39
 70
     1
102
RTVSPropertyOp40
 70
     1
102
RTVSPropertyOp41
 70
     1
102
RTVSPropertyOp42
 70
     1
102
RTVSPropertyOp43
 70
     1
102
RTVSPropertyOp44
 70
     1
102
RTVSPropertyOp45
 70
     1
102
RTVSPropertyOp46
 70
     1
102
RTVSPropertyOp47
 70
     1
102
RTVSPropertyOp48
 70
     1
102
RTVSPropertyOp49
 70
     1
102
RTVSPropertyOp50
 70
     1
102
RTVSPropertyOp51
 70
     0
102
RTVSPropertyOp52
 70
     0
102
RTVSPropertyOp53
 70
     1
102
RTVSPropertyOp54
 70
     1
102
RTVSPropertyOp55
 70
     1
102
RTVSPropertyOp56
 70
     1
102
RTVSPropertyOp57
 70
     1
102
RTVSPost2010Prop28
280
     0
102
RTVSPost2010PropOp28
 70
     1
102
RTVSPost2010Prop29
280
     1
102
RTVSPost2010PropOp29
 70
     1
102
RTVSPost2010Prop30
280
     1
102
RTVSPost2010PropOp30
 70
     1
102
RTVSPost2010Prop31
280
     0
102
RTVSPost2010PropOp31
 70
     1
102
RTVSPost2010Prop32
280
     0
102
RTVSPost2010PropOp32
 70
     1
102
RTVSPost2010Prop33
280
     0
102
RTVSPost2010PropOp33
 70
     1
102
RTVSPost2010Prop34
280
     0
102
RTVSPost2010PropOp34
 70
     1
102
RTVSPost2010Prop35
280
     0
102
RTVSPost2010PropOp35
 70
     1
102
RTVSPost2010Prop36
280
     0
102
RTVSPost2010PropOp36
 70
     1
102
RTVSPost2010Prop37
 90
       50
102
RTVSPost2010PropOp37
 70
     1
102
RTVSPost2010Prop38
140
0.0
102
RTVSPost2010PropOp38
 70
     1
102
RTVSPost2010Prop39
140
1.0
102
RTVSPost2010PropOp39
 70
     1
102
RTVSPost2010Prop40
 90
        0
102
RTVSPost2010PropOp40
 70
     1
102
RTVSPost2010Prop41ColorIndex
 90
       18
102
RTVSPost2010Prop41ColorRGB
 90
        0
102
RTVSPost2010PropOp41
 70
     1
102
RTVSPost2010Prop42
 90
       50
102
RTVSPost2010PropOp42
 70
     1
102
RTVSPost2010Prop43
 90
        3
102
RTVSPost2010PropOp43
 70
     1
102
RTVSPost2010Prop44ColorIndex
 90
        5
102
RTVSPost2010Prop44ColorRGB
 90
      255
102
RTVSPost2010PropOp44
 70
     1
102
RTVSPost2010Prop45
280
     0
102
RTVSPost2010PropOp45
 70
     1
102
RTVSPost2010Prop46
 90
       50
102
RTVSPost2010PropOp46
 70
     1
102
RTVSPost2010Prop47
 90
       50
102
RTVSPost2010PropOp47
 70
     1
102
RTVSPost2010Prop48
 90
       50
102
RTVSPost2010PropOp48
 70
     1
102
RTVSPost2010Prop49
280
     0
102
RTVSPost2010PropOp49
 70
     1
102
RTVSPost2010Prop50
 90
       50
102
RTVSPost2010PropOp50
 70
     1
102
RTVSPost2010Prop51ColorIndex
 90
      256
102
RTVSPost2010Prop51ColorRGB
 90
-16777216
102
RTVSPost2010PropOp51
 70
     0
102
RTVSPost2010Prop52
140
1.0
102
RTVSPost2010PropOp52
 70
     0
102
RTVSPost2010Prop53
 90
        2
102
RTVSPost2010PropOp53
 70
     1
102
RTVSPost2010Prop54
  1
strokes_ogs.tif
102
RTVSPost2010PropOp54
 70
     1
102
RTVSPost2010Prop55
280
     0
102
RTVSPost2010PropOp55
 70
     1
102
RTVSPost2010Prop56
140
1.0
102
RTVSPost2010PropOp56
 70
     1
102
RTVSPost2010Prop57
140
1.0
102
RTVSPost2010PropOp57
 70
     1
  0
ENDSEC
  0
EOF
